  0
SECTION
  2
HEADER
  9
$ACADVER
  1
AC1006
  9
$INSBASE
 10
0.0
 20
0.0
 30
0.0
  9
$EXTMIN
 10
-356.79848939894941
 20
-25.138997357490553
  9
$EXTMAX
 10
876.33990886161223
 20
1150.3445305622461
  9
$LIMMIN
 10
-356.79848939894941
 20
-25.138997357490553
  9
$LIMMAX
 10
876.33990886161223
 20
1150.3445305622461
  9
$ORTHOMODE
 70
     0
  9
$REGENMODE
 70
     1
  9
$FILLMODE
 70
     1
  9
$QTEXTMODE
 70
     0
  9
$MIRRTEXT
 70
     1
  9
$DRAGMODE
 70
     2
  9
$LTSCALE
 40
1.0
  9
$OSMODE
 70
     0
  9
$ATTMODE
 70
     1
  9
$TEXTSIZE
 40
3.0
  9
$TRACEWID
 40
0.5
  9
$TEXTSTYLE
  7
STANDARD
  9
$CLAYER
  8
0
  9
$CELTYPE
  6
BYLAYER
  9
$CECOLOR
 62
   256
  9
$DIMSCALE
 40
1.0
  9
$DIMASZ
 40
3.0
  9
$DIMEXO
 40
1.0
  9
$DIMDLI
 40
5.0
  9
$DIMRND
 40
0.0
  9
$DIMDLE
 40
0.0
  9
$DIMEXE
 40
1.5
  9
$DIMTP
 40
0.0
  9
$DIMTM
 40
0.0
  9
$DIMTXT
 40
3.0
  9
$DIMCEN
 40
2.0
  9
$DIMTSZ
 40
0.0
  9
$DIMTOL
 70
     0
  9
$DIMLIM
 70
     0
  9
$DIMTIH
 70
     0
  9
$DIMTOH
 70
     0
  9
$DIMSE1
 70
     0
  9
$DIMSE2
 70
     0
  9
$DIMTAD
 70
     1
  9
$DIMZIN
 70
     8
  9
$DIMBLK
  1

  9
$DIMASO
 70
     1
  9
$DIMSHO
 70
     0
  9
$DIMPOST
  1

  9
$DIMAPOST
  1

  9
$DIMALT
 70
     0
  9
$DIMALTD
 70
     0
  9
$DIMALTF
 40
25.399999999999999
  9
$DIMLFAC
 40
1.0
  9
$DIMTOFL
 70
     0
  9
$DIMTVP
 40
1.0
  9
$DIMTIX
 70
     0
  9
$DIMSOXD
 70
     0
  9
$DIMSAH
 70
     0
  9
$DIMBLK1
  1

  9
$DIMBLK2
  1

  9
$LUNITS
 70
     2
  9
$LUPREC
 70
     4
  9
$AXISMODE
 70
     0
  9
$AXISUNIT
 10
0.0
 20
0.0
  9
$SKETCHINC
 40
1.0
  9
$FILLETRAD
 40
0.0
  9
$AUNITS
 70
     0
  9
$AUPREC
 70
     0
  9
$MENU
  1
acad
  9
$ELEVATION
 40
0.0
  9
$THICKNESS
 40
0.0
  9
$LIMCHECK
 70
     0
  9
$BLIPMODE
 70
     1
  9
$CHAMFERA
 40
0.0
  9
$CHAMFERB
 40
0.0
  9
$SKPOLY
 70
     0
  9
$TDCREATE
 40
2452543.3904976854
  9
$TDUPDATE
 40
2452543.3904976854
  9
$TDINDWG
 40
0.0
  9
$TDUSRTIMER
 40
0.0
  9
$USRTIMER
 70
     1
  9
$ANGBASE
 50
0.0
  9
$ANGDIR
 70
     0
  9
$PDMODE
 70
     0
  9
$PDSIZE
 40
0.0
  9
$PLINEWID
 40
0.0
  9
$COORDS
 70
     0
  9
$SPLFRAME
 70
     0
  9
$SPLINETYPE
 70
     6
  9
$SPLINESEGS
 70
     8
  9
$ATTDIA
 70
     0
  9
$ATTREQ
 70
     1
  9
$HANDLING
 70
     0
  9
$HANDSEED
  5
0
  9
$SURFTAB1
 70
     6
  9
$SURFTAB2
 70
     6
  9
$SURFTYPE
 70
     6
  9
$SURFU
 70
     6
  9
$SURFV
 70
     6
  9
$FLATLAND
 70
     0
  9
$UCSNAME
  2

  9
$UCSORG
 10
0.0
 20
0.0
 30
0.0
  9
$UCSXDIR
 10
1.0
 20
0.0
 30
0.0
  9
$UCSYDIR
 10
0.0
 20
1.0
 30
0.0
  9
$USERI1
 70
     0
  9
$USERI2
 70
     0
  9
$USERI3
 70
     0
  9
$USERI4
 70
     0
  9
$USERI5
 70
     0
  9
$USERR1
 40
0.0
  9
$USERR2
 40
0.0
  9
$USERR3
 40
0.0
  9
$USERR4
 40
0.0
  9
$USERR5
 40
0.0
  9
$WORLDVIEW
 70
     1
  0
ENDSEC
  0
SECTION
  2
TABLES
  0
TABLE
  2
VPORT
 70
     1
  0
VPORT
  2
*ACTIVE
 70
     0
 10
0.0
 20
0.0
 11
1.0
 21
1.0
 12
259.77070973133141
 22
562.60276660237776
 13
0.0
 23
0.0
 14
0.0
 24
0.0
 15
0.0
 25
0.0
 16
0.0
 26
0.0
 36
1.0
 17
0.0
 27
0.0
 37
0.0
 40
1175.4835279197366
 41
1.5
 42
50.0
 43
0.0
 44
0.0
 50
0.0
 51
0.0
 71
     0
 72
   100
 73
     1
 74
     1
 75
     0
 76
     0
 77
     0
 78
     0
  0
ENDTAB
  0
TABLE
  2
LTYPE
 70
    20
  0
LTYPE
  2
CONTINUOUS
 70
    64
  3
solid line
 72
    65
 73
     0
 40
0.0
  0
LTYPE
  2
CENTER
 70
    64
  3
--- - --- - --- - --- - --- -
 72
    65
 73
     4
 40
6.0
 49
3.0
 49
-1.0
 49
1.0
 49
-1.0
  0
LTYPE
  2
PHANTOM
 70
    64
  3
----- - - ----- - - ----- - -
 72
    65
 73
     6
 40
12.0
 49
7.0
 49
-1.0
 49
1.0
 49
-1.0
 49
1.0
 49
-1.0
  0
ENDTAB
  0
TABLE
  2
LAYER
 70
    20
  0
LAYER
  2
0
 70
    64
 62
     7
  6
CONTINUOUS
  0
LAYER
  2
15
 70
    64
 62
     7
  6
CONTINUOUS
  0
ENDTAB
  0
TABLE
  2
STYLE
 70
     4
  0
ENDTAB
  0
TABLE
  2
VIEW
 70
     0
  0
ENDTAB
  0
TABLE
  2
UCS
 70
     0
  0
ENDTAB
  0
TABLE
  2
DWGMGR
 70
     0
  0
ENDTAB
  0
ENDSEC
  0
SECTION
  2
BLOCKS
  0
BLOCK
  8
15
  2
SUB1
 70
    64
 10
0.0
 20
0.0
  0
LINE
  8
15
  6
CONTINUOUS
 62
     3
 10
38.5
 20
0.0
 11
38.5
 21
18.100000000000023
  0
LINE
  8
15
  6
CONTINUOUS
 62
     3
 10
-38.5
 20
0.0
 11
-38.5
 21
18.100000000000023
  0
LINE
  8
15
  6
CONTINUOUS
 62
     3
 10
-144.5
 20
95.100000000000023
 11
144.5
 21
95.100000000000023
  0
LINE
  8
15
  6
CONTINUOUS
 62
     3
 10
7.5
 20
3.1000000000000227
 11
7.5
 21
8.1000000000000227
  0
LINE
  8
15
  6
CONTINUOUS
 62
     3
 10
-7.5
 20
3.1000000000000227
 11
-7.5
 21
8.1000000000000227
  0
LINE
  8
15
  6
CONTINUOUS
 62
     3
 10
-7.5
 20
8.1000000000000227
 11
7.5
 21
8.1000000000000227
  0
LINE
  8
15
  6
CONTINUOUS
 62
     3
 10
-144.5
 20
79.100000000000023
 11
144.5
 21
79.100000000000023
  0
LINE
  8
15
  6
CONTINUOUS
 62
     3
 10
138.13267807925081
 20
79.100000000000023
 11
38.5
 21
10.826447858986512
  0
LINE
  8
15
  6
CONTINUOUS
 62
     3
 10
127.5182680151388
 20
79.100000000000023
 11
38.5
 21
18.100000000000023
  0
LINE
  8
15
  6
CONTINUOUS
 62
     3
 10
-138.13267807925104
 20
79.100000000000023
 11
-38.5
 21
10.826447858986512
  0
LINE
  8
15
  6
CONTINUOUS
 62
     3
 10
-127.51826801513903
 20
79.100000000000023
 11
-38.5
 21
18.100000000000023
  0
ARC
  8
15
  6
CONTINUOUS
 62
     3
 10
144.5
 20
87.100000000000023
 40
8.0
 50
270.0
 51
90.0
  0
LINE
  8
15
  6
CONTINUOUS
 62
     3
 10
-11.25
 20
190.60000000000002
 11
11.25
 21
190.60000000000002
  0
ARC
  8
15
  6
CONTINUOUS
 62
     3
 10
0.0
 20
177.85490290346911
 40
17.0
 50
131.43459855974726
 51
180.0
  0
LINE
  8
15
  6
CONTINUOUS
 62
     3
 10
-17.0
 20
177.85490290346911
 11
-12.075487543819918
 21
121.33603092815861
  0
LINE
  8
15
  6
CONTINUOUS
 62
     3
 10
-8.0
 20
97.600000000000023
 11
8.0
 21
97.600000000000023
  0
LINE
  8
15
  6
CONTINUOUS
 62
     3
 10
10.0
 20
99.600000000000023
 11
8.0
 21
97.600000000000023
  0
LINE
  8
15
  6
CONTINUOUS
 62
     3
 10
11.75
 20
99.600000000000023
 11
12.0
 21
119.60000000000002
  0
LINE
  8
15
  6
CONTINUOUS
 62
     3
 10
17.0
 20
177.85490290346911
 11
12.07548754381969
 21
121.33603092815861
  0
ARC
  8
15
  6
CONTINUOUS
 62
     3
 10
0.0
 20
177.85490290346911
 40
17.0
 50
0.0
 51
48.565401440252757
  0
ARC
  8
15
  6
CONTINUOUS
 62
     3
 10
32.0
 20
119.60000000000002
 40
20.0
 50
175.02037115859423
 51
180.0
  0
LINE
  8
15
  6
CONTINUOUS
 62
     3
 10
-11.75
 20
99.600000000000023
 11
11.75
 21
99.600000000000023
  0
LINE
  8
15
  6
CONTINUOUS
 62
     3
 10
-10.0
 20
99.600000000000023
 11
-8.0
 21
97.600000000000023
  0
LINE
  8
15
  6
CONTINUOUS
 62
     3
 10
-11.75
 20
99.600000000000023
 11
-10.0
 21
99.600000000000023
  0
LINE
  8
15
  6
CONTINUOUS
 62
     3
 10
-11.75
 20
99.600000000000023
 11
-12.0
 21
119.60000000000002
  0
ARC
  8
15
  6
CONTINUOUS
 62
     3
 10
-32.0
 20
119.60000000000002
 40
20.0
 50
0.0
 51
4.9796288414058285
  0
LINE
  8
15
  6
CONTINUOUS
 62
     3
 10
-12.5
 20
10.826447858986512
 11
12.5
 21
10.826447858986512
  0
LINE
  8
15
  6
CONTINUOUS
 62
     3
 10
12.5
 20
10.826447858986512
 11
12.5
 21
79.100000000000023
  0
LINE
  8
15
  6
CONTINUOUS
 62
     3
 10
-12.5
 20
10.826447858986512
 11
-12.5
 21
79.100000000000023
  0
LINE
  8
15
  6
CONTINUOUS
 62
     3
 10
-38.5
 20
18.100000000000023
 11
-12.5
 21
18.100000000000023
  0
LINE
  8
15
  6
CONTINUOUS
 62
     3
 10
12.5
 20
18.100000000000023
 11
38.5
 21
18.100000000000023
  0
LINE
  8
15
  6
CONTINUOUS
 62
     3
 10
5.0
 20
95.100000000000023
 11
5.0
 21
97.600000000000023
  0
LINE
  8
15
  6
CONTINUOUS
 62
     3
 10
-5.0
 20
95.100000000000023
 11
-5.0
 21
97.600000000000023
  0
ARC
  8
15
  6
CONTINUOUS
 62
     3
 10
-144.5
 20
87.100000000000023
 40
8.0
 50
90.0
 51
270.0
  0
LINE
  8
15
  6
CONTINUOUS
 62
     3
 10
-38.5
 20
3.1000000000000227
 11
38.5
 21
3.1000000000000227
  0
LINE
  8
15
  6
CONTINUOUS
 62
     3
 10
-38.5
 20
0.0
 11
38.5
 21
0.0
  0
ENDBLK
  8
15
  0
BLOCK
  8
15
  2
SUB2
 70
    64
 10
0.0
 20
0.0
  0
ARC
  8
15
  6
CONTINUOUS
 62
     3
 10
20.200000000000045
 20
20.200000000000045
 40
7.9999999999999991
 50
314.99999999999886
 51
136.10332978698671
  0
ARC
  8
15
  6
CONTINUOUS
 62
     3
 10
20.200000000000045
 20
-20.200000000000045
 40
8.0000000000000071
 50
225.0
 51
45.000000000001151
  0
ARC
  8
15
  6
CONTINUOUS
 62
     3
 10
-20.200000000000045
 20
-20.200000000000045
 40
7.9999999999999982
 50
134.99850854012297
 51
315.0
  0
ARC
  8
15
  6
CONTINUOUS
 62
     3
 10
-20.200000000000045
 20
20.200000000000045
 40
8.0000000000000018
 50
45.0
 51
225.0
  0
LINE
  8
15
  6
CONTINUOUS
 62
     3
 10
-28.200000000000045
 20
20.200000000000045
 11
-28.200000000000045
 21
-20.200000000000045
  0
LINE
  8
15
  6
CONTINUOUS
 62
     3
 10
-20.200000000000045
 20
-28.200000000000045
 11
20.200000000000045
 21
-28.200000000000045
  0
LINE
  8
15
  6
CONTINUOUS
 62
     3
 10
28.200000000000045
 20
-20.200000000000045
 11
28.200000000000045
 21
20.200000000000045
  0
LINE
  8
15
  6
CONTINUOUS
 62
     3
 10
20.200000000000045
 20
28.200000000000045
 11
10.190199457749031
 21
28.200000000000045
  0
ARC
  8
15
  6
CONTINUOUS
 62
     3
 10
-4.5999999999999091
 20
49.700000000000045
 40
25.0
 50
239.31658289102421
 51
296.62747839297418
  0
ARC
  8
15
  6
CONTINUOUS
 62
     3
 10
10.190199457749031
 20
20.200000000000045
 40
8.0
 50
90.0
 51
116.62747839297532
  0
LINE
  8
15
  6
CONTINUOUS
 62
     3
 10
-20.200000000000045
 20
28.200000000000045
 11
-17.357350822172975
 21
28.200000000000045
  0
CIRCLE
  8
15
  6
CONTINUOUS
 62
     3
 10
0.0
 20
0.0
 40
15.707454972294951
  0
ARC
  8
15
  6
CONTINUOUS
 62
     3
 10
-19.185554460661706
 20
-4.3367513920372858
 40
2.5000000000000027
 50
314.99850854012323
 51
12.737225448930642
  0
ARC
  8
15
  6
CONTINUOUS
 62
     3
 10
-19.185635457176659
 20
4.3363930522591545
 40
2.4999999999999973
 50
347.26384469546286
 51
44.999999999996319
  0
ARC
  8
15
  6
CONTINUOUS
 62
     3
 10
-4.3363930522591545
 20
19.185635457176659
 40
2.5
 50
225.00000000000367
 51
282.73615530453719
  0
ARC
  8
15
  6
CONTINUOUS
 62
     3
 10
4.3377502201024072
 20
19.185328655703415
 40
2.5000000000000018
 50
257.25979163131967
 51
314.99850854012686
  0
ARC
  8
15
  6
CONTINUOUS
 62
     3
 10
19.185635457176431
 20
4.3363930522591545
 40
2.4999999999999991
 50
135.0
 51
192.7361553045383
  0
ARC
  8
15
  6
CONTINUOUS
 62
     3
 10
19.185635457176659
 20
-4.3363930522591545
 40
2.5
 50
167.26384469546284
 51
224.99999999999631
  0
ARC
  8
15
  6
CONTINUOUS
 62
     3
 10
4.3363930522591545
 20
-19.185635457176659
 40
2.5000000000000027
 50
45.000000000003688
 51
102.73615530453716
  0
ARC
  8
15
  6
CONTINUOUS
 62
     3
 10
-4.3363930522591545
 20
-19.185635457176659
 40
2.5
 50
77.263844695462836
 51
134.99999999999633
  0
LINE
  8
15
  6
CONTINUOUS
 62
     3
 10
-14.54314575050762
 20
25.856854249492471
 11
-6.1041600052253671
 21
17.417868504210219
  0
LINE
  8
15
  6
CONTINUOUS
 62
     3
 10
17.417868504210219
 20
-6.1041600052253671
 11
25.856854249492244
 21
-14.54314575050762
  0
LINE
  8
15
  6
CONTINUOUS
 62
     3
 10
-25.856854249492471
 20
14.54314575050762
 11
-17.417868504210219
 21
6.1041600052253671
  0
LINE
  8
15
  6
CONTINUOUS
 62
     3
 10
6.1041600052253671
 20
-17.417868504210219
 11
14.54314575050762
 21
-25.856854249492471
  0
LINE
  8
15
  6
CONTINUOUS
 62
     3
 10
25.856854249492244
 20
14.54314575050762
 11
17.417868504210219
 21
6.1041600052253671
  0
LINE
  8
15
  6
CONTINUOUS
 62
     3
 10
-6.1041600052253671
 20
-17.417868504210219
 11
-14.54314575050762
 21
-25.856854249492471
  0
LINE
  8
15
  6
CONTINUOUS
 62
     3
 10
14.435268735774116
 20
25.746879613914189
 11
6.1054711559308998
 21
17.417515686796833
  0
LINE
  8
15
  6
CONTINUOUS
 62
     3
 10
-17.417833524833441
 20
-6.1045643609438685
 11
-25.856706994650494
 21
-14.542998499498935
  0
ARC
  8
15
  6
CONTINUOUS
 62
     3
 10
0.0
 20
0.0
 40
18.794192086507554
 50
74.540234936184973
 51
105.455973729993
  0
ARC
  8
15
  6
CONTINUOUS
 62
     3
 10
0.0
 20
0.0
 40
18.794192086507557
 50
164.54402627000701
 51
195.45678214406252
  0
ARC
  8
15
  6
CONTINUOUS
 62
     3
 10
0.0
 20
0.0
 40
18.794192086507554
 50
254.54402627000701
 51
285.45597372999237
  0
ARC
  8
15
  6
CONTINUOUS
 62
     3
 10
0.0
 20
0.0
 40
18.794192086507547
 50
344.54402627000701
 51
15.455973729992339
  0
ARC
  8
15
  6
CONTINUOUS
 62
     3
 10
0.0
 20
0.0
 40
17.169593605343032
 50
20.939724231477541
 51
69.056066700285271
  0
ARC
  8
15
  6
CONTINUOUS
 62
     3
 10
0.0
 20
0.0
 40
17.169593605343035
 50
110.93972423147754
 51
159.06027576852247
  0
ARC
  8
15
  6
CONTINUOUS
 62
     3
 10
0.0
 20
0.0
 40
17.169593605343028
 50
200.94095037996271
 51
249.06027576852244
  0
ARC
  8
15
  6
CONTINUOUS
 62
     3
 10
0.0
 20
0.0
 40
17.169593605343028
 50
290.93972423147756
 51
339.06027576852244
  0
ARC
  8
15
  6
CONTINUOUS
 62
     3
 10
5.674856203473837
 20
-20.524098608391341
 40
2.5000000000000013
 50
44.999999999996319
 51
105.4559737299942
  0
ARC
  8
15
  6
CONTINUOUS
 62
     3
 10
20.524098608391341
 20
-5.674856203473837
 40
2.4999999999999996
 50
164.54402627001085
 51
225.00000000000367
  0
ARC
  8
15
  6
CONTINUOUS
 62
     3
 10
20.524098608391341
 20
5.674856203473837
 40
2.4999999999999982
 50
134.99999999999633
 51
195.45597372999418
  0
ARC
  8
15
  6
CONTINUOUS
 62
     3
 10
5.6762142964780651
 20
20.52372305108247
 40
2.5000000000000022
 50
254.54023493618399
 51
314.99850854012323
  0
ARC
  8
15
  6
CONTINUOUS
 62
     3
 10
-5.674856203473837
 20
20.524098608391341
 40
2.5000000000000013
 50
224.99999999999631
 51
285.45597372998918
  0
ARC
  8
15
  6
CONTINUOUS
 62
     3
 10
-20.524098608391341
 20
5.674856203473837
 40
2.4999999999999996
 50
344.54402627001082
 51
45.000000000003688
  0
ARC
  8
15
  6
CONTINUOUS
 62
     3
 10
-20.524018537037364
 20
-5.6751457874163407
 40
2.4999999999999978
 50
314.99850854012323
 51
15.456782144060314
  0
ARC
  8
15
  6
CONTINUOUS
 62
     3
 10
-5.674856203473837
 20
-20.524098608391341
 40
2.5000000000000009
 50
74.544026270010832
 51
135.00000000000369
  0
ENDBLK
  8
15
  0
BLOCK
  8
15
  2
SUB3
 70
    64
 10
0.0
 20
0.0
  0
LINE
  8
15
  6
CONTINUOUS
 62
     3
 10
180.00000000000011
 20
56.699999999999932
 11
189.00000000000011
 21
56.699999999999932
  0
LINE
  8
15
  6
CONTINUOUS
 62
     3
 10
180.00000000000011
 20
-209.09999999999991
 11
189.00000000000011
 21
-209.10000000000014
  0
LINE
  8
15
  6
CONTINUOUS
 62
     3
 10
189.00000000000011
 20
-209.10000000000014
 11
189.00000000000011
 21
56.699999999999932
  0
LINE
  8
15
  6
CONTINUOUS
 62
     3
 10
0.0
 20
-169.40000000000009
 11
0.0
 21
17.0
  0
LINE
  8
15
  6
CONTINUOUS
 62
     3
 10
180.00000000000011
 20
-209.09999999999991
 11
180.00000000000011
 21
56.699999999999932
  0
LINE
  8
15
  6
CONTINUOUS
 62
     3
 10
10.0
 20
27.0
 11
180.00000000000011
 21
27.0
  0
LINE
  8
15
  6
CONTINUOUS
 62
     3
 10
10.0
 20
-179.40000000000009
 11
180.00000000000011
 21
-179.40000000000009
  0
ARC
  8
15
  6
CONTINUOUS
 62
     3
 10
10.0
 20
17.0
 40
10.0
 50
90.0
 51
180.0
  0
ARC
  8
15
  6
CONTINUOUS
 62
     3
 10
10.0
 20
-169.40000000000009
 40
10.0
 50
180.0
 51
270.0
  0
ENDBLK
  8
15
  0
BLOCK
  8
15
  2
SUB4
 70
    64
 10
0.0
 20
0.0
  0
LINE
  8
15
  6
CONTINUOUS
 62
     3
 10
-62.5
 20
-10.5
 11
62.5
 21
-10.5
  0
LINE
  8
15
  6
CONTINUOUS
 62
     3
 10
-34.990000000000009
 20
-66.5
 11
34.990000000000009
 21
-66.5
  0
LINE
  8
15
  6
CONTINUOUS
 62
     3
 10
-62.5
 20
0.0
 11
62.5
 21
0.0
  0
LINE
  8
15
  6
CONTINUOUS
 62
     3
 10
-62.5
 20
-61.5
 11
62.5
 21
-61.5
  0
LINE
  8
15
  6
CONTINUOUS
 62
     3
 10
62.5
 20
-61.5
 11
62.5
 21
0.0
  0
LINE
  8
15
  6
CONTINUOUS
 62
     3
 10
-62.5
 20
-61.5
 11
-62.5
 21
0.0
  0
LINE
  8
15
  6
CONTINUOUS
 62
     3
 10
-34.990000000000009
 20
-66.5
 11
-34.990000000000009
 21
-61.5
  0
LINE
  8
15
  6
CONTINUOUS
 62
     3
 10
34.990000000000009
 20
-66.5
 11
34.990000000000009
 21
-61.5
  0
LINE
  8
15
  6
CENTER
 62
     3
 10
0.0
 20
-3.41182541847229
 11
0.0
 21
3.4989242553710937
  0
ENDBLK
  8
15
  0
BLOCK
  8
15
  2
SUB5
 70
    64
 10
0.0
 20
0.0
  0
LINE
  8
15
  6
CONTINUOUS
 62
     3
 10
-9.2630988335436086
 20
9.263098833543836
 11
23.193102422918855
 21
41.719300090006413
  0
LINE
  8
15
  6
CONTINUOUS
 62
     3
 10
33.79970414071704
 20
52.325901807804598
 11
89.826584878063841
 21
108.35278254515129
  0
LINE
  8
15
  6
CONTINUOUS
 62
     3
 10
102.31427026570054
 20
105.57512340314452
 11
109.67226176203349
 21
98.21713190681146
  0
ARC
  8
15
  6
CONTINUOUS
 62
     3
 10
106.13672785610083
 20
94.681598000878694
 40
5.0
 50
315.0
 51
45.000000000000924
  0
LINE
  8
15
  6
CONTINUOUS
 62
     3
 10
17.819090885901005
 20
4.9497474683058726
 11
103.30830073135462
 21
90.438957313759488
  0
LINE
  8
15
  6
CONTINUOUS
 62
     3
 10
100.55058428472717
 20
102.38906191581214
 11
106.13672785610083
 21
96.802918344438467
  0
LINE
  8
15
  6
CONTINUOUS
 62
     3
 10
97.015050378794513
 20
98.853528009879483
 11
103.30830073135485
 21
92.560277657319148
  0
ARC
  8
15
  6
CONTINUOUS
 62
     3
 10
102.24764055957485
 20
91.499617485539261
 40
1.5
 50
315.0
 51
44.99999999999693
  0
ARC
  8
15
  6
CONTINUOUS
 62
     3
 10
101.54053377838818
 20
92.206724266725814
 40
6.5
 50
315.00000000000068
 51
45.0
  0
LINE
  8
15
  6
CONTINUOUS
 62
     3
 10
95.503746320651771
 20
98.756437514109962
 11
95.600836816421179
 21
98.853528009879483
  0
LINE
  8
15
  6
CONTINUOUS
 62
     3
 10
100.55058428472717
 20
103.80327547818524
 11
100.64767478049657
 21
103.90036597395465
  0
LINE
  8
15
  6
CONTINUOUS
 62
     3
 10
101.64183866157464
 20
105.96335197079827
 11
91.275473617497255
 21
108.74101111280504
  0
LINE
  8
15
  6
CONTINUOUS
 62
     3
 10
92.994197409438584
 20
99.42886911823598
 11
91.111388917885506
 21
106.45560606963363
  0
ARC
  8
15
  6
CONTINUOUS
 62
     3
 10
90.887245049843386
 20
107.2921223733714
 40
1.4999999999999964
 50
74.999999999997158
 51
134.99999999999079
  0
ARC
  8
15
  6
CONTINUOUS
 62
     3
 10
101.25361009392077
 20
104.51446323136474
 40
1.5000000000000036
 50
45.0
 51
74.999999999996035
  0
ARC
  8
15
  6
CONTINUOUS
 62
     3
 10
92.560277657319148
 20
106.84383463728739
 40
1.5000000000000018
 50
75.000000000004434
 51
194.99999999999864
  0
ARC
  8
15
  6
CONTINUOUS
 62
     3
 10
94.443086148871998
 20
99.817097685889848
 40
1.5000000000000002
 50
195.00000000000509
 51
314.99999999999693
  0
ARC
  8
15
  6
CONTINUOUS
 62
     3
 10
99.5870146087168
 20
104.96102614573442
 40
1.5
 50
315.0
 51
75.000000000005556
  0
ARC
  8
15
  6
CONTINUOUS
 62
     3
 10
101.2576910659136
 20
103.09616869699869
 40
1.0
 50
134.9999999999954
 51
225.0000000000046
  0
ARC
  8
15
  6
CONTINUOUS
 62
     3
 10
96.307943597607846
 20
98.146421228692816
 40
1.0
 50
45.0
 51
135.0
  0
LINE
  8
15
  6
CONTINUOUS
 62
     3
 10
9.263098833543836
 20
-9.2630988335437223
 11
109.67226176203349
 21
91.146064094946041
  0
ARC
  8
15
  6
CONTINUOUS
 62
     3
 10
0.0
 20
0.0
 40
13.100000000000023
 50
134.99999999999929
 51
315.00000000000034
  0
LINE
  8
15
  6
CONTINUOUS
 62
     3
 10
5.6568542494924259
 20
12.869343417595246
 11
13.576450198781913
 21
4.9497474683058726
  0
LINE
  8
15
  6
CONTINUOUS
 62
     3
 10
5.6568542494924259
 20
17.111984104714566
 11
26.728636328851508
 21
38.183766184073647
  0
ARC
  8
15
  6
CONTINUOUS
 62
     3
 10
15.697770542341459
 20
7.0710678118655323
 40
3.0
 50
225.00000000000153
 51
314.99999999999847
  0
ARC
  8
15
  6
CONTINUOUS
 62
     3
 10
7.7781745930519719
 20
14.990663761154906
 40
3.0
 50
134.99999999999847
 51
225.00000000000153
  0
ARC
  8
15
  6
CONTINUOUS
 62
     3
 10
32.739043968937267
 20
42.779960261786186
 40
6.5
 50
315.00000000000068
 51
44.999999999999289
  0
ARC
  8
15
  6
CONTINUOUS
 62
     3
 10
32.739043968937267
 20
42.779960261786186
 40
6.4999999999999929
 50
224.99999999999929
 51
315.00000000000068
  0
ARC
  8
15
  6
CONTINUOUS
 62
     3
 10
32.739043968937267
 20
42.779960261786186
 40
7.9999999999999964
 50
106.04497562814092
 51
163.95502437185988
  0
LINE
  8
15
  6
CONTINUOUS
 62
     3
 10
33.79970414071704
 20
50.911688245431492
 11
37.33523804664992
 21
47.376154339498726
  0
LINE
  8
15
  6
CONTINUOUS
 62
     3
 10
24.607315985291962
 20
41.719300090006413
 11
28.142849891224614
 21
38.183766184073647
  0
ARC
  8
15
  6
CONTINUOUS
 62
     3
 10
34.506810921903707
 20
51.618795026618045
 40
1.0
 50
135.0000000000046
 51
224.9999999999954
  0
ARC
  8
15
  6
CONTINUOUS
 62
     3
 10
23.900209204105522
 20
41.01219330881986
 40
1.0
 50
45.000000000004604
 51
135.0000000000046
  0
ARC
  8
15
  6
CONTINUOUS
 62
     3
 10
26.021529547665068
 20
38.890872965260201
 40
1.0
 50
314.9999999999954
 51
45.000000000004604
  0
ARC
  8
15
  6
CONTINUOUS
 62
     3
 10
28.316774607377283
 20
58.156680773449466
 40
8.0
 50
286.04497562813935
 51
315.00000000000057
  0
ARC
  8
15
  6
CONTINUOUS
 62
     3
 10
17.36232345727376
 20
47.202229623346284
 40
8.0
 50
315.0
 51
343.95502437185957
  0
CIRCLE
  8
15
  6
CONTINUOUS
 62
     3
 10
32.739043968937267
 20
42.779960261786186
 40
3.6000000000000001
  0
ARC
  8
15
  6
CONTINUOUS
 62
     3
 10
0.0
 20
0.0
 40
14.25
 50
111.82370490170216
 51
338.17629509829777
  0
LINE
  8
15
  6
CONTINUOUS
 62
     3
 10
-27.599999999999909
 20
29.100000000000023
 11
-27.599999999999909
 21
-2.5
  0
LINE
  8
15
  6
CONTINUOUS
 62
     3
 10
45.700000000000045
 20
27.173802332912487
 11
45.700000000000045
 21
-2.5
  0
LINE
  8
15
  6
CONTINUOUS
 62
     3
 10
-19.599999999999909
 20
37.100000000000023
 11
18.100000000000136
 21
37.100000000000023
  0
ARC
  8
15
  6
CONTINUOUS
 62
     3
 10
-19.599999999999909
 20
29.100000000000023
 40
8.0
 50
90.0
 51
180.0
  0
ARC
  8
15
  6
CONTINUOUS
 62
     3
 10
-19.599999999999909
 20
-2.5
 40
8.0
 50
180.0
 51
270.0
  0
LINE
  8
15
  6
CONTINUOUS
 62
     3
 10
25.926197667087763
 20
7.4000000000000909
 11
35.0
 21
7.4000000000000909
  0
LINE
  8
15
  6
CONTINUOUS
 62
     3
 10
45.700000000000045
 20
15.759756203621919
 11
35.0
 21
7.4000000000000909
  0
LINE
  8
15
  6
CONTINUOUS
 62
     3
 10
35.0
 20
7.4000000000000909
 11
35.0
 21
-10.5
  0
ARC
  8
15
  6
CONTINUOUS
 62
     3
 10
37.700000000000045
 20
-2.5
 40
8.0
 50
270.0
 51
0.0
  0
LINE
  8
15
  6
CONTINUOUS
 62
     3
 10
-19.599999999999909
 20
-10.5
 11
-14.647866738880339
 21
-10.5
  0
LINE
  8
15
  6
CONTINUOUS
 62
     3
 10
14.647866738880566
 20
-10.5
 11
37.700000000000045
 21
-10.5
  0
ARC
  8
15
  6
CONTINUOUS
 62
     3
 10
0.0
 20
9.5
 40
23.600000000000001
 50
242.38422018232541
 51
262.10284221998131
  0
ARC
  8
15
  6
CONTINUOUS
 62
     3
 10
0.0
 20
9.5
 40
23.600000000000001
 50
277.89715778001869
 51
297.61577981767459
  0
ARC
  8
15
  6
CONTINUOUS
 62
     3
 10
-14.647866738880339
 20
-18.5
 40
8.0
 50
62.384220182326359
 51
90.0
  0
ARC
  8
15
  6
CONTINUOUS
 62
     3
 10
14.647866738880566
 20
-18.5
 40
8.0
 50
90.0
 51
117.61577981767509
  0
ENDBLK
  8
15
  0
BLOCK
  8
15
  2
SUB6
 70
    64
 10
0.0
 20
0.0
  0
LINE
  8
15
  6
CENTER
 62
     3
 10
0.0
 20
373.26311173742579
 11
0.0
 21
102.74619766708747
  0
LINE
  8
15
  6
CENTER
 62
     3
 10
0.0
 20
102.74619766708747
 11
0.0
 21
32.768936494139552
  0
LINE
  8
15
  6
CENTER
 62
     3
 10
0.0
 20
32.768936494139552
 11
0.0
 21
-151.13899735749055
  0
LINE
  8
15
  6
CONTINUOUS
 62
     3
 10
47.800000000000182
 20
113.49380233291265
 11
47.799999999999955
 21
-24.548849427774712
  0
LINE
  8
15
  6
CONTINUOUS
 62
     3
 10
-44.982442478999474
 20
119.79999999999995
 11
17.053802332912483
 21
119.79999999999995
  0
LINE
  8
15
  6
CONTINUOUS
 62
     3
 10
-42.900000000000091
 20
-64.5
 11
47.800000000000182
 21
-64.5
  0
LINE
  8
15
  6
CONTINUOUS
 62
     3
 10
-62.5
 20
-64.5
 11
62.5
 21
-64.5
  0
LINE
  8
15
  6
CONTINUOUS
 62
     3
 10
62.5
 20
-64.5
 11
62.5
 21
-39.964101615137679
  0
ARC
  8
15
  6
CONTINUOUS
 62
     3
 10
56.5
 20
-39.964101615137679
 40
6.0
 50
0.0
 51
59.99999999999946
  0
LINE
  8
15
  6
CONTINUOUS
 62
     3
 10
59.5
 20
-34.767949192431161
 11
50.799999999999955
 21
-29.745001850481231
  0
ARC
  8
15
  6
CONTINUOUS
 62
     3
 10
53.799999999999955
 20
-24.548849427774712
 40
6.0000000000000036
 50
180.0
 51
239.99999999999946
  0
LINE
  8
15
  6
CONTINUOUS
 62
     3
 10
-68.200000000000045
 20
-45.5
 11
-62.5
 21
-45.5
  0
ARC
  8
15
  6
CONTINUOUS
 62
     3
 10
-68.200000000000045
 20
-36.100000000000136
 40
9.3999999999999773
 50
198.61146396653612
 51
270.0
  0
LINE
  8
15
  6
CONTINUOUS
 62
     3
 10
-85.200000000000045
 20
-38.600000000000136
 11
-85.200000000000045
 21
142.79999999999995
  0
LINE
  8
15
  6
CONTINUOUS
 62
     3
 10
-84.700000000000045
 20
-39.100000000000136
 11
-77.108422980527166
 21
-39.100000000000136
  0
LINE
  8
15
  6
CONTINUOUS
 62
     3
 10
-67.619999999999891
 20
30.764466094067302
 11
-67.619999999999891
 21
-20.200000000000045
  0
ARC
  8
15
  6
CONTINUOUS
 62
     3
 10
-59.619999999999891
 20
-20.200000000000045
 40
8.0
 50
180.0
 51
270.0
  0
LINE
  8
15
  6
CONTINUOUS
 62
     3
 10
-77.632220452791444
 20
-26.895223927586812
 11
-78.660068237962832
 21
-38.643577871373736
  0
LINE
  8
15
  6
CONTINUOUS
 62
     3
 10
-68.932246438303309
 20
-22.675453609588203
 11
-73.267140578763929
 21
-22.78896680756111
  0
ARC
  8
15
  6
CONTINUOUS
 62
     3
 10
-73.149344311378627
 20
-27.287424769951258
 40
4.5000000000000071
 50
91.499999999998337
 51
175.00000000000017
  0
ARC
  8
15
  6
CONTINUOUS
 62
     3
 10
-68.866804067533621
 20
-25.174596922027149
 40
2.4999999999999951
 50
28.279368896495157
 51
91.500000000000085
  0
LINE
  8
15
  6
CONTINUOUS
 62
     3
 10
-69.176854249492408
 20
33.356854249492471
 11
-68.352233047033678
 21
32.532233047033628
  0
ARC
  8
15
  6
CONTINUOUS
 62
     3
 10
-63.519999999999982
 20
39.01370849898467
 40
8.0
 50
180.0
 51
224.99999999999883
  0
ARC
  8
15
  6
CONTINUOUS
 62
     3
 10
-70.119999999999891
 20
30.764466094067302
 40
2.5000000000000102
 50
0.0
 51
45.000000000001847
  0
ARC
  8
15
  6
CONTINUOUS
 62
     3
 10
-84.700000000000045
 20
-38.600000000000136
 40
0.5
 50
180.0
 51
270.0
  0
ARC
  8
15
  6
CONTINUOUS
 62
     3
 10
-79.158165587008625
 20
-38.600000000000136
 40
0.500000000000005
 50
270.0
 51
355.00000000002535
  0
LINE
  8
15
  6
CONTINUOUS
 62
     3
 10
-62.5
 20
-64.5
 11
-62.5
 21
-29.216961794307508
  0
LINE
  8
15
  6
CONTINUOUS
 62
     3
 10
-59.619999999999891
 20
-28.200000000000045
 11
-19.220000000000027
 21
-28.200000000000045
  0
ARC
  8
15
  6
CONTINUOUS
 62
     3
 10
-65.0
 20
-29.216961794307508
 40
2.5
 50
0.0
 51
59.177445674597095
  0
ARC
  8
15
  6
CONTINUOUS
 62
     3
 10
-19.220000000000027
 20
-20.200000000000045
 40
8.0
 50
270.0
 51
0.0
  0
LINE
  8
15
  6
CONTINUOUS
 62
     3
 10
-11.220000000000027
 20
94.600000000000023
 11
-11.220000000000027
 21
91.764346714433373
  0
LINE
  8
15
  6
CONTINUOUS
 62
     3
 10
-11.220000000000027
 20
29.799999999999955
 11
-11.220000000000027
 21
-20.200000000000045
  0
LINE
  8
15
  6
CONTINUOUS
 62
     3
 10
-84.700000000000045
 20
143.29999999999995
 11
-67.183205122909612
 21
143.29999999999995
  0
ARC
  8
15
  6
CONTINUOUS
 62
     3
 10
-67.183205122909612
 20
136.79999999999995
 40
6.5000000000000124
 50
26.999999999998842
 51
90.0
  0
LINE
  8
15
  6
CONTINUOUS
 62
     3
 10
-43.506363315649878
 20
104.64906175169301
 11
-61.391662715685015
 21
139.75093824830697
  0
ARC
  8
15
  6
CONTINUOUS
 62
     3
 10
-84.700000000000045
 20
142.79999999999995
 40
0.5
 50
90.0
 51
180.0
  0
ARC
  8
15
  6
CONTINUOUS
 62
     3
 10
-46.71449328656854
 20
119.80000000000007
 40
0.9999999999999978
 50
270.0
 51
329.99999999999704
  0
ARC
  8
15
  6
CONTINUOUS
 62
     3
 10
-47.959022940756768
 20
123.30000000000007
 40
4.5
 50
207.00000000000014
 51
270.0
  0
LINE
  8
15
  6
CONTINUOUS
 62
     3
 10
-37.714820908425509
 20
101.10000000000002
 11
-17.720000000000027
 21
101.10000000000002
  0
ARC
  8
15
  6
CONTINUOUS
 62
     3
 10
-17.720000000000027
 20
94.600000000000023
 40
6.5000000000000018
 50
0.0
 51
90.0
  0
ARC
  8
15
  6
CONTINUOUS
 62
     3
 10
-37.714820908425509
 20
107.60000000000002
 40
6.5000000000000124
 50
206.99999999999974
 51
270.0
  0
ARC
  8
15
  6
CONTINUOUS
 62
     3
 10
-44.982442478999474
 20
118.79999999999995
 40
1.0
 50
90.0
 51
150.00000000000273
  0
LINE
  8
15
  6
CONTINUOUS
 62
     3
 10
-47.959022940756768
 20
118.80000000000007
 11
-46.71449328656854
 21
118.80000000000007
  0
LINE
  8
15
  6
CONTINUOUS
 62
     3
 10
-71.519999999999982
 20
69.399999999999977
 11
-71.519999999999982
 21
39.01370849898467
  0
LINE
  8
15
  6
CONTINUOUS
 62
     3
 10
-63.519999999999982
 20
77.399999999999977
 11
-25.346197667087608
 21
77.399999999999977
  0
ARC
  8
15
  6
CONTINUOUS
 62
     3
 10
-63.519999999999982
 20
69.399999999999977
 40
8.0
 50
90.0
 51
180.0
  0
ENDBLK
  8
15
  0
BLOCK
  8
15
  2
SUB7
 70
    64
 10
0.0
 20
0.0
  0
LINE
  8
15
  6
CONTINUOUS
 62
     3
 10
-40.5
 20
27.450000000000045
 11
40.5
 21
27.450000000000045
  0
LINE
  8
15
  6
CONTINUOUS
 62
     3
 10
40.69938125989438
 20
23.645578926981898
 11
40.500000039929091
 21
27.449999238106102
  0
LINE
  8
15
  6
CONTINUOUS
 62
     3
 10
-41.390932247811861
 20
10.450000000000045
 11
-40.500000039929319
 21
27.449999238106102
  0
LINE
  8
15
  6
CONTINUOUS
 62
     3
 10
-44.800000000000182
 20
10.450000000000045
 11
-21.903609659748327
 21
10.450000000000045
  0
LINE
  8
15
  6
CONTINUOUS
 62
     3
 10
21.903609659748099
 20
10.450000000000045
 11
27.503802332912301
 21
10.450000000000045
  0
LINE
  8
15
  6
CONTINUOUS
 62
     3
 10
-47.800000000000182
 20
0.0
 11
-47.800000000000182
 21
5.3500000000000227
  0
LINE
  8
15
  6
CONTINUOUS
 62
     3
 10
-47.800000000000182
 20
5.3500000000000227
 11
-44.800000000000182
 21
5.3500000000000227
  0
LINE
  8
15
  6
CONTINUOUS
 62
     3
 10
40.631019448207553
 20
24.950000000000045
 11
40.998663400252781
 21
23.944861067340298
  0
LINE
  8
15
  6
CONTINUOUS
 62
     3
 10
-47.800000000000182
 20
5.3500000000000227
 11
-40.63101944820778
 21
24.950000000000045
  0
LINE
  8
15
  6
CONTINUOUS
 62
     3
 10
-44.800000000000182
 20
5.3500000000000227
 11
-44.800000000000182
 21
10.450000000000045
  0
LINE
  8
15
  6
CONTINUOUS
 62
     3
 10
-36.200000000000045
 20
5.3500000000000227
 11
22.403802332912392
 21
5.3500000000000227
  0
ARC
  8
15
  6
CONTINUOUS
 62
     3
 10
0.0
 20
15.75
 40
7.5
 50
0.0
 51
180.0
  0
LINE
  8
15
  6
CONTINUOUS
 62
     3
 10
7.5
 20
5.3500000000000227
 11
7.5
 21
15.75
  0
LINE
  8
15
  6
CONTINUOUS
 62
     3
 10
-7.5
 20
5.3500000000000227
 11
-7.5
 21
15.75
  0
LINE
  8
15
  6
CONTINUOUS
 62
     3
 10
21.903609659748099
 20
5.3500000000000227
 11
21.903609659748099
 21
10.450000000000045
  0
LINE
  8
15
  6
CONTINUOUS
 62
     3
 10
-21.903609659748327
 20
5.3500000000000227
 11
-21.903609659748327
 21
10.450000000000045
  0
LINE
  8
15
  6
CONTINUOUS
 62
     3
 10
-40.200000000000045
 20
27.450000000000045
 11
-40.200000000000045
 21
37.149999999999977
  0
LINE
  8
15
  6
CONTINUOUS
 62
     3
 10
40.199999999999818
 20
27.450000000000045
 11
40.199999999999818
 21
37.149999999999977
  0
LINE
  8
15
  6
CONTINUOUS
 62
     3
 10
-40.200000000000045
 20
37.149999999999977
 11
40.199999999999818
 21
37.149999999999977
  0
LINE
  8
15
  6
CONTINUOUS
 62
     3
 10
-47.799999237060547
 20
0.0
 11
17.053802332912483
 21
0.0
  0
ENDBLK
  8
15
  0
BLOCK
  8
15
  2
SUB8
 70
    64
 10
0.0
 20
0.0
  0
LINE
  8
15
  6
CONTINUOUS
 62
     3
 10
-144.5
 20
95.100000000000023
 11
144.5
 21
95.100000000000023
  0
LINE
  8
15
  6
CONTINUOUS
 62
     3
 10
-144.5
 20
79.100000000000023
 11
144.5
 21
79.100000000000023
  0
ARC
  8
15
  6
CONTINUOUS
 62
     3
 10
144.5
 20
87.100000000000023
 40
8.0
 50
270.0
 51
90.0
  0
ARC
  8
15
  6
CONTINUOUS
 62
     3
 10
-144.5
 20
87.100000000000023
 40
8.0
 50
90.0
 51
270.0
  0
LINE
  8
15
  6
CONTINUOUS
 62
     3
 10
-12.5
 20
48.550000000000068
 11
-12.5
 21
79.100000000000023
  0
LINE
  8
15
  6
CONTINUOUS
 62
     3
 10
12.5
 20
48.550000000000068
 11
12.5
 21
79.100000000000023
  0
LINE
  8
15
  6
CONTINUOUS
 62
     3
 10
127.51826801513903
 20
79.100000000000023
 11
80.893125997373772
 21
47.150000000000205
  0
LINE
  8
15
  6
CONTINUOUS
 62
     3
 10
138.13267807925081
 20
79.100000000000023
 11
91.50753606148578
 21
47.150000000000205
  0
LINE
  8
15
  6
CONTINUOUS
 62
     3
 10
-127.5182680151388
 20
79.100000000000023
 11
-80.598421769792367
 21
46.948053160510995
  0
LINE
  8
15
  6
CONTINUOUS
 62
     3
 10
-138.13267807925081
 20
79.100000000000023
 11
-88.979368749613741
 21
45.417566765083052
  0
LINE
  8
15
  6
CONTINUOUS
 62
     3
 10
139.5
 20
95.100000000000023
 11
139.5
 21
97.600000000000023
  0
LINE
  8
15
  6
CONTINUOUS
 62
     3
 10
149.5
 20
93.344997998398412
 11
149.5
 21
97.600000000000023
  0
LINE
  8
15
  6
CONTINUOUS
 62
     3
 10
133.25
 20
190.60000000000002
 11
155.75
 21
190.60000000000002
  0
ARC
  8
15
  6
CONTINUOUS
 62
     3
 10
144.5
 20
177.85490290346911
 40
17.0
 50
131.43459855974726
 51
180.0
  0
LINE
  8
15
  6
CONTINUOUS
 62
     3
 10
127.5
 20
177.85490290346911
 11
132.42451245618008
 21
121.33603092815861
  0
LINE
  8
15
  6
CONTINUOUS
 62
     3
 10
136.5
 20
97.600000000000023
 11
152.5
 21
97.600000000000023
  0
LINE
  8
15
  6
CONTINUOUS
 62
     3
 10
154.5
 20
99.600000000000023
 11
152.5
 21
97.600000000000023
  0
LINE
  8
15
  6
CONTINUOUS
 62
     3
 10
156.25
 20
99.600000000000023
 11
156.5
 21
119.60000000000002
  0
LINE
  8
15
  6
CONTINUOUS
 62
     3
 10
161.5
 20
177.85490290346911
 11
156.57548754381992
 21
121.33603092815861
  0
ARC
  8
15
  6
CONTINUOUS
 62
     3
 10
144.5
 20
177.85490290346911
 40
17.0
 50
0.0
 51
48.565401440252757
  0
ARC
  8
15
  6
CONTINUOUS
 62
     3
 10
176.5
 20
119.60000000000002
 40
20.0
 50
175.02037115859417
 51
180.0
  0
LINE
  8
15
  6
CONTINUOUS
 62
     3
 10
132.75
 20
99.600000000000023
 11
156.25
 21
99.600000000000023
  0
LINE
  8
15
  6
CONTINUOUS
 62
     3
 10
134.5
 20
99.600000000000023
 11
136.5
 21
97.600000000000023
  0
LINE
  8
15
  6
CONTINUOUS
 62
     3
 10
132.75
 20
99.600000000000023
 11
134.5
 21
99.600000000000023
  0
LINE
  8
15
  6
CONTINUOUS
 62
     3
 10
132.75
 20
99.600000000000023
 11
132.5
 21
119.60000000000002
  0
ARC
  8
15
  6
CONTINUOUS
 62
     3
 10
112.5
 20
119.60000000000002
 40
20.0
 50
0.0
 51
4.9796288414058285
  0
ENDBLK
  8
15
  0
BLOCK
  8
15
  2
SUB9
 70
    64
 10
0.0
 20
0.0
  0
LINE
  8
15
  6
CONTINUOUS
 62
     3
 10
-50.399999999999864
 20
62.0
 11
-50.399999999999864
 21
-71.599999999999909
  0
LINE
  8
15
  6
CONTINUOUS
 62
     3
 10
-50.399999999999864
 20
62.0
 11
-41.599999999999909
 21
62.0
  0
LINE
  8
15
  6
CONTINUOUS
 62
     3
 10
-50.399999999999864
 20
-40.0
 11
-44.394284547628558
 21
-40.0
  0
LINE
  8
15
  6
CONTINUOUS
 62
     3
 10
-50.399999999999864
 20
38.899999999999977
 11
-41.599999999999909
 21
38.899999999999977
  0
LINE
  8
15
  6
CONTINUOUS
 62
     3
 10
-44.199999999999818
 20
38.899999999999977
 11
-44.199999999999818
 21
-39.435417095160119
  0
LINE
  8
15
  6
CONTINUOUS
 62
     3
 10
-50.399999999999864
 20
-62.599999999999909
 11
-40.690444890656863
 21
-62.599999999999909
  0
LINE
  8
15
  6
CONTINUOUS
 62
     3
 10
-50.399999999999864
 20
-71.599999999999909
 11
-36.331031423080731
 21
-75.164559303120768
  0
ENDBLK
  8
15
  0
BLOCK
  8
15
  2
SUB10
 70
    64
 10
0.0
 20
0.0
  0
CIRCLE
  8
15
  6
CONTINUOUS
 62
     3
 10
-138.40000000000009
 20
-33.5
 40
29.0
  0
LINE
  8
15
  6
CONTINUOUS
 62
     3
 10
11.199999999999818
 20
-161.10000000000014
 11
11.199999999999818
 21
8.6999999999999318
  0
LINE
  8
15
  6
CONTINUOUS
 62
     3
 10
-214.60000000000014
 20
56.700000000000045
 11
-36.800000000000182
 21
56.700000000000045
  0
ARC
  8
15
  6
CONTINUOUS
 62
     3
 10
-36.800000000000182
 20
8.7000000000000455
 40
48.0
 50
359.99999999999989
 51
90.0
  0
ARC
  8
15
  6
CONTINUOUS
 62
     3
 10
-36.500000000000227
 20
9.0
 40
18.0
 50
0.0
 51
90.0
  0
LINE
  8
15
  6
CONTINUOUS
 62
     3
 10
-214.60000000000014
 20
-209.10000000000014
 11
-36.799999999999955
 21
-209.10000000000014
  0
ARC
  8
15
  6
CONTINUOUS
 62
     3
 10
-36.799999999999955
 20
-161.10000000000014
 40
48.0
 50
270.0
 51
0.0
  0
ARC
  8
15
  6
CONTINUOUS
 62
     3
 10
-36.500000000000227
 20
-161.40000000000009
 40
18.000000000000014
 50
270.0
 51
0.0
  0
LINE
  8
15
  6
CONTINUOUS
 62
     3
 10
-262.60000000000014
 20
-161.10000000000014
 11
-262.60000000000014
 21
8.6999999999999318
  0
ARC
  8
15
  6
CONTINUOUS
 62
     3
 10
-214.60000000000014
 20
-161.10000000000014
 40
48.0
 50
180.0
 51
270.0
  0
ARC
  8
15
  6
CONTINUOUS
 62
     3
 10
-214.60000000000014
 20
8.7000000000000455
 40
48.0
 50
90.0
 51
180.00000000000014
  0
LINE
  8
15
  6
CENTER
 62
     3
 10
-172.30539932250986
 20
-33.5
 11
-103.17511596679697
 21
-33.5
  0
LINE
  8
15
  6
CENTER
 62
     3
 10
-138.40000000000009
 20
-69.169071197509766
 11
-138.40000000000009
 21
1.5171966552734375
  0
LINE
  8
15
  6
CONTINUOUS
 62
     3
 10
-18.5
 20
-161.40000000000009
 11
-18.5
 21
9.0
  0
LINE
  8
15
  6
CONTINUOUS
 62
     3
 10
-214.90000000000009
 20
27.000000000000227
 11
-36.500000000000227
 21
27.0
  0
LINE
  8
15
  6
CONTINUOUS
 62
     3
 10
-214.90000000000009
 20
-179.40000000000009
 11
-36.500000000000227
 21
-179.40000000000009
  0
ARC
  8
15
  6
CONTINUOUS
 62
     3
 10
-214.90000000000009
 20
9.0
 40
18.000000000000227
 50
90.0
 51
180.0
  0
ARC
  8
15
  6
CONTINUOUS
 62
     3
 10
-214.90000000000009
 20
-161.40000000000009
 40
18.000000000000028
 50
180.0
 51
270.0
  0
LINE
  8
15
  6
CONTINUOUS
 62
     3
 10
-232.90000000000009
 20
-161.40000000000009
 11
-232.90000000000009
 21
9.0
  0
ENDBLK
  8
15
  0
BLOCK
  8
15
  2
SUB11
 70
    64
 10
0.0
 20
0.0
  0
LINE
  8
15
  6
CONTINUOUS
 62
     3
 10
-192.70000000000005
 20
-98.978970643885077
 11
-192.70000000000005
 21
34.378970643885168
  0
LINE
  8
15
  6
CONTINUOUS
 62
     3
 10
81.100000000000136
 20
-117.29999999999995
 11
81.100000000000136
 21
52.700000000000045
  0
LINE
  8
15
  6
CONTINUOUS
 62
     3
 10
-144.70000000000005
 20
100.70000000000005
 11
33.099999999999909
 21
100.70000000000005
  0
LINE
  8
15
  6
CONTINUOUS
 62
     3
 10
-144.70000000000005
 20
-165.29999999999995
 11
33.099999999999909
 21
-165.29999999999995
  0
ARC
  8
15
  6
CONTINUOUS
 62
     3
 10
33.099999999999909
 20
52.700000000000045
 40
48.0
 50
0.0
 51
90.0
  0
ARC
  8
15
  6
CONTINUOUS
 62
     3
 10
33.100000000000136
 20
-117.29999999999995
 40
48.0
 50
270.0
 51
0.0
  0
ARC
  8
15
  6
CONTINUOUS
 62
     3
 10
-144.70000000000005
 20
-117.29999999999995
 40
48.000000000000007
 50
180.86843603106584
 51
270.0
  0
ARC
  8
15
  6
CONTINUOUS
 62
     3
 10
-144.70000000000005
 20
52.700000000000045
 40
48.0
 50
90.0
 51
179.13156396893416
  0
ARC
  8
15
  6
CONTINUOUS
 62
     3
 10
-181.5
 20
43.900000000000091
 40
14.700000000000006
 50
139.5992380777991
 51
220.36759354418578
  0
ARC
  8
15
  6
CONTINUOUS
 62
     3
 10
-181.5
 20
-108.5
 40
14.700000000000001
 50
139.63240645581422
 51
220.4007619222009
  0
ENDBLK
  8
15
  0
BLOCK
  8
15
  2
SUB12
 70
    64
 10
0.0
 20
0.0
  0
LINE
  8
15
  6
CONTINUOUS
 62
     3
 10
-62.5
 20
-10.5
 11
-50.219706701330097
 21
-10.5
  0
LINE
  8
15
  6
CONTINUOUS
 62
     3
 10
-24.380293298669812
 20
-10.5
 11
62.5
 21
-10.5
  0
LINE
  8
15
  6
CONTINUOUS
 62
     3
 10
-34.990000000000009
 20
-66.5
 11
34.990000000000009
 21
-66.5
  0
LINE
  8
15
  6
CONTINUOUS
 62
     3
 10
-62.5
 20
0.0
 11
-61.309380465964523
 21
0.0
  0
LINE
  8
15
  6
CONTINUOUS
 62
     3
 10
-13.290619534035613
 20
0.0
 11
57.993744690206086
 21
0.0
  0
LINE
  8
15
  6
CONTINUOUS
 62
     3
 10
-62.5
 20
-61.5
 11
62.5
 21
-61.5
  0
LINE
  8
15
  6
CONTINUOUS
 62
     3
 10
62.5
 20
-61.5
 11
62.5
 21
-5.9000000000000909
  0
LINE
  8
15
  6
CONTINUOUS
 62
     3
 10
-62.5
 20
-61.5
 11
-62.5
 21
0.0
  0
LINE
  8
15
  6
CONTINUOUS
 62
     3
 10
-34.990000000000009
 20
-66.5
 11
-34.990000000000009
 21
-61.5
  0
LINE
  8
15
  6
CONTINUOUS
 62
     3
 10
34.990000000000009
 20
-66.5
 11
34.990000000000009
 21
-61.5
  0
LINE
  8
15
  6
CENTER
 62
     3
 10
0.0
 20
-3.41182541847229
 11
0.0
 21
3.4989242553710937
  0
ENDBLK
  8
15
  0
BLOCK
  8
15
  2
SUB13
 70
    64
 10
0.0
 20
0.0
  0
LINE
  8
15
  6
CONTINUOUS
 62
     3
 10
-62.5
 20
-64.5
 11
-62.5
 21
-61.799999999999955
  0
LINE
  8
15
  6
CENTER
 62
     3
 10
-128.67050170898437
 20
40.100000000000136
 11
-356.50063041451472
 21
40.100000000000136
  0
LINE
  8
15
  6
CENTER
 62
     3
 10
0.0
 20
-145.75300078913915
 11
0.0
 21
381.25927217764979
  0
ENDBLK
  8
15
  0
BLOCK
  8
15
  2
SUB14
 70
    64
 10
0.0
 20
0.0
  0
LINE
  8
15
  6
CONTINUOUS
 62
     3
 10
-50.400000000000091
 20
-62.0
 11
-50.400000000000091
 21
-35.194006727959504
  0
LINE
  8
15
  6
CONTINUOUS
 62
     3
 10
-50.400000000000091
 20
8.7076246441276908
 11
-50.400000000000091
 21
26.920000000000073
  0
LINE
  8
15
  6
CONTINUOUS
 62
     3
 10
-50.400000000000091
 20
51.920000000000073
 11
-50.400000000000091
 21
62.0
  0
LINE
  8
15
  6
CONTINUOUS
 62
     3
 10
-33.97370029299077
 20
-58.899999999999864
 11
-40.900000000000091
 21
-58.899999999999864
  0
LINE
  8
15
  6
CONTINUOUS
 62
     3
 10
-30.900000000000091
 20
51.920000000000073
 11
-30.900000000000091
 21
58.900000000000091
  0
LINE
  8
15
  6
CONTINUOUS
 62
     3
 10
-30.900000000000091
 20
58.900000000000091
 11
-40.900000000000091
 21
58.900000000000091
  0
LINE
  8
15
  6
CONTINUOUS
 62
     3
 10
-40.900000000000091
 20
62.0
 11
-50.400000000000091
 21
62.0
  0
LINE
  8
15
  6
CONTINUOUS
 62
     3
 10
-40.900000000000091
 20
-62.0
 11
-40.900000000000091
 21
-50.045076985380092
  0
LINE
  8
15
  6
CONTINUOUS
 62
     3
 10
-40.900000000000091
 20
-18.717767414994341
 11
-40.900000000000091
 21
26.920000000000073
  0
LINE
  8
15
  6
CONTINUOUS
 62
     3
 10
-40.900000000000091
 20
51.920000000000073
 11
-40.900000000000091
 21
62.0
  0
LINE
  8
15
  6
CONTINUOUS
 62
     3
 10
-40.900000000000091
 20
-62.0
 11
-50.400000000000091
 21
-62.0
  0
LINE
  8
15
  6
CONTINUOUS
 62
     3
 10
-38.400000000000091
 20
-23.756340508136418
 11
-38.400000000000091
 21
26.920000000000073
  0
LINE
  8
15
  6
CONTINUOUS
 62
     3
 10
0.0
 20
-38.899999999999864
 11
-29.195472180227398
 21
-38.899999999999864
  0
LINE
  8
15
  6
CONTINUOUS
 62
     3
 10
-35.900000000000091
 20
20.900000000000091
 11
-5.8000000000001819
 21
20.900000000000091
  0
LINE
  8
15
  6
CONTINUOUS
 62
     3
 10
-35.900000000000091
 20
17.300000000000182
 11
-5.8000000000001819
 21
17.300000000000182
  0
LINE
  8
15
  6
CONTINUOUS
 62
     3
 10
-35.900000000000091
 20
-17.299999999999955
 11
-5.8000000000001819
 21
-17.299999999999955
  0
LINE
  8
15
  6
CONTINUOUS
 62
     3
 10
-35.900000000000091
 20
-20.899999999999864
 11
-5.8000000000001819
 21
-20.899999999999864
  0
LINE
  8
15
  6
CONTINUOUS
 62
     3
 10
-5.8000000000001819
 20
17.300000000000182
 11
-5.8000000000001819
 21
20.900000000000091
  0
LINE
  8
15
  6
CONTINUOUS
 62
     3
 10
-5.8000000000001819
 20
-17.299999999999955
 11
-5.8000000000001819
 21
-20.899999999999864
  0
ARC
  8
15
  6
CONTINUOUS
 62
     3
 10
-35.900000000000091
 20
23.400000000000091
 40
2.5
 50
180.0
 51
270.0
  0
ARC
  8
15
  6
CONTINUOUS
 62
     3
 10
-35.900000000000091
 20
14.800000000000182
 40
2.5
 50
90.0
 51
180.0
  0
ARC
  8
15
  6
CONTINUOUS
 62
     3
 10
-35.900000000000091
 20
-14.799999999999955
 40
2.5
 50
180.0
 51
270.0
  0
ARC
  8
15
  6
CONTINUOUS
 62
     3
 10
-35.900000000000091
 20
-23.399999999999864
 40
2.5
 50
90.0
 51
180.0
  0
LINE
  8
15
  6
CONTINUOUS
 62
     3
 10
0.0
 20
-38.899999999999864
 11
0.0
 21
26.920000000000073
  0
ENDBLK
  8
15
  0
BLOCK
  8
15
  2
SUB15
 70
    64
 10
0.0
 20
0.0
  0
ARC
  8
15
  6
CONTINUOUS
 62
     3
 10
36.200000000000045
 20
-36.200000000000045
 40
8.6000000000000032
 50
274.96991228716149
 51
355.03008771283851
  0
ARC
  8
15
  6
CONTINUOUS
 62
     3
 10
-36.200000000000045
 20
-36.200000000000045
 40
8.6000000000000032
 50
184.96991228716149
 51
265.03008771283851
  0
ARC
  8
15
  6
CONTINUOUS
 62
     3
 10
-36.200000000000045
 20
36.200000000000045
 40
8.6000000000000032
 50
94.969912287161506
 51
175.03008771283851
  0
ARC
  8
15
  6
CONTINUOUS
 62
     3
 10
36.200000000000045
 20
36.200000000000045
 40
8.6000000000000032
 50
4.969912287161498
 51
85.030087712838508
  0
LINE
  8
15
  6
CONTINUOUS
 62
     3
 10
12.5
 20
-46.893396259219799
 11
36.945040354651383
 21
-44.767666827669018
  0
LINE
  8
15
  6
CONTINUOUS
 62
     3
 10
44.767666827669018
 20
-36.945040354651383
 11
46.893396259219799
 21
-12.5
  0
LINE
  8
15
  6
CONTINUOUS
 62
     3
 10
46.893396259219799
 20
12.5
 11
44.767666827669018
 21
36.945040354651383
  0
LINE
  8
15
  6
CONTINUOUS
 62
     3
 10
36.945040354651383
 20
44.767666827669018
 11
12.5
 21
46.893396259219799
  0
LINE
  8
15
  6
CONTINUOUS
 62
     3
 10
-12.5
 20
46.893396259219799
 11
-36.945040354651383
 21
44.767666827669018
  0
LINE
  8
15
  6
CONTINUOUS
 62
     3
 10
-44.767666827669018
 20
36.945040354651383
 11
-46.893396259219799
 21
12.5
  0
LINE
  8
15
  6
CONTINUOUS
 62
     3
 10
-46.893396259219799
 20
-12.5
 11
-44.767666827669018
 21
-36.945040354651383
  0
LINE
  8
15
  6
CONTINUOUS
 62
     3
 10
-36.945040354651383
 20
-44.767666827669018
 11
-12.5
 21
-46.893396259219799
  0
ENDBLK
  8
15
  0
BLOCK
  8
15
  2
SUB16
 70
    64
 10
0.0
 20
0.0
  0
LINE
  8
15
  6
CONTINUOUS
 62
     3
 10
-38.25
 20
47.799999999999955
 11
-12.5
 21
47.799999999999955
  0
LINE
  8
15
  6
CONTINUOUS
 62
     3
 10
12.5
 20
47.799999999999955
 11
38.25
 21
47.799999999999955
  0
ARC
  8
15
  6
CONTINUOUS
 62
     3
 10
0.0
 20
0.0
 40
62.500000000000341
 50
11.536959032815437
 51
78.463040967184568
  0
ARC
  8
15
  6
CONTINUOUS
 62
     3
 10
0.0
 20
0.0
 40
62.500000000000341
 50
101.53695903281545
 51
168.46304096718458
  0
ARC
  8
15
  6
CONTINUOUS
 62
     3
 10
-36.200000000000045
 20
36.200000000000045
 40
8.6000000000000263
 50
94.655697368807949
 51
175.34430263119205
  0
LINE
  8
15
  6
CONTINUOUS
 62
     3
 10
-82.599999999999909
 20
-77.720000000000027
 11
-82.599999999999909
 21
-12.5
  0
LINE
  8
15
  6
CONTINUOUS
 62
     3
 10
-65.5
 20
-85.200000000000045
 11
-12.5
 21
-85.200000000000045
  0
LINE
  8
15
  6
CONTINUOUS
 62
     3
 10
12.5
 20
-85.200000000000045
 11
74.799999999999955
 21
-85.200000000000045
  0
LINE
  8
15
  6
CONTINUOUS
 62
     3
 10
87.0
 20
-71.032921564539265
 11
87.0
 21
-12.5
  0
LINE
  8
15
  6
CONTINUOUS
 62
     3
 10
75.299999999999955
 20
-84.700000000000045
 11
75.299999999999955
 21
-60.574496761026012
  0
LINE
  8
15
  6
CONTINUOUS
 62
     3
 10
-66.0
 20
-84.700000000000045
 11
-66.0
 21
-60.574496761026012
  0
LINE
  8
15
  6
CONTINUOUS
 62
     3
 10
-49.688966807560973
 20
-73.267140578763929
 11
-48.097723230381689
 21
-12.5
  0
LINE
  8
15
  6
CONTINUOUS
 62
     3
 10
57.416942259579628
 20
-13.233945114252265
 11
58.988966807560928
 21
-73.267140578763929
  0
LINE
  8
15
  6
CONTINUOUS
 62
     3
 10
-46.758516619108605
 20
12.5
 11
-44.771623834967386
 21
36.898043574440862
  0
LINE
  8
15
  6
CONTINUOUS
 62
     3
 10
-12.5
 20
46.758516619108605
 11
-36.898043574440862
 21
44.771623834967386
  0
LINE
  8
15
  6
CONTINUOUS
 62
     3
 10
12.5
 20
46.758516619108605
 11
36.898043574440862
 21
44.771623834967386
  0
ARC
  8
15
  6
CONTINUOUS
 62
     3
 10
36.200000000000045
 20
36.200000000000045
 40
8.6000000000000263
 50
4.969912287161498
 51
85.344302631192065
  0
LINE
  8
15
  6
CONTINUOUS
 62
     3
 10
-46.758516619108605
 20
-12.5
 11
-44.771623834967386
 21
-36.898043574440862
  0
ARC
  8
15
  6
CONTINUOUS
 62
     3
 10
-36.200000000000045
 20
-36.200000000000045
 40
8.6000000000000263
 50
184.65569736880795
 51
265.34430263119202
  0
LINE
  8
15
  6
CONTINUOUS
 62
     3
 10
-12.5
 20
-46.758516619108605
 11
-36.898043574440862
 21
-44.771623834967386
  0
LINE
  8
15
  6
CONTINUOUS
 62
     3
 10
12.5
 20
-46.758516619108605
 11
36.898043574440862
 21
-44.771623834967386
  0
ARC
  8
15
  6
CONTINUOUS
 62
     3
 10
36.200000000000045
 20
-36.200000000000045
 40
8.6000000000000263
 50
274.65569736880792
 51
355.34430263119208
  0
LINE
  8
15
  6
CONTINUOUS
 62
     3
 10
-64.630733614121482
 20
-59.080204713888406
 11
-49.282306010844422
 21
-57.737391295653424
  0
LINE
  8
15
  6
CONTINUOUS
 62
     3
 10
58.582306010844377
 20
-57.737391295653424
 11
73.930733614121436
 21
-59.080204713888406
  0
ARC
  8
15
  6
CONTINUOUS
 62
     3
 10
-64.5
 20
-60.574496761026012
 40
1.5000000000000009
 50
94.999999999999844
 51
180.0
  0
ARC
  8
15
  6
CONTINUOUS
 62
     3
 10
73.799999999999955
 20
-60.574496761026012
 40
1.5000000000000009
 50
0.0
 51
85.000000000000171
  0
LINE
  8
15
  6
CONTINUOUS
 62
     3
 10
-66.0
 20
-78.699999999999818
 11
-53.795223927586449
 21
-77.632220452791216
  0
LINE
  8
15
  6
CONTINUOUS
 62
     3
 10
63.09522392758663
 20
-77.632220452791216
 11
75.299999999999955
 21
-78.700000000000045
  0
ARC
  8
15
  6
CONTINUOUS
 62
     3
 10
-54.187424769951122
 20
-73.1493443113784
 40
4.4999999999999982
 50
275.00000000000273
 51
358.49999999999875
  0
ARC
  8
15
  6
CONTINUOUS
 62
     3
 10
63.487424769951076
 20
-73.1493443113784
 40
4.4999999999999982
 50
181.50000000000122
 51
265.00000000000017
  0
ARC
  8
15
  6
CONTINUOUS
 62
     3
 10
-44.09390511848278
 20
-58.248415074426021
 40
5.2000000000000002
 50
90.0
 51
178.50000000000077
  0
ARC
  8
15
  6
CONTINUOUS
 62
     3
 10
53.393905118482735
 20
-58.248415074426021
 40
5.2000000000000002
 50
1.4999999999991593
 51
90.0
  0
ARC
  8
15
  6
CONTINUOUS
 62
     3
 10
-14.0
 20
-74.200000000000045
 40
4.5000000000000053
 50
270.0
 51
289.47122063449058
  0
ARC
  8
15
  6
CONTINUOUS
 62
     3
 10
14.0
 20
-74.200000000000045
 40
4.5000000000000053
 50
250.52877936550945
 51
270.0
  0
LINE
  8
15
  6
CONTINUOUS
 62
     3
 10
-66.0
 20
-78.700000000000045
 11
-14.0
 21
-78.700000000000045
  0
LINE
  8
15
  6
CONTINUOUS
 62
     3
 10
14.0
 20
-78.700000000000045
 11
75.299999999999955
 21
-78.700000000000045
  0
LINE
  8
15
  6
CONTINUOUS
 62
     3
 10
-44.09390511848278
 20
-53.048415074425975
 11
-12.5
 21
-53.048415074425975
  0
LINE
  8
15
  6
CONTINUOUS
 62
     3
 10
12.5
 20
-53.048415074425975
 11
53.393905118482735
 21
-53.048415074425975
  0
LINE
  8
15
  6
CONTINUOUS
 62
     3
 10
-82.099999999999909
 20
-78.220000000000027
 11
-70.5
 21
-78.220000000000027
  0
LINE
  8
15
  6
CONTINUOUS
 62
     3
 10
79.682203732614653
 20
-71.711623239116989
 11
86.513088474153847
 21
-71.532750227027009
  0
LINE
  8
15
  6
CONTINUOUS
 62
     3
 10
-38.75
 20
44.413251487687376
 11
-38.75
 21
47.299999999999955
  0
LINE
  8
15
  6
CONTINUOUS
 62
     3
 10
38.75
 20
44.413251487687376
 11
38.75
 21
47.299999999999955
  0
ARC
  8
15
  6
CONTINUOUS
 62
     3
 10
-70.5
 20
-82.720000000000027
 40
4.5
 50
0.0
 51
90.0
  0
ARC
  8
15
  6
CONTINUOUS
 62
     3
 10
52.265624028117145
 20
-15.161098579392274
 40
5.4999999999999991
 50
20.511265260137041
 51
28.936245307949807
  0
ARC
  8
15
  6
CONTINUOUS
 62
     3
 10
51.594913024579682
 20
-50.548415074425975
 40
2.5000000000000031
 50
181.50000000000009
 51
270.0
  0
LINE
  8
15
  6
CENTER
 62
     3
 10
-167.96296691894531
 20
0.0
 11
180.79673767089844
 21
0.0
  0
LINE
  8
15
  6
CENTER
 62
     3
 10
0.0
 20
-176.9561767578125
 11
0.0
 21
179.98617553710937
  0
ARC
  8
15
  6
CONTINUOUS
 62
     3
 10
79.799999999999955
 20
-76.210081201507137
 40
4.4999999999999982
 50
91.499999999998337
 51
180.0
  0
ARC
  8
15
  6
CONTINUOUS
 62
     3
 10
86.5
 20
-71.032921564539265
 40
0.4999999999999933
 50
271.49999999998977
 51
0.0
  0
LINE
  8
15
  6
CONTINUOUS
 62
     3
 10
49.095769712140736
 20
-50.613857445195663
 11
48.097723230381916
 21
-12.5
  0
ARC
  8
15
  6
CONTINUOUS
 62
     3
 10
-65.5
 20
-84.700000000000045
 40
0.5
 50
180.0
 51
270.0
  0
ARC
  8
15
  6
CONTINUOUS
 62
     3
 10
74.799999999999955
 20
-84.700000000000045
 40
0.5
 50
270.0
 51
0.0
  0
ARC
  8
15
  6
CONTINUOUS
 62
     3
 10
-82.099999999999909
 20
-77.720000000000027
 40
0.5
 50
180.0
 51
270.0
  0
ARC
  8
15
  6
CONTINUOUS
 62
     3
 10
-38.25
 20
47.299999999999955
 40
0.5
 50
90.0
 51
180.0
  0
ARC
  8
15
  6
CONTINUOUS
 62
     3
 10
38.25
 20
47.299999999999955
 40
0.5
 50
0.0
 51
90.0
  0
LINE
  8
15
  6
CONTINUOUS
 62
     3
 10
46.893396259219799
 20
12.5
 11
44.767666827669018
 21
36.945040354651383
  0
LINE
  8
15
  6
CONTINUOUS
 62
     3
 10
46.893396259219799
 20
-12.5
 11
44.767666827669018
 21
-36.945040354651383
  0
LINE
  8
15
  6
CENTER
 62
     3
 10
-75.941329956054688
 20
-39.420000000000073
 11
-356.79848939894941
 21
-39.420000000000073
  0
ENDBLK
  8
15
  0
BLOCK
  8
15
  2
SUB17
 70
    64
 10
0.0
 20
0.0
  0
ARC
  8
15
  6
CONTINUOUS
 62
     3
 10
0.0
 20
0.0
 40
152.5
 50
270.0
 51
354.20798092475468
  0
ARC
  8
15
  6
CONTINUOUS
 62
     3
 10
0.0
 20
0.0
 40
152.5
 50
5.7920190752454168
 51
270.0
  0
ARC
  8
15
  6
CONTINUOUS
 62
     3
 10
0.0
 20
0.0
 40
136.5
 50
270.0
 51
353.87762002281181
  0
ARC
  8
15
  6
CONTINUOUS
 62
     3
 10
0.0
 20
0.0
 40
136.5
 50
6.1223799771883005
 51
270.0
  0
CIRCLE
  8
15
  6
CONTINUOUS
 62
     3
 10
0.0
 20
0.0
 40
38.5
  0
CIRCLE
  8
15
  6
CONTINUOUS
 62
     3
 10
0.0
 20
0.0
 40
22.5
  0
LINE
  8
15
  6
CONTINUOUS
 62
     3
 10
-135.92645070036951
 20
-12.5
 11
-36.414282912066255
 21
-12.5
  0
LINE
  8
15
  6
CONTINUOUS
 62
     3
 10
36.414282912066255
 20
-12.5
 11
132.97828137819715
 21
-12.5
  0
LINE
  8
15
  6
CONTINUOUS
 62
     3
 10
-135.92645070036951
 20
12.5
 11
-36.414282912066255
 21
12.5
  0
LINE
  8
15
  6
CONTINUOUS
 62
     3
 10
36.414282912066255
 20
12.5
 11
132.97828137819715
 21
12.5
  0
LINE
  8
15
  6
CONTINUOUS
 62
     3
 10
12.5
 20
135.92645070036951
 11
12.5
 21
36.414282912066255
  0
LINE
  8
15
  6
CONTINUOUS
 62
     3
 10
12.5
 20
-36.414282912066255
 11
12.5
 21
-135.92645070036951
  0
LINE
  8
15
  6
CONTINUOUS
 62
     3
 10
-12.5
 20
135.92645070036951
 11
-12.5
 21
36.414282912066255
  0
LINE
  8
15
  6
CONTINUOUS
 62
     3
 10
-12.5
 20
-36.414282912066255
 11
-12.5
 21
-135.92645070036951
  0
CIRCLE
  8
15
  6
CONTINUOUS
 62
     3
 10
144.5
 20
0.0
 40
17.0
  0
LINE
  8
15
  6
CENTER
 62
     3
 10
-13.982994079589844
 20
0.0
 11
15.14173698425293
 21
0.0
  0
LINE
  8
15
  6
CENTER
 62
     3
 10
0.0
 20
-14.749062538146973
 11
0.0
 21
12.882092475891113
  0
ENDBLK
  8
15
  0
BLOCK
  8
15
  2
SUB18
 70
    64
 10
0.0
 20
0.0
  0
LINE
  8
15
  6
CONTINUOUS
 62
     3
 10
14.099999999999909
 20
8.6000000000001364
 11
14.099999999999909
 21
10.621657276257565
  0
ARC
  8
15
  6
CONTINUOUS
 62
     3
 10
7.0999999999999091
 20
10.621657276257565
 40
7.0000000000000062
 50
0.0
 51
58.243136140702028
  0
ARC
  8
15
  6
CONTINUOUS
 62
     3
 10
12.099999999999909
 20
18.699404486959338
 40
2.5
 50
208.35763657633092
 51
238.24313614070545
  0
ENDBLK
  8
15
  0
BLOCK
  8
15
  2
SUB19
 70
    64
 10
0.0
 20
0.0
  0
LINE
  8
15
  6
CONTINUOUS
 62
     3
 10
-262.60000000000014
 20
-9.0
 11
-262.60000000000014
 21
0.0
  0
LINE
  8
15
  6
CONTINUOUS
 62
     3
 10
11.199999999999818
 20
-9.0
 11
11.199999999999818
 21
0.0
  0
LINE
  8
15
  6
CONTINUOUS
 62
     3
 10
-262.60000610351562
 20
0.0
 11
-175.17295201639377
 21
0.0
  0
LINE
  8
15
  6
CONTINUOUS
 62
     3
 10
-101.62704798360642
 20
0.0
 11
11.199999809265137
 21
0.0
  0
LINE
  8
15
  6
CONTINUOUS
 62
     3
 10
-262.60000610351562
 20
-9.0
 11
11.199999809265137
 21
-9.0
  0
LINE
  8
15
  6
CONTINUOUS
 62
     3
 10
-232.90000000000009
 20
-179.0
 11
-232.90000000000009
 21
-9.0
  0
LINE
  8
15
  6
CONTINUOUS
 62
     3
 10
-18.5
 20
-179.0
 11
-18.5
 21
-9.0
  0
LINE
  8
15
  6
CONTINUOUS
 62
     3
 10
-222.90000000000009
 20
-189.0
 11
-28.5
 21
-189.0
  0
ARC
  8
15
  6
CONTINUOUS
 62
     3
 10
-222.90000000000009
 20
-179.0
 40
10.0
 50
180.0
 51
270.0
  0
ARC
  8
15
  6
CONTINUOUS
 62
     3
 10
-28.5
 20
-179.0
 40
10.0
 50
270.0
 51
0.0
  0
ENDBLK
  8
15
  0
BLOCK
  8
15
  2
SUB20
 70
    64
 10
0.0
 20
0.0
  0
LINE
  8
15
  6
CONTINUOUS
 62
     3
 10
-196.20000000000005
 20
-62.799999999999955
 11
-105.2729520163939
 21
-62.799999999999955
  0
LINE
  8
15
  6
CONTINUOUS
 62
     3
 10
-31.727047983606099
 20
-62.799999999999955
 11
81.100000000000136
 21
-62.799999999999955
  0
LINE
  8
15
  6
CONTINUOUS
 62
     3
 10
-192.70000000000005
 20
-53.399999999999864
 11
-192.70000000000005
 21
-62.799999999999955
  0
LINE
  8
15
  6
CONTINUOUS
 62
     3
 10
52.700000000000045
 20
-12.599999999999909
 11
52.700000000000045
 21
-42.938166145227115
  0
LINE
  8
15
  6
CONTINUOUS
 62
     3
 10
81.099999999999909
 20
-53.399999999999864
 11
58.071286845164877
 21
-49.339416539806507
  0
ARC
  8
15
  6
CONTINUOUS
 62
     3
 10
42.700000000000045
 20
-12.599999999999909
 40
10.0
 50
0.0
 51
24.216485243711386
  0
ARC
  8
15
  6
CONTINUOUS
 62
     3
 10
59.200000000000045
 20
-42.938166145227115
 40
6.5000000000000018
 50
180.0
 51
259.99999999999898
  0
LINE
  8
15
  6
CONTINUOUS
 62
     3
 10
54.169841444423582
 20
-5.3999999999998636
 11
81.100000000000136
 21
-5.3999999999998636
  0
LINE
  8
15
  6
CONTINUOUS
 62
     3
 10
-196.20000000000005
 20
-35.716331174017341
 11
-196.20000000000005
 21
-62.799999999999955
  0
LINE
  8
15
  6
CONTINUOUS
 62
     3
 10
-195.2871557427477
 20
-34.720136475925528
 11
-165.89387098424595
 21
-32.148557275767416
  0
LINE
  8
15
  6
CONTINUOUS
 62
     3
 10
-135.79999999999995
 20
0.0
 11
-135.79999999999995
 21
-1.5999999999999091
  0
LINE
  8
15
  6
CONTINUOUS
 62
     3
 10
6.7999999999999545
 20
0.0
 11
6.7999999999999545
 21
-1.5999999999999091
  0
LINE
  8
15
  6
CONTINUOUS
 62
     3
 10
81.100000000000136
 20
-53.399999999999864
 11
-4.8895448845080409
 21
-53.399999999999864
  0
LINE
  8
15
  6
CONTINUOUS
 62
     3
 10
-132.11045511549196
 20
-53.399999999999864
 11
-192.70000000000005
 21
-53.399999999999864
  0
ARC
  8
15
  6
CONTINUOUS
 62
     3
 10
7.7999999999999545
 20
-1.5999999999999091
 40
1.0
 50
180.0
 51
270.0
  0
ARC
  8
15
  6
CONTINUOUS
 62
     3
 10
-136.79999999999995
 20
-1.5999999999999091
 40
1.0
 50
270.0
 51
0.0
  0
LINE
  8
15
  6
CONTINUOUS
 62
     3
 10
-192.70000000000005
 20
-53.399999999999864
 11
-167.2334876721402
 21
-51.171968871768968
  0
LINE
  8
15
  6
CONTINUOUS
 62
     3
 10
-161.29999999999995
 20
3.1500000000000909
 11
-161.29999999999995
 21
-14.901997982058219
  0
LINE
  8
15
  6
CONTINUOUS
 62
     3
 10
-161.29999999999995
 20
-35.814090088716512
 11
-161.29999999999995
 21
-44.696703334172753
  0
ARC
  8
15
  6
CONTINUOUS
 62
     3
 10
-167.79999999999995
 20
-44.696703334172753
 40
6.5000000000000009
 50
274.99999999999989
 51
0.0
  0
ARC
  8
15
  6
CONTINUOUS
 62
     3
 10
-195.20000000000005
 20
-35.716331174017341
 40
1.0
 50
94.99999999999946
 51
180.0
  0
LINE
  8
15
  6
CONTINUOUS
 62
     3
 10
-151.10000000000014
 20
-9.0999999999999091
 11
-151.10000000000014
 21
-18.099999999999909
  0
ARC
  8
15
  6
CONTINUOUS
 62
     3
 10
-144.60000000000014
 20
-9.0999999999999091
 40
6.5
 50
90.0
 51
180.0
  0
ARC
  8
15
  6
CONTINUOUS
 62
     3
 10
-154.79999999999995
 20
-9.0999999999999091
 40
6.5
 50
90.0
 51
176.20689373023262
  0
ARC
  8
15
  6
CONTINUOUS
 62
     3
 10
-154.10000000000014
 20
-18.099999999999909
 40
3.0000000000010441
 50
269.41630452705346
 51
0.0
  0
LINE
  8
15
  6
CONTINUOUS
 62
     3
 10
-161.29999999999995
 20
3.1500000000000909
 11
-156.5
 21
3.1500000000000909
  0
LINE
  8
15
  6
CONTINUOUS
 62
     3
 10
-156.5
 20
3.1500000000000909
 11
-155.55508865845127
 21
-0.3764571353074189
  0
ARC
  8
15
  6
CONTINUOUS
 62
     3
 10
-152.65731117958421
 20
0.400000000000091
 40
3.0
 50
194.99999999999977
 51
270.0
  0
LINE
  8
15
  6
CONTINUOUS
 62
     3
 10
-135.79999999999995
 20
0.0
 11
-81.0
 21
0.0
  0
LINE
  8
15
  6
CONTINUOUS
 62
     3
 10
-56.0
 20
0.0
 11
6.7999999999999545
 21
0.0
  0
ENDBLK
  8
15
  0
BLOCK
  8
15
  2
SUB21
 70
    64
 10
0.0
 20
0.0
  0
LINE
  8
15
  6
CONTINUOUS
 62
     3
 10
44.299999999999955
 20
-14.300000000000182
 11
44.299999999999955
 21
14.299999999999955
  0
LINE
  8
15
  6
CONTINUOUS
 62
     3
 10
44.299999999999955
 20
13.099999999999909
 11
51.799999999999955
 21
13.099999999999909
  0
LINE
  8
15
  6
CONTINUOUS
 62
     3
 10
49.799999999999955
 20
56.419999999999845
 11
49.799999999999955
 21
63.399999999999864
  0
LINE
  8
15
  6
CONTINUOUS
 62
     3
 10
49.799999999999955
 20
63.399999999999864
 11
51.799999999999955
 21
63.399999999999864
  0
LINE
  8
15
  6
CONTINUOUS
 62
     3
 10
59.799999999999955
 20
-13.100000000000136
 11
59.799999999999955
 21
31.419999999999845
  0
LINE
  8
15
  6
CONTINUOUS
 62
     3
 10
59.799999999999955
 20
56.419999999999845
 11
59.799999999999955
 21
111.13672785610061
  0
LINE
  8
15
  6
CONTINUOUS
 62
     3
 10
44.299999999999955
 20
-13.100000000000136
 11
59.799999999999955
 21
-13.100000000000136
  0
LINE
  8
15
  6
CONTINUOUS
 62
     3
 10
51.799999999999955
 20
1.0
 11
51.799999999999955
 21
31.419999999999845
  0
LINE
  8
15
  6
CONTINUOUS
 62
     3
 10
51.799999999999955
 20
63.399999999999864
 11
51.799999999999955
 21
111.13672785610061
  0
LINE
  8
15
  6
CONTINUOUS
 62
     3
 10
32.5
 20
-27.600000000000136
 11
32.5
 21
31.419999999999845
  0
LINE
  8
15
  6
CONTINUOUS
 62
     3
 10
48.799999999999955
 20
29.699999999999818
 11
48.799999999999955
 21
31.419999999999845
  0
LINE
  8
15
  6
CONTINUOUS
 62
     3
 10
37.099999999999909
 20
-19.600000000000136
 11
37.099999999999909
 21
26.526466269999901
  0
LINE
  8
15
  6
CONTINUOUS
 62
     3
 10
46.5
 20
26.526466269999901
 11
46.5
 21
31.419999999999845
  0
LINE
  8
15
  6
CONTINUOUS
 62
     3
 10
46.5
 20
29.699999999999818
 11
48.799999999999955
 21
29.699999999999818
  0
LINE
  8
15
  6
CONTINUOUS
 62
     3
 10
32.5
 20
-27.600000000000136
 11
42.099999999999909
 21
-27.600000000000136
  0
LINE
  8
15
  6
CONTINUOUS
 62
     3
 10
37.099999999999909
 20
-11.600000000000136
 11
42.099999999999909
 21
-11.600000000000136
  0
LINE
  8
15
  6
CONTINUOUS
 62
     3
 10
42.099999999999909
 20
-27.600000000000136
 11
42.099999999999909
 21
-11.600000000000136
  0
LINE
  8
15
  6
CONTINUOUS
 62
     3
 10
37.099999999999909
 20
14.299999999999955
 11
44.299999999999955
 21
14.299999999999955
  0
LINE
  8
15
  6
CONTINUOUS
 62
     3
 10
42.099999999999909
 20
-14.300000000000182
 11
44.299999999999955
 21
-14.300000000000182
  0
LINE
  8
15
  6
CONTINUOUS
 62
     3
 10
37.099999999999909
 20
26.526466269999901
 11
46.5
 21
26.526466269999901
  0
LINE
  8
15
  6
CONTINUOUS
 62
     3
 10
42.400000000000091
 20
14.299999999999955
 11
42.400000000000091
 21
26.526466269999901
  0
LINE
  8
15
  6
CONTINUOUS
 62
     3
 10
42.400000000000091
 20
28.744590759277344
 11
42.400000000000091
 21
31.419999999999845
  0
ENDBLK
  8
15
  0
BLOCK
  8
15
  2
COMP1
 70
    64
 10
0.0
 20
0.0
  0
CIRCLE
  8
15
  6
CONTINUOUS
 62
     3
 10
605.83990886161223
 20
174.29999999999995
 40
16.875
  0
LINE
  8
15
  6
CONTINUOUS
 62
     3
 10
596.33990886161223
 20
183.79999999999995
 11
615.33990886161223
 21
183.79999999999995
  0
LINE
  8
15
  6
CONTINUOUS
 62
     3
 10
596.33990886161223
 20
164.79999999999995
 11
596.33990886161223
 21
183.79999999999995
  0
LINE
  8
15
  6
CONTINUOUS
 62
     3
 10
596.33990886161223
 20
164.79999999999995
 11
615.33990886161223
 21
164.79999999999995
  0
LINE
  8
15
  6
CONTINUOUS
 62
     3
 10
615.33990886161223
 20
164.79999999999995
 11
615.33990886161223
 21
183.79999999999995
  0
ENDBLK
  8
15
  0
BLOCK
  8
15
  2
COMP2
 70
    64
 10
0.0
 20
0.0
  0
LINE
  8
15
  6
CONTINUOUS
 62
     3
 10
581.93990886161214
 20
64.799999999999955
 11
581.64926933776383
 21
55.5
  0
LINE
  8
15
  6
CONTINUOUS
 62
     3
 10
581.64926933776383
 20
55.5
 11
630.03054838546041
 21
55.5
  0
LINE
  8
15
  6
CONTINUOUS
 62
     3
 10
593.08427977060728
 20
41.5
 11
592.83990886161223
 21
55.5
  0
LINE
  8
15
  6
CONTINUOUS
 62
     3
 10
618.59553795261718
 20
41.5
 11
618.83990886161223
 21
55.5
  0
LINE
  8
15
  6
CONTINUOUS
 62
     3
 10
593.08427977060728
 20
41.5
 11
618.59553795261718
 21
41.5
  0
LINE
  8
15
  6
CONTINUOUS
 62
     3
 10
629.73990886161209
 20
64.799999999999955
 11
630.03054838546041
 21
55.5
  0
ENDBLK
  8
15
  0
BLOCK
  8
15
  2
COMP3
 70
    64
 10
0.0
 20
0.0
  0
INSERT
  8
15
  6
CONTINUOUS
 62
     4
  2
SUB3
 10
386.83990886161212
 20
274.0
 41
1.0
 42
1.0
 50
0.0
  0
ENDBLK
  8
15
  0
BLOCK
  8
15
  2
COMP4
 70
    64
 10
0.0
 20
0.0
  0
LINE
  8
15
  6
PHANTOM
 62
     6
 10
750.83990886161223
 20
463.75
 11
750.83990886161223
 21
482.71402412135308
  0
ARC
  8
15
  6
PHANTOM
 62
     6
 10
740.83990886161223
 20
482.71402412135308
 40
10.0
 50
0.0
 51
83.025443337113771
  0
ARC
  8
15
  6
PHANTOM
 62
     6
 10
723.83990886161223
 20
343.74999999999989
 40
150.0
 50
83.025443337114154
 51
96.97455666288586
  0
LINE
  8
15
  6
PHANTOM
 62
     6
 10
745.18990886161214
 20
301.04999999999995
 11
745.18990886161214
 21
362.04999999999995
  0
LINE
  8
15
  6
PHANTOM
 62
     6
 10
745.18990886161214
 20
378.04999999999995
 11
745.18990886161214
 21
455.74999999999966
  0
LINE
  8
15
  6
PHANTOM
 62
     6
 10
696.83990886161223
 20
463.75
 11
707.09695801380735
 21
463.75
  0
LINE
  8
15
  6
PHANTOM
 62
     6
 10
740.58285970941688
 20
463.75
 11
750.83990886161223
 21
463.75
  0
LINE
  8
15
  6
PHANTOM
 62
     6
 10
745.18990886161214
 20
455.74999999999966
 11
744.80343543166055
 21
463.75
  0
LINE
  8
15
  6
PHANTOM
 62
     6
 10
696.83990886161223
 20
463.75
 11
696.83990886161223
 21
482.71402412135308
  0
ARC
  8
15
  6
PHANTOM
 62
     6
 10
706.83990886161223
 20
482.71402412135308
 40
10.0
 50
96.974556662886243
 51
180.0
  0
LINE
  8
15
  6
PHANTOM
 62
     6
 10
702.48990886161232
 20
455.74999999999966
 11
702.48990886161232
 21
378.04999999999995
  0
LINE
  8
15
  6
PHANTOM
 62
     6
 10
702.48990886161232
 20
362.04999999999995
 11
702.48990886161232
 21
301.04999999999995
  0
LINE
  8
15
  6
PHANTOM
 62
     6
 10
702.87638229156391
 20
463.75
 11
702.48990886161232
 21
455.74999999999966
  0
ENDBLK
  8
15
  0
BLOCK
  8
15
  2
COMP5
 70
    64
 10
0.0
 20
0.0
  0
LINE
  8
15
  6
CONTINUOUS
 62
     3
 10
638.63990886161218
 20
86.700000000000045
 11
638.63990886161218
 21
269.29999999999995
  0
LINE
  8
15
  6
CONTINUOUS
 62
     3
 10
636.03990886161205
 20
269.29999999999995
 11
638.63990886161218
 21
269.29999999999995
  0
LINE
  8
15
  6
CONTINUOUS
 62
     3
 10
633.06461856914007
 20
299.51712396442315
 11
603.22174880620082
 21
329.90213994103169
  0
LINE
  8
15
  6
CONTINUOUS
 62
     3
 10
595.70174271638484
 20
302.39999999999998
 11
626.03990886161205
 21
302.39999999999998
  0
ARC
  8
15
  6
CONTINUOUS
 62
     3
 10
626.03990886161205
 20
292.39999999999998
 40
10.0
 50
0.0
 51
90.0
  0
LINE
  8
15
  6
CONTINUOUS
 62
     3
 10
636.03990886161205
 20
105.5
 11
636.03990886161205
 21
292.39999999999998
  0
LINE
  8
15
  6
CONTINUOUS
 62
     3
 10
588.23990886161209
 20
282.29999999999995
 11
633.33990886161223
 21
282.29999999999995
  0
LINE
  8
15
  6
CONTINUOUS
 62
     3
 10
602.33990886161223
 20
265.69999999999993
 11
602.33990886161223
 21
282.29999999999995
  0
LINE
  8
15
  6
CONTINUOUS
 62
     3
 10
588.23990886161209
 20
265.69999999999993
 11
633.33990886161223
 21
265.69999999999993
  0
LINE
  8
15
  6
CONTINUOUS
 62
     3
 10
590.24759511373259
 20
282.29999999999995
 11
590.24759511373259
 21
305.36414452664087
  0
ARC
  8
15
  6
CONTINUOUS
 62
     3
 10
595.70174271638484
 20
308.89999999999998
 40
6.5000000000000018
 50
190.0
 51
270.0
  0
LINE
  8
15
  6
CONTINUOUS
 62
     3
 10
585.23990886161209
 20
330.79999999999995
 11
589.30049232180545
 21
307.77128684516492
  0
LINE
  8
15
  6
CONTINUOUS
 62
     3
 10
575.83990886161223
 20
330.79999999999995
 11
601.08141993700337
 21
330.79999999999995
  0
LINE
  8
15
  6
CONTINUOUS
 62
     3
 10
585.23990886161209
 20
285.29999999999995
 11
585.23990886161209
 21
330.79999999999995
  0
ARC
  8
15
  6
CONTINUOUS
 62
     3
 10
601.08141993700337
 20
327.79999999999995
 40
3.0
 50
44.484261308623104
 51
90.0
  0
LINE
  8
15
  6
CONTINUOUS
 62
     3
 10
575.83990886161223
 20
64.799999999999955
 11
575.83990886161223
 21
330.79999999999995
  0
ARC
  8
15
  6
CONTINUOUS
 62
     3
 10
588.23990886161209
 20
285.29999999999995
 40
3.0
 50
180.0
 51
270.0
  0
LINE
  8
15
  6
CONTINUOUS
 62
     3
 10
585.23990886161209
 20
203.19999999999993
 11
585.23990886161209
 21
209.79999999999995
  0
LINE
  8
15
  6
CONTINUOUS
 62
     3
 10
585.23990886161209
 20
209.79999999999995
 11
585.23990886161209
 21
262.69999999999993
  0
LINE
  8
15
  6
CONTINUOUS
 62
     3
 10
590.24759511373259
 20
203.19999999999993
 11
590.24759511373259
 21
209.79999999999995
  0
LINE
  8
15
  6
CONTINUOUS
 62
     3
 10
590.24759511373259
 20
209.79999999999995
 11
590.24759511373259
 21
265.69999999999993
  0
ARC
  8
15
  6
CONTINUOUS
 62
     3
 10
588.23990886161209
 20
262.69999999999993
 40
3.0
 50
90.0
 51
180.0
  0
LINE
  8
15
  6
CONTINUOUS
 62
     3
 10
579.03990886161205
 20
200.19999999999993
 11
584.33990886161223
 21
200.19999999999993
  0
LINE
  8
15
  6
CONTINUOUS
 62
     3
 10
584.33990886161223
 20
200.19999999999993
 11
627.33990886161223
 21
200.19999999999993
  0
LINE
  8
15
  6
CONTINUOUS
 62
     3
 10
627.33990886161223
 20
200.19999999999993
 11
630.33990886161223
 21
200.19999999999993
  0
LINE
  8
15
  6
CONTINUOUS
 62
     3
 10
579.03990886161205
 20
200.19999999999993
 11
579.03990886161205
 21
107.20000000000005
  0
ARC
  8
15
  6
CONTINUOUS
 62
     3
 10
630.33990886161223
 20
197.19999999999993
 40
3.0
 50
0.0
 51
90.0
  0
LINE
  8
15
  6
CONTINUOUS
 62
     3
 10
633.33990886161223
 20
110.20000000000005
 11
633.33990886161223
 21
197.19999999999993
  0
LINE
  8
15
  6
CONTINUOUS
 62
     3
 10
579.03990886161205
 20
107.20000000000005
 11
630.33990886161223
 21
107.20000000000005
  0
ARC
  8
15
  6
CONTINUOUS
 62
     3
 10
630.33990886161223
 20
110.20000000000005
 40
3.0
 50
270.0
 51
0.0
  0
ARC
  8
15
  6
CONTINUOUS
 62
     3
 10
626.03990886161205
 20
105.5
 40
10.0
 50
270.0
 51
0.0
  0
LINE
  8
15
  6
CONTINUOUS
 62
     3
 10
596.10729477201426
 20
95.5
 11
626.03990886161205
 21
95.5
  0
ARC
  8
15
  6
CONTINUOUS
 62
     3
 10
596.10729477201426
 20
89.0
 40
6.5
 50
90.0
 51
170.00000000000065
  0
LINE
  8
15
  6
CONTINUOUS
 62
     3
 10
590.24759511373259
 20
93.651103210449264
 11
590.24759511373259
 21
106.81082458496098
  0
LINE
  8
15
  6
CONTINUOUS
 62
     3
 10
585.23990886161209
 20
64.799999999999955
 11
589.70604437743509
 21
90.128713154834941
  0
LINE
  8
15
  6
CONTINUOUS
 62
     3
 10
585.23990886161209
 20
64.799999999999955
 11
585.23990886161209
 21
104.20000000000005
  0
ARC
  8
15
  6
CONTINUOUS
 62
     3
 10
588.23990886161209
 20
104.20000000000005
 40
3.0
 50
90.0
 51
180.0
  0
LINE
  8
15
  6
CONTINUOUS
 62
     3
 10
632.33990886161223
 20
64.799999999999955
 11
632.33990886161223
 21
97.734048673858297
  0
LINE
  8
15
  6
CONTINUOUS
 62
     3
 10
575.83990886161223
 20
64.799999999999955
 11
632.33990886161223
 21
64.799999999999955
  0
ARC
  8
15
  6
CONTINUOUS
 62
     3
 10
593.24759511373259
 20
203.19999999999993
 40
3.0
 50
180.0
 51
270.0
  0
ARC
  8
15
  6
CONTINUOUS
 62
     3
 10
588.23990886161209
 20
203.19999999999993
 40
3.0
 50
180.0
 51
270.0
  0
LINE
  8
15
  6
CENTER
 62
     3
 10
605.83990886161223
 20
146.0
 11
605.83990886161223
 21
203.31288146972656
  0
LINE
  8
15
  6
CENTER
 62
     3
 10
579.03990886161205
 20
174.29999999999995
 11
633.33990886161223
 21
174.29999999999995
  0
LINE
  8
15
  6
CENTER
 62
     3
 10
605.83990886161223
 20
32.87786865234375
 11
605.83990886161223
 21
73.816577911376953
  0
LINE
  8
15
  6
CONTINUOUS
 62
     3
 10
632.33990886161223
 20
86.700000000000045
 11
638.63990886161218
 21
86.700000000000045
  0
ENDBLK
  8
15
  0
BLOCK
  8
15
  2
COMP6
 70
    64
 10
0.0
 20
0.0
  0
LINE
  8
15
  6
CONTINUOUS
 62
     3
 10
-61.221876093192805
 20
64.200000000000045
 11
-61.490639523848358
 21
55.599999999999909
  0
LINE
  8
15
  6
CONTINUOUS
 62
     3
 10
-61.490639523848358
 20
55.599999999999909
 11
-13.109360476151778
 21
55.599999999999909
  0
LINE
  8
15
  6
CONTINUOUS
 62
     3
 10
-50.055629091004903
 20
41.599999999999909
 11
-50.299999999999955
 21
55.599999999999909
  0
LINE
  8
15
  6
CONTINUOUS
 62
     3
 10
-50.055629091004903
 20
41.599999999999909
 11
-24.544370908995006
 21
41.599999999999909
  0
LINE
  8
15
  6
CONTINUOUS
 62
     3
 10
-24.544370908995006
 20
41.599999999999909
 11
-24.299999999999955
 21
55.599999999999909
  0
LINE
  8
15
  6
CONTINUOUS
 62
     3
 10
-13.378123906807105
 20
64.200000000000045
 11
-13.109360476151778
 21
55.599999999999909
  0
ENDBLK
  8
15
  0
BLOCK
  8
15
  2
COMP7
 70
    64
 10
0.0
 20
0.0
  0
LINE
  8
15
  6
CONTINUOUS
 62
     3
 10
58.07812390680715
 20
64.200000000000045
 11
57.809360476151596
 21
55.599999999999909
  0
LINE
  8
15
  6
CONTINUOUS
 62
     3
 10
57.809360476151596
 20
55.599999999999909
 11
106.1906395238484
 21
55.599999999999909
  0
LINE
  8
15
  6
CONTINUOUS
 62
     3
 10
105.91420276480085
 20
64.445534238089749
 11
106.1906395238484
 21
55.599999999999909
  0
ENDBLK
  8
15
  0
BLOCK
  8
15
  2
COMP8
 70
    64
 10
0.0
 20
0.0
  0
LINE
  8
15
  6
CONTINUOUS
 62
     3
 10
58.07812390680715
 20
64.200000000000045
 11
57.809360476151596
 21
55.599999999999909
  0
LINE
  8
15
  6
CONTINUOUS
 62
     3
 10
57.809360476151596
 20
55.599999999999909
 11
106.1906395238484
 21
55.599999999999909
  0
LINE
  8
15
  6
CONTINUOUS
 62
     3
 10
69.244370908995052
 20
41.599999999999909
 11
69.0
 21
55.599999999999909
  0
LINE
  8
15
  6
CONTINUOUS
 62
     3
 10
69.244370908995052
 20
41.599999999999909
 11
94.755629091004948
 21
41.599999999999909
  0
LINE
  8
15
  6
CONTINUOUS
 62
     3
 10
94.755629091004948
 20
41.599999999999909
 11
95.0
 21
55.599999999999909
  0
LINE
  8
15
  6
CONTINUOUS
 62
     3
 10
105.92187609319285
 20
64.200000000000045
 11
106.1906395238484
 21
55.599999999999909
  0
ENDBLK
  8
15
  0
BLOCK
  8
15
  2
COMP9
 70
    64
 10
0.0
 20
0.0
  0
LINE
  8
15
  6
CONTINUOUS
 62
     3
 10
149.60000000000014
 20
190.92499923706055
 11
158.21000000000004
 21
191.19407518333298
  0
LINE
  8
15
  6
CONTINUOUS
 62
     3
 10
158.21000000000004
 20
191.19407518333298
 11
158.21000000000004
 21
157.405923290788
  0
LINE
  8
15
  6
CONTINUOUS
 62
     3
 10
170.21000000000004
 20
183.59053845792187
 11
158.21000000000004
 21
183.79999923706055
  0
LINE
  8
15
  6
CONTINUOUS
 62
     3
 10
170.21000000000004
 20
165.00946001619923
 11
158.21000000000004
 21
164.79999923706055
  0
LINE
  8
15
  6
CONTINUOUS
 62
     3
 10
170.21000000000004
 20
183.59053845792187
 11
170.21000000000004
 21
165.00946001619923
  0
LINE
  8
15
  6
CONTINUOUS
 62
     3
 10
149.60000000000014
 20
157.67499923706055
 11
158.21000000000004
 21
157.405923290788
  0
ENDBLK
  8
15
  0
BLOCK
  8
15
  2
COMP10
 70
    64
 10
0.0
 20
0.0
  0
LINE
  8
15
  6
CONTINUOUS
 62
     3
 10
-203.0
 20
248.10000000000002
 11
-176.0
 21
248.10000000000002
  0
LINE
  8
15
  6
CONTINUOUS
 62
     3
 10
-203.0
 20
84.100000000000136
 11
-178.0
 21
84.100000000000136
  0
LINE
  8
15
  6
CONTINUOUS
 62
     3
 10
-299.0
 20
105.10000000000014
 11
-203.0
 21
105.10000000000014
  0
LINE
  8
15
  6
CONTINUOUS
 62
     3
 10
-299.0
 20
227.10000000000014
 11
-203.0
 21
227.10000000000014
  0
LINE
  8
15
  6
CONTINUOUS
 62
     3
 10
-321.0
 20
249.10000000000014
 11
-321.0
 21
83.100000000000136
  0
LINE
  8
15
  6
CONTINUOUS
 62
     3
 10
-321.0
 20
99.100000000000136
 11
-203.0
 21
99.100000000000136
  0
LINE
  8
15
  6
CONTINUOUS
 62
     3
 10
-321.0
 20
233.10000000000014
 11
-203.0
 21
233.10000000000014
  0
LINE
  8
15
  6
CONTINUOUS
 62
     3
 10
-321.0
 20
231.10000000000014
 11
-299.0
 21
231.10000000000014
  0
LINE
  8
15
  6
CONTINUOUS
 62
     3
 10
-321.0
 20
101.10000000000014
 11
-299.0
 21
101.10000000000014
  0
LINE
  8
15
  6
CONTINUOUS
 62
     3
 10
-339.0
 20
154.10000000000014
 11
-339.0
 21
178.10000000000014
  0
LINE
  8
15
  6
CONTINUOUS
 62
     3
 10
-339.0
 20
221.10000000000014
 11
-331.0
 21
216.48119784648316
  0
LINE
  8
15
  6
CONTINUOUS
 62
     3
 10
-339.0
 20
180.10000000000014
 11
-331.0
 21
184.71880215351712
  0
LINE
  8
15
  6
CONTINUOUS
 62
     3
 10
-339.0
 20
152.10000000000014
 11
-331.0
 21
147.48119784648316
  0
LINE
  8
15
  6
CONTINUOUS
 62
     3
 10
-339.0
 20
111.10000000000014
 11
-331.0
 21
115.71880215351712
  0
LINE
  8
15
  6
CONTINUOUS
 62
     3
 10
-331.0
 20
158.10000000000014
 11
-331.0
 21
174.10000000000014
  0
LINE
  8
15
  6
CONTINUOUS
 62
     3
 10
-339.0
 20
174.10000000000014
 11
-331.0
 21
174.10000000000014
  0
LINE
  8
15
  6
CONTINUOUS
 62
     3
 10
-339.0
 20
158.10000000000014
 11
-331.0
 21
158.10000000000014
  0
LINE
  8
15
  6
CONTINUOUS
 62
     3
 10
-321.0
 20
170.10000000000014
 11
-203.0
 21
170.10000000000014
  0
LINE
  8
15
  6
CONTINUOUS
 62
     3
 10
-321.0
 20
162.10000000000014
 11
-203.0
 21
162.10000000000014
  0
LINE
  8
15
  6
CONTINUOUS
 62
     3
 10
-331.0
 20
249.10000000000014
 11
-331.0
 21
184.71880215351712
  0
LINE
  8
15
  6
CONTINUOUS
 62
     3
 10
-331.0
 20
147.48119784648316
 11
-331.0
 21
83.100000000000136
  0
LINE
  8
15
  6
CONTINUOUS
 62
     3
 10
-339.0
 20
83.100000000000136
 11
-321.0
 21
83.100000000000136
  0
LINE
  8
15
  6
CONTINUOUS
 62
     3
 10
-339.0
 20
249.10000000000014
 11
-339.0
 21
221.10000000000014
  0
LINE
  8
15
  6
CONTINUOUS
 62
     3
 10
-339.0
 20
180.10000000000014
 11
-339.0
 21
152.10000000000014
  0
LINE
  8
15
  6
CONTINUOUS
 62
     3
 10
-339.0
 20
111.10000000000014
 11
-339.0
 21
83.100000000000136
  0
LINE
  8
15
  6
CONTINUOUS
 62
     3
 10
-299.0
 20
231.10000000000014
 11
-299.0
 21
170.10000000000014
  0
LINE
  8
15
  6
CONTINUOUS
 62
     3
 10
-299.0
 20
162.10000000000014
 11
-299.0
 21
101.10000000000014
  0
LINE
  8
15
  6
CONTINUOUS
 62
     3
 10
-203.0
 20
248.10000000000002
 11
-203.0
 21
84.100000000000136
  0
LINE
  8
15
  6
CONTINUOUS
 62
     3
 10
-178.0
 20
104.10000000000014
 11
-178.0
 21
84.100000000000136
  0
LINE
  8
15
  6
CONTINUOUS
 62
     3
 10
-146.0
 20
228.10000000000014
 11
-146.0
 21
104.10000000000014
  0
LINE
  8
15
  6
CONTINUOUS
 62
     3
 10
-321.0
 20
91.100000000000136
 11
-203.0
 21
91.100000000000136
  0
LINE
  8
15
  6
CONTINUOUS
 62
     3
 10
-203.0
 20
104.10000000000014
 11
-133.0
 21
104.10000000000014
  0
LINE
  8
15
  6
CONTINUOUS
 62
     3
 10
-339.0
 20
249.10000000000014
 11
-321.0
 21
249.10000000000014
  0
LINE
  8
15
  6
CONTINUOUS
 62
     3
 10
-203.0
 20
228.10000000000014
 11
-133.0
 21
228.10000000000014
  0
LINE
  8
15
  6
CONTINUOUS
 62
     3
 10
-321.0
 20
241.10000000000014
 11
-203.0
 21
241.10000000000014
  0
LINE
  8
15
  6
CONTINUOUS
 62
     3
 10
-176.0
 20
248.10000000000002
 11
-176.0
 21
228.10000000000014
  0
LINE
  8
15
  6
CONTINUOUS
 62
     3
 10
-178.0
 20
186.10000000000014
 11
-178.0
 21
146.10000000000014
  0
LINE
  8
15
  6
CONTINUOUS
 62
     3
 10
-203.0
 20
176.10000000000014
 11
-178.0
 21
176.10000000000014
  0
LINE
  8
15
  6
CONTINUOUS
 62
     3
 10
-203.0
 20
156.10000000000014
 11
-178.0
 21
156.10000000000014
  0
LINE
  8
15
  6
CONTINUOUS
 62
     3
 10
-133.0
 20
228.10000000000014
 11
-133.0
 21
104.10000000000014
  0
LINE
  8
15
  6
CONTINUOUS
 62
     3
 10
-178.0
 20
186.10000000000014
 11
-133.0
 21
186.10000000000014
  0
LINE
  8
15
  6
CONTINUOUS
 62
     3
 10
-178.0
 20
146.10000000000014
 11
-133.0
 21
146.10000000000014
  0
ENDBLK
  8
15
  0
BLOCK
  8
15
  2
COMP11
 70
    64
 10
0.0
 20
0.0
  0
LINE
  8
15
  6
PHANTOM
 62
     6
 10
27.0
 20
463.75
 11
27.0
 21
482.71402412135308
  0
ARC
  8
15
  6
PHANTOM
 62
     6
 10
17.0
 20
482.71402412135308
 40
10.0
 50
0.0
 51
83.025443337113771
  0
ARC
  8
15
  6
PHANTOM
 62
     6
 10
0.0
 20
343.74999999999989
 40
150.0
 50
83.025443337114154
 51
96.97455666288586
  0
LINE
  8
15
  6
PHANTOM
 62
     6
 10
21.349999999999909
 20
330.10000000000014
 11
21.349999999999909
 21
362.04999999999995
  0
LINE
  8
15
  6
PHANTOM
 62
     6
 10
21.349999999999909
 20
378.04999999999995
 11
21.349999999999909
 21
455.74999999999966
  0
LINE
  8
15
  6
PHANTOM
 62
     6
 10
-27.0
 20
463.75
 11
27.0
 21
463.75
  0
LINE
  8
15
  6
PHANTOM
 62
     6
 10
21.349999999999909
 20
455.74999999999966
 11
20.963526570048316
 21
463.75
  0
LINE
  8
15
  6
PHANTOM
 62
     6
 10
-27.0
 20
463.75
 11
-27.0
 21
482.71402412135308
  0
ARC
  8
15
  6
PHANTOM
 62
     6
 10
-17.0
 20
482.71402412135308
 40
10.0
 50
96.974556662886243
 51
180.0
  0
LINE
  8
15
  6
PHANTOM
 62
     6
 10
-21.349999999999909
 20
455.74999999999966
 11
-21.349999999999909
 21
378.04999999999995
  0
LINE
  8
15
  6
PHANTOM
 62
     6
 10
-21.349999999999909
 20
362.04999999999995
 11
-21.349999999999909
 21
330.10000000000014
  0
LINE
  8
15
  6
PHANTOM
 62
     6
 10
-20.963526570048316
 20
463.75
 11
-21.349999999999909
 21
455.74999999999966
  0
ENDBLK
  8
15
  0
BLOCK
  8
15
  2
COMP12
 70
    64
 10
0.0
 20
0.0
  0
INSERT
  8
15
  6
CONTINUOUS
 62
     4
  2
SUB13
 10
0.0
 20
126.0
 41
1.0
 42
1.0
 50
0.0
  0
LINE
  8
15
  6
CENTER
 62
     3
 10
-37.299999999999955
 20
30.700668334960938
 11
-37.299999999999955
 21
76.858303070068359
  0
LINE
  8
15
  6
CENTER
 62
     3
 10
82.0
 20
33.830734252929688
 11
82.0
 21
76.858303070068359
  0
LINE
  8
15
  6
CONTINUOUS
 62
     3
 10
57.993744690206086
 20
61.5
 11
-13.29374469020604
 21
61.5
  0
LINE
  8
15
  6
CONTINUOUS
 62
     3
 10
-61.306255309794096
 20
61.5
 11
-62.5
 21
61.5
  0
ENDBLK
  8
15
  0
BLOCK
  8
15
  2
COMP13
 70
    64
 10
0.0
 20
0.0
  0
LINE
  8
15
  6
CONTINUOUS
 62
     3
 10
-86.299999999999955
 20
882.55835502513673
 11
-12.5
 21
882.55835502513673
  0
LINE
  8
15
  6
CONTINUOUS
 62
     3
 10
12.5
 20
882.55835502513673
 11
104.51511852358976
 21
882.55835502513673
  0
INSERT
  8
15
  6
CONTINUOUS
 62
     4
  2
SUB20
 10
68.5
 20
885.15835502513664
 41
1.0
 42
1.0
 50
0.0
  0
LINE
  8
15
  6
CONTINUOUS
 62
     3
 10
149.60000000000014
 20
879.75835502513678
 11
149.60000000000014
 21
822.35835502513669
  0
ENDBLK
  8
15
  0
BLOCK
  8
15
  2
COMP14
 70
    64
 10
0.0
 20
0.0
  0
LINE
  8
15
  6
CONTINUOUS
 62
     3
 10
149.60000000000014
 20
868.98335502513669
 11
158.21000000000004
 21
869.25243097140924
  0
LINE
  8
15
  6
CONTINUOUS
 62
     3
 10
158.21000000000004
 20
869.25243097140924
 11
158.21000000000004
 21
835.46427907886414
  0
LINE
  8
15
  6
CONTINUOUS
 62
     3
 10
170.21000000000004
 20
861.64889424599801
 11
158.21000000000004
 21
861.85835502513669
  0
LINE
  8
15
  6
CONTINUOUS
 62
     3
 10
170.21000000000004
 20
861.64889424599801
 11
170.21000000000004
 21
843.06781580427537
  0
LINE
  8
15
  6
CONTINUOUS
 62
     3
 10
170.21000000000004
 20
843.06781580427537
 11
158.21000000000004
 21
842.85835502513669
  0
LINE
  8
15
  6
CONTINUOUS
 62
     3
 10
149.60000000000014
 20
835.73335502513669
 11
158.21000000000004
 21
835.46427907886414
  0
ENDBLK
  8
15
  0
BLOCK
  8
15
  2
COMP15
 70
    64
 10
0.0
 20
0.0
  0
LINE
  8
15
  6
CONTINUOUS
 62
     3
 10
-203.0
 20
1012.9383550251368
 11
-176.0
 21
1012.9383550251368
  0
LINE
  8
15
  6
CONTINUOUS
 62
     3
 10
-203.0
 20
848.93835502513684
 11
-178.0
 21
848.93835502513684
  0
LINE
  8
15
  6
CONTINUOUS
 62
     3
 10
-133.0
 20
992.93835502513684
 11
-133.0
 21
982.85835502513669
  0
LINE
  8
15
  6
CONTINUOUS
 62
     3
 10
-133.0
 20
957.85835502513669
 11
-133.0
 21
943.34335918949023
  0
LINE
  8
15
  6
CONTINUOUS
 62
     3
 10
-133.0
 20
943.34335918949023
 11
-133.0
 21
939.64597966926408
  0
LINE
  8
15
  6
CONTINUOUS
 62
     3
 10
-133.0
 20
895.74434829717711
 11
-133.0
 21
840.93835502513662
  0
LINE
  8
15
  6
CONTINUOUS
 62
     3
 10
-146.0
 20
840.93835502513662
 11
-133.0
 21
840.93835502513662
  0
LINE
  8
15
  6
CONTINUOUS
 62
     3
 10
-203.0
 20
1012.9383550251368
 11
-203.0
 21
848.93835502513684
  0
LINE
  8
15
  6
CONTINUOUS
 62
     3
 10
-178.0
 20
868.93835502513684
 11
-178.0
 21
844.43835502513684
  0
LINE
  8
15
  6
CONTINUOUS
 62
     3
 10
-146.0
 20
926.31008604666249
 11
-146.0
 21
868.93835502513684
  0
LINE
  8
15
  6
CONTINUOUS
 62
     3
 10
-146.0
 20
844.43835502513684
 11
-146.0
 21
840.93835502513662
  0
LINE
  8
15
  6
CONTINUOUS
 62
     3
 10
-203.0
 20
868.93835502513684
 11
-133.0
 21
868.93835502513684
  0
LINE
  8
15
  6
CONTINUOUS
 62
     3
 10
-178.0
 20
844.43835502513684
 11
-146.0
 21
844.43835502513684
  0
LINE
  8
15
  6
CONTINUOUS
 62
     3
 10
-203.0
 20
992.93835502513684
 11
-151.06787151577078
 21
992.93835502513684
  0
LINE
  8
15
  6
CONTINUOUS
 62
     3
 10
-151.06787151577078
 20
992.93835502513684
 11
-150.81907571656848
 21
992.93835502513684
  0
LINE
  8
15
  6
CONTINUOUS
 62
     3
 10
-134.61943990375244
 20
992.93835502513684
 11
-133.81943990375248
 21
992.93835502513684
  0
LINE
  8
15
  6
CONTINUOUS
 62
     3
 10
-133.81943990375248
 20
992.93835502513684
 11
-133.0
 21
992.93835502513684
  0
LINE
  8
15
  6
CONTINUOUS
 62
     3
 10
-176.0
 20
1012.9383550251368
 11
-176.0
 21
992.93835502513684
  0
LINE
  8
15
  6
CONTINUOUS
 62
     3
 10
-178.0
 20
940.93835502513684
 11
-178.0
 21
920.93835502513684
  0
LINE
  8
15
  6
CONTINUOUS
 62
     3
 10
-203.0
 20
940.93835502513684
 11
-178.0
 21
940.93835502513684
  0
LINE
  8
15
  6
CONTINUOUS
 62
     3
 10
-203.0
 20
920.93835502513684
 11
-178.0
 21
920.93835502513684
  0
LINE
  8
15
  6
CONTINUOUS
 62
     3
 10
-299.0
 20
991.93835502513684
 11
-203.0
 21
991.93835502513684
  0
LINE
  8
15
  6
CONTINUOUS
 62
     3
 10
-321.0
 20
1013.9383550251368
 11
-321.0
 21
847.93835502513684
  0
LINE
  8
15
  6
CONTINUOUS
 62
     3
 10
-321.0
 20
997.93835502513684
 11
-203.0
 21
997.93835502513684
  0
LINE
  8
15
  6
CONTINUOUS
 62
     3
 10
-321.0
 20
995.93835502513684
 11
-299.0
 21
995.93835502513684
  0
LINE
  8
15
  6
CONTINUOUS
 62
     3
 10
-339.0
 20
918.93835502513684
 11
-339.0
 21
942.93835502513684
  0
LINE
  8
15
  6
CONTINUOUS
 62
     3
 10
-339.0
 20
985.93835502513684
 11
-331.0
 21
981.31955287161986
  0
LINE
  8
15
  6
CONTINUOUS
 62
     3
 10
-339.0
 20
944.93835502513684
 11
-331.0
 21
949.55715717865382
  0
LINE
  8
15
  6
CONTINUOUS
 62
     3
 10
-331.0
 20
922.93835502513684
 11
-331.0
 21
938.93835502513684
  0
LINE
  8
15
  6
CONTINUOUS
 62
     3
 10
-339.0
 20
938.93835502513684
 11
-331.0
 21
938.93835502513684
  0
LINE
  8
15
  6
CONTINUOUS
 62
     3
 10
-321.0
 20
934.93835502513684
 11
-203.0
 21
934.93835502513684
  0
LINE
  8
15
  6
CONTINUOUS
 62
     3
 10
-331.0
 20
1013.9383550251368
 11
-331.0
 21
949.55715717865382
  0
LINE
  8
15
  6
CONTINUOUS
 62
     3
 10
-331.0
 20
912.31955287161986
 11
-331.0
 21
847.93835502513684
  0
LINE
  8
15
  6
CONTINUOUS
 62
     3
 10
-339.0
 20
1013.9383550251368
 11
-339.0
 21
985.93835502513684
  0
LINE
  8
15
  6
CONTINUOUS
 62
     3
 10
-339.0
 20
944.93835502513684
 11
-339.0
 21
916.93835502513684
  0
LINE
  8
15
  6
CONTINUOUS
 62
     3
 10
-339.0
 20
875.93835502513684
 11
-339.0
 21
847.93835502513684
  0
LINE
  8
15
  6
CONTINUOUS
 62
     3
 10
-299.0
 20
995.93835502513684
 11
-299.0
 21
934.93835502513684
  0
LINE
  8
15
  6
CONTINUOUS
 62
     3
 10
-299.0
 20
926.93835502513684
 11
-299.0
 21
865.93835502513684
  0
LINE
  8
15
  6
CONTINUOUS
 62
     3
 10
-339.0
 20
1013.9383550251368
 11
-321.0
 21
1013.9383550251368
  0
LINE
  8
15
  6
CONTINUOUS
 62
     3
 10
-321.0
 20
1005.9383550251368
 11
-203.0
 21
1005.9383550251368
  0
LINE
  8
15
  6
CONTINUOUS
 62
     3
 10
-299.0
 20
869.93835502513684
 11
-203.0
 21
869.93835502513684
  0
LINE
  8
15
  6
CONTINUOUS
 62
     3
 10
-321.0
 20
863.93835502513684
 11
-203.0
 21
863.93835502513684
  0
LINE
  8
15
  6
CONTINUOUS
 62
     3
 10
-321.0
 20
865.93835502513684
 11
-299.0
 21
865.93835502513684
  0
LINE
  8
15
  6
CONTINUOUS
 62
     3
 10
-339.0
 20
916.93835502513684
 11
-331.0
 21
912.31955287161986
  0
LINE
  8
15
  6
CONTINUOUS
 62
     3
 10
-339.0
 20
875.93835502513684
 11
-331.0
 21
880.55715717865382
  0
LINE
  8
15
  6
CONTINUOUS
 62
     3
 10
-339.0
 20
922.93835502513684
 11
-331.0
 21
922.93835502513684
  0
LINE
  8
15
  6
CONTINUOUS
 62
     3
 10
-321.0
 20
926.93835502513684
 11
-203.0
 21
926.93835502513684
  0
LINE
  8
15
  6
CONTINUOUS
 62
     3
 10
-339.0
 20
847.93835502513684
 11
-321.0
 21
847.93835502513684
  0
LINE
  8
15
  6
CONTINUOUS
 62
     3
 10
-321.0
 20
855.93835502513684
 11
-203.0
 21
855.93835502513684
  0
ENDBLK
  8
15
  0
BLOCK
  8
15
  2
COMP16
 70
    64
 10
0.0
 20
0.0
  0
LINE
  8
15
  6
CONTINUOUS
 62
     3
 10
-11.5
 20
981.85835502513669
 11
11.5
 21
981.85835502513669
  0
LINE
  8
15
  6
CONTINUOUS
 62
     3
 10
-11.5
 20
958.85835502513669
 11
-11.5
 21
981.85835502513669
  0
LINE
  8
15
  6
CONTINUOUS
 62
     3
 10
-11.5
 20
958.85835502513669
 11
11.5
 21
958.85835502513669
  0
LINE
  8
15
  6
CONTINUOUS
 62
     3
 10
11.5
 20
958.85835502513669
 11
11.5
 21
981.85835502513669
  0
ENDBLK
  8
15
  0
BLOCK
  8
15
  2
COMP17
 70
    64
 10
0.0
 20
0.0
  0
LINE
  8
15
  6
CONTINUOUS
 62
     3
 10
106.29999999999995
 20
1037.5750828812374
 11
114.29999999999995
 21
1037.5750828812374
  0
INSERT
  8
15
  6
CONTINUOUS
 62
     3
  2
SUB21
 10
54.5
 20
926.43835502513684
 41
1.0
 42
1.0
 50
0.0
  0
ENDBLK
  8
15
  0
BLOCK
  8
15
  2
COMP18
 70
    64
 10
0.0
 20
0.0
  0
POLYLINE
  8
15
  6
CONTINUOUS
 62
     7
 66
     1
 70
     0
 40
0.0
 41
0.0
  0
VERTEX
  8
15
 10
519.85992431640625
 20
905.28656005859375
  0
VERTEX
  8
15
 10
519.71974891238995
 20
906.06868773939368
  0
VERTEX
  8
15
 10
519.51071924812413
 20
906.83274411224795
  0
VERTEX
  8
15
 10
519.23412290899273
 20
907.57400119675219
  0
VERTEX
  8
15
 10
518.89187417219205
 20
908.28731204384496
  0
VERTEX
  8
15
 10
518.48613907146932
 20
908.96797525987699
  0
VERTEX
  8
15
 10
518.02033858663083
 20
909.61009248660127
  0
VERTEX
  8
15
 10
517.49825550273204
 20
910.2084453071576
  0
VERTEX
  8
15
 10
516.9243219500546
 20
910.75794884824006
  0
VERTEX
  8
15
 10
516.30344365184555
 20
911.25390285457024
  0
VERTEX
  8
15
 10
515.64096541874869
 20
911.69203293846715
  0
VERTEX
  8
15
 10
514.94252062986459
 20
912.0686175680878
  0
VERTEX
  8
15
 10
514.21379324538964
 20
912.38059454360314
  0
VERTEX
  8
15
 10
513.46109268592841
 20
912.62535099220509
  0
VERTEX
  8
15
 10
512.68938324175895
 20
912.80135725881109
  0
VERTEX
  8
15
 10
511.90403600715018
 20
912.90739437218554
  0
VERTEX
  8
15
 10
511.10992431640625
 20
912.94281005859375
  0
VERTEX
  8
15
 10
510.31581262566232
 20
912.90739437218554
  0
VERTEX
  8
15
 10
509.53046539105355
 20
912.80135725881109
  0
VERTEX
  8
15
 10
508.75875594688409
 20
912.62535099220509
  0
VERTEX
  8
15
 10
508.00605538742286
 20
912.38059454360314
  0
VERTEX
  8
15
 10
507.27732800294797
 20
912.0686175680878
  0
VERTEX
  8
15
 10
506.57888321406381
 20
911.69203293846715
  0
VERTEX
  8
15
 10
505.91640498096695
 20
911.25390285457024
  0
VERTEX
  8
15
 10
505.2955266827579
 20
910.75794884824006
  0
VERTEX
  8
15
 10
504.72159313008063
 20
910.20844530715772
  0
VERTEX
  8
15
 10
504.19951004618162
 20
909.61009248660127
  0
VERTEX
  8
15
 10
503.73370956134301
 20
908.96797525987677
  0
VERTEX
  8
15
 10
503.32797446062045
 20
908.28731204384496
  0
VERTEX
  8
15
 10
502.98572572381994
 20
907.57400119675253
  0
VERTEX
  8
15
 10
502.70912938468831
 20
906.83274411224795
  0
VERTEX
  8
15
 10
502.50009972042244
 20
906.06868773939334
  0
VERTEX
  8
15
 10
502.35992431640625
 20
905.28656005859375
  0
VERTEX
  8
15
 10
502.35992431640625
 20
884.50531005859375
  0
VERTEX
  8
15
 10
502.59309857666477
 20
883.80969250004671
  0
VERTEX
  8
15
 10
502.88083986546775
 20
883.1363528900996
  0
VERTEX
  8
15
 10
503.22164676952514
 20
882.48881275458825
  0
VERTEX
  8
15
 10
503.61356441698996
 20
881.87079362771954
  0
VERTEX
  8
15
 10
504.0544799334254
 20
881.28570929289515
  0
VERTEX
  8
15
 10
504.54141323981423
 20
880.73758789770204
  0
VERTEX
  8
15
 10
505.07119043765726
 20
880.23000390471555
  0
VERTEX
  8
15
 10
505.64023430272943
 20
879.76638721311497
  0
VERTEX
  8
15
 10
506.24467987105294
 20
879.34988795856748
  0
VERTEX
  8
15
 10
506.88040285055956
 20
878.98335012311009
  0
VERTEX
  8
15
 10
507.54310621599819
 20
878.66924914630908
  0
VERTEX
  8
15
 10
508.22846478328972
 20
878.40963378060576
  0
VERTEX
  8
15
 10
508.93177229037406
 20
878.20623959306079
  0
VERTEX
  8
15
 10
509.64915072142799
 20
878.06014262242263
  0
VERTEX
  8
15
 10
510.37647148832286
 20
877.97218023687162
  0
VERTEX
  8
15
 10
511.10992431640625
 20
877.94281005859375
  0
VERTEX
  8
15
 10
511.84337714448964
 20
877.97218023687162
  0
VERTEX
  8
15
 10
512.57069791138451
 20
878.06014262242263
  0
VERTEX
  8
15
 10
513.28807634243844
 20
878.20623959306079
  0
VERTEX
  8
15
 10
513.99138384952278
 20
878.40963378060576
  0
VERTEX
  8
15
 10
514.67674241681391
 20
878.66924914630897
  0
VERTEX
  8
15
 10
515.33944578225282
 20
878.98335012310997
  0
VERTEX
  8
15
 10
515.97516876175962
 20
879.34988795856748
  0
VERTEX
  8
15
 10
516.57961433008313
 20
879.76638721311497
  0
VERTEX
  8
15
 10
517.14865819515546
 20
880.23000390471577
  0
VERTEX
  8
15
 10
517.67843539299838
 20
880.73758789770216
  0
VERTEX
  8
15
 10
518.16536869938727
 20
881.28570929289538
  0
VERTEX
  8
15
 10
518.6062842158226
 20
881.87079362771965
  0
VERTEX
  8
15
 10
518.99820186328714
 20
882.48881275458803
  0
VERTEX
  8
15
 10
519.33900876734481
 20
883.1363528900996
  0
VERTEX
  8
15
 10
519.6267500561479
 20
883.80969250004705
  0
VERTEX
  8
15
 10
519.85992431640625
 20
884.50531005859375
  0
SEQEND
  8
15
  0
POLYLINE
  8
15
  6
CONTINUOUS
 62
     7
 66
     1
 70
     0
 40
0.0
 41
0.0
  0
VERTEX
  8
15
 10
519.85992431640625
 20
877.94281005859375
  0
VERTEX
  8
15
 10
519.85992431640625
 20
894.89593505859375
  0
VERTEX
  8
15
 10
511.10992431640625
 20
894.89593505859375
  0
SEQEND
  8
15
  0
POLYLINE
  8
15
  6
CONTINUOUS
 62
     7
 66
     1
 70
     0
 40
0.0
 41
0.0
  0
VERTEX
  8
15
 10
548.29742431640625
 20
905.28656005859375
  0
VERTEX
  8
15
 10
548.15724891238995
 20
906.06868773939368
  0
VERTEX
  8
15
 10
547.94821924812413
 20
906.83274411224795
  0
VERTEX
  8
15
 10
547.67162290899273
 20
907.57400119675219
  0
VERTEX
  8
15
 10
547.32937417219205
 20
908.28731204384496
  0
VERTEX
  8
15
 10
546.92363907146932
 20
908.96797525987699
  0
VERTEX
  8
15
 10
546.45783858663083
 20
909.61009248660127
  0
VERTEX
  8
15
 10
545.93575550273204
 20
910.2084453071576
  0
VERTEX
  8
15
 10
545.3618219500546
 20
910.75794884824006
  0
VERTEX
  8
15
 10
544.74094365184555
 20
911.25390285457024
  0
VERTEX
  8
15
 10
544.07846541874869
 20
911.69203293846715
  0
VERTEX
  8
15
 10
543.38002062986459
 20
912.0686175680878
  0
VERTEX
  8
15
 10
542.65129324538964
 20
912.38059454360314
  0
VERTEX
  8
15
 10
541.89859268592841
 20
912.62535099220509
  0
VERTEX
  8
15
 10
541.12688324175895
 20
912.80135725881109
  0
VERTEX
  8
15
 10
540.34153600715024
 20
912.90739437218554
  0
VERTEX
  8
15
 10
539.54742431640625
 20
912.94281005859375
  0
VERTEX
  8
15
 10
538.75331262566226
 20
912.90739437218554
  0
VERTEX
  8
15
 10
537.96796539105355
 20
912.80135725881109
  0
VERTEX
  8
15
 10
537.19625594688409
 20
912.62535099220509
  0
VERTEX
  8
15
 10
536.44355538742286
 20
912.38059454360314
  0
VERTEX
  8
15
 10
535.71482800294791
 20
912.0686175680878
  0
VERTEX
  8
15
 10
535.01638321406381
 20
911.69203293846715
  0
VERTEX
  8
15
 10
534.35390498096695
 20
911.25390285457024
  0
VERTEX
  8
15
 10
533.7330266827579
 20
910.75794884824006
  0
VERTEX
  8
15
 10
533.15909313008046
 20
910.2084453071576
  0
VERTEX
  8
15
 10
532.63701004618167
 20
909.61009248660127
  0
VERTEX
  8
15
 10
532.17120956134318
 20
908.96797525987699
  0
VERTEX
  8
15
 10
531.76547446062045
 20
908.28731204384496
  0
VERTEX
  8
15
 10
531.42322572381977
 20
907.57400119675219
  0
VERTEX
  8
15
 10
531.14662938468837
 20
906.83274411224795
  0
VERTEX
  8
15
 10
530.93759972042255
 20
906.06868773939368
  0
VERTEX
  8
15
 10
530.79742431640625
 20
905.28656005859375
  0
VERTEX
  8
15
 10
530.79742431640625
 20
884.50531005859375
  0
VERTEX
  8
15
 10
531.0305985766646
 20
883.80969250004705
  0
VERTEX
  8
15
 10
531.31833986546769
 20
883.1363528900996
  0
VERTEX
  8
15
 10
531.65914676952536
 20
882.48881275458803
  0
VERTEX
  8
15
 10
532.0510644169899
 20
881.87079362771965
  0
VERTEX
  8
15
 10
532.49197993342523
 20
881.28570929289538
  0
VERTEX
  8
15
 10
532.97891323981412
 20
880.73758789770216
  0
VERTEX
  8
15
 10
533.50869043765704
 20
880.23000390471577
  0
VERTEX
  8
15
 10
534.07773430272937
 20
879.76638721311497
  0
VERTEX
  8
15
 10
534.68217987105288
 20
879.34988795856748
  0
VERTEX
  8
15
 10
535.31790285055968
 20
878.98335012310997
  0
VERTEX
  8
15
 10
535.98060621599859
 20
878.66924914630897
  0
VERTEX
  8
15
 10
536.66596478328972
 20
878.40963378060576
  0
VERTEX
  8
15
 10
537.36927229037406
 20
878.20623959306079
  0
VERTEX
  8
15
 10
538.08665072142799
 20
878.06014262242263
  0
VERTEX
  8
15
 10
538.81397148832286
 20
877.97218023687162
  0
VERTEX
  8
15
 10
539.54742431640625
 20
877.94281005859375
  0
VERTEX
  8
15
 10
540.28087714448964
 20
877.97218023687162
  0
VERTEX
  8
15
 10
541.00819791138451
 20
878.06014262242263
  0
VERTEX
  8
15
 10
541.72557634243844
 20
878.20623959306079
  0
VERTEX
  8
15
 10
542.42888384952278
 20
878.40963378060576
  0
VERTEX
  8
15
 10
543.11424241681391
 20
878.66924914630897
  0
VERTEX
  8
15
 10
543.77694578225282
 20
878.98335012310997
  0
VERTEX
  8
15
 10
544.41266876175962
 20
879.34988795856748
  0
VERTEX
  8
15
 10
545.01711433008313
 20
879.76638721311497
  0
VERTEX
  8
15
 10
545.58615819515546
 20
880.23000390471577
  0
VERTEX
  8
15
 10
546.11593539299838
 20
880.73758789770216
  0
VERTEX
  8
15
 10
546.60286869938727
 20
881.28570929289538
  0
VERTEX
  8
15
 10
547.0437842158226
 20
881.87079362771965
  0
VERTEX
  8
15
 10
547.43570186328714
 20
882.48881275458803
  0
VERTEX
  8
15
 10
547.77650876734481
 20
883.1363528900996
  0
VERTEX
  8
15
 10
548.0642500561479
 20
883.80969250004705
  0
VERTEX
  8
15
 10
548.29742431640625
 20
884.50531005859375
  0
SEQEND
  8
15
  0
POLYLINE
  8
15
  6
CONTINUOUS
 62
     7
 66
     1
 70
     0
 40
0.0
 41
0.0
  0
VERTEX
  8
15
 10
567.98492431640625
 20
877.94281005859375
  0
VERTEX
  8
15
 10
567.98492431640625
 20
912.94281005859375
  0
VERTEX
  8
15
 10
561.96929931640625
 20
902.55218505859375
  0
SEQEND
  8
15
  0
POLYLINE
  8
15
  6
CONTINUOUS
 62
     7
 66
     1
 70
     0
 40
0.0
 41
0.0
  0
VERTEX
  8
15
 10
587.67242431640625
 20
906.38031005859375
  0
VERTEX
  8
15
 10
593.14117431640625
 20
912.94281005859375
  0
VERTEX
  8
15
 10
599.70367431640625
 20
912.94281005859375
  0
VERTEX
  8
15
 10
605.17242431640625
 20
906.38031005859375
  0
VERTEX
  8
15
 10
605.17242431640625
 20
897.63031005859375
  0
VERTEX
  8
15
 10
587.67242431640625
 20
882.31781005859375
  0
VERTEX
  8
15
 10
587.67242431640625
 20
877.94281005859375
  0
VERTEX
  8
15
 10
605.17242431640625
 20
877.94281005859375
  0
SEQEND
  8
15
  0
POLYLINE
  8
15
  6
CONTINUOUS
 62
     7
 66
     1
 70
     0
 40
0.0
 41
0.0
  0
VERTEX
  8
15
 10
617.20367431640625
 20
906.38031005859375
  0
VERTEX
  8
15
 10
617.20367431640625
 20
884.50531005859375
  0
VERTEX
  8
15
 10
617.28783839273262
 20
883.84455312224679
  0
VERTEX
  8
15
 10
617.43239963477095
 20
883.1967047028196
  0
VERTEX
  8
15
 10
617.63641741315132
 20
882.56600581512976
  0
VERTEX
  8
15
 10
617.89838848854413
 20
881.95712219704535
  0
VERTEX
  8
15
 10
618.21656821850036
 20
881.37431108381713
  0
VERTEX
  8
15
 10
618.58807182023747
 20
880.8230247442998
  0
VERTEX
  8
15
 10
619.0096523641439
 20
880.30808528743546
  0
VERTEX
  8
15
 10
619.4774485167386
 20
879.83421455525138
  0
VERTEX
  8
15
 10
619.98710140001401
 20
879.40582043650386
  0
VERTEX
  8
15
 10
620.53391666578614
 20
879.02684379443383
  0
VERTEX
  8
15
 10
621.11288637026769
 20
878.70075120081538
  0
VERTEX
  8
15
 10
621.71895780601858
 20
878.43038592152914
  0
VERTEX
  8
15
 10
622.34647860118798
 20
878.21818055289964
  0
VERTEX
  8
15
 10
622.99108897985593
 20
878.06552438864219
  0
VERTEX
  8
15
 10
623.64803940311333
 20
877.9735363136225
  0
VERTEX
  8
15
 10
624.31304931640625
 20
877.94281005859375
  0
VERTEX
  8
15
 10
624.97805922969917
 20
877.9735363136225
  0
VERTEX
  8
15
 10
625.63500965295657
 20
878.06552438864219
  0
VERTEX
  8
15
 10
626.27962003162452
 20
878.21818055289964
  0
VERTEX
  8
15
 10
626.90714082679392
 20
878.43038592152914
  0
VERTEX
  8
15
 10
627.51321226254481
 20
878.70075120081538
  0
VERTEX
  8
15
 10
628.09218196702636
 20
879.02684379443383
  0
VERTEX
  8
15
 10
628.63899723279849
 20
879.40582043650386
  0
VERTEX
  8
15
 10
629.1486501160739
 20
879.83421455525138
  0
VERTEX
  8
15
 10
629.6164462686686
 20
880.30808528743546
  0
VERTEX
  8
15
 10
630.03802681257503
 20
880.8230247442998
  0
VERTEX
  8
15
 10
630.40953041431214
 20
881.37431108381713
  0
VERTEX
  8
15
 10
630.72771014426837
 20
881.95712219704535
  0
VERTEX
  8
15
 10
630.98968121966118
 20
882.56600581512976
  0
VERTEX
  8
15
 10
631.19369899804155
 20
883.1967047028196
  0
VERTEX
  8
15
 10
631.33826024007988
 20
883.84455312224679
  0
VERTEX
  8
15
 10
631.42242431640625
 20
884.50531005859375
  0
VERTEX
  8
15
 10
631.42242431640625
 20
906.38031005859375
  0
VERTEX
  8
15
 10
631.33826024007988
 20
907.04106699494071
  0
VERTEX
  8
15
 10
631.19369899804155
 20
907.6889154143679
  0
VERTEX
  8
15
 10
630.98968121966118
 20
908.31961430205774
  0
VERTEX
  8
15
 10
630.72771014426837
 20
908.92849792014215
  0
VERTEX
  8
15
 10
630.40953041431214
 20
909.51130903337037
  0
VERTEX
  8
15
 10
630.03802681257503
 20
910.0625953728877
  0
VERTEX
  8
15
 10
629.6164462686686
 20
910.57753482975204
  0
VERTEX
  8
15
 10
629.1486501160739
 20
911.05140556193612
  0
VERTEX
  8
15
 10
628.63899723279849
 20
911.47979968068364
  0
VERTEX
  8
15
 10
628.09218196702636
 20
911.85877632275367
  0
VERTEX
  8
15
 10
627.51321226254481
 20
912.18486891637212
  0
VERTEX
  8
15
 10
626.90714082679392
 20
912.45523419565836
  0
VERTEX
  8
15
 10
626.27962003162452
 20
912.66743956428786
  0
VERTEX
  8
15
 10
625.63500965295657
 20
912.82009572854531
  0
VERTEX
  8
15
 10
624.97805922969917
 20
912.912083803565
  0
VERTEX
  8
15
 10
624.31304931640625
 20
912.94281005859375
  0
VERTEX
  8
15
 10
623.64803940311333
 20
912.912083803565
  0
VERTEX
  8
15
 10
622.99108897985593
 20
912.82009572854531
  0
VERTEX
  8
15
 10
622.34647860118798
 20
912.66743956428786
  0
VERTEX
  8
15
 10
621.71895780601858
 20
912.45523419565836
  0
VERTEX
  8
15
 10
621.11288637026769
 20
912.18486891637212
  0
VERTEX
  8
15
 10
620.53391666578614
 20
911.85877632275367
  0
VERTEX
  8
15
 10
619.98710140001401
 20
911.47979968068364
  0
VERTEX
  8
15
 10
619.4774485167386
 20
911.05140556193612
  0
VERTEX
  8
15
 10
619.0096523641439
 20
910.57753482975204
  0
VERTEX
  8
15
 10
618.58807182023747
 20
910.0625953728877
  0
VERTEX
  8
15
 10
618.21656821850036
 20
909.51130903337037
  0
VERTEX
  8
15
 10
617.89838848854413
 20
908.92849792014215
  0
VERTEX
  8
15
 10
617.63641741315132
 20
908.31961430205774
  0
VERTEX
  8
15
 10
617.43239963477095
 20
907.6889154143679
  0
VERTEX
  8
15
 10
617.28783839273262
 20
907.04106699494071
  0
VERTEX
  8
15
 10
617.20367431640625
 20
906.38031005859375
  0
SEQEND
  8
15
  0
POLYLINE
  8
15
  6
CONTINUOUS
 62
     7
 66
     1
 70
     0
 40
0.0
 41
0.0
  0
VERTEX
  8
15
 10
653.29742431640625
 20
877.94281005859375
  0
VERTEX
  8
15
 10
653.29742431640625
 20
912.94281005859375
  0
VERTEX
  8
15
 10
647.28179931640625
 20
902.55218505859375
  0
SEQEND
  8
15
  0
POLYLINE
  8
15
  6
CONTINUOUS
 62
     7
 66
     1
 70
     0
 40
0.0
 41
0.0
  0
VERTEX
  8
15
 10
673.53179931640625
 20
895.44281005859375
  0
VERTEX
  8
15
 10
695.40679931640625
 20
895.44281005859375
  0
SEQEND
  8
15
  0
POLYLINE
  8
15
  6
CONTINUOUS
 62
     7
 66
     1
 70
     0
 40
0.0
 41
0.0
  0
VERTEX
  8
15
 10
702.51617431640625
 20
906.38031005859375
  0
VERTEX
  8
15
 10
702.51617431640625
 20
884.50531005859375
  0
VERTEX
  8
15
 10
702.60033839273262
 20
883.84455312224679
  0
VERTEX
  8
15
 10
702.74489963477095
 20
883.1967047028196
  0
VERTEX
  8
15
 10
702.94891741315132
 20
882.56600581512976
  0
VERTEX
  8
15
 10
703.21088848854413
 20
881.95712219704535
  0
VERTEX
  8
15
 10
703.52906821850036
 20
881.37431108381713
  0
VERTEX
  8
15
 10
703.90057182023747
 20
880.8230247442998
  0
VERTEX
  8
15
 10
704.3221523641439
 20
880.30808528743546
  0
VERTEX
  8
15
 10
704.7899485167386
 20
879.83421455525138
  0
VERTEX
  8
15
 10
705.29960140001401
 20
879.40582043650386
  0
VERTEX
  8
15
 10
705.84641666578614
 20
879.02684379443383
  0
VERTEX
  8
15
 10
706.42538637026769
 20
878.70075120081538
  0
VERTEX
  8
15
 10
707.03145780601858
 20
878.43038592152914
  0
VERTEX
  8
15
 10
707.65897860118798
 20
878.21818055289964
  0
VERTEX
  8
15
 10
708.30358897985593
 20
878.06552438864219
  0
VERTEX
  8
15
 10
708.96053940311333
 20
877.9735363136225
  0
VERTEX
  8
15
 10
709.62554931640625
 20
877.94281005859375
  0
VERTEX
  8
15
 10
710.29055922969917
 20
877.9735363136225
  0
VERTEX
  8
15
 10
710.94750965295657
 20
878.06552438864219
  0
VERTEX
  8
15
 10
711.59212003162452
 20
878.21818055289964
  0
VERTEX
  8
15
 10
712.21964082679392
 20
878.43038592152914
  0
VERTEX
  8
15
 10
712.82571226254481
 20
878.70075120081538
  0
VERTEX
  8
15
 10
713.40468196702636
 20
879.02684379443383
  0
VERTEX
  8
15
 10
713.95149723279849
 20
879.40582043650386
  0
VERTEX
  8
15
 10
714.4611501160739
 20
879.83421455525138
  0
VERTEX
  8
15
 10
714.9289462686686
 20
880.30808528743546
  0
VERTEX
  8
15
 10
715.35052681257503
 20
880.8230247442998
  0
VERTEX
  8
15
 10
715.72203041431214
 20
881.37431108381713
  0
VERTEX
  8
15
 10
716.04021014426837
 20
881.95712219704535
  0
VERTEX
  8
15
 10
716.30218121966118
 20
882.56600581512976
  0
VERTEX
  8
15
 10
716.50619899804155
 20
883.1967047028196
  0
VERTEX
  8
15
 10
716.65076024007988
 20
883.84455312224679
  0
VERTEX
  8
15
 10
716.73492431640625
 20
884.50531005859375
  0
VERTEX
  8
15
 10
716.73492431640625
 20
906.38031005859375
  0
VERTEX
  8
15
 10
716.65076024007988
 20
907.04106699494071
  0
VERTEX
  8
15
 10
716.50619899804155
 20
907.6889154143679
  0
VERTEX
  8
15
 10
716.30218121966118
 20
908.31961430205774
  0
VERTEX
  8
15
 10
716.04021014426837
 20
908.92849792014215
  0
VERTEX
  8
15
 10
715.72203041431214
 20
909.51130903337037
  0
VERTEX
  8
15
 10
715.35052681257503
 20
910.0625953728877
  0
VERTEX
  8
15
 10
714.9289462686686
 20
910.57753482975204
  0
VERTEX
  8
15
 10
714.4611501160739
 20
911.05140556193612
  0
VERTEX
  8
15
 10
713.95149723279849
 20
911.47979968068364
  0
VERTEX
  8
15
 10
713.40468196702636
 20
911.85877632275367
  0
VERTEX
  8
15
 10
712.82571226254481
 20
912.18486891637212
  0
VERTEX
  8
15
 10
712.21964082679392
 20
912.45523419565836
  0
VERTEX
  8
15
 10
711.59212003162452
 20
912.66743956428786
  0
VERTEX
  8
15
 10
710.94750965295657
 20
912.82009572854531
  0
VERTEX
  8
15
 10
710.29055922969917
 20
912.912083803565
  0
VERTEX
  8
15
 10
709.62554931640625
 20
912.94281005859375
  0
VERTEX
  8
15
 10
708.96053940311333
 20
912.912083803565
  0
VERTEX
  8
15
 10
708.30358897985593
 20
912.82009572854531
  0
VERTEX
  8
15
 10
707.65897860118798
 20
912.66743956428786
  0
VERTEX
  8
15
 10
707.03145780601858
 20
912.45523419565836
  0
VERTEX
  8
15
 10
706.42538637026769
 20
912.18486891637212
  0
VERTEX
  8
15
 10
705.84641666578614
 20
911.85877632275367
  0
VERTEX
  8
15
 10
705.29960140001401
 20
911.47979968068364
  0
VERTEX
  8
15
 10
704.7899485167386
 20
911.05140556193612
  0
VERTEX
  8
15
 10
704.3221523641439
 20
910.57753482975204
  0
VERTEX
  8
15
 10
703.90057182023747
 20
910.0625953728877
  0
VERTEX
  8
15
 10
703.52906821850036
 20
909.51130903337037
  0
VERTEX
  8
15
 10
703.21088848854413
 20
908.92849792014215
  0
VERTEX
  8
15
 10
702.94891741315132
 20
908.31961430205774
  0
VERTEX
  8
15
 10
702.74489963477095
 20
907.6889154143679
  0
VERTEX
  8
15
 10
702.60033839273262
 20
907.04106699494071
  0
VERTEX
  8
15
 10
702.51617431640625
 20
906.38031005859375
  0
SEQEND
  8
15
  0
POLYLINE
  8
15
  6
CONTINUOUS
 62
     7
 66
     1
 70
     0
 40
0.0
 41
0.0
  0
VERTEX
  8
15
 10
738.60992431640625
 20
877.94281005859375
  0
VERTEX
  8
15
 10
738.60992431640625
 20
912.94281005859375
  0
VERTEX
  8
15
 10
732.59429931640625
 20
902.55218505859375
  0
SEQEND
  8
15
  0
POLYLINE
  8
15
  6
CONTINUOUS
 62
     7
 66
     1
 70
     0
 40
0.0
 41
0.0
  0
VERTEX
  8
15
 10
759.39117431640625
 20
906.38031005859375
  0
VERTEX
  8
15
 10
759.39117431640625
 20
884.50531005859375
  0
VERTEX
  8
15
 10
759.47533839273262
 20
883.84455312224679
  0
VERTEX
  8
15
 10
759.61989963477095
 20
883.1967047028196
  0
VERTEX
  8
15
 10
759.82391741315132
 20
882.56600581512976
  0
VERTEX
  8
15
 10
760.08588848854413
 20
881.95712219704535
  0
VERTEX
  8
15
 10
760.40406821850036
 20
881.37431108381713
  0
VERTEX
  8
15
 10
760.77557182023747
 20
880.8230247442998
  0
VERTEX
  8
15
 10
761.1971523641439
 20
880.30808528743546
  0
VERTEX
  8
15
 10
761.6649485167386
 20
879.83421455525138
  0
VERTEX
  8
15
 10
762.17460140001401
 20
879.40582043650386
  0
VERTEX
  8
15
 10
762.72141666578614
 20
879.02684379443383
  0
VERTEX
  8
15
 10
763.30038637026769
 20
878.70075120081538
  0
VERTEX
  8
15
 10
763.90645780601858
 20
878.43038592152914
  0
VERTEX
  8
15
 10
764.53397860118798
 20
878.21818055289964
  0
VERTEX
  8
15
 10
765.17858897985593
 20
878.06552438864219
  0
VERTEX
  8
15
 10
765.83553940311333
 20
877.9735363136225
  0
VERTEX
  8
15
 10
766.50054931640625
 20
877.94281005859375
  0
VERTEX
  8
15
 10
767.16555922969917
 20
877.9735363136225
  0
VERTEX
  8
15
 10
767.82250965295657
 20
878.06552438864219
  0
VERTEX
  8
15
 10
768.46712003162452
 20
878.21818055289964
  0
VERTEX
  8
15
 10
769.09464082679392
 20
878.43038592152914
  0
VERTEX
  8
15
 10
769.70071226254481
 20
878.70075120081538
  0
VERTEX
  8
15
 10
770.27968196702636
 20
879.02684379443383
  0
VERTEX
  8
15
 10
770.82649723279849
 20
879.40582043650386
  0
VERTEX
  8
15
 10
771.3361501160739
 20
879.83421455525138
  0
VERTEX
  8
15
 10
771.8039462686686
 20
880.30808528743546
  0
VERTEX
  8
15
 10
772.22552681257503
 20
880.8230247442998
  0
VERTEX
  8
15
 10
772.59703041431214
 20
881.37431108381713
  0
VERTEX
  8
15
 10
772.91521014426837
 20
881.95712219704535
  0
VERTEX
  8
15
 10
773.17718121966118
 20
882.56600581512976
  0
VERTEX
  8
15
 10
773.38119899804155
 20
883.1967047028196
  0
VERTEX
  8
15
 10
773.52576024007988
 20
883.84455312224679
  0
VERTEX
  8
15
 10
773.60992431640625
 20
884.50531005859375
  0
VERTEX
  8
15
 10
773.60992431640625
 20
906.38031005859375
  0
VERTEX
  8
15
 10
773.52576024007988
 20
907.04106699494071
  0
VERTEX
  8
15
 10
773.38119899804155
 20
907.6889154143679
  0
VERTEX
  8
15
 10
773.17718121966118
 20
908.31961430205774
  0
VERTEX
  8
15
 10
772.91521014426837
 20
908.92849792014215
  0
VERTEX
  8
15
 10
772.59703041431214
 20
909.51130903337037
  0
VERTEX
  8
15
 10
772.22552681257503
 20
910.0625953728877
  0
VERTEX
  8
15
 10
771.8039462686686
 20
910.57753482975204
  0
VERTEX
  8
15
 10
771.3361501160739
 20
911.05140556193612
  0
VERTEX
  8
15
 10
770.82649723279849
 20
911.47979968068364
  0
VERTEX
  8
15
 10
770.27968196702636
 20
911.85877632275367
  0
VERTEX
  8
15
 10
769.70071226254481
 20
912.18486891637212
  0
VERTEX
  8
15
 10
769.09464082679392
 20
912.45523419565836
  0
VERTEX
  8
15
 10
768.46712003162452
 20
912.66743956428786
  0
VERTEX
  8
15
 10
767.82250965295657
 20
912.82009572854531
  0
VERTEX
  8
15
 10
767.16555922969917
 20
912.912083803565
  0
VERTEX
  8
15
 10
766.50054931640625
 20
912.94281005859375
  0
VERTEX
  8
15
 10
765.83553940311333
 20
912.912083803565
  0
VERTEX
  8
15
 10
765.17858897985593
 20
912.82009572854531
  0
VERTEX
  8
15
 10
764.53397860118798
 20
912.66743956428786
  0
VERTEX
  8
15
 10
763.90645780601858
 20
912.45523419565836
  0
VERTEX
  8
15
 10
763.30038637026769
 20
912.18486891637212
  0
VERTEX
  8
15
 10
762.72141666578614
 20
911.85877632275367
  0
VERTEX
  8
15
 10
762.17460140001401
 20
911.47979968068364
  0
VERTEX
  8
15
 10
761.6649485167386
 20
911.05140556193612
  0
VERTEX
  8
15
 10
761.1971523641439
 20
910.57753482975204
  0
VERTEX
  8
15
 10
760.77557182023747
 20
910.0625953728877
  0
VERTEX
  8
15
 10
760.40406821850036
 20
909.51130903337037
  0
VERTEX
  8
15
 10
760.08588848854413
 20
908.92849792014215
  0
VERTEX
  8
15
 10
759.82391741315132
 20
908.31961430205774
  0
VERTEX
  8
15
 10
759.61989963477095
 20
907.6889154143679
  0
VERTEX
  8
15
 10
759.47533839273262
 20
907.04106699494071
  0
VERTEX
  8
15
 10
759.39117431640625
 20
906.38031005859375
  0
SEQEND
  8
15
  0
POLYLINE
  8
15
  6
CONTINUOUS
 62
     7
 66
     1
 70
     0
 40
0.0
 41
0.0
  0
VERTEX
  8
15
 10
795.48492431640625
 20
877.94281005859375
  0
VERTEX
  8
15
 10
795.48492431640625
 20
912.94281005859375
  0
VERTEX
  8
15
 10
789.46929931640625
 20
902.55218505859375
  0
SEQEND
  8
15
  0
POLYLINE
  8
15
  6
CONTINUOUS
 62
     7
 66
     1
 70
     0
 40
0.0
 41
0.0
  0
VERTEX
  8
15
 10
815.17242431640625
 20
912.94281005859375
  0
VERTEX
  8
15
 10
815.17242431640625
 20
877.94281005859375
  0
VERTEX
  8
15
 10
832.67242431640625
 20
877.94281005859375
  0
SEQEND
  8
15
  0
POLYLINE
  8
15
  6
CONTINUOUS
 62
     7
 66
     1
 70
     0
 40
0.0
 41
0.0
  0
VERTEX
  8
15
 10
502.35992431640625
 20
856.06781005859375
  0
VERTEX
  8
15
 10
502.35992431640625
 20
821.06781005859375
  0
VERTEX
  8
15
 10
519.85992431640625
 20
821.06781005859375
  0
SEQEND
  8
15
  0
POLYLINE
  8
15
  6
CONTINUOUS
 62
     7
 66
     1
 70
     0
 40
0.0
 41
0.0
  0
VERTEX
  8
15
 10
539.54742431640625
 20
821.06781005859375
  0
VERTEX
  8
15
 10
539.54742431640625
 20
856.06781005859375
  0
VERTEX
  8
15
 10
533.53179931640625
 20
845.67718505859375
  0
SEQEND
  8
15
  0
POLYLINE
  8
15
  6
CONTINUOUS
 62
     7
 66
     1
 70
     0
 40
0.0
 41
0.0
  0
VERTEX
  8
15
 10
559.23492431640625
 20
849.50531005859375
  0
VERTEX
  8
15
 10
564.70367431640625
 20
856.06781005859375
  0
VERTEX
  8
15
 10
571.26617431640625
 20
856.06781005859375
  0
VERTEX
  8
15
 10
576.73492431640625
 20
849.50531005859375
  0
VERTEX
  8
15
 10
576.73492431640625
 20
840.75531005859375
  0
VERTEX
  8
15
 10
559.23492431640625
 20
825.44281005859375
  0
VERTEX
  8
15
 10
559.23492431640625
 20
821.06781005859375
  0
VERTEX
  8
15
 10
576.73492431640625
 20
821.06781005859375
  0
SEQEND
  8
15
  0
POLYLINE
  8
15
  6
CONTINUOUS
 62
     7
 66
     1
 70
     0
 40
0.0
 41
0.0
  0
VERTEX
  8
15
 10
588.76617431640625
 20
849.50531005859375
  0
VERTEX
  8
15
 10
588.76617431640625
 20
827.63031005859375
  0
VERTEX
  8
15
 10
588.85033839273262
 20
826.96955312224679
  0
VERTEX
  8
15
 10
588.99489963477095
 20
826.3217047028196
  0
VERTEX
  8
15
 10
589.19891741315132
 20
825.69100581512976
  0
VERTEX
  8
15
 10
589.46088848854413
 20
825.08212219704535
  0
VERTEX
  8
15
 10
589.77906821850036
 20
824.49931108381713
  0
VERTEX
  8
15
 10
590.15057182023747
 20
823.9480247442998
  0
VERTEX
  8
15
 10
590.5721523641439
 20
823.43308528743546
  0
VERTEX
  8
15
 10
591.0399485167386
 20
822.95921455525138
  0
VERTEX
  8
15
 10
591.54960140001401
 20
822.53082043650386
  0
VERTEX
  8
15
 10
592.09641666578614
 20
822.15184379443383
  0
VERTEX
  8
15
 10
592.67538637026769
 20
821.82575120081538
  0
VERTEX
  8
15
 10
593.28145780601858
 20
821.55538592152914
  0
VERTEX
  8
15
 10
593.90897860118798
 20
821.34318055289964
  0
VERTEX
  8
15
 10
594.55358897985593
 20
821.19052438864219
  0
VERTEX
  8
15
 10
595.21053940311333
 20
821.0985363136225
  0
VERTEX
  8
15
 10
595.87554931640625
 20
821.06781005859375
  0
VERTEX
  8
15
 10
596.54055922969917
 20
821.0985363136225
  0
VERTEX
  8
15
 10
597.19750965295657
 20
821.19052438864219
  0
VERTEX
  8
15
 10
597.84212003162452
 20
821.34318055289964
  0
VERTEX
  8
15
 10
598.46964082679392
 20
821.55538592152914
  0
VERTEX
  8
15
 10
599.07571226254481
 20
821.82575120081538
  0
VERTEX
  8
15
 10
599.65468196702636
 20
822.15184379443383
  0
VERTEX
  8
15
 10
600.20149723279849
 20
822.53082043650386
  0
VERTEX
  8
15
 10
600.7111501160739
 20
822.95921455525138
  0
VERTEX
  8
15
 10
601.1789462686686
 20
823.43308528743546
  0
VERTEX
  8
15
 10
601.60052681257503
 20
823.9480247442998
  0
VERTEX
  8
15
 10
601.97203041431214
 20
824.49931108381713
  0
VERTEX
  8
15
 10
602.29021014426837
 20
825.08212219704535
  0
VERTEX
  8
15
 10
602.55218121966118
 20
825.69100581512976
  0
VERTEX
  8
15
 10
602.75619899804155
 20
826.3217047028196
  0
VERTEX
  8
15
 10
602.90076024007988
 20
826.96955312224679
  0
VERTEX
  8
15
 10
602.98492431640625
 20
827.63031005859375
  0
VERTEX
  8
15
 10
602.98492431640625
 20
849.50531005859375
  0
VERTEX
  8
15
 10
602.90076024007988
 20
850.16606699494071
  0
VERTEX
  8
15
 10
602.75619899804155
 20
850.8139154143679
  0
VERTEX
  8
15
 10
602.55218121966118
 20
851.44461430205774
  0
VERTEX
  8
15
 10
602.29021014426837
 20
852.05349792014215
  0
VERTEX
  8
15
 10
601.97203041431214
 20
852.63630903337037
  0
VERTEX
  8
15
 10
601.60052681257503
 20
853.1875953728877
  0
VERTEX
  8
15
 10
601.1789462686686
 20
853.70253482975204
  0
VERTEX
  8
15
 10
600.7111501160739
 20
854.17640556193612
  0
VERTEX
  8
15
 10
600.20149723279849
 20
854.60479968068364
  0
VERTEX
  8
15
 10
599.65468196702636
 20
854.98377632275367
  0
VERTEX
  8
15
 10
599.07571226254481
 20
855.30986891637212
  0
VERTEX
  8
15
 10
598.46964082679392
 20
855.58023419565836
  0
VERTEX
  8
15
 10
597.84212003162452
 20
855.79243956428786
  0
VERTEX
  8
15
 10
597.19750965295657
 20
855.94509572854531
  0
VERTEX
  8
15
 10
596.54055922969917
 20
856.037083803565
  0
VERTEX
  8
15
 10
595.87554931640625
 20
856.06781005859375
  0
VERTEX
  8
15
 10
595.21053940311333
 20
856.037083803565
  0
VERTEX
  8
15
 10
594.55358897985593
 20
855.94509572854531
  0
VERTEX
  8
15
 10
593.90897860118798
 20
855.79243956428786
  0
VERTEX
  8
15
 10
593.28145780601858
 20
855.58023419565836
  0
VERTEX
  8
15
 10
592.67538637026769
 20
855.30986891637212
  0
VERTEX
  8
15
 10
592.09641666578614
 20
854.98377632275367
  0
VERTEX
  8
15
 10
591.54960140001401
 20
854.60479968068364
  0
VERTEX
  8
15
 10
591.0399485167386
 20
854.17640556193612
  0
VERTEX
  8
15
 10
590.5721523641439
 20
853.70253482975204
  0
VERTEX
  8
15
 10
590.15057182023747
 20
853.1875953728877
  0
VERTEX
  8
15
 10
589.77906821850036
 20
852.63630903337037
  0
VERTEX
  8
15
 10
589.46088848854413
 20
852.05349792014215
  0
VERTEX
  8
15
 10
589.19891741315132
 20
851.44461430205774
  0
VERTEX
  8
15
 10
588.99489963477095
 20
850.8139154143679
  0
VERTEX
  8
15
 10
588.85033839273262
 20
850.16606699494071
  0
VERTEX
  8
15
 10
588.76617431640625
 20
849.50531005859375
  0
SEQEND
  8
15
  0
POLYLINE
  8
15
  6
CONTINUOUS
 62
     7
 66
     1
 70
     0
 40
0.0
 41
0.0
  0
VERTEX
  8
15
 10
616.65679931640625
 20
838.56781005859375
  0
VERTEX
  8
15
 10
638.53179931640625
 20
838.56781005859375
  0
SEQEND
  8
15
  0
POLYLINE
  8
15
  6
CONTINUOUS
 62
     7
 66
     1
 70
     0
 40
0.0
 41
0.0
  0
VERTEX
  8
15
 10
653.29742431640625
 20
821.06781005859375
  0
VERTEX
  8
15
 10
653.29742431640625
 20
856.06781005859375
  0
VERTEX
  8
15
 10
647.28179931640625
 20
845.67718505859375
  0
SEQEND
  8
15
  0
POLYLINE
  8
15
  6
CONTINUOUS
 62
     7
 66
     1
 70
     0
 40
0.0
 41
0.0
  0
VERTEX
  8
15
 10
674.07867431640625
 20
849.50531005859375
  0
VERTEX
  8
15
 10
674.07867431640625
 20
827.63031005859375
  0
VERTEX
  8
15
 10
674.16283839273262
 20
826.96955312224679
  0
VERTEX
  8
15
 10
674.30739963477095
 20
826.3217047028196
  0
VERTEX
  8
15
 10
674.51141741315132
 20
825.69100581512976
  0
VERTEX
  8
15
 10
674.77338848854413
 20
825.08212219704535
  0
VERTEX
  8
15
 10
675.09156821850036
 20
824.49931108381713
  0
VERTEX
  8
15
 10
675.46307182023747
 20
823.9480247442998
  0
VERTEX
  8
15
 10
675.8846523641439
 20
823.43308528743546
  0
VERTEX
  8
15
 10
676.3524485167386
 20
822.95921455525138
  0
VERTEX
  8
15
 10
676.86210140001401
 20
822.53082043650386
  0
VERTEX
  8
15
 10
677.40891666578614
 20
822.15184379443383
  0
VERTEX
  8
15
 10
677.98788637026769
 20
821.82575120081538
  0
VERTEX
  8
15
 10
678.59395780601858
 20
821.55538592152914
  0
VERTEX
  8
15
 10
679.22147860118798
 20
821.34318055289964
  0
VERTEX
  8
15
 10
679.86608897985593
 20
821.19052438864219
  0
VERTEX
  8
15
 10
680.52303940311333
 20
821.0985363136225
  0
VERTEX
  8
15
 10
681.18804931640625
 20
821.06781005859375
  0
VERTEX
  8
15
 10
681.85305922969917
 20
821.0985363136225
  0
VERTEX
  8
15
 10
682.51000965295657
 20
821.19052438864219
  0
VERTEX
  8
15
 10
683.15462003162452
 20
821.34318055289964
  0
VERTEX
  8
15
 10
683.78214082679392
 20
821.55538592152914
  0
VERTEX
  8
15
 10
684.38821226254481
 20
821.82575120081538
  0
VERTEX
  8
15
 10
684.96718196702636
 20
822.15184379443383
  0
VERTEX
  8
15
 10
685.51399723279849
 20
822.53082043650386
  0
VERTEX
  8
15
 10
686.0236501160739
 20
822.95921455525138
  0
VERTEX
  8
15
 10
686.4914462686686
 20
823.43308528743546
  0
VERTEX
  8
15
 10
686.91302681257503
 20
823.9480247442998
  0
VERTEX
  8
15
 10
687.28453041431214
 20
824.49931108381713
  0
VERTEX
  8
15
 10
687.60271014426837
 20
825.08212219704535
  0
VERTEX
  8
15
 10
687.86468121966118
 20
825.69100581512976
  0
VERTEX
  8
15
 10
688.06869899804155
 20
826.3217047028196
  0
VERTEX
  8
15
 10
688.21326024007988
 20
826.96955312224679
  0
VERTEX
  8
15
 10
688.29742431640625
 20
827.63031005859375
  0
VERTEX
  8
15
 10
688.29742431640625
 20
849.50531005859375
  0
VERTEX
  8
15
 10
688.21326024007988
 20
850.16606699494071
  0
VERTEX
  8
15
 10
688.06869899804155
 20
850.8139154143679
  0
VERTEX
  8
15
 10
687.86468121966118
 20
851.44461430205774
  0
VERTEX
  8
15
 10
687.60271014426837
 20
852.05349792014215
  0
VERTEX
  8
15
 10
687.28453041431214
 20
852.63630903337037
  0
VERTEX
  8
15
 10
686.91302681257503
 20
853.1875953728877
  0
VERTEX
  8
15
 10
686.4914462686686
 20
853.70253482975204
  0
VERTEX
  8
15
 10
686.0236501160739
 20
854.17640556193612
  0
VERTEX
  8
15
 10
685.51399723279849
 20
854.60479968068364
  0
VERTEX
  8
15
 10
684.96718196702636
 20
854.98377632275367
  0
VERTEX
  8
15
 10
684.38821226254481
 20
855.30986891637212
  0
VERTEX
  8
15
 10
683.78214082679392
 20
855.58023419565836
  0
VERTEX
  8
15
 10
683.15462003162452
 20
855.79243956428786
  0
VERTEX
  8
15
 10
682.51000965295657
 20
855.94509572854531
  0
VERTEX
  8
15
 10
681.85305922969917
 20
856.037083803565
  0
VERTEX
  8
15
 10
681.18804931640625
 20
856.06781005859375
  0
VERTEX
  8
15
 10
680.52303940311333
 20
856.037083803565
  0
VERTEX
  8
15
 10
679.86608897985593
 20
855.94509572854531
  0
VERTEX
  8
15
 10
679.22147860118798
 20
855.79243956428786
  0
VERTEX
  8
15
 10
678.59395780601858
 20
855.58023419565836
  0
VERTEX
  8
15
 10
677.98788637026769
 20
855.30986891637212
  0
VERTEX
  8
15
 10
677.40891666578614
 20
854.98377632275367
  0
VERTEX
  8
15
 10
676.86210140001401
 20
854.60479968068364
  0
VERTEX
  8
15
 10
676.3524485167386
 20
854.17640556193612
  0
VERTEX
  8
15
 10
675.8846523641439
 20
853.70253482975204
  0
VERTEX
  8
15
 10
675.46307182023747
 20
853.1875953728877
  0
VERTEX
  8
15
 10
675.09156821850036
 20
852.63630903337037
  0
VERTEX
  8
15
 10
674.77338848854413
 20
852.05349792014215
  0
VERTEX
  8
15
 10
674.51141741315132
 20
851.44461430205774
  0
VERTEX
  8
15
 10
674.30739963477095
 20
850.8139154143679
  0
VERTEX
  8
15
 10
674.16283839273262
 20
850.16606699494071
  0
VERTEX
  8
15
 10
674.07867431640625
 20
849.50531005859375
  0
SEQEND
  8
15
  0
POLYLINE
  8
15
  6
CONTINUOUS
 62
     7
 66
     1
 70
     0
 40
0.0
 41
0.0
  0
VERTEX
  8
15
 10
747.35992431640625
 20
856.06781005859375
  0
VERTEX
  8
15
 10
742.98492431640625
 20
821.06781005859375
  0
VERTEX
  8
15
 10
738.60992431640625
 20
854.97406005859375
  0
VERTEX
  8
15
 10
734.23492431640625
 20
821.06781005859375
  0
VERTEX
  8
15
 10
729.85992431640625
 20
856.06781005859375
  0
SEQEND
  8
15
  0
POLYLINE
  8
15
  6
CONTINUOUS
 62
     7
 66
     1
 70
     0
 40
0.0
 41
0.0
  0
VERTEX
  8
15
 10
758.29742431640625
 20
838.56781005859375
  0
VERTEX
  8
15
 10
767.04742431640625
 20
838.56781005859375
  0
VERTEX
  8
15
 10
767.90795680399685
 20
838.60959776247864
  0
VERTEX
  8
15
 10
768.7565685180266
 20
838.73468210282454
  0
VERTEX
  8
15
 10
769.58729023680837
 20
838.94219242591362
  0
VERTEX
  8
15
 10
770.39343751219656
 20
839.23046850433514
  0
VERTEX
  8
15
 10
771.168932754558
 20
839.59747851495069
  0
VERTEX
  8
15
 10
771.90568896592288
 20
840.03954370245731
  0
VERTEX
  8
15
 10
772.5965607864332
 20
840.55238110453718
  0
VERTEX
  8
15
 10
773.23448181152344
 20
841.13075256347656
  0
VERTEX
  8
15
 10
773.81285327046282
 20
841.7686735885668
  0
VERTEX
  8
15
 10
774.32569067254269
 20
842.45954540907712
  0
VERTEX
  8
15
 10
774.76775586004931
 20
843.196301620442
  0
VERTEX
  8
15
 10
775.13476587066486
 20
843.97179686280344
  0
VERTEX
  8
15
 10
775.42304194908638
 20
844.77794413819163
  0
VERTEX
  8
15
 10
775.63055227217546
 20
845.6086658569734
  0
VERTEX
  8
15
 10
775.75563661252136
 20
846.45727757100315
  0
VERTEX
  8
15
 10
775.79742431640625
 20
847.31781005859375
  0
VERTEX
  8
15
 10
775.75563661252136
 20
848.17834254618435
  0
VERTEX
  8
15
 10
775.63055227217546
 20
849.0269542602141
  0
VERTEX
  8
15
 10
775.42304194908638
 20
849.85767597899587
  0
VERTEX
  8
15
 10
775.13476587066486
 20
850.66382325438406
  0
VERTEX
  8
15
 10
774.76775586004931
 20
851.4393184967455
  0
VERTEX
  8
15
 10
774.32569067254269
 20
852.17607470811038
  0
VERTEX
  8
15
 10
773.81285327046282
 20
852.8669465286207
  0
VERTEX
  8
15
 10
773.23448181152344
 20
853.50486755371094
  0
VERTEX
  8
15
 10
772.5965607864332
 20
854.08323901265032
  0
VERTEX
  8
15
 10
771.90568896592288
 20
854.59607641473019
  0
VERTEX
  8
15
 10
771.168932754558
 20
855.03814160223681
  0
VERTEX
  8
15
 10
770.39343751219656
 20
855.40515161285236
  0
VERTEX
  8
15
 10
769.58729023680837
 20
855.69342769127388
  0
VERTEX
  8
15
 10
768.7565685180266
 20
855.90093801436296
  0
VERTEX
  8
15
 10
767.90795680399685
 20
856.02602235470886
  0
VERTEX
  8
15
 10
767.04742431640625
 20
856.06781005859375
  0
VERTEX
  8
15
 10
758.29742431640625
 20
856.06781005859375
  0
VERTEX
  8
15
 10
758.29742431640625
 20
821.06781005859375
  0
SEQEND
  8
15
  0
ENDBLK
  8
15
  0
ENDSEC
  0
SECTION
  2
ENTITIES
  0
INSERT
  8
15
  6
CONTINUOUS
 62
     3
  2
SUB1
 10
723.83990886161223
 20
282.94999999999993
 41
1.0
 42
1.0
 50
0.0
  0
INSERT
  8
15
  6
CONTINUOUS
 62
     3
  2
SUB2
 10
684.41990886161216
 20
126.0
 41
1.0
 42
1.0
 50
0.0
  0
INSERT
  8
15
  6
CONTINUOUS
 62
     3
  2
COMP1
 10
0.0
 20
0.0
 41
1.0
 42
1.0
 50
0.0
  0
INSERT
  8
15
  6
CONTINUOUS
 62
     3
  2
COMP2
 10
0.0
 20
0.0
 41
1.0
 42
1.0
 50
0.0
  0
INSERT
  8
15
  6
CONTINUOUS
 62
     3
  2
COMP3
 10
0.0
 20
0.0
 41
1.0
 42
1.0
 50
0.0
  0
INSERT
  8
15
  6
CONTINUOUS
 62
     3
  2
SUB4
 10
723.83990886161223
 20
61.5
 41
1.0
 42
1.0
 50
0.0
  0
INSERT
  8
15
  6
PHANTOM
 62
     6
  2
COMP4
 10
0.0
 20
0.0
 41
1.0
 42
1.0
 50
0.0
  0
INSERT
  8
15
  6
CONTINUOUS
 62
     3
  2
COMP5
 10
0.0
 20
0.0
 41
1.0
 42
1.0
 50
0.0
  0
INSERT
  8
15
  6
CONTINUOUS
 62
     3
  2
SUB5
 10
679.91990886161216
 20
166.29999999999995
 41
1.0
 42
1.0
 50
0.0
  0
INSERT
  8
15
  6
CONTINUOUS
 62
     4
  2
SUB6
 10
723.83990886161223
 20
126.0
 41
1.0
 42
1.0
 50
0.0
  0
INSERT
  8
15
  6
CONTINUOUS
 62
     4
  2
SUB7
 10
723.83990886161223
 20
245.79999999999995
 41
1.0
 42
1.0
 50
0.0
  0
INSERT
  8
15
  6
CONTINUOUS
 62
     3
  2
SUB8
 10
0.0
 20
282.94999999999993
 41
1.0
 42
1.0
 50
0.0
  0
INSERT
  8
15
  6
CONTINUOUS
 62
     3
  2
COMP6
 10
0.0
 20
0.0
 41
1.0
 42
1.0
 50
0.0
  0
INSERT
  8
15
  6
CONTINUOUS
 62
     3
  2
COMP7
 10
0.0
 20
0.0
 41
1.0
 42
1.0
 50
0.0
  0
INSERT
  8
15
  6
CONTINUOUS
 62
     4
  2
SUB9
 10
-82.600000000000136
 20
165.40000000000032
 41
1.0
 42
1.0
 50
0.0
  0
INSERT
  8
15
  6
CONTINUOUS
 62
     4
  2
SUB10
 10
138.40000000000009
 20
273.30000000000018
 41
1.0
 42
1.0
 50
0.0
  0
INSERT
  8
15
  6
CONTINUOUS
 62
     4
  2
SUB11
 10
68.5
 20
229.40000000000009
 41
1.0
 42
1.0
 50
0.0
  0
LINE
  8
15
  6
CENTER
 62
     3
 10
178.36004638671875
 20
174.29999923706055
 11
136.52143859863281
 21
174.29999923706055
  0
INSERT
  8
15
  6
CONTINUOUS
 62
     3
  2
COMP8
 10
0.0
 20
0.0
 41
1.0
 42
1.0
 50
0.0
  0
INSERT
  8
15
  6
CONTINUOUS
 62
     3
  2
COMP9
 10
0.0
 20
0.0
 41
1.0
 42
1.0
 50
0.0
  0
INSERT
  8
15
  6
CONTINUOUS
 62
     3
  2
COMP10
 10
0.0
 20
0.0
 41
1.0
 42
1.0
 50
0.0
  0
INSERT
  8
15
  6
CONTINUOUS
 62
     3
  2
SUB12
 10
0.0
 20
61.5
 41
1.0
 42
1.0
 50
0.0
  0
INSERT
  8
15
  6
PHANTOM
 62
     6
  2
COMP11
 10
0.0
 20
0.0
 41
1.0
 42
1.0
 50
0.0
  0
INSERT
  8
15
  6
CONTINUOUS
 62
     3
  2
COMP12
 10
0.0
 20
0.0
 41
1.0
 42
1.0
 50
0.0
  0
INSERT
  8
15
  6
CONTINUOUS
 62
     4
  2
SUB14
 10
-82.599999999999909
 20
930.93835502513662
 41
1.0
 42
1.0
 50
0.0
  0
INSERT
  8
15
  6
CONTINUOUS
 62
     4
  2
SUB15
 10
0.0
 20
970.35835502513669
 41
1.0
 42
1.0
 50
0.0
  0
INSERT
  8
15
  6
CONTINUOUS
 62
     4
  2
SUB16
 10
0.0
 20
970.35835502513669
 41
1.0
 42
1.0
 50
0.0
  0
INSERT
  8
15
  6
CONTINUOUS
 62
     3
  2
SUB17
 10
0.0
 20
970.35835502513669
 41
1.0
 42
1.0
 50
0.0
  0
INSERT
  8
15
  6
CONTINUOUS
 62
     3
  2
SUB18
 10
87.0
 20
930.93835502513662
 41
1.0
 42
1.0
 50
0.0
  0
INSERT
  8
15
  6
CONTINUOUS
 62
     4
  2
SUB19
 10
138.40000000000009
 20
822.35835502513669
 41
1.0
 42
1.0
 50
0.0
  0
INSERT
  8
15
  6
CONTINUOUS
 62
     3
  2
COMP13
 10
0.0
 20
0.0
 41
1.0
 42
1.0
 50
0.0
  0
LINE
  8
15
  6
CENTER
 62
     3
 10
127.9666748046875
 20
852.35835502513669
 11
179.83567516095377
 21
852.35835502513669
  0
INSERT
  8
15
  6
CONTINUOUS
 62
     3
  2
COMP14
 10
0.0
 20
0.0
 41
1.0
 42
1.0
 50
0.0
  0
INSERT
  8
15
  6
CONTINUOUS
 62
     3
  2
COMP15
 10
0.0
 20
0.0
 41
1.0
 42
1.0
 50
0.0
  0
INSERT
  8
15
  6
CONTINUOUS
 62
     3
  2
COMP16
 10
0.0
 20
0.0
 41
1.0
 42
1.0
 50
0.0
  0
INSERT
  8
15
  6
CONTINUOUS
 62
     3
  2
COMP17
 10
0.0
 20
0.0
 41
1.0
 42
1.0
 50
0.0
  0
INSERT
  8
15
  6
CONTINUOUS
 62
     7
  2
COMP18
 10
0.0
 20
0.0
 41
1.0
 42
1.0
 50
0.0
  0
ENDSEC
  0
EOF
