  0
SECTION
  2
HEADER
  9
$ACADVER
  1
AC1006
  9
$INSBASE
 10
0.0
 20
0.0
 30
0.0
  9
$EXTMIN
 10
-403.0
 20
-1274.700636468141
  9
$EXTMAX
 10
964.4236401309474
 20
-77.12971848481863
  9
$LIMMIN
 10
-403.0
 20
-1274.700636468141
  9
$LIMMAX
 10
964.4236401309474
 20
-77.12971848481863
  9
$ORTHOMODE
 70
     0
  9
$REGENMODE
 70
     1
  9
$FILLMODE
 70
     1
  9
$QTEXTMODE
 70
     0
  9
$MIRRTEXT
 70
     1
  9
$DRAGMODE
 70
     2
  9
$LTSCALE
 40
1.0
  9
$OSMODE
 70
     0
  9
$ATTMODE
 70
     1
  9
$TEXTSIZE
 40
3.0
  9
$TRACEWID
 40
0.5
  9
$TEXTSTYLE
  7
STANDARD
  9
$CLAYER
  8
0
  9
$CELTYPE
  6
BYLAYER
  9
$CECOLOR
 62
   256
  9
$DIMSCALE
 40
1.0
  9
$DIMASZ
 40
3.0
  9
$DIMEXO
 40
1.0
  9
$DIMDLI
 40
5.0
  9
$DIMRND
 40
0.0
  9
$DIMDLE
 40
4.0
  9
$DIMEXE
 40
1.0
  9
$DIMTP
 40
0.0
  9
$DIMTM
 40
0.0
  9
$DIMTXT
 40
3.0
  9
$DIMCEN
 40
2.0
  9
$DIMTSZ
 40
0.0
  9
$DIMTOL
 70
     0
  9
$DIMLIM
 70
     0
  9
$DIMTIH
 70
     0
  9
$DIMTOH
 70
     0
  9
$DIMSE1
 70
     0
  9
$DIMSE2
 70
     0
  9
$DIMTAD
 70
     1
  9
$DIMZIN
 70
     8
  9
$DIMBLK
  1

  9
$DIMASO
 70
     1
  9
$DIMSHO
 70
     0
  9
$DIMPOST
  1

  9
$DIMAPOST
  1

  9
$DIMALT
 70
     0
  9
$DIMALTD
 70
     4
  9
$DIMALTF
 40
25.4
  9
$DIMLFAC
 40
1.0
  9
$DIMTOFL
 70
     1
  9
$DIMTVP
 40
1.0
  9
$DIMTIX
 70
     0
  9
$DIMSOXD
 70
     0
  9
$DIMSAH
 70
     0
  9
$DIMBLK1
  1

  9
$DIMBLK2
  1

  9
$LUNITS
 70
     2
  9
$LUPREC
 70
     4
  9
$AXISMODE
 70
     0
  9
$AXISUNIT
 10
0.0
 20
0.0
  9
$SKETCHINC
 40
1.0
  9
$FILLETRAD
 40
0.0
  9
$AUNITS
 70
     0
  9
$AUPREC
 70
     0
  9
$MENU
  1
acad
  9
$ELEVATION
 40
0.0
  9
$THICKNESS
 40
0.0
  9
$LIMCHECK
 70
     0
  9
$BLIPMODE
 70
     1
  9
$CHAMFERA
 40
0.0
  9
$CHAMFERB
 40
0.0
  9
$SKPOLY
 70
     0
  9
$TDCREATE
 40
2453956.436423611
  9
$TDUPDATE
 40
2453956.436423611
  9
$TDINDWG
 40
0.0
  9
$TDUSRTIMER
 40
0.0
  9
$USRTIMER
 70
     1
  9
$ANGBASE
 50
0.0
  9
$ANGDIR
 70
     0
  9
$PDMODE
 70
     0
  9
$PDSIZE
 40
0.0
  9
$PLINEWID
 40
0.0
  9
$COORDS
 70
     0
  9
$SPLFRAME
 70
     0
  9
$SPLINETYPE
 70
     6
  9
$SPLINESEGS
 70
     8
  9
$ATTDIA
 70
     0
  9
$ATTREQ
 70
     1
  9
$HANDLING
 70
     0
  9
$HANDSEED
  5
0
  9
$SURFTAB1
 70
     6
  9
$SURFTAB2
 70
     6
  9
$SURFTYPE
 70
     6
  9
$SURFU
 70
     6
  9
$SURFV
 70
     6
  9
$FLATLAND
 70
     0
  9
$UCSNAME
  2

  9
$UCSORG
 10
0.0
 20
0.0
 30
0.0
  9
$UCSXDIR
 10
1.0
 20
0.0
 30
0.0
  9
$UCSYDIR
 10
0.0
 20
1.0
 30
0.0
  9
$USERI1
 70
     0
  9
$USERI2
 70
     0
  9
$USERI3
 70
     0
  9
$USERI4
 70
     0
  9
$USERI5
 70
     0
  9
$USERR1
 40
0.0
  9
$USERR2
 40
0.0
  9
$USERR3
 40
0.0
  9
$USERR4
 40
0.0
  9
$USERR5
 40
0.0
  9
$WORLDVIEW
 70
     1
  0
ENDSEC
  0
SECTION
  2
TABLES
  0
TABLE
  2
VPORT
 70
     1
  0
VPORT
  2
*ACTIVE
 70
     0
 10
0.0
 20
0.0
 11
1.0
 21
1.0
 12
280.7118200654737
 22
-675.9151774764797
 13
0.0
 23
0.0
 14
0.0
 24
0.0
 15
0.0
 25
0.0
 16
0.0
 26
0.0
 36
1.0
 17
0.0
 27
0.0
 37
0.0
 40
1197.570917983322
 41
1.5
 42
50.0
 43
0.0
 44
0.0
 50
0.0
 51
0.0
 71
     0
 72
   100
 73
     1
 74
     1
 75
     0
 76
     0
 77
     0
 78
     0
  0
ENDTAB
  0
TABLE
  2
LTYPE
 70
    20
  0
LTYPE
  2
CONTINUOUS
 70
    64
  3
solid line
 72
    65
 73
     0
 40
0.0
  0
LTYPE
  2
DASHED
 70
    64
  3
-- -- -- -- -- -- -- -- -- --
 72
    65
 73
     2
 40
3.0
 49
2.0
 49
-1.0
  0
LTYPE
  2
CENTER
 70
    64
  3
--- - --- - --- - --- - --- -
 72
    65
 73
     4
 40
6.0
 49
3.0
 49
-1.0
 49
1.0
 49
-1.0
  0
LTYPE
  2
PHANTOM
 70
    64
  3
----- - - ----- - - ----- - -
 72
    65
 73
     6
 40
12.0
 49
7.0
 49
-1.0
 49
1.0
 49
-1.0
 49
1.0
 49
-1.0
  0
ENDTAB
  0
TABLE
  2
LAYER
 70
    20
  0
LAYER
  2
0
 70
    64
 62
     7
  6
CONTINUOUS
  0
LAYER
  2
15
 70
    64
 62
     7
  6
CONTINUOUS
  0
ENDTAB
  0
TABLE
  2
STYLE
 70
     4
  0
STYLE
  2
STANDARD
 70
    64
 40
0.0
 41
1.0
 50
0.0
 71
     0
 42
3.0
  3
txt
  4

  0
ENDTAB
  0
TABLE
  2
VIEW
 70
     0
  0
ENDTAB
  0
TABLE
  2
UCS
 70
     0
  0
ENDTAB
  0
TABLE
  2
DWGMGR
 70
     0
  0
ENDTAB
  0
ENDSEC
  0
SECTION
  2
BLOCKS
  0
BLOCK
  8
15
  2
SUB1
 70
    64
 10
0.0
 20
0.0
  0
LINE
  8
15
  6
CONTINUOUS
 62
     3
 10
-50.40000000000001
 20
-62.0
 11
-50.40000000000001
 21
-35.19400672795956
  0
LINE
  8
15
  6
CONTINUOUS
 62
     3
 10
-50.40000000000001
 20
8.707624644127577
 11
-50.40000000000001
 21
26.92000000000002
  0
LINE
  8
15
  6
CONTINUOUS
 62
     3
 10
-50.40000000000001
 20
51.92000000000002
 11
-50.40000000000001
 21
62.0
  0
LINE
  8
15
  6
CONTINUOUS
 62
     3
 10
-33.97370029299063
 20
-58.89999999999998
 11
-40.90000000000001
 21
-58.89999999999998
  0
LINE
  8
15
  6
CONTINUOUS
 62
     3
 10
-30.90000000000001
 20
51.92000000000002
 11
-30.90000000000001
 21
58.90000000000003
  0
LINE
  8
15
  6
CONTINUOUS
 62
     3
 10
-30.90000000000001
 20
58.90000000000003
 11
-40.90000000000001
 21
58.90000000000003
  0
LINE
  8
15
  6
CONTINUOUS
 62
     3
 10
-40.90000000000001
 20
62.0
 11
-50.40000000000001
 21
62.0
  0
LINE
  8
15
  6
CONTINUOUS
 62
     3
 10
-40.90000000000001
 20
-62.0
 11
-40.90000000000001
 21
-50.04507698538015
  0
LINE
  8
15
  6
CONTINUOUS
 62
     3
 10
-40.90000000000001
 20
-18.71776741499451
 11
-40.90000000000001
 21
26.92000000000002
  0
LINE
  8
15
  6
CONTINUOUS
 62
     3
 10
-40.90000000000001
 20
51.92000000000002
 11
-40.90000000000001
 21
62.0
  0
LINE
  8
15
  6
CONTINUOUS
 62
     3
 10
-40.90000000000001
 20
-62.0
 11
-50.40000000000001
 21
-62.0
  0
LINE
  8
15
  6
CONTINUOUS
 62
     3
 10
-38.40000000000001
 20
-23.75634050813642
 11
-38.40000000000001
 21
26.92000000000002
  0
LINE
  8
15
  6
CONTINUOUS
 62
     3
 10
0.0
 20
-38.89999999999998
 11
-29.19547218022741
 21
-38.89999999999998
  0
LINE
  8
15
  6
CONTINUOUS
 62
     3
 10
-35.90000000000001
 20
20.90000000000003
 11
-5.799999999999997
 21
20.90000000000003
  0
LINE
  8
15
  6
CONTINUOUS
 62
     3
 10
-35.90000000000001
 20
17.30000000000001
 11
-5.799999999999997
 21
17.30000000000001
  0
LINE
  8
15
  6
CONTINUOUS
 62
     3
 10
-35.90000000000001
 20
-17.29999999999996
 11
-5.799999999999997
 21
-17.29999999999996
  0
LINE
  8
15
  6
CONTINUOUS
 62
     3
 10
-35.90000000000001
 20
-20.89999999999998
 11
-5.799999999999997
 21
-20.89999999999998
  0
LINE
  8
15
  6
CONTINUOUS
 62
     3
 10
-5.799999999999997
 20
17.30000000000001
 11
-5.799999999999997
 21
20.90000000000003
  0
LINE
  8
15
  6
CONTINUOUS
 62
     3
 10
-5.799999999999997
 20
-17.29999999999996
 11
-5.799999999999997
 21
-20.89999999999998
  0
ARC
  8
15
  6
CONTINUOUS
 62
     3
 10
-35.90000000000001
 20
23.40000000000003
 40
2.5
 50
180.0
 51
270.0
  0
ARC
  8
15
  6
CONTINUOUS
 62
     3
 10
-35.90000000000001
 20
14.80000000000001
 40
2.5
 50
90.0
 51
180.0
  0
ARC
  8
15
  6
CONTINUOUS
 62
     3
 10
-35.90000000000001
 20
-14.79999999999996
 40
2.5
 50
180.0
 51
270.0
  0
ARC
  8
15
  6
CONTINUOUS
 62
     3
 10
-35.90000000000001
 20
-23.39999999999998
 40
2.5
 50
90.0
 51
180.0
  0
LINE
  8
15
  6
CONTINUOUS
 62
     3
 10
0.0
 20
-38.89999999999998
 11
0.0
 21
26.92000000000002
  0
ENDBLK
  8
15
  0
BLOCK
  8
15
  2
SUB2
 70
    64
 10
0.0
 20
0.0
  0
ARC
  8
15
  6
CONTINUOUS
 62
     3
 10
36.19999999999999
 20
-36.19999999999999
 40
8.600000000000003
 50
274.9699122871616
 51
355.0300877128382
  0
ARC
  8
15
  6
CONTINUOUS
 62
     3
 10
-36.2
 20
-36.19999999999999
 40
8.600000000000003
 50
184.9699122871618
 51
265.0300877128383
  0
ARC
  8
15
  6
CONTINUOUS
 62
     3
 10
-36.2
 20
36.19999999999999
 40
8.600000000000003
 50
94.96991228716162
 51
175.0300877128382
  0
ARC
  8
15
  6
CONTINUOUS
 62
     3
 10
36.2
 20
36.19999999999999
 40
8.600000000000003
 50
4.96991228716163
 51
85.03008771283828
  0
LINE
  8
15
  6
CONTINUOUS
 62
     3
 10
12.5
 20
-46.89339625921974
 11
36.94504035465136
 21
-44.76766682766908
  0
LINE
  8
15
  6
CONTINUOUS
 62
     3
 10
44.76766682766906
 20
-36.94504035465138
 11
46.89339625921975
 21
-12.5
  0
LINE
  8
15
  6
CONTINUOUS
 62
     3
 10
46.89339625921976
 20
12.5
 11
44.76766682766908
 21
36.94504035465135
  0
LINE
  8
15
  6
CONTINUOUS
 62
     3
 10
36.94504035465138
 20
44.76766682766908
 11
12.5
 21
46.89339625921974
  0
LINE
  8
15
  6
CONTINUOUS
 62
     3
 10
-12.5
 20
46.89339625921974
 11
-36.94504035465138
 21
44.76766682766908
  0
LINE
  8
15
  6
CONTINUOUS
 62
     3
 10
-44.76766682766908
 20
36.94504035465138
 11
-46.89339625921976
 21
12.5
  0
LINE
  8
15
  6
CONTINUOUS
 62
     3
 10
-46.89339625921976
 20
-12.5
 11
-44.76766682766908
 21
-36.94504035465138
  0
LINE
  8
15
  6
CONTINUOUS
 62
     3
 10
-36.94504035465138
 20
-44.76766682766908
 11
-12.5
 21
-46.89339625921974
  0
ENDBLK
  8
15
  0
BLOCK
  8
15
  2
SUB3
 70
    64
 10
0.0
 20
0.0
  0
LINE
  8
15
  6
CONTINUOUS
 62
     3
 10
-38.25
 20
47.80000000000001
 11
-12.5
 21
47.80000000000001
  0
LINE
  8
15
  6
CONTINUOUS
 62
     3
 10
12.5
 20
47.80000000000001
 11
38.25
 21
47.80000000000001
  0
ARC
  8
15
  6
CONTINUOUS
 62
     3
 10
0.0
 20
0.0
 40
62.50000000000034
 50
11.53695903281543
 51
78.46304096718458
  0
ARC
  8
15
  6
CONTINUOUS
 62
     3
 10
0.0
 20
0.0
 40
62.50000000000034
 50
101.5369590328154
 51
168.4630409671846
  0
ARC
  8
15
  6
CONTINUOUS
 62
     3
 10
-36.2
 20
36.19999999999999
 40
8.600000000000026
 50
94.65569736880869
 51
175.3443026311914
  0
LINE
  8
15
  6
CONTINUOUS
 62
     3
 10
-82.59999999999999
 20
-77.71999999999997
 11
-82.59999999999999
 21
-12.5
  0
LINE
  8
15
  6
CONTINUOUS
 62
     3
 10
-65.5
 20
-85.19999999999999
 11
-12.5
 21
-85.19999999999999
  0
LINE
  8
15
  6
CONTINUOUS
 62
     3
 10
12.5
 20
-85.19999999999999
 11
74.80000000000001
 21
-85.19999999999999
  0
LINE
  8
15
  6
CONTINUOUS
 62
     3
 10
86.99999999999994
 20
-71.03292156453921
 11
87.0
 21
-12.5
  0
LINE
  8
15
  6
CONTINUOUS
 62
     3
 10
75.30000000000001
 20
-84.69999999999999
 11
75.30000000000001
 21
-60.57449676102613
  0
LINE
  8
15
  6
CONTINUOUS
 62
     3
 10
-66.0
 20
-84.69999999999999
 11
-66.0
 21
-60.57449676102613
  0
LINE
  8
15
  6
CONTINUOUS
 62
     3
 10
-49.68896680756102
 20
-73.26714057876387
 11
-48.09772323038176
 21
-12.5
  0
LINE
  8
15
  6
CONTINUOUS
 62
     3
 10
57.41694225957967
 20
-13.23394511425227
 11
58.98896680756103
 21
-73.26714057876393
  0
LINE
  8
15
  6
CONTINUOUS
 62
     3
 10
-46.75851661910856
 20
12.5
 11
-44.77162383496743
 21
36.89804357444092
  0
LINE
  8
15
  6
CONTINUOUS
 62
     3
 10
-12.5
 20
46.75851661910855
 11
-36.89804357444092
 21
44.77162383496744
  0
LINE
  8
15
  6
CONTINUOUS
 62
     3
 10
12.5
 20
46.75851661910855
 11
36.89804357444092
 21
44.77162383496744
  0
ARC
  8
15
  6
CONTINUOUS
 62
     3
 10
36.2
 20
36.19999999999999
 40
8.600000000000026
 50
4.969912287161805
 51
85.34430263119123
  0
LINE
  8
15
  6
CONTINUOUS
 62
     3
 10
-46.75851661910855
 20
-12.5
 11
-44.77162383496744
 21
-36.89804357444092
  0
ARC
  8
15
  6
CONTINUOUS
 62
     3
 10
-36.19999999999999
 20
-36.19999999999999
 40
8.600000000000026
 50
184.6556973688086
 51
265.3443026311913
  0
LINE
  8
15
  6
CONTINUOUS
 62
     3
 10
-12.5
 20
-46.75851661910855
 11
-36.89804357444092
 21
-44.77162383496744
  0
LINE
  8
15
  6
CONTINUOUS
 62
     3
 10
12.5
 20
-46.75851661910855
 11
36.89804357444092
 21
-44.77162383496744
  0
ARC
  8
15
  6
CONTINUOUS
 62
     3
 10
36.19999999999999
 20
-36.19999999999999
 40
8.600000000000026
 50
274.6556973688088
 51
355.3443026311913
  0
LINE
  8
15
  6
CONTINUOUS
 62
     3
 10
-64.63073361412148
 20
-59.08020471388846
 11
-49.28230601084436
 21
-57.73739129565337
  0
LINE
  8
15
  6
CONTINUOUS
 62
     3
 10
58.58230601084437
 20
-57.73739129565337
 11
73.93073361412149
 21
-59.08020471388852
  0
ARC
  8
15
  6
CONTINUOUS
 62
     3
 10
-64.5
 20
-60.57449676102613
 40
1.500000000000001
 50
94.99999999999965
 51
180.0
  0
ARC
  8
15
  6
CONTINUOUS
 62
     3
 10
73.80000000000001
 20
-60.57449676102613
 40
1.500000000000001
 50
0.0
 51
85.00000000000017
  0
LINE
  8
15
  6
CONTINUOUS
 62
     3
 10
-66.0
 20
-78.69999999999993
 11
-53.79522392758651
 21
-77.63222045279127
  0
LINE
  8
15
  6
CONTINUOUS
 62
     3
 10
63.09522392758657
 20
-77.63222045279133
 11
75.30000000000001
 21
-78.69999999999999
  0
ARC
  8
15
  6
CONTINUOUS
 62
     3
 10
-54.18742476995103
 20
-73.14934431137846
 40
4.499999999999998
 50
275.0000000000007
 51
358.5000000000002
  0
ARC
  8
15
  6
CONTINUOUS
 62
     3
 10
63.48742476995104
 20
-73.14934431137846
 40
4.499999999999998
 50
181.5000000000005
 51
264.9999999999999
  0
ARC
  8
15
  6
CONTINUOUS
 62
     3
 10
-44.09390511848278
 20
-58.24841507442608
 40
5.2
 50
90.0
 51
178.4999999999996
  0
ARC
  8
15
  6
CONTINUOUS
 62
     3
 10
53.39390511848285
 20
-58.24841507442608
 40
5.2
 50
1.499999999999211
 51
90.0
  0
ARC
  8
15
  6
CONTINUOUS
 62
     3
 10
-14.0
 20
-74.19999999999999
 40
4.500000000000005
 50
270.0
 51
289.4712206344906
  0
ARC
  8
15
  6
CONTINUOUS
 62
     3
 10
14.0
 20
-74.19999999999999
 40
4.500000000000005
 50
250.5287793655095
 51
270.0
  0
LINE
  8
15
  6
CONTINUOUS
 62
     3
 10
-66.0
 20
-78.69999999999999
 11
-14.0
 21
-78.69999999999999
  0
LINE
  8
15
  6
CONTINUOUS
 62
     3
 10
14.0
 20
-78.69999999999999
 11
75.30000000000001
 21
-78.69999999999999
  0
LINE
  8
15
  6
CONTINUOUS
 62
     3
 10
-44.09390511848278
 20
-53.04841507442609
 11
-12.5
 21
-53.04841507442609
  0
LINE
  8
15
  6
CONTINUOUS
 62
     3
 10
12.5
 20
-53.04841507442609
 11
53.39390511848285
 21
-53.04841507442609
  0
LINE
  8
15
  6
CONTINUOUS
 62
     3
 10
-82.09999999999999
 20
-78.21999999999997
 11
-70.5
 21
-78.21999999999997
  0
LINE
  8
15
  6
CONTINUOUS
 62
     3
 10
79.68220373261458
 20
-71.71162323911705
 11
86.51308847415388
 21
-71.53275022702695
  0
LINE
  8
15
  6
CONTINUOUS
 62
     3
 10
-38.75
 20
44.41325148768746
 11
-38.75
 21
47.30000000000001
  0
LINE
  8
15
  6
CONTINUOUS
 62
     3
 10
38.75
 20
44.41325148768746
 11
38.75
 21
47.30000000000001
  0
ARC
  8
15
  6
CONTINUOUS
 62
     3
 10
-70.5
 20
-82.71999999999997
 40
4.5
 50
0.0
 51
90.0
  0
ARC
  8
15
  6
CONTINUOUS
 62
     3
 10
52.2656240281171
 20
-15.16109857939233
 40
5.499999999999999
 50
20.51126526013726
 51
28.93624530794979
  0
ARC
  8
15
  6
CONTINUOUS
 62
     3
 10
51.59491302457972
 20
-50.54841507442609
 40
2.500000000000003
 50
181.5000000000001
 51
270.0
  0
LINE
  8
15
  6
CENTER
 62
     3
 10
-167.9629669189453
 20
0.0
 11
180.7967376708984
 21
0.0
  0
LINE
  8
15
  6
CENTER
 62
     3
 10
0.0
 20
-176.9561767578125
 11
0.0
 21
179.9861755371094
  0
ARC
  8
15
  6
CONTINUOUS
 62
     3
 10
79.80000000000001
 20
-76.21008120150708
 40
4.499999999999998
 50
91.5
 51
180.0
  0
ARC
  8
15
  6
CONTINUOUS
 62
     3
 10
86.49999999999994
 20
-71.03292156453921
 40
0.4999999999999933
 50
271.4999999999996
 51
0.0
  0
LINE
  8
15
  6
CONTINUOUS
 62
     3
 10
49.09576971214082
 20
-50.61385744519578
 11
48.09772323038182
 21
-12.5
  0
ARC
  8
15
  6
CONTINUOUS
 62
     3
 10
-65.5
 20
-84.69999999999999
 40
0.5
 50
180.0
 51
270.0
  0
ARC
  8
15
  6
CONTINUOUS
 62
     3
 10
74.80000000000001
 20
-84.69999999999999
 40
0.5
 50
270.0
 51
0.0
  0
ARC
  8
15
  6
CONTINUOUS
 62
     3
 10
-82.09999999999999
 20
-77.71999999999997
 40
0.5
 50
180.0
 51
270.0
  0
ARC
  8
15
  6
CONTINUOUS
 62
     3
 10
-38.25
 20
47.30000000000001
 40
0.5
 50
90.0
 51
180.0
  0
ARC
  8
15
  6
CONTINUOUS
 62
     3
 10
38.25
 20
47.30000000000001
 40
0.5
 50
0.0
 51
90.0
  0
LINE
  8
15
  6
CONTINUOUS
 62
     3
 10
46.89339625921976
 20
12.5
 11
44.7676668276691
 21
36.94504035465135
  0
LINE
  8
15
  6
CONTINUOUS
 62
     3
 10
46.89339625921975
 20
-12.5
 11
44.76766682766908
 21
-36.94504035465138
  0
LINE
  8
15
  6
CENTER
 62
     3
 10
-75.94132995605469
 20
-39.42000000000002
 11
-356.7984893989493
 21
-39.42000000000002
  0
ENDBLK
  8
15
  0
BLOCK
  8
15
  2
SUB4
 70
    64
 10
0.0
 20
0.0
  0
ARC
  8
15
  6
CONTINUOUS
 62
     3
 10
0.0
 20
0.0
 40
152.5
 50
270.0
 51
354.2079809247546
  0
ARC
  8
15
  6
CONTINUOUS
 62
     3
 10
0.0
 20
0.0
 40
152.5
 50
5.792019075245372
 51
270.0
  0
ARC
  8
15
  6
CONTINUOUS
 62
     3
 10
0.0
 20
0.0
 40
136.5
 50
270.0
 51
353.8776200228118
  0
ARC
  8
15
  6
CONTINUOUS
 62
     3
 10
0.0
 20
0.0
 40
136.5
 50
6.122379977188251
 51
270.0
  0
CIRCLE
  8
15
  6
CONTINUOUS
 62
     3
 10
0.0
 20
0.0
 40
38.5
  0
CIRCLE
  8
15
  6
CONTINUOUS
 62
     3
 10
0.0
 20
0.0
 40
22.5
  0
LINE
  8
15
  6
CONTINUOUS
 62
     3
 10
-135.9264507003696
 20
-12.5
 11
-36.41428291206626
 21
-12.5
  0
LINE
  8
15
  6
CONTINUOUS
 62
     3
 10
36.41428291206626
 20
-12.5
 11
132.9782813781971
 21
-12.5
  0
LINE
  8
15
  6
CONTINUOUS
 62
     3
 10
-135.9264507003696
 20
12.5
 11
-36.41428291206626
 21
12.5
  0
LINE
  8
15
  6
CONTINUOUS
 62
     3
 10
36.41428291206626
 20
12.5
 11
132.9782813781971
 21
12.5
  0
LINE
  8
15
  6
CONTINUOUS
 62
     3
 10
12.5
 20
135.9264507003696
 11
12.5
 21
36.41428291206626
  0
LINE
  8
15
  6
CONTINUOUS
 62
     3
 10
12.5
 20
-36.41428291206626
 11
12.5
 21
-135.9264507003696
  0
LINE
  8
15
  6
CONTINUOUS
 62
     3
 10
-12.5
 20
135.9264507003696
 11
-12.5
 21
36.41428291206626
  0
LINE
  8
15
  6
CONTINUOUS
 62
     3
 10
-12.5
 20
-36.41428291206626
 11
-12.5
 21
-135.9264507003696
  0
CIRCLE
  8
15
  6
CONTINUOUS
 62
     3
 10
144.5
 20
0.0
 40
17.0
  0
LINE
  8
15
  6
CENTER
 62
     3
 10
-13.98299407958984
 20
0.0
 11
15.14173698425293
 21
0.0
  0
LINE
  8
15
  6
CENTER
 62
     3
 10
0.0
 20
-14.74906253814697
 11
0.0
 21
12.88209247589111
  0
ENDBLK
  8
15
  0
BLOCK
  8
15
  2
SUB5
 70
    64
 10
0.0
 20
0.0
  0
LINE
  8
15
  6
CONTINUOUS
 62
     3
 10
-196.2
 20
-62.80000000000001
 11
-105.2729520163938
 21
-62.80000000000001
  0
LINE
  8
15
  6
CONTINUOUS
 62
     3
 10
-31.72704798360616
 20
-62.80000000000001
 11
81.10000000000002
 21
-62.80000000000001
  0
LINE
  8
15
  6
CONTINUOUS
 62
     3
 10
-192.7
 20
-53.39999999999998
 11
-192.7
 21
-62.80000000000001
  0
LINE
  8
15
  6
CONTINUOUS
 62
     3
 10
52.70000000000003
 20
-12.60000000000002
 11
52.70000000000003
 21
-42.93816614522729
  0
LINE
  8
15
  6
CONTINUOUS
 62
     3
 10
81.09999999999991
 20
-53.39999999999998
 11
58.07128684516498
 21
-49.33941653980662
  0
ARC
  8
15
  6
CONTINUOUS
 62
     3
 10
42.70000000000003
 20
-12.60000000000002
 40
10.0
 50
0.0
 51
24.21648524371208
  0
ARC
  8
15
  6
CONTINUOUS
 62
     3
 10
59.20000000000003
 20
-42.93816614522729
 40
6.500000000000002
 50
180.0
 51
259.9999999999999
  0
LINE
  8
15
  6
CONTINUOUS
 62
     3
 10
54.1698414444235
 20
-5.399999999999977
 11
81.10000000000002
 21
-5.399999999999977
  0
LINE
  8
15
  6
CONTINUOUS
 62
     3
 10
-196.2
 20
-35.71633117401746
 11
-196.2
 21
-62.80000000000001
  0
LINE
  8
15
  6
CONTINUOUS
 62
     3
 10
-195.2871557427476
 20
-34.72013647592564
 11
-165.8938709842459
 21
-32.14855727576742
  0
LINE
  8
15
  6
CONTINUOUS
 62
     3
 10
-135.8
 20
0.0
 11
-135.8
 21
-1.600000000000023
  0
LINE
  8
15
  6
CONTINUOUS
 62
     3
 10
6.800000000000011
 20
0.0
 11
6.799999999999997
 21
-1.599999999999966
  0
LINE
  8
15
  6
CONTINUOUS
 62
     3
 10
81.10000000000002
 20
-53.39999999999998
 11
-4.889544884508084
 21
-53.39999999999998
  0
LINE
  8
15
  6
CONTINUOUS
 62
     3
 10
-132.1104551154919
 20
-53.39999999999998
 11
-192.7
 21
-53.39999999999998
  0
ARC
  8
15
  6
CONTINUOUS
 62
     3
 10
7.799999999999997
 20
-1.600000000000023
 40
1.0
 50
179.9999999999968
 51
270.0
  0
ARC
  8
15
  6
CONTINUOUS
 62
     3
 10
-136.8
 20
-1.600000000000023
 40
1.0
 50
270.0
 51
0.0
  0
LINE
  8
15
  6
CONTINUOUS
 62
     3
 10
-192.7
 20
-53.39999999999998
 11
-167.2334876721402
 21
-51.17196887176908
  0
LINE
  8
15
  6
CONTINUOUS
 62
     3
 10
-161.3
 20
3.149999999999977
 11
-161.3
 21
-14.90199798205828
  0
LINE
  8
15
  6
CONTINUOUS
 62
     3
 10
-161.3
 20
-35.81409008871651
 11
-161.3
 21
-44.69670333417275
  0
ARC
  8
15
  6
CONTINUOUS
 62
     3
 10
-167.8
 20
-44.69670333417275
 40
6.500000000000001
 50
275.0000000000001
 51
0.0
  0
ARC
  8
15
  6
CONTINUOUS
 62
     3
 10
-195.2
 20
-35.71633117401746
 40
1.0
 50
94.99999999999946
 51
180.0
  0
LINE
  8
15
  6
CONTINUOUS
 62
     3
 10
-151.1
 20
-9.100000000000023
 11
-151.1
 21
-18.10000000000002
  0
ARC
  8
15
  6
CONTINUOUS
 62
     3
 10
-144.6
 20
-9.100000000000023
 40
6.5
 50
90.0
 51
180.0
  0
ARC
  8
15
  6
CONTINUOUS
 62
     3
 10
-154.8
 20
-9.100000000000023
 40
6.5
 50
90.0
 51
176.2068937302331
  0
ARC
  8
15
  6
CONTINUOUS
 62
     3
 10
-154.1
 20
-18.10000000000002
 40
3.000000000001044
 50
269.4163045270508
 51
0.0
  0
LINE
  8
15
  6
CONTINUOUS
 62
     3
 10
-161.3
 20
3.149999999999977
 11
-156.5
 21
3.149999999999977
  0
LINE
  8
15
  6
CONTINUOUS
 62
     3
 10
-156.5
 20
3.149999999999977
 11
-155.5550886584514
 21
-0.3764571353075326
  0
ARC
  8
15
  6
CONTINUOUS
 62
     3
 10
-152.6573111795842
 20
0.3999999999999773
 40
3.0
 50
194.9999999999991
 51
270.0
  0
LINE
  8
15
  6
CONTINUOUS
 62
     3
 10
-135.8
 20
0.0
 11
-81.0
 21
0.0
  0
LINE
  8
15
  6
CONTINUOUS
 62
     3
 10
-56.0
 20
0.0
 11
6.799999999999997
 21
0.0
  0
ENDBLK
  8
15
  0
BLOCK
  8
15
  2
SUB6
 70
    64
 10
0.0
 20
0.0
  0
LINE
  8
15
  6
CONTINUOUS
 62
     3
 10
-336.6113891601563
 20
-26.19999999999993
 11
88.09999999999991
 21
-26.19999999999993
  0
LINE
  8
15
  6
CONTINUOUS
 62
     3
 10
-326.4000000000001
 20
-34.10000000000002
 11
88.09999999999991
 21
-34.10000000000002
  0
LINE
  8
15
  6
CONTINUOUS
 62
     3
 10
-326.4000000000001
 20
-34.10000000000002
 11
-326.4000000000001
 21
-7.100000000000023
  0
LINE
  8
15
  6
CONTINUOUS
 62
     3
 10
88.09999999999991
 20
-34.10000000000002
 11
88.09999999999991
 21
-0.7999999999999545
  0
LINE
  8
15
  6
CONTINUOUS
 62
     3
 10
-296.2000000000001
 20
-225.3
 11
-296.2000000000001
 21
-34.10000000000002
  0
LINE
  8
15
  6
CONTINUOUS
 62
     3
 10
57.89999999999986
 20
-225.3
 11
57.89999999999986
 21
-34.10000000000002
  0
LINE
  8
15
  6
CONTINUOUS
 62
     3
 10
-277.1
 20
-244.4000000000001
 11
38.79999999999984
 21
-244.3999999999999
  0
ARC
  8
15
  6
CONTINUOUS
 62
     3
 10
-277.1
 20
-225.3
 40
19.10000000000002
 50
180.0
 51
270.0
  0
ARC
  8
15
  6
CONTINUOUS
 62
     3
 10
38.79999999999984
 20
-225.3
 40
19.09999999999999
 50
270.0
 51
0.0
  0
LINE
  8
15
  6
CONTINUOUS
 62
     3
 10
57.89999999999986
 20
-102.0980000000001
 11
81.09999999999991
 21
-102.0980000000001
  0
LINE
  8
15
  6
CONTINUOUS
 62
     3
 10
57.89999999999986
 20
-210.3019999999999
 11
81.09999999999991
 21
-210.3019999999999
  0
LINE
  8
15
  6
CONTINUOUS
 62
     3
 10
81.09999999999991
 20
-210.3019999999999
 11
81.09999999999991
 21
-102.0980000000001
  0
LINE
  8
15
  6
CONTINUOUS
 62
     3
 10
106.6980330756942
 20
-208.2000000000001
 11
106.6980330756942
 21
-104.2000000000001
  0
LINE
  8
15
  6
CONTINUOUS
 62
     3
 10
106.6980330756942
 20
-104.2000000000001
 11
81.09999999999991
 21
-104.2000000000001
  0
LINE
  8
15
  6
CONTINUOUS
 62
     3
 10
117.6980330756942
 20
-145.2000000000001
 11
117.6980330756942
 21
-134.2000000000001
  0
LINE
  8
15
  6
CONTINUOUS
 62
     3
 10
106.6980330756942
 20
-134.2000000000001
 11
117.6980330756942
 21
-134.2000000000001
  0
LINE
  8
15
  6
CONTINUOUS
 62
     3
 10
106.6980330756942
 20
-145.2000000000001
 11
117.6980330756942
 21
-145.2000000000001
  0
LINE
  8
15
  6
CONTINUOUS
 62
     3
 10
81.09999999999991
 20
-208.2000000000001
 11
106.6980330756942
 21
-208.2000000000001
  0
LINE
  8
15
  6
CENTER
 62
     3
 10
-340.7000000000001
 20
-47.07195396423333
 11
-340.7000000000001
 21
-5.343775939941338
  0
ARC
  8
15
  6
CONTINUOUS
 62
     3
 10
-340.7000000000001
 20
-26.19999999999993
 40
12.70000000000002
 50
127.3613869157155
 51
0.0
  0
CIRCLE
  8
15
  6
CONTINUOUS
 62
     3
 10
-340.7000000000001
 20
-26.19999999999993
 40
4.1
  0
LINE
  8
15
  6
CONTINUOUS
 62
     3
 10
-336.6000000000001
 20
-50.09999999999991
 11
-336.6000000000001
 21
-38.21998336105332
  0
LINE
  8
15
  6
CONTINUOUS
 62
     3
 10
-336.6000000000001
 20
-50.09999999999991
 11
-296.2000000000001
 21
-50.09999999999991
  0
LINE
  8
15
  6
CONTINUOUS
 62
     3
 10
-190.0
 20
-0.7999999999999545
 11
-98.97295201639393
 21
-0.7999999999999545
  0
LINE
  8
15
  6
CONTINUOUS
 62
     3
 10
-25.42704798360614
 20
-0.7999999999999545
 11
88.09999999999991
 21
-0.7999999999999545
  0
LINE
  8
15
  6
CONTINUOUS
 62
     3
 10
-336.6113891601563
 20
-7.100000000000023
 11
-130.330078125
 21
-7.100000000000023
  0
LINE
  8
15
  6
CONTINUOUS
 62
     3
 10
-190.0
 20
-7.100000000000023
 11
-190.0
 21
-0.7999999999999545
  0
LINE
  8
15
  6
CENTER
 62
     3
 10
-360.6116333007813
 20
-26.19999999999993
 11
-336.6113891601563
 21
-26.19999999999993
  0
LINE
  8
15
  6
CONTINUOUS
 62
     3
 10
-336.6113891601563
 20
-26.19999999999993
 11
-336.6113891601563
 21
-7.100000000000023
  0
LINE
  8
15
  6
CONTINUOUS
 62
     3
 10
-336.6113891601563
 20
-7.100000000000023
 11
-348.4068721351392
 21
-16.10573816999886
  0
LINE
  8
15
  6
CENTER
 62
     3
 10
69.47869873046875
 20
-156.2000000000001
 11
122.970329284668
 21
-156.2000000000001
  0
ENDBLK
  8
15
  0
BLOCK
  8
15
  2
SUB7
 70
    64
 10
0.0
 20
0.0
  0
LINE
  8
15
  6
CONTINUOUS
 62
     3
 10
14.09999999999991
 20
8.600000000000023
 11
14.09999999999991
 21
10.62165727625745
  0
ARC
  8
15
  6
CONTINUOUS
 62
     3
 10
7.099999999999909
 20
10.62165727625745
 40
7.000000000000006
 50
0.0
 51
58.24313614070252
  0
ARC
  8
15
  6
CONTINUOUS
 62
     3
 10
12.09999999999991
 20
18.69940448695922
 40
2.5
 50
208.3576365763311
 51
238.2431361407041
  0
ENDBLK
  8
15
  0
BLOCK
  8
15
  2
SUB8
 70
    64
 10
0.0
 20
0.0
  0
LINE
  8
15
  6
CONTINUOUS
 62
     3
 10
44.29999999999996
 20
-14.30000000000001
 11
44.29999999999996
 21
14.30000000000001
  0
LINE
  8
15
  6
CONTINUOUS
 62
     3
 10
44.29999999999996
 20
13.10000000000002
 11
51.79999999999996
 21
13.10000000000002
  0
LINE
  8
15
  6
CONTINUOUS
 62
     3
 10
49.79999999999996
 20
56.41999999999999
 11
49.79999999999996
 21
63.39999999999998
  0
LINE
  8
15
  6
CONTINUOUS
 62
     3
 10
49.79999999999996
 20
63.39999999999998
 11
51.79999999999996
 21
63.39999999999998
  0
LINE
  8
15
  6
CONTINUOUS
 62
     3
 10
59.79999999999996
 20
-13.10000000000002
 11
59.79999999999996
 21
31.41999999999996
  0
LINE
  8
15
  6
CONTINUOUS
 62
     3
 10
59.79999999999996
 20
56.41999999999999
 11
59.79999999999996
 21
111.1367278561008
  0
LINE
  8
15
  6
CONTINUOUS
 62
     3
 10
44.29999999999996
 20
-13.10000000000002
 11
59.79999999999996
 21
-13.10000000000002
  0
LINE
  8
15
  6
CONTINUOUS
 62
     3
 10
51.79999999999996
 20
1.0
 11
51.79999999999996
 21
31.41999999999996
  0
LINE
  8
15
  6
CONTINUOUS
 62
     3
 10
51.79999999999996
 20
63.39999999999998
 11
51.79999999999996
 21
111.1367278561008
  0
LINE
  8
15
  6
CONTINUOUS
 62
     3
 10
32.5
 20
-27.60000000000002
 11
32.5
 21
31.41999999999996
  0
LINE
  8
15
  6
CONTINUOUS
 62
     3
 10
48.79999999999996
 20
29.69999999999999
 11
48.79999999999996
 21
31.41999999999996
  0
LINE
  8
15
  6
CONTINUOUS
 62
     3
 10
37.09999999999991
 20
-19.60000000000002
 11
37.09999999999991
 21
26.52646626999996
  0
LINE
  8
15
  6
CONTINUOUS
 62
     3
 10
46.5
 20
26.52646626999996
 11
46.5
 21
31.41999999999996
  0
LINE
  8
15
  6
CONTINUOUS
 62
     3
 10
46.5
 20
29.69999999999999
 11
48.79999999999996
 21
29.69999999999999
  0
LINE
  8
15
  6
CONTINUOUS
 62
     3
 10
32.5
 20
-27.60000000000002
 11
42.09999999999991
 21
-27.60000000000002
  0
LINE
  8
15
  6
CONTINUOUS
 62
     3
 10
37.09999999999991
 20
-11.60000000000002
 11
42.09999999999991
 21
-11.60000000000002
  0
LINE
  8
15
  6
CONTINUOUS
 62
     3
 10
42.09999999999991
 20
-27.60000000000002
 11
42.09999999999991
 21
-11.60000000000002
  0
LINE
  8
15
  6
CONTINUOUS
 62
     3
 10
37.09999999999991
 20
14.30000000000001
 11
44.29999999999996
 21
14.30000000000001
  0
LINE
  8
15
  6
CONTINUOUS
 62
     3
 10
42.09999999999991
 20
-14.30000000000001
 11
44.29999999999996
 21
-14.30000000000001
  0
LINE
  8
15
  6
CONTINUOUS
 62
     3
 10
37.09999999999991
 20
26.52646626999996
 11
46.5
 21
26.52646626999996
  0
LINE
  8
15
  6
CONTINUOUS
 62
     3
 10
42.40000000000009
 20
14.30000000000001
 11
42.40000000000009
 21
26.52646626999996
  0
LINE
  8
15
  6
CONTINUOUS
 62
     3
 10
42.40000000000009
 20
28.74459075927734
 11
42.40000000000009
 21
31.41999999999996
  0
ENDBLK
  8
15
  0
BLOCK
  8
15
  2
SUB9
 70
    64
 10
0.0
 20
0.0
  0
LINE
  8
15
  6
DASHED
 62
     3
 10
-50.39999999999998
 20
62.0
 11
-50.39999999999998
 21
-71.59999999999991
  0
LINE
  8
15
  6
DASHED
 62
     3
 10
-50.39999999999998
 20
62.0
 11
-41.60000000000002
 21
62.0
  0
LINE
  8
15
  6
DASHED
 62
     3
 10
-50.39999999999998
 20
-71.59999999999991
 11
-36.3310314230809
 21
-75.16455930312077
  0
ENDBLK
  8
15
  0
BLOCK
  8
15
  2
SUB10
 70
    64
 10
0.0
 20
0.0
  0
LINE
  8
15
  6
CONTINUOUS
 62
     3
 10
-144.5
 20
95.10000000000002
 11
144.5
 21
95.10000000000002
  0
LINE
  8
15
  6
CONTINUOUS
 62
     3
 10
-144.5
 20
79.10000000000002
 11
144.5
 21
79.10000000000002
  0
ARC
  8
15
  6
CONTINUOUS
 62
     3
 10
144.5
 20
87.10000000000002
 40
8.0
 50
270.0
 51
90.0
  0
ARC
  8
15
  6
CONTINUOUS
 62
     3
 10
-144.5
 20
87.10000000000002
 40
8.0
 50
90.0
 51
270.0
  0
LINE
  8
15
  6
CONTINUOUS
 62
     3
 10
-12.5
 20
48.55000000000007
 11
-12.5
 21
79.10000000000002
  0
LINE
  8
15
  6
CONTINUOUS
 62
     3
 10
12.5
 20
48.55000000000007
 11
12.5
 21
79.10000000000002
  0
LINE
  8
15
  6
CONTINUOUS
 62
     3
 10
127.5182680151389
 20
79.10000000000002
 11
82.93616821411445
 21
48.55000000000007
  0
LINE
  8
15
  6
CONTINUOUS
 62
     3
 10
138.1326780792509
 20
79.10000000000002
 11
93.55057827822645
 21
48.55000000000007
  0
LINE
  8
15
  6
CONTINUOUS
 62
     3
 10
-127.5182680151389
 20
79.10000000000002
 11
-82.93616821411456
 21
48.55000000000007
  0
LINE
  8
15
  6
CONTINUOUS
 62
     3
 10
-138.1326780792509
 20
79.10000000000002
 11
-93.55057827822645
 21
48.55000000000007
  0
LINE
  8
15
  6
CONTINUOUS
 62
     3
 10
139.5
 20
95.10000000000002
 11
139.5
 21
97.60000000000002
  0
LINE
  8
15
  6
CONTINUOUS
 62
     3
 10
149.5
 20
93.34499799839841
 11
149.5
 21
97.60000000000002
  0
LINE
  8
15
  6
CONTINUOUS
 62
     3
 10
133.25
 20
190.6
 11
155.75
 21
190.6
  0
ARC
  8
15
  6
CONTINUOUS
 62
     3
 10
144.5
 20
177.8549029034691
 40
17.0
 50
131.4345985597473
 51
180.0
  0
LINE
  8
15
  6
CONTINUOUS
 62
     3
 10
127.5
 20
177.8549029034691
 11
132.4245124561801
 21
121.3360309281586
  0
LINE
  8
15
  6
CONTINUOUS
 62
     3
 10
136.5
 20
97.60000000000002
 11
152.5
 21
97.60000000000002
  0
LINE
  8
15
  6
CONTINUOUS
 62
     3
 10
154.5
 20
99.60000000000002
 11
152.5
 21
97.60000000000002
  0
LINE
  8
15
  6
CONTINUOUS
 62
     3
 10
156.25
 20
99.60000000000002
 11
156.5
 21
119.6
  0
LINE
  8
15
  6
CONTINUOUS
 62
     3
 10
161.5
 20
177.8549029034691
 11
156.5754875438199
 21
121.3360309281586
  0
ARC
  8
15
  6
CONTINUOUS
 62
     3
 10
144.5
 20
177.8549029034691
 40
17.0
 50
0.0
 51
48.56540144025276
  0
ARC
  8
15
  6
CONTINUOUS
 62
     3
 10
176.5
 20
119.6
 40
20.0
 50
175.0203711585942
 51
180.0
  0
LINE
  8
15
  6
CONTINUOUS
 62
     3
 10
132.75
 20
99.60000000000002
 11
156.25
 21
99.60000000000002
  0
LINE
  8
15
  6
CONTINUOUS
 62
     3
 10
134.5
 20
99.60000000000002
 11
136.5
 21
97.60000000000002
  0
LINE
  8
15
  6
CONTINUOUS
 62
     3
 10
132.75
 20
99.60000000000002
 11
134.5
 21
99.60000000000002
  0
LINE
  8
15
  6
CONTINUOUS
 62
     3
 10
132.75
 20
99.60000000000002
 11
132.5
 21
119.6
  0
ARC
  8
15
  6
CONTINUOUS
 62
     3
 10
112.5
 20
119.6
 40
20.0
 50
0.0
 51
4.979628841405829
  0
ENDBLK
  8
15
  0
BLOCK
  8
15
  2
SUB11
 70
    64
 10
0.0
 20
0.0
  0
LINE
  8
15
  6
DASHED
 62
     3
 10
-192.7000000000001
 20
-98.97897064388508
 11
-192.7000000000001
 21
34.37897064388517
  0
ARC
  8
15
  6
DASHED
 62
     3
 10
-144.7000000000001
 20
-117.3
 40
48.00000000000001
 50
180.8684360310658
 51
270.0
  0
ARC
  8
15
  6
DASHED
 62
     3
 10
-144.7000000000001
 20
52.70000000000005
 40
48.0
 50
90.0
 51
179.1315639689342
  0
ARC
  8
15
  6
DASHED
 62
     3
 10
-181.5
 20
43.90000000000009
 40
14.70000000000001
 50
139.5992380777991
 51
220.3675935441861
  0
ARC
  8
15
  6
DASHED
 62
     3
 10
-181.5
 20
-108.5
 40
14.7
 50
139.6324064558142
 51
220.4007619222009
  0
ENDBLK
  8
15
  0
BLOCK
  8
15
  2
SUB12
 70
    64
 10
0.0
 20
0.0
  0
LINE
  8
15
  6
CENTER
 62
     3
 10
-101.0323867797852
 20
-79.00000000000011
 11
-25.59014129638673
 21
-79.00000000000011
  0
LINE
  8
15
  6
CONTINUOUS
 62
     3
 10
88.09999999999991
 20
-206.1
 11
88.09999999999991
 21
-202.1
  0
LINE
  8
15
  6
CONTINUOUS
 62
     3
 10
88.09999999999991
 20
-98.10000000000002
 11
88.09999999999991
 21
-37.39999999999998
  0
LINE
  8
15
  6
CONTINUOUS
 62
     3
 10
-326.4000000000001
 20
-194.2000000000002
 11
-326.4000000000001
 21
-155.1
  0
LINE
  8
15
  6
CONTINUOUS
 62
     3
 10
-326.4000000000001
 20
-142.4
 11
-326.4000000000001
 21
-101.1
  0
LINE
  8
15
  6
CONTINUOUS
 62
     3
 10
-326.4000000000001
 20
-88.40000000000009
 11
-326.4000000000001
 21
-49.29999999999996
  0
LINE
  8
15
  6
CONTINUOUS
 62
     3
 10
-277.1000000000001
 20
11.89999999999998
 11
38.79999999999972
 21
11.89999999999998
  0
LINE
  8
15
  6
CONTINUOUS
 62
     3
 10
-277.1000000000001
 20
-255.4000000000002
 11
38.79999999999972
 21
-255.4000000000002
  0
ARC
  8
15
  6
CONTINUOUS
 62
     3
 10
38.79999999999972
 20
-37.39999999999998
 40
49.3
 50
0.0
 51
90.0
  0
ARC
  8
15
  6
CONTINUOUS
 62
     3
 10
38.79999999999972
 20
-206.1
 40
49.3
 50
270.0
 51
0.0
  0
ARC
  8
15
  6
CONTINUOUS
 62
     3
 10
-277.1000000000001
 20
-37.39999999999998
 40
49.30000000000005
 50
90.0
 51
179.0702102337507
  0
ARC
  8
15
  6
CONTINUOUS
 62
     3
 10
38.79999999999972
 20
-37.39999999999998
 40
19.09999999999991
 50
0.0
 51
90.0
  0
ARC
  8
15
  6
CONTINUOUS
 62
     3
 10
38.79999999999972
 20
-206.1
 40
19.10000000000001
 50
270.0
 51
0.0
  0
ARC
  8
15
  6
CONTINUOUS
 62
     3
 10
-277.1000000000001
 20
-206.1
 40
19.09999999999999
 50
180.0
 51
270.0
  0
ARC
  8
15
  6
CONTINUOUS
 62
     3
 10
-277.1000000000001
 20
-37.39999999999998
 40
19.09999999999995
 50
90.0
 51
180.0
  0
LINE
  8
15
  6
CONTINUOUS
 62
     3
 10
-277.1000000000001
 20
-18.30000000000007
 11
38.79999999999972
 21
-18.30000000000007
  0
LINE
  8
15
  6
CONTINUOUS
 62
     3
 10
-277.1000000000001
 20
-225.2000000000002
 11
38.79999999999972
 21
-225.2000000000002
  0
LINE
  8
15
  6
CONTINUOUS
 62
     3
 10
57.89999999999963
 20
-206.1
 11
57.89999999999963
 21
-37.39999999999998
  0
LINE
  8
15
  6
CONTINUOUS
 62
     3
 10
-296.2000000000003
 20
-206.1
 11
-296.2000000000003
 21
-37.39999999999998
  0
LINE
  8
15
  6
CONTINUOUS
 62
     3
 10
-353.4000000000001
 20
-36.60000000000002
 11
-320.0000000000002
 21
-36.60000000000002
  0
LINE
  8
15
  6
CONTINUOUS
 62
     3
 10
-353.4000000000001
 20
-62.50000000000011
 11
-326.4000000000001
 21
-62.50000000000011
  0
LINE
  8
15
  6
CONTINUOUS
 62
     3
 10
-353.4000000000001
 20
-49.29999999999996
 11
-320.0000000000002
 21
-49.29999999999996
  0
LINE
  8
15
  6
CONTINUOUS
 62
     3
 10
-353.4000000000001
 20
-75.20000000000005
 11
-326.4000000000001
 21
-75.20000000000005
  0
LINE
  8
15
  6
CONTINUOUS
 62
     3
 10
-353.4000000000001
 20
-88.40000000000009
 11
-320.0000000000002
 21
-88.40000000000009
  0
LINE
  8
15
  6
CONTINUOUS
 62
     3
 10
-353.4000000000001
 20
-101.1
 11
-320.0000000000002
 21
-101.1
  0
LINE
  8
15
  6
CENTER
 62
     3
 10
-340.7000000000003
 20
-224.0955047607423
 11
-340.7000000000003
 21
-22.57976913452148
  0
LINE
  8
15
  6
CONTINUOUS
 62
     3
 10
-353.4000000000001
 20
-194.2000000000002
 11
-320.0000000000002
 21
-194.2000000000002
  0
LINE
  8
15
  6
CONTINUOUS
 62
     3
 10
-353.4000000000001
 20
-206.9
 11
-320.0000000000002
 21
-206.9
  0
LINE
  8
15
  6
CONTINUOUS
 62
     3
 10
-353.4000000000001
 20
-142.4
 11
-320.0000000000002
 21
-142.4
  0
LINE
  8
15
  6
CONTINUOUS
 62
     3
 10
-353.4000000000001
 20
-155.1
 11
-320.0000000000002
 21
-155.1
  0
LINE
  8
15
  6
CONTINUOUS
 62
     3
 10
-353.4000000000001
 20
-168.3000000000001
 11
-326.4000000000001
 21
-168.3000000000001
  0
LINE
  8
15
  6
CONTINUOUS
 62
     3
 10
-353.4000000000001
 20
-181.0000000000001
 11
-326.4000000000001
 21
-181.0000000000001
  0
LINE
  8
15
  6
CONTINUOUS
 62
     3
 10
57.89999999999963
 20
-95.99800000000005
 11
81.09999999999968
 21
-95.99800000000005
  0
LINE
  8
15
  6
CONTINUOUS
 62
     3
 10
57.89999999999963
 20
-204.2020000000001
 11
81.09999999999968
 21
-204.2020000000001
  0
LINE
  8
15
  6
CONTINUOUS
 62
     3
 10
81.09999999999968
 20
-204.2020000000001
 11
81.09999999999968
 21
-95.99800000000005
  0
LINE
  8
15
  6
CENTER
 62
     3
 10
69.47869873046875
 20
-150.1
 11
122.970329284668
 21
-150.1
  0
LINE
  8
15
  6
CONTINUOUS
 62
     3
 10
106.6980330756942
 20
-98.10000000000002
 11
81.09999999999968
 21
-98.10000000000002
  0
LINE
  8
15
  6
CONTINUOUS
 62
     3
 10
106.6980330756942
 20
-124.8000000000001
 11
117.6980330756942
 21
-124.8000000000001
  0
LINE
  8
15
  6
CONTINUOUS
 62
     3
 10
117.6980330756942
 20
-135.8000000000001
 11
117.6980330756942
 21
-124.8000000000001
  0
LINE
  8
15
  6
CONTINUOUS
 62
     3
 10
106.6980330756942
 20
-135.8000000000001
 11
117.6980330756942
 21
-135.8000000000001
  0
LINE
  8
15
  6
CONTINUOUS
 62
     3
 10
106.6980330756942
 20
-144.6
 11
117.6980330756942
 21
-144.6
  0
LINE
  8
15
  6
CONTINUOUS
 62
     3
 10
117.6980330756942
 20
-155.6
 11
117.6980330756942
 21
-144.6
  0
LINE
  8
15
  6
CONTINUOUS
 62
     3
 10
106.6980330756942
 20
-155.6
 11
117.6980330756942
 21
-155.6
  0
LINE
  8
15
  6
CONTINUOUS
 62
     3
 10
106.6980330756942
 20
-164.4
 11
117.6980330756942
 21
-164.4
  0
LINE
  8
15
  6
CONTINUOUS
 62
     3
 10
117.6980330756942
 20
-175.4
 11
117.6980330756942
 21
-164.4
  0
LINE
  8
15
  6
CONTINUOUS
 62
     3
 10
106.6980330756942
 20
-175.4
 11
117.6980330756942
 21
-175.4
  0
LINE
  8
15
  6
CONTINUOUS
 62
     3
 10
81.09999999999968
 20
-202.1
 11
106.6980330756942
 21
-202.1
  0
LINE
  8
15
  6
CONTINUOUS
 62
     3
 10
-320.0000000000002
 20
-154.3000000000001
 11
-320.0000000000002
 21
-142.4
  0
LINE
  8
15
  6
CONTINUOUS
 62
     3
 10
-320.0000000000002
 20
-101.1
 11
-320.0000000000002
 21
-88.40000000000009
  0
LINE
  8
15
  6
CONTINUOUS
 62
     3
 10
-320.0000000000002
 20
-49.29999999999996
 11
-320.0000000000002
 21
-36.60000000000002
  0
LINE
  8
15
  6
CONTINUOUS
 62
     3
 10
-320.0000000000002
 20
-206.9
 11
-320.0000000000002
 21
-194.2000000000002
  0
ARC
  8
15
  6
CONTINUOUS
 62
     3
 10
-277.1000000000001
 20
-206.1
 40
49.30000000000011
 50
180.9297897662493
 51
270.0
  0
LINE
  8
15
  6
CONTINUOUS
 62
     3
 10
-353.4000000000001
 20
-129.7000000000002
 11
-353.4000000000001
 21
-206.9
  0
LINE
  8
15
  6
CONTINUOUS
 62
     3
 10
-353.4000000000001
 20
-113.8000000000001
 11
-326.4000000000001
 21
-113.8000000000001
  0
LINE
  8
15
  6
CONTINUOUS
 62
     3
 10
-353.4000000000001
 20
-129.7000000000002
 11
-326.4000000000001
 21
-129.7000000000002
  0
LINE
  8
15
  6
CONTINUOUS
 62
     3
 10
-353.4000000000001
 20
-113.8000000000001
 11
-353.4000000000001
 21
-36.60000000000002
  0
CIRCLE
  8
15
  6
CONTINUOUS
 62
     3
 10
-62.30000000000019
 20
-79.00000000000011
 40
28.575
  0
LINE
  8
15
  6
CONTINUOUS
 62
     3
 10
106.6980330756942
 20
-202.1
 11
106.6980330756942
 21
-98.10000000000002
  0
ENDBLK
  8
15
  0
BLOCK
  8
15
  2
SUB13
 70
    64
 10
0.0
 20
0.0
  0
LINE
  8
15
  6
CONTINUOUS
 62
     3
 10
-62.5
 20
-64.5
 11
-62.5
 21
-61.80000000000018
  0
LINE
  8
15
  6
CENTER
 62
     3
 10
-75.01154327392578
 20
40.10000000000014
 11
-82.60000000000002
 21
40.10000000000014
  0
LINE
  8
15
  6
CENTER
 62
     3
 10
0.0
 20
-155.4205474853516
 11
0.0
 21
-61.80000000000018
  0
LINE
  8
15
  6
CENTER
 62
     3
 10
0.0
 20
-61.80000000000018
 11
0.0
 21
205.5
  0
LINE
  8
15
  6
CENTER
 62
     3
 10
0.0
 20
205.5
 11
0.0
 21
384.7867767140831
  0
ENDBLK
  8
15
  0
BLOCK
  8
15
  2
SUB14
 70
    64
 10
0.0
 20
0.0
  0
LINE
  8
15
  6
CONTINUOUS
 62
     3
 10
38.5
 20
0.0
 11
38.5
 21
18.10000000000002
  0
LINE
  8
15
  6
CONTINUOUS
 62
     3
 10
-38.5
 20
0.0
 11
-38.5
 21
18.10000000000002
  0
LINE
  8
15
  6
CONTINUOUS
 62
     3
 10
-144.5
 20
95.10000000000002
 11
144.5
 21
95.10000000000002
  0
LINE
  8
15
  6
CONTINUOUS
 62
     3
 10
7.5
 20
3.100000000000023
 11
7.5
 21
8.100000000000023
  0
LINE
  8
15
  6
CONTINUOUS
 62
     3
 10
-7.5
 20
3.100000000000023
 11
-7.5
 21
8.100000000000023
  0
LINE
  8
15
  6
CONTINUOUS
 62
     3
 10
-7.5
 20
8.100000000000023
 11
7.5
 21
8.100000000000023
  0
LINE
  8
15
  6
CONTINUOUS
 62
     3
 10
-144.5
 20
79.10000000000002
 11
144.5
 21
79.10000000000002
  0
LINE
  8
15
  6
CONTINUOUS
 62
     3
 10
138.1326780792508
 20
79.10000000000002
 11
38.5
 21
10.82644785898651
  0
LINE
  8
15
  6
CONTINUOUS
 62
     3
 10
127.518268015139
 20
79.10000000000002
 11
38.5
 21
18.10000000000002
  0
LINE
  8
15
  6
CONTINUOUS
 62
     3
 10
-138.1326780792508
 20
79.10000000000002
 11
-38.5
 21
10.82644785898651
  0
LINE
  8
15
  6
CONTINUOUS
 62
     3
 10
-127.5182680151388
 20
79.10000000000002
 11
-38.5
 21
18.10000000000002
  0
ARC
  8
15
  6
CONTINUOUS
 62
     3
 10
144.5
 20
87.10000000000002
 40
8.0
 50
270.0
 51
90.0
  0
LINE
  8
15
  6
CONTINUOUS
 62
     3
 10
-11.25
 20
190.6
 11
11.25
 21
190.6
  0
ARC
  8
15
  6
CONTINUOUS
 62
     3
 10
0.0
 20
177.8549029034691
 40
17.0
 50
131.4345985597473
 51
180.0
  0
LINE
  8
15
  6
CONTINUOUS
 62
     3
 10
-17.0
 20
177.8549029034691
 11
-12.07548754381992
 21
121.3360309281586
  0
LINE
  8
15
  6
CONTINUOUS
 62
     3
 10
-8.0
 20
97.60000000000002
 11
8.0
 21
97.60000000000002
  0
LINE
  8
15
  6
CONTINUOUS
 62
     3
 10
10.0
 20
99.60000000000002
 11
8.0
 21
97.60000000000002
  0
LINE
  8
15
  6
CONTINUOUS
 62
     3
 10
11.75
 20
99.60000000000002
 11
12.0
 21
119.6
  0
LINE
  8
15
  6
CONTINUOUS
 62
     3
 10
17.0
 20
177.8549029034691
 11
12.07548754381992
 21
121.3360309281586
  0
ARC
  8
15
  6
CONTINUOUS
 62
     3
 10
0.0
 20
177.8549029034691
 40
17.0
 50
0.0
 51
48.56540144025276
  0
ARC
  8
15
  6
CONTINUOUS
 62
     3
 10
32.0
 20
119.6
 40
20.0
 50
175.0203711585942
 51
180.0
  0
LINE
  8
15
  6
CONTINUOUS
 62
     3
 10
-11.75
 20
99.60000000000002
 11
11.75
 21
99.60000000000002
  0
LINE
  8
15
  6
CONTINUOUS
 62
     3
 10
-10.0
 20
99.60000000000002
 11
-8.0
 21
97.60000000000002
  0
LINE
  8
15
  6
CONTINUOUS
 62
     3
 10
-11.75
 20
99.60000000000002
 11
-10.0
 21
99.60000000000002
  0
LINE
  8
15
  6
CONTINUOUS
 62
     3
 10
-11.75
 20
99.60000000000002
 11
-12.0
 21
119.6
  0
ARC
  8
15
  6
CONTINUOUS
 62
     3
 10
-32.0
 20
119.6
 40
20.0
 50
0.0
 51
4.979628841405829
  0
LINE
  8
15
  6
CONTINUOUS
 62
     3
 10
-12.5
 20
10.82644785898651
 11
12.5
 21
10.82644785898651
  0
LINE
  8
15
  6
CONTINUOUS
 62
     3
 10
12.5
 20
10.82644785898651
 11
12.5
 21
79.10000000000002
  0
LINE
  8
15
  6
CONTINUOUS
 62
     3
 10
-12.5
 20
10.82644785898651
 11
-12.5
 21
79.10000000000002
  0
LINE
  8
15
  6
CONTINUOUS
 62
     3
 10
-38.5
 20
18.10000000000002
 11
-12.5
 21
18.10000000000002
  0
LINE
  8
15
  6
CONTINUOUS
 62
     3
 10
12.5
 20
18.10000000000002
 11
38.5
 21
18.10000000000002
  0
LINE
  8
15
  6
CONTINUOUS
 62
     3
 10
5.0
 20
95.10000000000002
 11
5.0
 21
97.60000000000002
  0
LINE
  8
15
  6
CONTINUOUS
 62
     3
 10
-5.0
 20
95.10000000000002
 11
-5.0
 21
97.60000000000002
  0
ARC
  8
15
  6
CONTINUOUS
 62
     3
 10
-144.5
 20
87.10000000000002
 40
8.0
 50
90.0
 51
270.0
  0
LINE
  8
15
  6
CONTINUOUS
 62
     3
 10
-38.5
 20
3.100000000000023
 11
38.5
 21
3.100000000000023
  0
LINE
  8
15
  6
CONTINUOUS
 62
     3
 10
-38.5
 20
0.0
 11
38.5
 21
0.0
  0
ENDBLK
  8
15
  0
BLOCK
  8
15
  2
SUB15
 70
    64
 10
0.0
 20
0.0
  0
LINE
  8
15
  6
CONTINUOUS
 62
     3
 10
-26.19999999999982
 20
-255.4
 11
-26.19999999999982
 21
11.89999999999998
  0
LINE
  8
15
  6
CONTINUOUS
 62
     3
 10
-244.3999999999999
 20
-206.1
 11
-244.3999999999999
 21
-37.40000000000009
  0
LINE
  8
15
  6
CONTINUOUS
 62
     3
 10
-34.09999999999991
 20
-255.4
 11
-34.09999999999991
 21
11.89999999999998
  0
LINE
  8
15
  6
CONTINUOUS
 62
     3
 10
-34.09999999999991
 20
11.89999999999998
 11
-0.7999999999999545
 21
11.89999999999998
  0
LINE
  8
15
  6
CONTINUOUS
 62
     3
 10
-34.09999999999991
 20
-255.4
 11
-0.7999999999999545
 21
-255.4
  0
LINE
  8
15
  6
CONTINUOUS
 62
     3
 10
-225.3
 20
-18.30000000000007
 11
-34.09999999999991
 21
-18.30000000000007
  0
LINE
  8
15
  6
CONTINUOUS
 62
     3
 10
-225.3
 20
-225.2000000000002
 11
-34.09999999999991
 21
-225.2000000000002
  0
LINE
  8
15
  6
CENTER
 62
     3
 10
-156.2000000000001
 20
-211.9217376708986
 11
-156.2000000000001
 21
-87.9416494369508
  0
LINE
  8
15
  6
CENTER
 62
     3
 10
-93.34933395385735
 20
-150.1
 11
-218.0865547180176
 21
-150.1
  0
LINE
  8
15
  6
CONTINUOUS
 62
     3
 10
-195.9159968020513
 20
-100.7638983094586
 11
-163.2682390841181
 21
-96.46170770569086
  0
ARC
  8
15
  6
CONTINUOUS
 62
     3
 10
-194.4558910757546
 20
-111.8441089242455
 40
11.176
 50
97.50695495123377
 51
172.4930450487663
  0
LINE
  8
15
  6
CONTINUOUS
 62
     3
 10
-209.8382922943091
 20
-143.0317609158818
 11
-205.5361016905415
 21
-110.3840031979488
  0
ARC
  8
15
  6
CONTINUOUS
 62
     3
 10
-156.2000000000001
 20
-150.1
 40
54.102
 50
172.4930450487659
 51
187.5069549512341
  0
ARC
  8
15
  6
CONTINUOUS
 62
     3
 10
-156.2000000000001
 20
-150.1
 40
54.102
 50
262.493045048766
 51
277.5069549512341
  0
ARC
  8
15
  6
CONTINUOUS
 62
     3
 10
-156.2000000000001
 20
-150.1
 40
54.102
 50
352.4930450487659
 51
7.506954951234069
  0
ARC
  8
15
  6
CONTINUOUS
 62
     3
 10
-156.2000000000001
 20
-150.1
 40
54.102
 50
82.49304504876594
 51
97.50695495123395
  0
LINE
  8
15
  6
CONTINUOUS
 62
     3
 10
-205.5361016905415
 20
-189.8159968020515
 11
-209.8382922943091
 21
-157.1682390841182
  0
ARC
  8
15
  6
CONTINUOUS
 62
     3
 10
-194.4558910757546
 20
-188.3558910757548
 40
11.176
 50
187.5069549512338
 51
262.4930450487661
  0
LINE
  8
15
  6
CONTINUOUS
 62
     3
 10
-163.2682390841181
 20
-203.7382922943092
 11
-195.9159968020513
 21
-199.4361016905415
  0
LINE
  8
15
  6
CONTINUOUS
 62
     3
 10
-116.4840031979486
 20
-199.4361016905415
 11
-149.1317609158818
 21
-203.7382922943092
  0
ARC
  8
15
  6
CONTINUOUS
 62
     3
 10
-117.9441089242453
 20
-188.3558910757548
 40
11.176
 50
277.5069549512339
 51
352.4930450487663
  0
LINE
  8
15
  6
CONTINUOUS
 62
     3
 10
-106.8638983094584
 20
-189.8159968020515
 11
-102.5617077056909
 21
-157.1682390841182
  0
LINE
  8
15
  6
CONTINUOUS
 62
     3
 10
-106.8638983094584
 20
-110.3840031979488
 11
-102.5617077056909
 21
-143.0317609158818
  0
ARC
  8
15
  6
CONTINUOUS
 62
     3
 10
-117.9441089242453
 20
-111.8441089242455
 40
11.176
 50
7.506954951233761
 51
82.49304504876625
  0
LINE
  8
15
  6
CONTINUOUS
 62
     3
 10
-149.1317609158818
 20
-96.46170770569086
 11
-116.4840031979486
 21
-100.7638983094586
  0
CIRCLE
  8
15
  6
CONTINUOUS
 62
     3
 10
-156.2000000000001
 20
-150.1
 40
47.0
  0
CIRCLE
  8
15
  6
CONTINUOUS
 62
     3
 10
-159.2000000000001
 20
-119.1
 40
9.524900000000002
  0
CIRCLE
  8
15
  6
CONTINUOUS
 62
     3
 10
-139.6999999999998
 20
-130.3000000000001
 40
5.5
  0
CIRCLE
  8
15
  6
CONTINUOUS
 62
     3
 10
-139.6999999999998
 20
-150.1
 40
5.5
  0
CIRCLE
  8
15
  6
CONTINUOUS
 62
     3
 10
-139.6999999999998
 20
-169.9
 40
5.5
  0
CIRCLE
  8
15
  6
CONTINUOUS
 62
     3
 10
-159.2000000000001
 20
-181.1
 40
9.524900000000002
  0
CIRCLE
  8
15
  6
CONTINUOUS
 62
     3
 10
-171.2000000000001
 20
-150.1
 40
9.524900000000002
  0
ARC
  8
15
  6
CONTINUOUS
 62
     3
 10
-225.3
 20
-37.40000000000009
 40
19.09999999999999
 50
90.0
 51
180.0
  0
ARC
  8
15
  6
CONTINUOUS
 62
     3
 10
-225.3
 20
-206.1
 40
19.09999999999999
 50
180.0
 51
270.0
  0
LINE
  8
15
  6
CONTINUOUS
 62
     3
 10
-0.7999999999999545
 20
-255.4
 11
-0.7999999999999545
 21
11.89999999999998
  0
ENDBLK
  8
15
  0
BLOCK
  8
15
  2
SUB16
 70
    64
 10
0.0
 20
0.0
  0
ARC
  8
15
  6
CONTINUOUS
 62
     3
 10
20.20000000000005
 20
20.20000000000005
 40
7.999999999999999
 50
315.0
 51
136.1033297869867
  0
ARC
  8
15
  6
CONTINUOUS
 62
     3
 10
20.20000000000005
 20
-20.20000000000005
 40
8.000000000000007
 50
225.0
 51
45.0
  0
ARC
  8
15
  6
CONTINUOUS
 62
     3
 10
-20.19999999999982
 20
-20.20000000000005
 40
7.999999999999998
 50
134.9985085401241
 51
314.9999999999989
  0
ARC
  8
15
  6
CONTINUOUS
 62
     3
 10
-20.19999999999982
 20
20.20000000000005
 40
8.000000000000002
 50
45.00000000000115
 51
225.0
  0
LINE
  8
15
  6
CONTINUOUS
 62
     3
 10
-28.19999999999982
 20
20.20000000000005
 11
-28.19999999999982
 21
-20.20000000000005
  0
LINE
  8
15
  6
CONTINUOUS
 62
     3
 10
-20.20000000000005
 20
-28.20000000000005
 11
20.20000000000005
 21
-28.20000000000005
  0
LINE
  8
15
  6
CONTINUOUS
 62
     3
 10
28.20000000000005
 20
-20.20000000000005
 11
28.20000000000005
 21
20.20000000000005
  0
LINE
  8
15
  6
CONTINUOUS
 62
     3
 10
20.20000000000005
 20
28.20000000000005
 11
10.19019945774903
 21
28.20000000000005
  0
ARC
  8
15
  6
CONTINUOUS
 62
     3
 10
-4.599999999999909
 20
49.70000000000005
 40
25.0
 50
239.3165828910242
 51
296.6274783929742
  0
ARC
  8
15
  6
CONTINUOUS
 62
     3
 10
10.19019945774903
 20
20.20000000000005
 40
8.0
 50
90.0
 51
116.6274783929753
  0
LINE
  8
15
  6
CONTINUOUS
 62
     3
 10
-20.19999999999982
 20
28.20000000000005
 11
-17.35735082217298
 21
28.20000000000005
  0
CIRCLE
  8
15
  6
CONTINUOUS
 62
     3
 10
0.0
 20
0.0
 40
15.70745497229495
  0
ARC
  8
15
  6
CONTINUOUS
 62
     3
 10
-19.18555446066171
 20
-4.336751392037286
 40
2.500000000000003
 50
314.9985085401269
 51
12.73722544893064
  0
ARC
  8
15
  6
CONTINUOUS
 62
     3
 10
-19.18563545717643
 20
4.336393052259155
 40
2.499999999999997
 50
347.2638446954617
 51
45.0
  0
ARC
  8
15
  6
CONTINUOUS
 62
     3
 10
-4.336393052258927
 20
19.18563545717666
 40
2.5
 50
225.0
 51
282.7361553045321
  0
ARC
  8
15
  6
CONTINUOUS
 62
     3
 10
4.337750220102635
 20
19.18532865570342
 40
2.500000000000002
 50
257.2597916313146
 51
314.9985085401232
  0
ARC
  8
15
  6
CONTINUOUS
 62
     3
 10
19.18563545717666
 20
4.336393052259155
 40
2.499999999999999
 50
135.0000000000037
 51
192.7361553045372
  0
ARC
  8
15
  6
CONTINUOUS
 62
     3
 10
19.18563545717666
 20
-4.336393052259155
 40
2.5
 50
167.2638446954628
 51
224.9999999999963
  0
ARC
  8
15
  6
CONTINUOUS
 62
     3
 10
4.336393052259155
 20
-19.18563545717666
 40
2.500000000000003
 50
45.0
 51
102.7361553045321
  0
ARC
  8
15
  6
CONTINUOUS
 62
     3
 10
-4.336393052258927
 20
-19.18563545717666
 40
2.5
 50
77.26384469546792
 51
135.0
  0
LINE
  8
15
  6
CONTINUOUS
 62
     3
 10
-14.54314575050762
 20
25.85685424949247
 11
-6.104160005225367
 21
17.41786850421022
  0
LINE
  8
15
  6
CONTINUOUS
 62
     3
 10
17.41786850421022
 20
-6.104160005225367
 11
25.85685424949247
 21
-14.54314575050762
  0
LINE
  8
15
  6
CONTINUOUS
 62
     3
 10
-25.85685424949224
 20
14.54314575050762
 11
-17.41786850421022
 21
6.104160005225367
  0
LINE
  8
15
  6
CONTINUOUS
 62
     3
 10
6.104160005225594
 20
-17.41786850421022
 11
14.54314575050762
 21
-25.85685424949247
  0
LINE
  8
15
  6
CONTINUOUS
 62
     3
 10
25.85685424949247
 20
14.54314575050762
 11
17.41786850421022
 21
6.104160005225367
  0
LINE
  8
15
  6
CONTINUOUS
 62
     3
 10
-6.104160005225367
 20
-17.41786850421022
 11
-14.54314575050762
 21
-25.85685424949247
  0
LINE
  8
15
  6
CONTINUOUS
 62
     3
 10
14.43526873577412
 20
25.74687961391419
 11
6.1054711559309
 21
17.41751568679683
  0
LINE
  8
15
  6
CONTINUOUS
 62
     3
 10
-17.41783352483321
 20
-6.104564360943869
 11
-25.85670699465049
 21
-14.54299849949894
  0
ARC
  8
15
  6
CONTINUOUS
 62
     3
 10
0.0
 20
0.0
 40
18.79419208650755
 50
74.54023493618431
 51
105.4559737299923
  0
ARC
  8
15
  6
CONTINUOUS
 62
     3
 10
0.0
 20
0.0
 40
18.79419208650756
 50
164.5440262700075
 51
195.4567821440625
  0
ARC
  8
15
  6
CONTINUOUS
 62
     3
 10
0.0
 20
0.0
 40
18.79419208650755
 50
254.5440262700077
 51
285.455973729993
  0
ARC
  8
15
  6
CONTINUOUS
 62
     3
 10
0.0
 20
0.0
 40
18.79419208650755
 50
344.544026270007
 51
15.45597372999234
  0
ARC
  8
15
  6
CONTINUOUS
 62
     3
 10
0.0
 20
0.0
 40
17.16959360534303
 50
20.93972423147754
 51
69.05606670028456
  0
ARC
  8
15
  6
CONTINUOUS
 62
     3
 10
0.0
 20
0.0
 40
17.16959360534304
 50
110.9397242314775
 51
159.0602757685222
  0
ARC
  8
15
  6
CONTINUOUS
 62
     3
 10
0.0
 20
0.0
 40
17.16959360534303
 50
200.9409503799627
 51
249.0602757685224
  0
ARC
  8
15
  6
CONTINUOUS
 62
     3
 10
0.0
 20
0.0
 40
17.16959360534303
 50
290.9397242314776
 51
339.0602757685224
  0
ARC
  8
15
  6
CONTINUOUS
 62
     3
 10
5.674856203474064
 20
-20.52409860839134
 40
2.500000000000001
 50
45.0
 51
105.4559737299942
  0
ARC
  8
15
  6
CONTINUOUS
 62
     3
 10
20.52409860839157
 20
-5.674856203473837
 40
2.5
 50
164.5440262700122
 51
225.0
  0
ARC
  8
15
  6
CONTINUOUS
 62
     3
 10
20.52409860839157
 20
5.674856203473837
 40
2.499999999999998
 50
135.0
 51
195.4559737299928
  0
ARC
  8
15
  6
CONTINUOUS
 62
     3
 10
5.676214296478293
 20
20.52372305108247
 40
2.500000000000002
 50
254.540234936184
 51
314.9985085401232
  0
ARC
  8
15
  6
CONTINUOUS
 62
     3
 10
-5.674856203473837
 20
20.52409860839134
 40
2.500000000000001
 50
224.9999999999963
 51
285.4559737299942
  0
ARC
  8
15
  6
CONTINUOUS
 62
     3
 10
-20.52409860839134
 20
5.674856203473837
 40
2.5
 50
344.5440262700072
 51
45.0
  0
ARC
  8
15
  6
CONTINUOUS
 62
     3
 10
-20.52401853703714
 20
-5.675145787416341
 40
2.499999999999998
 50
314.9985085401195
 51
15.4567821440617
  0
ARC
  8
15
  6
CONTINUOUS
 62
     3
 10
-5.674856203473837
 20
-20.52409860839134
 40
2.500000000000001
 50
74.54402627000582
 51
135.0000000000037
  0
ENDBLK
  8
15
  0
BLOCK
  8
15
  2
SUB17
 70
    64
 10
0.0
 20
0.0
  0
LINE
  8
15
  6
CONTINUOUS
 62
     3
 10
-9.263098833543609
 20
9.263098833543836
 11
23.19310242291886
 21
41.71930009000653
  0
LINE
  8
15
  6
CONTINUOUS
 62
     3
 10
33.79970414071704
 20
52.32590180780471
 11
89.82658487806384
 21
108.3527825451513
  0
LINE
  8
15
  6
CONTINUOUS
 62
     3
 10
102.3142702657005
 20
105.5751234031445
 11
109.6722617620335
 21
98.21713190681146
  0
ARC
  8
15
  6
CONTINUOUS
 62
     3
 10
106.1367278561008
 20
94.68159800087869
 40
5.0
 50
315.0
 51
45.00000000000092
  0
LINE
  8
15
  6
CONTINUOUS
 62
     3
 10
17.81909088590101
 20
4.949747468305759
 11
103.3083007313546
 21
90.43895731375949
  0
LINE
  8
15
  6
CONTINUOUS
 62
     3
 10
100.5505842847272
 20
102.3890619158121
 11
106.1367278561008
 21
96.80291834443847
  0
LINE
  8
15
  6
CONTINUOUS
 62
     3
 10
97.01505037879451
 20
98.85352800987948
 11
103.3083007313549
 21
92.56027765731915
  0
ARC
  8
15
  6
CONTINUOUS
 62
     3
 10
102.2476405595749
 20
91.49961748553926
 40
1.5
 50
315.0
 51
44.99999999999693
  0
ARC
  8
15
  6
CONTINUOUS
 62
     3
 10
101.5405337783882
 20
92.20672426672581
 40
6.5
 50
315.0000000000007
 51
45.0
  0
LINE
  8
15
  6
CONTINUOUS
 62
     3
 10
95.50374632065177
 20
98.75643751410996
 11
95.60083681642118
 21
98.85352800987948
  0
LINE
  8
15
  6
CONTINUOUS
 62
     3
 10
100.5505842847272
 20
103.8032754781852
 11
100.6476747804966
 21
103.9003659739547
  0
LINE
  8
15
  6
CONTINUOUS
 62
     3
 10
101.6418386615746
 20
105.9633519707983
 11
91.27547361749726
 21
108.741011112805
  0
LINE
  8
15
  6
CONTINUOUS
 62
     3
 10
92.99419740943858
 20
99.42886911823598
 11
91.11138891788551
 21
106.4556060696336
  0
ARC
  8
15
  6
CONTINUOUS
 62
     3
 10
90.88724504984339
 20
107.2921223733714
 40
1.499999999999996
 50
74.99999999999716
 51
134.9999999999908
  0
ARC
  8
15
  6
CONTINUOUS
 62
     3
 10
101.2536100939208
 20
104.5144632313647
 40
1.500000000000004
 50
45.0
 51
74.99999999999604
  0
ARC
  8
15
  6
CONTINUOUS
 62
     3
 10
92.56027765731915
 20
106.8438346372874
 40
1.500000000000002
 50
75.00000000000443
 51
194.9999999999986
  0
ARC
  8
15
  6
CONTINUOUS
 62
     3
 10
94.443086148872
 20
99.81709768588985
 40
1.5
 50
195.0000000000051
 51
314.9999999999969
  0
ARC
  8
15
  6
CONTINUOUS
 62
     3
 10
99.5870146087168
 20
104.9610261457344
 40
1.5
 50
315.0
 51
75.00000000000556
  0
ARC
  8
15
  6
CONTINUOUS
 62
     3
 10
101.2576910659136
 20
103.0961686969987
 40
1.0
 50
134.9999999999954
 51
225.0000000000046
  0
ARC
  8
15
  6
CONTINUOUS
 62
     3
 10
96.30794359760785
 20
98.14642122869282
 40
1.0
 50
45.0
 51
135.0
  0
LINE
  8
15
  6
CONTINUOUS
 62
     3
 10
9.263098833543836
 20
-9.263098833543836
 11
109.6722617620335
 21
91.14606409494604
  0
ARC
  8
15
  6
CONTINUOUS
 62
     3
 10
0.0
 20
0.0
 40
13.10000000000002
 50
134.9999999999993
 51
315.0
  0
LINE
  8
15
  6
CONTINUOUS
 62
     3
 10
5.656854249492426
 20
12.86934341759525
 11
13.57645019878191
 21
4.949747468305759
  0
LINE
  8
15
  6
CONTINUOUS
 62
     3
 10
5.656854249492426
 20
17.11198410471457
 11
26.72863632885151
 21
38.18376618407365
  0
ARC
  8
15
  6
CONTINUOUS
 62
     3
 10
15.69777054234146
 20
7.071067811865532
 40
3.0
 50
225.0000000000031
 51
314.9999999999969
  0
ARC
  8
15
  6
CONTINUOUS
 62
     3
 10
7.778174593051972
 20
14.99066376115479
 40
3.0
 50
134.9999999999969
 51
225.0
  0
ARC
  8
15
  6
CONTINUOUS
 62
     3
 10
32.73904396893727
 20
42.77996026178607
 40
6.5
 50
315.0000000000014
 51
45.0
  0
ARC
  8
15
  6
CONTINUOUS
 62
     3
 10
32.73904396893727
 20
42.77996026178607
 40
6.499999999999993
 50
224.9999999999986
 51
315.0000000000014
  0
ARC
  8
15
  6
CONTINUOUS
 62
     3
 10
32.73904396893727
 20
42.77996026178607
 40
7.999999999999996
 50
106.0449756281405
 51
163.9550243718591
  0
LINE
  8
15
  6
CONTINUOUS
 62
     3
 10
33.79970414071704
 20
50.91168824543138
 11
37.33523804664992
 21
47.37615433949873
  0
LINE
  8
15
  6
CONTINUOUS
 62
     3
 10
24.60731598529196
 20
41.71930009000653
 11
28.14284989122461
 21
38.18376618407365
  0
ARC
  8
15
  6
CONTINUOUS
 62
     3
 10
34.50681092190371
 20
51.61879502661805
 40
1.0
 50
135.0
 51
225.0
  0
ARC
  8
15
  6
CONTINUOUS
 62
     3
 10
23.90020920410552
 20
41.01219330881986
 40
1.0
 50
45.00000000000922
 51
135.0
  0
ARC
  8
15
  6
CONTINUOUS
 62
     3
 10
26.02152954766507
 20
38.89087296526031
 40
1.0
 50
314.9999999999908
 51
45.0
  0
ARC
  8
15
  6
CONTINUOUS
 62
     3
 10
28.31677460737728
 20
58.15668077344947
 40
8.0
 50
286.0449756281396
 51
315.0000000000006
  0
ARC
  8
15
  6
CONTINUOUS
 62
     3
 10
17.36232345727376
 20
47.20222962334628
 40
8.0
 50
315.0
 51
343.9550243718596
  0
CIRCLE
  8
15
  6
CONTINUOUS
 62
     3
 10
32.73904396893727
 20
42.77996026178607
 40
3.6
  0
ARC
  8
15
  6
CONTINUOUS
 62
     3
 10
0.0
 20
0.0
 40
14.25
 50
111.8237049017022
 51
338.1762950982982
  0
LINE
  8
15
  6
CONTINUOUS
 62
     3
 10
-27.59999999999991
 20
29.10000000000014
 11
-27.59999999999991
 21
-2.5
  0
LINE
  8
15
  6
CONTINUOUS
 62
     3
 10
45.70000000000005
 20
27.17380233291237
 11
45.70000000000005
 21
-2.5
  0
LINE
  8
15
  6
CONTINUOUS
 62
     3
 10
-19.59999999999991
 20
37.09999999999991
 11
18.10000000000014
 21
37.09999999999991
  0
ARC
  8
15
  6
CONTINUOUS
 62
     3
 10
-19.59999999999991
 20
29.10000000000014
 40
8.0
 50
90.0
 51
180.0
  0
ARC
  8
15
  6
CONTINUOUS
 62
     3
 10
-19.59999999999991
 20
-2.5
 40
8.0
 50
180.0
 51
270.0
  0
LINE
  8
15
  6
CONTINUOUS
 62
     3
 10
25.92619766708776
 20
7.400000000000091
 11
35.0
 21
7.400000000000091
  0
LINE
  8
15
  6
CONTINUOUS
 62
     3
 10
45.70000000000005
 20
15.75975620362192
 11
35.0
 21
7.400000000000091
  0
LINE
  8
15
  6
CONTINUOUS
 62
     3
 10
35.0
 20
7.400000000000091
 11
35.0
 21
-10.5
  0
ARC
  8
15
  6
CONTINUOUS
 62
     3
 10
37.70000000000005
 20
-2.5
 40
8.0
 50
270.0
 51
0.0
  0
LINE
  8
15
  6
CONTINUOUS
 62
     3
 10
-19.59999999999991
 20
-10.5
 11
-14.64786673888034
 21
-10.5
  0
LINE
  8
15
  6
CONTINUOUS
 62
     3
 10
14.64786673888057
 20
-10.5
 11
37.70000000000005
 21
-10.5
  0
ARC
  8
15
  6
CONTINUOUS
 62
     3
 10
0.0
 20
9.5
 40
23.6
 50
242.3842201823254
 51
262.1028422199813
  0
ARC
  8
15
  6
CONTINUOUS
 62
     3
 10
0.0
 20
9.5
 40
23.6
 50
277.8971577800187
 51
297.6157798176746
  0
ARC
  8
15
  6
CONTINUOUS
 62
     3
 10
-14.64786673888034
 20
-18.5
 40
8.0
 50
62.38422018232636
 51
90.0
  0
ARC
  8
15
  6
CONTINUOUS
 62
     3
 10
14.64786673888057
 20
-18.5
 40
8.0
 50
90.0
 51
117.6157798176751
  0
ENDBLK
  8
15
  0
BLOCK
  8
15
  2
SUB18
 70
    64
 10
0.0
 20
0.0
  0
LINE
  8
15
  6
CENTER
 62
     3
 10
0.0
 20
373.2631117374258
 11
0.0
 21
102.7461976670875
  0
LINE
  8
15
  6
CENTER
 62
     3
 10
0.0
 20
102.7461976670875
 11
0.0
 21
32.76893649413955
  0
LINE
  8
15
  6
CENTER
 62
     3
 10
0.0
 20
32.76893649413955
 11
0.0
 21
-151.1389973574906
  0
LINE
  8
15
  6
CONTINUOUS
 62
     3
 10
47.80000000000018
 20
113.4938023329127
 11
47.79999999999996
 21
-24.54884942777471
  0
LINE
  8
15
  6
CONTINUOUS
 62
     3
 10
-44.98244247899947
 20
119.8
 11
17.05380233291248
 21
119.8
  0
LINE
  8
15
  6
CONTINUOUS
 62
     3
 10
-42.90000000000009
 20
-64.5
 11
47.80000000000018
 21
-64.5
  0
LINE
  8
15
  6
CONTINUOUS
 62
     3
 10
-62.5
 20
-64.5
 11
62.5
 21
-64.5
  0
LINE
  8
15
  6
CONTINUOUS
 62
     3
 10
62.5
 20
-64.5
 11
62.5
 21
-39.96410161513768
  0
ARC
  8
15
  6
CONTINUOUS
 62
     3
 10
56.5
 20
-39.96410161513768
 40
6.0
 50
0.0
 51
59.99999999999946
  0
LINE
  8
15
  6
CONTINUOUS
 62
     3
 10
59.5
 20
-34.76794919243116
 11
50.79999999999996
 21
-29.74500185048146
  0
ARC
  8
15
  6
CONTINUOUS
 62
     3
 10
53.79999999999996
 20
-24.54884942777471
 40
6.000000000000004
 50
180.0
 51
240.0000000000005
  0
LINE
  8
15
  6
CONTINUOUS
 62
     3
 10
-68.20000000000005
 20
-45.5
 11
-62.5
 21
-45.5
  0
ARC
  8
15
  6
CONTINUOUS
 62
     3
 10
-68.20000000000005
 20
-36.10000000000014
 40
9.399999999999977
 50
198.6114639665361
 51
270.0
  0
LINE
  8
15
  6
CONTINUOUS
 62
     3
 10
-85.20000000000005
 20
-38.60000000000014
 11
-85.20000000000005
 21
142.8
  0
LINE
  8
15
  6
CONTINUOUS
 62
     3
 10
-84.70000000000005
 20
-39.10000000000014
 11
-77.10842298052717
 21
-39.10000000000014
  0
LINE
  8
15
  6
CONTINUOUS
 62
     3
 10
-67.61999999999989
 20
30.7644660940673
 11
-67.61999999999989
 21
-20.20000000000005
  0
ARC
  8
15
  6
CONTINUOUS
 62
     3
 10
-59.61999999999989
 20
-20.20000000000005
 40
8.0
 50
180.0
 51
270.0
  0
LINE
  8
15
  6
CONTINUOUS
 62
     3
 10
-77.63222045279144
 20
-26.89522392758681
 11
-78.66006823796283
 21
-38.64357787137396
  0
LINE
  8
15
  6
CONTINUOUS
 62
     3
 10
-68.93224643830331
 20
-22.6754536095882
 11
-73.26714057876393
 21
-22.78896680756111
  0
ARC
  8
15
  6
CONTINUOUS
 62
     3
 10
-73.14934431137863
 20
-27.28742476995126
 40
4.500000000000007
 50
91.49999999999834
 51
175.0000000000002
  0
ARC
  8
15
  6
CONTINUOUS
 62
     3
 10
-68.86680406753362
 20
-25.17459692202715
 40
2.499999999999995
 50
28.27936889649516
 51
91.50000000000009
  0
ARC
  8
15
  6
CONTINUOUS
 62
     3
 10
-70.11999999999989
 20
30.7644660940673
 40
2.500000000000008
 50
0.0
 51
3.886985084796434
  0
ARC
  8
15
  6
CONTINUOUS
 62
     3
 10
-84.70000000000005
 20
-38.60000000000014
 40
0.5
 50
180.0
 51
270.0
  0
ARC
  8
15
  6
CONTINUOUS
 62
     3
 10
-79.15816558700863
 20
-38.60000000000014
 40
0.500000000000005
 50
270.0
 51
354.9999999999994
  0
LINE
  8
15
  6
CONTINUOUS
 62
     3
 10
-62.5
 20
-64.5
 11
-62.5
 21
-29.21696179430751
  0
LINE
  8
15
  6
CONTINUOUS
 62
     3
 10
-59.61999999999989
 20
-28.20000000000005
 11
-19.22000000000003
 21
-28.20000000000005
  0
ARC
  8
15
  6
CONTINUOUS
 62
     3
 10
-65.0
 20
-29.21696179430751
 40
2.5
 50
0.0
 51
59.1774456745971
  0
ARC
  8
15
  6
CONTINUOUS
 62
     3
 10
-19.22000000000003
 20
-20.20000000000005
 40
8.0
 50
270.0
 51
0.0
  0
LINE
  8
15
  6
CONTINUOUS
 62
     3
 10
-11.22000000000003
 20
94.60000000000014
 11
-11.22000000000003
 21
91.76434671443326
  0
LINE
  8
15
  6
CONTINUOUS
 62
     3
 10
-11.22000000000003
 20
29.79999999999996
 11
-11.22000000000003
 21
-20.20000000000005
  0
LINE
  8
15
  6
CONTINUOUS
 62
     3
 10
-84.70000000000005
 20
143.3
 11
-67.18320512290961
 21
143.3
  0
ARC
  8
15
  6
CONTINUOUS
 62
     3
 10
-67.18320512290961
 20
136.8
 40
6.500000000000012
 50
26.99999999999884
 51
90.0
  0
LINE
  8
15
  6
CONTINUOUS
 62
     3
 10
-43.50636331564988
 20
104.649061751693
 11
-61.39166271568502
 21
139.750938248307
  0
ARC
  8
15
  6
CONTINUOUS
 62
     3
 10
-84.70000000000005
 20
142.8
 40
0.5
 50
90.0
 51
180.0
  0
ARC
  8
15
  6
CONTINUOUS
 62
     3
 10
-46.71449328656854
 20
119.8000000000001
 40
0.9999999999999978
 50
270.0
 51
329.999999999997
  0
ARC
  8
15
  6
CONTINUOUS
 62
     3
 10
-47.95902294075677
 20
123.3
 40
4.5
 50
206.9999999999989
 51
270.0
  0
LINE
  8
15
  6
CONTINUOUS
 62
     3
 10
-37.71482090842551
 20
101.1
 11
-17.72000000000003
 21
101.1
  0
ARC
  8
15
  6
CONTINUOUS
 62
     3
 10
-17.72000000000003
 20
94.60000000000014
 40
6.500000000000002
 50
0.0
 51
90.0
  0
ARC
  8
15
  6
CONTINUOUS
 62
     3
 10
-37.71482090842551
 20
107.6
 40
6.500000000000012
 50
206.9999999999997
 51
270.0
  0
ARC
  8
15
  6
CONTINUOUS
 62
     3
 10
-44.98244247899947
 20
118.8
 40
1.0
 50
90.0
 51
150.0000000000027
  0
LINE
  8
15
  6
CONTINUOUS
 62
     3
 10
-47.95902294075677
 20
118.8000000000001
 11
-46.71449328656854
 21
118.8000000000001
  0
LINE
  8
15
  6
CONTINUOUS
 62
     3
 10
-71.51999999999998
 20
69.40000000000009
 11
-71.51999999999998
 21
39.01370849898467
  0
LINE
  8
15
  6
CONTINUOUS
 62
     3
 10
-63.51999999999998
 20
77.39999999999986
 11
-25.34619766708761
 21
77.39999999999986
  0
ARC
  8
15
  6
CONTINUOUS
 62
     3
 10
-63.51999999999998
 20
69.40000000000009
 40
8.0
 50
90.0
 51
180.0
  0
ENDBLK
  8
15
  0
BLOCK
  8
15
  2
SUB19
 70
    64
 10
0.0
 20
0.0
  0
LINE
  8
15
  6
CONTINUOUS
 62
     3
 10
-40.5
 20
27.45000000000005
 11
40.5
 21
27.45000000000005
  0
LINE
  8
15
  6
CONTINUOUS
 62
     3
 10
40.69938125989438
 20
23.6455789269819
 11
40.50000003992909
 21
27.4499992381061
  0
LINE
  8
15
  6
CONTINUOUS
 62
     3
 10
-41.39093224781163
 20
10.45000000000005
 11
-40.50000003992909
 21
27.4499992381061
  0
LINE
  8
15
  6
CONTINUOUS
 62
     3
 10
-44.79999999999996
 20
10.45000000000005
 11
-21.90360965974833
 21
10.45000000000005
  0
LINE
  8
15
  6
CONTINUOUS
 62
     3
 10
21.90360965974833
 20
10.45000000000005
 11
27.50380233291253
 21
10.45000000000005
  0
LINE
  8
15
  6
CONTINUOUS
 62
     3
 10
-47.79999999999996
 20
0.0
 11
-47.79999999999996
 21
5.350000000000023
  0
LINE
  8
15
  6
CONTINUOUS
 62
     3
 10
-47.79999999999996
 20
5.350000000000023
 11
-44.79999999999996
 21
5.350000000000023
  0
LINE
  8
15
  6
CONTINUOUS
 62
     3
 10
40.63101944820755
 20
24.95000000000005
 11
40.99866340025278
 21
23.9448610673403
  0
LINE
  8
15
  6
CONTINUOUS
 62
     3
 10
-47.79999999999996
 20
5.350000000000023
 11
-40.63101944820755
 21
24.95000000000005
  0
LINE
  8
15
  6
CONTINUOUS
 62
     3
 10
-44.79999999999996
 20
5.350000000000023
 11
-44.79999999999996
 21
10.45000000000005
  0
LINE
  8
15
  6
CONTINUOUS
 62
     3
 10
-36.20000000000005
 20
5.350000000000023
 11
22.40380233291239
 21
5.350000000000023
  0
ARC
  8
15
  6
CONTINUOUS
 62
     3
 10
0.0
 20
15.75
 40
7.5
 50
0.0
 51
180.0
  0
LINE
  8
15
  6
CONTINUOUS
 62
     3
 10
7.5
 20
5.350000000000023
 11
7.5
 21
15.75
  0
LINE
  8
15
  6
CONTINUOUS
 62
     3
 10
-7.5
 20
5.350000000000023
 11
-7.5
 21
15.75
  0
LINE
  8
15
  6
CONTINUOUS
 62
     3
 10
21.90360965974833
 20
5.350000000000023
 11
21.90360965974833
 21
10.45000000000005
  0
LINE
  8
15
  6
CONTINUOUS
 62
     3
 10
-21.90360965974833
 20
5.350000000000023
 11
-21.90360965974833
 21
10.45000000000005
  0
LINE
  8
15
  6
CONTINUOUS
 62
     3
 10
-40.20000000000005
 20
27.45000000000005
 11
-40.20000000000005
 21
37.14999999999998
  0
LINE
  8
15
  6
CONTINUOUS
 62
     3
 10
40.20000000000005
 20
27.45000000000005
 11
40.20000000000005
 21
37.14999999999998
  0
LINE
  8
15
  6
CONTINUOUS
 62
     3
 10
-40.20000000000005
 20
37.14999999999998
 11
40.20000000000005
 21
37.14999999999998
  0
LINE
  8
15
  6
CONTINUOUS
 62
     3
 10
-47.79999923706055
 20
0.0
 11
17.05380233291248
 21
0.0
  0
ENDBLK
  8
15
  0
BLOCK
  8
15
  2
COMP1
 70
    64
 10
0.0
 20
0.0
  0
LINE
  8
15
  6
CONTINUOUS
 62
     3
 10
-86.30000000000001
 20
-344.915894021928
 11
-12.5
 21
-344.915894021928
  0
LINE
  8
15
  6
CONTINUOUS
 62
     3
 10
12.5
 20
-344.915894021928
 11
104.5151185235897
 21
-344.915894021928
  0
INSERT
  8
15
  6
CONTINUOUS
 62
     4
  2
SUB5
 10
68.5
 20
-342.315894021928
 41
1.0
 42
1.0
 50
0.0
  0
LINE
  8
15
  6
CONTINUOUS
 62
     3
 10
149.6
 20
-347.715894021928
 11
149.6
 21
-405.115894021928
  0
ENDBLK
  8
15
  0
BLOCK
  8
15
  2
COMP2
 70
    64
 10
0.0
 20
0.0
  0
LINE
  8
15
  6
CONTINUOUS
 62
     3
 10
149.6
 20
-358.490894021928
 11
158.21
 21
-358.2218180756555
  0
LINE
  8
15
  6
CONTINUOUS
 62
     3
 10
158.21
 20
-358.2218180756555
 11
158.21
 21
-392.0099699682005
  0
LINE
  8
15
  6
CONTINUOUS
 62
     3
 10
170.21
 20
-365.8253548010666
 11
158.21
 21
-365.615894021928
  0
LINE
  8
15
  6
CONTINUOUS
 62
     3
 10
170.21
 20
-365.8253548010666
 11
170.21
 21
-384.4064332427894
  0
LINE
  8
15
  6
CONTINUOUS
 62
     3
 10
170.21
 20
-384.4064332427894
 11
158.21
 21
-384.615894021928
  0
LINE
  8
15
  6
CONTINUOUS
 62
     3
 10
149.6
 20
-391.740894021928
 11
158.21
 21
-392.0099699682005
  0
ENDBLK
  8
15
  0
BLOCK
  8
15
  2
COMP3
 70
    64
 10
0.0
 20
0.0
  0
LINE
  8
15
  6
CONTINUOUS
 62
     3
 10
-202.9999999999999
 20
-214.535894021928
 11
-175.9999999999999
 21
-214.535894021928
  0
LINE
  8
15
  6
CONTINUOUS
 62
     3
 10
-202.9999999999999
 20
-378.535894021928
 11
-177.9999999999999
 21
-378.535894021928
  0
LINE
  8
15
  6
CONTINUOUS
 62
     3
 10
-132.9999999999999
 20
-234.535894021928
 11
-132.9999999999999
 21
-244.615894021928
  0
LINE
  8
15
  6
CONTINUOUS
 62
     3
 10
-132.9999999999999
 20
-269.615894021928
 11
-132.9999999999999
 21
-284.1308898575745
  0
LINE
  8
15
  6
CONTINUOUS
 62
     3
 10
-132.9999999999999
 20
-284.1308898575745
 11
-132.9999999999999
 21
-287.8282693778007
  0
LINE
  8
15
  6
CONTINUOUS
 62
     3
 10
-132.9999999999999
 20
-331.7299007498877
 11
-132.9999999999999
 21
-386.5358940219281
  0
LINE
  8
15
  6
CONTINUOUS
 62
     3
 10
-145.9999999999999
 20
-386.5358940219281
 11
-132.9999999999999
 21
-386.5358940219281
  0
LINE
  8
15
  6
CONTINUOUS
 62
     3
 10
-202.9999999999999
 20
-214.535894021928
 11
-202.9999999999999
 21
-378.535894021928
  0
LINE
  8
15
  6
CONTINUOUS
 62
     3
 10
-177.9999999999999
 20
-358.535894021928
 11
-177.9999999999999
 21
-383.035894021928
  0
LINE
  8
15
  6
CONTINUOUS
 62
     3
 10
-145.9999999999999
 20
-301.1641630004023
 11
-145.9999999999999
 21
-358.535894021928
  0
LINE
  8
15
  6
CONTINUOUS
 62
     3
 10
-145.9999999999999
 20
-383.035894021928
 11
-145.9999999999999
 21
-386.5358940219281
  0
LINE
  8
15
  6
CONTINUOUS
 62
     3
 10
-202.9999999999999
 20
-358.535894021928
 11
-132.9999999999999
 21
-358.535894021928
  0
LINE
  8
15
  6
CONTINUOUS
 62
     3
 10
-177.9999999999999
 20
-383.035894021928
 11
-145.9999999999999
 21
-383.035894021928
  0
LINE
  8
15
  6
CONTINUOUS
 62
     3
 10
-202.9999999999999
 20
-234.535894021928
 11
-151.0678715157707
 21
-234.535894021928
  0
LINE
  8
15
  6
CONTINUOUS
 62
     3
 10
-151.0678715157707
 20
-234.535894021928
 11
-150.8190757165684
 21
-234.535894021928
  0
LINE
  8
15
  6
CONTINUOUS
 62
     3
 10
-134.6194399037524
 20
-234.535894021928
 11
-133.8194399037524
 21
-234.535894021928
  0
LINE
  8
15
  6
CONTINUOUS
 62
     3
 10
-133.8194399037524
 20
-234.535894021928
 11
-132.9999999999999
 21
-234.535894021928
  0
LINE
  8
15
  6
CONTINUOUS
 62
     3
 10
-175.9999999999999
 20
-214.535894021928
 11
-175.9999999999999
 21
-234.535894021928
  0
LINE
  8
15
  6
CONTINUOUS
 62
     3
 10
-177.9999999999999
 20
-286.535894021928
 11
-177.9999999999999
 21
-306.535894021928
  0
LINE
  8
15
  6
CONTINUOUS
 62
     3
 10
-202.9999999999999
 20
-286.535894021928
 11
-177.9999999999999
 21
-286.535894021928
  0
LINE
  8
15
  6
CONTINUOUS
 62
     3
 10
-202.9999999999999
 20
-306.535894021928
 11
-177.9999999999999
 21
-306.535894021928
  0
LINE
  8
15
  6
CONTINUOUS
 62
     3
 10
-298.9999999999999
 20
-235.535894021928
 11
-202.9999999999999
 21
-235.535894021928
  0
LINE
  8
15
  6
CONTINUOUS
 62
     3
 10
-320.9999999999999
 20
-213.535894021928
 11
-320.9999999999999
 21
-379.535894021928
  0
LINE
  8
15
  6
CONTINUOUS
 62
     3
 10
-320.9999999999999
 20
-229.535894021928
 11
-202.9999999999999
 21
-229.535894021928
  0
LINE
  8
15
  6
CONTINUOUS
 62
     3
 10
-320.9999999999999
 20
-231.535894021928
 11
-298.9999999999999
 21
-231.535894021928
  0
LINE
  8
15
  6
CONTINUOUS
 62
     3
 10
-338.9999999999999
 20
-308.535894021928
 11
-338.9999999999999
 21
-284.535894021928
  0
LINE
  8
15
  6
CONTINUOUS
 62
     3
 10
-338.9999999999999
 20
-241.535894021928
 11
-330.9999999999999
 21
-246.1546961754449
  0
LINE
  8
15
  6
CONTINUOUS
 62
     3
 10
-338.9999999999999
 20
-282.535894021928
 11
-330.9999999999999
 21
-277.917091868411
  0
LINE
  8
15
  6
CONTINUOUS
 62
     3
 10
-330.9999999999999
 20
-304.535894021928
 11
-330.9999999999999
 21
-288.535894021928
  0
LINE
  8
15
  6
CONTINUOUS
 62
     3
 10
-338.9999999999999
 20
-288.535894021928
 11
-330.9999999999999
 21
-288.535894021928
  0
LINE
  8
15
  6
CONTINUOUS
 62
     3
 10
-320.9999999999999
 20
-292.535894021928
 11
-202.9999999999999
 21
-292.535894021928
  0
LINE
  8
15
  6
CONTINUOUS
 62
     3
 10
-330.9999999999999
 20
-213.535894021928
 11
-330.9999999999999
 21
-277.917091868411
  0
LINE
  8
15
  6
CONTINUOUS
 62
     3
 10
-330.9999999999999
 20
-315.1546961754449
 11
-330.9999999999999
 21
-379.535894021928
  0
LINE
  8
15
  6
CONTINUOUS
 62
     3
 10
-338.9999999999999
 20
-213.535894021928
 11
-338.9999999999999
 21
-241.535894021928
  0
LINE
  8
15
  6
CONTINUOUS
 62
     3
 10
-338.9999999999999
 20
-282.535894021928
 11
-338.9999999999999
 21
-310.535894021928
  0
LINE
  8
15
  6
CONTINUOUS
 62
     3
 10
-338.9999999999999
 20
-351.535894021928
 11
-338.9999999999999
 21
-379.535894021928
  0
LINE
  8
15
  6
CONTINUOUS
 62
     3
 10
-298.9999999999999
 20
-231.535894021928
 11
-298.9999999999999
 21
-292.535894021928
  0
LINE
  8
15
  6
CONTINUOUS
 62
     3
 10
-298.9999999999999
 20
-300.535894021928
 11
-298.9999999999999
 21
-361.535894021928
  0
LINE
  8
15
  6
CONTINUOUS
 62
     3
 10
-338.9999999999999
 20
-213.535894021928
 11
-320.9999999999999
 21
-213.535894021928
  0
LINE
  8
15
  6
CONTINUOUS
 62
     3
 10
-320.9999999999999
 20
-221.535894021928
 11
-202.9999999999999
 21
-221.535894021928
  0
LINE
  8
15
  6
CONTINUOUS
 62
     3
 10
-298.9999999999999
 20
-357.535894021928
 11
-202.9999999999999
 21
-357.535894021928
  0
LINE
  8
15
  6
CONTINUOUS
 62
     3
 10
-320.9999999999999
 20
-363.535894021928
 11
-202.9999999999999
 21
-363.535894021928
  0
LINE
  8
15
  6
CONTINUOUS
 62
     3
 10
-320.9999999999999
 20
-361.535894021928
 11
-298.9999999999999
 21
-361.535894021928
  0
LINE
  8
15
  6
CONTINUOUS
 62
     3
 10
-338.9999999999999
 20
-310.535894021928
 11
-330.9999999999999
 21
-315.1546961754449
  0
LINE
  8
15
  6
CONTINUOUS
 62
     3
 10
-338.9999999999999
 20
-351.535894021928
 11
-330.9999999999999
 21
-346.917091868411
  0
LINE
  8
15
  6
CONTINUOUS
 62
     3
 10
-338.9999999999999
 20
-304.535894021928
 11
-330.9999999999999
 21
-304.535894021928
  0
LINE
  8
15
  6
CONTINUOUS
 62
     3
 10
-320.9999999999999
 20
-300.535894021928
 11
-202.9999999999999
 21
-300.535894021928
  0
LINE
  8
15
  6
CONTINUOUS
 62
     3
 10
-338.9999999999999
 20
-379.535894021928
 11
-320.9999999999999
 21
-379.535894021928
  0
LINE
  8
15
  6
CONTINUOUS
 62
     3
 10
-320.9999999999999
 20
-371.535894021928
 11
-202.9999999999999
 21
-371.535894021928
  0
ENDBLK
  8
15
  0
BLOCK
  8
15
  2
COMP4
 70
    64
 10
0.0
 20
0.0
  0
INSERT
  8
15
  6
CONTINUOUS
 62
     3
  2
SUB6
 10
62.20000000000005
 20
-404.315894021928
 41
1.0
 42
1.0
 50
0.0
  0
ARC
  8
15
  6
CONTINUOUS
 62
     6
 10
-278.5
 20
-430.5158940219279
 40
483.0000000000001
 50
326.7385963257922
 51
337.863675245037
  0
ENDBLK
  8
15
  0
BLOCK
  8
15
  2
COMP5
 70
    64
 10
0.0
 20
0.0
  0
LINE
  8
15
  6
CONTINUOUS
 62
     3
 10
106.3
 20
-189.8991661658272
 11
114.3
 21
-189.8991661658272
  0
INSERT
  8
15
  6
CONTINUOUS
 62
     3
  2
SUB8
 10
54.5
 20
-301.035894021928
 41
1.0
 42
1.0
 50
0.0
  0
ENDBLK
  8
15
  0
BLOCK
  8
15
  2
COMP6
 70
    64
 10
0.0
 20
0.0
  0
LINE
  8
15
  6
PHANTOM
 62
     6
 10
-403.0
 20
-996.1800889827891
 11
-378.0
 21
-996.1800889827891
  0
LINE
  8
15
  6
PHANTOM
 62
     6
 10
-403.0
 20
-996.1800889827891
 11
-403.0
 21
-1162.180088982789
  0
LINE
  8
15
  6
PHANTOM
 62
     6
 10
-403.0
 20
-1162.180088982789
 11
-378.0
 21
-1162.180088982789
  0
ENDBLK
  8
15
  0
BLOCK
  8
15
  2
COMP7
 70
    64
 10
0.0
 20
0.0
  0
LINE
  8
15
  6
CONTINUOUS
 62
     3
 10
-61.21875093702252
 20
-1181.080088982789
 11
-61.49063952384836
 21
-1189.780088982789
  0
LINE
  8
15
  6
CONTINUOUS
 62
     3
 10
-61.49063952384836
 20
-1189.780088982789
 11
-13.10936047615166
 21
-1189.780088982789
  0
LINE
  8
15
  6
CONTINUOUS
 62
     3
 10
-50.0556290910049
 20
-1203.780088982789
 11
-50.29999999999996
 21
-1189.780088982789
  0
LINE
  8
15
  6
CONTINUOUS
 62
     3
 10
-50.0556290910049
 20
-1203.780088982789
 11
-24.54437090899501
 21
-1203.780088982789
  0
LINE
  8
15
  6
CONTINUOUS
 62
     3
 10
-24.54437090899501
 20
-1203.780088982789
 11
-24.29999999999996
 21
-1189.780088982789
  0
LINE
  8
15
  6
CONTINUOUS
 62
     3
 10
-13.3812490629775
 20
-1181.080088982789
 11
-13.10936047615166
 21
-1189.780088982789
  0
ENDBLK
  8
15
  0
BLOCK
  8
15
  2
COMP8
 70
    64
 10
0.0
 20
0.0
  0
LINE
  8
15
  6
CONTINUOUS
 62
     3
 10
58.08124906297758
 20
-1181.080088982789
 11
57.80936047615172
 21
-1189.780088982789
  0
LINE
  8
15
  6
CONTINUOUS
 62
     3
 10
57.80936047615172
 20
-1189.780088982789
 11
106.1906395238483
 21
-1189.780088982789
  0
LINE
  8
15
  6
CONTINUOUS
 62
     3
 10
69.24437090899505
 20
-1203.780088982789
 11
69.0
 21
-1189.780088982789
  0
LINE
  8
15
  6
CONTINUOUS
 62
     3
 10
69.24437090899505
 20
-1203.780088982789
 11
94.75562909100495
 21
-1203.780088982789
  0
LINE
  8
15
  6
CONTINUOUS
 62
     3
 10
94.75562909100495
 20
-1203.780088982789
 11
95.0
 21
-1189.780088982789
  0
LINE
  8
15
  6
CONTINUOUS
 62
     3
 10
105.9110873590162
 20
-1180.834866741455
 11
106.1906395238483
 21
-1189.780088982789
  0
ENDBLK
  8
15
  0
BLOCK
  8
15
  2
COMP9
 70
    64
 10
0.0
 20
0.0
  0
LINE
  8
15
  6
CENTER
 62
     3
 10
-356.794550210775
 20
-1079.180088982789
 11
-291.1999999999998
 21
-1079.180088982789
  0
LINE
  8
15
  6
CENTER
 62
     3
 10
-291.1999999999998
 20
-1079.180088982789
 11
-82.60000000000002
 21
-1079.180088982789
  0
LINE
  8
15
  6
DASHED
 62
     3
 10
-203.0
 20
-997.1800889827891
 11
-176.0
 21
-997.1800889827891
  0
LINE
  8
15
  6
DASHED
 62
     3
 10
-203.0
 20
-1161.180088982789
 11
-178.0
 21
-1161.180088982789
  0
LINE
  8
15
  6
CONTINUOUS
 62
     3
 10
-299.0
 20
-1140.180088982789
 11
-263.4791107370236
 21
-1140.180088982789
  0
LINE
  8
15
  6
CONTINUOUS
 62
     3
 10
-299.0
 20
-1018.180088982789
 11
-291.1999999999998
 21
-1018.180088982789
  0
LINE
  8
15
  6
CONTINUOUS
 62
     3
 10
-321.0
 20
-996.1800889827891
 11
-321.0
 21
-1162.180088982789
  0
LINE
  8
15
  6
CONTINUOUS
 62
     3
 10
-321.0
 20
-1146.180088982789
 11
-262.050079533337
 21
-1146.180088982789
  0
LINE
  8
15
  6
CONTINUOUS
 62
     3
 10
-321.0
 20
-1012.180088982789
 11
-291.1999999999998
 21
-1012.180088982789
  0
LINE
  8
15
  6
CONTINUOUS
 62
     3
 10
-321.0
 20
-1014.180088982789
 11
-299.0
 21
-1014.180088982789
  0
LINE
  8
15
  6
CONTINUOUS
 62
     3
 10
-321.0
 20
-1144.180088982789
 11
-299.0
 21
-1144.180088982789
  0
LINE
  8
15
  6
CONTINUOUS
 62
     3
 10
-339.0
 20
-1091.180088982789
 11
-339.0
 21
-1067.180088982789
  0
LINE
  8
15
  6
CONTINUOUS
 62
     3
 10
-339.0
 20
-1024.180088982789
 11
-331.0
 21
-1028.798891136306
  0
LINE
  8
15
  6
CONTINUOUS
 62
     3
 10
-339.0
 20
-1065.180088982789
 11
-331.0
 21
-1060.561286829272
  0
LINE
  8
15
  6
CONTINUOUS
 62
     3
 10
-339.0
 20
-1093.180088982789
 11
-331.0
 21
-1097.798891136306
  0
LINE
  8
15
  6
CONTINUOUS
 62
     3
 10
-339.0
 20
-1134.180088982789
 11
-331.0
 21
-1129.561286829272
  0
LINE
  8
15
  6
CONTINUOUS
 62
     3
 10
-331.0
 20
-1087.180088982789
 11
-331.0
 21
-1071.180088982789
  0
LINE
  8
15
  6
CONTINUOUS
 62
     3
 10
-339.0
 20
-1071.180088982789
 11
-331.0
 21
-1071.180088982789
  0
LINE
  8
15
  6
CONTINUOUS
 62
     3
 10
-339.0
 20
-1087.180088982789
 11
-331.0
 21
-1087.180088982789
  0
LINE
  8
15
  6
CONTINUOUS
 62
     3
 10
-321.0
 20
-1075.180088982789
 11
-291.1999999999998
 21
-1075.180088982789
  0
LINE
  8
15
  6
CONTINUOUS
 62
     3
 10
-321.0
 20
-1083.180088982789
 11
-291.1999999999998
 21
-1083.180088982789
  0
LINE
  8
15
  6
CONTINUOUS
 62
     3
 10
-331.0
 20
-996.1800889827891
 11
-331.0
 21
-1060.561286829272
  0
LINE
  8
15
  6
CONTINUOUS
 62
     3
 10
-331.0
 20
-1097.798891136306
 11
-331.0
 21
-1162.180088982789
  0
LINE
  8
15
  6
CONTINUOUS
 62
     3
 10
-339.0
 20
-1162.180088982789
 11
-321.0
 21
-1162.180088982789
  0
LINE
  8
15
  6
CONTINUOUS
 62
     3
 10
-339.0
 20
-996.1800889827891
 11
-339.0
 21
-1024.180088982789
  0
LINE
  8
15
  6
CONTINUOUS
 62
     3
 10
-339.0
 20
-1065.180088982789
 11
-339.0
 21
-1093.180088982789
  0
LINE
  8
15
  6
CONTINUOUS
 62
     3
 10
-339.0
 20
-1134.180088982789
 11
-339.0
 21
-1162.180088982789
  0
LINE
  8
15
  6
CONTINUOUS
 62
     3
 10
-299.0
 20
-1014.180088982789
 11
-299.0
 21
-1075.180088982789
  0
LINE
  8
15
  6
CONTINUOUS
 62
     3
 10
-299.0
 20
-1083.180088982789
 11
-299.0
 21
-1144.180088982789
  0
LINE
  8
15
  6
DASHED
 62
     3
 10
-203.0
 20
-997.1800889827891
 11
-203.0
 21
-1004.180088982789
  0
LINE
  8
15
  6
DASHED
 62
     3
 10
-203.0
 20
-1154.180088982789
 11
-203.0
 21
-1161.180088982789
  0
LINE
  8
15
  6
DASHED
 62
     3
 10
-178.0
 20
-1141.180088982789
 11
-178.0
 21
-1161.180088982789
  0
LINE
  8
15
  6
CONTINUOUS
 62
     3
 10
-321.0
 20
-1154.180088982789
 11
-258.8173086607093
 21
-1154.180088982789
  0
LINE
  8
15
  6
DASHED
 62
     3
 10
-258.8173086607093
 20
-1154.180088982789
 11
-203.0
 21
-1154.180088982789
  0
LINE
  8
15
  6
DASHED
 62
     3
 10
-178.0
 20
-1141.180088982789
 11
-133.0
 21
-1141.180088982789
  0
LINE
  8
15
  6
CONTINUOUS
 62
     3
 10
-339.0
 20
-996.1800889827891
 11
-321.0
 21
-996.1800889827891
  0
LINE
  8
15
  6
DASHED
 62
     3
 10
-176.0
 20
-1017.180088982789
 11
-133.0
 21
-1017.180088982789
  0
LINE
  8
15
  6
CONTINUOUS
 62
     3
 10
-321.0
 20
-1004.180088982789
 11
-291.1999999999998
 21
-1004.180088982789
  0
LINE
  8
15
  6
DASHED
 62
     3
 10
-291.1999999999998
 20
-1004.180088982789
 11
-203.0
 21
-1004.180088982789
  0
LINE
  8
15
  6
DASHED
 62
     3
 10
-176.0
 20
-997.1800889827891
 11
-176.0
 21
-1017.180088982789
  0
ENDBLK
  8
15
  0
BLOCK
  8
15
  2
COMP10
 70
    64
 10
0.0
 20
0.0
  0
LINE
  8
15
  6
CENTER
 62
     3
 10
82.0
 20
-1218.14569234973
 11
82.0
 21
-1168.822411975105
  0
LINE
  8
15
  6
CENTER
 62
     3
 10
-37.29999999999996
 20
-1218.14569234973
 11
-37.29999999999996
 21
-1168.822411975105
  0
ENDBLK
  8
15
  0
BLOCK
  8
15
  2
COMP11
 70
    64
 10
0.0
 20
0.0
  0
LINE
  8
15
  6
PHANTOM
 62
     6
 10
27.0
 20
-781.5300889827893
 11
27.0
 21
-762.5660648614362
  0
ARC
  8
15
  6
PHANTOM
 62
     6
 10
17.0
 20
-762.5660648614362
 40
10.0
 50
0.0
 51
83.02544333711377
  0
ARC
  8
15
  6
PHANTOM
 62
     6
 10
0.0
 20
-901.5300889827894
 40
150.0
 50
83.02544333711415
 51
96.97455666288586
  0
LINE
  8
15
  6
PHANTOM
 62
     6
 10
21.34999999999991
 20
-913.7800889827893
 11
21.34999999999991
 21
-883.2300889827893
  0
LINE
  8
15
  6
PHANTOM
 62
     6
 10
21.34999999999991
 20
-867.2300889827893
 11
21.34999999999991
 21
-789.5300889827896
  0
LINE
  8
15
  6
PHANTOM
 62
     6
 10
-27.0
 20
-781.5300889827893
 11
27.0
 21
-781.5300889827893
  0
LINE
  8
15
  6
PHANTOM
 62
     6
 10
21.34999999999991
 20
-789.5300889827896
 11
20.96352657004832
 21
-781.5300889827893
  0
LINE
  8
15
  6
PHANTOM
 62
     6
 10
-27.0
 20
-781.5300889827893
 11
-27.0
 21
-762.5660648614362
  0
ARC
  8
15
  6
PHANTOM
 62
     6
 10
-17.0
 20
-762.5660648614362
 40
10.0
 50
96.97455666288624
 51
180.0
  0
LINE
  8
15
  6
PHANTOM
 62
     6
 10
-21.34999999999991
 20
-789.5300889827896
 11
-21.34999999999991
 21
-867.2300889827893
  0
LINE
  8
15
  6
PHANTOM
 62
     6
 10
-21.34999999999991
 20
-883.2300889827893
 11
-21.34999999999991
 21
-913.7800889827893
  0
LINE
  8
15
  6
PHANTOM
 62
     6
 10
-20.96352657004832
 20
-781.5300889827893
 11
-21.34999999999991
 21
-789.5300889827896
  0
ENDBLK
  8
15
  0
BLOCK
  8
15
  2
COMP12
 70
    64
 10
0.0
 20
0.0
  0
INSERT
  8
15
  6
CONTINUOUS
 62
     4
  2
SUB11
 10
68.5
 20
-1015.180088982789
 41
1.0
 42
1.0
 50
0.0
  0
ENDBLK
  8
15
  0
BLOCK
  8
15
  2
COMP13
 70
    64
 10
0.0
 20
0.0
  0
INSERT
  8
15
  6
CONTINUOUS
 62
     4
  2
SUB13
 10
0.0
 20
-1119.280088982789
 41
1.0
 42
1.0
 50
0.0
  0
LINE
  8
15
  6
CONTINUOUS
 62
     3
 10
-62.5
 20
-1183.780088982789
 11
-61.30313015362364
 21
-1183.780088982789
  0
LINE
  8
15
  6
CONTINUOUS
 62
     3
 10
-13.29686984637638
 20
-1183.780088982789
 11
57.99686984637643
 21
-1183.780088982789
  0
ENDBLK
  8
15
  0
BLOCK
  8
15
  2
COMP14
 70
    64
 10
0.0
 20
0.0
  0
LINE
  8
15
  6
CENTER
 62
     3
 10
0.0
 20
-1187.991914401262
 11
0.0
 21
-1181.081164727418
  0
LINE
  8
15
  6
CONTINUOUS
 62
     3
 10
-62.5
 20
-1194.280088982789
 11
-50.2197067013301
 21
-1194.280088982789
  0
LINE
  8
15
  6
CONTINUOUS
 62
     3
 10
-24.38029329866981
 20
-1194.280088982789
 11
62.50000000000001
 21
-1194.280088982789
  0
LINE
  8
15
  6
CONTINUOUS
 62
     3
 10
-34.99000000000001
 20
-1252.280088982789
 11
34.99000000000001
 21
-1252.280088982789
  0
LINE
  8
15
  6
CONTINUOUS
 62
     3
 10
-62.5
 20
-1247.280088982789
 11
62.50000000000001
 21
-1247.280088982789
  0
LINE
  8
15
  6
CONTINUOUS
 62
     3
 10
34.99000000000001
 20
-1252.280088982789
 11
34.99000000000001
 21
-1247.280088982789
  0
LINE
  8
15
  6
CONTINUOUS
 62
     3
 10
-34.99000000000001
 20
-1252.280088982789
 11
-34.99000000000001
 21
-1247.280088982789
  0
LINE
  8
15
  6
CONTINUOUS
 62
     3
 10
-62.5
 20
-1183.780088982789
 11
-61.3062553097941
 21
-1183.780088982789
  0
LINE
  8
15
  6
CONTINUOUS
 62
     3
 10
-13.29374469020604
 20
-1183.780088982789
 11
57.99374469020609
 21
-1183.780088982789
  0
LINE
  8
15
  6
CONTINUOUS
 62
     3
 10
62.50000000000001
 20
-1247.280088982789
 11
62.50000000000001
 21
-1189.680088982789
  0
LINE
  8
15
  6
CONTINUOUS
 62
     3
 10
-62.5
 20
-1247.280088982789
 11
-62.5
 21
-1183.780088982789
  0
ENDBLK
  8
15
  0
BLOCK
  8
15
  2
COMP15
 70
    64
 10
0.0
 20
0.0
  0
CIRCLE
  8
15
  6
CONTINUOUS
 62
     3
 10
693.9236401309474
 20
-1070.980088982789
 40
16.875
  0
LINE
  8
15
  6
CONTINUOUS
 62
     3
 10
684.4236401309474
 20
-1061.480088982789
 11
703.4236401309474
 21
-1061.480088982789
  0
LINE
  8
15
  6
CONTINUOUS
 62
     3
 10
684.4236401309474
 20
-1080.480088982789
 11
684.4236401309474
 21
-1061.480088982789
  0
LINE
  8
15
  6
CONTINUOUS
 62
     3
 10
684.4236401309474
 20
-1080.480088982789
 11
703.4236401309474
 21
-1080.480088982789
  0
LINE
  8
15
  6
CONTINUOUS
 62
     3
 10
703.4236401309474
 20
-1080.480088982789
 11
703.4236401309474
 21
-1061.480088982789
  0
ENDBLK
  8
15
  0
BLOCK
  8
15
  2
COMP16
 70
    64
 10
0.0
 20
0.0
  0
LINE
  8
15
  6
CONTINUOUS
 62
     3
 10
670.0236401309473
 20
-1180.480088982789
 11
669.733000607099
 21
-1189.780088982789
  0
LINE
  8
15
  6
CONTINUOUS
 62
     3
 10
669.733000607099
 20
-1189.780088982789
 11
718.1142796547958
 21
-1189.780088982789
  0
LINE
  8
15
  6
CONTINUOUS
 62
     3
 10
681.1680110399425
 20
-1203.780088982789
 11
680.9236401309474
 21
-1189.780088982789
  0
LINE
  8
15
  6
CONTINUOUS
 62
     3
 10
706.6792692219524
 20
-1203.780088982789
 11
706.9236401309474
 21
-1189.780088982789
  0
LINE
  8
15
  6
CONTINUOUS
 62
     3
 10
681.1680110399425
 20
-1203.780088982789
 11
706.6792692219524
 21
-1203.780088982789
  0
LINE
  8
15
  6
CONTINUOUS
 62
     3
 10
717.8236401309475
 20
-1180.480088982789
 11
718.1142796547958
 21
-1189.780088982789
  0
ENDBLK
  8
15
  0
BLOCK
  8
15
  2
COMP17
 70
    64
 10
0.0
 20
0.0
  0
LINE
  8
15
  6
PHANTOM
 62
     6
 10
838.9236401309474
 20
-781.5300889827893
 11
838.9236401309474
 21
-762.5660648614362
  0
ARC
  8
15
  6
PHANTOM
 62
     6
 10
828.9236401309474
 20
-762.5660648614362
 40
10.0
 50
0.0
 51
83.02544333711377
  0
ARC
  8
15
  6
PHANTOM
 62
     6
 10
811.9236401309474
 20
-901.5300889827894
 40
150.0
 50
83.02544333711415
 51
96.97455666288586
  0
LINE
  8
15
  6
PHANTOM
 62
     6
 10
833.2736401309473
 20
-944.2300889827893
 11
833.2736401309473
 21
-883.2300889827893
  0
LINE
  8
15
  6
PHANTOM
 62
     6
 10
833.2736401309473
 20
-867.2300889827893
 11
833.2736401309473
 21
-789.5300889827896
  0
LINE
  8
15
  6
PHANTOM
 62
     6
 10
784.9236401309474
 20
-781.5300889827893
 11
795.1806892831428
 21
-781.5300889827893
  0
LINE
  8
15
  6
PHANTOM
 62
     6
 10
828.6665909787521
 20
-781.5300889827893
 11
838.9236401309474
 21
-781.5300889827893
  0
LINE
  8
15
  6
PHANTOM
 62
     6
 10
833.2736401309473
 20
-789.5300889827896
 11
832.8871667009958
 21
-781.5300889827893
  0
LINE
  8
15
  6
PHANTOM
 62
     6
 10
784.9236401309474
 20
-781.5300889827893
 11
784.9236401309474
 21
-762.5660648614362
  0
ARC
  8
15
  6
PHANTOM
 62
     6
 10
794.9236401309474
 20
-762.5660648614362
 40
10.0
 50
96.97455666288624
 51
180.0
  0
LINE
  8
15
  6
PHANTOM
 62
     6
 10
790.5736401309475
 20
-789.5300889827896
 11
790.5736401309475
 21
-867.2300889827893
  0
LINE
  8
15
  6
PHANTOM
 62
     6
 10
790.5736401309475
 20
-883.2300889827893
 11
790.5736401309475
 21
-944.2300889827893
  0
LINE
  8
15
  6
PHANTOM
 62
     6
 10
790.9601135608991
 20
-781.5300889827893
 11
790.5736401309475
 21
-789.5300889827896
  0
ENDBLK
  8
15
  0
BLOCK
  8
15
  2
COMP18
 70
    64
 10
0.0
 20
0.0
  0
LINE
  8
15
  6
CONTINUOUS
 62
     3
 10
726.7236401309474
 20
-1158.580088982789
 11
726.7236401309474
 21
-975.9800889827893
  0
LINE
  8
15
  6
CONTINUOUS
 62
     3
 10
724.1236401309475
 20
-975.9800889827893
 11
726.7236401309474
 21
-975.9800889827893
  0
LINE
  8
15
  6
CONTINUOUS
 62
     3
 10
721.1483498384753
 20
-945.7629650183661
 11
691.305480075536
 21
-915.3779490417576
  0
LINE
  8
15
  6
CONTINUOUS
 62
     3
 10
683.7854739857203
 20
-942.8800889827893
 11
714.1236401309475
 21
-942.8800889827893
  0
ARC
  8
15
  6
CONTINUOUS
 62
     3
 10
714.1236401309475
 20
-952.8800889827893
 40
10.0
 50
0.0
 51
90.0
  0
LINE
  8
15
  6
CONTINUOUS
 62
     3
 10
724.1236401309475
 20
-1139.780088982789
 11
724.1236401309475
 21
-952.8800889827893
  0
LINE
  8
15
  6
CONTINUOUS
 62
     3
 10
676.3236401309475
 20
-962.9800889827893
 11
721.4236401309474
 21
-962.9800889827893
  0
LINE
  8
15
  6
CONTINUOUS
 62
     3
 10
690.4236401309474
 20
-979.5800889827893
 11
690.4236401309474
 21
-962.9800889827893
  0
LINE
  8
15
  6
CONTINUOUS
 62
     3
 10
676.3236401309475
 20
-979.5800889827893
 11
721.4236401309474
 21
-979.5800889827893
  0
LINE
  8
15
  6
CONTINUOUS
 62
     3
 10
678.3313263830678
 20
-962.9800889827893
 11
678.3313263830678
 21
-939.9159444561484
  0
ARC
  8
15
  6
CONTINUOUS
 62
     3
 10
683.7854739857203
 20
-936.3800889827893
 40
6.500000000000002
 50
190.0
 51
270.0
  0
LINE
  8
15
  6
CONTINUOUS
 62
     3
 10
673.3236401309475
 20
-914.4800889827893
 11
677.3842235911409
 21
-937.5088021376243
  0
LINE
  8
15
  6
CONTINUOUS
 62
     3
 10
663.9236401309474
 20
-914.4800889827893
 11
689.1651512063388
 21
-914.4800889827893
  0
LINE
  8
15
  6
CONTINUOUS
 62
     3
 10
673.3236401309475
 20
-959.9800889827893
 11
673.3236401309475
 21
-914.4800889827893
  0
ARC
  8
15
  6
CONTINUOUS
 62
     3
 10
689.1651512063388
 20
-917.4800889827893
 40
3.0
 50
44.48426130862615
 51
90.0
  0
LINE
  8
15
  6
CONTINUOUS
 62
     3
 10
663.9236401309474
 20
-1180.480088982789
 11
663.9236401309474
 21
-914.4800889827893
  0
ARC
  8
15
  6
CONTINUOUS
 62
     3
 10
676.3236401309475
 20
-959.9800889827893
 40
3.0
 50
180.0
 51
270.0
  0
LINE
  8
15
  6
CONTINUOUS
 62
     3
 10
673.3236401309475
 20
-1042.080088982789
 11
673.3236401309475
 21
-1035.480088982789
  0
LINE
  8
15
  6
CONTINUOUS
 62
     3
 10
673.3236401309475
 20
-1035.480088982789
 11
673.3236401309475
 21
-982.5800889827893
  0
LINE
  8
15
  6
CONTINUOUS
 62
     3
 10
678.3313263830678
 20
-1042.080088982789
 11
678.3313263830678
 21
-1035.480088982789
  0
LINE
  8
15
  6
CONTINUOUS
 62
     3
 10
678.3313263830678
 20
-1035.480088982789
 11
678.3313263830678
 21
-979.5800889827893
  0
ARC
  8
15
  6
CONTINUOUS
 62
     3
 10
676.3236401309475
 20
-982.5800889827893
 40
3.0
 50
90.0
 51
180.0
  0
LINE
  8
15
  6
CONTINUOUS
 62
     3
 10
667.1236401309475
 20
-1045.080088982789
 11
672.4236401309474
 21
-1045.080088982789
  0
LINE
  8
15
  6
CONTINUOUS
 62
     3
 10
672.4236401309474
 20
-1045.080088982789
 11
715.4236401309474
 21
-1045.080088982789
  0
LINE
  8
15
  6
CONTINUOUS
 62
     3
 10
715.4236401309474
 20
-1045.080088982789
 11
718.4236401309474
 21
-1045.080088982789
  0
LINE
  8
15
  6
CONTINUOUS
 62
     3
 10
667.1236401309475
 20
-1045.080088982789
 11
667.1236401309475
 21
-1138.080088982789
  0
ARC
  8
15
  6
CONTINUOUS
 62
     3
 10
718.4236401309474
 20
-1048.080088982789
 40
3.0
 50
0.0
 51
90.0
  0
LINE
  8
15
  6
CONTINUOUS
 62
     3
 10
721.4236401309474
 20
-1135.080088982789
 11
721.4236401309474
 21
-1048.080088982789
  0
LINE
  8
15
  6
CONTINUOUS
 62
     3
 10
667.1236401309475
 20
-1138.080088982789
 11
718.4236401309474
 21
-1138.080088982789
  0
ARC
  8
15
  6
CONTINUOUS
 62
     3
 10
718.4236401309474
 20
-1135.080088982789
 40
3.0
 50
270.0
 51
0.0
  0
ARC
  8
15
  6
CONTINUOUS
 62
     3
 10
714.1236401309475
 20
-1139.780088982789
 40
10.0
 50
270.0
 51
0.0
  0
LINE
  8
15
  6
CONTINUOUS
 62
     3
 10
684.1910260413497
 20
-1149.780088982789
 11
714.1236401309475
 21
-1149.780088982789
  0
ARC
  8
15
  6
CONTINUOUS
 62
     3
 10
684.1910260413497
 20
-1156.280088982789
 40
6.5
 50
90.0
 51
170.000000000001
  0
LINE
  8
15
  6
CONTINUOUS
 62
     3
 10
678.3313263830678
 20
-1151.62898577234
 11
678.3313263830678
 21
-1138.469264397828
  0
LINE
  8
15
  6
CONTINUOUS
 62
     3
 10
673.3236401309475
 20
-1180.480088982789
 11
677.7897756467703
 21
-1155.151375827954
  0
LINE
  8
15
  6
CONTINUOUS
 62
     3
 10
673.3236401309475
 20
-1180.480088982789
 11
673.3236401309475
 21
-1141.080088982789
  0
ARC
  8
15
  6
CONTINUOUS
 62
     3
 10
676.3236401309475
 20
-1141.080088982789
 40
3.0
 50
90.0
 51
180.0
  0
LINE
  8
15
  6
CONTINUOUS
 62
     3
 10
720.4236401309474
 20
-1180.480088982789
 11
720.4236401309474
 21
-1147.546040308931
  0
LINE
  8
15
  6
CONTINUOUS
 62
     3
 10
663.9236401309474
 20
-1180.480088982789
 11
720.4236401309474
 21
-1180.480088982789
  0
ARC
  8
15
  6
CONTINUOUS
 62
     3
 10
681.3313263830678
 20
-1042.080088982789
 40
3.0
 50
180.0
 51
270.0
  0
ARC
  8
15
  6
CONTINUOUS
 62
     3
 10
676.3236401309475
 20
-1042.080088982789
 40
3.0
 50
180.0
 51
270.0
  0
LINE
  8
15
  6
CENTER
 62
     3
 10
693.9236401309474
 20
-1099.280088982789
 11
693.9236401309474
 21
-1041.967207513063
  0
LINE
  8
15
  6
CENTER
 62
     3
 10
667.1236401309475
 20
-1070.980088982789
 11
721.4236401309474
 21
-1070.980088982789
  0
LINE
  8
15
  6
CENTER
 62
     3
 10
693.9236401309474
 20
-1212.402220330446
 11
693.9236401309474
 21
-1171.463511071412
  0
LINE
  8
15
  6
CONTINUOUS
 62
     3
 10
720.4236401309474
 20
-1158.580088982789
 11
726.7236401309474
 21
-1158.580088982789
  0
ENDBLK
  8
15
  0
BLOCK
  8
15
  2
COMP19
 70
    64
 10
0.0
 20
0.0
  0
LINE
  8
15
  6
CENTER
 62
     3
 10
811.9236401309474
 20
-1187.991914401262
 11
811.9236401309474
 21
-1181.081164727418
  0
LINE
  8
15
  6
CONTINUOUS
 62
     3
 10
749.4236401309474
 20
-1194.280088982789
 11
874.4236401309474
 21
-1194.280088982789
  0
LINE
  8
15
  6
CONTINUOUS
 62
     3
 10
776.9336401309474
 20
-1252.280088982789
 11
846.9136401309474
 21
-1252.280088982789
  0
LINE
  8
15
  6
CONTINUOUS
 62
     3
 10
749.4236401309474
 20
-1247.280088982789
 11
874.4236401309474
 21
-1247.280088982789
  0
LINE
  8
15
  6
CONTINUOUS
 62
     3
 10
846.9136401309474
 20
-1252.280088982789
 11
846.9136401309474
 21
-1247.280088982789
  0
LINE
  8
15
  6
CONTINUOUS
 62
     3
 10
776.9336401309474
 20
-1252.280088982789
 11
776.9336401309474
 21
-1247.280088982789
  0
LINE
  8
15
  6
CONTINUOUS
 62
     3
 10
749.4236401309474
 20
-1183.780088982789
 11
874.4236401309474
 21
-1183.780088982789
  0
LINE
  8
15
  6
CONTINUOUS
 62
     3
 10
874.4236401309474
 20
-1247.280088982789
 11
874.4236401309474
 21
-1183.780088982789
  0
LINE
  8
15
  6
CONTINUOUS
 62
     3
 10
749.4236401309474
 20
-1247.280088982789
 11
749.4236401309474
 21
-1183.780088982789
  0
ENDBLK
  8
15
  0
ENDSEC
  0
SECTION
  2
ENTITIES
  0
INSERT
  8
15
  6
CONTINUOUS
 62
     4
  2
SUB1
 10
-82.59999999999999
 20
-296.535894021928
 41
1.0
 42
1.0
 50
0.0
  0
INSERT
  8
15
  6
CONTINUOUS
 62
     4
  2
SUB2
 10
0.0
 20
-257.115894021928
 41
1.0
 42
1.0
 50
0.0
  0
INSERT
  8
15
  6
CONTINUOUS
 62
     4
  2
SUB3
 10
0.0
 20
-257.115894021928
 41
1.0
 42
1.0
 50
0.0
  0
INSERT
  8
15
  6
CONTINUOUS
 62
     3
  2
SUB4
 10
0.0
 20
-257.115894021928
 41
1.0
 42
1.0
 50
0.0
  0
INSERT
  8
15
  6
CONTINUOUS
 62
     3
  2
COMP1
 10
0.0
 20
0.0
 41
1.0
 42
1.0
 50
0.0
  0
LINE
  8
15
  6
CENTER
 62
     3
 10
127.9666748046875
 20
-375.115894021928
 11
188.7572326660156
 21
-375.115894021928
  0
INSERT
  8
15
  6
CONTINUOUS
 62
     3
  2
COMP2
 10
0.0
 20
0.0
 41
1.0
 42
1.0
 50
0.0
  0
INSERT
  8
15
  6
CONTINUOUS
 62
     3
  2
COMP3
 10
0.0
 20
0.0
 41
1.0
 42
1.0
 50
0.0
  0
INSERT
  8
15
  6
CONTINUOUS
 62
     3
  2
COMP4
 10
0.0
 20
0.0
 41
1.0
 42
1.0
 50
0.0
  0
INSERT
  8
15
  6
CONTINUOUS
 62
     3
  2
SUB7
 10
87.0
 20
-296.535894021928
 41
1.0
 42
1.0
 50
0.0
  0
INSERT
  8
15
  6
CONTINUOUS
 62
     3
  2
COMP5
 10
0.0
 20
0.0
 41
1.0
 42
1.0
 50
0.0
  0
INSERT
  8
15
  6
PHANTOM
 62
     6
  2
COMP6
 10
0.0
 20
0.0
 41
1.0
 42
1.0
 50
0.0
  0
INSERT
  8
15
  6
CONTINUOUS
 62
     4
  2
SUB9
 10
-82.60000000000002
 20
-1079.180088982789
 41
1.0
 42
1.0
 50
0.0
  0
INSERT
  8
15
  6
CONTINUOUS
 62
     3
  2
SUB10
 10
0.0
 20
-962.3300889827893
 41
1.0
 42
1.0
 50
0.0
  0
INSERT
  8
15
  6
CONTINUOUS
 62
     3
  2
COMP7
 10
0.0
 20
0.0
 41
1.0
 42
1.0
 50
0.0
  0
INSERT
  8
15
  6
CONTINUOUS
 62
     3
  2
COMP8
 10
0.0
 20
0.0
 41
1.0
 42
1.0
 50
0.0
  0
INSERT
  8
15
  6
CONTINUOUS
 62
     3
  2
COMP9
 10
0.0
 20
0.0
 41
1.0
 42
1.0
 50
0.0
  0
INSERT
  8
15
  6
CONTINUOUS
 62
     3
  2
COMP10
 10
0.0
 20
0.0
 41
1.0
 42
1.0
 50
0.0
  0
INSERT
  8
15
  6
PHANTOM
 62
     6
  2
COMP11
 10
0.0
 20
0.0
 41
1.0
 42
1.0
 50
0.0
  0
INSERT
  8
15
  6
CONTINUOUS
 62
     3
  2
COMP12
 10
0.0
 20
0.0
 41
1.0
 42
1.0
 50
0.0
  0
INSERT
  8
15
  6
CONTINUOUS
 62
     3
  2
SUB12
 10
62.20000000000028
 20
-925.6800889827892
 41
1.0
 42
1.0
 50
0.0
  0
INSERT
  8
15
  6
CONTINUOUS
 62
     3
  2
COMP13
 10
0.0
 20
0.0
 41
1.0
 42
1.0
 50
0.0
  0
INSERT
  8
15
  6
CONTINUOUS
 62
     3
  2
COMP14
 10
0.0
 20
0.0
 41
1.0
 42
1.0
 50
0.0
  0
INSERT
  8
15
  6
CONTINUOUS
 62
     3
  2
SUB14
 10
811.9236401309474
 20
-962.3300889827893
 41
1.0
 42
1.0
 50
0.0
  0
INSERT
  8
15
  6
CONTINUOUS
 62
     3
  2
COMP15
 10
0.0
 20
0.0
 41
1.0
 42
1.0
 50
0.0
  0
INSERT
  8
15
  6
CONTINUOUS
 62
     3
  2
COMP16
 10
0.0
 20
0.0
 41
1.0
 42
1.0
 50
0.0
  0
INSERT
  8
15
  6
PHANTOM
 62
     6
  2
COMP17
 10
0.0
 20
0.0
 41
1.0
 42
1.0
 50
0.0
  0
INSERT
  8
15
  6
CONTINUOUS
 62
     3
  2
COMP18
 10
0.0
 20
0.0
 41
1.0
 42
1.0
 50
0.0
  0
INSERT
  8
15
  6
CONTINUOUS
 62
     3
  2
SUB15
 10
664.7236401309474
 20
-925.6800889827892
 41
1.0
 42
1.0
 50
0.0
  0
INSERT
  8
15
  6
CONTINUOUS
 62
     3
  2
SUB16
 10
772.5036401309474
 20
-1119.280088982789
 41
1.0
 42
1.0
 50
0.0
  0
INSERT
  8
15
  6
CONTINUOUS
 62
     3
  2
SUB17
 10
768.0036401309474
 20
-1078.980088982789
 41
1.0
 42
1.0
 50
0.0
  0
INSERT
  8
15
  6
CONTINUOUS
 62
     4
  2
SUB18
 10
811.9236401309474
 20
-1119.280088982789
 41
1.0
 42
1.0
 50
0.0
  0
INSERT
  8
15
  6
CONTINUOUS
 62
     4
  2
SUB19
 10
811.9236401309474
 20
-999.4800889827893
 41
1.0
 42
1.0
 50
0.0
  0
INSERT
  8
15
  6
CONTINUOUS
 62
     3
  2
COMP19
 10
0.0
 20
0.0
 41
1.0
 42
1.0
 50
0.0
  0
TEXT
  8
15
  6
CONTINUOUS
 62
     7
 10
432.9051818847656
 20
-418.5621643066406
 40
50.0
 41
0.6842105263157895
 50
0.0
 51
0.0
  7
STANDARD
  1
GC1201-5101L
  0
TEXT
  8
15
  6
CONTINUOUS
 62
     7
 10
432.9051818847656
 20
-499.8121643066406
 40
50.0
 41
0.6842105263157895
 50
0.0
 51
0.0
  7
STANDARD
  1
L120-10
  0
ENDSEC
  0
EOF
