  0
SECTION
  2
HEADER
  9
$ACADVER
  1
AC1006
  9
$INSBASE
 10
0.0
 20
0.0
 30
0.0
  9
$EXTMIN
 10
-380.0
 20
-24.131848144531261
  9
$EXTMAX
 10
1052.0920633417472
 20
1314.4300742457422
  9
$LIMMIN
 10
-380.0
 20
-24.131848144531261
  9
$LIMMAX
 10
1052.0920633417472
 20
1314.4300742457422
  9
$ORTHOMODE
 70
     0
  9
$REGENMODE
 70
     1
  9
$FILLMODE
 70
     1
  9
$QTEXTMODE
 70
     0
  9
$MIRRTEXT
 70
     1
  9
$DRAGMODE
 70
     2
  9
$LTSCALE
 40
1.0
  9
$OSMODE
 70
     0
  9
$ATTMODE
 70
     1
  9
$TEXTSIZE
 40
3.0
  9
$TRACEWID
 40
0.5
  9
$TEXTSTYLE
  7
STANDARD
  9
$CLAYER
  8
0
  9
$CELTYPE
  6
BYLAYER
  9
$CECOLOR
 62
   256
  9
$DIMSCALE
 40
1.0
  9
$DIMASZ
 40
3.0
  9
$DIMEXO
 40
1.0
  9
$DIMDLI
 40
5.0
  9
$DIMRND
 40
0.0
  9
$DIMDLE
 40
0.0
  9
$DIMEXE
 40
1.5
  9
$DIMTP
 40
0.0
  9
$DIMTM
 40
0.0
  9
$DIMTXT
 40
3.0
  9
$DIMCEN
 40
2.0
  9
$DIMTSZ
 40
0.0
  9
$DIMTOL
 70
     0
  9
$DIMLIM
 70
     0
  9
$DIMTIH
 70
     0
  9
$DIMTOH
 70
     0
  9
$DIMSE1
 70
     0
  9
$DIMSE2
 70
     0
  9
$DIMTAD
 70
     1
  9
$DIMZIN
 70
     8
  9
$DIMBLK
  1

  9
$DIMASO
 70
     1
  9
$DIMSHO
 70
     0
  9
$DIMPOST
  1

  9
$DIMAPOST
  1

  9
$DIMALT
 70
     0
  9
$DIMALTD
 70
     0
  9
$DIMALTF
 40
25.399999999999999
  9
$DIMLFAC
 40
1.0
  9
$DIMTOFL
 70
     0
  9
$DIMTVP
 40
1.0
  9
$DIMTIX
 70
     0
  9
$DIMSOXD
 70
     0
  9
$DIMSAH
 70
     0
  9
$DIMBLK1
  1

  9
$DIMBLK2
  1

  9
$LUNITS
 70
     2
  9
$LUPREC
 70
     4
  9
$AXISMODE
 70
     0
  9
$AXISUNIT
 10
0.0
 20
0.0
  9
$SKETCHINC
 40
1.0
  9
$FILLETRAD
 40
0.0
  9
$AUNITS
 70
     0
  9
$AUPREC
 70
     0
  9
$MENU
  1
acad
  9
$ELEVATION
 40
0.0
  9
$THICKNESS
 40
0.0
  9
$LIMCHECK
 70
     0
  9
$BLIPMODE
 70
     1
  9
$CHAMFERA
 40
0.0
  9
$CHAMFERB
 40
0.0
  9
$SKPOLY
 70
     0
  9
$TDCREATE
 40
2452543.3909953702
  9
$TDUPDATE
 40
2452543.3909953702
  9
$TDINDWG
 40
0.0
  9
$TDUSRTIMER
 40
0.0
  9
$USRTIMER
 70
     1
  9
$ANGBASE
 50
0.0
  9
$ANGDIR
 70
     0
  9
$PDMODE
 70
     0
  9
$PDSIZE
 40
0.0
  9
$PLINEWID
 40
0.0
  9
$COORDS
 70
     0
  9
$SPLFRAME
 70
     0
  9
$SPLINETYPE
 70
     6
  9
$SPLINESEGS
 70
     8
  9
$ATTDIA
 70
     0
  9
$ATTREQ
 70
     1
  9
$HANDLING
 70
     0
  9
$HANDSEED
  5
0
  9
$SURFTAB1
 70
     6
  9
$SURFTAB2
 70
     6
  9
$SURFTYPE
 70
     6
  9
$SURFU
 70
     6
  9
$SURFV
 70
     6
  9
$FLATLAND
 70
     0
  9
$UCSNAME
  2

  9
$UCSORG
 10
0.0
 20
0.0
 30
0.0
  9
$UCSXDIR
 10
1.0
 20
0.0
 30
0.0
  9
$UCSYDIR
 10
0.0
 20
1.0
 30
0.0
  9
$USERI1
 70
     0
  9
$USERI2
 70
     0
  9
$USERI3
 70
     0
  9
$USERI4
 70
     0
  9
$USERI5
 70
     0
  9
$USERR1
 40
0.0
  9
$USERR2
 40
0.0
  9
$USERR3
 40
0.0
  9
$USERR4
 40
0.0
  9
$USERR5
 40
0.0
  9
$WORLDVIEW
 70
     1
  0
ENDSEC
  0
SECTION
  2
TABLES
  0
TABLE
  2
VPORT
 70
     1
  0
VPORT
  2
*ACTIVE
 70
     0
 10
0.0
 20
0.0
 11
1.0
 21
1.0
 12
336.04603167087362
 22
645.14911305060548
 13
0.0
 23
0.0
 14
0.0
 24
0.0
 15
0.0
 25
0.0
 16
0.0
 26
0.0
 36
1.0
 17
0.0
 27
0.0
 37
0.0
 40
1338.5619223902734
 41
1.5
 42
50.0
 43
0.0
 44
0.0
 50
0.0
 51
0.0
 71
     0
 72
   100
 73
     1
 74
     1
 75
     0
 76
     0
 77
     0
 78
     0
  0
ENDTAB
  0
TABLE
  2
LTYPE
 70
    20
  0
LTYPE
  2
CONTINUOUS
 70
    64
  3
solid line
 72
    65
 73
     0
 40
0.0
  0
LTYPE
  2
CENTER
 70
    64
  3
--- - --- - --- - --- - --- -
 72
    65
 73
     4
 40
6.0
 49
3.0
 49
-1.0
 49
1.0
 49
-1.0
  0
LTYPE
  2
PHANTOM
 70
    64
  3
----- - - ----- - - ----- - -
 72
    65
 73
     6
 40
12.0
 49
7.0
 49
-1.0
 49
1.0
 49
-1.0
 49
1.0
 49
-1.0
  0
ENDTAB
  0
TABLE
  2
LAYER
 70
    20
  0
LAYER
  2
0
 70
    64
 62
     7
  6
CONTINUOUS
  0
LAYER
  2
15
 70
    64
 62
     7
  6
CONTINUOUS
  0
ENDTAB
  0
TABLE
  2
STYLE
 70
     4
  0
ENDTAB
  0
TABLE
  2
VIEW
 70
     0
  0
ENDTAB
  0
TABLE
  2
UCS
 70
     0
  0
ENDTAB
  0
TABLE
  2
DWGMGR
 70
     0
  0
ENDTAB
  0
ENDSEC
  0
SECTION
  2
BLOCKS
  0
BLOCK
  8
15
  2
SUB1
 70
    64
 10
0.0
 20
0.0
  0
LINE
  8
15
  6
CONTINUOUS
 62
     3
 10
-89.0
 20
-74.700000000000003
 11
-50.261598857157921
 21
-74.700000000000003
  0
LINE
  8
15
  6
CONTINUOUS
 62
     3
 10
-24.338401142842077
 20
-74.700000000000003
 11
69.038401142842062
 21
-74.700000000000003
  0
LINE
  8
15
  6
CONTINUOUS
 62
     3
 10
-89.0
 20
-74.700000000000003
 11
-89.0
 21
-59.861863343362671
  0
LINE
  8
15
  6
CENTER
 62
     3
 10
0.0
 20
-183.83184814453125
 11
0.0
 21
420.00000000000006
  0
ENDBLK
  8
15
  0
BLOCK
  8
15
  2
SUB2
 70
    64
 10
0.0
 20
0.0
  0
LINE
  8
15
  6
CENTER
 62
     3
 10
-51.200000000000003
 20
37.300000000000011
 11
-10.956316476113201
 21
37.300000000000011
  0
LINE
  8
15
  6
CONTINUOUS
 62
     3
 10
-50.399999999999991
 20
-33.0
 11
-50.399999999999991
 21
99.300000000000011
  0
LINE
  8
15
  6
CONTINUOUS
 62
     3
 10
-50.399999999999991
 20
99.300000000000011
 11
-30.899999999999991
 21
99.300000000000011
  0
LINE
  8
15
  6
CONTINUOUS
 62
     3
 10
-20.299999999999997
 20
-45.600000000000009
 11
-18.677087639996259
 21
-45.600000000000009
  0
LINE
  8
15
  6
CONTINUOUS
 62
     3
 10
-50.399999999999991
 20
77.300000000000296
 11
-30.899999999999991
 21
77.300000000000182
  0
LINE
  8
15
  6
CONTINUOUS
 62
     3
 10
-30.899999999999991
 20
77.300000000000153
 11
-30.899999999999991
 21
99.300000000000011
  0
LINE
  8
15
  6
CONTINUOUS
 62
     3
 10
-20.299999999999997
 20
-45.600000000000009
 11
-20.299999999999997
 21
-43.687206583529417
  0
LINE
  8
15
  6
CONTINUOUS
 62
     3
 10
-50.399999999999991
 20
-24.699999999999989
 11
-29.598929323914803
 21
-24.699999999999989
  0
LINE
  8
15
  6
CONTINUOUS
 62
     3
 10
-30.899999999999991
 20
-18.216155601373828
 11
-30.899999999999991
 21
-24.699999999999989
  0
LINE
  8
15
  6
CONTINUOUS
 62
     3
 10
-50.399999999999991
 20
-2.7000000000003013
 11
-36.960359208313164
 21
-2.700000000000216
  0
LINE
  8
15
  6
CONTINUOUS
 62
     3
 10
-48.200000000000003
 20
-24.699999999999989
 11
-48.200000000000003
 21
99.300000000000011
  0
LINE
  8
15
  6
CONTINUOUS
 62
     3
 10
-38.399999999999991
 20
53.615633773803722
 11
-38.399999999999991
 21
77.300000000000239
  0
LINE
  8
15
  6
CONTINUOUS
 62
     3
 10
-38.399999999999991
 20
73.099999999999994
 11
-30.899999999999991
 21
73.099999999999994
  0
LINE
  8
15
  6
CONTINUOUS
 62
     3
 10
-50.399999999999991
 20
-33.0
 11
-26.848947655205606
 21
-33.0
  0
LINE
  8
15
  6
CONTINUOUS
 62
     3
 10
-43.399999999999991
 20
-2.7000000000002728
 11
-43.399999999999991
 21
77.300000000000239
  0
LINE
  8
15
  6
CONTINUOUS
 62
     3
 10
-50.399999999999991
 20
-33.0
 11
-22.452586275590917
 21
-40.895457688958615
  0
ENDBLK
  8
15
  0
BLOCK
  8
15
  2
SUB3
 70
    64
 10
0.0
 20
0.0
  0
LINE
  8
15
  6
CONTINUOUS
 62
     3
 10
-89.0
 20
0.0
 11
-50.261598857157921
 21
0.0
  0
LINE
  8
15
  6
CONTINUOUS
 62
     3
 10
-24.338401142842077
 20
0.0
 11
69.038401142842062
 21
0.0
  0
LINE
  8
15
  6
CONTINUOUS
 62
     3
 10
-89.0
 20
-85.0
 11
-89.0
 21
0.0
  0
LINE
  8
15
  6
CONTINUOUS
 62
     3
 10
89.0
 20
-85.0
 11
89.0
 21
-11.800000000000011
  0
LINE
  8
15
  6
CONTINUOUS
 62
     3
 10
-89.0
 20
-10.0
 11
-50.087048207875753
 21
-10.0
  0
LINE
  8
15
  6
CONTINUOUS
 62
     3
 10
-24.512951792124255
 20
-10.0
 11
69.21295179212423
 21
-10.0
  0
LINE
  8
15
  6
CONTINUOUS
 62
     3
 10
-89.0
 20
-85.0
 11
89.0
 21
-85.0
  0
LINE
  8
15
  6
CONTINUOUS
 62
     3
 10
-49.984999999999999
 20
-94.0
 11
-49.984999999999999
 21
-85.0
  0
LINE
  8
15
  6
CONTINUOUS
 62
     3
 10
49.984999999999999
 20
-94.0
 11
49.985000000000014
 21
-85.0
  0
LINE
  8
15
  6
CONTINUOUS
 62
     3
 10
-49.984999999999999
 20
-94.0
 11
49.984999999999999
 21
-94.0
  0
LINE
  8
15
  6
CENTER
 62
     3
 10
0.0
 20
-8.28704833984375
 11
0.0
 21
6.7358894348144531
  0
ENDBLK
  8
15
  0
BLOCK
  8
15
  2
SUB4
 70
    64
 10
0.0
 20
0.0
  0
LINE
  8
15
  6
CONTINUOUS
 62
     3
 10
-58.0
 20
18.800000000000011
 11
-12.5
 21
18.800000000000011
  0
LINE
  8
15
  6
CONTINUOUS
 62
     3
 10
12.5
 20
18.800000000000011
 11
58.0
 21
18.800000000000011
  0
LINE
  8
15
  6
CONTINUOUS
 62
     3
 10
-58.0
 20
8.5499999999997272
 11
-58.0
 21
18.800000000000011
  0
LINE
  8
15
  6
CONTINUOUS
 62
     3
 10
58.0
 20
8.5499999999997272
 11
58.0
 21
18.800000000000011
  0
LINE
  8
15
  6
CONTINUOUS
 62
     3
 10
-219.0
 20
79.800000000000011
 11
219.0
 21
79.800000000000011
  0
LINE
  8
15
  6
CONTINUOUS
 62
     3
 10
-219.0
 20
60.800000000000011
 11
219.0
 21
60.800000000000011
  0
ARC
  8
15
  6
CONTINUOUS
 62
     3
 10
219.0
 20
70.300000000000011
 40
9.5
 50
270.0
 51
90.0
  0
ARC
  8
15
  6
CONTINUOUS
 62
     3
 10
-219.0
 20
70.300000000000011
 40
9.5
 50
90.0
 51
270.0
  0
LINE
  8
15
  6
CONTINUOUS
 62
     3
 10
-12.5
 20
12.462809430412904
 11
-12.5
 21
60.800000000000011
  0
LINE
  8
15
  6
CONTINUOUS
 62
     3
 10
12.5
 20
12.462809430412904
 11
12.5
 21
60.800000000000011
  0
LINE
  8
15
  6
CONTINUOUS
 62
     3
 10
207.0
 20
104.80000000000001
 11
202.0
 21
161.53684817440399
  0
LINE
  8
15
  6
CONTINUOUS
 62
     3
 10
231.0
 20
104.80000000000001
 11
236.0
 21
161.53684817440399
  0
LINE
  8
15
  6
CONTINUOUS
 62
     3
 10
209.75
 20
175.79999999999995
 11
228.25
 21
175.79999999999995
  0
ARC
  8
15
  6
CONTINUOUS
 62
     3
 10
219.0
 20
161.53684817440399
 40
17.0
 50
0.0
 51
57.035612676244767
  0
ARC
  8
15
  6
CONTINUOUS
 62
     3
 10
219.0
 20
161.53684817440399
 40
17.0
 50
122.96438732375523
 51
180.0
  0
LINE
  8
15
  6
CONTINUOUS
 62
     3
 10
207.0
 20
82.800000000000011
 11
231.0
 21
82.800000000000011
  0
LINE
  8
15
  6
CONTINUOUS
 62
     3
 10
214.0
 20
79.800000000000011
 11
214.0
 21
82.800000000000011
  0
LINE
  8
15
  6
CONTINUOUS
 62
     3
 10
224.0
 20
78.377747210701784
 11
224.0
 21
82.800000000000011
  0
LINE
  8
15
  6
CONTINUOUS
 62
     3
 10
207.0
 20
82.800000000000011
 11
207.0
 21
104.80000000000001
  0
LINE
  8
15
  6
CONTINUOUS
 62
     3
 10
231.0
 20
82.800000000000011
 11
231.0
 21
104.80000000000001
  0
LINE
  8
15
  6
CONTINUOUS
 62
     3
 10
-12.5
 20
12.462809430412904
 11
12.5
 21
12.462809430412904
  0
LINE
  8
15
  6
CONTINUOUS
 62
     3
 10
-58.0
 20
18.800000000000011
 11
-181.69158743819244
 21
60.800000000000011
  0
LINE
  8
15
  6
CONTINUOUS
 62
     3
 10
-58.0
 20
12.463542443759025
 11
-200.35269443500619
 21
60.800000000000011
  0
LINE
  8
15
  6
CONTINUOUS
 62
     3
 10
58.0
 20
12.463542443759025
 11
200.35269443500619
 21
60.800000000000011
  0
LINE
  8
15
  6
CONTINUOUS
 62
     3
 10
58.0
 20
18.800000000000011
 11
181.69158743819244
 21
60.800000000000011
  0
ENDBLK
  8
15
  0
BLOCK
  8
15
  2
SUB5
 70
    64
 10
0.0
 20
0.0
  0
LINE
  8
15
  6
CONTINUOUS
 62
     3
 10
-202.10000000000002
 20
-107.8838443986262
 11
-202.10000000000002
 21
17.883844398626138
  0
LINE
  8
15
  6
CONTINUOUS
 62
     3
 10
71.700000000000017
 20
-130.0
 11
71.700000000000017
 21
40.0
  0
LINE
  8
15
  6
CONTINUOUS
 62
     3
 10
-154.10000000000002
 20
-178.0
 11
23.700000000000003
 21
-178.0
  0
LINE
  8
15
  6
CONTINUOUS
 62
     3
 10
-154.10000000000002
 20
88.0
 11
23.700000000000003
 21
88.0
  0
ARC
  8
15
  6
CONTINUOUS
 62
     3
 10
23.700000000000003
 20
40.0
 40
48.0
 50
0.0
 51
90.0
  0
ARC
  8
15
  6
CONTINUOUS
 62
     3
 10
23.700000000000017
 20
-130.0
 40
48.0
 50
270.0
 51
0.0
  0
ARC
  8
15
  6
CONTINUOUS
 62
     3
 10
-154.10000000000002
 20
-130.0
 40
48.0
 50
185.62807557734359
 51
270.0
  0
ARC
  8
15
  6
CONTINUOUS
 62
     3
 10
-154.10000000000002
 20
40.0
 40
48.000000000000007
 50
90.0
 51
174.37192442265649
  0
ARC
  8
15
  6
CONTINUOUS
 62
     3
 10
-190.90000000000001
 20
31.199999999999989
 40
17.399999999999995
 50
129.07817340706404
 51
229.93335928453038
  0
ARC
  8
15
  6
CONTINUOUS
 62
     3
 10
-190.90000000000001
 20
-121.19999999999999
 40
17.399999999999995
 50
130.06664071546973
 51
230.92182659293607
  0
LINE
  8
15
  6
CONTINUOUS
 62
     3
 10
-145.19999999999999
 20
-179.5
 11
-85.200000000000003
 21
-179.5
  0
LINE
  8
15
  6
CONTINUOUS
 62
     3
 10
-25.90000000000002
 20
-179.5
 11
34.099999999999994
 21
-179.5
  0
LINE
  8
15
  6
CONTINUOUS
 62
     3
 10
73.200000000000017
 20
-160.69999999999999
 11
73.200000000000017
 21
-61.600000000000023
  0
LINE
  8
15
  6
CONTINUOUS
 62
     3
 10
60.598644961570102
 20
-160.69999999999999
 11
73.200000000000017
 21
-160.69999999999999
  0
LINE
  8
15
  6
CONTINUOUS
 62
     3
 10
71.700000000000017
 20
-61.600000000000023
 11
73.200000000000017
 21
-61.600000000000023
  0
LINE
  8
15
  6
CENTER
 62
     3
 10
-115.2
 20
-210.17459564208986
 11
-115.2
 21
-169.99351959228517
  0
LINE
  8
15
  6
CENTER
 62
     3
 10
4.0999999999999943
 20
-210.17459564208986
 11
4.0999999999999943
 21
-169.99351959228517
  0
LINE
  8
15
  6
CONTINUOUS
 62
     3
 10
-145.19999999999999
 20
-179.5
 11
-145.19999999999999
 21
-178.0
  0
LINE
  8
15
  6
CONTINUOUS
 62
     3
 10
-85.200000000000003
 20
-179.5
 11
-85.200000000000003
 21
-178.0
  0
LINE
  8
15
  6
CONTINUOUS
 62
     3
 10
-25.90000000000002
 20
-179.5
 11
-25.90000000000002
 21
-178.0
  0
LINE
  8
15
  6
CONTINUOUS
 62
     3
 10
34.09999999999998
 20
-179.5
 11
34.09999999999998
 21
-176.85979086594392
  0
LINE
  8
15
  6
CENTER
 62
     3
 10
64.697290039062494
 20
-87.600000000000023
 11
99.926934814453119
 21
-87.600000000000023
  0
ENDBLK
  8
15
  0
BLOCK
  8
15
  2
SUB6
 70
    64
 10
0.0
 20
0.0
  0
LINE
  8
15
  6
CENTER
 62
     3
 10
-175.93866958618167
 20
-33.499999999999602
 11
-102.21381607055665
 21
-33.499999999999602
  0
LINE
  8
15
  6
CONTINUOUS
 62
     3
 10
11.199999999999989
 20
-161.0999999999996
 11
11.200000000000045
 21
8.6999999999986812
  0
LINE
  8
15
  6
CONTINUOUS
 62
     3
 10
-262.60000000000002
 20
-161.0999999999996
 11
-262.60000000000002
 21
8.6999999999923716
  0
LINE
  8
15
  6
CONTINUOUS
 62
     3
 10
-214.60000000000173
 20
56.699999999992372
 11
-36.800000000001702
 21
56.699999999998681
  0
LINE
  8
15
  6
CONTINUOUS
 62
     3
 10
-214.60000000000002
 20
-209.0999999999996
 11
-36.800000000000026
 21
-209.0999999999996
  0
ARC
  8
15
  6
CONTINUOUS
 62
     3
 10
-214.60000000000002
 20
-161.0999999999996
 40
48.0
 50
180.0
 51
270.0
  0
ARC
  8
15
  6
CONTINUOUS
 62
     3
 10
-36.800000000000026
 20
-161.0999999999996
 40
48.0
 50
270.0
 51
0.0
  0
ARC
  8
15
  6
CONTINUOUS
 62
     3
 10
-36.799999999999997
 20
8.6999999999986812
 40
48.0
 50
0.0
 51
90.0
  0
ARC
  8
15
  6
CONTINUOUS
 62
     3
 10
-214.60000000000002
 20
8.6999999999923716
 40
48.0
 50
90.0
 51
180.0
  0
ARC
  8
15
  6
CONTINUOUS
 62
     3
 10
-36.799999999999997
 20
8.6999999999986812
 40
18.0
 50
0.0
 51
90.0
  0
LINE
  8
15
  6
CONTINUOUS
 62
     3
 10
-214.60000000000002
 20
26.699999999998681
 11
-36.799999999999997
 21
26.699999999998681
  0
ARC
  8
15
  6
CONTINUOUS
 62
     3
 10
-36.799999999999997
 20
-161.0999999999996
 40
18.0
 50
270.0
 51
0.0
  0
ARC
  8
15
  6
CONTINUOUS
 62
     3
 10
-214.60000000000002
 20
-161.0999999999996
 40
18.0
 50
180.0
 51
270.0
  0
ARC
  8
15
  6
CONTINUOUS
 62
     3
 10
-214.60000000000002
 20
8.6999999999986812
 40
18.0
 50
90.0
 51
180.0
  0
LINE
  8
15
  6
CONTINUOUS
 62
     3
 10
-18.799999999999997
 20
-161.0999999999996
 11
-18.799999999999997
 21
8.6999999999986812
  0
LINE
  8
15
  6
CONTINUOUS
 62
     3
 10
-232.60000000000002
 20
-161.0999999999996
 11
-232.60000000000002
 21
8.6999999999986812
  0
LINE
  8
15
  6
CONTINUOUS
 62
     3
 10
-214.60000000000002
 20
-179.0999999999996
 11
-36.799999999999997
 21
-179.0999999999996
  0
CIRCLE
  8
15
  6
CONTINUOUS
 62
     3
 10
-138.40000000000001
 20
-33.499999999999602
 40
28.574999999999999
  0
ENDBLK
  8
15
  0
BLOCK
  8
15
  2
SUB7
 70
    64
 10
0.0
 20
0.0
  0
LINE
  8
15
  6
CONTINUOUS
 62
     3
 10
55.600000000000136
 20
50.860000000000014
 11
57.700000000000045
 21
50.860000000000014
  0
LINE
  8
15
  6
CONTINUOUS
 62
     3
 10
57.700000000000045
 20
25.676608206469041
 11
57.700000000000045
 21
50.860000000000014
  0
ENDBLK
  8
15
  0
BLOCK
  8
15
  2
SUB8
 70
    64
 10
0.0
 20
0.0
  0
LINE
  8
15
  6
CONTINUOUS
 62
     3
 10
-89.0
 20
-84.999999999999986
 11
-89.0
 21
0.0
  0
LINE
  8
15
  6
CONTINUOUS
 62
     3
 10
-89.0
 20
-84.999999999999986
 11
89.0
 21
-84.999999999999986
  0
LINE
  8
15
  6
CONTINUOUS
 62
     3
 10
-89.0
 20
0.0
 11
89.0
 21
0.0
  0
LINE
  8
15
  6
CONTINUOUS
 62
     3
 10
-89.0
 20
-10.0
 11
89.0
 21
-10.0
  0
LINE
  8
15
  6
CONTINUOUS
 62
     3
 10
89.0
 20
-84.999999999999986
 11
89.0
 21
0.0
  0
LINE
  8
15
  6
CONTINUOUS
 62
     3
 10
-49.9849999999999
 20
-93.999999999999986
 11
-49.9849999999999
 21
-84.999999999999986
  0
LINE
  8
15
  6
CONTINUOUS
 62
     3
 10
-49.9849999999999
 20
-93.999999999999986
 11
49.985000000000127
 21
-93.999999999999986
  0
LINE
  8
15
  6
CONTINUOUS
 62
     3
 10
49.985000000000127
 20
-93.999999999999986
 11
49.985000000000127
 21
-84.999999999999986
  0
LINE
  8
15
  6
CENTER
 62
     3
 10
0.0
 20
-8.28704833984375
 11
0.0
 21
6.7358894348144531
  0
ENDBLK
  8
15
  0
BLOCK
  8
15
  2
SUB9
 70
    64
 10
0.0
 20
0.0
  0
LINE
  8
15
  6
CONTINUOUS
 62
     3
 10
-24.700000000000045
 20
34.299999999999983
 11
-20.605951326836475
 21
34.299999999999983
  0
LINE
  8
15
  6
CONTINUOUS
 62
     3
 10
13.005951326836566
 20
34.299999999999983
 11
24.700000000000045
 21
34.299999999999983
  0
LINE
  8
15
  6
CONTINUOUS
 62
     3
 10
-34.299999999999955
 20
24.699999999999989
 11
-34.299999999999955
 21
-24.700000000000017
  0
LINE
  8
15
  6
CONTINUOUS
 62
     3
 10
-24.700000000000045
 20
-34.299999999999997
 11
24.700000000000045
 21
-34.299999999999983
  0
LINE
  8
15
  6
CONTINUOUS
 62
     3
 10
34.299999999999955
 20
24.699999999999989
 11
34.299999999999955
 21
-24.700000000000017
  0
ARC
  8
15
  6
CONTINUOUS
 62
     3
 10
-24.700000000000045
 20
-24.700000000000017
 40
9.6000000000000014
 50
180.0
 51
270.0
  0
ARC
  8
15
  6
CONTINUOUS
 62
     3
 10
24.700000000000045
 20
-24.699999999999989
 40
9.6000000000000014
 50
270.0
 51
359.99999999999983
  0
ARC
  8
15
  6
CONTINUOUS
 62
     3
 10
24.700000000000045
 20
24.699999999999989
 40
9.5999999999999943
 50
0.0
 51
90.0
  0
ARC
  8
15
  6
CONTINUOUS
 62
     3
 10
-3.7999999999999545
 20
62.699999999999989
 40
33.0
 50
239.38469958991544
 51
300.61530041008456
  0
CIRCLE
  8
15
  6
CONTINUOUS
 62
     3
 10
0.0
 20
0.0
 40
16.741412011995152
  0
CIRCLE
  8
15
  6
CONTINUOUS
 62
     3
 10
0.0
 20
0.0
 40
27.018246803570488
  0
ARC
  8
15
  6
CONTINUOUS
 62
     3
 10
24.700000000000045
 20
-24.699999999999989
 40
9.5999999999999943
 50
270.0
 51
0.0
  0
ARC
  8
15
  6
CONTINUOUS
 62
     3
 10
-24.700000000000045
 20
-24.700000000000017
 40
9.5999999999999943
 50
180.0
 51
270.0
  0
ARC
  8
15
  6
CONTINUOUS
 62
     3
 10
-24.700000000000045
 20
24.699999999999989
 40
9.5999999999999943
 50
90.0
 51
180.0
  0
ENDBLK
  8
15
  0
BLOCK
  8
15
  2
SUB10
 70
    64
 10
0.0
 20
0.0
  0
LINE
  8
15
  6
CONTINUOUS
 62
     3
 10
0.0
 20
-164.19999999999999
 11
0.0
 21
39.5
  0
LINE
  8
15
  6
CONTINUOUS
 62
     3
 10
-61.799999999999955
 20
88.0
 11
-33.599999999999909
 21
88.0
  0
LINE
  8
15
  6
CONTINUOUS
 62
     3
 10
-61.799999999999955
 20
-178.0
 11
-52.399999999999864
 21
-178.0
  0
LINE
  8
15
  6
CONTINUOUS
 62
     3
 10
-58.599999999999909
 20
-179.5
 11
-1.7999999999999545
 21
-179.5
  0
LINE
  8
15
  6
CONTINUOUS
 62
     3
 10
-58.599999999999909
 20
-160.69999999999999
 11
-1.7000000000000455
 21
-160.69999999999999
  0
LINE
  8
15
  6
CONTINUOUS
 62
     3
 10
-1.7999999999999545
 20
-164.19999999999999
 11
0.0
 21
-164.19999999999999
  0
LINE
  8
15
  6
CONTINUOUS
 62
     3
 10
-58.599999999999909
 20
-61.600000000000023
 11
-1.7000000000000455
 21
-61.600000000000023
  0
LINE
  8
15
  6
CONTINUOUS
 62
     3
 10
-1.7000000000000455
 20
39.5
 11
0.0
 21
39.5
  0
LINE
  8
15
  6
CONTINUOUS
 62
     3
 10
-41.938166145227342
 20
59.599999999999966
 11
-11.700000000000045
 21
59.599999999999966
  0
LINE
  8
15
  6
CONTINUOUS
 62
     3
 10
-52.200000000000045
 20
39.5
 11
-6.119478702545166
 21
39.5
  0
LINE
  8
15
  6
CONTINUOUS
 62
     3
 10
-52.200000000000045
 20
22.899999999999977
 11
-6.119478702545166
 21
22.899999999999977
  0
LINE
  8
15
  6
CONTINUOUS
 62
     3
 10
-61.799999999999955
 20
-178.0
 11
-61.799999999999955
 21
88.0
  0
LINE
  8
15
  6
CONTINUOUS
 62
     3
 10
-58.599999999999909
 20
-179.5
 11
-58.599999999999909
 21
-178.0
  0
LINE
  8
15
  6
CONTINUOUS
 62
     3
 10
-58.599999999999909
 20
-160.69999999999999
 11
-58.599999999999909
 21
-61.600000000000023
  0
LINE
  8
15
  6
CONTINUOUS
 62
     3
 10
-52.399999999999864
 20
-178.0
 11
-52.399999999999864
 21
-160.69999999999999
  0
LINE
  8
15
  6
CONTINUOUS
 62
     3
 10
-52.399999999999864
 20
-61.600000000000023
 11
-52.399999999999864
 21
22.899999999999977
  0
LINE
  8
15
  6
CONTINUOUS
 62
     3
 10
-52.399999999999864
 20
39.5
 11
-52.399999999999864
 21
88.0
  0
LINE
  8
15
  6
CONTINUOUS
 62
     3
 10
-52.400001076214494
 20
88.000006103515602
 11
-48.339416539806507
 21
64.971286845164911
  0
LINE
  8
15
  6
CONTINUOUS
 62
     3
 10
-47.392313747879598
 20
-61.600000000000023
 11
-47.392313747879598
 21
22.899999999999977
  0
LINE
  8
15
  6
CONTINUOUS
 62
     3
 10
-47.392313747879598
 20
39.5
 11
-47.392313747879598
 21
59.481779479980446
  0
ARC
  8
15
  6
CONTINUOUS
 62
     3
 10
-41.938166145227342
 20
66.099999999999966
 40
6.4999999999999991
 50
190.00000000000034
 51
270.0
  0
LINE
  8
15
  6
CONTINUOUS
 62
     3
 10
-1.7999999999999545
 20
-179.5
 11
-1.7999999999999545
 21
-160.69999999999999
  0
LINE
  8
15
  6
CONTINUOUS
 62
     3
 10
-1.7000000000000455
 20
-160.69999999999999
 11
-1.7000000000000455
 21
49.599999999999966
  0
ARC
  8
15
  6
CONTINUOUS
 62
     3
 10
-11.700000000000045
 20
49.599999999999966
 40
10.0
 50
0.0
 51
90.0
  0
LINE
  8
15
  6
CONTINUOUS
 62
     3
 10
-4.6582588851051696
 20
56.700273380004376
 11
-33.599999999999909
 21
88.0
  0
LINE
  8
15
  6
CENTER
 62
     3
 10
-31.799999999999955
 20
-108.84447555541993
 11
-31.799999999999955
 21
-65.621598052978527
  0
LINE
  8
15
  6
CENTER
 62
     3
 10
-31.799999999999955
 20
-210.08206634521486
 11
-31.799999999999955
 21
-170.893318939209
  0
LINE
  8
15
  6
CONTINUOUS
 62
     3
 10
-33.799999999999955
 20
22.899999999999977
 11
-33.799999999999955
 21
39.5
  0
LINE
  8
15
  6
CENTER
 62
     3
 10
-54.195298767089753
 20
-87.600000000000023
 11
-9.4356056213377997
 21
-87.600000000000023
  0
ENDBLK
  8
15
  0
BLOCK
  8
15
  2
SUB11
 70
    64
 10
0.0
 20
0.0
  0
LINE
  8
15
  6
CONTINUOUS
 62
     3
 10
0.0
 20
-209.10000000000304
 11
0.0
 21
56.699999999995271
  0
LINE
  8
15
  6
CONTINUOUS
 62
     3
 10
-9.0
 20
56.699999999995271
 11
0.0
 21
56.699999999995271
  0
LINE
  8
15
  6
CONTINUOUS
 62
     3
 10
-9.0
 20
-209.10000000000304
 11
0.0
 21
-209.10000000000304
  0
LINE
  8
15
  6
CONTINUOUS
 62
     3
 10
-9.0
 20
-209.10000000000304
 11
-9.0
 21
56.699999999995271
  0
LINE
  8
15
  6
CONTINUOUS
 62
     3
 10
-189.0
 20
-159.10000000000304
 11
-189.0
 21
6.6999999999952706
  0
LINE
  8
15
  6
CONTINUOUS
 62
     3
 10
-169.0
 20
26.699999999995271
 11
-9.0
 21
26.699999999995271
  0
LINE
  8
15
  6
CONTINUOUS
 62
     3
 10
-169.0
 20
-179.10000000000304
 11
-9.0
 21
-179.10000000000304
  0
ARC
  8
15
  6
CONTINUOUS
 62
     3
 10
-169.0
 20
6.6999999999952706
 40
20.0
 50
90.0
 51
180.0
  0
ARC
  8
15
  6
CONTINUOUS
 62
     3
 10
-169.0
 20
-159.10000000000304
 40
20.0
 50
180.0
 51
270.0
  0
ENDBLK
  8
15
  0
BLOCK
  8
15
  2
SUB12
 70
    64
 10
0.0
 20
0.0
  0
ARC
  8
15
  6
CONTINUOUS
 62
     3
 10
-25.5
 20
32.760000000000019
 40
9.7000000000000171
 50
90.0
 51
180.0
  0
ARC
  8
15
  6
CONTINUOUS
 62
     3
 10
38.200000000000045
 20
-10.140000000000015
 40
9.7000000000000046
 50
270.0
 51
304.43763004068683
  0
LINE
  8
15
  6
CONTINUOUS
 62
     3
 10
-35.199999999999818
 20
32.760000000000019
 11
-35.199999999999818
 21
-10.140000000000015
  0
LINE
  8
15
  6
CONTINUOUS
 62
     3
 10
-25.5
 20
42.460000000000036
 11
21.953903345590334
 21
42.460000000000036
  0
ARC
  8
15
  6
CONTINUOUS
 62
     3
 10
-25.5
 20
-10.140000000000015
 40
9.6999999999999993
 50
180.0
 51
270.0
  0
ARC
  8
15
  6
CONTINUOUS
 62
     3
 10
0.0
 20
7.2600000000000193
 40
31.800000000000004
 50
238.45190363760037
 51
301.54809636239997
  0
ARC
  8
15
  6
CONTINUOUS
 62
     3
 10
0.0
 20
0.0
 40
20.0
 50
270.0
 51
318.59037789072914
  0
ARC
  8
15
  6
CONTINUOUS
 62
     3
 10
0.0
 20
0.0
 40
20.0
 50
91.468847832627475
 51
270.0
  0
LINE
  8
15
  6
CONTINUOUS
 62
     3
 10
15.0
 20
-5.4999999999999716
 11
15.0
 21
-19.840000000000003
  0
LINE
  8
15
  6
CONTINUOUS
 62
     3
 10
28.700000000000045
 20
8.2000000000000171
 11
28.700000000000045
 21
-19.840000000000003
  0
LINE
  8
15
  6
CONTINUOUS
 62
     3
 10
-25.5
 20
-19.840000000000003
 11
-16.638209038234663
 21
-19.840000000000003
  0
LINE
  8
15
  6
CONTINUOUS
 62
     3
 10
15.0
 20
-19.840000000000003
 11
38.200000000000045
 21
-19.840000000000003
  0
LINE
  8
15
  6
CONTINUOUS
 62
     3
 10
53.200000000000045
 20
32.693903345590144
 11
53.200000000000045
 21
-18.140000000000015
  0
LINE
  8
15
  6
CONTINUOUS
 62
     3
 10
30.200000000000045
 20
9.6939033455901438
 11
30.200000000000045
 21
-10.140000000000015
  0
LINE
  8
15
  6
CONTINUOUS
 62
     3
 10
44.366096654410057
 20
23.859999999999985
 11
53.200000000000045
 21
23.859999999999985
  0
LINE
  8
15
  6
CONTINUOUS
 62
     3
 10
38.200000000000045
 20
-18.140000000000015
 11
53.200000000000045
 21
-18.140000000000015
  0
LINE
  8
15
  6
CONTINUOUS
 62
     3
 10
51.100000000000136
 20
23.859999999999985
 11
51.100000000000136
 21
-18.140000000000015
  0
ARC
  8
15
  6
CONTINUOUS
 62
     3
 10
38.200000000000045
 20
-10.140000000000015
 40
8.0
 50
180.0
 51
270.0
  0
ARC
  8
15
  6
CONTINUOUS
 62
     3
 10
32.400000000000091
 20
42.860000000000014
 40
8.000000000000016
 50
107.61774664165681
 51
162.38225335834179
  0
LINE
  8
15
  6
CONTINUOUS
 62
     3
 10
-10.253048327204851
 20
10.253048327204937
 11
112.21784617430512
 21
132.72394282871505
  0
LINE
  8
15
  6
CONTINUOUS
 62
     3
 10
10.253048327205079
 20
-10.253048327204937
 11
132.72394282871505
 21
112.21784617430512
  0
ARC
  8
15
  6
CONTINUOUS
 62
     3
 10
0.0
 20
0.0
 40
14.5
 50
134.99999999999977
 51
315.0000000000004
  0
LINE
  8
15
  6
CONTINUOUS
 62
     3
 10
118.7232285612215
 20
132.72394282871505
 11
132.72394282871505
 21
118.72322856122139
  0
LINE
  8
15
  6
CONTINUOUS
 62
     3
 10
3.9597979746447436
 20
17.253405460951768
 11
17.253405460951853
 21
3.9597979746446583
  0
LINE
  8
15
  6
CONTINUOUS
 62
     3
 10
17.253405460951853
 20
3.9597979746446583
 11
123.74368670764602
 21
110.4500792213388
  0
LINE
  8
15
  6
CONTINUOUS
 62
     3
 10
3.9597979746447436
 20
17.253405460951768
 11
26.375082938258402
 21
39.668690424565312
  0
LINE
  8
15
  6
CONTINUOUS
 62
     3
 10
31.819805153394782
 20
52.325901807804541
 11
36.840263299819298
 21
47.305443661380082
  0
LINE
  8
15
  6
CONTINUOUS
 62
     3
 10
22.768838354206991
 20
43.274935008616751
 11
27.789296500631508
 21
38.254476862192206
  0
ARC
  8
15
  6
CONTINUOUS
 62
     3
 10
32.314779900225403
 20
42.779960261786186
 40
6.3999999999999915
 50
225.00000000000054
 51
45.0
  0
LINE
  8
15
  6
CONTINUOUS
 62
     3
 10
117.59185771132297
 20
120.1374421235945
 11
123.74368670764602
 21
113.98561312727145
  0
LINE
  8
15
  6
CONTINUOUS
 62
     3
 10
121.19810229537438
 20
123.74368670764579
 11
127.3499312916972
 21
117.59185771132286
  0
ARC
  8
15
  6
CONTINUOUS
 62
     3
 10
121.97591975467958
 20
112.21784617430512
 40
7.5999999999999943
 50
314.99999999999937
 51
45.000000000000611
  0
ARC
  8
15
  6
CONTINUOUS
 62
     3
 10
121.97591975467958
 20
112.21784617430512
 40
2.5
 50
315.00000000000182
 51
44.99999999999816
  0
LINE
  8
15
  6
CONTINUOUS
 62
     3
 10
114.3391665178649
 20
116.88475093013631
 11
117.59185771132297
 21
120.1374421235945
  0
LINE
  8
15
  6
CONTINUOUS
 62
     3
 10
121.19810229537438
 20
123.74368670764579
 11
124.45079348883246
 21
126.99637790110398
  0
LINE
  8
15
  6
CONTINUOUS
 62
     3
 10
110.63805417289882
 20
130.69749024607006
 11
124.45079348883246
 21
126.99637790110398
  0
LINE
  8
15
  6
CONTINUOUS
 62
     3
 10
110.63805417289882
 20
130.69749024607006
 11
114.3391665178649
 21
116.88475093013631
  0
ARC
  8
15
  6
CONTINUOUS
 62
     3
 10
129.47125163525698
 20
115.4705373677632
 40
4.5999999999999943
 50
315.0
 51
45.000000000001002
  0
ARC
  8
15
  6
CONTINUOUS
 62
     3
 10
115.4705373677632
 20
129.47125163525686
 40
4.5999999999999943
 50
44.999999999998998
 51
134.99999999999901
  0
LINE
  8
15
  6
CONTINUOUS
 62
     3
 10
40.933475591417618
 20
61.439572245827321
 11
61.439572245827321
 21
40.933475591417505
  0
LINE
  8
15
  6
CONTINUOUS
 62
     3
 10
34.548380705340833
 20
55.054477359750535
 11
55.054477359750763
 21
34.548380705340691
  0
CIRCLE
  8
15
  6
CONTINUOUS
 62
     3
 10
32.314779900225403
 20
42.779960261786186
 40
3.5
  0
LINE
  8
15
  6
CONTINUOUS
 62
     3
 10
7.7074639149334416
 20
28.21356056934323
 11
28.213560569343372
 21
7.7074639149333564
  0
ENDBLK
  8
15
  0
BLOCK
  8
15
  2
SUB13
 70
    64
 10
0.0
 20
0.0
  0
LINE
  8
15
  6
CONTINUOUS
 62
     3
 10
-59.5
 20
40.450000000000273
 11
-58.5
 21
41.450000000000273
  0
LINE
  8
15
  6
CONTINUOUS
 62
     3
 10
59.5
 20
40.450000000000273
 11
58.5
 21
41.450000000000273
  0
LINE
  8
15
  6
CONTINUOUS
 62
     3
 10
-58.5
 20
41.450000000000273
 11
43.44390334559057
 21
41.450000000000273
  0
LINE
  8
15
  6
CONTINUOUS
 62
     3
 10
43.44390334559057
 20
41.450000000000273
 11
49.497171389936057
 21
41.450000000000273
  0
LINE
  8
15
  6
CONTINUOUS
 62
     3
 10
49.497171389936057
 20
41.450000000000273
 11
58.5
 21
41.450000000000273
  0
LINE
  8
15
  6
CONTINUOUS
 62
     3
 10
59.5
 20
36.049999999999955
 11
59.5
 21
40.450000000000273
  0
LINE
  8
15
  6
CONTINUOUS
 62
     3
 10
-59.5
 20
36.049999999999955
 11
-59.5
 21
40.450000000000273
  0
LINE
  8
15
  6
CONTINUOUS
 62
     3
 10
59.800000000000182
 20
36.049999999999955
 11
54.897171389936375
 21
36.049999999999955
  0
LINE
  8
15
  6
CONTINUOUS
 62
     3
 10
54.897171389936375
 20
36.049999999999955
 11
38.043903345590252
 21
36.049999999999955
  0
LINE
  8
15
  6
CONTINUOUS
 62
     3
 10
38.043903345590252
 20
36.049999999999955
 11
-59.799999999999955
 21
36.049999999999955
  0
LINE
  8
15
  6
CONTINUOUS
 62
     3
 10
-70.499999999999773
 20
0.0
 11
-70.499999999999773
 21
10.449999999999932
  0
LINE
  8
15
  6
CONTINUOUS
 62
     3
 10
70.5
 20
0.0
 11
50.266096654409921
 21
0.0
  0
LINE
  8
15
  6
CONTINUOUS
 62
     3
 10
9.2539033455900608
 20
0.0
 11
1.9939033455902972
 21
0.0
  0
LINE
  8
15
  6
CONTINUOUS
 62
     3
 10
1.9939033455902972
 20
0.0
 11
-70.499999999999773
 21
0.0
  0
LINE
  8
15
  6
CONTINUOUS
 62
     3
 10
59.947734420132292
 20
33.231059335976397
 11
61.873408558684105
 21
29.073762831252225
  0
LINE
  8
15
  6
CONTINUOUS
 62
     3
 10
61.873408558684105
 20
29.073762831252225
 11
64.86624631372365
 21
22.612589733923869
  0
LINE
  8
15
  6
CONTINUOUS
 62
     3
 10
64.86624631372365
 20
22.612589733923869
 11
70.5
 21
10.449999999999932
  0
LINE
  8
15
  6
CONTINUOUS
 62
     3
 10
-59.947734420132065
 20
33.231059335976397
 11
-70.499999999999773
 21
10.449999999999932
  0
LINE
  8
15
  6
CONTINUOUS
 62
     3
 10
-64.49865613968268
 20
10.449999999999932
 11
-64.49865613968268
 21
13.449999999999932
  0
LINE
  8
15
  6
CONTINUOUS
 62
     3
 10
-64.49865613968268
 20
10.449999999999932
 11
-70.499999999999773
 21
10.449999999999932
  0
LINE
  8
15
  6
CONTINUOUS
 62
     3
 10
-60.98441581179668
 20
13.449999999999932
 11
-59.799999999999955
 21
36.049999999999955
  0
LINE
  8
15
  6
CONTINUOUS
 62
     3
 10
-42.901343860317183
 20
13.449999999999932
 11
-64.49865613968268
 21
13.449999999999932
  0
LINE
  8
15
  6
CONTINUOUS
 62
     3
 10
63.716096654409967
 20
13.449999999999932
 11
64.498656139682907
 21
13.449999999999932
  0
LINE
  8
15
  6
CONTINUOUS
 62
     3
 10
64.498656139682907
 20
10.449999999999932
 11
64.498656139682907
 21
13.449999999999932
  0
LINE
  8
15
  6
CONTINUOUS
 62
     3
 10
64.498656139682907
 20
10.449999999999932
 11
70.5
 21
10.449999999999932
  0
LINE
  8
15
  6
CONTINUOUS
 62
     3
 10
60.472680529997888
 20
23.214490859938564
 11
60.071157101167955
 21
30.876014288768488
  0
LINE
  8
15
  6
CONTINUOUS
 62
     3
 10
60.071157101167955
 20
30.876014288768488
 11
59.800000000000182
 21
36.049999999999955
  0
LINE
  8
15
  6
CONTINUOUS
 62
     3
 10
-53.699999999999818
 20
10.449999999999932
 11
19.703903345590106
 21
10.449999999999932
  0
LINE
  8
15
  6
CONTINUOUS
 62
     3
 10
70.5
 20
0.0
 11
70.5
 21
10.449999999999932
  0
LINE
  8
15
  6
CONTINUOUS
 62
     3
 10
-4.7999999999999545
 20
10.449999999999932
 11
-4.7999999999999545
 21
36.049999999999955
  0
LINE
  8
15
  6
CONTINUOUS
 62
     3
 10
4.8000000000001819
 20
10.449999999999932
 11
4.8000000000001819
 21
36.049999999999955
  0
ENDBLK
  8
15
  0
BLOCK
  8
15
  2
SUB14
 70
    64
 10
0.0
 20
0.0
  0
LINE
  8
15
  6
CONTINUOUS
 62
     3
 10
-7.5
 20
3.7999999999999545
 11
-7.5
 21
8.7999999999999545
  0
LINE
  8
15
  6
CONTINUOUS
 62
     3
 10
7.5
 20
3.7999999999999545
 11
7.5
 21
8.7999999999999545
  0
LINE
  8
15
  6
CONTINUOUS
 62
     3
 10
-7.5
 20
8.7999999999999545
 11
7.5
 21
8.7999999999999545
  0
LINE
  8
15
  6
CONTINUOUS
 62
     3
 10
-58.0
 20
0.0
 11
-58.0
 21
18.799999999999955
  0
LINE
  8
15
  6
CONTINUOUS
 62
     3
 10
58.0
 20
0.0
 11
58.0
 21
18.799999999999955
  0
LINE
  8
15
  6
CONTINUOUS
 62
     3
 10
-58.0
 20
18.799999999999955
 11
-12.5
 21
18.799999999999955
  0
LINE
  8
15
  6
CONTINUOUS
 62
     3
 10
12.5
 20
18.799999999999955
 11
58.0
 21
18.799999999999955
  0
LINE
  8
15
  6
CONTINUOUS
 62
     3
 10
-58.0
 20
3.7999999999999545
 11
58.0
 21
3.7999999999999545
  0
LINE
  8
15
  6
CONTINUOUS
 62
     3
 10
-219.0
 20
79.799999999999898
 11
219.0
 21
79.799999999999898
  0
LINE
  8
15
  6
CONTINUOUS
 62
     3
 10
-219.0
 20
60.799999999999898
 11
219.0
 21
60.799999999999898
  0
LINE
  8
15
  6
CONTINUOUS
 62
     3
 10
-12.5
 20
12.462809430412904
 11
-12.5
 21
60.799999999999898
  0
LINE
  8
15
  6
CONTINUOUS
 62
     3
 10
12.5
 20
12.462809430412904
 11
12.5
 21
60.799999999999898
  0
ARC
  8
15
  6
CONTINUOUS
 62
     3
 10
219.0
 20
70.299999999999898
 40
9.5
 50
270.0
 51
90.0
  0
ARC
  8
15
  6
CONTINUOUS
 62
     3
 10
-219.0
 20
70.299999999999898
 40
9.5
 50
90.0
 51
270.0
  0
ARC
  8
15
  6
CONTINUOUS
 62
     3
 10
0.0
 20
161.53684817440399
 40
17.0
 50
0.0
 51
57.035612676244767
  0
LINE
  8
15
  6
CONTINUOUS
 62
     3
 10
-9.25
 20
175.79999999999995
 11
9.25
 21
175.79999999999995
  0
ARC
  8
15
  6
CONTINUOUS
 62
     3
 10
0.0
 20
161.53684817440399
 40
17.0
 50
122.96438732375523
 51
180.0
  0
LINE
  8
15
  6
CONTINUOUS
 62
     3
 10
-5.0
 20
79.799999999999898
 11
-5.0
 21
82.799999999999898
  0
LINE
  8
15
  6
CONTINUOUS
 62
     3
 10
5.0
 20
79.799999999999898
 11
5.0
 21
82.799999999999898
  0
LINE
  8
15
  6
CONTINUOUS
 62
     3
 10
-12.0
 20
82.799999999999898
 11
12.0
 21
82.799999999999898
  0
LINE
  8
15
  6
CONTINUOUS
 62
     3
 10
-12.0
 20
82.799999999999898
 11
-12.0
 21
104.7999999999999
  0
LINE
  8
15
  6
CONTINUOUS
 62
     3
 10
12.0
 20
82.799999999999898
 11
12.0
 21
104.7999999999999
  0
LINE
  8
15
  6
CONTINUOUS
 62
     3
 10
-12.0
 20
104.7999999999999
 11
-17.0
 21
161.53684817440399
  0
LINE
  8
15
  6
CONTINUOUS
 62
     3
 10
12.0
 20
104.7999999999999
 11
17.0
 21
161.53684817440399
  0
LINE
  8
15
  6
CONTINUOUS
 62
     3
 10
-12.5
 20
12.462809430412904
 11
12.5
 21
12.462809430412904
  0
LINE
  8
15
  6
CONTINUOUS
 62
     3
 10
-58.0
 20
12.463542443759025
 11
-200.35269443500601
 21
60.799999999999898
  0
LINE
  8
15
  6
CONTINUOUS
 62
     3
 10
-58.0
 20
18.799999999999955
 11
-181.6915874381923
 21
60.799999999999898
  0
LINE
  8
15
  6
CONTINUOUS
 62
     3
 10
58.0
 20
18.799999999999955
 11
181.69158743819253
 21
60.799999999999898
  0
LINE
  8
15
  6
CONTINUOUS
 62
     3
 10
58.0
 20
12.463542443759025
 11
200.35269443500624
 21
60.799999999999898
  0
LINE
  8
15
  6
CONTINUOUS
 62
     3
 10
-58.0
 20
0.0
 11
43.460834755411952
 21
0.0
  0
LINE
  8
15
  6
CONTINUOUS
 62
     3
 10
43.460834755411952
 20
0.0
 11
49.480239980114675
 21
0.0
  0
LINE
  8
15
  6
CONTINUOUS
 62
     3
 10
49.480239980114675
 20
0.0
 11
58.0
 21
0.0
  0
ENDBLK
  8
15
  0
BLOCK
  8
15
  2
SUB15
 70
    64
 10
0.0
 20
0.0
  0
LINE
  8
15
  6
CONTINUOUS
 62
     3
 10
-23.900000000000091
 20
-74.700000000000003
 11
154.10000000000014
 21
-74.700000000000003
  0
LINE
  8
15
  6
CONTINUOUS
 62
     3
 10
-5.3666248321533203
 20
154.29999999999998
 11
67.093903345590206
 21
154.29999999999998
  0
LINE
  8
15
  6
CONTINUOUS
 62
     3
 10
67.093903345590206
 20
154.29999999999998
 11
74.35390334558997
 21
154.29999999999998
  0
LINE
  8
15
  6
CONTINUOUS
 62
     3
 10
115.36609665440983
 20
154.29999999999998
 11
135.60000000000014
 21
154.29999999999998
  0
LINE
  8
15
  6
CENTER
 62
     3
 10
65.099999999999909
 20
-181.96523255813955
 11
65.099999999999909
 21
416.76810426454279
  0
LINE
  8
15
  6
CONTINUOUS
 62
     3
 10
135.59999999999991
 20
-17.199999999999989
 11
135.60000000000014
 21
154.29999999999998
  0
LINE
  8
15
  6
CONTINUOUS
 62
     3
 10
-5.4000000000000909
 20
141.09999999999994
 11
-5.4000000000000909
 21
154.29999999999998
  0
LINE
  8
15
  6
CONTINUOUS
 62
     3
 10
154.10000000000014
 20
-74.700000000000003
 11
154.09999999999991
 21
-35.700000000000017
  0
LINE
  8
15
  6
CONTINUOUS
 62
     3
 10
135.59999999999991
 20
-17.199999999999989
 11
154.09999999999991
 21
-35.700000000000017
  0
LINE
  8
15
  6
CONTINUOUS
 62
     3
 10
34.400000000000091
 20
-35.699999999999989
 11
150.0
 21
-35.699999999999989
  0
LINE
  8
15
  6
CONTINUOUS
 62
     3
 10
-39.099999999999909
 20
48.491348266601563
 11
-39.099999999999909
 21
88.300000000000011
  0
LINE
  8
15
  6
CONTINUOUS
 62
     3
 10
-45.400000000000091
 20
155.50000000000003
 11
-20.200000000000045
 21
155.50000000000003
  0
LINE
  8
15
  6
CONTINUOUS
 62
     3
 10
-16.341531628991788
 20
141.09999999999994
 11
-20.200000000000045
 21
155.50000000000003
  0
LINE
  8
15
  6
CONTINUOUS
 62
     3
 10
-39.099999999999909
 20
141.09999999999994
 11
61.153903345589924
 21
141.09999999999994
  0
LINE
  8
15
  6
CONTINUOUS
 62
     3
 10
-39.099999999999909
 20
45.400000000000006
 11
-39.099999999999909
 21
88.300000000000011
  0
LINE
  8
15
  6
CONTINUOUS
 62
     3
 10
-23.900000000000091
 20
-74.700000000000003
 11
-23.900000000000091
 21
-42.200000000000003
  0
LINE
  8
15
  6
CONTINUOUS
 62
     3
 10
-24.700000000000045
 20
-34.400000000000006
 11
24.700000000000045
 21
-34.400000000000006
  0
ARC
  8
15
  6
CONTINUOUS
 62
     3
 10
24.700000000000045
 20
-24.699999999999989
 40
9.6999999999999993
 50
270.0
 51
0.0
  0
ARC
  8
15
  6
CONTINUOUS
 62
     3
 10
-24.700000000000045
 20
-24.699999999999989
 40
9.6999999999999993
 50
180.0
 51
270.0
  0
LINE
  8
15
  6
CONTINUOUS
 62
     3
 10
-34.400000000000091
 20
-24.699999999999989
 11
-34.400000000000091
 21
34.845853895269386
  0
LINE
  8
15
  6
CONTINUOUS
 62
     3
 10
34.400000000000091
 20
-24.699999999999989
 11
34.400000000000091
 21
31.965715501002649
  0
ARC
  8
15
  6
CONTINUOUS
 62
     3
 10
34.299999999999955
 20
45.400000000000006
 40
9.7000000000000366
 50
288.90158935406538
 51
304.43763004068671
  0
ARC
  8
15
  6
CONTINUOUS
 62
     3
 10
-29.400000000000091
 20
45.400000000000006
 40
9.7000000000000099
 50
180.0
 51
228.00898309309824
  0
ARC
  8
15
  6
CONTINUOUS
 62
     3
 10
38.900000000000091
 20
31.965715501002649
 40
4.5
 50
108.90158935406629
 51
180.0
  0
ARC
  8
15
  6
CONTINUOUS
 62
     3
 10
-38.900000000000091
 20
34.845853895269386
 40
4.5
 50
0.0
 51
48.008983093096163
  0
LINE
  8
15
  6
CONTINUOUS
 62
     3
 10
-35.74181036994014
 20
-35.699999999999989
 11
-30.400000000000091
 21
-35.699999999999989
  0
LINE
  8
15
  6
CONTINUOUS
 62
     3
 10
-39.099999999999909
 20
125.29999999999998
 11
27.099999999999909
 21
125.29999999999998
  0
LINE
  8
15
  6
CONTINUOUS
 62
     3
 10
-34.599999999999909
 20
107.29999999999998
 11
-16.341531628991788
 21
107.29999999999998
  0
LINE
  8
15
  6
CONTINUOUS
 62
     3
 10
-16.341531628991788
 20
107.29999999999998
 11
-16.341531628991788
 21
125.29999999999998
  0
LINE
  8
15
  6
CONTINUOUS
 62
     3
 10
-39.099999999999909
 20
125.29999999999998
 11
-39.099999999999909
 21
155.50000000000003
  0
LINE
  8
15
  6
CONTINUOUS
 62
     3
 10
49.299999999999955
 20
50.300000000000011
 11
69.0
 21
50.300000000000011
  0
LINE
  8
15
  6
CONTINUOUS
 62
     3
 10
49.299999999999955
 20
72.300000000000011
 11
69.0
 21
72.300000000000011
  0
LINE
  8
15
  6
CONTINUOUS
 62
     3
 10
69.0
 20
50.300000000000011
 11
69.0
 21
72.300000000000011
  0
LINE
  8
15
  6
CONTINUOUS
 62
     3
 10
-39.099999999999909
 20
102.50000000000003
 11
-39.099999999999909
 21
102.79999999999998
  0
LINE
  8
15
  6
CONTINUOUS
 62
     3
 10
141.59999999999991
 20
-23.199999999999989
 11
141.59999999999991
 21
3.0999999999999943
  0
LINE
  8
15
  6
CONTINUOUS
 62
     3
 10
135.59999999999991
 20
3.0999999999999943
 11
141.59999999999991
 21
3.0999999999999943
  0
ARC
  8
15
  6
CONTINUOUS
 62
     3
 10
-30.400000000000091
 20
-42.200000000000003
 40
6.5
 50
0.0
 51
90.0
  0
LINE
  8
15
  6
CONTINUOUS
 62
     3
 10
-36.599199272494161
 20
-45.5
 11
-30.400000000000091
 21
-45.5
  0
LINE
  8
15
  6
CONTINUOUS
 62
     3
 10
-45.400000000000091
 20
-47.900000000000006
 11
-39.099999999999909
 21
-47.900000000000006
  0
LINE
  8
15
  6
CONTINUOUS
 62
     3
 10
-39.099999999999909
 20
-47.900000000000006
 11
-38.232297115169558
 21
-37.982110643130852
  0
ARC
  8
15
  6
CONTINUOUS
 62
     3
 10
-35.74181036994014
 20
-38.200000000000003
 40
2.5
 50
90.0
 51
175.0
  0
ARC
  8
15
  6
CONTINUOUS
 62
     3
 10
-36.599199272494161
 20
-48.0
 40
2.5
 50
90.0
 51
175.00000000000031
  0
ARC
  8
15
  6
CONTINUOUS
 62
     3
 10
-30.400000000000091
 20
-52.0
 40
6.5
 50
0.0
 51
90.0
  0
ENDBLK
  8
15
  0
BLOCK
  8
15
  2
SUB16
 70
    64
 10
0.0
 20
0.0
  0
LINE
  8
15
  6
CONTINUOUS
 62
     3
 10
-50.399999999999935
 20
-62.0
 11
-50.399999999999935
 21
52.599999999999909
  0
LINE
  8
15
  6
CONTINUOUS
 62
     3
 10
0.0
 20
-38.900000000000091
 11
0.0
 21
38.899999999999864
  0
LINE
  8
15
  6
CONTINUOUS
 62
     3
 10
-50.399999999999935
 20
-62.0
 11
-40.899999999999963
 21
-62.0
  0
LINE
  8
15
  6
CONTINUOUS
 62
     3
 10
-40.899999999999963
 20
-62.0
 11
-40.899999999999963
 21
-58.778174593052199
  0
LINE
  8
15
  6
CONTINUOUS
 62
     3
 10
-40.899999999999963
 20
-58.778174593052199
 11
-30.899999999999991
 21
-58.778174593052199
  0
LINE
  8
15
  6
CONTINUOUS
 62
     3
 10
-30.899999999999991
 20
40.0
 11
-30.899999999999991
 21
52.599999999999909
  0
LINE
  8
15
  6
CONTINUOUS
 62
     3
 10
-30.899999999999991
 20
-58.778174593052199
 11
-30.899999999999991
 21
-40.0
  0
LINE
  8
15
  6
CONTINUOUS
 62
     3
 10
-38.399999999999963
 20
38.899999999999864
 11
0.0
 21
38.899999999999864
  0
LINE
  8
15
  6
CONTINUOUS
 62
     3
 10
-38.399999999999963
 20
40.0
 11
-30.899999999999991
 21
40.0
  0
LINE
  8
15
  6
CONTINUOUS
 62
     3
 10
-30.899999999999991
 20
48.493130846336953
 11
-8.2999999999999972
 21
38.899999999999864
  0
LINE
  8
15
  6
CONTINUOUS
 62
     3
 10
-38.399999999999963
 20
17.299999999999955
 11
-3.7999999999999972
 21
17.299999999999955
  0
LINE
  8
15
  6
CONTINUOUS
 62
     3
 10
-38.399999999999963
 20
20.899999999999864
 11
-3.7999999999999972
 21
20.899999999999864
  0
LINE
  8
15
  6
CONTINUOUS
 62
     3
 10
-38.399999999999963
 20
20.899999999999864
 11
-38.399999999999963
 21
50.0
  0
LINE
  8
15
  6
CONTINUOUS
 62
     3
 10
-38.399999999999963
 20
-17.300000000000182
 11
-3.7999999999999972
 21
-17.300000000000182
  0
LINE
  8
15
  6
CONTINUOUS
 62
     3
 10
-38.399999999999963
 20
-20.900000000000091
 11
-3.7999999999999972
 21
-20.900000000000091
  0
LINE
  8
15
  6
CONTINUOUS
 62
     3
 10
-3.7999999999999972
 20
17.299999999999955
 11
-3.7999999999999972
 21
20.899999999999864
  0
LINE
  8
15
  6
CONTINUOUS
 62
     3
 10
-3.7999999999999972
 20
-17.300000000000182
 11
-3.7999999999999972
 21
-20.900000000000091
  0
LINE
  8
15
  6
CONTINUOUS
 62
     3
 10
-38.399999999999963
 20
-20.900000000000091
 11
-38.399999999999963
 21
-50.0
  0
LINE
  8
15
  6
CONTINUOUS
 62
     3
 10
-38.399999999999963
 20
-38.900000000000091
 11
0.0
 21
-38.900000000000091
  0
LINE
  8
15
  6
CONTINUOUS
 62
     3
 10
-38.399999999999963
 20
-40.0
 11
-30.899999999999991
 21
-40.0
  0
LINE
  8
15
  6
CONTINUOUS
 62
     3
 10
-38.399999999999963
 20
17.299999999999955
 11
-38.399999999999963
 21
-17.300000000000182
  0
LINE
  8
15
  6
CONTINUOUS
 62
     3
 10
-48.199999999999974
 20
-62.0
 11
-48.199999999999974
 21
52.599999999999909
  0
ENDBLK
  8
15
  0
BLOCK
  8
15
  2
SUB17
 70
    64
 10
0.0
 20
0.0
  0
LINE
  8
15
  6
CONTINUOUS
 62
     3
 10
-54.897530541514172
 20
65.137478769472864
 11
-12.5
 21
69.576598503076866
  0
ARC
  8
15
  6
CONTINUOUS
 62
     3
 10
53.700000000000003
 20
53.700000000000045
 40
11.500000000000002
 50
5.9772225080590831
 51
84.022777491941071
  0
LINE
  8
15
  6
CONTINUOUS
 62
     3
 10
65.137478769472793
 20
54.897530541514243
 11
69.576598503076752
 21
12.5
  0
LINE
  8
15
  6
CONTINUOUS
 62
     3
 10
54.897530541514172
 20
65.137478769472864
 11
12.5
 21
69.576598503076639
  0
LINE
  8
15
  6
CONTINUOUS
 62
     3
 10
65.137478769472807
 20
-54.897530541514243
 11
69.576598503076738
 21
-12.5
  0
LINE
  8
15
  6
CONTINUOUS
 62
     3
 10
54.897530541514172
 20
-65.137478769472864
 11
12.5
 21
-69.576598503076866
  0
LINE
  8
15
  6
CONTINUOUS
 62
     3
 10
-54.897530541514172
 20
-65.137478769472864
 11
-12.5
 21
-69.576598503076866
  0
LINE
  8
15
  6
CONTINUOUS
 62
     3
 10
-65.137478769472807
 20
-54.897530541514243
 11
-69.576598503076767
 21
-12.5
  0
LINE
  8
15
  6
CONTINUOUS
 62
     3
 10
-65.137478769472821
 20
54.897530541514243
 11
-69.576598503076738
 21
12.5
  0
ARC
  8
15
  6
CONTINUOUS
 62
     3
 10
53.700000000000003
 20
-53.700000000000045
 40
11.500000000000002
 50
275.97722250805896
 51
354.02277749194093
  0
ARC
  8
15
  6
CONTINUOUS
 62
     3
 10
-53.700000000000003
 20
-53.700000000000045
 40
11.500000000000002
 50
185.97722250805907
 51
264.02277749194104
  0
ARC
  8
15
  6
CONTINUOUS
 62
     3
 10
-53.700000000000003
 20
53.700000000000045
 40
11.500000000000002
 50
95.977222508058929
 51
174.02277749194093
  0
ENDBLK
  8
15
  0
BLOCK
  8
15
  2
SUB18
 70
    64
 10
0.0
 20
0.0
  0
ARC
  8
15
  6
CONTINUOUS
 62
     3
 10
0.0
 20
0.0
 40
228.5
 50
270.0
 51
356.38853892760085
  0
ARC
  8
15
  6
CONTINUOUS
 62
     3
 10
0.0
 20
0.0
 40
228.5
 50
3.6114610723991598
 51
270.0
  0
ARC
  8
15
  6
CONTINUOUS
 62
     3
 10
0.0
 20
0.0
 40
209.5
 50
270.0
 51
356.22827040410073
  0
ARC
  8
15
  6
CONTINUOUS
 62
     3
 10
0.0
 20
0.0
 40
209.5
 50
3.7717295958992514
 51
270.0
  0
LINE
  8
15
  6
CONTINUOUS
 62
     3
 10
-209.12675582048317
 20
12.5
 11
-56.637002039302899
 21
12.5
  0
LINE
  8
15
  6
CONTINUOUS
 62
     3
 10
56.637002039302899
 20
12.5
 11
207.47828137819712
 21
12.5
  0
LINE
  8
15
  6
CONTINUOUS
 62
     3
 10
-209.12675582048317
 20
-12.5
 11
-56.637002039302899
 21
-12.5
  0
LINE
  8
15
  6
CONTINUOUS
 62
     3
 10
56.637002039302899
 20
-12.5
 11
207.47828137819712
 21
-12.5
  0
LINE
  8
15
  6
CONTINUOUS
 62
     3
 10
12.5
 20
209.12675582048314
 11
12.5
 21
56.637002039302843
  0
LINE
  8
15
  6
CONTINUOUS
 62
     3
 10
12.5
 20
-56.637002039302843
 11
12.5
 21
-209.12675582048314
  0
LINE
  8
15
  6
CONTINUOUS
 62
     3
 10
-12.5
 20
209.12675582048314
 11
-12.5
 21
56.637002039302843
  0
LINE
  8
15
  6
CONTINUOUS
 62
     3
 10
-12.5
 20
-56.637002039302843
 11
-12.5
 21
-209.12675582048314
  0
CIRCLE
  8
15
  6
CONTINUOUS
 62
     3
 10
0.0
 20
0.0
 40
58.0
  0
CIRCLE
  8
15
  6
CONTINUOUS
 62
     3
 10
0.0
 20
0.0
 40
39.0
  0
CIRCLE
  8
15
  6
CONTINUOUS
 62
     3
 10
219.00000000000003
 20
0.0
 40
17.0
  0
ENDBLK
  8
15
  0
BLOCK
  8
15
  2
SUB19
 70
    64
 10
0.0
 20
0.0
  0
LINE
  8
15
  6
CONTINUOUS
 62
     3
 10
-255.96993663347794
 20
0.0
 11
-150.90000000000006
 21
0.0
  0
LINE
  8
15
  6
CONTINUOUS
 62
     3
 10
-125.90000000000006
 20
0.0
 11
-20.830063366522211
 21
0.0
  0
LINE
  8
15
  6
CONTINUOUS
 62
     3
 10
10.410920298209248
 20
0.0
 11
11.200000000000045
 21
0.0
  0
LINE
  8
15
  6
CONTINUOUS
 62
     3
 10
11.200000000000045
 20
-9.0
 11
11.200000000000045
 21
0.0
  0
LINE
  8
15
  6
CONTINUOUS
 62
     3
 10
-241.45576160506513
 20
-9.0
 11
-150.90000000000006
 21
-9.0
  0
LINE
  8
15
  6
CONTINUOUS
 62
     3
 10
-125.90000000000006
 20
-9.0
 11
-35.344238394935033
 21
-9.0
  0
LINE
  8
15
  6
CONTINUOUS
 62
     3
 10
-0.768281272084721
 20
-9.0
 11
0.2855796397014956
 21
-9.0
  0
LINE
  8
15
  6
CONTINUOUS
 62
     3
 10
0.2855796397014956
 20
-9.0
 11
11.200000000000045
 21
-9.0
  0
LINE
  8
15
  6
CONTINUOUS
 62
     3
 10
-232.60000000000002
 20
-169.0
 11
-232.60000000000002
 21
-35.579273704180196
  0
LINE
  8
15
  6
CONTINUOUS
 62
     3
 10
-232.60000000000002
 20
-35.579273704180196
 11
-232.60000000000002
 21
-34.779273704180241
  0
LINE
  8
15
  6
CONTINUOUS
 62
     3
 10
-232.60000000000002
 20
-13.727256165423341
 11
-232.60000000000002
 21
-9.0
  0
LINE
  8
15
  6
CONTINUOUS
 62
     3
 10
-18.800000000000011
 20
-169.0
 11
-18.800000000000011
 21
-21.299999999999955
  0
LINE
  8
15
  6
CONTINUOUS
 62
     3
 10
-212.60000000000002
 20
-189.0
 11
-38.800000000000011
 21
-189.0
  0
ARC
  8
15
  6
CONTINUOUS
 62
     3
 10
-212.60000000000002
 20
-169.0
 40
20.0
 50
180.0
 51
270.0
  0
ARC
  8
15
  6
CONTINUOUS
 62
     3
 10
-38.800000000000011
 20
-169.0
 40
20.0
 50
270.0
 51
0.0
  0
ENDBLK
  8
15
  0
BLOCK
  8
15
  2
SUB20
 70
    64
 10
0.0
 20
0.0
  0
LINE
  8
15
  6
CONTINUOUS
 62
     3
 10
-186.90000000000001
 20
0.0
 11
-90.399999999999991
 21
0.0
  0
LINE
  8
15
  6
CONTINUOUS
 62
     3
 10
-65.399999999999991
 20
0.0
 11
13.549999999999997
 21
0.0
  0
LINE
  8
15
  6
CONTINUOUS
 62
     3
 10
-195.46993663347786
 20
-61.800000000000182
 11
-90.399999999999991
 21
-61.800000000000182
  0
LINE
  8
15
  6
CONTINUOUS
 62
     3
 10
-65.399999999999991
 20
-61.800000000000182
 11
39.66993663347786
 21
-61.800000000000182
  0
LINE
  8
15
  6
CONTINUOUS
 62
     3
 10
70.910920298209319
 20
-61.800000000000182
 11
71.700000000000003
 21
-61.800000000000182
  0
LINE
  8
15
  6
CONTINUOUS
 62
     3
 10
-202.10000000000002
 20
-57.114581468229972
 11
-202.10000000000002
 21
-52.400000000000091
  0
LINE
  8
15
  6
CONTINUOUS
 62
     3
 10
71.700000000000003
 20
-61.800000000000182
 11
71.700000000000003
 21
-61.119686197028614
  0
LINE
  8
15
  6
CONTINUOUS
 62
     3
 10
71.700000000000003
 20
-35.063185564749119
 11
71.700000000000003
 21
-33.800000000000182
  0
LINE
  8
15
  6
CONTINUOUS
 62
     3
 10
-175.40000000000001
 20
-46.321087545389673
 11
-175.40000000000001
 21
0.0
  0
LINE
  8
15
  6
CONTINUOUS
 62
     3
 10
-208.30000000000001
 20
-33.799999999999955
 11
-186.90000000000001
 21
-31.927742600545344
  0
LINE
  8
15
  6
CONTINUOUS
 62
     3
 10
-186.90000000000001
 20
-49.719829893231463
 11
-186.90000000000001
 21
0.0
  0
LINE
  8
15
  6
CONTINUOUS
 62
     3
 10
-202.10000610351562
 20
-52.400001076214494
 11
-179.07128684516493
 21
-48.339416539806734
  0
LINE
  8
15
  6
CONTINUOUS
 62
     3
 10
-173.69999999999999
 20
-41.938166145227342
 11
-173.69999999999999
 21
-11.700000000000045
  0
ARC
  8
15
  6
CONTINUOUS
 62
     3
 10
-180.19999999999999
 20
-41.938166145227342
 40
6.4999999999999991
 50
280.0
 51
0.0
  0
ARC
  8
15
  6
CONTINUOUS
 62
     3
 10
-163.69999999999999
 20
-11.700000000000045
 40
10.0
 50
90.0
 51
180.0
  0
LINE
  8
15
  6
CONTINUOUS
 62
     3
 10
73.20000000000006
 20
-1.7000000000000455
 11
-65.399999999999991
 21
-1.7000000000000455
  0
LINE
  8
15
  6
CONTINUOUS
 62
     3
 10
-90.399999999999991
 20
-1.7000000000000455
 11
-163.69999999999999
 21
-1.7000000000000455
  0
LINE
  8
15
  6
CONTINUOUS
 62
     3
 10
-56.399999999999991
 20
-52.400000000000091
 11
-56.399999999999991
 21
-3.3645992279052734
  0
LINE
  8
15
  6
CONTINUOUS
 62
     3
 10
-208.30000000000001
 20
-52.369783801772655
 11
-208.30000000000001
 21
-33.799999999999955
  0
LINE
  8
15
  6
CONTINUOUS
 62
     3
 10
73.200000000000003
 20
-61.300000000000182
 11
73.200000000000003
 21
-59.808984595324091
  0
LINE
  8
15
  6
CONTINUOUS
 62
     3
 10
73.200000000000003
 20
-33.5173318387574
 11
73.20000000000006
 21
-1.7000000000000455
  0
LINE
  8
15
  6
CONTINUOUS
 62
     3
 10
71.70000000000006
 20
-61.300000000000182
 11
73.20000000000006
 21
-61.300000000000182
  0
ARC
  8
15
  6
CONTINUOUS
 62
     3
 10
33.300000000000011
 20
-11.700000000000045
 40
10.0
 50
0.0
 51
90.0
  0
LINE
  8
15
  6
CONTINUOUS
 62
     3
 10
43.299999999999997
 20
-41.938166145227342
 11
43.299999999999997
 21
-11.700000000000045
  0
ARC
  8
15
  6
CONTINUOUS
 62
     3
 10
49.800000000000011
 20
-41.938166145227342
 40
6.4999999999999991
 50
180.0
 51
259.99999999999989
  0
LINE
  8
15
  6
CONTINUOUS
 62
     3
 10
55.893358944461923
 20
-49.612862707534532
 11
48.671286845164943
 21
-48.339416539806734
  0
LINE
  8
15
  6
CONTINUOUS
 62
     3
 10
39.80869305751024
 20
-4.1081020368344525
 11
71.700000000000003
 21
-33.800000000000182
  0
LINE
  8
15
  6
CONTINUOUS
 62
     3
 10
43.299999999999997
 20
-47.392313747879598
 11
-56.400000000000006
 21
-47.392313747879598
  0
LINE
  8
15
  6
CONTINUOUS
 62
     3
 10
-90.399999999999991
 20
-47.392313747879598
 11
-173.69999999999999
 21
-47.392313747879598
  0
LINE
  8
15
  6
CONTINUOUS
 62
     3
 10
52.461995995765633
 20
-52.400000000000091
 11
-56.400000000000006
 21
-52.400000000000091
  0
LINE
  8
15
  6
CONTINUOUS
 62
     3
 10
-90.399999999999991
 20
-52.400000000000091
 11
-202.10000000000002
 21
-52.400000000000091
  0
LINE
  8
15
  6
CONTINUOUS
 62
     3
 10
13.549999999999997
 20
-1.7000000000000455
 11
13.549999999999983
 21
0.0
  0
LINE
  8
15
  6
CENTER
 62
     3
 10
63.659814453125037
 20
-31.800000000000182
 11
98.749795532226599
 21
-31.800000000000182
  0
LINE
  8
15
  6
CONTINUOUS
 62
     3
 10
-65.399999999999991
 20
-33.800000000000182
 11
-56.399999999999999
 21
-33.800000000000182
  0
ENDBLK
  8
15
  0
BLOCK
  8
15
  2
SUB21
 70
    64
 10
0.0
 20
0.0
  0
LINE
  8
15
  6
CENTER
 62
     3
 10
-246.38226318359372
 20
0.0
 11
255.541748046875
 21
0.0
  0
LINE
  8
15
  6
CENTER
 62
     3
 10
0.0
 20
-381.41915893554687
 11
0.0
 21
248.44625854492187
  0
LINE
  8
15
  6
CONTINUOUS
 62
     3
 10
-91.200000000000017
 20
-104.5
 11
-12.5
 21
-104.5
  0
LINE
  8
15
  6
CONTINUOUS
 62
     3
 10
12.5
 20
-104.5
 11
91.199999999999989
 21
-104.5
  0
LINE
  8
15
  6
CONTINUOUS
 62
     3
 10
-93.300000000000011
 20
-103.90000000000009
 11
-93.300000000000026
 21
-26.299999999999955
  0
LINE
  8
15
  6
CONTINUOUS
 62
     3
 10
94.0
 20
-104.20000000000005
 11
93.999999999999986
 21
-21.099999999999909
  0
LINE
  8
15
  6
CONTINUOUS
 62
     3
 10
-91.200000000000017
 20
-85.599999999999909
 11
-75.614378198959699
 21
-81.423845224874412
  0
LINE
  8
15
  6
CONTINUOUS
 62
     3
 10
78.5
 20
-82.197045256124738
 11
91.199999999999989
 21
-85.599999999999909
  0
LINE
  8
15
  6
CONTINUOUS
 62
     3
 10
78.5
 20
-82.197045256124738
 11
78.5
 21
-38.0
  0
ARC
  8
15
  6
CONTINUOUS
 62
     3
 10
-53.700000000000003
 20
53.700000000000045
 40
11.500000000000002
 50
95.977222508059
 51
174.02277749194093
  0
ARC
  8
15
  6
CONTINUOUS
 62
     3
 10
53.699999999999989
 20
53.700000000000045
 40
11.500000000000002
 50
5.9772225080590831
 51
84.022777491941
  0
ARC
  8
15
  6
CONTINUOUS
 62
     3
 10
-53.700000000000003
 20
-53.700000000000045
 40
11.500000000000002
 50
185.97722250805907
 51
264.02277749194104
  0
ARC
  8
15
  6
CONTINUOUS
 62
     3
 10
53.699999999999989
 20
-53.700000000000045
 40
11.500000000000002
 50
275.97722250805901
 51
354.02277749194093
  0
LINE
  8
15
  6
CONTINUOUS
 62
     3
 10
54.897530541514172
 20
65.137478769472864
 11
12.5
 21
69.576598503076866
  0
LINE
  8
15
  6
CONTINUOUS
 62
     3
 10
-12.5
 20
69.576598503076866
 11
-54.897530541514172
 21
65.137478769472864
  0
LINE
  8
15
  6
CONTINUOUS
 62
     3
 10
-65.137478769472807
 20
54.897530541514243
 11
-69.576598503076767
 21
12.5
  0
LINE
  8
15
  6
CONTINUOUS
 62
     3
 10
-69.576598503076795
 20
-12.5
 11
-65.137478769472807
 21
-54.897530541514243
  0
LINE
  8
15
  6
CONTINUOUS
 62
     3
 10
-54.897530541514172
 20
-65.137478769472864
 11
-12.5
 21
-69.576598503076866
  0
LINE
  8
15
  6
CONTINUOUS
 62
     3
 10
12.5
 20
-69.576598503076866
 11
54.897530541514172
 21
-65.137478769472864
  0
LINE
  8
15
  6
CONTINUOUS
 62
     3
 10
65.137478769472779
 20
-54.897530541514243
 11
69.576598503076767
 21
-12.5
  0
LINE
  8
15
  6
CONTINUOUS
 62
     3
 10
69.576598503076767
 20
12.5
 11
65.137478769472779
 21
54.897530541514243
  0
ARC
  8
15
  6
CONTINUOUS
 62
     3
 10
0.0
 20
0.0
 40
89.0
 50
346.28581608214552
 51
351.92614587478005
  0
ARC
  8
15
  6
CONTINUOUS
 62
     3
 10
0.0
 20
0.0
 40
89.0
 50
8.0738541252199383
 51
81.926145874780076
  0
ARC
  8
15
  6
CONTINUOUS
 62
     3
 10
0.0
 20
0.0
 40
89.000000000000014
 50
98.073854125219938
 51
171.92614587478008
  0
ARC
  8
15
  6
CONTINUOUS
 62
     3
 10
0.0
 20
0.0
 40
89.000000000000014
 50
188.07385412521992
 51
197.18785890771841
  0
LINE
  8
15
  6
CONTINUOUS
 62
     3
 10
71.942471981423267
 20
-21.099999999999909
 11
93.999999999999986
 21
-21.099999999999909
  0
LINE
  8
15
  6
CONTINUOUS
 62
     3
 10
91.199999999999989
 20
-110.79999999999995
 11
91.199999999999989
 21
-85.599999999999909
  0
LINE
  8
15
  6
CONTINUOUS
 62
     3
 10
-91.200000000000017
 20
-110.79999999999995
 11
-91.200000000000017
 21
-85.599999999999909
  0
LINE
  8
15
  6
CONTINUOUS
 62
     3
 10
-77.026460007633901
 20
-104.5
 11
-71.396773100781374
 21
-12.5
  0
LINE
  8
15
  6
CONTINUOUS
 62
     3
 10
77.109671945183564
 20
-104.5
 11
71.409643208181805
 21
-12.5
  0
LINE
  8
15
  6
CONTINUOUS
 62
     3
 10
72.989542477676849
 20
-38.0
 11
78.5
 21
-38.0
  0
LINE
  8
15
  6
CONTINUOUS
 62
     3
 10
91.199999999999989
 20
-104.20000000000005
 11
94.0
 21
-104.20000000000005
  0
LINE
  8
15
  6
CONTINUOUS
 62
     3
 10
-93.300000000000011
 20
-103.90000000000009
 11
-91.200000000000017
 21
-103.90000000000009
  0
LINE
  8
15
  6
CONTINUOUS
 62
     3
 10
-93.300000000000026
 20
-26.299999999999955
 11
-72.24122613680926
 21
-26.299999999999955
  0
LINE
  8
15
  6
CONTINUOUS
 62
     3
 10
-38.75
 20
70.5
 11
-12.5
 21
70.5
  0
LINE
  8
15
  6
CONTINUOUS
 62
     3
 10
12.5
 20
70.5
 11
38.75
 21
70.5
  0
LINE
  8
15
  6
CONTINUOUS
 62
     3
 10
-38.75
 20
66.828162650356489
 11
-38.75
 21
70.5
  0
LINE
  8
15
  6
CONTINUOUS
 62
     3
 10
38.75
 20
66.828162650356489
 11
38.75
 21
70.5
  0
LINE
  8
15
  6
CONTINUOUS
 62
     3
 10
78.499999999999986
 20
-21.099999999999909
 11
78.499999999999986
 21
-12.5
  0
LINE
  8
15
  6
CENTER
 62
     3
 10
-380.0
 20
-65.099999999999909
 11
-70.369842529296889
 21
-65.099999999999909
  0
ENDBLK
  8
15
  0
BLOCK
  8
15
  2
SUB22
 70
    64
 10
0.0
 20
0.0
  0
LINE
  8
15
  6
CONTINUOUS
 62
     3
 10
12.699999999999818
 20
28.5
 11
12.699999999999818
 21
46.200000000000045
  0
LINE
  8
15
  6
CONTINUOUS
 62
     3
 10
0.0
 20
47.900000000000091
 11
12.699999999999818
 21
47.900000000000091
  0
LINE
  8
15
  6
CONTINUOUS
 62
     3
 10
0.0
 20
-35.200000000000045
 11
12.699999999999818
 21
-35.200000000000045
  0
LINE
  8
15
  6
CONTINUOUS
 62
     3
 10
52.79999999999977
 20
26.151336993986888
 11
52.79999999999977
 21
28.700000000000045
  0
LINE
  8
15
  6
CONTINUOUS
 62
     3
 10
44.199999999999861
 20
14.5
 11
44.199999999999861
 21
-14.5
  0
LINE
  8
15
  6
CONTINUOUS
 62
     3
 10
23.400000000000105
 20
20.0
 11
23.400000000000105
 21
-20.0
  0
LINE
  8
15
  6
CONTINUOUS
 62
     3
 10
12.699999999999818
 20
28.700000000000045
 11
52.79999999999977
 21
28.700000000000045
  0
LINE
  8
15
  6
CONTINUOUS
 62
     3
 10
23.400000000000105
 20
15.0
 11
44.750000000000043
 21
15.0
  0
LINE
  8
15
  6
CONTINUOUS
 62
     3
 10
9.6999999999998181
 20
20.0
 11
23.400000000000105
 21
20.0
  0
LINE
  8
15
  6
CONTINUOUS
 62
     3
 10
12.699999999999818
 20
-20.0
 11
23.400000000000105
 21
-20.0
  0
LINE
  8
15
  6
CONTINUOUS
 62
     3
 10
39.199999999999861
 20
14.5
 11
44.199999999999861
 21
14.5
  0
LINE
  8
15
  6
CONTINUOUS
 62
     3
 10
23.400000000000105
 20
-14.5
 11
44.199999999999861
 21
-14.5
  0
LINE
  8
15
  6
CONTINUOUS
 62
     3
 10
39.199999999999861
 20
15.0
 11
39.199999999999861
 21
14.5
  0
LINE
  8
15
  6
CONTINUOUS
 62
     3
 10
0.0
 20
47.900000000000091
 11
0.0
 21
-35.200000000000045
  0
LINE
  8
15
  6
CONTINUOUS
 62
     3
 10
9.6999999999998181
 20
47.900000000000091
 11
9.6999999999998181
 21
-15.799999999999955
  0
LINE
  8
15
  6
CONTINUOUS
 62
     3
 10
9.6999999999998181
 20
28.5
 11
12.699999999999818
 21
28.5
  0
LINE
  8
15
  6
CONTINUOUS
 62
     3
 10
9.6999999999998181
 20
-15.799999999999955
 11
12.699999999999818
 21
-15.799999999999955
  0
LINE
  8
15
  6
CONTINUOUS
 62
     3
 10
12.699999999999818
 20
-15.799999999999955
 11
12.699999999999818
 21
-35.200000000000045
  0
LINE
  8
15
  6
CONTINUOUS
 62
     3
 10
12.985660552978516
 20
30.200000000000045
 11
15.900000000000091
 21
30.200000000000045
  0
LINE
  8
15
  6
CONTINUOUS
 62
     3
 10
19.699999999999818
 20
53.200000000000045
 11
50.699999999999861
 21
53.200000000000045
  0
LINE
  8
15
  6
CONTINUOUS
 62
     3
 10
15.900000000000091
 20
30.200000000000045
 11
15.900000000000091
 21
46.5
  0
LINE
  8
15
  6
CONTINUOUS
 62
     3
 10
19.400000000000091
 20
50.0
 11
51.000000000000043
 21
50.0
  0
ARC
  8
15
  6
CONTINUOUS
 62
     3
 10
19.400000000000091
 20
46.5
 40
3.5
 50
90.0
 51
180.0
  0
ARC
  8
15
  6
CONTINUOUS
 62
     3
 10
19.699999999999818
 20
46.200000000000045
 40
6.9999999999999982
 50
90.0
 51
180.0
  0
LINE
  8
15
  6
CONTINUOUS
 62
     3
 10
57.699999999999861
 20
24.400000000000091
 11
57.699999999999861
 21
46.200000000000045
  0
LINE
  8
15
  6
CONTINUOUS
 62
     3
 10
54.500000000000043
 20
24.400000000000091
 11
54.500000000000043
 21
46.5
  0
ARC
  8
15
  6
CONTINUOUS
 62
     3
 10
50.699999999999861
 20
46.200000000000045
 40
7.0
 50
0.0
 51
90.0
  0
ARC
  8
15
  6
CONTINUOUS
 62
     3
 10
51.000000000000043
 20
46.5
 40
3.5
 50
0.0
 51
90.0
  0
LINE
  8
15
  6
CONTINUOUS
 62
     3
 10
19.699999999999818
 20
50.0
 11
19.699999999999818
 21
53.200000000000045
  0
LINE
  8
15
  6
CONTINUOUS
 62
     3
 10
44.199999999999861
 20
-11.599999999999909
 11
44.199999999999861
 21
11.599999999999909
  0
ENDBLK
  8
15
  0
BLOCK
  8
15
  2
COMP1
 70
    64
 10
0.0
 20
0.0
  0
LINE
  8
15
  6
CONTINUOUS
 62
     3
 10
151.10000000000005
 20
205.02500000000001
 11
159.71000000000001
 21
205.29407594627247
  0
LINE
  8
15
  6
CONTINUOUS
 62
     3
 10
159.71000000000001
 20
205.29407594627247
 11
159.71000000000004
 21
171.50592405372754
  0
LINE
  8
15
  6
CONTINUOUS
 62
     3
 10
151.10000000000002
 20
171.77500000000001
 11
159.71000000000004
 21
171.50592405372754
  0
LINE
  8
15
  6
CONTINUOUS
 62
     3
 10
171.71000000000001
 20
179.10946077913863
 11
159.71000000000001
 21
178.90000000000001
  0
LINE
  8
15
  6
CONTINUOUS
 62
     3
 10
171.71000000000001
 20
197.69053922086141
 11
159.71000000000001
 21
197.90000000000001
  0
LINE
  8
15
  6
CONTINUOUS
 62
     3
 10
171.71000000000001
 20
197.69053922086141
 11
171.71000000000001
 21
179.10946077913863
  0
ENDBLK
  8
15
  0
BLOCK
  8
15
  2
COMP2
 70
    64
 10
0.0
 20
0.0
  0
LINE
  8
15
  6
CONTINUOUS
 62
     3
 10
58.09999999999998
 20
96.499999999999986
 11
57.809360476151667
 21
87.199999999999989
  0
LINE
  8
15
  6
CONTINUOUS
 62
     3
 10
106.1906395238483
 20
87.199999999999989
 11
57.809360476151667
 21
87.199999999999989
  0
LINE
  8
15
  6
CONTINUOUS
 62
     3
 10
69.244370908995023
 20
73.199999999999989
 11
68.999999999999986
 21
87.199999999999989
  0
LINE
  8
15
  6
CONTINUOUS
 62
     3
 10
94.755629091004934
 20
73.199999999999989
 11
69.244370908995023
 21
73.199999999999989
  0
LINE
  8
15
  6
CONTINUOUS
 62
     3
 10
94.755629091004934
 20
73.199999999999989
 11
94.999999999999986
 21
87.199999999999989
  0
LINE
  8
15
  6
CONTINUOUS
 62
     3
 10
105.89999999999998
 20
96.499999999999986
 11
106.1906395238483
 21
87.199999999999989
  0
ENDBLK
  8
15
  0
BLOCK
  8
15
  2
COMP3
 70
    64
 10
0.0
 20
0.0
  0
LINE
  8
15
  6
CONTINUOUS
 62
     3
 10
-61.200000000000003
 20
96.499999999999986
 11
-61.490639523848316
 21
87.199999999999989
  0
LINE
  8
15
  6
CONTINUOUS
 62
     3
 10
-13.109360476151679
 20
87.199999999999989
 11
-61.490639523848316
 21
87.199999999999989
  0
LINE
  8
15
  6
CONTINUOUS
 62
     3
 10
-50.05562909100496
 20
73.199999999999989
 11
-50.299999999999997
 21
87.199999999999989
  0
LINE
  8
15
  6
CONTINUOUS
 62
     3
 10
-24.544370908995049
 20
73.199999999999989
 11
-50.05562909100496
 21
73.199999999999989
  0
LINE
  8
15
  6
CONTINUOUS
 62
     3
 10
-24.544370908995049
 20
73.199999999999989
 11
-24.299999999999997
 21
87.199999999999989
  0
LINE
  8
15
  6
CONTINUOUS
 62
     3
 10
-13.399999999999999
 20
96.499999999999986
 11
-13.109360476151679
 21
87.199999999999989
  0
ENDBLK
  8
15
  0
BLOCK
  8
15
  2
COMP4
 70
    64
 10
0.0
 20
0.0
  0
LINE
  8
15
  6
CENTER
 62
     3
 10
-363.03669805031825
 20
196.99999999999994
 11
-143.69999999999999
 21
196.99999999999994
  0
LINE
  8
15
  6
CONTINUOUS
 62
     3
 10
-213.69999999999999
 20
278.99999999999983
 11
-186.69999999999999
 21
278.99999999999983
  0
LINE
  8
15
  6
CONTINUOUS
 62
     3
 10
-213.69999999999999
 20
114.99999999999994
 11
-188.69999999999999
 21
114.99999999999994
  0
LINE
  8
15
  6
CONTINUOUS
 62
     3
 10
-309.69999999999999
 20
135.99999999999994
 11
-213.69999999999999
 21
135.99999999999994
  0
LINE
  8
15
  6
CONTINUOUS
 62
     3
 10
-309.69999999999999
 20
257.99999999999994
 11
-213.69999999999999
 21
257.99999999999994
  0
LINE
  8
15
  6
CONTINUOUS
 62
     3
 10
-331.69999999999999
 20
279.99999999999994
 11
-331.69999999999999
 21
113.99999999999994
  0
LINE
  8
15
  6
CONTINUOUS
 62
     3
 10
-331.69999999999999
 20
129.99999999999994
 11
-213.69999999999999
 21
129.99999999999994
  0
LINE
  8
15
  6
CONTINUOUS
 62
     3
 10
-331.69999999999999
 20
263.99999999999994
 11
-213.69999999999999
 21
263.99999999999994
  0
LINE
  8
15
  6
CONTINUOUS
 62
     3
 10
-331.69999999999999
 20
261.99999999999994
 11
-309.69999999999999
 21
261.99999999999994
  0
LINE
  8
15
  6
CONTINUOUS
 62
     3
 10
-331.69999999999999
 20
131.99999999999994
 11
-309.69999999999999
 21
131.99999999999994
  0
LINE
  8
15
  6
CONTINUOUS
 62
     3
 10
-349.69999999999999
 20
184.99999999999994
 11
-349.69999999999999
 21
208.99999999999994
  0
LINE
  8
15
  6
CONTINUOUS
 62
     3
 10
-349.69999999999999
 20
251.99999999999994
 11
-341.69999999999999
 21
247.38119784648296
  0
LINE
  8
15
  6
CONTINUOUS
 62
     3
 10
-349.69999999999999
 20
210.99999999999994
 11
-341.69999999999999
 21
215.61880215351692
  0
LINE
  8
15
  6
CONTINUOUS
 62
     3
 10
-349.69999999999999
 20
182.99999999999994
 11
-341.69999999999999
 21
178.38119784648296
  0
LINE
  8
15
  6
CONTINUOUS
 62
     3
 10
-349.69999999999999
 20
141.99999999999994
 11
-341.69999999999999
 21
146.61880215351692
  0
LINE
  8
15
  6
CONTINUOUS
 62
     3
 10
-341.69999999999999
 20
188.99999999999994
 11
-341.69999999999999
 21
204.99999999999994
  0
LINE
  8
15
  6
CONTINUOUS
 62
     3
 10
-349.69999999999999
 20
204.99999999999994
 11
-341.69999999999999
 21
204.99999999999994
  0
LINE
  8
15
  6
CONTINUOUS
 62
     3
 10
-349.69999999999999
 20
188.99999999999994
 11
-341.69999999999999
 21
188.99999999999994
  0
LINE
  8
15
  6
CONTINUOUS
 62
     3
 10
-331.69999999999999
 20
200.99999999999994
 11
-213.69999999999999
 21
200.99999999999994
  0
LINE
  8
15
  6
CONTINUOUS
 62
     3
 10
-331.69999999999999
 20
192.99999999999994
 11
-213.69999999999999
 21
192.99999999999994
  0
LINE
  8
15
  6
CONTINUOUS
 62
     3
 10
-341.69999999999999
 20
279.99999999999994
 11
-341.69999999999999
 21
215.61880215351692
  0
LINE
  8
15
  6
CONTINUOUS
 62
     3
 10
-341.69999999999999
 20
178.38119784648296
 11
-341.69999999999999
 21
113.99999999999994
  0
LINE
  8
15
  6
CONTINUOUS
 62
     3
 10
-349.69999999999999
 20
113.99999999999994
 11
-331.69999999999999
 21
113.99999999999994
  0
LINE
  8
15
  6
CONTINUOUS
 62
     3
 10
-349.69999999999999
 20
279.99999999999994
 11
-349.69999999999999
 21
251.99999999999994
  0
LINE
  8
15
  6
CONTINUOUS
 62
     3
 10
-349.69999999999999
 20
210.99999999999994
 11
-349.69999999999999
 21
182.99999999999994
  0
LINE
  8
15
  6
CONTINUOUS
 62
     3
 10
-349.69999999999999
 20
141.99999999999994
 11
-349.69999999999999
 21
113.99999999999994
  0
LINE
  8
15
  6
CONTINUOUS
 62
     3
 10
-309.69999999999999
 20
261.99999999999994
 11
-309.69999999999999
 21
200.99999999999994
  0
LINE
  8
15
  6
CONTINUOUS
 62
     3
 10
-309.69999999999999
 20
192.99999999999994
 11
-309.69999999999999
 21
131.99999999999994
  0
LINE
  8
15
  6
CONTINUOUS
 62
     3
 10
-213.69999999999999
 20
278.99999999999983
 11
-213.69999999999999
 21
114.99999999999994
  0
LINE
  8
15
  6
CONTINUOUS
 62
     3
 10
-188.69999999999999
 20
134.99999999999994
 11
-188.69999999999999
 21
114.99999999999994
  0
LINE
  8
15
  6
CONTINUOUS
 62
     3
 10
-156.69999999999999
 20
258.99999999999994
 11
-156.69999999999999
 21
134.99999999999994
  0
LINE
  8
15
  6
CONTINUOUS
 62
     3
 10
-331.69999999999999
 20
121.99999999999994
 11
-213.69999999999999
 21
121.99999999999994
  0
LINE
  8
15
  6
CONTINUOUS
 62
     3
 10
-213.69999999999999
 20
134.99999999999994
 11
-143.69999999999999
 21
134.99999999999994
  0
LINE
  8
15
  6
CONTINUOUS
 62
     3
 10
-349.69999999999999
 20
279.99999999999994
 11
-331.69999999999999
 21
279.99999999999994
  0
LINE
  8
15
  6
CONTINUOUS
 62
     3
 10
-213.69999999999999
 20
258.99999999999994
 11
-143.69999999999999
 21
258.99999999999994
  0
LINE
  8
15
  6
CONTINUOUS
 62
     3
 10
-331.69999999999999
 20
271.99999999999994
 11
-213.69999999999999
 21
271.99999999999994
  0
LINE
  8
15
  6
CONTINUOUS
 62
     3
 10
-186.69999999999999
 20
278.99999999999983
 11
-186.69999999999999
 21
258.99999999999994
  0
LINE
  8
15
  6
CONTINUOUS
 62
     3
 10
-188.69999999999999
 20
216.99999999999994
 11
-188.69999999999999
 21
176.99999999999994
  0
LINE
  8
15
  6
CONTINUOUS
 62
     3
 10
-213.69999999999999
 20
206.99999999999994
 11
-188.69999999999999
 21
206.99999999999994
  0
LINE
  8
15
  6
CONTINUOUS
 62
     3
 10
-213.69999999999999
 20
186.99999999999994
 11
-188.69999999999999
 21
186.99999999999994
  0
LINE
  8
15
  6
CONTINUOUS
 62
     3
 10
-143.69999999999999
 20
258.99999999999994
 11
-143.69999999999999
 21
134.99999999999994
  0
LINE
  8
15
  6
CONTINUOUS
 62
     3
 10
-188.69999999999999
 20
216.99999999999994
 11
-143.69999999999999
 21
216.99999999999994
  0
LINE
  8
15
  6
CONTINUOUS
 62
     3
 10
-188.69999999999999
 20
176.99999999999994
 11
-143.69999999999999
 21
176.99999999999994
  0
ENDBLK
  8
15
  0
BLOCK
  8
15
  2
COMP5
 70
    64
 10
0.0
 20
0.0
  0
LINE
  8
15
  6
PHANTOM
 62
     6
 10
-42.5
 20
520.45000000000027
 11
42.5
 21
520.45000000000027
  0
LINE
  8
15
  6
PHANTOM
 62
     6
 10
-18.0
 20
565.45000000000027
 11
18.0
 21
565.45000000000027
  0
LINE
  8
15
  6
PHANTOM
 62
     6
 10
18.0
 20
565.45000000000027
 11
18.0
 21
554.84933184772399
  0
ARC
  8
15
  6
PHANTOM
 62
     6
 10
0.0
 20
285.45000000000027
 40
270.0
 50
82.819244218541726
 51
86.177446270725653
  0
ARC
  8
15
  6
PHANTOM
 62
     6
 10
32.5
 20
543.41075282879797
 40
10.0
 50
0.0
 51
82.819244218541613
  0
LINE
  8
15
  6
PHANTOM
 62
     6
 10
42.5
 20
520.45000000000027
 11
42.5
 21
543.41075282879797
  0
ARC
  8
15
  6
PHANTOM
 62
     6
 10
0.0
 20
285.45000000000027
 40
270.0
 50
86.177446270725653
 51
93.822553729274347
  0
LINE
  8
15
  6
PHANTOM
 62
     6
 10
38.150000000000006
 20
513.95000000000027
 11
38.150000000000006
 21
435.25000000000028
  0
LINE
  8
15
  6
PHANTOM
 62
     6
 10
38.150000000000006
 20
416.25000000000028
 11
38.150000000000006
 21
374.25000000000028
  0
LINE
  8
15
  6
PHANTOM
 62
     6
 10
38.150000000000006
 20
513.95000000000027
 11
37.879166666666677
 21
520.45000000000027
  0
ARC
  8
15
  6
PHANTOM
 62
     6
 10
0.0
 20
285.45000000000027
 40
270.0
 50
93.822553729274347
 51
97.180755781458288
  0
LINE
  8
15
  6
PHANTOM
 62
     6
 10
-18.0
 20
565.45000000000027
 11
-18.0
 21
554.84933184772399
  0
ARC
  8
15
  6
PHANTOM
 62
     6
 10
-32.5
 20
543.41075282879797
 40
10.0
 50
97.180755781458402
 51
180.0
  0
LINE
  8
15
  6
PHANTOM
 62
     6
 10
-42.5
 20
520.45000000000027
 11
-42.5
 21
543.41075282879797
  0
LINE
  8
15
  6
PHANTOM
 62
     6
 10
-38.149999999999999
 20
513.95000000000027
 11
-38.149999999999999
 21
435.25000000000028
  0
LINE
  8
15
  6
PHANTOM
 62
     6
 10
-38.149999999999999
 20
416.25000000000028
 11
-38.149999999999999
 21
374.25000000000028
  0
LINE
  8
15
  6
PHANTOM
 62
     6
 10
-38.149999999999999
 20
513.95000000000027
 11
-37.879166666666663
 21
520.45000000000027
  0
ENDBLK
  8
15
  0
BLOCK
  8
15
  2
COMP6
 70
    64
 10
0.0
 20
0.0
  0
ARC
  8
15
  6
CONTINUOUS
 62
     3
 10
143.25
 20
246.26427124746175
 40
10.0
 50
309.41998446705963
 51
0.0
  0
LINE
  8
15
  6
CONTINUOUS
 62
     3
 10
163.25
 20
257.444224330498
 11
163.25
 21
223.63999999999993
  0
LINE
  8
15
  6
CONTINUOUS
 62
     3
 10
163.25
 20
223.63999999999993
 11
163.25
 21
206.83999999999997
  0
LINE
  8
15
  6
CONTINUOUS
 62
     3
 10
163.25
 20
206.83999999999997
 11
163.25
 21
200.73999999999984
  0
ARC
  8
15
  6
CONTINUOUS
 62
     3
 10
162.25
 20
257.444224330498
 40
1.0
 50
0.0
 51
90.0
  0
ARC
  8
15
  6
CONTINUOUS
 62
     3
 10
162.25
 20
259.444224330498
 40
1.0
 50
180.0
 51
270.0
  0
LINE
  8
15
  6
CONTINUOUS
 62
     3
 10
161.25
 20
266.63661248592308
 11
161.25
 21
259.444224330498
  0
ARC
  8
15
  6
CONTINUOUS
 62
     3
 10
160.25
 20
266.63661248592308
 40
1.0
 50
0.0
 51
113.6633029289311
  0
ARC
  8
15
  6
CONTINUOUS
 62
     3
 10
166.25
 20
266.4244479168056
 40
6.5000000000000009
 50
100.72858312160972
 51
170.00562761422282
  0
LINE
  8
15
  6
CONTINUOUS
 62
     3
 10
153.25
 20
263.52532006704956
 11
153.25
 21
246.26427124746175
  0
ARC
  8
15
  6
CONTINUOUS
 62
     3
 10
163.25
 20
263.52532006704956
 40
10.000000000000002
 50
100.72858312160885
 51
180.0
  0
LINE
  8
15
  6
CONTINUOUS
 62
     3
 10
161.3884321210262
 20
273.35052057553645
 11
179.6115678789738
 21
276.80323425317312
  0
ARC
  8
15
  6
CONTINUOUS
 62
     3
 10
177.75
 20
286.62843476166
 40
10.000000000000007
 50
280.72858312160884
 51
0.0
  0
ARC
  8
15
  6
CONTINUOUS
 62
     3
 10
171.25
 20
246.83896035504455
 40
10.000000000000002
 50
100.72858312160885
 51
143.13010235415598
  0
ARC
  8
15
  6
CONTINUOUS
 62
     3
 10
171.25
 20
244.56514032810225
 40
10.000000000000004
 50
100.88261538679131
 51
143.13010235415598
  0
ARC
  8
15
  6
CONTINUOUS
 62
     3
 10
171.25
 20
241.02960642216959
 40
10.000000000000004
 50
100.88261538679156
 51
143.13010235415598
  0
LINE
  8
15
  6
CONTINUOUS
 62
     3
 10
169.36202510384896
 20
250.84976684812506
 11
189.13797489615081
 21
254.65179198171887
  0
ARC
  8
15
  6
CONTINUOUS
 62
     3
 10
187.25
 20
264.47195240767456
 40
10.0
 50
280.88261538679001
 51
0.0
  0
LINE
  8
15
  6
CONTINUOUS
 62
     3
 10
189.13797489615081
 20
258.18732588765175
 11
169.36202510384896
 21
254.38530075405794
  0
ARC
  8
15
  6
CONTINUOUS
 62
     3
 10
187.25
 20
268.00748631360744
 40
9.9999999999999964
 50
280.88261538679001
 51
0.0
  0
LINE
  8
15
  6
CONTINUOUS
 62
     3
 10
188.55309751528171
 20
277.26582767735687
 11
165.03998087866694
 21
272.81082824732204
  0
ARC
  8
15
  6
CONTINUOUS
 62
     3
 10
187.25
 20
284.14346803329778
 40
7.0
 50
280.72858312160906
 51
0.0
  0
LINE
  8
15
  6
CONTINUOUS
 62
     3
 10
188.55309751528171
 20
260.29526492887982
 11
169.3884321210262
 21
256.66416086353144
  0
ARC
  8
15
  6
CONTINUOUS
 62
     3
 10
187.25
 20
267.1729052848205
 40
7.0
 50
280.7285831216094
 51
0.0
  0
LINE
  8
15
  6
CONTINUOUS
 62
     3
 10
194.25
 20
349.28698756654495
 11
187.75
 21
349.28698756654495
  0
LINE
  8
15
  6
CONTINUOUS
 62
     3
 10
194.25
 20
349.28698756654495
 11
194.25
 21
267.1729052848205
  0
LINE
  8
15
  6
CONTINUOUS
 62
     3
 10
197.25
 20
346.48865305174087
 11
194.25
 21
346.48865305174087
  0
LINE
  8
15
  6
CONTINUOUS
 62
     3
 10
197.25
 20
346.48865305174087
 11
197.25
 21
264.47195240767456
  0
LINE
  8
15
  6
CONTINUOUS
 62
     3
 10
197.25
 20
331.89754313627196
 11
194.25
 21
331.89754313627196
  0
LINE
  8
15
  6
CONTINUOUS
 62
     3
 10
163.25
 20
200.73999999999984
 11
159.71000000000004
 21
200.73999999999984
  0
LINE
  8
15
  6
CONTINUOUS
 62
     3
 10
187.75
 20
349.28698756654495
 11
187.75
 21
286.62843476166
  0
INSERT
  8
15
  6
CONTINUOUS
 62
     3
  2
SUB7
 10
94.0
 20
215.23999999999984
 41
1.0
 42
1.0
 50
0.0
  0
ENDBLK
  8
15
  0
BLOCK
  8
15
  2
COMP7
 70
    64
 10
0.0
 20
0.0
  0
LINE
  8
15
  6
CONTINUOUS
 62
     3
 10
656.59206334174723
 20
96.499999999999986
 11
656.30142381789892
 21
87.199999999999989
  0
LINE
  8
15
  6
CONTINUOUS
 62
     3
 10
704.68270286559573
 20
87.199999999999989
 11
656.30142381789892
 21
87.199999999999989
  0
LINE
  8
15
  6
CONTINUOUS
 62
     3
 10
667.73643425074238
 20
73.199999999999989
 11
667.49206334174733
 21
87.199999999999989
  0
LINE
  8
15
  6
CONTINUOUS
 62
     3
 10
693.24769243275227
 20
73.199999999999989
 11
667.73643425074238
 21
73.199999999999989
  0
LINE
  8
15
  6
CONTINUOUS
 62
     3
 10
693.24769243275227
 20
73.199999999999989
 11
693.49206334174733
 21
87.199999999999989
  0
LINE
  8
15
  6
CONTINUOUS
 62
     3
 10
704.39206334174742
 20
96.499999999999986
 11
704.68270286559573
 21
87.199999999999989
  0
ENDBLK
  8
15
  0
BLOCK
  8
15
  2
COMP8
 70
    64
 10
0.0
 20
0.0
  0
LINE
  8
15
  6
CONTINUOUS
 62
     3
 10
689.99206334174733
 20
197.89999999999998
 11
670.99206334174733
 21
197.89999999999998
  0
LINE
  8
15
  6
CONTINUOUS
 62
     3
 10
689.99206334174733
 20
197.89999999999998
 11
689.99206334174733
 21
178.89999999999998
  0
LINE
  8
15
  6
CONTINUOUS
 62
     3
 10
670.99206334174733
 20
197.89999999999998
 11
670.99206334174733
 21
178.89999999999998
  0
LINE
  8
15
  6
CONTINUOUS
 62
     3
 10
689.99206334174733
 20
178.89999999999998
 11
670.99206334174733
 21
178.89999999999998
  0
CIRCLE
  8
15
  6
CONTINUOUS
 62
     3
 10
680.49206334174733
 20
188.39999999999998
 40
16.875
  0
ENDBLK
  8
15
  0
BLOCK
  8
15
  2
COMP9
 70
    64
 10
0.0
 20
0.0
  0
INSERT
  8
15
  6
CONTINUOUS
 62
     3
  2
SUB11
 10
650.49206334174733
 20
307.19999999999999
 41
1.0
 42
1.0
 50
0.0
  0
ENDBLK
  8
15
  0
BLOCK
  8
15
  2
COMP10
 70
    64
 10
0.0
 20
0.0
  0
LINE
  8
15
  6
PHANTOM
 62
     6
 10
781.09206334174723
 20
520.45000000000016
 11
806.94854870592371
 21
520.45000000000016
  0
LINE
  8
15
  6
PHANTOM
 62
     6
 10
840.23553072543086
 20
520.45000000000016
 11
866.09206334174723
 21
520.45000000000016
  0
LINE
  8
15
  6
PHANTOM
 62
     6
 10
805.59206334174723
 20
565.45000000000016
 11
841.59206334174723
 21
565.45000000000016
  0
LINE
  8
15
  6
PHANTOM
 62
     6
 10
841.59206334174723
 20
565.45000000000016
 11
841.59206334174723
 21
554.8493318477241
  0
ARC
  8
15
  6
PHANTOM
 62
     6
 10
823.59206334174723
 20
285.45000000000027
 40
270.0
 50
82.819244218541726
 51
86.177446270725653
  0
ARC
  8
15
  6
PHANTOM
 62
     6
 10
856.09206334174723
 20
543.41075282879785
 40
10.0
 50
0.0
 51
82.819244218541769
  0
LINE
  8
15
  6
PHANTOM
 62
     6
 10
866.09206334174723
 20
520.45000000000016
 11
866.09206334174723
 21
543.41075282879785
  0
ARC
  8
15
  6
PHANTOM
 62
     6
 10
823.59206334174723
 20
285.45000000000027
 40
270.0
 50
86.177446270725653
 51
93.822553729274347
  0
LINE
  8
15
  6
PHANTOM
 62
     6
 10
861.74206334174733
 20
513.95000000000016
 11
861.74206334174733
 21
435.25000000000028
  0
LINE
  8
15
  6
PHANTOM
 62
     6
 10
861.74206334174733
 20
416.25000000000028
 11
861.74206334174733
 21
374.25000000000034
  0
LINE
  8
15
  6
PHANTOM
 62
     6
 10
861.74206334174733
 20
513.95000000000016
 11
861.47123000841407
 21
520.45000000000016
  0
ARC
  8
15
  6
PHANTOM
 62
     6
 10
823.59206334174723
 20
285.45000000000027
 40
270.0
 50
93.822553729274347
 51
97.180755781458288
  0
LINE
  8
15
  6
PHANTOM
 62
     6
 10
805.59206334174723
 20
565.45000000000016
 11
805.59206334174723
 21
554.8493318477241
  0
ARC
  8
15
  6
PHANTOM
 62
     6
 10
791.09206334174723
 20
543.41075282879785
 40
10.0
 50
97.180755781458231
 51
180.0
  0
LINE
  8
15
  6
PHANTOM
 62
     6
 10
781.09206334174723
 20
520.45000000000016
 11
781.09206334174723
 21
543.41075282879785
  0
LINE
  8
15
  6
PHANTOM
 62
     6
 10
785.44206334174737
 20
513.95000000000016
 11
785.44206334174737
 21
435.25000000000028
  0
LINE
  8
15
  6
PHANTOM
 62
     6
 10
785.44206334174737
 20
416.25000000000028
 11
785.44206334174737
 21
374.25000000000034
  0
LINE
  8
15
  6
PHANTOM
 62
     6
 10
785.44206334174737
 20
513.95000000000016
 11
785.71289667508063
 21
520.45000000000016
  0
ENDBLK
  8
15
  0
BLOCK
  8
15
  2
COMP11
 70
    64
 10
0.0
 20
0.0
  0
LINE
  8
15
  6
CONTINUOUS
 62
     3
 10
729.09206334174723
 20
257.70000000000005
 11
776.54596668733734
 21
257.70000000000005
  0
ARC
  8
15
  6
CONTINUOUS
 62
     3
 10
729.09206334174723
 20
248.0
 40
9.7000000000000028
 50
90.0
 51
180.0
  0
ARC
  8
15
  6
CONTINUOUS
 62
     3
 10
723.89206334174742
 20
262.5
 40
4.5
 50
90.0
 51
180.0
  0
ARC
  8
15
  6
CONTINUOUS
 62
     3
 10
723.89206334174742
 20
262.20000000000005
 40
4.5
 50
180.0
 51
270.0
  0
LINE
  8
15
  6
CONTINUOUS
 62
     3
 10
723.89206334174742
 20
257.70000000000005
 11
729.09206334174723
 21
257.70000000000005
  0
INSERT
  8
15
  6
CONTINUOUS
 62
     3
  2
SUB15
 10
758.49206334174733
 20
159.70000000000002
 41
1.0
 42
1.0
 50
0.0
  0
LINE
  8
15
  6
CONTINUOUS
 62
     3
 10
785.59206334174723
 20
266.74609665440983
 11
785.59206334174723
 21
285.0
  0
ENDBLK
  8
15
  0
BLOCK
  8
15
  2
COMP12
 70
    64
 10
0.0
 20
0.0
  0
LINE
  8
15
  6
CONTINUOUS
 62
     3
 10
151.10000000000005
 20
939.2088157008202
 11
159.71000000000001
 21
939.47789164709275
  0
LINE
  8
15
  6
CONTINUOUS
 62
     3
 10
159.71000000000001
 20
939.47789164709275
 11
159.71000000000001
 21
930.4000191025541
  0
LINE
  8
15
  6
CONTINUOUS
 62
     3
 10
171.71000000000001
 20
913.29327647995888
 11
169.96633129315725
 21
913.26284062946775
  0
LINE
  8
15
  6
CONTINUOUS
 62
     3
 10
161.10407460088945
 20
932.05948203814705
 11
159.71000000000001
 21
932.0838157008202
  0
LINE
  8
15
  6
CONTINUOUS
 62
     3
 10
171.71000000000001
 20
915.2259770986434
 11
171.71000000000001
 21
913.29327647995888
  0
ENDBLK
  8
15
  0
BLOCK
  8
15
  2
COMP13
 70
    64
 10
0.0
 20
0.0
  0
LINE
  8
15
  6
CONTINUOUS
 62
     3
 10
-208.81724066752727
 20
1082.8838157008204
 11
-186.69999999999996
 21
1082.8838157008204
  0
LINE
  8
15
  6
CONTINUOUS
 62
     3
 10
-213.70000000000002
 20
918.88381570082038
 11
-188.69999999999996
 21
918.88381570082038
  0
LINE
  8
15
  6
CONTINUOUS
 62
     3
 10
-143.69999999999996
 20
1053.4838157008203
 11
-143.69999999999996
 21
914.29334137893011
  0
LINE
  8
15
  6
CONTINUOUS
 62
     3
 10
-143.69999999999996
 20
914.29334137893011
 11
-143.69999999999996
 21
913.53526700323505
  0
LINE
  8
15
  6
CONTINUOUS
 62
     3
 10
-213.70000000000002
 20
985.08536083300487
 11
-213.70000000000002
 21
918.88381570082038
  0
LINE
  8
15
  6
CONTINUOUS
 62
     3
 10
-188.69999999999996
 20
937.12513341669933
 11
-188.69999999999996
 21
914.38381570082038
  0
LINE
  8
15
  6
CONTINUOUS
 62
     3
 10
-156.69999999999996
 20
1053.4838157008203
 11
-156.69999999999996
 21
938.88381570082038
  0
LINE
  8
15
  6
CONTINUOUS
 62
     3
 10
-213.70000000000002
 20
938.88381570082038
 11
-189.88902021970623
 21
938.88381570082038
  0
LINE
  8
15
  6
CONTINUOUS
 62
     3
 10
-166.54080581046796
 20
938.88381570082038
 11
-165.74080581046795
 21
938.88381570082038
  0
LINE
  8
15
  6
CONTINUOUS
 62
     3
 10
-165.74080581046795
 20
938.88381570082038
 11
-143.69999999999996
 21
938.88381570082038
  0
LINE
  8
15
  6
CONTINUOUS
 62
     3
 10
-188.69999999999996
 20
914.38381570082038
 11
-170.16692662617524
 21
914.38381570082038
  0
LINE
  8
15
  6
CONTINUOUS
 62
     3
 10
-186.69999999999996
 20
1082.8838157008204
 11
-186.69999999999996
 21
1078.4838157008203
  0
LINE
  8
15
  6
CONTINUOUS
 62
     3
 10
-188.69999999999996
 20
1010.8838157008204
 11
-188.69999999999996
 21
990.88381570082038
  0
LINE
  8
15
  6
CONTINUOUS
 62
     3
 10
-202.12431818066821
 20
1010.8838157008204
 11
-188.69999999999996
 21
1010.8838157008204
  0
LINE
  8
15
  6
CONTINUOUS
 62
     3
 10
-195.57668572710807
 20
990.88381570082038
 11
-188.69999999999996
 21
990.88381570082038
  0
LINE
  8
15
  6
CONTINUOUS
 62
     3
 10
-309.70000000000005
 20
1061.8838157008204
 11
-228.46321366907191
 21
1061.8838157008204
  0
LINE
  8
15
  6
CONTINUOUS
 62
     3
 10
-331.70000000000005
 20
1083.8838157008204
 11
-331.70000000000005
 21
917.88381570082038
  0
LINE
  8
15
  6
CONTINUOUS
 62
     3
 10
-331.70000000000005
 20
1067.8838157008204
 11
-228.49210051990858
 21
1067.8838157008204
  0
LINE
  8
15
  6
CONTINUOUS
 62
     3
 10
-331.70000000000005
 20
1065.8838157008204
 11
-309.70000000000005
 21
1065.8838157008204
  0
LINE
  8
15
  6
CONTINUOUS
 62
     3
 10
-349.70000000000005
 20
988.88381570082038
 11
-349.70000000000005
 21
1012.8838157008204
  0
LINE
  8
15
  6
CONTINUOUS
 62
     3
 10
-349.70000000000005
 20
1055.8838157008204
 11
-341.70000000000005
 21
1051.2650135473034
  0
LINE
  8
15
  6
CONTINUOUS
 62
     3
 10
-349.70000000000005
 20
1014.8838157008204
 11
-341.70000000000005
 21
1019.5026178543374
  0
LINE
  8
15
  6
CONTINUOUS
 62
     3
 10
-341.70000000000005
 20
992.88381570082038
 11
-341.70000000000005
 21
1008.8838157008204
  0
LINE
  8
15
  6
CONTINUOUS
 62
     3
 10
-349.70000000000005
 20
1008.8838157008204
 11
-341.70000000000005
 21
1008.8838157008204
  0
LINE
  8
15
  6
CONTINUOUS
 62
     3
 10
-331.70000000000005
 20
1004.8838157008204
 11
-220.17956308431533
 21
1004.8838157008204
  0
LINE
  8
15
  6
CONTINUOUS
 62
     3
 10
-341.70000000000005
 20
1083.8838157008204
 11
-341.70000000000005
 21
1019.5026178543374
  0
LINE
  8
15
  6
CONTINUOUS
 62
     3
 10
-341.70000000000005
 20
982.2650135473034
 11
-341.70000000000005
 21
917.88381570082038
  0
LINE
  8
15
  6
CONTINUOUS
 62
     3
 10
-349.70000000000005
 20
1083.8838157008204
 11
-349.70000000000005
 21
1055.8838157008204
  0
LINE
  8
15
  6
CONTINUOUS
 62
     3
 10
-349.70000000000005
 20
1014.8838157008204
 11
-349.70000000000005
 21
986.88381570082038
  0
LINE
  8
15
  6
CONTINUOUS
 62
     3
 10
-349.70000000000005
 20
945.88381570082038
 11
-349.70000000000005
 21
917.88381570082038
  0
LINE
  8
15
  6
CONTINUOUS
 62
     3
 10
-309.70000000000005
 20
1065.8838157008204
 11
-309.70000000000005
 21
1004.8838157008204
  0
LINE
  8
15
  6
CONTINUOUS
 62
     3
 10
-309.70000000000005
 20
996.88381570082038
 11
-309.70000000000005
 21
935.88381570082038
  0
LINE
  8
15
  6
CONTINUOUS
 62
     3
 10
-349.70000000000005
 20
1083.8838157008204
 11
-331.70000000000005
 21
1083.8838157008204
  0
LINE
  8
15
  6
CONTINUOUS
 62
     3
 10
-331.70000000000005
 20
1075.8838157008204
 11
-228.28543536546519
 21
1075.8838157008204
  0
LINE
  8
15
  6
CONTINUOUS
 62
     3
 10
-309.70000000000005
 20
939.88381570082038
 11
-213.70000000000002
 21
939.88381570082038
  0
LINE
  8
15
  6
CONTINUOUS
 62
     3
 10
-331.70000000000005
 20
933.88381570082038
 11
-213.70000000000002
 21
933.88381570082038
  0
LINE
  8
15
  6
CONTINUOUS
 62
     3
 10
-331.70000000000005
 20
935.88381570082038
 11
-309.70000000000005
 21
935.88381570082038
  0
LINE
  8
15
  6
CONTINUOUS
 62
     3
 10
-349.70000000000005
 20
986.88381570082038
 11
-341.70000000000005
 21
982.2650135473034
  0
LINE
  8
15
  6
CONTINUOUS
 62
     3
 10
-349.70000000000005
 20
945.88381570082038
 11
-341.70000000000005
 21
950.50261785433736
  0
LINE
  8
15
  6
CONTINUOUS
 62
     3
 10
-349.70000000000005
 20
992.88381570082038
 11
-341.70000000000005
 21
992.88381570082038
  0
LINE
  8
15
  6
CONTINUOUS
 62
     3
 10
-331.70000000000005
 20
996.88381570082038
 11
-217.80137740611283
 21
996.88381570082038
  0
LINE
  8
15
  6
CONTINUOUS
 62
     3
 10
-349.70000000000005
 20
917.88381570082038
 11
-331.70000000000005
 21
917.88381570082038
  0
LINE
  8
15
  6
CONTINUOUS
 62
     3
 10
-331.70000000000005
 20
925.88381570082038
 11
-213.70000000000002
 21
925.88381570082038
  0
ENDBLK
  8
15
  0
BLOCK
  8
15
  2
COMP14
 70
    64
 10
0.0
 20
0.0
  0
INSERT
  8
15
  6
CONTINUOUS
 62
     3
  2
SUB21
 10
0.0
 20
1065.9838157008203
 41
1.0
 42
1.0
 50
0.0
  0
ENDBLK
  8
15
  0
BLOCK
  8
15
  2
COMP15
 70
    64
 10
0.0
 20
0.0
  0
LINE
  8
15
  6
CONTINUOUS
 62
     3
 10
138.75000000000003
 20
1022.4838157008203
 11
138.75000000000003
 21
1008.9838157008203
  0
LINE
  8
15
  6
CONTINUOUS
 62
     3
 10
138.75000000000003
 20
1008.9838157008203
 11
138.75000000000003
 21
984.98381570082029
  0
LINE
  8
15
  6
CONTINUOUS
 62
     3
 10
138.75000000000003
 20
984.98381570082029
 11
138.75000000000003
 21
982.48381570082029
  0
LINE
  8
15
  6
CONTINUOUS
 62
     3
 10
163.25000000000003
 20
982.48381570082029
 11
138.75000000000003
 21
982.48381570082029
  0
LINE
  8
15
  6
CONTINUOUS
 62
     3
 10
143.25000000000003
 20
1022.4838157008203
 11
138.75000000000003
 21
1022.4838157008203
  0
ARC
  8
15
  6
CONTINUOUS
 62
     3
 10
143.25000000000003
 20
1032.4838157008203
 40
10.0
 50
270.0
 51
301.66824325354196
  0
ARC
  8
15
  6
CONTINUOUS
 62
     3
 10
143.25000000000003
 20
1032.4838157008203
 40
10.0
 50
327.6719358778372
 51
328.21166938294823
  0
ARC
  8
15
  6
CONTINUOUS
 62
     3
 10
143.25000000000003
 20
1032.4838157008203
 40
10.0
 50
328.21166938294823
 51
0.0
  0
LINE
  8
15
  6
CONTINUOUS
 62
     3
 10
194.25000000000003
 20
1131.0308032673654
 11
187.75000000000003
 21
1131.0308032673654
  0
LINE
  8
15
  6
CONTINUOUS
 62
     3
 10
197.25000000000003
 20
1126.4597354554999
 11
194.25000000000003
 21
1126.4597354554999
  0
ARC
  8
15
  6
CONTINUOUS
 62
     3
 10
163.25000000000003
 20
1045.2691357678698
 40
10.0
 50
124.76798335539694
 51
180.0
  0
ARC
  8
15
  6
CONTINUOUS
 62
     3
 10
163.25000000000003
 20
1024.7630391134601
 40
9.9999999999999947
 50
100.72858312161142
 51
180.0
  0
ARC
  8
15
  6
CONTINUOUS
 62
     3
 10
169.75000000000003
 20
1024.7630391134601
 40
9.9999999999999947
 50
100.72858312161142
 51
180.0
  0
LINE
  8
15
  6
CONTINUOUS
 62
     3
 10
179.61156787897383
 20
1038.0409532995836
 11
161.38843212102577
 21
1034.588239621947
  0
LINE
  8
15
  6
CONTINUOUS
 62
     3
 10
187.75000000000003
 20
1131.0308032673654
 11
187.75000000000003
 21
1078.4838157008203
  0
LINE
  8
15
  6
CONTINUOUS
 62
     3
 10
187.75000000000003
 20
1053.4838157008203
 11
187.75000000000003
 21
1047.8661538080705
  0
ARC
  8
15
  6
CONTINUOUS
 62
     3
 10
177.75000000000003
 20
1047.8661538080705
 40
10.000000000000007
 50
280.72858312160884
 51
0.0
  0
LINE
  8
15
  6
CONTINUOUS
 62
     3
 10
188.55309751528151
 20
1038.5035467237674
 11
167.88843212102577
 21
1034.588239621947
  0
LINE
  8
15
  6
CONTINUOUS
 62
     3
 10
194.25000000000003
 20
1131.0308032673654
 11
194.25000000000003
 21
1078.4838157008203
  0
LINE
  8
15
  6
CONTINUOUS
 62
     3
 10
194.25000000000003
 20
1053.4838157008203
 11
194.25000000000003
 21
1045.3811870797083
  0
ARC
  8
15
  6
CONTINUOUS
 62
     3
 10
187.25000000000003
 20
1045.3811870797083
 40
6.9999999999999973
 50
280.72858312160724
 51
0.0
  0
LINE
  8
15
  6
CONTINUOUS
 62
     3
 10
197.25000000000003
 20
1126.4597354554999
 11
197.25000000000003
 21
1078.4838157008203
  0
LINE
  8
15
  6
CONTINUOUS
 62
     3
 10
163.25000000000003
 20
1032.3623811902453
 11
163.25000000000003
 21
1005.3838157008204
  0
LINE
  8
15
  6
CONTINUOUS
 62
     3
 10
163.25000000000003
 20
1005.3838157008204
 11
163.25000000000003
 21
988.58381570082042
  0
LINE
  8
15
  6
CONTINUOUS
 62
     3
 10
163.25000000000003
 20
988.58381570082042
 11
163.25000000000003
 21
982.48381570082029
  0
LINE
  8
15
  6
CONTINUOUS
 62
     3
 10
159.75000000000003
 20
1024.7630391134601
 11
159.75000000000003
 21
1021.6819433769085
  0
LINE
  8
15
  6
CONTINUOUS
 62
     3
 10
153.25000000000003
 20
1045.2691357678698
 11
153.25000000000003
 21
1014.7619902938725
  0
LINE
  8
15
  6
CONTINUOUS
 62
     3
 10
138.75000000000003
 20
1008.4838157008203
 11
138.19999999999985
 21
1008.4838157008203
  0
LINE
  8
15
  6
CONTINUOUS
 62
     3
 10
138.75000000000003
 20
985.48381570082029
 11
138.19999999999985
 21
985.48381570082029
  0
LINE
  8
15
  6
CONTINUOUS
 62
     3
 10
197.25000000000003
 20
1121.4496849491611
 11
194.25000000000003
 21
1121.4496849491611
  0
LINE
  8
15
  6
CONTINUOUS
 62
     3
 10
197.25000000000003
 20
1106.8585750336922
 11
194.25000000000003
 21
1106.8585750336922
  0
LINE
  8
15
  6
CONTINUOUS
 62
     3
 10
148.50000000000003
 20
1021.3838157008204
 11
151.69999999999985
 21
1021.3838157008204
  0
INSERT
  8
15
  6
CONTINUOUS
 62
     3
  2
SUB22
 10
93.999999999999986
 20
996.98381570082029
 41
1.0
 42
1.0
 50
0.0
  0
ENDBLK
  8
15
  0
BLOCK
  8
15
  2
COMP16
 70
    64
 10
0.0
 20
0.0
  0
POLYLINE
  8
15
  6
CONTINUOUS
 62
     7
 66
     1
 70
     0
 40
0.0
 41
0.0
  0
VERTEX
  8
15
 10
668.16644287109375
 20
1021.1937866210937
  0
VERTEX
  8
15
 10
668.02626786597898
 20
1021.9759229465508
  0
VERTEX
  8
15
 10
667.81723889087789
 20
1022.7399869724588
  0
VERTEX
  8
15
 10
667.54064348986617
 20
1023.4812508068009
  0
VERTEX
  8
15
 10
667.19839588085392
 20
1024.1945675954423
  0
VERTEX
  8
15
 10
666.79266202266115
 20
1024.875236045438
  0
VERTEX
  8
15
 10
666.32686280695043
 20
1025.5173578823496
  0
VERTEX
  8
15
 10
665.80478092062617
 20
1026.1157147725817
  0
VERTEX
  8
15
 10
665.23084839678222
 20
1026.6652219077612
  0
VERTEX
  8
15
 10
664.60997063158857
 20
1027.1611792532647
  0
VERTEX
  8
15
 10
663.94749256044599
 20
1027.5993122400557
  0
VERTEX
  8
15
 10
663.24904750169799
 20
1027.9758993505225
  0
VERTEX
  8
15
 10
662.52031938559821
 20
1028.2878783816159
  0
VERTEX
  8
15
 10
661.76761758764576
 20
1028.5326364604425
  0
VERTEX
  8
15
 10
660.99590644355112
 20
1028.7086439047798
  0
VERTEX
  8
15
 10
660.21055707685309
 20
1028.8146817311106
  0
VERTEX
  8
15
 10
659.41644287109375
 20
1028.85009765625
  0
VERTEX
  8
15
 10
658.62232866533441
 20
1028.8146817311106
  0
VERTEX
  8
15
 10
657.83697929863638
 20
1028.7086439047798
  0
VERTEX
  8
15
 10
657.06526815454174
 20
1028.5326364604425
  0
VERTEX
  8
15
 10
656.31256635658929
 20
1028.2878783816159
  0
VERTEX
  8
15
 10
655.58383824048951
 20
1027.9758993505225
  0
VERTEX
  8
15
 10
654.88539318174151
 20
1027.5993122400557
  0
VERTEX
  8
15
 10
654.22291511059893
 20
1027.1611792532647
  0
VERTEX
  8
15
 10
653.60203734540528
 20
1026.6652219077612
  0
VERTEX
  8
15
 10
653.02810482156133
 20
1026.1157147725817
  0
VERTEX
  8
15
 10
652.50602293523707
 20
1025.5173578823496
  0
VERTEX
  8
15
 10
652.04022371952635
 20
1024.875236045438
  0
VERTEX
  8
15
 10
651.63448986133358
 20
1024.1945675954423
  0
VERTEX
  8
15
 10
651.29224225232122
 20
1023.4812508068006
  0
VERTEX
  8
15
 10
651.01564685130961
 20
1022.7399869724587
  0
VERTEX
  8
15
 10
650.80661787620852
 20
1021.9759229465509
  0
VERTEX
  8
15
 10
650.66644287109375
 20
1021.1937866210937
  0
VERTEX
  8
15
 10
650.66644287109375
 20
1000.4125366210937
  0
VERTEX
  8
15
 10
650.8996171313521
 20
999.71691906254705
  0
VERTEX
  8
15
 10
651.18735842015519
 20
999.0435794525996
  0
VERTEX
  8
15
 10
651.52816532421286
 20
998.39603931708803
  0
VERTEX
  8
15
 10
651.9200829716774
 20
997.77802019021965
  0
VERTEX
  8
15
 10
652.36099848811273
 20
997.19293585539538
  0
VERTEX
  8
15
 10
652.84793179450162
 20
996.64481446020216
  0
VERTEX
  8
15
 10
653.37770899234454
 20
996.13723046721577
  0
VERTEX
  8
15
 10
653.94675285741687
 20
995.67361377561497
  0
VERTEX
  8
15
 10
654.55119842574038
 20
995.25711452106748
  0
VERTEX
  8
15
 10
655.18692140524718
 20
994.89057668560997
  0
VERTEX
  8
15
 10
655.84962477068609
 20
994.57647570880897
  0
VERTEX
  8
15
 10
656.53498333797722
 20
994.31686034310576
  0
VERTEX
  8
15
 10
657.23829084506156
 20
994.11346615556079
  0
VERTEX
  8
15
 10
657.95566927611549
 20
993.96736918492263
  0
VERTEX
  8
15
 10
658.68299004301036
 20
993.87940679937162
  0
VERTEX
  8
15
 10
659.41644287109375
 20
993.85003662109375
  0
VERTEX
  8
15
 10
660.14989569917714
 20
993.87940679937162
  0
VERTEX
  8
15
 10
660.87721646607201
 20
993.96736918492263
  0
VERTEX
  8
15
 10
661.59459489712594
 20
994.11346615556079
  0
VERTEX
  8
15
 10
662.29790240421028
 20
994.31686034310576
  0
VERTEX
  8
15
 10
662.98326097150141
 20
994.57647570880897
  0
VERTEX
  8
15
 10
663.64596433694032
 20
994.89057668560997
  0
VERTEX
  8
15
 10
664.28168731644712
 20
995.25711452106748
  0
VERTEX
  8
15
 10
664.88613288477063
 20
995.67361377561497
  0
VERTEX
  8
15
 10
665.45517674984296
 20
996.13723046721577
  0
VERTEX
  8
15
 10
665.98495394768588
 20
996.64481446020216
  0
VERTEX
  8
15
 10
666.47188725407477
 20
997.19293585539538
  0
VERTEX
  8
15
 10
666.9128027705101
 20
997.77802019021965
  0
VERTEX
  8
15
 10
667.30472041797464
 20
998.39603931708803
  0
VERTEX
  8
15
 10
667.64552732203231
 20
999.0435794525996
  0
VERTEX
  8
15
 10
667.9332686108354
 20
999.71691906254705
  0
VERTEX
  8
15
 10
668.16644287109375
 20
1000.4125366210937
  0
SEQEND
  8
15
  0
POLYLINE
  8
15
  6
CONTINUOUS
 62
     7
 66
     1
 70
     0
 40
0.0
 41
0.0
  0
VERTEX
  8
15
 10
668.16644287109375
 20
993.85003662109375
  0
VERTEX
  8
15
 10
668.16644287109375
 20
1010.8031616210937
  0
VERTEX
  8
15
 10
659.41644287109375
 20
1010.8031616210937
  0
SEQEND
  8
15
  0
POLYLINE
  8
15
  6
CONTINUOUS
 62
     7
 66
     1
 70
     0
 40
0.0
 41
0.0
  0
VERTEX
  8
15
 10
696.60394287109375
 20
1021.1937866210937
  0
VERTEX
  8
15
 10
696.46376786597898
 20
1021.9759229465508
  0
VERTEX
  8
15
 10
696.25473889087789
 20
1022.7399869724588
  0
VERTEX
  8
15
 10
695.97814348986617
 20
1023.4812508068009
  0
VERTEX
  8
15
 10
695.63589588085392
 20
1024.1945675954423
  0
VERTEX
  8
15
 10
695.23016202266115
 20
1024.875236045438
  0
VERTEX
  8
15
 10
694.76436280695043
 20
1025.5173578823496
  0
VERTEX
  8
15
 10
694.24228092062617
 20
1026.1157147725817
  0
VERTEX
  8
15
 10
693.66834839678222
 20
1026.6652219077612
  0
VERTEX
  8
15
 10
693.04747063158857
 20
1027.1611792532647
  0
VERTEX
  8
15
 10
692.38499256044599
 20
1027.5993122400557
  0
VERTEX
  8
15
 10
691.68654750169799
 20
1027.9758993505225
  0
VERTEX
  8
15
 10
690.95781938559821
 20
1028.2878783816159
  0
VERTEX
  8
15
 10
690.20511758764576
 20
1028.5326364604425
  0
VERTEX
  8
15
 10
689.43340644355112
 20
1028.7086439047798
  0
VERTEX
  8
15
 10
688.64805707685309
 20
1028.8146817311106
  0
VERTEX
  8
15
 10
687.85394287109375
 20
1028.85009765625
  0
VERTEX
  8
15
 10
687.05982866533441
 20
1028.8146817311106
  0
VERTEX
  8
15
 10
686.27447929863638
 20
1028.7086439047798
  0
VERTEX
  8
15
 10
685.50276815454174
 20
1028.5326364604425
  0
VERTEX
  8
15
 10
684.75006635658929
 20
1028.2878783816159
  0
VERTEX
  8
15
 10
684.02133824048951
 20
1027.9758993505225
  0
VERTEX
  8
15
 10
683.32289318174151
 20
1027.5993122400557
  0
VERTEX
  8
15
 10
682.66041511059893
 20
1027.1611792532647
  0
VERTEX
  8
15
 10
682.03953734540528
 20
1026.6652219077612
  0
VERTEX
  8
15
 10
681.46560482156133
 20
1026.1157147725817
  0
VERTEX
  8
15
 10
680.94352293523707
 20
1025.5173578823496
  0
VERTEX
  8
15
 10
680.47772371952635
 20
1024.875236045438
  0
VERTEX
  8
15
 10
680.07198986133358
 20
1024.1945675954423
  0
VERTEX
  8
15
 10
679.72974225232122
 20
1023.4812508068006
  0
VERTEX
  8
15
 10
679.45314685130961
 20
1022.7399869724587
  0
VERTEX
  8
15
 10
679.24411787620852
 20
1021.9759229465509
  0
VERTEX
  8
15
 10
679.10394287109375
 20
1021.1937866210937
  0
VERTEX
  8
15
 10
679.10394287109375
 20
1000.4125366210937
  0
VERTEX
  8
15
 10
679.3371171313521
 20
999.71691906254705
  0
VERTEX
  8
15
 10
679.62485842015519
 20
999.0435794525996
  0
VERTEX
  8
15
 10
679.96566532421286
 20
998.39603931708803
  0
VERTEX
  8
15
 10
680.3575829716774
 20
997.77802019021965
  0
VERTEX
  8
15
 10
680.79849848811273
 20
997.19293585539538
  0
VERTEX
  8
15
 10
681.28543179450162
 20
996.64481446020216
  0
VERTEX
  8
15
 10
681.81520899234454
 20
996.13723046721577
  0
VERTEX
  8
15
 10
682.38425285741687
 20
995.67361377561497
  0
VERTEX
  8
15
 10
682.98869842574038
 20
995.25711452106748
  0
VERTEX
  8
15
 10
683.62442140524718
 20
994.89057668560997
  0
VERTEX
  8
15
 10
684.28712477068609
 20
994.57647570880897
  0
VERTEX
  8
15
 10
684.97248333797722
 20
994.31686034310576
  0
VERTEX
  8
15
 10
685.67579084506156
 20
994.11346615556079
  0
VERTEX
  8
15
 10
686.39316927611549
 20
993.96736918492263
  0
VERTEX
  8
15
 10
687.12049004301036
 20
993.87940679937162
  0
VERTEX
  8
15
 10
687.85394287109375
 20
993.85003662109375
  0
VERTEX
  8
15
 10
688.58739569917714
 20
993.87940679937162
  0
VERTEX
  8
15
 10
689.31471646607201
 20
993.96736918492263
  0
VERTEX
  8
15
 10
690.03209489712594
 20
994.11346615556079
  0
VERTEX
  8
15
 10
690.73540240421028
 20
994.31686034310576
  0
VERTEX
  8
15
 10
691.42076097150141
 20
994.57647570880897
  0
VERTEX
  8
15
 10
692.08346433694032
 20
994.89057668560997
  0
VERTEX
  8
15
 10
692.71918731644712
 20
995.25711452106748
  0
VERTEX
  8
15
 10
693.32363288477063
 20
995.67361377561497
  0
VERTEX
  8
15
 10
693.89267674984296
 20
996.13723046721577
  0
VERTEX
  8
15
 10
694.42245394768588
 20
996.64481446020216
  0
VERTEX
  8
15
 10
694.90938725407477
 20
997.19293585539538
  0
VERTEX
  8
15
 10
695.3503027705101
 20
997.77802019021965
  0
VERTEX
  8
15
 10
695.74222041797464
 20
998.39603931708803
  0
VERTEX
  8
15
 10
696.08302732203231
 20
999.0435794525996
  0
VERTEX
  8
15
 10
696.3707686108354
 20
999.71691906254705
  0
VERTEX
  8
15
 10
696.60394287109375
 20
1000.4125366210937
  0
SEQEND
  8
15
  0
POLYLINE
  8
15
  6
CONTINUOUS
 62
     7
 66
     1
 70
     0
 40
0.0
 41
0.0
  0
VERTEX
  8
15
 10
716.29144287109375
 20
993.85003662109375
  0
VERTEX
  8
15
 10
716.29144287109375
 20
1028.85009765625
  0
VERTEX
  8
15
 10
710.27581787109375
 20
1018.4594116210937
  0
SEQEND
  8
15
  0
POLYLINE
  8
15
  6
CONTINUOUS
 62
     7
 66
     1
 70
     0
 40
0.0
 41
0.0
  0
VERTEX
  8
15
 10
735.97894287109375
 20
1022.2875366210937
  0
VERTEX
  8
15
 10
741.44769287109375
 20
1028.85009765625
  0
VERTEX
  8
15
 10
748.01019287109375
 20
1028.85009765625
  0
VERTEX
  8
15
 10
753.47894287109375
 20
1022.2875366210937
  0
VERTEX
  8
15
 10
753.47894287109375
 20
1013.5375366210937
  0
VERTEX
  8
15
 10
735.97894287109375
 20
998.22503662109375
  0
VERTEX
  8
15
 10
735.97894287109375
 20
993.85003662109375
  0
VERTEX
  8
15
 10
753.47894287109375
 20
993.85003662109375
  0
SEQEND
  8
15
  0
POLYLINE
  8
15
  6
CONTINUOUS
 62
     7
 66
     1
 70
     0
 40
0.0
 41
0.0
  0
VERTEX
  8
15
 10
765.51019287109375
 20
1022.2875366210937
  0
VERTEX
  8
15
 10
765.51019287109375
 20
1000.4125366210937
  0
VERTEX
  8
15
 10
765.59435694742012
 20
999.75177968474679
  0
VERTEX
  8
15
 10
765.73891818945845
 20
999.1039312653196
  0
VERTEX
  8
15
 10
765.94293596783882
 20
998.47323237762976
  0
VERTEX
  8
15
 10
766.20490704323163
 20
997.86434875954535
  0
VERTEX
  8
15
 10
766.52308677318786
 20
997.28153764631713
  0
VERTEX
  8
15
 10
766.89459037492497
 20
996.7302513067998
  0
VERTEX
  8
15
 10
767.3161709188314
 20
996.21531184993546
  0
VERTEX
  8
15
 10
767.7839670714261
 20
995.74144111775138
  0
VERTEX
  8
15
 10
768.29361995470151
 20
995.31304699900386
  0
VERTEX
  8
15
 10
768.84043522047364
 20
994.93407035693383
  0
VERTEX
  8
15
 10
769.41940492495519
 20
994.60797776331538
  0
VERTEX
  8
15
 10
770.02547636070608
 20
994.33761248402914
  0
VERTEX
  8
15
 10
770.65299715587548
 20
994.12540711539964
  0
VERTEX
  8
15
 10
771.29760753454343
 20
993.97275095114219
  0
VERTEX
  8
15
 10
771.95455795780083
 20
993.8807628761225
  0
VERTEX
  8
15
 10
772.61956787109375
 20
993.85003662109375
  0
VERTEX
  8
15
 10
773.28457778438667
 20
993.8807628761225
  0
VERTEX
  8
15
 10
773.94152820764407
 20
993.97275095114219
  0
VERTEX
  8
15
 10
774.58613858631202
 20
994.12540711539964
  0
VERTEX
  8
15
 10
775.21365938148142
 20
994.33761248402914
  0
VERTEX
  8
15
 10
775.81973081723231
 20
994.60797776331538
  0
VERTEX
  8
15
 10
776.39870052171386
 20
994.93407035693383
  0
VERTEX
  8
15
 10
776.94551578748599
 20
995.31304699900386
  0
VERTEX
  8
15
 10
777.4551686707614
 20
995.74144111775138
  0
VERTEX
  8
15
 10
777.9229648233561
 20
996.21531184993546
  0
VERTEX
  8
15
 10
778.34454536726253
 20
996.7302513067998
  0
VERTEX
  8
15
 10
778.71604896899964
 20
997.28153764631713
  0
VERTEX
  8
15
 10
779.03422869895587
 20
997.86434875954535
  0
VERTEX
  8
15
 10
779.29619977434868
 20
998.47323237762976
  0
VERTEX
  8
15
 10
779.50021755272905
 20
999.1039312653196
  0
VERTEX
  8
15
 10
779.64477879476738
 20
999.75177968474679
  0
VERTEX
  8
15
 10
779.72894287109375
 20
1000.4125366210937
  0
VERTEX
  8
15
 10
779.72894287109375
 20
1022.2875366210937
  0
VERTEX
  8
15
 10
779.64477774224508
 20
1022.9482904646444
  0
VERTEX
  8
15
 10
779.50021439439627
 20
1023.5961388789786
  0
VERTEX
  8
15
 10
779.29619358095067
 20
1024.2268403533001
  0
VERTEX
  8
15
 10
779.03421873360537
 20
1024.8357286035127
  0
VERTEX
  8
15
 10
778.71603474456481
 20
1025.4185458434574
  0
VERTEX
  8
15
 10
778.34452670829944
 20
1025.9698392494752
  0
VERTEX
  8
15
 10
777.92294190573762
 20
1026.4847861884482
  0
VERTEX
  8
15
 10
777.45514202481786
 20
1026.9586643652456
  0
VERTEX
  8
15
 10
776.94548714331108
 20
1027.387064853009
  0
VERTEX
  8
15
 10
776.39867116618882
 20
1027.7660473116775
  0
VERTEX
  8
15
 10
775.81970226329224
 20
1028.0921449656244
  0
VERTEX
  8
15
 10
775.21363325383641
 20
1028.3625144394348
  0
VERTEX
  8
15
 10
774.5861166769995
 20
1028.5747230331626
  0
VERTEX
  8
15
 10
773.94151214217277
 20
1028.727381497016
  0
VERTEX
  8
15
 10
773.28456908143039
 20
1028.8193709449174
  0
VERTEX
  8
15
 10
772.61956787109375
 20
1028.85009765625
  0
VERTEX
  8
15
 10
771.95456666075711
 20
1028.8193709449174
  0
VERTEX
  8
15
 10
771.29762360001473
 20
1028.727381497016
  0
VERTEX
  8
15
 10
770.653019065188
 20
1028.5747230331626
  0
VERTEX
  8
15
 10
770.02550248835109
 20
1028.3625144394348
  0
VERTEX
  8
15
 10
769.41943347889526
 20
1028.0921449656244
  0
VERTEX
  8
15
 10
768.84046457599868
 20
1027.7660473116775
  0
VERTEX
  8
15
 10
768.29364859887642
 20
1027.387064853009
  0
VERTEX
  8
15
 10
767.78399371736964
 20
1026.9586643652456
  0
VERTEX
  8
15
 10
767.31619383644988
 20
1026.4847861884482
  0
VERTEX
  8
15
 10
766.89460903388806
 20
1025.9698392494752
  0
VERTEX
  8
15
 10
766.52310099762269
 20
1025.4185458434574
  0
VERTEX
  8
15
 10
766.20491700858213
 20
1024.8357286035127
  0
VERTEX
  8
15
 10
765.94294216123683
 20
1024.2268403533001
  0
VERTEX
  8
15
 10
765.73892134779123
 20
1023.5961388789786
  0
VERTEX
  8
15
 10
765.59435799994242
 20
1022.9482904646444
  0
VERTEX
  8
15
 10
765.51019287109375
 20
1022.2875366210937
  0
SEQEND
  8
15
  0
POLYLINE
  8
15
  6
CONTINUOUS
 62
     7
 66
     1
 70
     0
 40
0.0
 41
0.0
  0
VERTEX
  8
15
 10
792.85394287109375
 20
1022.2875366210937
  0
VERTEX
  8
15
 10
798.32269287109375
 20
1028.85009765625
  0
VERTEX
  8
15
 10
804.88519287109375
 20
1028.85009765625
  0
VERTEX
  8
15
 10
810.35394287109375
 20
1022.2875366210937
  0
VERTEX
  8
15
 10
810.35394287109375
 20
1013.5375366210937
  0
VERTEX
  8
15
 10
792.85394287109375
 20
998.22503662109375
  0
VERTEX
  8
15
 10
792.85394287109375
 20
993.85003662109375
  0
VERTEX
  8
15
 10
810.35394287109375
 20
993.85003662109375
  0
SEQEND
  8
15
  0
POLYLINE
  8
15
  6
CONTINUOUS
 62
     7
 66
     1
 70
     0
 40
0.0
 41
0.0
  0
VERTEX
  8
15
 10
821.83831787109375
 20
1011.3500366210937
  0
VERTEX
  8
15
 10
843.71331787109375
 20
1011.3500366210937
  0
SEQEND
  8
15
  0
POLYLINE
  8
15
  6
CONTINUOUS
 62
     7
 66
     1
 70
     0
 40
0.0
 41
0.0
  0
VERTEX
  8
15
 10
850.82269287109375
 20
1022.2875366210937
  0
VERTEX
  8
15
 10
850.82269287109375
 20
1000.4125366210937
  0
VERTEX
  8
15
 10
850.90685694742012
 20
999.75177968474679
  0
VERTEX
  8
15
 10
851.05141818945845
 20
999.1039312653196
  0
VERTEX
  8
15
 10
851.25543596783882
 20
998.47323237762976
  0
VERTEX
  8
15
 10
851.51740704323163
 20
997.86434875954535
  0
VERTEX
  8
15
 10
851.83558677318786
 20
997.28153764631713
  0
VERTEX
  8
15
 10
852.20709037492497
 20
996.7302513067998
  0
VERTEX
  8
15
 10
852.6286709188314
 20
996.21531184993546
  0
VERTEX
  8
15
 10
853.0964670714261
 20
995.74144111775138
  0
VERTEX
  8
15
 10
853.60611995470151
 20
995.31304699900386
  0
VERTEX
  8
15
 10
854.15293522047364
 20
994.93407035693383
  0
VERTEX
  8
15
 10
854.73190492495519
 20
994.60797776331538
  0
VERTEX
  8
15
 10
855.33797636070608
 20
994.33761248402914
  0
VERTEX
  8
15
 10
855.96549715587548
 20
994.12540711539964
  0
VERTEX
  8
15
 10
856.61010753454343
 20
993.97275095114219
  0
VERTEX
  8
15
 10
857.26705795780083
 20
993.8807628761225
  0
VERTEX
  8
15
 10
857.93206787109375
 20
993.85003662109375
  0
VERTEX
  8
15
 10
858.59707778438667
 20
993.8807628761225
  0
VERTEX
  8
15
 10
859.25402820764407
 20
993.97275095114219
  0
VERTEX
  8
15
 10
859.89863858631202
 20
994.12540711539964
  0
VERTEX
  8
15
 10
860.52615938148142
 20
994.33761248402914
  0
VERTEX
  8
15
 10
861.13223081723231
 20
994.60797776331538
  0
VERTEX
  8
15
 10
861.71120052171386
 20
994.93407035693383
  0
VERTEX
  8
15
 10
862.25801578748599
 20
995.31304699900386
  0
VERTEX
  8
15
 10
862.7676686707614
 20
995.74144111775138
  0
VERTEX
  8
15
 10
863.2354648233561
 20
996.21531184993546
  0
VERTEX
  8
15
 10
863.65704536726253
 20
996.7302513067998
  0
VERTEX
  8
15
 10
864.02854896899964
 20
997.28153764631713
  0
VERTEX
  8
15
 10
864.34672869895587
 20
997.86434875954535
  0
VERTEX
  8
15
 10
864.60869977434868
 20
998.47323237762976
  0
VERTEX
  8
15
 10
864.81271755272905
 20
999.1039312653196
  0
VERTEX
  8
15
 10
864.95727879476738
 20
999.75177968474679
  0
VERTEX
  8
15
 10
865.04144287109375
 20
1000.4125366210937
  0
VERTEX
  8
15
 10
865.04144287109375
 20
1022.2875366210937
  0
VERTEX
  8
15
 10
864.95727774224508
 20
1022.9482904646444
  0
VERTEX
  8
15
 10
864.81271439439627
 20
1023.5961388789786
  0
VERTEX
  8
15
 10
864.60869358095067
 20
1024.2268403533001
  0
VERTEX
  8
15
 10
864.34671873360537
 20
1024.8357286035127
  0
VERTEX
  8
15
 10
864.02853474456481
 20
1025.4185458434574
  0
VERTEX
  8
15
 10
863.65702670829944
 20
1025.9698392494752
  0
VERTEX
  8
15
 10
863.23544190573762
 20
1026.4847861884482
  0
VERTEX
  8
15
 10
862.76764202481786
 20
1026.9586643652456
  0
VERTEX
  8
15
 10
862.25798714331108
 20
1027.387064853009
  0
VERTEX
  8
15
 10
861.71117116618882
 20
1027.7660473116775
  0
VERTEX
  8
15
 10
861.13220226329224
 20
1028.0921449656244
  0
VERTEX
  8
15
 10
860.52613325383641
 20
1028.3625144394348
  0
VERTEX
  8
15
 10
859.8986166769995
 20
1028.5747230331626
  0
VERTEX
  8
15
 10
859.25401214217277
 20
1028.727381497016
  0
VERTEX
  8
15
 10
858.59706908143039
 20
1028.8193709449174
  0
VERTEX
  8
15
 10
857.93206787109375
 20
1028.85009765625
  0
VERTEX
  8
15
 10
857.26706666075711
 20
1028.8193709449174
  0
VERTEX
  8
15
 10
856.61012360001473
 20
1028.727381497016
  0
VERTEX
  8
15
 10
855.965519065188
 20
1028.5747230331626
  0
VERTEX
  8
15
 10
855.33800248835109
 20
1028.3625144394348
  0
VERTEX
  8
15
 10
854.73193347889526
 20
1028.0921449656244
  0
VERTEX
  8
15
 10
854.15296457599868
 20
1027.7660473116775
  0
VERTEX
  8
15
 10
853.60614859887642
 20
1027.387064853009
  0
VERTEX
  8
15
 10
853.09649371736964
 20
1026.9586643652456
  0
VERTEX
  8
15
 10
852.62869383644988
 20
1026.4847861884482
  0
VERTEX
  8
15
 10
852.20710903388806
 20
1025.9698392494752
  0
VERTEX
  8
15
 10
851.83560099762269
 20
1025.4185458434574
  0
VERTEX
  8
15
 10
851.51741700858213
 20
1024.8357286035127
  0
VERTEX
  8
15
 10
851.25544216123683
 20
1024.2268403533001
  0
VERTEX
  8
15
 10
851.05142134779123
 20
1023.5961388789786
  0
VERTEX
  8
15
 10
850.90685799994242
 20
1022.9482904646444
  0
VERTEX
  8
15
 10
850.82269287109375
 20
1022.2875366210937
  0
SEQEND
  8
15
  0
POLYLINE
  8
15
  6
CONTINUOUS
 62
     7
 66
     1
 70
     0
 40
0.0
 41
0.0
  0
VERTEX
  8
15
 10
886.91644287109375
 20
993.85003662109375
  0
VERTEX
  8
15
 10
886.91644287109375
 20
1028.85009765625
  0
VERTEX
  8
15
 10
880.90081787109375
 20
1018.4594116210937
  0
SEQEND
  8
15
  0
POLYLINE
  8
15
  6
CONTINUOUS
 62
     7
 66
     1
 70
     0
 40
0.0
 41
0.0
  0
VERTEX
  8
15
 10
907.69769287109375
 20
1022.2875366210937
  0
VERTEX
  8
15
 10
907.69769287109375
 20
1000.4125366210937
  0
VERTEX
  8
15
 10
907.78185694742012
 20
999.75177968474679
  0
VERTEX
  8
15
 10
907.92641818945845
 20
999.1039312653196
  0
VERTEX
  8
15
 10
908.13043596783882
 20
998.47323237762976
  0
VERTEX
  8
15
 10
908.39240704323163
 20
997.86434875954535
  0
VERTEX
  8
15
 10
908.71058677318786
 20
997.28153764631713
  0
VERTEX
  8
15
 10
909.08209037492497
 20
996.7302513067998
  0
VERTEX
  8
15
 10
909.5036709188314
 20
996.21531184993546
  0
VERTEX
  8
15
 10
909.9714670714261
 20
995.74144111775138
  0
VERTEX
  8
15
 10
910.48111995470151
 20
995.31304699900386
  0
VERTEX
  8
15
 10
911.02793522047364
 20
994.93407035693383
  0
VERTEX
  8
15
 10
911.60690492495519
 20
994.60797776331538
  0
VERTEX
  8
15
 10
912.21297636070608
 20
994.33761248402914
  0
VERTEX
  8
15
 10
912.84049715587548
 20
994.12540711539964
  0
VERTEX
  8
15
 10
913.48510753454343
 20
993.97275095114219
  0
VERTEX
  8
15
 10
914.14205795780083
 20
993.8807628761225
  0
VERTEX
  8
15
 10
914.80706787109375
 20
993.85003662109375
  0
VERTEX
  8
15
 10
915.47207778438667
 20
993.8807628761225
  0
VERTEX
  8
15
 10
916.12902820764407
 20
993.97275095114219
  0
VERTEX
  8
15
 10
916.77363858631202
 20
994.12540711539964
  0
VERTEX
  8
15
 10
917.40115938148142
 20
994.33761248402914
  0
VERTEX
  8
15
 10
918.00723081723231
 20
994.60797776331538
  0
VERTEX
  8
15
 10
918.58620052171386
 20
994.93407035693383
  0
VERTEX
  8
15
 10
919.13301578748599
 20
995.31304699900386
  0
VERTEX
  8
15
 10
919.6426686707614
 20
995.74144111775138
  0
VERTEX
  8
15
 10
920.1104648233561
 20
996.21531184993546
  0
VERTEX
  8
15
 10
920.53204536726253
 20
996.7302513067998
  0
VERTEX
  8
15
 10
920.90354896899964
 20
997.28153764631713
  0
VERTEX
  8
15
 10
921.22172869895587
 20
997.86434875954535
  0
VERTEX
  8
15
 10
921.48369977434868
 20
998.47323237762976
  0
VERTEX
  8
15
 10
921.68771755272905
 20
999.1039312653196
  0
VERTEX
  8
15
 10
921.83227879476738
 20
999.75177968474679
  0
VERTEX
  8
15
 10
921.91644287109375
 20
1000.4125366210937
  0
VERTEX
  8
15
 10
921.91644287109375
 20
1022.2875366210937
  0
VERTEX
  8
15
 10
921.83227774224508
 20
1022.9482904646444
  0
VERTEX
  8
15
 10
921.68771439439627
 20
1023.5961388789786
  0
VERTEX
  8
15
 10
921.48369358095067
 20
1024.2268403533001
  0
VERTEX
  8
15
 10
921.22171873360537
 20
1024.8357286035127
  0
VERTEX
  8
15
 10
920.90353474456481
 20
1025.4185458434574
  0
VERTEX
  8
15
 10
920.53202670829944
 20
1025.9698392494752
  0
VERTEX
  8
15
 10
920.11044190573762
 20
1026.4847861884482
  0
VERTEX
  8
15
 10
919.64264202481786
 20
1026.9586643652456
  0
VERTEX
  8
15
 10
919.13298714331108
 20
1027.387064853009
  0
VERTEX
  8
15
 10
918.58617116618882
 20
1027.7660473116775
  0
VERTEX
  8
15
 10
918.00720226329224
 20
1028.0921449656244
  0
VERTEX
  8
15
 10
917.40113325383641
 20
1028.3625144394348
  0
VERTEX
  8
15
 10
916.7736166769995
 20
1028.5747230331626
  0
VERTEX
  8
15
 10
916.12901214217277
 20
1028.727381497016
  0
VERTEX
  8
15
 10
915.47206908143039
 20
1028.8193709449174
  0
VERTEX
  8
15
 10
914.80706787109375
 20
1028.85009765625
  0
VERTEX
  8
15
 10
914.14206666075711
 20
1028.8193709449174
  0
VERTEX
  8
15
 10
913.48512360001473
 20
1028.727381497016
  0
VERTEX
  8
15
 10
912.840519065188
 20
1028.5747230331626
  0
VERTEX
  8
15
 10
912.21300248835109
 20
1028.3625144394348
  0
VERTEX
  8
15
 10
911.60693347889526
 20
1028.0921449656244
  0
VERTEX
  8
15
 10
911.02796457599868
 20
1027.7660473116775
  0
VERTEX
  8
15
 10
910.48114859887642
 20
1027.387064853009
  0
VERTEX
  8
15
 10
909.97149371736964
 20
1026.9586643652456
  0
VERTEX
  8
15
 10
909.50369383644988
 20
1026.4847861884482
  0
VERTEX
  8
15
 10
909.08210903388806
 20
1025.9698392494752
  0
VERTEX
  8
15
 10
908.71060099762269
 20
1025.4185458434574
  0
VERTEX
  8
15
 10
908.39241700858213
 20
1024.8357286035127
  0
VERTEX
  8
15
 10
908.13044216123683
 20
1024.2268403533001
  0
VERTEX
  8
15
 10
907.92642134779123
 20
1023.5961388789786
  0
VERTEX
  8
15
 10
907.78185799994242
 20
1022.9482904646444
  0
VERTEX
  8
15
 10
907.69769287109375
 20
1022.2875366210937
  0
SEQEND
  8
15
  0
POLYLINE
  8
15
  6
CONTINUOUS
 62
     7
 66
     1
 70
     0
 40
0.0
 41
0.0
  0
VERTEX
  8
15
 10
943.79144287109375
 20
993.85003662109375
  0
VERTEX
  8
15
 10
943.79144287109375
 20
1028.85009765625
  0
VERTEX
  8
15
 10
937.77581787109375
 20
1018.4594116210937
  0
SEQEND
  8
15
  0
POLYLINE
  8
15
  6
CONTINUOUS
 62
     7
 66
     1
 70
     0
 40
0.0
 41
0.0
  0
VERTEX
  8
15
 10
963.47894287109375
 20
1028.85009765625
  0
VERTEX
  8
15
 10
963.47894287109375
 20
993.85003662109375
  0
VERTEX
  8
15
 10
980.97894287109375
 20
993.85003662109375
  0
SEQEND
  8
15
  0
POLYLINE
  8
15
  6
CONTINUOUS
 62
     7
 66
     1
 70
     0
 40
0.0
 41
0.0
  0
VERTEX
  8
15
 10
650.66644287109375
 20
971.97503662109375
  0
VERTEX
  8
15
 10
650.66644287109375
 20
936.97503662109375
  0
VERTEX
  8
15
 10
668.16644287109375
 20
936.97503662109375
  0
SEQEND
  8
15
  0
POLYLINE
  8
15
  6
CONTINUOUS
 62
     7
 66
     1
 70
     0
 40
0.0
 41
0.0
  0
VERTEX
  8
15
 10
687.85394287109375
 20
936.97503662109375
  0
VERTEX
  8
15
 10
687.85394287109375
 20
971.97503662109375
  0
VERTEX
  8
15
 10
681.83831787109375
 20
961.58441162109375
  0
SEQEND
  8
15
  0
POLYLINE
  8
15
  6
CONTINUOUS
 62
     7
 66
     1
 70
     0
 40
0.0
 41
0.0
  0
VERTEX
  8
15
 10
707.54144287109375
 20
965.41253662109375
  0
VERTEX
  8
15
 10
713.01019287109375
 20
971.97503662109375
  0
VERTEX
  8
15
 10
719.57269287109375
 20
971.97503662109375
  0
VERTEX
  8
15
 10
725.04144287109375
 20
965.41253662109375
  0
VERTEX
  8
15
 10
725.04144287109375
 20
956.66253662109375
  0
VERTEX
  8
15
 10
707.54144287109375
 20
941.35003662109375
  0
VERTEX
  8
15
 10
707.54144287109375
 20
936.97503662109375
  0
VERTEX
  8
15
 10
725.04144287109375
 20
936.97503662109375
  0
SEQEND
  8
15
  0
POLYLINE
  8
15
  6
CONTINUOUS
 62
     7
 66
     1
 70
     0
 40
0.0
 41
0.0
  0
VERTEX
  8
15
 10
737.07269287109375
 20
965.41253662109375
  0
VERTEX
  8
15
 10
737.07269287109375
 20
943.53753662109375
  0
VERTEX
  8
15
 10
737.15685694742012
 20
942.87677968474679
  0
VERTEX
  8
15
 10
737.30141818945845
 20
942.2289312653196
  0
VERTEX
  8
15
 10
737.50543596783882
 20
941.59823237762976
  0
VERTEX
  8
15
 10
737.76740704323163
 20
940.98934875954535
  0
VERTEX
  8
15
 10
738.08558677318786
 20
940.40653764631713
  0
VERTEX
  8
15
 10
738.45709037492497
 20
939.8552513067998
  0
VERTEX
  8
15
 10
738.8786709188314
 20
939.34031184993546
  0
VERTEX
  8
15
 10
739.3464670714261
 20
938.86644111775138
  0
VERTEX
  8
15
 10
739.85611995470151
 20
938.43804699900386
  0
VERTEX
  8
15
 10
740.40293522047364
 20
938.05907035693383
  0
VERTEX
  8
15
 10
740.98190492495519
 20
937.73297776331538
  0
VERTEX
  8
15
 10
741.58797636070608
 20
937.46261248402914
  0
VERTEX
  8
15
 10
742.21549715587548
 20
937.25040711539964
  0
VERTEX
  8
15
 10
742.86010753454343
 20
937.09775095114219
  0
VERTEX
  8
15
 10
743.51705795780083
 20
937.0057628761225
  0
VERTEX
  8
15
 10
744.18206787109375
 20
936.97503662109375
  0
VERTEX
  8
15
 10
744.84707778438667
 20
937.0057628761225
  0
VERTEX
  8
15
 10
745.50402820764407
 20
937.09775095114219
  0
VERTEX
  8
15
 10
746.14863858631202
 20
937.25040711539964
  0
VERTEX
  8
15
 10
746.77615938148142
 20
937.46261248402914
  0
VERTEX
  8
15
 10
747.38223081723231
 20
937.73297776331538
  0
VERTEX
  8
15
 10
747.96120052171386
 20
938.05907035693383
  0
VERTEX
  8
15
 10
748.50801578748599
 20
938.43804699900386
  0
VERTEX
  8
15
 10
749.0176686707614
 20
938.86644111775138
  0
VERTEX
  8
15
 10
749.4854648233561
 20
939.34031184993546
  0
VERTEX
  8
15
 10
749.90704536726253
 20
939.8552513067998
  0
VERTEX
  8
15
 10
750.27854896899964
 20
940.40653764631713
  0
VERTEX
  8
15
 10
750.59672869895587
 20
940.98934875954535
  0
VERTEX
  8
15
 10
750.85869977434868
 20
941.59823237762976
  0
VERTEX
  8
15
 10
751.06271755272905
 20
942.2289312653196
  0
VERTEX
  8
15
 10
751.20727879476738
 20
942.87677968474679
  0
VERTEX
  8
15
 10
751.29144287109375
 20
943.53753662109375
  0
VERTEX
  8
15
 10
751.29144287109375
 20
965.41253662109375
  0
VERTEX
  8
15
 10
751.20727879476738
 20
966.07329355744071
  0
VERTEX
  8
15
 10
751.06271755272905
 20
966.7211419768679
  0
VERTEX
  8
15
 10
750.85869977434868
 20
967.35184086455774
  0
VERTEX
  8
15
 10
750.59672869895587
 20
967.96072448264215
  0
VERTEX
  8
15
 10
750.27854896899964
 20
968.54353559587037
  0
VERTEX
  8
15
 10
749.90704536726253
 20
969.0948219353877
  0
VERTEX
  8
15
 10
749.4854648233561
 20
969.60976139225204
  0
VERTEX
  8
15
 10
749.0176686707614
 20
970.08363212443612
  0
VERTEX
  8
15
 10
748.50801578748599
 20
970.51202624318364
  0
VERTEX
  8
15
 10
747.96120052171386
 20
970.89100288525367
  0
VERTEX
  8
15
 10
747.38223081723231
 20
971.21709547887212
  0
VERTEX
  8
15
 10
746.77615938148142
 20
971.48746075815836
  0
VERTEX
  8
15
 10
746.14863858631202
 20
971.69966612678786
  0
VERTEX
  8
15
 10
745.50402820764407
 20
971.85232229104531
  0
VERTEX
  8
15
 10
744.84707778438667
 20
971.944310366065
  0
VERTEX
  8
15
 10
744.18206787109375
 20
971.97503662109375
  0
VERTEX
  8
15
 10
743.51705795780083
 20
971.944310366065
  0
VERTEX
  8
15
 10
742.86010753454343
 20
971.85232229104531
  0
VERTEX
  8
15
 10
742.21549715587548
 20
971.69966612678786
  0
VERTEX
  8
15
 10
741.58797636070608
 20
971.48746075815836
  0
VERTEX
  8
15
 10
740.98190492495519
 20
971.21709547887212
  0
VERTEX
  8
15
 10
740.40293522047364
 20
970.89100288525367
  0
VERTEX
  8
15
 10
739.85611995470151
 20
970.51202624318364
  0
VERTEX
  8
15
 10
739.3464670714261
 20
970.08363212443612
  0
VERTEX
  8
15
 10
738.8786709188314
 20
969.60976139225204
  0
VERTEX
  8
15
 10
738.45709037492497
 20
969.0948219353877
  0
VERTEX
  8
15
 10
738.08558677318786
 20
968.54353559587037
  0
VERTEX
  8
15
 10
737.76740704323163
 20
967.96072448264215
  0
VERTEX
  8
15
 10
737.50543596783882
 20
967.35184086455774
  0
VERTEX
  8
15
 10
737.30141818945845
 20
966.7211419768679
  0
VERTEX
  8
15
 10
737.15685694742012
 20
966.07329355744071
  0
VERTEX
  8
15
 10
737.07269287109375
 20
965.41253662109375
  0
SEQEND
  8
15
  0
POLYLINE
  8
15
  6
CONTINUOUS
 62
     7
 66
     1
 70
     0
 40
0.0
 41
0.0
  0
VERTEX
  8
15
 10
764.96331787109375
 20
954.47503662109375
  0
VERTEX
  8
15
 10
786.83831787109375
 20
954.47503662109375
  0
SEQEND
  8
15
  0
POLYLINE
  8
15
  6
CONTINUOUS
 62
     7
 66
     1
 70
     0
 40
0.0
 41
0.0
  0
VERTEX
  8
15
 10
792.85394287109375
 20
965.41253662109375
  0
VERTEX
  8
15
 10
798.32269287109375
 20
971.97503662109375
  0
VERTEX
  8
15
 10
804.88519287109375
 20
971.97503662109375
  0
VERTEX
  8
15
 10
810.35394287109375
 20
965.41253662109375
  0
VERTEX
  8
15
 10
810.35394287109375
 20
956.66253662109375
  0
VERTEX
  8
15
 10
792.85394287109375
 20
941.35003662109375
  0
VERTEX
  8
15
 10
792.85394287109375
 20
936.97503662109375
  0
VERTEX
  8
15
 10
810.35394287109375
 20
936.97503662109375
  0
SEQEND
  8
15
  0
POLYLINE
  8
15
  6
CONTINUOUS
 62
     7
 66
     1
 70
     0
 40
0.0
 41
0.0
  0
VERTEX
  8
15
 10
822.38519287109375
 20
965.41253662109375
  0
VERTEX
  8
15
 10
822.38519287109375
 20
943.53753662109375
  0
VERTEX
  8
15
 10
822.46935694742012
 20
942.87677968474679
  0
VERTEX
  8
15
 10
822.61391818945845
 20
942.2289312653196
  0
VERTEX
  8
15
 10
822.81793596783882
 20
941.59823237762976
  0
VERTEX
  8
15
 10
823.07990704323163
 20
940.98934875954535
  0
VERTEX
  8
15
 10
823.39808677318786
 20
940.40653764631713
  0
VERTEX
  8
15
 10
823.76959037492497
 20
939.8552513067998
  0
VERTEX
  8
15
 10
824.1911709188314
 20
939.34031184993546
  0
VERTEX
  8
15
 10
824.6589670714261
 20
938.86644111775138
  0
VERTEX
  8
15
 10
825.16861995470151
 20
938.43804699900386
  0
VERTEX
  8
15
 10
825.71543522047364
 20
938.05907035693383
  0
VERTEX
  8
15
 10
826.29440492495519
 20
937.73297776331538
  0
VERTEX
  8
15
 10
826.90047636070608
 20
937.46261248402914
  0
VERTEX
  8
15
 10
827.52799715587548
 20
937.25040711539964
  0
VERTEX
  8
15
 10
828.17260753454343
 20
937.09775095114219
  0
VERTEX
  8
15
 10
828.82955795780083
 20
937.0057628761225
  0
VERTEX
  8
15
 10
829.49456787109375
 20
936.97503662109375
  0
VERTEX
  8
15
 10
830.15957778438667
 20
937.0057628761225
  0
VERTEX
  8
15
 10
830.81652820764407
 20
937.09775095114219
  0
VERTEX
  8
15
 10
831.46113858631202
 20
937.25040711539964
  0
VERTEX
  8
15
 10
832.08865938148142
 20
937.46261248402914
  0
VERTEX
  8
15
 10
832.69473081723231
 20
937.73297776331538
  0
VERTEX
  8
15
 10
833.27370052171386
 20
938.05907035693383
  0
VERTEX
  8
15
 10
833.82051578748599
 20
938.43804699900386
  0
VERTEX
  8
15
 10
834.3301686707614
 20
938.86644111775138
  0
VERTEX
  8
15
 10
834.7979648233561
 20
939.34031184993546
  0
VERTEX
  8
15
 10
835.21954536726253
 20
939.8552513067998
  0
VERTEX
  8
15
 10
835.59104896899964
 20
940.40653764631713
  0
VERTEX
  8
15
 10
835.90922869895587
 20
940.98934875954535
  0
VERTEX
  8
15
 10
836.17119977434868
 20
941.59823237762976
  0
VERTEX
  8
15
 10
836.37521755272905
 20
942.2289312653196
  0
VERTEX
  8
15
 10
836.51977879476738
 20
942.87677968474679
  0
VERTEX
  8
15
 10
836.60394287109375
 20
943.53753662109375
  0
VERTEX
  8
15
 10
836.60394287109375
 20
965.41253662109375
  0
VERTEX
  8
15
 10
836.51977879476738
 20
966.07329355744071
  0
VERTEX
  8
15
 10
836.37521755272905
 20
966.7211419768679
  0
VERTEX
  8
15
 10
836.17119977434868
 20
967.35184086455774
  0
VERTEX
  8
15
 10
835.90922869895587
 20
967.96072448264215
  0
VERTEX
  8
15
 10
835.59104896899964
 20
968.54353559587037
  0
VERTEX
  8
15
 10
835.21954536726253
 20
969.0948219353877
  0
VERTEX
  8
15
 10
834.7979648233561
 20
969.60976139225204
  0
VERTEX
  8
15
 10
834.3301686707614
 20
970.08363212443612
  0
VERTEX
  8
15
 10
833.82051578748599
 20
970.51202624318364
  0
VERTEX
  8
15
 10
833.27370052171386
 20
970.89100288525367
  0
VERTEX
  8
15
 10
832.69473081723231
 20
971.21709547887212
  0
VERTEX
  8
15
 10
832.08865938148142
 20
971.48746075815836
  0
VERTEX
  8
15
 10
831.46113858631202
 20
971.69966612678786
  0
VERTEX
  8
15
 10
830.81652820764407
 20
971.85232229104531
  0
VERTEX
  8
15
 10
830.15957778438667
 20
971.944310366065
  0
VERTEX
  8
15
 10
829.49456787109375
 20
971.97503662109375
  0
VERTEX
  8
15
 10
828.82955795780083
 20
971.944310366065
  0
VERTEX
  8
15
 10
828.17260753454343
 20
971.85232229104531
  0
VERTEX
  8
15
 10
827.52799715587548
 20
971.69966612678786
  0
VERTEX
  8
15
 10
826.90047636070608
 20
971.48746075815836
  0
VERTEX
  8
15
 10
826.29440492495519
 20
971.21709547887212
  0
VERTEX
  8
15
 10
825.71543522047364
 20
970.89100288525367
  0
VERTEX
  8
15
 10
825.16861995470151
 20
970.51202624318364
  0
VERTEX
  8
15
 10
824.6589670714261
 20
970.08363212443612
  0
VERTEX
  8
15
 10
824.1911709188314
 20
969.60976139225204
  0
VERTEX
  8
15
 10
823.76959037492497
 20
969.0948219353877
  0
VERTEX
  8
15
 10
823.39808677318786
 20
968.54353559587037
  0
VERTEX
  8
15
 10
823.07990704323163
 20
967.96072448264215
  0
VERTEX
  8
15
 10
822.81793596783882
 20
967.35184086455774
  0
VERTEX
  8
15
 10
822.61391818945845
 20
966.7211419768679
  0
VERTEX
  8
15
 10
822.46935694742012
 20
966.07329355744071
  0
VERTEX
  8
15
 10
822.38519287109375
 20
965.41253662109375
  0
SEQEND
  8
15
  0
POLYLINE
  8
15
  6
CONTINUOUS
 62
     7
 66
     1
 70
     0
 40
0.0
 41
0.0
  0
VERTEX
  8
15
 10
895.66644287109375
 20
971.97503662109375
  0
VERTEX
  8
15
 10
891.29144287109375
 20
936.97503662109375
  0
VERTEX
  8
15
 10
886.91644287109375
 20
970.88128662109375
  0
VERTEX
  8
15
 10
882.54144287109375
 20
936.97503662109375
  0
VERTEX
  8
15
 10
878.16644287109375
 20
971.97503662109375
  0
SEQEND
  8
15
  0
POLYLINE
  8
15
  6
CONTINUOUS
 62
     7
 66
     1
 70
     0
 40
0.0
 41
0.0
  0
VERTEX
  8
15
 10
906.60394287109375
 20
954.47503662109375
  0
VERTEX
  8
15
 10
915.35394287109375
 20
954.47503662109375
  0
VERTEX
  8
15
 10
916.21447535868435
 20
954.51682432497864
  0
VERTEX
  8
15
 10
917.0630870727141
 20
954.64190866532454
  0
VERTEX
  8
15
 10
917.89380879149587
 20
954.84941898841362
  0
VERTEX
  8
15
 10
918.69995606688406
 20
955.13769506683514
  0
VERTEX
  8
15
 10
919.4754513092455
 20
955.50470507745069
  0
VERTEX
  8
15
 10
920.21220752061038
 20
955.94677026495731
  0
VERTEX
  8
15
 10
920.9030793411207
 20
956.45960766703718
  0
VERTEX
  8
15
 10
921.54100036621094
 20
957.03797912597656
  0
VERTEX
  8
15
 10
922.11937182515032
 20
957.6759001510668
  0
VERTEX
  8
15
 10
922.63220922723019
 20
958.36677197157712
  0
VERTEX
  8
15
 10
923.07427441473681
 20
959.103528182942
  0
VERTEX
  8
15
 10
923.44128442535236
 20
959.87902342530344
  0
VERTEX
  8
15
 10
923.72956050377388
 20
960.68517070069163
  0
VERTEX
  8
15
 10
923.93707082686296
 20
961.5158924194734
  0
VERTEX
  8
15
 10
924.06215516720886
 20
962.36450413350315
  0
VERTEX
  8
15
 10
924.10394287109375
 20
963.22503662109375
  0
VERTEX
  8
15
 10
924.06215516720886
 20
964.08556910868435
  0
VERTEX
  8
15
 10
923.93707082686296
 20
964.9341808227141
  0
VERTEX
  8
15
 10
923.72956050377388
 20
965.76490254149587
  0
VERTEX
  8
15
 10
923.44128442535236
 20
966.57104981688406
  0
VERTEX
  8
15
 10
923.07427441473681
 20
967.3465450592455
  0
VERTEX
  8
15
 10
922.63220922723019
 20
968.08330127061038
  0
VERTEX
  8
15
 10
922.11937182515032
 20
968.7741730911207
  0
VERTEX
  8
15
 10
921.54100036621094
 20
969.41209411621094
  0
VERTEX
  8
15
 10
920.9030793411207
 20
969.99046557515032
  0
VERTEX
  8
15
 10
920.21220752061038
 20
970.50330297723019
  0
VERTEX
  8
15
 10
919.4754513092455
 20
970.94536816473681
  0
VERTEX
  8
15
 10
918.69995606688406
 20
971.31237817535236
  0
VERTEX
  8
15
 10
917.89380879149587
 20
971.60065425377388
  0
VERTEX
  8
15
 10
917.0630870727141
 20
971.80816457686296
  0
VERTEX
  8
15
 10
916.21447535868435
 20
971.93324891720886
  0
VERTEX
  8
15
 10
915.35394287109375
 20
971.97503662109375
  0
VERTEX
  8
15
 10
906.60394287109375
 20
971.97503662109375
  0
VERTEX
  8
15
 10
906.60394287109375
 20
936.97503662109375
  0
SEQEND
  8
15
  0
ENDBLK
  8
15
  0
ENDSEC
  0
SECTION
  2
ENTITIES
  0
INSERT
  8
15
  6
CONTINUOUS
 62
     3
  2
SUB1
 10
0.0
 20
159.69999999999999
 41
1.0
 42
1.0
 50
0.0
  0
INSERT
  8
15
  6
CONTINUOUS
 62
     3
  2
SUB2
 10
-93.299999999999997
 20
159.69999999999999
 41
1.0
 42
1.0
 50
0.0
  0
INSERT
  8
15
  6
CONTINUOUS
 62
     3
  2
SUB3
 10
0.0
 20
85.0
 41
1.0
 42
1.0
 50
0.0
  0
INSERT
  8
15
  6
CONTINUOUS
 62
     3
  2
SUB4
 10
0.0
 20
355.45000000000027
 41
1.0
 42
1.0
 50
0.0
  0
INSERT
  8
15
  6
CONTINUOUS
 62
     3
  2
COMP1
 10
0.0
 20
0.0
 41
1.0
 42
1.0
 50
0.0
  0
INSERT
  8
15
  6
CONTINUOUS
 62
     3
  2
COMP2
 10
0.0
 20
0.0
 41
1.0
 42
1.0
 50
0.0
  0
INSERT
  8
15
  6
CONTINUOUS
 62
     3
  2
COMP3
 10
0.0
 20
0.0
 41
1.0
 42
1.0
 50
0.0
  0
INSERT
  8
15
  6
CONTINUOUS
 62
     3
  2
SUB5
 10
77.900000000000006
 20
276.0
 41
1.0
 42
1.0
 50
0.0
  0
INSERT
  8
15
  6
CONTINUOUS
 62
     3
  2
SUB6
 10
138.40000000000003
 20
307.19999999999999
 41
1.0
 42
1.0
 50
0.0
  0
INSERT
  8
15
  6
CONTINUOUS
 62
     3
  2
COMP4
 10
0.0
 20
0.0
 41
1.0
 42
1.0
 50
0.0
  0
INSERT
  8
15
  6
CONTINUOUS
 62
     4
  2
COMP5
 10
0.0
 20
0.0
 41
1.0
 42
1.0
 50
0.0
  0
INSERT
  8
15
  6
CONTINUOUS
 62
     3
  2
COMP6
 10
0.0
 20
0.0
 41
1.0
 42
1.0
 50
0.0
  0
INSERT
  8
15
  6
CONTINUOUS
 62
     3
  2
SUB8
 10
823.59206334174723
 20
84.999999999999986
 41
1.0
 42
1.0
 50
0.0
  0
INSERT
  8
15
  6
CONTINUOUS
 62
     3
  2
SUB9
 10
758.49206334174733
 20
159.69999999999999
 41
1.0
 42
1.0
 50
0.0
  0
INSERT
  8
15
  6
CONTINUOUS
 62
     3
  2
SUB10
 10
712.29206334174728
 20
276.0
 41
1.0
 42
1.0
 50
0.0
  0
INSERT
  8
15
  6
CONTINUOUS
 62
     3
  2
COMP7
 10
0.0
 20
0.0
 41
1.0
 42
1.0
 50
0.0
  0
INSERT
  8
15
  6
CONTINUOUS
 62
     3
  2
COMP8
 10
0.0
 20
0.0
 41
1.0
 42
1.0
 50
0.0
  0
INSERT
  8
15
  6
CONTINUOUS
 62
     3
  2
COMP9
 10
0.0
 20
0.0
 41
1.0
 42
1.0
 50
0.0
  0
INSERT
  8
15
  6
CONTINUOUS
 62
     4
  2
COMP10
 10
0.0
 20
0.0
 41
1.0
 42
1.0
 50
0.0
  0
INSERT
  8
15
  6
CONTINUOUS
 62
     3
  2
SUB12
 10
754.59206334174723
 20
215.24000000000001
 41
1.0
 42
1.0
 50
0.0
  0
INSERT
  8
15
  6
CONTINUOUS
 62
     3
  2
SUB13
 10
823.59206334174723
 20
314.00000000000011
 41
1.0
 42
1.0
 50
0.0
  0
INSERT
  8
15
  6
CONTINUOUS
 62
     3
  2
SUB14
 10
823.59206334174723
 20
355.45000000000039
 41
1.0
 42
1.0
 50
0.0
  0
INSERT
  8
15
  6
CONTINUOUS
 62
     3
  2
COMP11
 10
0.0
 20
0.0
 41
1.0
 42
1.0
 50
0.0
  0
INSERT
  8
15
  6
CONTINUOUS
 62
     3
  2
SUB16
 10
-93.300000000000026
 20
1000.8838157008204
 41
1.0
 42
1.0
 50
0.0
  0
INSERT
  8
15
  6
CONTINUOUS
 62
     3
  2
SUB17
 10
0.0
 20
1065.9838157008203
 41
1.0
 42
1.0
 50
0.0
  0
INSERT
  8
15
  6
CONTINUOUS
 62
     3
  2
SUB18
 10
0.0
 20
1065.9838157008203
 41
1.0
 42
1.0
 50
0.0
  0
INSERT
  8
15
  6
CONTINUOUS
 62
     3
  2
SUB19
 10
138.40000000000006
 20
892.5838157008202
 41
1.0
 42
1.0
 50
0.0
  0
INSERT
  8
15
  6
CONTINUOUS
 62
     3
  2
COMP12
 10
0.0
 20
0.0
 41
1.0
 42
1.0
 50
0.0
  0
INSERT
  8
15
  6
CONTINUOUS
 62
     3
  2
SUB20
 10
77.899999999999991
 20
954.38381570082038
 41
1.0
 42
1.0
 50
0.0
  0
INSERT
  8
15
  6
CONTINUOUS
 62
     3
  2
COMP13
 10
0.0
 20
0.0
 41
1.0
 42
1.0
 50
0.0
  0
INSERT
  8
15
  6
CONTINUOUS
 62
     3
  2
COMP14
 10
0.0
 20
0.0
 41
1.0
 42
1.0
 50
0.0
  0
INSERT
  8
15
  6
CONTINUOUS
 62
     3
  2
COMP15
 10
0.0
 20
0.0
 41
1.0
 42
1.0
 50
0.0
  0
INSERT
  8
15
  6
CONTINUOUS
 62
     7
  2
COMP16
 10
0.0
 20
0.0
 41
1.0
 42
1.0
 50
0.0
  0
ENDSEC
  0
EOF
