  0
SECTION
  2
HEADER
  9
$ACADVER
  1
AC1006
  9
$INSBASE
 10
0.0
 20
0.0
 30
0.0
  9
$EXTMIN
 10
-453.05645201396828
 20
-24.000000000000171
  9
$EXTMAX
 10
1250.2556957523564
 20
1492.6882361406592
  9
$LIMMIN
 10
-453.05645201396828
 20
-24.000000000000171
  9
$LIMMAX
 10
1250.2556957523564
 20
1492.6882361406592
  9
$ORTHOMODE
 70
     0
  9
$REGENMODE
 70
     1
  9
$FILLMODE
 70
     1
  9
$QTEXTMODE
 70
     0
  9
$MIRRTEXT
 70
     1
  9
$DRAGMODE
 70
     2
  9
$LTSCALE
 40
1.0
  9
$OSMODE
 70
     0
  9
$ATTMODE
 70
     1
  9
$TEXTSIZE
 40
3.0
  9
$TRACEWID
 40
0.5
  9
$TEXTSTYLE
  7
STANDARD
  9
$CLAYER
  8
0
  9
$CELTYPE
  6
BYLAYER
  9
$CECOLOR
 62
   256
  9
$DIMSCALE
 40
1.0
  9
$DIMASZ
 40
3.0
  9
$DIMEXO
 40
1.0
  9
$DIMDLI
 40
5.0
  9
$DIMRND
 40
0.0
  9
$DIMDLE
 40
0.0
  9
$DIMEXE
 40
1.5
  9
$DIMTP
 40
0.0
  9
$DIMTM
 40
0.0
  9
$DIMTXT
 40
3.0
  9
$DIMCEN
 40
2.0
  9
$DIMTSZ
 40
0.0
  9
$DIMTOL
 70
     0
  9
$DIMLIM
 70
     0
  9
$DIMTIH
 70
     0
  9
$DIMTOH
 70
     0
  9
$DIMSE1
 70
     0
  9
$DIMSE2
 70
     0
  9
$DIMTAD
 70
     1
  9
$DIMZIN
 70
     8
  9
$DIMBLK
  1

  9
$DIMASO
 70
     1
  9
$DIMSHO
 70
     0
  9
$DIMPOST
  1

  9
$DIMAPOST
  1

  9
$DIMALT
 70
     0
  9
$DIMALTD
 70
     0
  9
$DIMALTF
 40
25.399999999999999
  9
$DIMLFAC
 40
1.0
  9
$DIMTOFL
 70
     0
  9
$DIMTVP
 40
1.0
  9
$DIMTIX
 70
     0
  9
$DIMSOXD
 70
     0
  9
$DIMSAH
 70
     0
  9
$DIMBLK1
  1

  9
$DIMBLK2
  1

  9
$LUNITS
 70
     2
  9
$LUPREC
 70
     4
  9
$AXISMODE
 70
     0
  9
$AXISUNIT
 10
0.0
 20
0.0
  9
$SKETCHINC
 40
1.0
  9
$FILLETRAD
 40
0.0
  9
$AUNITS
 70
     0
  9
$AUPREC
 70
     0
  9
$MENU
  1
acad
  9
$ELEVATION
 40
0.0
  9
$THICKNESS
 40
0.0
  9
$LIMCHECK
 70
     0
  9
$BLIPMODE
 70
     1
  9
$CHAMFERA
 40
0.0
  9
$CHAMFERB
 40
0.0
  9
$SKPOLY
 70
     0
  9
$TDCREATE
 40
2452543.391550926
  9
$TDUPDATE
 40
2452543.391550926
  9
$TDINDWG
 40
0.0
  9
$TDUSRTIMER
 40
0.0
  9
$USRTIMER
 70
     1
  9
$ANGBASE
 50
0.0
  9
$ANGDIR
 70
     0
  9
$PDMODE
 70
     0
  9
$PDSIZE
 40
0.0
  9
$PLINEWID
 40
0.0
  9
$COORDS
 70
     0
  9
$SPLFRAME
 70
     0
  9
$SPLINETYPE
 70
     6
  9
$SPLINESEGS
 70
     8
  9
$ATTDIA
 70
     0
  9
$ATTREQ
 70
     1
  9
$HANDLING
 70
     0
  9
$HANDSEED
  5
0
  9
$SURFTAB1
 70
     6
  9
$SURFTAB2
 70
     6
  9
$SURFTYPE
 70
     6
  9
$SURFU
 70
     6
  9
$SURFV
 70
     6
  9
$FLATLAND
 70
     0
  9
$UCSNAME
  2

  9
$UCSORG
 10
0.0
 20
0.0
 30
0.0
  9
$UCSXDIR
 10
1.0
 20
0.0
 30
0.0
  9
$UCSYDIR
 10
0.0
 20
1.0
 30
0.0
  9
$USERI1
 70
     0
  9
$USERI2
 70
     0
  9
$USERI3
 70
     0
  9
$USERI4
 70
     0
  9
$USERI5
 70
     0
  9
$USERR1
 40
0.0
  9
$USERR2
 40
0.0
  9
$USERR3
 40
0.0
  9
$USERR4
 40
0.0
  9
$USERR5
 40
0.0
  9
$WORLDVIEW
 70
     1
  0
ENDSEC
  0
SECTION
  2
TABLES
  0
TABLE
  2
VPORT
 70
     1
  0
VPORT
  2
*ACTIVE
 70
     0
 10
0.0
 20
0.0
 11
1.0
 21
1.0
 12
398.59962186919404
 22
734.3441180703295
 13
0.0
 23
0.0
 14
0.0
 24
0.0
 15
0.0
 25
0.0
 16
0.0
 26
0.0
 36
1.0
 17
0.0
 27
0.0
 37
0.0
 40
1516.6882361406595
 41
1.5
 42
50.0
 43
0.0
 44
0.0
 50
0.0
 51
0.0
 71
     0
 72
   100
 73
     1
 74
     1
 75
     0
 76
     0
 77
     0
 78
     0
  0
ENDTAB
  0
TABLE
  2
LTYPE
 70
    20
  0
LTYPE
  2
CONTINUOUS
 70
    64
  3
solid line
 72
    65
 73
     0
 40
0.0
  0
LTYPE
  2
CENTER
 70
    64
  3
--- - --- - --- - --- - --- -
 72
    65
 73
     4
 40
6.0
 49
3.0
 49
-1.0
 49
1.0
 49
-1.0
  0
LTYPE
  2
PHANTOM
 70
    64
  3
----- - - ----- - - ----- - -
 72
    65
 73
     6
 40
12.0
 49
7.0
 49
-1.0
 49
1.0
 49
-1.0
 49
1.0
 49
-1.0
  0
ENDTAB
  0
TABLE
  2
LAYER
 70
    20
  0
LAYER
  2
0
 70
    64
 62
     7
  6
CONTINUOUS
  0
LAYER
  2
15
 70
    64
 62
     7
  6
CONTINUOUS
  0
ENDTAB
  0
TABLE
  2
STYLE
 70
     4
  0
ENDTAB
  0
TABLE
  2
VIEW
 70
     0
  0
ENDTAB
  0
TABLE
  2
UCS
 70
     0
  0
ENDTAB
  0
TABLE
  2
DWGMGR
 70
     0
  0
ENDTAB
  0
ENDSEC
  0
SECTION
  2
BLOCKS
  0
BLOCK
  8
15
  2
SUB1
 70
    64
 10
0.0
 20
0.0
  0
LINE
  8
15
  6
CONTINUOUS
 62
     3
 10
-89.0
 20
-92.5
 11
89.0
 21
-92.5
  0
LINE
  8
15
  6
CONTINUOUS
 62
     3
 10
89.0
 20
-86.5
 11
89.0
 21
-92.5
  0
LINE
  8
15
  6
CONTINUOUS
 62
     3
 10
-89.0
 20
-92.5
 11
-89.0
 21
-59.861863343362671
  0
ENDBLK
  8
15
  0
BLOCK
  8
15
  2
SUB2
 70
    64
 10
0.0
 20
0.0
  0
LINE
  8
15
  6
CONTINUOUS
 62
     3
 10
-89.0
 20
-11.299999999999997
 11
89.0
 21
-11.299999999999997
  0
LINE
  8
15
  6
CONTINUOUS
 62
     3
 10
-89.0
 20
-101.29999999999998
 11
89.0
 21
-101.29999999999998
  0
LINE
  8
15
  6
CONTINUOUS
 62
     3
 10
-89.0
 20
-101.29999999999998
 11
-89.0
 21
0.0
  0
LINE
  8
15
  6
CONTINUOUS
 62
     3
 10
89.0
 20
-101.29999999999998
 11
89.0
 21
0.0
  0
LINE
  8
15
  6
CONTINUOUS
 62
     3
 10
-49.9849999999999
 20
-110.29999999999998
 11
49.9849999999999
 21
-110.29999999999998
  0
LINE
  8
15
  6
CONTINUOUS
 62
     3
 10
-49.9849999999999
 20
-110.29999999999998
 11
-49.9849999999999
 21
-101.29999999999998
  0
LINE
  8
15
  6
CONTINUOUS
 62
     3
 10
49.9849999999999
 20
-110.29999999999998
 11
49.9849999999999
 21
-101.29999999999998
  0
LINE
  8
15
  6
CONTINUOUS
 62
     3
 10
-89.0
 20
0.0
 11
89.0
 21
0.0
  0
ENDBLK
  8
15
  0
BLOCK
  8
15
  2
SUB3
 70
    64
 10
0.0
 20
0.0
  0
LINE
  8
15
  6
CONTINUOUS
 62
     3
 10
47.700000000000045
 20
-25.370000000000005
 11
47.700000000000045
 21
3.6299999999999955
  0
LINE
  8
15
  6
CONTINUOUS
 62
     3
 10
34.599999999999909
 20
3.6299999999999955
 11
47.700000000000045
 21
3.6299999999999955
  0
LINE
  8
15
  6
CONTINUOUS
 62
     3
 10
44.710000000000036
 20
-25.370000000000005
 11
47.700000000000045
 21
-25.370000000000005
  0
LINE
  8
15
  6
CONTINUOUS
 62
     3
 10
54.700000000000045
 20
26.800000000000011
 11
54.700000000000045
 21
57.800000000000011
  0
LINE
  8
15
  6
CONTINUOUS
 62
     3
 10
51.5
 20
26.800000000000011
 11
51.5
 21
57.800000000000011
  0
LINE
  8
15
  6
CONTINUOUS
 62
     3
 10
34.600000000000136
 20
57.800000000000011
 11
54.700000000000045
 21
57.800000000000011
  0
LINE
  8
15
  6
CONTINUOUS
 62
     3
 10
47.700000000000045
 20
26.800000000000011
 11
54.700000000000045
 21
26.800000000000011
  0
LINE
  8
15
  6
CONTINUOUS
 62
     3
 10
47.700000000000045
 20
3.6299999999999955
 11
47.700000000000045
 21
26.800000000000011
  0
LINE
  8
15
  6
CONTINUOUS
 62
     3
 10
66.299999999999955
 20
-25.370000000000005
 11
66.299999999999955
 21
127.58531367861349
  0
LINE
  8
15
  6
CONTINUOUS
 62
     3
 10
66.299999999999955
 20
127.58531367861349
 11
56.5
 21
127.58531367861349
  0
LINE
  8
15
  6
CONTINUOUS
 62
     3
 10
47.700000000000045
 20
-25.370000000000005
 11
66.299999999999955
 21
-25.370000000000005
  0
LINE
  8
15
  6
CONTINUOUS
 62
     3
 10
47.700000000000045
 20
19.323459556665568
 11
56.5
 21
19.323459556665568
  0
LINE
  8
15
  6
CONTINUOUS
 62
     3
 10
56.5
 20
19.323459556665568
 11
56.5
 21
127.58531367861349
  0
ENDBLK
  8
15
  0
BLOCK
  8
15
  2
SUB4
 70
    64
 10
0.0
 20
0.0
  0
LINE
  8
15
  6
CONTINUOUS
 62
     3
 10
71.700000000000045
 20
-130.0
 11
71.699999999999818
 21
-129.89999999999964
  0
LINE
  8
15
  6
CONTINUOUS
 62
     3
 10
71.699999999999818
 20
-129.89999999999964
 11
71.700000000000045
 21
39.89999999999867
  0
LINE
  8
15
  6
CONTINUOUS
 62
     3
 10
71.700000000000045
 20
39.89999999999867
 11
71.699999999999818
 21
40.0
  0
LINE
  8
15
  6
CONTINUOUS
 62
     3
 10
-202.10000000000014
 20
-111.67897064388524
 11
-202.10000000000014
 21
21.678970643885066
  0
LINE
  8
15
  6
CONTINUOUS
 62
     3
 10
-154.10000000000014
 20
-178.0
 11
23.699999999999818
 21
-178.0
  0
LINE
  8
15
  6
CONTINUOUS
 62
     3
 10
-154.10000000000014
 20
88.0
 11
23.699999999999818
 21
88.0
  0
ARC
  8
15
  6
CONTINUOUS
 62
     3
 10
-154.10000000000014
 20
40.0
 40
48.0
 50
90.0
 51
179.13156396893407
  0
ARC
  8
15
  6
CONTINUOUS
 62
     3
 10
-154.10000000000014
 20
-130.0
 40
47.999999999999993
 50
180.86843603106584
 51
270.0
  0
ARC
  8
15
  6
CONTINUOUS
 62
     3
 10
-190.90000000000009
 20
-121.19999999999999
 40
14.699999999999999
 50
139.63240645581473
 51
220.40076192220124
  0
ARC
  8
15
  6
CONTINUOUS
 62
     3
 10
-190.90000000000009
 20
31.199999999999989
 40
14.700000000000058
 50
139.63240645581439
 51
220.36759354418578
  0
LINE
  8
15
  6
CONTINUOUS
 62
     3
 10
73.200000000000045
 20
-160.69999999999999
 11
73.200000000000045
 21
-61.600000000000023
  0
LINE
  8
15
  6
CONTINUOUS
 62
     3
 10
-145.20000000000005
 20
-179.5
 11
-85.200000000000045
 21
-179.5
  0
LINE
  8
15
  6
CONTINUOUS
 62
     3
 10
-25.900000000000091
 20
-179.5
 11
34.099999999999909
 21
-179.5
  0
LINE
  8
15
  6
CENTER
 62
     3
 10
4.0999999999999091
 20
-210.39343188198339
 11
4.0999999999999091
 21
-171.56335906982423
  0
LINE
  8
15
  6
CENTER
 62
     3
 10
-115.20000000000005
 20
-210.39343188198339
 11
-115.20000000000005
 21
-171.56335906982423
  0
LINE
  8
15
  6
CONTINUOUS
 62
     3
 10
60.598644961570017
 20
-160.69999999999999
 11
73.200000000000045
 21
-160.69999999999999
  0
LINE
  8
15
  6
CONTINUOUS
 62
     3
 10
71.700000000000045
 20
-61.600000000000023
 11
73.200000000000045
 21
-61.600000000000023
  0
LINE
  8
15
  6
CENTER
 62
     3
 10
63.137780761718659
 20
-87.600000000000023
 11
101.67549736641172
 21
-87.600000000000023
  0
LINE
  8
15
  6
CONTINUOUS
 62
     3
 10
-85.200000000000045
 20
-179.5
 11
-85.200000000000045
 21
-178.0
  0
LINE
  8
15
  6
CONTINUOUS
 62
     3
 10
-145.20000000000005
 20
-179.5
 11
-145.20000000000005
 21
-178.0
  0
LINE
  8
15
  6
CONTINUOUS
 62
     3
 10
-25.900000000000091
 20
-179.5
 11
-25.900000000000091
 21
-178.0
  0
LINE
  8
15
  6
CONTINUOUS
 62
     3
 10
34.099999999999909
 20
-179.5
 11
34.099999999999909
 21
-176.85979086594392
  0
ARC
  8
15
  6
CONTINUOUS
 62
     3
 10
23.699999999999818
 20
40.0
 40
48.0
 50
0.0
 51
90.0
  0
ARC
  8
15
  6
CONTINUOUS
 62
     3
 10
23.699999999999818
 20
-130.0
 40
48.0
 50
270.0
 51
0.0
  0
ENDBLK
  8
15
  0
BLOCK
  8
15
  2
SUB5
 70
    64
 10
0.0
 20
0.0
  0
LINE
  8
15
  6
CENTER
 62
     3
 10
-177.09082260131845
 20
-33.499999999999602
 11
-100.57085647583017
 21
-33.499999999999602
  0
LINE
  8
15
  6
CENTER
 62
     3
 10
-138.40000000000009
 20
-67.645435333251555
 11
-138.40000000000009
 21
5.4572677612308667
  0
LINE
  8
15
  6
CONTINUOUS
 62
     3
 10
11.200000000000045
 20
-161.09999999999962
 11
11.200000000000045
 21
8.6999999999986812
  0
LINE
  8
15
  6
CONTINUOUS
 62
     3
 10
-262.60000000000014
 20
-161.09999999999962
 11
-262.60000000000014
 21
8.6999999999923716
  0
LINE
  8
15
  6
CONTINUOUS
 62
     3
 10
-214.60000000000173
 20
56.699999999992372
 11
-36.800000000001774
 21
56.699999999998681
  0
LINE
  8
15
  6
CONTINUOUS
 62
     3
 10
-214.60000000000014
 20
-209.0999999999996
 11
-36.800000000000182
 21
-209.0999999999996
  0
ARC
  8
15
  6
CONTINUOUS
 62
     3
 10
-214.60000000000014
 20
-161.09999999999962
 40
48.0
 50
180.0
 51
270.0
  0
ARC
  8
15
  6
CONTINUOUS
 62
     3
 10
-36.800000000000182
 20
-161.09999999999962
 40
48.0
 50
270.0
 51
0.0
  0
ARC
  8
15
  6
CONTINUOUS
 62
     3
 10
-36.800000000000182
 20
8.6999999999986812
 40
48.0
 50
0.0
 51
90.0
  0
ARC
  8
15
  6
CONTINUOUS
 62
     3
 10
-214.60000000000014
 20
8.6999999999923716
 40
48.0
 50
90.0
 51
180.0
  0
ARC
  8
15
  6
CONTINUOUS
 62
     3
 10
-36.800000000000182
 20
8.6999999999986812
 40
18.0
 50
0.0
 51
90.0
  0
LINE
  8
15
  6
CONTINUOUS
 62
     3
 10
-214.60000000000014
 20
26.699999999998681
 11
-36.800000000000182
 21
26.699999999998681
  0
ARC
  8
15
  6
CONTINUOUS
 62
     3
 10
-36.800000000000182
 20
-161.09999999999962
 40
18.0
 50
270.0
 51
0.0
  0
ARC
  8
15
  6
CONTINUOUS
 62
     3
 10
-214.60000000000014
 20
-161.09999999999962
 40
18.0
 50
180.0
 51
270.0
  0
ARC
  8
15
  6
CONTINUOUS
 62
     3
 10
-214.60000000000014
 20
8.6999999999986812
 40
18.0
 50
90.0
 51
180.0
  0
LINE
  8
15
  6
CONTINUOUS
 62
     3
 10
-18.800000000000182
 20
-161.09999999999962
 11
-18.800000000000182
 21
8.6999999999986812
  0
LINE
  8
15
  6
CONTINUOUS
 62
     3
 10
-232.60000000000014
 20
-161.09999999999962
 11
-232.60000000000014
 21
8.6999999999986812
  0
LINE
  8
15
  6
CONTINUOUS
 62
     3
 10
-214.60000000000014
 20
-179.0999999999996
 11
-36.800000000000182
 21
-179.0999999999996
  0
CIRCLE
  8
15
  6
CONTINUOUS
 62
     3
 10
-138.40000000000009
 20
-33.499999999999602
 40
28.574999999999999
  0
ENDBLK
  8
15
  0
BLOCK
  8
15
  2
SUB6
 70
    64
 10
0.0
 20
0.0
  0
LINE
  8
15
  6
CENTER
 62
     3
 10
0.0
 20
43.599999999995134
 11
0.0
 21
53.039346647262619
  0
LINE
  8
15
  6
CONTINUOUS
 62
     3
 10
-69.00305981527481
 20
43.59999999999269
 11
-68.565616497644442
 21
48.60000000000008
  0
LINE
  8
15
  6
CONTINUOUS
 62
     3
 10
69.003059815274128
 20
43.599999999997578
 11
68.565616497644442
 21
48.60000000000008
  0
ENDBLK
  8
15
  0
BLOCK
  8
15
  2
SUB7
 70
    64
 10
0.0
 20
0.0
  0
LINE
  8
15
  6
CONTINUOUS
 62
     3
 10
-68.0
 20
5.6000000000000227
 11
68.0
 21
5.6000000000000227
  0
LINE
  8
15
  6
CENTER
 62
     3
 10
0.0
 20
-430.50000000000017
 11
0.0
 21
233.18175932246004
  0
LINE
  8
15
  6
CONTINUOUS
 62
     3
 10
-68.0
 20
20.600000000000023
 11
-22.0
 21
20.600000000000023
  0
LINE
  8
15
  6
CONTINUOUS
 62
     3
 10
22.0
 20
20.600000000000023
 11
68.0
 21
20.600000000000023
  0
LINE
  8
15
  6
CONTINUOUS
 62
     3
 10
-68.0
 20
2.0999999999999091
 11
-68.0
 21
20.600000000000023
  0
LINE
  8
15
  6
CONTINUOUS
 62
     3
 10
68.0
 20
2.0999999999999091
 11
68.0
 21
20.600000000000023
  0
LINE
  8
15
  6
CONTINUOUS
 62
     3
 10
-295.5
 20
88.599999999999966
 11
295.5
 21
88.599999999999966
  0
LINE
  8
15
  6
CONTINUOUS
 62
     3
 10
-295.5
 20
69.599999999999966
 11
295.5
 21
69.599999999999966
  0
ARC
  8
15
  6
CONTINUOUS
 62
     3
 10
-295.5
 20
79.099999999999966
 40
9.5
 50
90.0
 51
270.0
  0
ARC
  8
15
  6
CONTINUOUS
 62
     3
 10
295.5
 20
79.099999999999966
 40
9.5
 50
270.0
 51
90.0
  0
LINE
  8
15
  6
CONTINUOUS
 62
     3
 10
-245.82054305612269
 20
69.599999999999966
 11
-67.460543056122788
 21
20.600000000000023
  0
LINE
  8
15
  6
CONTINUOUS
 62
     3
 10
-276.01945694387723
 20
69.599999999999966
 11
-68.0
 21
12.451797542890915
  0
LINE
  8
15
  6
CONTINUOUS
 62
     3
 10
245.82054305612269
 20
69.599999999999966
 11
67.460543056122788
 21
20.600000000000023
  0
LINE
  8
15
  6
CONTINUOUS
 62
     3
 10
276.01945694387723
 20
69.599999999999966
 11
68.0
 21
12.451797542890915
  0
LINE
  8
15
  6
CONTINUOUS
 62
     3
 10
-22.0
 20
12.451797542890915
 11
-22.0
 21
69.599999999999966
  0
LINE
  8
15
  6
CONTINUOUS
 62
     3
 10
22.0
 20
12.451797542890915
 11
22.0
 21
69.599999999999966
  0
LINE
  8
15
  6
CONTINUOUS
 62
     3
 10
-22.0
 20
12.451797542890915
 11
22.0
 21
12.451797542890915
  0
LINE
  8
15
  6
CONTINUOUS
 62
     3
 10
283.5
 20
113.59999999999991
 11
278.5
 21
170.33684817440417
  0
LINE
  8
15
  6
CONTINUOUS
 62
     3
 10
307.5
 20
113.59999999999991
 11
312.5
 21
170.33684817440417
  0
LINE
  8
15
  6
CONTINUOUS
 62
     3
 10
286.25
 20
184.59999999999991
 11
304.75
 21
184.59999999999991
  0
ARC
  8
15
  6
CONTINUOUS
 62
     3
 10
295.5
 20
170.33684817440417
 40
17.0
 50
0.0
 51
57.035612676244355
  0
ARC
  8
15
  6
CONTINUOUS
 62
     3
 10
295.5
 20
170.33684817440417
 40
17.0
 50
122.96438732375566
 51
180.0
  0
LINE
  8
15
  6
CONTINUOUS
 62
     3
 10
283.5
 20
91.599999999999966
 11
307.5
 21
91.599999999999966
  0
LINE
  8
15
  6
CONTINUOUS
 62
     3
 10
290.5
 20
88.599999999999966
 11
290.5
 21
91.599999999999966
  0
LINE
  8
15
  6
CONTINUOUS
 62
     3
 10
300.5
 20
87.177747210701739
 11
300.5
 21
91.599999999999966
  0
LINE
  8
15
  6
CONTINUOUS
 62
     3
 10
283.5
 20
91.599999999999966
 11
283.5
 21
113.59999999999991
  0
LINE
  8
15
  6
CONTINUOUS
 62
     3
 10
307.5
 20
91.599999999999966
 11
307.5
 21
113.59999999999991
  0
ENDBLK
  8
15
  0
BLOCK
  8
15
  2
SUB8
 70
    64
 10
0.0
 20
0.0
  0
LINE
  8
15
  6
CENTER
 62
     3
 10
-51.399999999999864
 20
-48.800000000000011
 11
24.322837829589844
 21
-48.800000000000011
  0
LINE
  8
15
  6
CONTINUOUS
 62
     3
 10
-40.487797869677934
 20
-132.0
 11
-14.829243946696351
 21
-132.0
  0
LINE
  8
15
  6
CONTINUOUS
 62
     3
 10
-50.599999999999909
 20
-158.30000000000001
 11
-50.599999999999909
 21
46.5
  0
LINE
  8
15
  6
CONTINUOUS
 62
     3
 10
-50.599999999999909
 20
46.5
 11
-45.599999999999909
 21
46.5
  0
LINE
  8
15
  6
CONTINUOUS
 62
     3
 10
-50.599999999999909
 20
-158.30000000000001
 11
-45.599999999999909
 21
-158.30000000000001
  0
LINE
  8
15
  6
CONTINUOUS
 62
     3
 10
-45.599999999999909
 20
-158.30000000000001
 11
-45.599999999999909
 21
-131.39292267422536
  0
LINE
  8
15
  6
CONTINUOUS
 62
     3
 10
-45.599999999999909
 20
19.199999999999989
 11
-45.599999999999909
 21
46.5
  0
LINE
  8
15
  6
CONTINUOUS
 62
     3
 10
-25.200000000000045
 20
32.740026256414581
 11
-45.599999999999909
 21
46.5
  0
LINE
  8
15
  6
CONTINUOUS
 62
     3
 10
-10.217645214999038
 20
-137.04013640123162
 11
-45.599999999999909
 21
-158.30000000000001
  0
LINE
  8
15
  6
CONTINUOUS
 62
     3
 10
-45.599999999999909
 20
-158.30000000000001
 11
-40.487797869677934
 21
-132.0
  0
LINE
  8
15
  6
CONTINUOUS
 62
     3
 10
-40.29341756054032
 20
19.199999999999989
 11
-45.600000000000136
 21
46.5
  0
LINE
  8
15
  6
CONTINUOUS
 62
     3
 10
-45.599999999999909
 20
19.199999999999989
 11
-25.200000000000045
 21
19.199999999999989
  0
LINE
  8
15
  6
CONTINUOUS
 62
     3
 10
-22.599999999999909
 20
-132.0
 11
-22.599999999999909
 21
-117.78332442067449
  0
LINE
  8
15
  6
CONTINUOUS
 62
     3
 10
-45.599999999999909
 20
-101.40000000000003
 11
-26.396773773849418
 21
-101.40000000000003
  0
LINE
  8
15
  6
CONTINUOUS
 62
     3
 10
-45.599999999999909
 20
-101.40000000000003
 11
-45.599999999999909
 21
-0.7999999999999545
  0
ENDBLK
  8
15
  0
BLOCK
  8
15
  2
SUB9
 70
    64
 10
0.0
 20
0.0
  0
LINE
  8
15
  6
CONTINUOUS
 62
     3
 10
-29.400000000000091
 20
-39.0
 11
29.400000000000091
 21
-39.0
  0
LINE
  8
15
  6
CONTINUOUS
 62
     3
 10
-39.0
 20
-29.399999999999977
 11
-39.0
 21
29.399999999999949
  0
LINE
  8
15
  6
CONTINUOUS
 62
     3
 10
39.0
 20
-29.399999999999977
 11
39.0
 21
29.399999999999949
  0
ARC
  8
15
  6
CONTINUOUS
 62
     3
 10
-29.400000000000091
 20
29.399999999999949
 40
9.5999999999999908
 50
45.0
 51
225.0
  0
ARC
  8
15
  6
CONTINUOUS
 62
     3
 10
-29.400000000000091
 20
-29.399999999999977
 40
9.6000000000000103
 50
134.99999999999952
 51
315.00000000000023
  0
ARC
  8
15
  6
CONTINUOUS
 62
     3
 10
29.400000000000091
 20
29.399999999999949
 40
9.6000000000000014
 50
314.99999999999955
 51
135.0
  0
ARC
  8
15
  6
CONTINUOUS
 62
     3
 10
29.400000000000091
 20
-29.399999999999977
 40
9.6000000000000014
 50
224.99999999999974
 51
45.000000000000483
  0
LINE
  8
15
  6
CONTINUOUS
 62
     3
 10
36.18822509939082
 20
-22.611774900609134
 11
26.437652571966282
 21
-12.86120237318454
  0
LINE
  8
15
  6
CONTINUOUS
 62
     3
 10
-12.861202373184597
 20
26.437652571966254
 11
-22.611774900609134
 21
36.188225099390905
  0
LINE
  8
15
  6
CONTINUOUS
 62
     3
 10
22.611774900609134
 20
-36.188225099390877
 11
12.861202373184597
 21
-26.437652571966225
  0
LINE
  8
15
  6
CONTINUOUS
 62
     3
 10
-26.437652571966282
 20
12.86120237318454
 11
-36.18822509939082
 21
22.611774900609106
  0
ARC
  8
15
  6
CONTINUOUS
 62
     3
 10
0.0
 20
0.0
 40
29.399999999999999
 50
90.0
 51
115.94166751710728
  0
ARC
  8
15
  6
CONTINUOUS
 62
     3
 10
0.0
 20
0.0
 40
29.399999999999999
 50
154.05833248289287
 51
205.94166751710713
  0
ARC
  8
15
  6
CONTINUOUS
 62
     3
 10
0.0
 20
0.0
 40
29.399999999999995
 50
244.05833248289269
 51
295.94166751710731
  0
ARC
  8
15
  6
CONTINUOUS
 62
     3
 10
0.0
 20
0.0
 40
29.399999999999999
 50
334.05833248289287
 51
25.941667517107145
  0
ARC
  8
15
  6
CONTINUOUS
 62
     3
 10
0.0
 20
0.0
 40
29.399999999999999
 50
64.058332482892737
 51
90.0
  0
LINE
  8
15
  6
CONTINUOUS
 62
     3
 10
-12.861202373184597
 20
-26.437652571966225
 11
-22.611774900609134
 21
-36.188225099390877
  0
LINE
  8
15
  6
CONTINUOUS
 62
     3
 10
-26.437652571966282
 20
-12.86120237318454
 11
-36.18822509939082
 21
-22.611774900609134
  0
LINE
  8
15
  6
CONTINUOUS
 62
     3
 10
36.18822509939082
 20
22.611774900609106
 11
26.437652571966282
 21
12.86120237318454
  0
LINE
  8
15
  6
CONTINUOUS
 62
     3
 10
22.611774900609134
 20
36.188225099390905
 11
12.861202373184597
 21
26.437652571966254
  0
CIRCLE
  8
15
  6
CONTINUOUS
 62
     3
 10
0.0
 20
0.0
 40
18.653342677668434
  0
LINE
  8
15
  6
CONTINUOUS
 62
     3
 10
-29.400000000000091
 20
38.999999999999972
 11
-19.960597005426052
 21
38.999999999999972
  0
LINE
  8
15
  6
CONTINUOUS
 62
     3
 10
17.560597005425961
 20
38.999999999999972
 11
29.400000000000091
 21
38.999999999999972
  0
ARC
  8
15
  6
CONTINUOUS
 62
     3
 10
-1.2000000000000455
 20
66.80000000000004
 40
32.0
 50
244.76213284331675
 51
295.23786715668325
  0
ARC
  8
15
  6
CONTINUOUS
 62
     3
 10
-19.960597005426052
 20
26.999999999999972
 40
12.0
 50
64.762132843317133
 51
90.0
  0
ARC
  8
15
  6
CONTINUOUS
 62
     3
 10
17.560597005425961
 20
26.999999999999972
 40
12.0
 50
90.0
 51
115.23786715668287
  0
ENDBLK
  8
15
  0
BLOCK
  8
15
  2
SUB10
 70
    64
 10
0.0
 20
0.0
  0
LINE
  8
15
  6
CONTINUOUS
 62
     3
 10
123.10729060457811
 20
126.23800487207154
 11
137.10800487207166
 21
112.23729060457799
  0
LINE
  8
15
  6
CONTINUOUS
 62
     3
 10
10.253048327205079
 20
-21.12304832720497
 11
137.10800487207166
 21
105.73190821766173
  0
LINE
  8
15
  6
CONTINUOUS
 62
     3
 10
-10.253048327204851
 20
-0.6169516727950395
 11
116.60190821766173
 21
126.23800487207154
  0
ARC
  8
15
  6
CONTINUOUS
 62
     3
 10
0.0
 20
-10.870000000000005
 40
14.5
 50
134.99999999999969
 51
315.00000000000034
  0
LINE
  8
15
  6
CONTINUOUS
 62
     3
 10
38.961583643378844
 20
48.597680297788656
 11
44.892406971479431
 21
42.666856969687956
  0
LINE
  8
15
  6
CONTINUOUS
 62
     3
 10
3.9597979746447436
 20
6.3834054609517352
 11
17.253405460951853
 21
-6.9102020253553746
  0
LINE
  8
15
  6
CONTINUOUS
 62
     3
 10
3.9597979746447436
 20
6.3834054609517352
 11
42.567828227430255
 21
44.991435713737246
  0
LINE
  8
15
  6
CONTINUOUS
 62
     3
 10
17.253405460951853
 20
-6.9102020253553746
 11
127.77419536040929
 21
103.61058787410207
  0
ARC
  8
15
  6
CONTINUOUS
 62
     3
 10
48.153971798803923
 20
48.173416229076679
 40
6.4000000000000004
 50
315.00000000000142
 51
30.638488437082383
  0
ARC
  8
15
  6
CONTINUOUS
 62
     3
 10
48.153971798803923
 20
48.173416229076679
 40
6.4000000000000004
 50
239.36151156291572
 51
315.00000000000142
  0
LINE
  8
15
  6
CONTINUOUS
 62
     3
 10
47.729707730092059
 20
57.365804384501871
 11
53.660531058192873
 21
51.434981056401057
  0
LINE
  8
15
  6
CONTINUOUS
 62
     3
 10
121.97591975467958
 20
113.6515041669511
 11
127.77419536040929
 21
107.85322856122139
  0
LINE
  8
15
  6
CONTINUOUS
 62
     3
 10
125.58216433873099
 20
117.2577487510024
 11
131.3804399444607
 21
111.4594731452728
  0
LINE
  8
15
  6
CONTINUOUS
 62
     3
 10
118.59428875781418
 20
110.2698731700857
 11
121.97591975467958
 21
113.6515041669511
  0
LINE
  8
15
  6
CONTINUOUS
 62
     3
 10
125.58216433873099
 20
117.2577487510024
 11
128.83485553218907
 21
120.51043994446059
  0
ARC
  8
15
  6
CONTINUOUS
 62
     3
 10
125.65287501684952
 20
105.73190821766161
 40
8.0999999999999943
 50
315.00000000000114
 51
45.0
  0
ARC
  8
15
  6
CONTINUOUS
 62
     3
 10
125.65287501684952
 20
105.73190821766161
 40
3.0
 50
315.00000000000307
 51
45.0
  0
LINE
  8
15
  6
CONTINUOUS
 62
     3
 10
114.79878592563614
 20
124.43488258004595
 11
128.61152524156978
 21
120.73377023507987
  0
LINE
  8
15
  6
CONTINUOUS
 62
     3
 10
114.79878592563614
 20
124.43488258004595
 11
118.59428875781418
 21
110.2698731700857
  0
ARC
  8
15
  6
CONTINUOUS
 62
     3
 10
133.85531367861358
 20
108.9845994111198
 40
4.5999999999999996
 50
315.0
 51
45.000000000001002
  0
ARC
  8
15
  6
CONTINUOUS
 62
     3
 10
119.85459941112003
 20
122.98531367861347
 40
4.5999999999999943
 50
45.0
 51
135.00000000000202
  0
ARC
  8
15
  6
CONTINUOUS
 62
     3
 10
0.0
 20
-10.870000000000005
 40
20.0
 50
91.468847832627475
 51
270.0
  0
LINE
  8
15
  6
CONTINUOUS
 62
     3
 10
-37.899999999999864
 20
-15.700000000000045
 11
-37.899999999999864
 21
28.199999999999932
  0
LINE
  8
15
  6
CONTINUOUS
 62
     3
 10
-28.199999999999818
 20
37.899999999999977
 11
28.263903345590279
 21
37.899999999999977
  0
LINE
  8
15
  6
CONTINUOUS
 62
     3
 10
-28.199999999999818
 20
-25.399999999999977
 11
-17.771887913218279
 21
-25.399999999999977
  0
LINE
  8
15
  6
CONTINUOUS
 62
     3
 10
16.800000000000182
 20
-25.399999999999977
 11
45.259591794226708
 21
-25.399999999999977
  0
ARC
  8
15
  6
CONTINUOUS
 62
     3
 10
-28.199999999999818
 20
-15.700000000000045
 40
9.6999999999999993
 50
180.0
 51
270.0
  0
ARC
  8
15
  6
CONTINUOUS
 62
     3
 10
-28.199999999999818
 20
28.199999999999932
 40
9.6999999999999993
 50
90.0
 51
180.0
  0
ARC
  8
15
  6
CONTINUOUS
 62
     3
 10
0.0
 20
0.0
 40
30.999999999999996
 50
235.02026268672373
 51
304.97973731327659
  0
LINE
  8
15
  6
CONTINUOUS
 62
     3
 10
30.5
 20
-6.0
 11
33.800000000000182
 21
-6.0
  0
LINE
  8
15
  6
CONTINUOUS
 62
     3
 10
16.800000000000182
 20
-25.399999999999977
 11
16.800000000000182
 21
-14.576096654409866
  0
LINE
  8
15
  6
CONTINUOUS
 62
     3
 10
30.5
 20
-25.399999999999977
 11
30.5
 21
-0.8760966544099347
  0
LINE
  8
15
  6
CONTINUOUS
 62
     3
 10
33.800000000000182
 20
-25.200000000000045
 11
33.800000000000182
 21
2.4239033455901335
  0
LINE
  8
15
  6
CONTINUOUS
 62
     3
 10
62.800000000000182
 20
-25.200000000000045
 11
62.800000000000182
 21
31.423903345590134
  0
LINE
  8
15
  6
CONTINUOUS
 62
     3
 10
45.259591794226708
 20
-25.200000000000045
 11
62.800000000000182
 21
-25.200000000000045
  0
LINE
  8
15
  6
CONTINUOUS
 62
     3
 10
58.176096654410003
 20
26.799999999999955
 11
62.800000000000182
 21
26.799999999999955
  0
ARC
  8
15
  6
CONTINUOUS
 62
     3
 10
48.300000000000182
 20
48.299999999999955
 40
9.5
 50
90.0
 51
180.0
  0
LINE
  8
15
  6
CONTINUOUS
 62
     3
 10
30.19345955666563
 20
-1.1826370977443048
 11
9.6873629022556997
 21
19.323459556665625
  0
LINE
  8
15
  6
CONTINUOUS
 62
     3
 10
59.600000000000136
 20
-25.200000000000045
 11
59.600000000000136
 21
26.799999999999955
  0
ENDBLK
  8
15
  0
BLOCK
  8
15
  2
SUB11
 70
    64
 10
0.0
 20
0.0
  0
LINE
  8
15
  6
CONTINUOUS
 62
     3
 10
0.0
 20
39.500000000000114
 11
0.0
 21
-164.20000000000007
  0
LINE
  8
15
  6
CONTINUOUS
 62
     3
 10
-62.600000000000136
 20
88.0
 11
-62.600000000000136
 21
-178.00000000000003
  0
LINE
  8
15
  6
CONTINUOUS
 62
     3
 10
-62.600000000000136
 20
88.0
 11
-34.600000000000136
 21
88.0
  0
LINE
  8
15
  6
CONTINUOUS
 62
     3
 10
-62.600000000000136
 20
-178.00000000000003
 11
-53.200000000000045
 21
-178.00000000000003
  0
LINE
  8
15
  6
CONTINUOUS
 62
     3
 10
-53.200000000000045
 20
88.0
 11
-53.200000000000045
 21
39.500000000000114
  0
LINE
  8
15
  6
CONTINUOUS
 62
     3
 10
-53.200000000000045
 20
22.900000000000091
 11
-53.200000000000045
 21
-61.599999999999909
  0
LINE
  8
15
  6
CONTINUOUS
 62
     3
 10
-53.200000000000045
 20
-160.69999999999996
 11
-53.200000000000045
 21
-178.00000000000003
  0
LINE
  8
15
  6
CONTINUOUS
 62
     3
 10
-42.40314488188119
 20
57.699999999999932
 11
-12.299999999999955
 21
57.699999999999932
  0
LINE
  8
15
  6
CONTINUOUS
 62
     3
 10
-2.2999999999999545
 20
47.699999999999932
 11
-2.2999999999999545
 21
-160.70000000000007
  0
LINE
  8
15
  6
CONTINUOUS
 62
     3
 10
-2.2999999999999545
 20
39.500000000000114
 11
0.0
 21
39.500000000000114
  0
LINE
  8
15
  6
CONTINUOUS
 62
     3
 10
-2.6000000000001364
 20
-164.20000000000007
 11
0.0
 21
-164.20000000000007
  0
ARC
  8
15
  6
CONTINUOUS
 62
     3
 10
-12.299999999999955
 20
47.699999999999932
 40
10.0
 50
0.0
 51
90.0
  0
LINE
  8
15
  6
CONTINUOUS
 62
     3
 10
-34.600000000000136
 20
88.0
 11
-4.8101664040900687
 21
54.325888069200801
  0
LINE
  8
15
  6
CONTINUOUS
 62
     3
 10
-53.200000000000045
 20
88.0
 11
-48.804395276460582
 21
63.071286845164764
  0
ARC
  8
15
  6
CONTINUOUS
 62
     3
 10
-42.40314488188119
 20
64.199999999999932
 40
6.500000000000032
 50
190.00000000000099
 51
270.0
  0
LINE
  8
15
  6
CONTINUOUS
 62
     3
 10
-58.900000000000091
 20
-61.599999999999909
 11
-58.900000000000091
 21
-160.70000000000007
  0
LINE
  8
15
  6
CONTINUOUS
 62
     3
 10
-58.900000000000091
 20
-61.599999999999909
 11
-2.2999999999999545
 21
-61.599999999999909
  0
LINE
  8
15
  6
CONTINUOUS
 62
     3
 10
-58.900000000000091
 20
-160.70000000000007
 11
-2.2999999999999545
 21
-160.70000000000007
  0
LINE
  8
15
  6
CONTINUOUS
 62
     3
 10
-58.900000000000091
 20
-179.50000000000003
 11
-2.6000000000001364
 21
-179.50000000000003
  0
LINE
  8
15
  6
CONTINUOUS
 62
     3
 10
-58.900000000000091
 20
-178.00000000000003
 11
-58.900000000000091
 21
-179.50000000000003
  0
LINE
  8
15
  6
CONTINUOUS
 62
     3
 10
-2.6000000000001364
 20
-160.70000000000007
 11
-2.6000000000001364
 21
-179.50000000000003
  0
LINE
  8
15
  6
CENTER
 62
     3
 10
-32.600000000000136
 20
-66.095554788173672
 11
-32.600000000000136
 21
-111.55297567341094
  0
LINE
  8
15
  6
CENTER
 62
     3
 10
-54.227209362768008
 20
-87.599999999999852
 11
-9.9142559712515776
 21
-87.60000000000008
  0
LINE
  8
15
  6
CENTER
 62
     3
 10
-32.600000000000136
 20
-173.97731094360356
 11
-32.600000000000136
 21
-179.50000000000003
  0
LINE
  8
15
  6
CONTINUOUS
 62
     3
 10
-47.857292484533673
 20
57.699999999999932
 11
-47.857292484533673
 21
39.500000000000114
  0
LINE
  8
15
  6
CONTINUOUS
 62
     3
 10
-47.857292484533673
 20
22.900000000000091
 11
-47.857292484533673
 21
-61.599999999999909
  0
LINE
  8
15
  6
CONTINUOUS
 62
     3
 10
-62.600000000000136
 20
39.500000000000114
 11
-7.2999999999999545
 21
39.500000000000114
  0
LINE
  8
15
  6
CONTINUOUS
 62
     3
 10
-62.600000000000136
 20
22.900000000000091
 11
-7.2999999999999545
 21
22.899999999999977
  0
LINE
  8
15
  6
CONTINUOUS
 62
     3
 10
-34.600000000000136
 20
39.500000000000114
 11
-34.600000000000136
 21
22.899999999999977
  0
ENDBLK
  8
15
  0
BLOCK
  8
15
  2
SUB12
 70
    64
 10
0.0
 20
0.0
  0
LINE
  8
15
  6
CONTINUOUS
 62
     3
 10
0.0
 20
-209.10000000000306
 11
0.0
 21
56.699999999995271
  0
LINE
  8
15
  6
CONTINUOUS
 62
     3
 10
-9.0
 20
56.699999999995271
 11
0.0
 21
56.699999999995271
  0
LINE
  8
15
  6
CONTINUOUS
 62
     3
 10
-9.0
 20
-209.10000000000306
 11
0.0
 21
-209.10000000000306
  0
LINE
  8
15
  6
CONTINUOUS
 62
     3
 10
-9.0
 20
-209.10000000000306
 11
-9.0
 21
56.699999999995271
  0
LINE
  8
15
  6
CONTINUOUS
 62
     3
 10
-188.99999999999989
 20
-159.10000000000306
 11
-188.99999999999989
 21
6.6999999999952706
  0
LINE
  8
15
  6
CONTINUOUS
 62
     3
 10
-169.0
 20
26.699999999995271
 11
-9.0
 21
26.699999999995271
  0
LINE
  8
15
  6
CONTINUOUS
 62
     3
 10
-169.0
 20
-179.10000000000306
 11
-9.0
 21
-179.10000000000306
  0
ARC
  8
15
  6
CONTINUOUS
 62
     3
 10
-169.0
 20
6.6999999999952706
 40
20.0
 50
90.0
 51
180.0
  0
ARC
  8
15
  6
CONTINUOUS
 62
     3
 10
-169.0
 20
-159.10000000000306
 40
20.0
 50
180.0
 51
270.0
  0
ENDBLK
  8
15
  0
BLOCK
  8
15
  2
SUB13
 70
    64
 10
0.0
 20
0.0
  0
LINE
  8
15
  6
CONTINUOUS
 62
     3
 10
-68.0
 20
5.6000000000000227
 11
68.0
 21
5.6000000000000227
  0
LINE
  8
15
  6
CONTINUOUS
 62
     3
 10
-68.0
 20
2.1000000000000227
 11
-68.0
 21
20.600000000000023
  0
LINE
  8
15
  6
CONTINUOUS
 62
     3
 10
68.0
 20
2.1000000000000227
 11
68.0
 21
20.600000000000023
  0
LINE
  8
15
  6
CONTINUOUS
 62
     3
 10
-295.5
 20
88.600000000000136
 11
295.5
 21
88.600000000000136
  0
LINE
  8
15
  6
CONTINUOUS
 62
     3
 10
-295.5
 20
69.600000000000136
 11
295.5
 21
69.600000000000136
  0
ARC
  8
15
  6
CONTINUOUS
 62
     3
 10
-295.5
 20
79.100000000000136
 40
9.5
 50
90.0
 51
270.0
  0
ARC
  8
15
  6
CONTINUOUS
 62
     3
 10
295.5
 20
79.100000000000136
 40
9.5
 50
270.0
 51
90.0
  0
LINE
  8
15
  6
CONTINUOUS
 62
     3
 10
-245.82054305612292
 20
69.600000000000136
 11
-67.460543056122788
 21
20.600000000000023
  0
LINE
  8
15
  6
CONTINUOUS
 62
     3
 10
-276.01945694387723
 20
69.600000000000136
 11
-68.0
 21
12.451797542890972
  0
LINE
  8
15
  6
CONTINUOUS
 62
     3
 10
245.82054305612292
 20
69.600000000000136
 11
67.460543056122788
 21
20.600000000000023
  0
LINE
  8
15
  6
CONTINUOUS
 62
     3
 10
276.01945694387723
 20
69.600000000000136
 11
68.0
 21
12.451797542890972
  0
LINE
  8
15
  6
CONTINUOUS
 62
     3
 10
-22.0
 20
12.451797542890972
 11
22.0
 21
12.451797542890972
  0
LINE
  8
15
  6
CONTINUOUS
 62
     3
 10
-22.0
 20
12.451797542890972
 11
-22.0
 21
69.600000000000136
  0
LINE
  8
15
  6
CONTINUOUS
 62
     3
 10
22.0
 20
12.451797542890972
 11
22.0
 21
69.600000000000136
  0
LINE
  8
15
  6
CONTINUOUS
 62
     3
 10
-68.0
 20
20.600000000000023
 11
-22.0
 21
20.600000000000023
  0
LINE
  8
15
  6
CONTINUOUS
 62
     3
 10
22.0
 20
20.600000000000023
 11
68.0
 21
20.600000000000023
  0
LINE
  8
15
  6
CONTINUOUS
 62
     3
 10
-12.0
 20
113.60000000000014
 11
-17.0
 21
170.33684817440417
  0
LINE
  8
15
  6
CONTINUOUS
 62
     3
 10
-9.25
 20
184.60000000000014
 11
9.25
 21
184.60000000000014
  0
ARC
  8
15
  6
CONTINUOUS
 62
     3
 10
0.0
 20
170.33684817440417
 40
17.0
 50
122.96438732375523
 51
180.0
  0
LINE
  8
15
  6
CONTINUOUS
 62
     3
 10
-12.0
 20
91.600000000000136
 11
12.0
 21
91.600000000000136
  0
LINE
  8
15
  6
CONTINUOUS
 62
     3
 10
-5.0
 20
88.600000000000136
 11
-5.0
 21
91.600000000000136
  0
LINE
  8
15
  6
CONTINUOUS
 62
     3
 10
-12.0
 20
91.600000000000136
 11
-12.0
 21
113.60000000000014
  0
LINE
  8
15
  6
CONTINUOUS
 62
     3
 10
5.0
 20
88.600000000000136
 11
5.0
 21
91.600000000000136
  0
LINE
  8
15
  6
CONTINUOUS
 62
     3
 10
12.0
 20
91.600000000000136
 11
12.0
 21
113.60000000000014
  0
LINE
  8
15
  6
CONTINUOUS
 62
     3
 10
12.0
 20
113.60000000000014
 11
17.0
 21
170.33684817440417
  0
ARC
  8
15
  6
CONTINUOUS
 62
     3
 10
0.0
 20
170.33684817440417
 40
17.0
 50
0.0
 51
57.035612676244767
  0
ENDBLK
  8
15
  0
BLOCK
  8
15
  2
SUB14
 70
    64
 10
0.0
 20
0.0
  0
LINE
  8
15
  6
CONTINUOUS
 62
     3
 10
-80.5
 20
0.0
 11
6.8639033455901881
 21
0.0
  0
LINE
  8
15
  6
CONTINUOUS
 62
     3
 10
47.876096654409821
 20
0.0
 11
80.5
 21
0.0
  0
LINE
  8
15
  6
CONTINUOUS
 62
     3
 10
71.903309011158399
 20
10.449999999999932
 11
68.565616497644442
 21
48.599999999999909
  0
LINE
  8
15
  6
CONTINUOUS
 62
     3
 10
-71.903309011158399
 20
10.449999999999932
 11
-68.565616497644442
 21
48.599999999999909
  0
LINE
  8
15
  6
CONTINUOUS
 62
     3
 10
71.180256121069078
 20
10.449999999999932
 11
80.5
 21
10.449999999999932
  0
LINE
  8
15
  6
CONTINUOUS
 62
     3
 10
71.180256121069078
 20
10.449999999999932
 11
71.180256121069078
 21
16.75
  0
LINE
  8
15
  6
CONTINUOUS
 62
     3
 10
60.743255011999281
 20
16.75
 11
71.180256121069078
 21
16.75
  0
LINE
  8
15
  6
CONTINUOUS
 62
     3
 10
80.5
 20
0.0
 11
80.5
 21
10.449999999999932
  0
LINE
  8
15
  6
CONTINUOUS
 62
     3
 10
-41.5315536205851
 20
16.75
 11
-71.180256121069078
 21
16.75
  0
LINE
  8
15
  6
CONTINUOUS
 62
     3
 10
-71.180256121069078
 20
10.449999999999932
 11
-71.180256121069078
 21
16.75
  0
LINE
  8
15
  6
CONTINUOUS
 62
     3
 10
-71.180256121069078
 20
10.449999999999932
 11
-80.5
 21
10.449999999999932
  0
LINE
  8
15
  6
CONTINUOUS
 62
     3
 10
-62.200000000000045
 20
10.449999999999932
 11
17.313903345590234
 21
10.449999999999932
  0
LINE
  8
15
  6
CONTINUOUS
 62
     3
 10
58.326096654409866
 20
10.449999999999932
 11
62.200000000000045
 21
10.449999999999932
  0
LINE
  8
15
  6
CONTINUOUS
 62
     3
 10
-80.5
 20
0.0
 11
-80.5
 21
10.449999999999932
  0
ENDBLK
  8
15
  0
BLOCK
  8
15
  2
SUB15
 70
    64
 10
0.0
 20
0.0
  0
LINE
  8
15
  6
CENTER
 62
     3
 10
0.0
 20
445.4142110714912
 11
0.0
 21
-215.73125692556169
  0
LINE
  8
15
  6
CONTINUOUS
 62
     3
 10
-89.0
 20
-92.5
 11
89.0
 21
-92.5
  0
LINE
  8
15
  6
CONTINUOUS
 62
     3
 10
-80.5
 20
160.60000000000011
 11
6.8639033455901881
 21
160.60000000000011
  0
LINE
  8
15
  6
CONTINUOUS
 62
     3
 10
47.876096654409821
 20
160.60000000000011
 11
80.5
 21
160.60000000000011
  0
LINE
  8
15
  6
CONTINUOUS
 62
     3
 10
89.0
 20
-41.5
 11
89.0
 21
-92.5
  0
LINE
  8
15
  6
CONTINUOUS
 62
     3
 10
-89.0
 20
-47.899999999999977
 11
-89.0
 21
-92.5
  0
LINE
  8
15
  6
CONTINUOUS
 62
     3
 10
-125.29999999999995
 20
-47.899999999999977
 11
-47.450000000000045
 21
-47.899999999999977
  0
LINE
  8
15
  6
CONTINUOUS
 62
     3
 10
-125.29999999999995
 20
155.49999999999997
 11
-97.799999999999955
 21
155.49999999999997
  0
LINE
  8
15
  6
CONTINUOUS
 62
     3
 10
-125.29999999999995
 20
155.49999999999997
 11
-125.29999999999995
 21
-47.899999999999977
  0
LINE
  8
15
  6
CONTINUOUS
 62
     3
 10
-37.150000000000091
 20
-41.5
 11
89.0
 21
-41.5
  0
LINE
  8
15
  6
CONTINUOUS
 62
     3
 10
89.0
 20
-41.5
 11
80.5
 21
-29.800753675995054
  0
LINE
  8
15
  6
CONTINUOUS
 62
     3
 10
80.5
 20
160.60000000000011
 11
80.5
 21
-29.800753675995054
  0
LINE
  8
15
  6
CONTINUOUS
 62
     3
 10
-80.5
 20
160.60000000000011
 11
-80.5
 21
142.70000000000002
  0
LINE
  8
15
  6
CONTINUOUS
 62
     3
 10
-125.29999999999995
 20
142.70000000000002
 11
-40.0
 21
142.70000000000002
  0
LINE
  8
15
  6
CONTINUOUS
 62
     3
 10
-118.79999999999995
 20
155.49999999999997
 11
-117.68014510686817
 21
142.70000000000002
  0
LINE
  8
15
  6
CONTINUOUS
 62
     3
 10
-105.65000000000009
 20
104.59999999999999
 11
-49.136096654409812
 21
104.59999999999999
  0
LINE
  8
15
  6
CONTINUOUS
 62
     3
 10
-115.34999999999991
 20
94.899999999999949
 11
-115.34999999999991
 21
29.399999999999949
  0
ARC
  8
15
  6
CONTINUOUS
 62
     3
 10
-105.65000000000009
 20
94.899999999999949
 40
9.7000000000000028
 50
90.0
 51
180.0
  0
LINE
  8
15
  6
CONTINUOUS
 62
     3
 10
-37.150000000000091
 20
36.80000000000004
 11
-37.150000000000091
 21
29.399999999999949
  0
LINE
  8
15
  6
CONTINUOUS
 62
     3
 10
-37.150000000000091
 20
-29.399999999999977
 11
-37.150000000000091
 21
-41.5
  0
LINE
  8
15
  6
CONTINUOUS
 62
     3
 10
-32.650000000000091
 20
41.30000000000004
 11
-32.950000000000045
 21
41.30000000000004
  0
ARC
  8
15
  6
CONTINUOUS
 62
     3
 10
-32.650000000000091
 20
36.80000000000004
 40
4.5
 50
90.0
 51
180.0
  0
LINE
  8
15
  6
CONTINUOUS
 62
     3
 10
-40.0
 20
157.60000000000011
 11
-40.0
 21
142.70000000000002
  0
LINE
  8
15
  6
CONTINUOUS
 62
     3
 10
-97.799999999999955
 20
155.49999999999997
 11
-90.409916554372785
 21
142.70000000000002
  0
LINE
  8
15
  6
CONTINUOUS
 62
     3
 10
-40.0
 20
157.60000000000011
 11
0.0
 21
157.60000000000011
  0
ENDBLK
  8
15
  0
BLOCK
  8
15
  2
SUB16
 70
    64
 10
0.0
 20
0.0
  0
LINE
  8
15
  6
CONTINUOUS
 62
     3
 10
-89.0
 20
-11.300000000000011
 11
89.0
 21
-11.300000000000011
  0
LINE
  8
15
  6
CONTINUOUS
 62
     3
 10
-89.0
 20
-101.30000000000001
 11
89.0
 21
-101.30000000000001
  0
LINE
  8
15
  6
CONTINUOUS
 62
     3
 10
89.0
 20
-101.30000000000001
 11
89.0
 21
0.0
  0
LINE
  8
15
  6
CONTINUOUS
 62
     3
 10
-89.0
 20
-101.30000000000001
 11
-89.0
 21
0.0
  0
LINE
  8
15
  6
CONTINUOUS
 62
     3
 10
-49.9849999999999
 20
-110.30000000000001
 11
49.9849999999999
 21
-110.30000000000001
  0
LINE
  8
15
  6
CONTINUOUS
 62
     3
 10
49.9849999999999
 20
-110.30000000000001
 11
49.985000000000127
 21
-101.30000000000001
  0
LINE
  8
15
  6
CONTINUOUS
 62
     3
 10
-49.9849999999999
 20
-110.30000000000001
 11
-49.9849999999999
 21
-101.30000000000001
  0
LINE
  8
15
  6
CONTINUOUS
 62
     3
 10
-89.0
 20
0.0
 11
89.0
 21
0.0
  0
LINE
  8
15
  6
CENTER
 62
     3
 10
0.0
 20
-7.3572440147399902
 11
0.0
 21
7.8307814598083496
  0
ENDBLK
  8
15
  0
BLOCK
  8
15
  2
SUB17
 70
    64
 10
0.0
 20
0.0
  0
LINE
  8
15
  6
CENTER
 62
     3
 10
-327.5841064453125
 20
0.0
 11
339.94561767578125
 21
0.0
  0
LINE
  8
15
  6
CENTER
 62
     3
 10
0.0
 20
-398.30932396581159
 11
0.0
 21
330.80963134765625
  0
ARC
  8
15
  6
CONTINUOUS
 62
     3
 10
-62.200000000000045
 20
62.200000000000045
 40
12.700000000000001
 50
95.42300620239061
 51
174.57699379760942
  0
ARC
  8
15
  6
CONTINUOUS
 62
     3
 10
62.200000000000038
 20
62.200000000000045
 40
12.700000000000003
 50
5.4230062023906029
 51
84.576993797609404
  0
ARC
  8
15
  6
CONTINUOUS
 62
     3
 10
62.200000000000038
 20
-62.200000000000045
 40
12.700000000000003
 50
275.42300620239058
 51
354.57699379760942
  0
ARC
  8
15
  6
CONTINUOUS
 62
     3
 10
-62.200000000000045
 20
-62.200000000000045
 40
12.700000000000003
 50
185.42300620239058
 51
264.57699379760936
  0
LINE
  8
15
  6
CONTINUOUS
 62
     3
 10
63.400252332527536
 20
74.843156027600799
 11
22.0
 21
78.77340487692868
  0
LINE
  8
15
  6
CONTINUOUS
 62
     3
 10
-22.0
 20
78.77340487692868
 11
-63.400252332527543
 21
74.843156027600799
  0
LINE
  8
15
  6
CONTINUOUS
 62
     3
 10
-74.843156027600799
 20
63.400252332527543
 11
-78.773404876928907
 21
22.0
  0
LINE
  8
15
  6
CONTINUOUS
 62
     3
 10
-78.773404876928907
 20
-22.0
 11
-74.843156027600799
 21
-63.400252332527543
  0
LINE
  8
15
  6
CONTINUOUS
 62
     3
 10
-63.400252332527543
 20
-74.843156027600799
 11
-22.0
 21
-78.773404876928907
  0
LINE
  8
15
  6
CONTINUOUS
 62
     3
 10
22.0
 20
-78.77340487692868
 11
63.400252332527536
 21
-74.843156027600799
  0
LINE
  8
15
  6
CONTINUOUS
 62
     3
 10
74.843156027600799
 20
-63.400252332527543
 11
78.773404876928907
 21
-22.0
  0
LINE
  8
15
  6
CONTINUOUS
 62
     3
 10
78.773404876928907
 20
22.0
 11
74.843156027600799
 21
63.400252332527543
  0
ARC
  8
15
  6
CONTINUOUS
 62
     3
 10
0.0
 20
0.0
 40
89.0
 50
344.08819875055656
 51
345.68864726133671
  0
ARC
  8
15
  6
CONTINUOUS
 62
     3
 10
0.0
 20
0.0
 40
88.999999999999986
 50
14.311352738663292
 51
30.667735518414013
  0
ARC
  8
15
  6
CONTINUOUS
 62
     3
 10
0.0
 20
0.0
 40
89.0
 50
59.332264481585987
 51
64.189679839734396
  0
ARC
  8
15
  6
CONTINUOUS
 62
     3
 10
0.0
 20
0.0
 40
88.999999999999986
 50
64.755270683977315
 51
75.688647261336712
  0
ARC
  8
15
  6
CONTINUOUS
 62
     3
 10
0.0
 20
0.0
 40
88.999999999999986
 50
104.31135273866329
 51
115.24472931602268
  0
ARC
  8
15
  6
CONTINUOUS
 62
     3
 10
0.0
 20
0.0
 40
88.999999999999957
 50
115.81032016026562
 51
120.66773551841402
  0
ARC
  8
15
  6
CONTINUOUS
 62
     3
 10
0.0
 20
0.0
 40
88.999999999999986
 50
149.33226448158598
 51
165.68864726133671
  0
LINE
  8
15
  6
CONTINUOUS
 62
     3
 10
-91.200000000000045
 20
-125.29999999999995
 11
-22.0
 21
-125.29999999999995
  0
LINE
  8
15
  6
CONTINUOUS
 62
     3
 10
22.0
 20
-125.29999999999995
 11
91.200000000000045
 21
-125.29999999999995
  0
LINE
  8
15
  6
CONTINUOUS
 62
     3
 10
-99.0
 20
-119.65000000000009
 11
-99.0
 21
-22.0
  0
LINE
  8
15
  6
CONTINUOUS
 62
     3
 10
115.0
 20
-115.34999999999991
 11
115.0
 21
-24.400000000000091
  0
LINE
  8
15
  6
CONTINUOUS
 62
     3
 10
-99.0
 20
-119.65000000000009
 11
-91.200000000000045
 21
-119.65000000000009
  0
LINE
  8
15
  6
CONTINUOUS
 62
     3
 10
-91.200000000000045
 20
-125.29999999999995
 11
-91.200000000000045
 21
-76.25
  0
LINE
  8
15
  6
CONTINUOUS
 62
     3
 10
91.200000000000045
 20
-125.29999999999995
 11
91.200000000000045
 21
-76.25
  0
LINE
  8
15
  6
CONTINUOUS
 62
     3
 10
91.200000000000045
 20
-115.34999999999991
 11
115.0
 21
-115.34999999999991
  0
LINE
  8
15
  6
CONTINUOUS
 62
     3
 10
91.200000000000045
 20
-76.25
 11
83.58721311475415
 21
-22.0
  0
LINE
  8
15
  6
CONTINUOUS
 62
     3
 10
-82.409229498881359
 20
-22.0
 11
-91.200000000000045
 21
-76.25
  0
LINE
  8
15
  6
CONTINUOUS
 62
     3
 10
83.923999999999978
 20
-24.400000000000091
 11
115.0
 21
-24.400000000000091
  0
LINE
  8
15
  6
CONTINUOUS
 62
     3
 10
-91.200000000000045
 20
-118.79999999999995
 11
-22.0
 21
-118.79999999999995
  0
LINE
  8
15
  6
CONTINUOUS
 62
     3
 10
22.0
 20
-118.79999999999995
 11
91.200000000000045
 21
-118.79999999999995
  0
LINE
  8
15
  6
CONTINUOUS
 62
     3
 10
-85.325982844874488
 20
-40.0
 11
-77.064611444471439
 21
-40.0
  0
LINE
  8
15
  6
CONTINUOUS
 62
     3
 10
77.064611444471439
 20
-40.0
 11
86.113114754098433
 21
-40.0
  0
LINE
  8
15
  6
CONTINUOUS
 62
     3
 10
-38.75
 20
80.5
 11
-22.0
 21
80.5
  0
LINE
  8
15
  6
CONTINUOUS
 62
     3
 10
22.0
 20
80.5
 11
38.75
 21
80.5
  0
LINE
  8
15
  6
CONTINUOUS
 62
     3
 10
38.75
 20
77.183277655058646
 11
38.75
 21
80.5
  0
LINE
  8
15
  6
CONTINUOUS
 62
     3
 10
-38.75
 20
77.183277655058646
 11
-38.75
 21
80.5
  0
ENDBLK
  8
15
  0
BLOCK
  8
15
  2
SUB18
 70
    64
 10
0.0
 20
0.0
  0
LINE
  8
15
  6
CONTINUOUS
 62
     3
 10
-45.599999999999895
 20
-95.100000000000136
 11
0.0
 21
-95.100000000000136
  0
LINE
  8
15
  6
CENTER
 62
     3
 10
-51.400000000000077
 20
-39.200000000000045
 11
19.179046630859375
 21
-39.200000000000045
  0
LINE
  8
15
  6
CONTINUOUS
 62
     3
 10
-50.599999999999895
 20
-111.79999999999995
 11
-50.599999999999895
 21
2.5499999999999545
  0
LINE
  8
15
  6
CONTINUOUS
 62
     3
 10
-50.599999999999895
 20
46.549999999999955
 11
-50.599999999999895
 21
56.099999999999909
  0
LINE
  8
15
  6
CONTINUOUS
 62
     3
 10
-50.599999999999895
 20
-111.79999999999995
 11
-45.599999999999895
 21
-111.79999999999995
  0
LINE
  8
15
  6
CONTINUOUS
 62
     3
 10
-45.599999999999895
 20
-111.79999999999995
 11
-45.599999999999895
 21
2.5499999999999545
  0
LINE
  8
15
  6
CONTINUOUS
 62
     3
 10
-45.599999999999895
 20
46.549999999999955
 11
-45.599999999999895
 21
56.099999999999909
  0
LINE
  8
15
  6
CONTINUOUS
 62
     3
 10
-33.015647363283279
 20
-95.100000000000136
 11
-45.599999999999895
 21
-111.80000000000018
  0
LINE
  8
15
  6
CONTINUOUS
 62
     3
 10
-45.599999999999895
 20
-36.900000000000091
 11
-0.7999999999999545
 21
-36.900000000000091
  0
LINE
  8
15
  6
CONTINUOUS
 62
     3
 10
-45.599999999999895
 20
-41.5
 11
-0.7999999999999545
 21
-41.5
  0
LINE
  8
15
  6
CONTINUOUS
 62
     3
 10
-50.599999999999895
 20
56.099999999999909
 11
-45.599999999999895
 21
56.099999999999909
  0
LINE
  8
15
  6
CONTINUOUS
 62
     3
 10
-34.993650483381302
 20
46.549999999999955
 11
-45.599999999999895
 21
56.100000000000136
  0
LINE
  8
15
  6
CONTINUOUS
 62
     3
 10
0.0
 20
-95.100000000000136
 11
0.0
 21
2.5499999999999545
  0
ENDBLK
  8
15
  0
BLOCK
  8
15
  2
SUB19
 70
    64
 10
0.0
 20
0.0
  0
ARC
  8
15
  6
CONTINUOUS
 62
     3
 10
15.20000000000006
 20
-30.426617498210135
 40
2.5
 50
109.63335889755827
 51
180.0
  0
LINE
  8
15
  6
CONTINUOUS
 62
     3
 10
12.70000000000006
 20
-38.200000000000045
 11
12.70000000000006
 21
-21.150000000000091
  0
ARC
  8
15
  6
CONTINUOUS
 62
     3
 10
11.000000000000014
 20
-18.653342677668434
 40
10.000000000000012
 50
289.63335889756206
 51
345.54226717010602
  0
LINE
  8
15
  6
CONTINUOUS
 62
     3
 10
12.70000000000006
 20
38.200000000000045
 11
12.70000000000006
 21
32.450000000000045
  0
LINE
  8
15
  6
CONTINUOUS
 62
     3
 10
12.70000000000006
 20
32.450000000000045
 11
12.70000000000006
 21
29.349999999999909
  0
ARC
  8
15
  6
CONTINUOUS
 62
     3
 10
15.20000000000006
 20
30.426617498210135
 40
2.5
 50
180.0
 51
205.50862734866067
  0
LINE
  8
15
  6
CONTINUOUS
 62
     3
 10
0.0
 20
-39.0
 11
0.0
 21
39.0
  0
ENDBLK
  8
15
  0
BLOCK
  8
15
  2
SUB20
 70
    64
 10
0.0
 20
0.0
  0
LINE
  8
15
  6
CONTINUOUS
 62
     3
 10
0.0
 20
-37.899999999999864
 11
0.0
 21
53.0
  0
LINE
  8
15
  6
CONTINUOUS
 62
     3
 10
12.70000000000006
 20
-37.899999999999864
 11
12.70000000000006
 21
-18.5
  0
LINE
  8
15
  6
CONTINUOUS
 62
     3
 10
9.7000000000000597
 20
-18.5
 11
9.7000000000000597
 21
53.0
  0
LINE
  8
15
  6
CONTINUOUS
 62
     3
 10
0.0
 20
-37.899999999999864
 11
12.70000000000006
 21
-37.899999999999864
  0
LINE
  8
15
  6
CONTINUOUS
 62
     3
 10
9.7000000000000597
 20
-18.5
 11
12.70000000000006
 21
-18.5
  0
LINE
  8
15
  6
CONTINUOUS
 62
     3
 10
0.0
 20
53.000000000000227
 11
12.70000000000006
 21
53.000000000000227
  0
LINE
  8
15
  6
CONTINUOUS
 62
     3
 10
9.7000000000000597
 20
33.600000000000136
 11
12.70000000000006
 21
33.600000000000136
  0
LINE
  8
15
  6
CONTINUOUS
 62
     3
 10
12.70000000000006
 20
33.600000000000136
 11
12.70000000000006
 21
55.400000000000091
  0
LINE
  8
15
  6
CONTINUOUS
 62
     3
 10
47.70000000000006
 20
-14.5
 11
47.70000000000006
 21
14.5
  0
LINE
  8
15
  6
CONTINUOUS
 62
     3
 10
21.500000000000014
 20
-20.0
 11
21.500000000000014
 21
20.0
  0
LINE
  8
15
  6
CONTINUOUS
 62
     3
 10
9.7000000000000597
 20
20.0
 11
21.500000000000014
 21
20.0
  0
LINE
  8
15
  6
CONTINUOUS
 62
     3
 10
12.70000000000006
 20
-20.0
 11
21.500000000000014
 21
-20.0
  0
LINE
  8
15
  6
CONTINUOUS
 62
     3
 10
21.500000000000014
 20
14.5
 11
47.70000000000006
 21
14.5
  0
LINE
  8
15
  6
CONTINUOUS
 62
     3
 10
21.500000000000014
 20
-14.5
 11
66.299999999999969
 21
-14.5
  0
LINE
  8
15
  6
CONTINUOUS
 62
     3
 10
15.900000000000105
 20
33.800000000000182
 11
12.70000000000006
 21
33.800000000000182
  0
LINE
  8
15
  6
CONTINUOUS
 62
     3
 10
15.900000000000105
 20
33.800000000000182
 11
15.900000000000105
 21
55.400000000000091
  0
LINE
  8
15
  6
CONTINUOUS
 62
     3
 10
54.70000000000006
 20
38.800000000000182
 11
54.70000000000006
 21
55.400000000000091
  0
LINE
  8
15
  6
CONTINUOUS
 62
     3
 10
51.500000000000014
 20
38.800000000000182
 11
51.500000000000014
 21
55.400000000000091
  0
LINE
  8
15
  6
CONTINUOUS
 62
     3
 10
54.70000000000006
 20
38.800000000000182
 11
51.500000000000014
 21
38.800000000000182
  0
LINE
  8
15
  6
CONTINUOUS
 62
     3
 10
56.400000000000105
 20
9.6873629022556997
 11
56.400000000000105
 21
30.19345955666563
  0
LINE
  8
15
  6
CONTINUOUS
 62
     3
 10
21.500000000000014
 20
16.800000000000182
 11
48.299999999999969
 21
16.800000000000182
  0
LINE
  8
15
  6
CONTINUOUS
 62
     3
 10
9.7000000000000597
 20
30.5
 11
56.500000000000014
 21
30.500000000000227
  0
LINE
  8
15
  6
CONTINUOUS
 62
     3
 10
66.299999999999969
 20
138.45531367861349
 11
56.500000000000014
 21
138.45531367861349
  0
LINE
  8
15
  6
CONTINUOUS
 62
     3
 10
56.500000000000014
 20
30.19345955666563
 11
56.500000000000014
 21
55.400000000000091
  0
LINE
  8
15
  6
CONTINUOUS
 62
     3
 10
56.500000000000014
 20
99.400000000000091
 11
56.500000000000014
 21
138.45531367861349
  0
LINE
  8
15
  6
CONTINUOUS
 62
     3
 10
66.299999999999969
 20
-14.5
 11
66.299999999999969
 21
55.400000000000091
  0
LINE
  8
15
  6
CONTINUOUS
 62
     3
 10
66.299999999999969
 20
99.400000000000091
 11
66.299999999999969
 21
138.45531367861349
  0
LINE
  8
15
  6
CONTINUOUS
 62
     3
 10
48.299999999999969
 20
30.19345955666563
 11
56.500000000000014
 21
30.19345955666563
  0
LINE
  8
15
  6
CONTINUOUS
 62
     3
 10
48.299999999999969
 20
9.6873629022556997
 11
48.299999999999969
 21
30.19345955666563
  0
LINE
  8
15
  6
CONTINUOUS
 62
     3
 10
47.70000000000006
 20
9.6873629022556997
 11
56.400000000000105
 21
9.6873629022556997
  0
LINE
  8
15
  6
CONTINUOUS
 62
     3
 10
48.299999999999969
 20
30.19345955666563
 11
56.400000000000105
 21
30.19345955666563
  0
LINE
  8
15
  6
CONTINUOUS
 62
     3
 10
56.500000000000014
 20
119.85459941112003
 11
66.299999999999969
 21
119.85459941112003
  0
ENDBLK
  8
15
  0
BLOCK
  8
15
  2
SUB21
 70
    64
 10
0.0
 20
0.0
  0
ARC
  8
15
  6
CONTINUOUS
 62
     3
 10
62.200000000000038
 20
-62.200000000000045
 40
12.700000000000003
 50
275.42300620239052
 51
354.5769937976084
  0
LINE
  8
15
  6
CONTINUOUS
 62
     3
 10
-22.0
 20
78.696552506045691
 11
-63.376979540398906
 21
74.845343773954255
  0
LINE
  8
15
  6
CONTINUOUS
 62
     3
 10
-74.843156027600799
 20
63.400252332527771
 11
-78.773404876928907
 21
22.0
  0
LINE
  8
15
  6
CONTINUOUS
 62
     3
 10
-78.773404876928907
 20
-22.0
 11
-74.843156027600799
 21
-63.400252332527771
  0
LINE
  8
15
  6
CONTINUOUS
 62
     3
 10
-63.400252332527543
 20
-74.843156027601026
 11
-22.0
 21
-78.773404876928907
  0
LINE
  8
15
  6
CONTINUOUS
 62
     3
 10
22.0
 20
-78.77340487692868
 11
63.400252332527536
 21
-74.843156027601026
  0
LINE
  8
15
  6
CONTINUOUS
 62
     3
 10
74.843156027600799
 20
-63.400252332527771
 11
78.773404876928907
 21
-22.0
  0
LINE
  8
15
  6
CONTINUOUS
 62
     3
 10
74.843156027600799
 20
63.400252332527771
 11
78.773404876928907
 21
22.0
  0
LINE
  8
15
  6
CONTINUOUS
 62
     3
 10
22.0
 20
78.77340487692868
 11
63.400252332527536
 21
74.843156027601026
  0
ARC
  8
15
  6
CONTINUOUS
 62
     3
 10
62.200000000000038
 20
62.200000000000045
 40
12.700000000000003
 50
5.4230062023916235
 51
84.576993797609504
  0
ARC
  8
15
  6
CONTINUOUS
 62
     3
 10
-62.200000000000045
 20
62.200000000000045
 40
12.700000000000003
 50
95.423006202390511
 51
174.5769937976084
  0
ARC
  8
15
  6
CONTINUOUS
 62
     3
 10
-62.200000000000045
 20
-62.200000000000045
 40
12.700000000000003
 50
185.4230062023916
 51
264.57699379760948
  0
ENDBLK
  8
15
  0
BLOCK
  8
15
  2
SUB22
 70
    64
 10
0.0
 20
0.0
  0
ARC
  8
15
  6
CONTINUOUS
 62
     3
 10
0.0
 20
0.0
 40
305.0
 50
2.6908373760410345
 51
357.30916262395897
  0
ARC
  8
15
  6
CONTINUOUS
 62
     3
 10
0.0
 20
0.0
 40
286.0
 50
2.7787981858676565
 51
357.22120181413237
  0
CIRCLE
  8
15
  6
CONTINUOUS
 62
     3
 10
0.0
 20
0.0
 40
68.0
  0
CIRCLE
  8
15
  6
CONTINUOUS
 62
     3
 10
0.0
 20
0.0
 40
46.0
  0
LINE
  8
15
  6
CONTINUOUS
 62
     3
 10
-22.0
 20
-285.15259072994581
 11
-22.0
 21
-64.342831768581618
  0
LINE
  8
15
  6
CONTINUOUS
 62
     3
 10
-22.0
 20
64.342831768581618
 11
-22.0
 21
285.15259072994581
  0
LINE
  8
15
  6
CONTINUOUS
 62
     3
 10
22.0
 20
-285.15259072994581
 11
22.0
 21
-64.342831768581618
  0
LINE
  8
15
  6
CONTINUOUS
 62
     3
 10
22.0
 20
64.342831768581618
 11
22.0
 21
285.15259072994581
  0
LINE
  8
15
  6
CONTINUOUS
 62
     3
 10
-285.15259072994581
 20
22.0
 11
-64.342831768581618
 21
22.0
  0
LINE
  8
15
  6
CONTINUOUS
 62
     3
 10
64.342831768581618
 20
22.0
 11
285.15259072994581
 21
22.0
  0
LINE
  8
15
  6
CONTINUOUS
 62
     3
 10
-285.15259072994581
 20
-22.0
 11
-64.342831768581618
 21
-22.0
  0
LINE
  8
15
  6
CONTINUOUS
 62
     3
 10
64.342831768581618
 20
-22.0
 11
285.15259072994581
 21
-22.0
  0
CIRCLE
  8
15
  6
CONTINUOUS
 62
     3
 10
295.5
 20
0.0
 40
17.0
  0
ENDBLK
  8
15
  0
BLOCK
  8
15
  2
SUB23
 70
    64
 10
0.0
 20
0.0
  0
LINE
  8
15
  6
CONTINUOUS
 62
     3
 10
-262.60000000000014
 20
0.0
 11
-160.40000000000009
 21
0.0
  0
LINE
  8
15
  6
CONTINUOUS
 62
     3
 10
-116.40000000000011
 20
0.0
 11
11.199999999999818
 21
0.0
  0
LINE
  8
15
  6
CONTINUOUS
 62
     3
 10
-262.60000000000014
 20
-9.0
 11
-262.60000000000014
 21
0.0
  0
LINE
  8
15
  6
CONTINUOUS
 62
     3
 10
11.199999999999818
 20
-9.0
 11
11.199999999999818
 21
0.0
  0
LINE
  8
15
  6
CONTINUOUS
 62
     3
 10
-262.60000000000014
 20
-9.0
 11
-160.40000000000009
 21
-9.0
  0
LINE
  8
15
  6
CONTINUOUS
 62
     3
 10
-116.40000000000011
 20
-9.0
 11
11.199999999999818
 21
-9.0
  0
LINE
  8
15
  6
CONTINUOUS
 62
     3
 10
-232.60000000000014
 20
-169.0
 11
-232.60000000000014
 21
-102.18853820859567
  0
LINE
  8
15
  6
CONTINUOUS
 62
     3
 10
-232.60000000000014
 20
-82.141404232758305
 11
-232.60000000000014
 21
-9.0
  0
LINE
  8
15
  6
CONTINUOUS
 62
     3
 10
-18.800000000000196
 20
-169.0
 11
-18.800000000000196
 21
-92.672343612124223
  0
LINE
  8
15
  6
CONTINUOUS
 62
     3
 10
-18.800000000000196
 20
-71.891916733373364
 11
-18.800000000000196
 21
-9.0
  0
LINE
  8
15
  6
CONTINUOUS
 62
     3
 10
-212.60000000000014
 20
-189.0
 11
-38.800000000000196
 21
-189.0
  0
ARC
  8
15
  6
CONTINUOUS
 62
     3
 10
-212.60000000000014
 20
-169.0
 40
20.0
 50
180.0
 51
270.0
  0
ARC
  8
15
  6
CONTINUOUS
 62
     3
 10
-38.800000000000196
 20
-169.0
 40
20.0
 50
270.0
 51
0.0
  0
ENDBLK
  8
15
  0
BLOCK
  8
15
  2
SUB24
 70
    64
 10
0.0
 20
0.0
  0
LINE
  8
15
  6
CONTINUOUS
 62
     3
 10
-169.30000000000018
 20
0.0
 11
-169.09999999999991
 21
0.0
  0
LINE
  8
15
  6
CONTINUOUS
 62
     3
 10
-169.09999999999991
 20
0.0
 11
-99.900000000000091
 21
0.0
  0
LINE
  8
15
  6
CONTINUOUS
 62
     3
 10
-55.900000000000091
 20
0.0
 11
13.299999999999955
 21
0.0
  0
LINE
  8
15
  6
CONTINUOUS
 62
     3
 10
13.299999999999955
 20
0.0
 11
13.599999999999909
 21
0.0
  0
LINE
  8
15
  6
CONTINUOUS
 62
     3
 10
-205.60000000000014
 20
-62.600000000000136
 11
-99.900000000000091
 21
-62.600000000000136
  0
LINE
  8
15
  6
CONTINUOUS
 62
     3
 10
-55.900000000000091
 20
-62.600000000000136
 11
71.699999999999832
 21
-62.600000000000136
  0
LINE
  8
15
  6
CONTINUOUS
 62
     3
 10
-186.90000000000009
 20
-2.2999999999999545
 11
-99.900000000000091
 21
-2.2999999999999545
  0
LINE
  8
15
  6
CONTINUOUS
 62
     3
 10
-55.900000000000091
 20
-2.2999999999999545
 11
73.199999999999832
 21
-2.2999999999999545
  0
LINE
  8
15
  6
CONTINUOUS
 62
     3
 10
13.599999999999909
 20
-2.2999999999999545
 11
13.599999999999909
 21
0.0
  0
LINE
  8
15
  6
CONTINUOUS
 62
     3
 10
-169.30000000000018
 20
-2.2999999999999545
 11
-169.30000000000018
 21
0.0
  0
LINE
  8
15
  6
CONTINUOUS
 62
     3
 10
-202.10000000000014
 20
-53.200000000000045
 11
-99.900000000000091
 21
-53.200000000000045
  0
LINE
  8
15
  6
CONTINUOUS
 62
     3
 10
-55.900000000000091
 20
-53.200000000000045
 11
71.699999999999832
 21
-53.200000000000045
  0
LINE
  8
15
  6
CONTINUOUS
 62
     3
 10
71.699999999999832
 20
-62.600000000000136
 11
71.699999999999832
 21
-34.600000000000136
  0
LINE
  8
15
  6
CONTINUOUS
 62
     3
 10
-202.10000000000014
 20
-62.600000000000136
 11
-202.10000000000014
 21
-53.200000000000045
  0
LINE
  8
15
  6
CONTINUOUS
 62
     3
 10
-202.10000000000014
 20
-53.200000000000045
 11
-177.17128684516501
 21
-48.804395276460582
  0
LINE
  8
15
  6
CONTINUOUS
 62
     3
 10
71.699999999999832
 20
-53.200000000000045
 11
46.771286845164937
 21
-48.804395276460582
  0
LINE
  8
15
  6
CONTINUOUS
 62
     3
 10
-171.80000000000018
 20
-42.40314488188119
 11
-171.80000000000018
 21
-12.299999999999955
  0
LINE
  8
15
  6
CONTINUOUS
 62
     3
 10
41.399999999999864
 20
-42.40314488188119
 11
41.399999999999864
 21
-12.299999999999955
  0
LINE
  8
15
  6
CONTINUOUS
 62
     3
 10
-171.80000000000018
 20
-47.857292484533673
 11
-99.900000000000091
 21
-47.857292484533673
  0
LINE
  8
15
  6
CONTINUOUS
 62
     3
 10
-55.900000000000091
 20
-47.857292484533673
 11
41.399999999999864
 21
-47.857292484533673
  0
ARC
  8
15
  6
CONTINUOUS
 62
     3
 10
-178.30000000000018
 20
-42.40314488188119
 40
6.5000000000000124
 50
280.00000000000097
 51
0.0
  0
ARC
  8
15
  6
CONTINUOUS
 62
     3
 10
47.899999999999878
 20
-42.40314488188119
 40
6.5000000000000124
 50
180.0
 51
260.00000000000097
  0
ARC
  8
15
  6
CONTINUOUS
 62
     3
 10
31.399999999999864
 20
-12.299999999999955
 40
10.0
 50
0.0
 51
90.0
  0
ARC
  8
15
  6
CONTINUOUS
 62
     3
 10
-161.80000000000018
 20
-12.299999999999955
 40
10.0
 50
90.0
 51
180.0
  0
LINE
  8
15
  6
CONTINUOUS
 62
     3
 10
73.199999999999832
 20
-59.400000000000091
 11
73.199999999999832
 21
-2.2999999999999545
  0
LINE
  8
15
  6
CONTINUOUS
 62
     3
 10
71.699999999999832
 20
-59.400000000000091
 11
73.199999999999832
 21
-59.400000000000091
  0
LINE
  8
15
  6
CENTER
 62
     3
 10
62.888711547851486
 20
-32.600000000000136
 11
101.11055998836473
 21
-32.600000000000136
  0
LINE
  8
15
  6
CONTINUOUS
 62
     3
 10
71.699999999999832
 20
-34.600000000000136
 11
39.119322344057991
 21
-5.9429517424732694
  0
LINE
  8
15
  6
CONTINUOUS
 62
     3
 10
-186.90000000000009
 20
-50.519829893231417
 11
-186.90000000000009
 21
-2.2999999999999545
  0
LINE
  8
15
  6
CONTINUOUS
 62
     3
 10
-205.60000000000014
 20
-62.600000000000136
 11
-205.60000000000014
 21
-34.600000000000136
  0
LINE
  8
15
  6
CONTINUOUS
 62
     3
 10
-205.60000000000014
 20
-34.600000000000136
 11
-186.90000000000009
 21
-32.963961992065151
  0
ENDBLK
  8
15
  0
BLOCK
  8
15
  2
COMP1
 70
    64
 10
0.0
 20
0.0
  0
LINE
  8
15
  6
CONTINUOUS
 62
     3
 10
151.10000000000014
 20
239.12499999999989
 11
159.71000000000026
 21
239.39407594627235
  0
LINE
  8
15
  6
CONTINUOUS
 62
     3
 10
159.71000000000026
 20
239.39407594627235
 11
159.71000000000026
 21
205.60592405372739
  0
LINE
  8
15
  6
CONTINUOUS
 62
     3
 10
171.71000000000026
 20
231.79053922086126
 11
159.71000000000026
 21
231.99999999999989
  0
LINE
  8
15
  6
CONTINUOUS
 62
     3
 10
171.71000000000026
 20
231.79053922086126
 11
171.71000000000026
 21
213.20946077913848
  0
LINE
  8
15
  6
CONTINUOUS
 62
     3
 10
171.71000000000026
 20
213.20946077913848
 11
159.71000000000026
 21
212.99999999999989
  0
LINE
  8
15
  6
CONTINUOUS
 62
     3
 10
151.10000000000014
 20
205.87499999999989
 11
159.71000000000026
 21
205.60592405372739
  0
ENDBLK
  8
15
  0
BLOCK
  8
15
  2
COMP2
 70
    64
 10
0.0
 20
0.0
  0
LINE
  8
15
  6
CONTINUOUS
 62
     3
 10
58.099999999999909
 20
130.59999999999997
 11
57.809360476151596
 21
121.29999999999997
  0
LINE
  8
15
  6
CONTINUOUS
 62
     3
 10
106.1906395238484
 20
121.29999999999997
 11
57.809360476151596
 21
121.29999999999997
  0
LINE
  8
15
  6
CONTINUOUS
 62
     3
 10
69.244370908995052
 20
107.29999999999995
 11
69.0
 21
121.29999999999997
  0
LINE
  8
15
  6
CONTINUOUS
 62
     3
 10
94.755629091004948
 20
107.29999999999995
 11
69.244370908995052
 21
107.29999999999995
  0
LINE
  8
15
  6
CONTINUOUS
 62
     3
 10
94.755629091004948
 20
107.29999999999995
 11
95.0
 21
121.29999999999997
  0
LINE
  8
15
  6
CONTINUOUS
 62
     3
 10
105.89999999999986
 20
130.59999999999997
 11
106.1906395238484
 21
121.29999999999997
  0
ENDBLK
  8
15
  0
BLOCK
  8
15
  2
COMP3
 70
    64
 10
0.0
 20
0.0
  0
LINE
  8
15
  6
CONTINUOUS
 62
     3
 10
-61.200000000000045
 20
130.59999999999997
 11
-61.490639523848358
 21
121.29999999999997
  0
LINE
  8
15
  6
CONTINUOUS
 62
     3
 10
-13.109360476151778
 20
121.29999999999997
 11
-61.490639523848358
 21
121.29999999999997
  0
LINE
  8
15
  6
CONTINUOUS
 62
     3
 10
-50.055629091004903
 20
107.29999999999995
 11
-50.299999999999955
 21
121.29999999999997
  0
LINE
  8
15
  6
CONTINUOUS
 62
     3
 10
-24.544370908995006
 20
107.29999999999995
 11
-50.055629091004903
 21
107.29999999999995
  0
LINE
  8
15
  6
CONTINUOUS
 62
     3
 10
-24.544370908995006
 20
107.29999999999995
 11
-24.299999999999955
 21
121.29999999999997
  0
LINE
  8
15
  6
CONTINUOUS
 62
     3
 10
-13.400000000000091
 20
130.59999999999997
 11
-13.109360476151778
 21
121.29999999999997
  0
ENDBLK
  8
15
  0
BLOCK
  8
15
  2
COMP4
 70
    64
 10
0.0
 20
0.0
  0
LINE
  8
15
  6
CONTINUOUS
 62
     3
 10
-68.565616497644442
 20
402.99999999999994
 11
68.565616497644442
 21
402.99999999999994
  0
INSERT
  8
15
  6
CONTINUOUS
 62
     3
  2
SUB6
 10
0.0
 20
354.39999999999986
 41
1.0
 42
1.0
 50
0.0
  0
LINE
  8
15
  6
CONTINUOUS
 62
     3
 10
68.0
 20
402.99999999999994
 11
68.0
 21
408.59999999999991
  0
LINE
  8
15
  6
CONTINUOUS
 62
     3
 10
68.0
 20
408.59999999999991
 11
-68.0
 21
408.59999999999991
  0
LINE
  8
15
  6
CONTINUOUS
 62
     3
 10
-68.0
 20
402.99999999999994
 11
-68.0
 21
408.59999999999991
  0
ENDBLK
  8
15
  0
BLOCK
  8
15
  2
COMP5
 70
    64
 10
0.0
 20
0.0
  0
INSERT
  8
15
  6
CONTINUOUS
 62
     3
  2
SUB7
 10
0.0
 20
406.5
 41
1.0
 42
1.0
 50
0.0
  0
LINE
  8
15
  6
CONTINUOUS
 62
     3
 10
-68.0
 20
408.59999999999991
 11
68.0
 21
408.59999999999991
  0
ENDBLK
  8
15
  0
BLOCK
  8
15
  2
COMP6
 70
    64
 10
0.0
 20
0.0
  0
ARC
  8
15
  6
PHANTOM
 62
     6
 10
0.0
 20
308.59999999999997
 40
310.0
 50
86.671276037634883
 51
93.328723962365117
  0
LINE
  8
15
  6
PHANTOM
 62
     6
 10
49.0
 20
583.59999999999991
 11
49.0
 21
601.63412770528953
  0
LINE
  8
15
  6
PHANTOM
 62
     6
 10
-49.0
 20
583.59999999999991
 11
49.0
 21
583.59999999999991
  0
LINE
  8
15
  6
PHANTOM
 62
     6
 10
-18.0
 20
628.60000000000014
 11
18.0
 21
628.60000000000014
  0
LINE
  8
15
  6
PHANTOM
 62
     6
 10
18.0
 20
628.60000000000014
 11
18.0
 21
618.07697814215521
  0
ARC
  8
15
  6
PHANTOM
 62
     6
 10
34.0
 20
601.63412770528953
 40
15.0
 50
0.0
 51
83.381710721742394
  0
ARC
  8
15
  6
PHANTOM
 62
     6
 10
0.0
 20
308.59999999999997
 40
310.0
 50
83.381710721742706
 51
86.671276037634883
  0
LINE
  8
15
  6
PHANTOM
 62
     6
 10
44.549999999999955
 20
574.40000000000032
 11
44.549999999999955
 21
495.09999999999997
  0
LINE
  8
15
  6
PHANTOM
 62
     6
 10
44.549999999999955
 20
476.09999999999997
 11
44.549999999999955
 21
450.5172752509373
  0
LINE
  8
15
  6
PHANTOM
 62
     6
 10
44.549999999999955
 20
450.5172752509373
 11
44.549999999999955
 21
445.44014219150853
  0
LINE
  8
15
  6
PHANTOM
 62
     6
 10
44.549999999999955
 20
445.44014219150853
 11
44.549999999999955
 21
427.10000000000002
  0
LINE
  8
15
  6
PHANTOM
 62
     6
 10
44.228621393311869
 20
583.7910482500497
 11
44.549999999999955
 21
574.39999999999986
  0
LINE
  8
15
  6
PHANTOM
 62
     6
 10
-49.0
 20
583.59999999999991
 11
-49.0
 21
601.63412770528953
  0
LINE
  8
15
  6
PHANTOM
 62
     6
 10
-18.0
 20
628.60000000000014
 11
-18.0
 21
618.07697814215521
  0
ARC
  8
15
  6
PHANTOM
 62
     6
 10
-34.0
 20
601.63412770528953
 40
15.0
 50
96.618289278256754
 51
180.0
  0
ARC
  8
15
  6
PHANTOM
 62
     6
 10
0.0
 20
308.59999999999997
 40
310.0
 50
93.328723962365117
 51
96.618289278257265
  0
LINE
  8
15
  6
PHANTOM
 62
     6
 10
-44.549999999999955
 20
574.39999999999986
 11
-44.549999999999955
 21
506.39729786731544
  0
LINE
  8
15
  6
PHANTOM
 62
     6
 10
-44.549999999999955
 20
506.39729786731544
 11
-44.549999999999955
 21
501.32016480788673
  0
LINE
  8
15
  6
PHANTOM
 62
     6
 10
-44.549999999999955
 20
501.32016480788673
 11
-44.549999999999955
 21
495.09999999999997
  0
LINE
  8
15
  6
PHANTOM
 62
     6
 10
-44.549999999999955
 20
476.09999999999997
 11
-44.549999999999955
 21
466.22800923206154
  0
LINE
  8
15
  6
PHANTOM
 62
     6
 10
-44.549999999999955
 20
466.22800923206154
 11
-44.549999999999955
 21
461.15087617263276
  0
LINE
  8
15
  6
PHANTOM
 62
     6
 10
-44.549999999999955
 20
461.15087617263276
 11
-44.549999999999955
 21
427.10000000000002
  0
LINE
  8
15
  6
PHANTOM
 62
     6
 10
-44.235159408960044
 20
583.59999999999991
 11
-44.549999999999955
 21
574.39999999999986
  0
ENDBLK
  8
15
  0
BLOCK
  8
15
  2
COMP7
 70
    64
 10
0.0
 20
0.0
  0
LINE
  8
15
  6
CONTINUOUS
 62
     3
 10
-160.40000000000009
 20
123.79999999999961
 11
-150.40000000000009
 21
123.79999999999961
  0
LINE
  8
15
  6
CENTER
 62
     3
 10
-453.05645201396828
 20
233.5999999999998
 11
-131.53623959248034
 21
233.5999999999998
  0
LINE
  8
15
  6
CENTER
 62
     3
 10
-453.05645201396828
 20
233.5999999999998
 11
-131.53623959248034
 21
233.5999999999998
  0
LINE
  8
15
  6
CONTINUOUS
 62
     3
 10
-432.40000000000009
 20
325.5999999999998
 11
-414.40000000000009
 21
325.5999999999998
  0
LINE
  8
15
  6
CONTINUOUS
 62
     3
 10
-432.40000000000009
 20
141.5999999999998
 11
-414.40000000000009
 21
141.5999999999998
  0
LINE
  8
15
  6
CONTINUOUS
 62
     3
 10
-414.40000000000009
 20
141.5999999999998
 11
-414.40000000000009
 21
325.5999999999998
  0
LINE
  8
15
  6
CONTINUOUS
 62
     3
 10
-414.40000000000009
 20
317.5999999999998
 11
-230.40000000000009
 21
317.5999999999998
  0
LINE
  8
15
  6
CONTINUOUS
 62
     3
 10
-230.40000000000009
 20
158.09999999999991
 11
-160.40000000000009
 21
158.09999999999991
  0
LINE
  8
15
  6
CONTINUOUS
 62
     3
 10
-230.40000000000009
 20
145.5999999999998
 11
-230.40000000000009
 21
321.5999999999998
  0
LINE
  8
15
  6
CONTINUOUS
 62
     3
 10
-230.40000000000009
 20
145.5999999999998
 11
-203.40000000000009
 21
145.5999999999998
  0
LINE
  8
15
  6
CONTINUOUS
 62
     3
 10
-203.40000000000009
 20
145.5999999999998
 11
-203.40000000000009
 21
158.09999999999991
  0
LINE
  8
15
  6
CONTINUOUS
 62
     3
 10
-203.40000000000009
 20
321.5999999999998
 11
-203.40000000000009
 21
309.0999999999998
  0
LINE
  8
15
  6
CONTINUOUS
 62
     3
 10
-230.40000000000009
 20
309.0999999999998
 11
-203.40000000000009
 21
309.0999999999998
  0
LINE
  8
15
  6
CONTINUOUS
 62
     3
 10
-414.40000000000009
 20
149.5999999999998
 11
-230.40000000000009
 21
149.5999999999998
  0
LINE
  8
15
  6
CONTINUOUS
 62
     3
 10
-414.40000000000009
 20
309.5999999999998
 11
-230.40000000000009
 21
309.5999999999998
  0
LINE
  8
15
  6
CONTINUOUS
 62
     3
 10
-414.40000000000009
 20
157.5999999999998
 11
-230.40000000000009
 21
157.5999999999998
  0
LINE
  8
15
  6
CONTINUOUS
 62
     3
 10
-414.40000000000009
 20
305.5999999999998
 11
-392.40000000000009
 21
305.5999999999998
  0
LINE
  8
15
  6
CONTINUOUS
 62
     3
 10
-392.40000000000009
 20
301.5999999999998
 11
-230.40000000000009
 21
301.5999999999998
  0
LINE
  8
15
  6
CONTINUOUS
 62
     3
 10
-414.40000000000009
 20
161.5999999999998
 11
-392.40000000000009
 21
161.5999999999998
  0
LINE
  8
15
  6
CONTINUOUS
 62
     3
 10
-392.40000000000009
 20
165.5999999999998
 11
-230.40000000000009
 21
165.5999999999998
  0
LINE
  8
15
  6
CONTINUOUS
 62
     3
 10
-392.40000000000009
 20
161.5999999999998
 11
-392.40000000000009
 21
305.5999999999998
  0
LINE
  8
15
  6
CONTINUOUS
 62
     3
 10
-392.40000000000009
 20
237.5999999999998
 11
-230.40000000000009
 21
237.5999999999998
  0
LINE
  8
15
  6
CONTINUOUS
 62
     3
 10
-392.40000000000009
 20
229.5999999999998
 11
-230.40000000000009
 21
229.5999999999998
  0
LINE
  8
15
  6
CONTINUOUS
 62
     3
 10
-432.40000000000009
 20
297.5999999999998
 11
-424.40000000000009
 21
292.98119784648281
  0
LINE
  8
15
  6
CONTINUOUS
 62
     3
 10
-432.40000000000009
 20
169.5999999999998
 11
-424.40000000000009
 21
174.21880215351678
  0
LINE
  8
15
  6
CONTINUOUS
 62
     3
 10
-432.40000000000009
 20
240.5999999999998
 11
-424.40000000000009
 21
240.5999999999998
  0
LINE
  8
15
  6
CONTINUOUS
 62
     3
 10
-432.40000000000009
 20
226.5999999999998
 11
-424.40000000000009
 21
226.5999999999998
  0
LINE
  8
15
  6
CONTINUOUS
 62
     3
 10
-432.40000000000009
 20
217.5999999999998
 11
-424.40000000000009
 21
212.98119784648281
  0
LINE
  8
15
  6
CONTINUOUS
 62
     3
 10
-432.40000000000009
 20
249.5999999999998
 11
-424.40000000000009
 21
254.21880215351678
  0
LINE
  8
15
  6
CONTINUOUS
 62
     3
 10
-432.40000000000009
 20
141.5999999999998
 11
-432.40000000000009
 21
169.5999999999998
  0
LINE
  8
15
  6
CONTINUOUS
 62
     3
 10
-432.40000000000009
 20
217.5999999999998
 11
-432.40000000000009
 21
249.5999999999998
  0
LINE
  8
15
  6
CONTINUOUS
 62
     3
 10
-432.40000000000009
 20
297.5999999999998
 11
-432.40000000000009
 21
325.5999999999998
  0
LINE
  8
15
  6
CONTINUOUS
 62
     3
 10
-424.40000000000009
 20
141.5999999999998
 11
-424.40000000000009
 21
212.98119784648281
  0
LINE
  8
15
  6
CONTINUOUS
 62
     3
 10
-424.40000000000009
 20
226.5999999999998
 11
-424.40000000000009
 21
240.5999999999998
  0
LINE
  8
15
  6
CONTINUOUS
 62
     3
 10
-424.40000000000009
 20
254.21880215351678
 11
-424.40000000000009
 21
325.5999999999998
  0
LINE
  8
15
  6
CONTINUOUS
 62
     3
 10
-160.40000000000009
 20
329.0999999999998
 11
-150.40000000000009
 21
329.0999999999998
  0
LINE
  8
15
  6
CONTINUOUS
 62
     3
 10
-230.40000000000009
 20
309.0999999999998
 11
-160.40000000000009
 21
309.0999999999998
  0
LINE
  8
15
  6
CONTINUOUS
 62
     3
 10
-230.40000000000009
 20
321.5999999999998
 11
-203.40000000000009
 21
321.5999999999998
  0
LINE
  8
15
  6
CONTINUOUS
 62
     3
 10
-160.40000000000009
 20
123.79999999999961
 11
-160.40000000000009
 21
329.0999999999998
  0
LINE
  8
15
  6
CONTINUOUS
 62
     3
 10
-150.40000000000009
 20
123.79999999999961
 11
-150.40000000000009
 21
329.0999999999998
  0
LINE
  8
15
  6
CONTINUOUS
 62
     3
 10
-205.40000000000009
 20
259.91262573289066
 11
-160.40000000000009
 21
259.91262573289066
  0
LINE
  8
15
  6
CONTINUOUS
 62
     3
 10
-205.40000000000009
 20
207.28737426710916
 11
-160.40000000000009
 21
207.28737426710916
  0
LINE
  8
15
  6
CONTINUOUS
 62
     3
 10
-205.40000000000009
 20
207.28737426710916
 11
-205.40000000000009
 21
259.91262573289066
  0
LINE
  8
15
  6
CONTINUOUS
 62
     3
 10
-230.40000000000009
 20
243.5999999999998
 11
-205.40000000000009
 21
243.5999999999998
  0
LINE
  8
15
  6
CONTINUOUS
 62
     3
 10
-230.40000000000009
 20
223.5999999999998
 11
-205.40000000000009
 21
223.5999999999998
  0
ENDBLK
  8
15
  0
BLOCK
  8
15
  2
COMP8
 70
    64
 10
0.0
 20
0.0
  0
CIRCLE
  8
15
  6
CONTINUOUS
 62
     3
 10
787.35569575235627
 20
222.50000000000006
 40
16.875
  0
LINE
  8
15
  6
CONTINUOUS
 62
     3
 10
777.85569575235627
 20
232.00000000000006
 11
777.85569575235627
 21
213.00000000000006
  0
LINE
  8
15
  6
CONTINUOUS
 62
     3
 10
796.85569575235627
 20
232.00000000000006
 11
777.85569575235627
 21
232.00000000000006
  0
LINE
  8
15
  6
CONTINUOUS
 62
     3
 10
796.85569575235627
 20
213.00000000000006
 11
777.85569575235627
 21
213.00000000000006
  0
LINE
  8
15
  6
CONTINUOUS
 62
     3
 10
796.85569575235627
 20
232.00000000000006
 11
796.85569575235627
 21
213.00000000000006
  0
ENDBLK
  8
15
  0
BLOCK
  8
15
  2
COMP9
 70
    64
 10
0.0
 20
0.0
  0
LINE
  8
15
  6
CONTINUOUS
 62
     3
 10
763.45569575235641
 20
130.59999999999999
 11
763.16505622850809
 21
121.30000000000001
  0
LINE
  8
15
  6
CONTINUOUS
 62
     3
 10
811.54633527620467
 20
121.30000000000001
 11
763.16505622850809
 21
121.30000000000001
  0
LINE
  8
15
  6
CONTINUOUS
 62
     3
 10
774.60006666135132
 20
107.29999999999998
 11
774.35569575235627
 21
121.30000000000001
  0
LINE
  8
15
  6
CONTINUOUS
 62
     3
 10
800.11132484336122
 20
107.29999999999998
 11
774.60006666135132
 21
107.29999999999998
  0
LINE
  8
15
  6
CONTINUOUS
 62
     3
 10
800.11132484336122
 20
107.29999999999998
 11
800.35569575235627
 21
121.30000000000001
  0
LINE
  8
15
  6
CONTINUOUS
 62
     3
 10
811.25569575235636
 20
130.59999999999999
 11
811.54633527620467
 21
121.30000000000001
  0
ENDBLK
  8
15
  0
BLOCK
  8
15
  2
COMP10
 70
    64
 10
0.0
 20
0.0
  0
INSERT
  8
15
  6
CONTINUOUS
 62
     3
  2
SUB13
 10
945.25569575235636
 20
406.5
 41
1.0
 42
1.0
 50
0.0
  0
LINE
  8
15
  6
CONTINUOUS
 62
     3
 10
877.25569575235636
 20
408.60000000000002
 11
1013.2556957523564
 21
408.60000000000002
  0
ENDBLK
  8
15
  0
BLOCK
  8
15
  2
COMP11
 70
    64
 10
0.0
 20
0.0
  0
INSERT
  8
15
  6
CONTINUOUS
 62
     3
  2
SUB14
 10
945.25569575235636
 20
354.40000000000009
 41
1.0
 42
1.0
 50
0.0
  0
LINE
  8
15
  6
CONTINUOUS
 62
     3
 10
876.69007925471192
 20
403.0
 11
1013.8213122500008
 21
403.0
  0
LINE
  8
15
  6
CONTINUOUS
 62
     3
 10
1013.2556957523564
 20
403.0
 11
1013.2556957523564
 21
408.60000000000002
  0
LINE
  8
15
  6
CONTINUOUS
 62
     3
 10
877.25569575235636
 20
408.60000000000002
 11
1013.2556957523564
 21
408.60000000000002
  0
LINE
  8
15
  6
CONTINUOUS
 62
     3
 10
877.25569575235636
 20
403.0
 11
877.25569575235636
 21
408.60000000000002
  0
ENDBLK
  8
15
  0
BLOCK
  8
15
  2
COMP12
 70
    64
 10
0.0
 20
0.0
  0
INSERT
  8
15
  6
CONTINUOUS
 62
     3
  2
SUB15
 10
945.25569575235636
 20
193.79999999999998
 41
1.0
 42
1.0
 50
0.0
  0
ENDBLK
  8
15
  0
BLOCK
  8
15
  2
COMP13
 70
    64
 10
0.0
 20
0.0
  0
ARC
  8
15
  6
PHANTOM
 62
     6
 10
945.25569575235636
 20
308.59999999999991
 40
310.0
 50
86.671276037634883
 51
93.328723962365117
  0
LINE
  8
15
  6
PHANTOM
 62
     6
 10
994.25569575235636
 20
583.59999999999991
 11
994.25569575235636
 21
601.63412770528953
  0
LINE
  8
15
  6
PHANTOM
 62
     6
 10
896.25569575235636
 20
583.59999999999991
 11
929.6589083464853
 21
583.59999999999991
  0
LINE
  8
15
  6
PHANTOM
 62
     6
 10
960.85248315822741
 20
583.59999999999991
 11
994.25569575235636
 21
583.59999999999991
  0
LINE
  8
15
  6
PHANTOM
 62
     6
 10
927.25569575235636
 20
628.60000000000002
 11
963.25569575235636
 21
628.60000000000002
  0
LINE
  8
15
  6
PHANTOM
 62
     6
 10
963.25569575235636
 20
628.60000000000002
 11
963.25569575235636
 21
618.07697814215521
  0
ARC
  8
15
  6
PHANTOM
 62
     6
 10
979.25569575235636
 20
601.63412770528953
 40
15.0
 50
0.0
 51
83.381710721742394
  0
ARC
  8
15
  6
PHANTOM
 62
     6
 10
945.25569575235636
 20
308.59999999999991
 40
310.0
 50
83.381710721742706
 51
86.671276037634883
  0
LINE
  8
15
  6
PHANTOM
 62
     6
 10
989.80569575235631
 20
574.40000000000032
 11
989.80569575235631
 21
495.10000000000014
  0
LINE
  8
15
  6
PHANTOM
 62
     6
 10
989.80569575235631
 20
476.10000000000014
 11
989.80569575235631
 21
450.51727525093725
  0
LINE
  8
15
  6
PHANTOM
 62
     6
 10
989.80569575235631
 20
450.51727525093725
 11
989.80569575235631
 21
445.44014219150858
  0
LINE
  8
15
  6
PHANTOM
 62
     6
 10
989.80569575235631
 20
445.44014219150858
 11
989.80569575235631
 21
427.10000000000002
  0
LINE
  8
15
  6
PHANTOM
 62
     6
 10
989.48431714566823
 20
583.79104825004958
 11
989.80569575235631
 21
574.39999999999986
  0
LINE
  8
15
  6
PHANTOM
 62
     6
 10
896.25569575235636
 20
583.59999999999991
 11
896.25569575235636
 21
601.63412770528953
  0
LINE
  8
15
  6
PHANTOM
 62
     6
 10
927.25569575235636
 20
628.60000000000002
 11
927.25569575235636
 21
618.07697814215521
  0
ARC
  8
15
  6
PHANTOM
 62
     6
 10
911.25569575235636
 20
601.63412770528953
 40
15.0
 50
96.618289278256754
 51
180.0
  0
ARC
  8
15
  6
PHANTOM
 62
     6
 10
945.25569575235636
 20
308.59999999999991
 40
310.0
 50
93.328723962365117
 51
96.618289278257265
  0
LINE
  8
15
  6
PHANTOM
 62
     6
 10
900.70569575235641
 20
574.39999999999986
 11
900.70569575235641
 21
506.39729786731539
  0
LINE
  8
15
  6
PHANTOM
 62
     6
 10
900.70569575235641
 20
506.39729786731539
 11
900.70569575235641
 21
501.32016480788673
  0
LINE
  8
15
  6
PHANTOM
 62
     6
 10
900.70569575235641
 20
501.32016480788673
 11
900.70569575235641
 21
495.10000000000014
  0
LINE
  8
15
  6
PHANTOM
 62
     6
 10
900.70569575235641
 20
476.10000000000014
 11
900.70569575235641
 21
466.22800923206148
  0
LINE
  8
15
  6
PHANTOM
 62
     6
 10
900.70569575235641
 20
466.22800923206148
 11
900.70569575235641
 21
461.15087617263271
  0
LINE
  8
15
  6
PHANTOM
 62
     6
 10
900.70569575235641
 20
461.15087617263271
 11
900.70569575235641
 21
427.10000000000002
  0
LINE
  8
15
  6
PHANTOM
 62
     6
 10
901.02053634339632
 20
583.59999999999991
 11
900.70569575235641
 21
574.39999999999986
  0
ENDBLK
  8
15
  0
BLOCK
  8
15
  2
COMP14
 70
    64
 10
0.0
 20
0.0
  0
LINE
  8
15
  6
CENTER
 62
     3
 10
-447.31467546887529
 20
1098.128604793003
 11
-125.79446304738737
 21
1098.128604793003
  0
LINE
  8
15
  6
CONTINUOUS
 62
     3
 10
-426.65822345490687
 20
1006.128604793003
 11
-408.65822345490687
 21
1006.128604793003
  0
LINE
  8
15
  6
CONTINUOUS
 62
     3
 10
-426.65822345490687
 20
1190.128604793003
 11
-408.65822345490687
 21
1190.128604793003
  0
LINE
  8
15
  6
CONTINUOUS
 62
     3
 10
-408.65822345490687
 20
1190.128604793003
 11
-408.65822345490687
 21
1006.128604793003
  0
LINE
  8
15
  6
CONTINUOUS
 62
     3
 10
-154.65822345490687
 20
1193.628604793003
 11
-144.65822345490687
 21
1193.628604793003
  0
LINE
  8
15
  6
CONTINUOUS
 62
     3
 10
-154.65822345490687
 20
1193.628604793003
 11
-154.65822345490687
 21
1183.878604793003
  0
LINE
  8
15
  6
CONTINUOUS
 62
     3
 10
-154.65822345490687
 20
1139.878604793003
 11
-154.65822345490687
 21
985.37860479300298
  0
LINE
  8
15
  6
CONTINUOUS
 62
     3
 10
-144.65822345490687
 20
1193.628604793003
 11
-144.65822345490687
 21
1183.878604793003
  0
LINE
  8
15
  6
CONTINUOUS
 62
     3
 10
-144.65822345490687
 20
1139.878604793003
 11
-144.65822345490687
 21
985.37860479300298
  0
LINE
  8
15
  6
CONTINUOUS
 62
     3
 10
-199.65822345490687
 20
985.37860479300298
 11
-144.65822345490687
 21
985.37860479300298
  0
LINE
  8
15
  6
CONTINUOUS
 62
     3
 10
-408.65822345490687
 20
1014.128604793003
 11
-261.08201830836458
 21
1014.128604793003
  0
LINE
  8
15
  6
CONTINUOUS
 62
     3
 10
-239.13765807529319
 20
1014.128604793003
 11
-224.65822345490687
 21
1014.128604793003
  0
LINE
  8
15
  6
CONTINUOUS
 62
     3
 10
-224.65822345490687
 20
1010.128604793003
 11
-154.65822345490687
 21
1010.128604793003
  0
LINE
  8
15
  6
CONTINUOUS
 62
     3
 10
-199.65822345490687
 20
1010.128604793003
 11
-199.65822345490687
 21
985.37860479300298
  0
LINE
  8
15
  6
CONTINUOUS
 62
     3
 10
-224.65822345490687
 20
1186.128604793003
 11
-224.65822345490687
 21
1183.878604793003
  0
LINE
  8
15
  6
CONTINUOUS
 62
     3
 10
-224.65822345490687
 20
1139.878604793003
 11
-224.65822345490687
 21
1010.128604793003
  0
LINE
  8
15
  6
CONTINUOUS
 62
     3
 10
-224.65822345490687
 20
1186.128604793003
 11
-197.65822345490687
 21
1186.128604793003
  0
LINE
  8
15
  6
CONTINUOUS
 62
     3
 10
-197.65822345490687
 20
1186.128604793003
 11
-197.65822345490687
 21
1183.878604793003
  0
LINE
  8
15
  6
CONTINUOUS
 62
     3
 10
-197.65822345490687
 20
1010.128604793003
 11
-197.65822345490687
 21
1022.628604793003
  0
LINE
  8
15
  6
CONTINUOUS
 62
     3
 10
-224.65822345490687
 20
1022.628604793003
 11
-197.65822345490687
 21
1022.628604793003
  0
LINE
  8
15
  6
CONTINUOUS
 62
     3
 10
-197.65822345490687
 20
1108.128604793003
 11
-197.65822345490687
 21
1088.128604793003
  0
LINE
  8
15
  6
CONTINUOUS
 62
     3
 10
-224.65822345490687
 20
1088.128604793003
 11
-197.65822345490687
 21
1088.128604793003
  0
LINE
  8
15
  6
CONTINUOUS
 62
     3
 10
-224.65822345490687
 20
1108.128604793003
 11
-197.65822345490687
 21
1108.128604793003
  0
LINE
  8
15
  6
CONTINUOUS
 62
     3
 10
-408.65822345490687
 20
1182.128604793003
 11
-298.58524739461564
 21
1182.128604793003
  0
LINE
  8
15
  6
CONTINUOUS
 62
     3
 10
-408.65822345490687
 20
1022.128604793003
 11
-265.35772087236808
 21
1022.128604793003
  0
LINE
  8
15
  6
CONTINUOUS
 62
     3
 10
-243.78965935026667
 20
1022.128604793003
 11
-224.65822345490687
 21
1022.128604793003
  0
LINE
  8
15
  6
CONTINUOUS
 62
     3
 10
-408.65822345490687
 20
1174.128604793003
 11
-299.01212006658284
 21
1174.128604793003
  0
LINE
  8
15
  6
CONTINUOUS
 62
     3
 10
-408.65822345490687
 20
1026.128604793003
 11
-386.65822345490687
 21
1026.128604793003
  0
LINE
  8
15
  6
CONTINUOUS
 62
     3
 10
-386.65822345490687
 20
1030.128604793003
 11
-269.33446288681432
 21
1030.128604793003
  0
LINE
  8
15
  6
CONTINUOUS
 62
     3
 10
-248.10451060522166
 20
1030.128604793003
 11
-224.65822345490687
 21
1030.128604793003
  0
LINE
  8
15
  6
CONTINUOUS
 62
     3
 10
-408.65822345490687
 20
1170.128604793003
 11
-386.65822345490687
 21
1170.128604793003
  0
LINE
  8
15
  6
CONTINUOUS
 62
     3
 10
-386.65822345490687
 20
1166.128604793003
 11
-299.22861136166756
 21
1166.128604793003
  0
LINE
  8
15
  6
CONTINUOUS
 62
     3
 10
-386.65822345490687
 20
1170.128604793003
 11
-386.65822345490687
 21
1026.128604793003
  0
LINE
  8
15
  6
CONTINUOUS
 62
     3
 10
-386.65822345490687
 20
1094.128604793003
 11
-291.63834636160027
 21
1094.128604793003
  0
LINE
  8
15
  6
CONTINUOUS
 62
     3
 10
-272.11778780351818
 20
1094.128604793003
 11
-224.65822345490687
 21
1094.128604793003
  0
LINE
  8
15
  6
CONTINUOUS
 62
     3
 10
-386.65822345490687
 20
1102.128604793003
 11
-293.348406342945
 21
1102.128604793003
  0
LINE
  8
15
  6
CONTINUOUS
 62
     3
 10
-273.94722484752526
 20
1102.128604793003
 11
-224.65822345490687
 21
1102.128604793003
  0
LINE
  8
15
  6
CONTINUOUS
 62
     3
 10
-426.65822345490687
 20
1034.128604793003
 11
-418.65822345490687
 21
1038.74740694652
  0
LINE
  8
15
  6
CONTINUOUS
 62
     3
 10
-426.65822345490687
 20
1162.128604793003
 11
-418.65822345490687
 21
1157.509802639486
  0
LINE
  8
15
  6
CONTINUOUS
 62
     3
 10
-426.65822345490687
 20
1091.128604793003
 11
-418.65822345490687
 21
1091.128604793003
  0
LINE
  8
15
  6
CONTINUOUS
 62
     3
 10
-426.65822345490687
 20
1105.128604793003
 11
-418.65822345490687
 21
1105.128604793003
  0
LINE
  8
15
  6
CONTINUOUS
 62
     3
 10
-426.65822345490687
 20
1114.128604793003
 11
-418.65822345490687
 21
1118.74740694652
  0
LINE
  8
15
  6
CONTINUOUS
 62
     3
 10
-426.65822345490687
 20
1082.128604793003
 11
-418.65822345490687
 21
1077.509802639486
  0
LINE
  8
15
  6
CONTINUOUS
 62
     3
 10
-426.65822345490687
 20
1190.128604793003
 11
-426.65822345490687
 21
1162.128604793003
  0
LINE
  8
15
  6
CONTINUOUS
 62
     3
 10
-426.65822345490687
 20
1114.128604793003
 11
-426.65822345490687
 21
1082.128604793003
  0
LINE
  8
15
  6
CONTINUOUS
 62
     3
 10
-426.65822345490687
 20
1034.128604793003
 11
-426.65822345490687
 21
1006.128604793003
  0
LINE
  8
15
  6
CONTINUOUS
 62
     3
 10
-418.65822345490687
 20
1190.128604793003
 11
-418.65822345490687
 21
1118.74740694652
  0
LINE
  8
15
  6
CONTINUOUS
 62
     3
 10
-418.65822345490687
 20
1105.128604793003
 11
-418.65822345490687
 21
1091.128604793003
  0
LINE
  8
15
  6
CONTINUOUS
 62
     3
 10
-418.65822345490687
 20
1077.509802639486
 11
-418.65822345490687
 21
1006.128604793003
  0
ENDBLK
  8
15
  0
BLOCK
  8
15
  2
COMP15
 70
    64
 10
0.0
 20
0.0
  0
LINE
  8
15
  6
CONTINUOUS
 62
     3
 10
177.45177654509291
 20
994.68806557214157
 11
165.45177654509291
 21
994.47860479300289
  0
LINE
  8
15
  6
CONTINUOUS
 62
     3
 10
177.45177654509291
 20
1013.2691440138642
 11
177.45177654509291
 21
994.68806557214157
  0
LINE
  8
15
  6
CONTINUOUS
 62
     3
 10
165.45177654509288
 20
1020.8726807392754
 11
165.45177654509291
 21
987.08452884673034
  0
LINE
  8
15
  6
CONTINUOUS
 62
     3
 10
157.06353676393687
 20
1020.6105351461656
 11
165.45177654509288
 21
1020.8726807392754
  0
LINE
  8
15
  6
CONTINUOUS
 62
     3
 10
177.45177654509291
 20
1013.2691440138642
 11
165.45177654509291
 21
1013.4786047930029
  0
LINE
  8
15
  6
CONTINUOUS
 62
     3
 10
156.8417765450929
 20
987.35360479300289
 11
165.45177654509291
 21
987.08452884673034
  0
ENDBLK
  8
15
  0
BLOCK
  8
15
  2
COMP16
 70
    64
 10
0.0
 20
0.0
  0
POLYLINE
  8
15
  6
CONTINUOUS
 62
     7
 66
     1
 70
     0
 40
0.0
 41
0.0
  0
VERTEX
  8
15
 10
758.47802734375
 20
1203.8704833984375
  0
VERTEX
  8
15
 10
758.31782688201713
 20
1204.764343605066
  0
VERTEX
  8
15
 10
758.0789358371419
 20
1205.637550888328
  0
VERTEX
  8
15
 10
757.76282573527749
 20
1206.4847018420469
  0
VERTEX
  8
15
 10
757.37168432179089
 20
1207.2999142387248
  0
VERTEX
  8
15
 10
756.90798706382168
 20
1208.0778150570477
  0
VERTEX
  8
15
 10
756.37564365257776
 20
1208.8116633161608
  0
VERTEX
  8
15
 10
755.77897727097888
 20
1209.4954951110824
  0
VERTEX
  8
15
 10
755.12305321077667
 20
1210.1234991580332
  0
VERTEX
  8
15
 10
754.41347801282404
 20
1210.6903037366958
  0
VERTEX
  8
15
 10
753.65636003214161
 20
1211.1910238325784
  0
VERTEX
  8
15
 10
752.85813741627373
 20
1211.6214062664308
  0
VERTEX
  8
15
 10
752.02530611973111
 20
1211.9779513813053
  0
VERTEX
  8
15
 10
751.16507690891922
 20
1212.2576730368503
  0
VERTEX
  8
15
 10
750.28312325843899
 20
1212.4588230558288
  0
VERTEX
  8
15
 10
749.38558356174258
 20
1212.5800083282568
  0
VERTEX
  8
15
 10
748.47802734375
 20
1212.6204833984375
  0
VERTEX
  8
15
 10
747.57047112575742
 20
1212.5800083282568
  0
VERTEX
  8
15
 10
746.67293142906101
 20
1212.4588230558288
  0
VERTEX
  8
15
 10
745.79097777858078
 20
1212.2576730368503
  0
VERTEX
  8
15
 10
744.93074856776889
 20
1211.9779513813053
  0
VERTEX
  8
15
 10
744.09791727122627
 20
1211.6214062664308
  0
VERTEX
  8
15
 10
743.29969465535839
 20
1211.1910238325784
  0
VERTEX
  8
15
 10
742.54257667467596
 20
1210.6903037366958
  0
VERTEX
  8
15
 10
741.83300147672333
 20
1210.1234991580332
  0
VERTEX
  8
15
 10
741.17707741652112
 20
1209.4954951110824
  0
VERTEX
  8
15
 10
740.58041103492224
 20
1208.8116633161608
  0
VERTEX
  8
15
 10
740.04806762367832
 20
1208.0778150570477
  0
VERTEX
  8
15
 10
739.58437036570911
 20
1207.2999142387248
  0
VERTEX
  8
15
 10
739.19322895222251
 20
1206.4847018420469
  0
VERTEX
  8
15
 10
738.8771188503581
 20
1205.637550888328
  0
VERTEX
  8
15
 10
738.63822780548287
 20
1204.764343605066
  0
VERTEX
  8
15
 10
738.47802734375
 20
1203.8704833984375
  0
VERTEX
  8
15
 10
738.47802734375
 20
1180.1204833984375
  0
VERTEX
  8
15
 10
738.744512212617
 20
1179.325491902955
  0
VERTEX
  8
15
 10
739.07335939982033
 20
1178.5559609201584
  0
VERTEX
  8
15
 10
739.46285300445732
 20
1177.8159150510025
  0
VERTEX
  8
15
 10
739.91075888727426
 20
1177.1096074774384
  0
VERTEX
  8
15
 10
740.41466233462904
 20
1176.4409396662106
  0
VERTEX
  8
15
 10
740.97115754193067
 20
1175.8145152145612
  0
VERTEX
  8
15
 10
741.57661719660837
 20
1175.2344192225767
  0
VERTEX
  8
15
 10
742.22695304240506
 20
1174.7045715750332
  0
VERTEX
  8
15
 10
742.91774797763117
 20
1174.2285724269793
  0
VERTEX
  8
15
 10
743.64428852563901
 20
1173.8096720435992
  0
VERTEX
  8
15
 10
744.40166380042604
 20
1173.4506994986837
  0
VERTEX
  8
15
 10
745.18493073447382
 20
1173.153996223594
  0
VERTEX
  8
15
 10
745.98871074257056
 20
1172.9215457235425
  0
VERTEX
  8
15
 10
746.80857180663213
 20
1172.754577757099
  0
VERTEX
  8
15
 10
747.63979554022649
 20
1172.6540493164694
  0
VERTEX
  8
15
 10
748.47802734375
 20
1172.6204833984375
  0
VERTEX
  8
15
 10
749.31625914727351
 20
1172.6540493164694
  0
VERTEX
  8
15
 10
750.14748288086787
 20
1172.754577757099
  0
VERTEX
  8
15
 10
750.96734394492944
 20
1172.9215457235425
  0
VERTEX
  8
15
 10
751.77112395302618
 20
1173.153996223594
  0
VERTEX
  8
15
 10
752.55439088707396
 20
1173.4506994986837
  0
VERTEX
  8
15
 10
753.31176616186099
 20
1173.8096720435992
  0
VERTEX
  8
15
 10
754.03830670986883
 20
1174.2285724269793
  0
VERTEX
  8
15
 10
754.72910164509494
 20
1174.7045715750332
  0
VERTEX
  8
15
 10
755.37943749089129
 20
1175.2344192225762
  0
VERTEX
  8
15
 10
755.98489714556945
 20
1175.8145152145612
  0
VERTEX
  8
15
 10
756.5413923528713
 20
1176.4409396662109
  0
VERTEX
  8
15
 10
757.04529580022574
 20
1177.1096074774384
  0
VERTEX
  8
15
 10
757.49320168304268
 20
1177.8159150510025
  0
VERTEX
  8
15
 10
757.88269528767967
 20
1178.5559609201584
  0
VERTEX
  8
15
 10
758.211542474883
 20
1179.325491902955
  0
VERTEX
  8
15
 10
758.47802734375
 20
1180.1204833984375
  0
SEQEND
  8
15
  0
POLYLINE
  8
15
  6
CONTINUOUS
 62
     7
 66
     1
 70
     0
 40
0.0
 41
0.0
  0
VERTEX
  8
15
 10
758.47802734375
 20
1172.6204833984375
  0
VERTEX
  8
15
 10
758.47802734375
 20
1191.9954833984375
  0
VERTEX
  8
15
 10
748.47802734375
 20
1191.9954833984375
  0
SEQEND
  8
15
  0
POLYLINE
  8
15
  6
CONTINUOUS
 62
     7
 66
     1
 70
     0
 40
0.0
 41
0.0
  0
VERTEX
  8
15
 10
790.97802734375
 20
1203.8704833984375
  0
VERTEX
  8
15
 10
790.81782688201713
 20
1204.764343605066
  0
VERTEX
  8
15
 10
790.5789358371419
 20
1205.637550888328
  0
VERTEX
  8
15
 10
790.26282573527749
 20
1206.4847018420469
  0
VERTEX
  8
15
 10
789.87168432179089
 20
1207.2999142387248
  0
VERTEX
  8
15
 10
789.40798706382168
 20
1208.0778150570477
  0
VERTEX
  8
15
 10
788.87564365257776
 20
1208.8116633161608
  0
VERTEX
  8
15
 10
788.27897727097888
 20
1209.4954951110824
  0
VERTEX
  8
15
 10
787.62305321077667
 20
1210.1234991580332
  0
VERTEX
  8
15
 10
786.91347801282404
 20
1210.6903037366958
  0
VERTEX
  8
15
 10
786.15636003214161
 20
1211.1910238325784
  0
VERTEX
  8
15
 10
785.35813741627373
 20
1211.6214062664308
  0
VERTEX
  8
15
 10
784.52530611973111
 20
1211.9779513813053
  0
VERTEX
  8
15
 10
783.66507690891922
 20
1212.2576730368503
  0
VERTEX
  8
15
 10
782.78312325843899
 20
1212.4588230558288
  0
VERTEX
  8
15
 10
781.88558356174258
 20
1212.5800083282568
  0
VERTEX
  8
15
 10
780.97802734375
 20
1212.6204833984375
  0
VERTEX
  8
15
 10
780.07047112575742
 20
1212.5800083282568
  0
VERTEX
  8
15
 10
779.17293142906101
 20
1212.4588230558288
  0
VERTEX
  8
15
 10
778.29097777858078
 20
1212.2576730368503
  0
VERTEX
  8
15
 10
777.43074856776889
 20
1211.9779513813053
  0
VERTEX
  8
15
 10
776.59791727122627
 20
1211.6214062664308
  0
VERTEX
  8
15
 10
775.79969465535839
 20
1211.1910238325784
  0
VERTEX
  8
15
 10
775.04257667467596
 20
1210.6903037366958
  0
VERTEX
  8
15
 10
774.33300147672333
 20
1210.1234991580332
  0
VERTEX
  8
15
 10
773.67707741652112
 20
1209.4954951110824
  0
VERTEX
  8
15
 10
773.08041103492224
 20
1208.8116633161608
  0
VERTEX
  8
15
 10
772.54806762367832
 20
1208.0778150570477
  0
VERTEX
  8
15
 10
772.08437036570911
 20
1207.2999142387248
  0
VERTEX
  8
15
 10
771.69322895222251
 20
1206.4847018420469
  0
VERTEX
  8
15
 10
771.3771188503581
 20
1205.637550888328
  0
VERTEX
  8
15
 10
771.13822780548287
 20
1204.764343605066
  0
VERTEX
  8
15
 10
770.97802734375
 20
1203.8704833984375
  0
VERTEX
  8
15
 10
770.97802734375
 20
1180.1204833984375
  0
VERTEX
  8
15
 10
771.244512212617
 20
1179.325491902955
  0
VERTEX
  8
15
 10
771.57335939982033
 20
1178.5559609201584
  0
VERTEX
  8
15
 10
771.96285300445732
 20
1177.8159150510025
  0
VERTEX
  8
15
 10
772.41075888727426
 20
1177.1096074774384
  0
VERTEX
  8
15
 10
772.91466233462904
 20
1176.4409396662106
  0
VERTEX
  8
15
 10
773.47115754193067
 20
1175.8145152145612
  0
VERTEX
  8
15
 10
774.07661719660837
 20
1175.2344192225767
  0
VERTEX
  8
15
 10
774.72695304240506
 20
1174.7045715750332
  0
VERTEX
  8
15
 10
775.41774797763117
 20
1174.2285724269793
  0
VERTEX
  8
15
 10
776.14428852563901
 20
1173.8096720435992
  0
VERTEX
  8
15
 10
776.90166380042604
 20
1173.4506994986837
  0
VERTEX
  8
15
 10
777.68493073447382
 20
1173.153996223594
  0
VERTEX
  8
15
 10
778.48871074257056
 20
1172.9215457235425
  0
VERTEX
  8
15
 10
779.30857180663213
 20
1172.754577757099
  0
VERTEX
  8
15
 10
780.13979554022649
 20
1172.6540493164694
  0
VERTEX
  8
15
 10
780.97802734375
 20
1172.6204833984375
  0
VERTEX
  8
15
 10
781.81625914727351
 20
1172.6540493164694
  0
VERTEX
  8
15
 10
782.64748288086787
 20
1172.754577757099
  0
VERTEX
  8
15
 10
783.46734394492944
 20
1172.9215457235425
  0
VERTEX
  8
15
 10
784.27112395302618
 20
1173.153996223594
  0
VERTEX
  8
15
 10
785.05439088707396
 20
1173.4506994986837
  0
VERTEX
  8
15
 10
785.81176616186099
 20
1173.8096720435992
  0
VERTEX
  8
15
 10
786.53830670986883
 20
1174.2285724269793
  0
VERTEX
  8
15
 10
787.22910164509494
 20
1174.7045715750332
  0
VERTEX
  8
15
 10
787.87943749089129
 20
1175.2344192225762
  0
VERTEX
  8
15
 10
788.48489714556945
 20
1175.8145152145612
  0
VERTEX
  8
15
 10
789.0413923528713
 20
1176.4409396662109
  0
VERTEX
  8
15
 10
789.54529580022574
 20
1177.1096074774384
  0
VERTEX
  8
15
 10
789.99320168304268
 20
1177.8159150510025
  0
VERTEX
  8
15
 10
790.38269528767967
 20
1178.5559609201584
  0
VERTEX
  8
15
 10
790.711542474883
 20
1179.325491902955
  0
VERTEX
  8
15
 10
790.97802734375
 20
1180.1204833984375
  0
SEQEND
  8
15
  0
POLYLINE
  8
15
  6
CONTINUOUS
 62
     7
 66
     1
 70
     0
 40
0.0
 41
0.0
  0
VERTEX
  8
15
 10
813.47802734375
 20
1172.6204833984375
  0
VERTEX
  8
15
 10
813.47802734375
 20
1212.6204833984375
  0
VERTEX
  8
15
 10
806.60302734375
 20
1200.7454833984375
  0
SEQEND
  8
15
  0
POLYLINE
  8
15
  6
CONTINUOUS
 62
     7
 66
     1
 70
     0
 40
0.0
 41
0.0
  0
VERTEX
  8
15
 10
835.97802734375
 20
1205.1204833984375
  0
VERTEX
  8
15
 10
842.22802734375
 20
1212.6204833984375
  0
VERTEX
  8
15
 10
849.72802734375
 20
1212.6204833984375
  0
VERTEX
  8
15
 10
855.97802734375
 20
1205.1204833984375
  0
VERTEX
  8
15
 10
855.97802734375
 20
1195.1204833984375
  0
VERTEX
  8
15
 10
835.97802734375
 20
1177.6204833984375
  0
VERTEX
  8
15
 10
835.97802734375
 20
1172.6204833984375
  0
VERTEX
  8
15
 10
855.97802734375
 20
1172.6204833984375
  0
SEQEND
  8
15
  0
POLYLINE
  8
15
  6
CONTINUOUS
 62
     7
 66
     1
 70
     0
 40
0.0
 41
0.0
  0
VERTEX
  8
15
 10
869.72802734375
 20
1205.1204833984375
  0
VERTEX
  8
15
 10
869.72802734375
 20
1180.1204833984375
  0
VERTEX
  8
15
 10
869.8242148595516
 20
1179.3653326140409
  0
VERTEX
  8
15
 10
869.98942770759538
 20
1178.62493442041
  0
VERTEX
  8
15
 10
870.22259088288695
 20
1177.9041356916221
  0
VERTEX
  8
15
 10
870.52198639762184
 20
1177.208268699525
  0
VERTEX
  8
15
 10
870.88562037471468
 20
1176.5421988558357
  0
VERTEX
  8
15
 10
871.31019591955715
 20
1175.9121573249586
  0
VERTEX
  8
15
 10
871.79200225545026
 20
1175.3236550885422
  0
VERTEX
  8
15
 10
872.32662642984417
 20
1174.7820885374747
  0
VERTEX
  8
15
 10
872.9090868678727
 20
1174.2924952589065
  0
VERTEX
  8
15
 10
873.53401860018403
 20
1173.8593790965404
  0
VERTEX
  8
15
 10
874.19569826244901
 20
1173.4867018466907
  0
VERTEX
  8
15
 10
874.88835133187843
 20
1173.1777129560778
  0
VERTEX
  8
15
 10
875.60551795493018
 20
1172.9351925347869
  0
VERTEX
  8
15
 10
876.34221553054999
 20
1172.7607283470643
  0
VERTEX
  8
15
 10
877.09301601427217
 20
1172.6555991184703
  0
VERTEX
  8
15
 10
877.85302734375
 20
1172.6204833984375
  0
VERTEX
  8
15
 10
878.61303867322783
 20
1172.6555991184703
  0
VERTEX
  8
15
 10
879.36383915695001
 20
1172.7607283470643
  0
VERTEX
  8
15
 10
880.10053673256982
 20
1172.9351925347869
  0
VERTEX
  8
15
 10
880.81770335562157
 20
1173.1777129560778
  0
VERTEX
  8
15
 10
881.51035642505099
 20
1173.4867018466907
  0
VERTEX
  8
15
 10
882.17203608731597
 20
1173.8593790965404
  0
VERTEX
  8
15
 10
882.7969678196273
 20
1174.2924952589065
  0
VERTEX
  8
15
 10
883.37942825765583
 20
1174.7820885374747
  0
VERTEX
  8
15
 10
883.91405243204974
 20
1175.3236550885422
  0
VERTEX
  8
15
 10
884.39585876794285
 20
1175.9121573249586
  0
VERTEX
  8
15
 10
884.82043431278532
 20
1176.5421988558357
  0
VERTEX
  8
15
 10
885.18406828987816
 20
1177.208268699525
  0
VERTEX
  8
15
 10
885.48346380461305
 20
1177.9041356916221
  0
VERTEX
  8
15
 10
885.71662697990462
 20
1178.62493442041
  0
VERTEX
  8
15
 10
885.8818398279484
 20
1179.3653326140409
  0
VERTEX
  8
15
 10
885.97802734375
 20
1180.1204833984375
  0
VERTEX
  8
15
 10
885.97802734375
 20
1205.1204833984375
  0
VERTEX
  8
15
 10
885.8818398279484
 20
1205.8756341828341
  0
VERTEX
  8
15
 10
885.71662697990462
 20
1206.616032376465
  0
VERTEX
  8
15
 10
885.48346380461305
 20
1207.3368311052529
  0
VERTEX
  8
15
 10
885.18406828987816
 20
1208.03269809735
  0
VERTEX
  8
15
 10
884.82043431278532
 20
1208.6987679410393
  0
VERTEX
  8
15
 10
884.39585876794285
 20
1209.3288094719164
  0
VERTEX
  8
15
 10
883.91405243204974
 20
1209.9173117083328
  0
VERTEX
  8
15
 10
883.37942825765583
 20
1210.4588782594003
  0
VERTEX
  8
15
 10
882.7969678196273
 20
1210.9484715379685
  0
VERTEX
  8
15
 10
882.17203608731597
 20
1211.3815877003346
  0
VERTEX
  8
15
 10
881.51035642505099
 20
1211.7542649501843
  0
VERTEX
  8
15
 10
880.81770335562157
 20
1212.0632538407972
  0
VERTEX
  8
15
 10
880.10053673256982
 20
1212.3057742620881
  0
VERTEX
  8
15
 10
879.36383915695001
 20
1212.4802384498107
  0
VERTEX
  8
15
 10
878.61303867322783
 20
1212.5853676784047
  0
VERTEX
  8
15
 10
877.85302734375
 20
1212.6204833984375
  0
VERTEX
  8
15
 10
877.09301601427217
 20
1212.5853676784047
  0
VERTEX
  8
15
 10
876.34221553054999
 20
1212.4802384498107
  0
VERTEX
  8
15
 10
875.60551795493018
 20
1212.3057742620881
  0
VERTEX
  8
15
 10
874.88835133187843
 20
1212.0632538407972
  0
VERTEX
  8
15
 10
874.19569826244901
 20
1211.7542649501843
  0
VERTEX
  8
15
 10
873.53401860018403
 20
1211.3815877003346
  0
VERTEX
  8
15
 10
872.9090868678727
 20
1210.9484715379685
  0
VERTEX
  8
15
 10
872.32662642984417
 20
1210.4588782594003
  0
VERTEX
  8
15
 10
871.79200225545026
 20
1209.9173117083328
  0
VERTEX
  8
15
 10
871.31019591955715
 20
1209.3288094719164
  0
VERTEX
  8
15
 10
870.88562037471468
 20
1208.6987679410393
  0
VERTEX
  8
15
 10
870.52198639762184
 20
1208.03269809735
  0
VERTEX
  8
15
 10
870.22259088288695
 20
1207.3368311052529
  0
VERTEX
  8
15
 10
869.98942770759538
 20
1206.616032376465
  0
VERTEX
  8
15
 10
869.8242148595516
 20
1205.8756341828341
  0
VERTEX
  8
15
 10
869.72802734375
 20
1205.1204833984375
  0
SEQEND
  8
15
  0
POLYLINE
  8
15
  6
CONTINUOUS
 62
     7
 66
     1
 70
     0
 40
0.0
 41
0.0
  0
VERTEX
  8
15
 10
910.97802734375
 20
1212.6204833984375
  0
VERTEX
  8
15
 10
900.97802734375
 20
1185.1204833984375
  0
VERTEX
  8
15
 10
920.97802734375
 20
1185.1204833984375
  0
SEQEND
  8
15
  0
POLYLINE
  8
15
  6
CONTINUOUS
 62
     7
 66
     1
 70
     0
 40
0.0
 41
0.0
  0
VERTEX
  8
15
 10
914.72802734375
 20
1172.6204833984375
  0
VERTEX
  8
15
 10
914.72802734375
 20
1198.8704833984375
  0
SEQEND
  8
15
  0
POLYLINE
  8
15
  6
CONTINUOUS
 62
     7
 66
     1
 70
     0
 40
0.0
 41
0.0
  0
VERTEX
  8
15
 10
934.10302734375
 20
1192.6204833984375
  0
VERTEX
  8
15
 10
959.10302734375
 20
1192.6204833984375
  0
SEQEND
  8
15
  0
POLYLINE
  8
15
  6
CONTINUOUS
 62
     7
 66
     1
 70
     0
 40
0.0
 41
0.0
  0
VERTEX
  8
15
 10
967.22802734375
 20
1205.1204833984375
  0
VERTEX
  8
15
 10
967.22802734375
 20
1180.1204833984375
  0
VERTEX
  8
15
 10
967.3242148595516
 20
1179.3653326140409
  0
VERTEX
  8
15
 10
967.48942770759538
 20
1178.62493442041
  0
VERTEX
  8
15
 10
967.72259088288695
 20
1177.9041356916221
  0
VERTEX
  8
15
 10
968.02198639762184
 20
1177.208268699525
  0
VERTEX
  8
15
 10
968.38562037471468
 20
1176.5421988558357
  0
VERTEX
  8
15
 10
968.81019591955715
 20
1175.9121573249586
  0
VERTEX
  8
15
 10
969.29200225545026
 20
1175.3236550885422
  0
VERTEX
  8
15
 10
969.82662642984417
 20
1174.7820885374747
  0
VERTEX
  8
15
 10
970.4090868678727
 20
1174.2924952589065
  0
VERTEX
  8
15
 10
971.03401860018403
 20
1173.8593790965404
  0
VERTEX
  8
15
 10
971.69569826244901
 20
1173.4867018466907
  0
VERTEX
  8
15
 10
972.38835133187843
 20
1173.1777129560778
  0
VERTEX
  8
15
 10
973.10551795493018
 20
1172.9351925347869
  0
VERTEX
  8
15
 10
973.84221553054999
 20
1172.7607283470643
  0
VERTEX
  8
15
 10
974.59301601427217
 20
1172.6555991184703
  0
VERTEX
  8
15
 10
975.35302734375
 20
1172.6204833984375
  0
VERTEX
  8
15
 10
976.11303867322783
 20
1172.6555991184703
  0
VERTEX
  8
15
 10
976.86383915695001
 20
1172.7607283470643
  0
VERTEX
  8
15
 10
977.60053673256982
 20
1172.9351925347869
  0
VERTEX
  8
15
 10
978.31770335562157
 20
1173.1777129560778
  0
VERTEX
  8
15
 10
979.01035642505099
 20
1173.4867018466907
  0
VERTEX
  8
15
 10
979.67203608731597
 20
1173.8593790965404
  0
VERTEX
  8
15
 10
980.2969678196273
 20
1174.2924952589065
  0
VERTEX
  8
15
 10
980.87942825765583
 20
1174.7820885374747
  0
VERTEX
  8
15
 10
981.41405243204974
 20
1175.3236550885422
  0
VERTEX
  8
15
 10
981.89585876794285
 20
1175.9121573249586
  0
VERTEX
  8
15
 10
982.32043431278532
 20
1176.5421988558357
  0
VERTEX
  8
15
 10
982.68406828987816
 20
1177.208268699525
  0
VERTEX
  8
15
 10
982.98346380461305
 20
1177.9041356916221
  0
VERTEX
  8
15
 10
983.21662697990462
 20
1178.62493442041
  0
VERTEX
  8
15
 10
983.3818398279484
 20
1179.3653326140409
  0
VERTEX
  8
15
 10
983.47802734375
 20
1180.1204833984375
  0
VERTEX
  8
15
 10
983.47802734375
 20
1205.1204833984375
  0
VERTEX
  8
15
 10
983.3818398279484
 20
1205.8756341828341
  0
VERTEX
  8
15
 10
983.21662697990462
 20
1206.616032376465
  0
VERTEX
  8
15
 10
982.98346380461305
 20
1207.3368311052529
  0
VERTEX
  8
15
 10
982.68406828987816
 20
1208.03269809735
  0
VERTEX
  8
15
 10
982.32043431278532
 20
1208.6987679410393
  0
VERTEX
  8
15
 10
981.89585876794285
 20
1209.3288094719164
  0
VERTEX
  8
15
 10
981.41405243204974
 20
1209.9173117083328
  0
VERTEX
  8
15
 10
980.87942825765583
 20
1210.4588782594003
  0
VERTEX
  8
15
 10
980.2969678196273
 20
1210.9484715379685
  0
VERTEX
  8
15
 10
979.67203608731597
 20
1211.3815877003346
  0
VERTEX
  8
15
 10
979.01035642505099
 20
1211.7542649501843
  0
VERTEX
  8
15
 10
978.31770335562157
 20
1212.0632538407972
  0
VERTEX
  8
15
 10
977.60053673256982
 20
1212.3057742620881
  0
VERTEX
  8
15
 10
976.86383915695001
 20
1212.4802384498107
  0
VERTEX
  8
15
 10
976.11303867322783
 20
1212.5853676784047
  0
VERTEX
  8
15
 10
975.35302734375
 20
1212.6204833984375
  0
VERTEX
  8
15
 10
974.59301601427217
 20
1212.5853676784047
  0
VERTEX
  8
15
 10
973.84221553054999
 20
1212.4802384498107
  0
VERTEX
  8
15
 10
973.10551795493018
 20
1212.3057742620881
  0
VERTEX
  8
15
 10
972.38835133187843
 20
1212.0632538407972
  0
VERTEX
  8
15
 10
971.69569826244901
 20
1211.7542649501843
  0
VERTEX
  8
15
 10
971.03401860018403
 20
1211.3815877003346
  0
VERTEX
  8
15
 10
970.4090868678727
 20
1210.9484715379685
  0
VERTEX
  8
15
 10
969.82662642984417
 20
1210.4588782594003
  0
VERTEX
  8
15
 10
969.29200225545026
 20
1209.9173117083328
  0
VERTEX
  8
15
 10
968.81019591955715
 20
1209.3288094719164
  0
VERTEX
  8
15
 10
968.38562037471468
 20
1208.6987679410393
  0
VERTEX
  8
15
 10
968.02198639762184
 20
1208.03269809735
  0
VERTEX
  8
15
 10
967.72259088288695
 20
1207.3368311052529
  0
VERTEX
  8
15
 10
967.48942770759538
 20
1206.616032376465
  0
VERTEX
  8
15
 10
967.3242148595516
 20
1205.8756341828341
  0
VERTEX
  8
15
 10
967.22802734375
 20
1205.1204833984375
  0
SEQEND
  8
15
  0
POLYLINE
  8
15
  6
CONTINUOUS
 62
     7
 66
     1
 70
     0
 40
0.0
 41
0.0
  0
VERTEX
  8
15
 10
1008.47802734375
 20
1172.6204833984375
  0
VERTEX
  8
15
 10
1008.47802734375
 20
1212.6204833984375
  0
VERTEX
  8
15
 10
1001.60302734375
 20
1200.7454833984375
  0
SEQEND
  8
15
  0
POLYLINE
  8
15
  6
CONTINUOUS
 62
     7
 66
     1
 70
     0
 40
0.0
 41
0.0
  0
VERTEX
  8
15
 10
1032.22802734375
 20
1205.1204833984375
  0
VERTEX
  8
15
 10
1032.22802734375
 20
1180.1204833984375
  0
VERTEX
  8
15
 10
1032.3242148595516
 20
1179.3653326140411
  0
VERTEX
  8
15
 10
1032.4894277075953
 20
1178.6249344204102
  0
VERTEX
  8
15
 10
1032.7225908828871
 20
1177.9041356916221
  0
VERTEX
  8
15
 10
1033.0219863976217
 20
1177.2082686995252
  0
VERTEX
  8
15
 10
1033.3856203747148
 20
1176.5421988558355
  0
VERTEX
  8
15
 10
1033.8101959195569
 20
1175.912157324959
  0
VERTEX
  8
15
 10
1034.2920022554495
 20
1175.3236550885431
  0
VERTEX
  8
15
 10
1034.8266264298441
 20
1174.7820885374747
  0
VERTEX
  8
15
 10
1035.4090868678736
 20
1174.2924952589058
  0
VERTEX
  8
15
 10
1036.0340186001843
 20
1173.8593790965404
  0
VERTEX
  8
15
 10
1036.6956982624488
 20
1173.4867018466907
  0
VERTEX
  8
15
 10
1037.3883513318785
 20
1173.1777129560778
  0
VERTEX
  8
15
 10
1038.1055179549301
 20
1172.9351925347869
  0
VERTEX
  8
15
 10
1038.84221553055
 20
1172.7607283470643
  0
VERTEX
  8
15
 10
1039.5930160142723
 20
1172.6555991184703
  0
VERTEX
  8
15
 10
1040.35302734375
 20
1172.6204833984375
  0
VERTEX
  8
15
 10
1041.1130386732277
 20
1172.6555991184703
  0
VERTEX
  8
15
 10
1041.86383915695
 20
1172.7607283470643
  0
VERTEX
  8
15
 10
1042.6005367325699
 20
1172.9351925347869
  0
VERTEX
  8
15
 10
1043.3177033556215
 20
1173.1777129560778
  0
VERTEX
  8
15
 10
1044.0103564250512
 20
1173.4867018466907
  0
VERTEX
  8
15
 10
1044.6720360873157
 20
1173.8593790965404
  0
VERTEX
  8
15
 10
1045.2969678196264
 20
1174.2924952589058
  0
VERTEX
  8
15
 10
1045.8794282576559
 20
1174.7820885374747
  0
VERTEX
  8
15
 10
1046.4140524320505
 20
1175.3236550885431
  0
VERTEX
  8
15
 10
1046.8958587679431
 20
1175.912157324959
  0
VERTEX
  8
15
 10
1047.3204343127852
 20
1176.5421988558355
  0
VERTEX
  8
15
 10
1047.6840682898783
 20
1177.2082686995252
  0
VERTEX
  8
15
 10
1047.9834638046129
 20
1177.9041356916221
  0
VERTEX
  8
15
 10
1048.2166269799047
 20
1178.6249344204102
  0
VERTEX
  8
15
 10
1048.3818398279484
 20
1179.3653326140411
  0
VERTEX
  8
15
 10
1048.47802734375
 20
1180.1204833984375
  0
VERTEX
  8
15
 10
1048.47802734375
 20
1205.1204833984375
  0
VERTEX
  8
15
 10
1048.3818398279484
 20
1205.8756341828339
  0
VERTEX
  8
15
 10
1048.2166269799047
 20
1206.6160323764648
  0
VERTEX
  8
15
 10
1047.9834638046129
 20
1207.3368311052529
  0
VERTEX
  8
15
 10
1047.6840682898783
 20
1208.0326980973498
  0
VERTEX
  8
15
 10
1047.3204343127852
 20
1208.6987679410395
  0
VERTEX
  8
15
 10
1046.8958587679431
 20
1209.328809471916
  0
VERTEX
  8
15
 10
1046.4140524320505
 20
1209.9173117083319
  0
VERTEX
  8
15
 10
1045.8794282576559
 20
1210.4588782594003
  0
VERTEX
  8
15
 10
1045.2969678196264
 20
1210.9484715379692
  0
VERTEX
  8
15
 10
1044.6720360873157
 20
1211.3815877003346
  0
VERTEX
  8
15
 10
1044.0103564250512
 20
1211.7542649501843
  0
VERTEX
  8
15
 10
1043.3177033556215
 20
1212.0632538407972
  0
VERTEX
  8
15
 10
1042.6005367325699
 20
1212.3057742620881
  0
VERTEX
  8
15
 10
1041.86383915695
 20
1212.4802384498107
  0
VERTEX
  8
15
 10
1041.1130386732277
 20
1212.5853676784047
  0
VERTEX
  8
15
 10
1040.35302734375
 20
1212.6204833984375
  0
VERTEX
  8
15
 10
1039.5930160142723
 20
1212.5853676784047
  0
VERTEX
  8
15
 10
1038.84221553055
 20
1212.4802384498107
  0
VERTEX
  8
15
 10
1038.1055179549301
 20
1212.3057742620881
  0
VERTEX
  8
15
 10
1037.3883513318785
 20
1212.0632538407972
  0
VERTEX
  8
15
 10
1036.6956982624488
 20
1211.7542649501843
  0
VERTEX
  8
15
 10
1036.0340186001843
 20
1211.3815877003346
  0
VERTEX
  8
15
 10
1035.4090868678736
 20
1210.9484715379692
  0
VERTEX
  8
15
 10
1034.8266264298441
 20
1210.4588782594003
  0
VERTEX
  8
15
 10
1034.2920022554495
 20
1209.9173117083319
  0
VERTEX
  8
15
 10
1033.8101959195569
 20
1209.328809471916
  0
VERTEX
  8
15
 10
1033.3856203747148
 20
1208.6987679410395
  0
VERTEX
  8
15
 10
1033.0219863976217
 20
1208.0326980973498
  0
VERTEX
  8
15
 10
1032.7225908828871
 20
1207.3368311052529
  0
VERTEX
  8
15
 10
1032.4894277075953
 20
1206.6160323764648
  0
VERTEX
  8
15
 10
1032.3242148595516
 20
1205.8756341828339
  0
VERTEX
  8
15
 10
1032.22802734375
 20
1205.1204833984375
  0
SEQEND
  8
15
  0
POLYLINE
  8
15
  6
CONTINUOUS
 62
     7
 66
     1
 70
     0
 40
0.0
 41
0.0
  0
VERTEX
  8
15
 10
1073.47802734375
 20
1172.6204833984375
  0
VERTEX
  8
15
 10
1073.47802734375
 20
1212.6204833984375
  0
VERTEX
  8
15
 10
1066.60302734375
 20
1200.7454833984375
  0
SEQEND
  8
15
  0
POLYLINE
  8
15
  6
CONTINUOUS
 62
     7
 66
     1
 70
     0
 40
0.0
 41
0.0
  0
VERTEX
  8
15
 10
1095.97802734375
 20
1212.6204833984375
  0
VERTEX
  8
15
 10
1095.97802734375
 20
1172.6204833984375
  0
VERTEX
  8
15
 10
1115.97802734375
 20
1172.6204833984375
  0
SEQEND
  8
15
  0
POLYLINE
  8
15
  6
CONTINUOUS
 62
     7
 66
     1
 70
     0
 40
0.0
 41
0.0
  0
VERTEX
  8
15
 10
738.47802734375
 20
1147.6204833984375
  0
VERTEX
  8
15
 10
738.47802734375
 20
1107.6204833984375
  0
VERTEX
  8
15
 10
758.47802734375
 20
1107.6204833984375
  0
SEQEND
  8
15
  0
POLYLINE
  8
15
  6
CONTINUOUS
 62
     7
 66
     1
 70
     0
 40
0.0
 41
0.0
  0
VERTEX
  8
15
 10
780.97802734375
 20
1107.6204833984375
  0
VERTEX
  8
15
 10
780.97802734375
 20
1147.6204833984375
  0
VERTEX
  8
15
 10
774.10302734375
 20
1135.7454833984375
  0
SEQEND
  8
15
  0
POLYLINE
  8
15
  6
CONTINUOUS
 62
     7
 66
     1
 70
     0
 40
0.0
 41
0.0
  0
VERTEX
  8
15
 10
803.47802734375
 20
1140.1204833984375
  0
VERTEX
  8
15
 10
809.72802734375
 20
1147.6204833984375
  0
VERTEX
  8
15
 10
817.22802734375
 20
1147.6204833984375
  0
VERTEX
  8
15
 10
823.47802734375
 20
1140.1204833984375
  0
VERTEX
  8
15
 10
823.47802734375
 20
1130.1204833984375
  0
VERTEX
  8
15
 10
803.47802734375
 20
1112.6204833984375
  0
VERTEX
  8
15
 10
803.47802734375
 20
1107.6204833984375
  0
VERTEX
  8
15
 10
823.47802734375
 20
1107.6204833984375
  0
SEQEND
  8
15
  0
POLYLINE
  8
15
  6
CONTINUOUS
 62
     7
 66
     1
 70
     0
 40
0.0
 41
0.0
  0
VERTEX
  8
15
 10
837.22802734375
 20
1140.1204833984375
  0
VERTEX
  8
15
 10
837.22802734375
 20
1115.1204833984375
  0
VERTEX
  8
15
 10
837.3242148595516
 20
1114.3653326140409
  0
VERTEX
  8
15
 10
837.48942770759538
 20
1113.62493442041
  0
VERTEX
  8
15
 10
837.72259088288695
 20
1112.9041356916221
  0
VERTEX
  8
15
 10
838.02198639762184
 20
1112.208268699525
  0
VERTEX
  8
15
 10
838.38562037471468
 20
1111.5421988558357
  0
VERTEX
  8
15
 10
838.81019591955715
 20
1110.9121573249586
  0
VERTEX
  8
15
 10
839.29200225545026
 20
1110.3236550885422
  0
VERTEX
  8
15
 10
839.82662642984417
 20
1109.7820885374747
  0
VERTEX
  8
15
 10
840.4090868678727
 20
1109.2924952589065
  0
VERTEX
  8
15
 10
841.03401860018403
 20
1108.8593790965404
  0
VERTEX
  8
15
 10
841.69569826244901
 20
1108.4867018466907
  0
VERTEX
  8
15
 10
842.38835133187843
 20
1108.1777129560778
  0
VERTEX
  8
15
 10
843.10551795493018
 20
1107.9351925347869
  0
VERTEX
  8
15
 10
843.84221553054999
 20
1107.7607283470643
  0
VERTEX
  8
15
 10
844.59301601427217
 20
1107.6555991184703
  0
VERTEX
  8
15
 10
845.35302734375
 20
1107.6204833984375
  0
VERTEX
  8
15
 10
846.11303867322783
 20
1107.6555991184703
  0
VERTEX
  8
15
 10
846.86383915695001
 20
1107.7607283470643
  0
VERTEX
  8
15
 10
847.60053673256982
 20
1107.9351925347869
  0
VERTEX
  8
15
 10
848.31770335562157
 20
1108.1777129560778
  0
VERTEX
  8
15
 10
849.01035642505099
 20
1108.4867018466907
  0
VERTEX
  8
15
 10
849.67203608731597
 20
1108.8593790965404
  0
VERTEX
  8
15
 10
850.2969678196273
 20
1109.2924952589065
  0
VERTEX
  8
15
 10
850.87942825765583
 20
1109.7820885374747
  0
VERTEX
  8
15
 10
851.41405243204974
 20
1110.3236550885422
  0
VERTEX
  8
15
 10
851.89585876794285
 20
1110.9121573249586
  0
VERTEX
  8
15
 10
852.32043431278532
 20
1111.5421988558357
  0
VERTEX
  8
15
 10
852.68406828987816
 20
1112.208268699525
  0
VERTEX
  8
15
 10
852.98346380461305
 20
1112.9041356916221
  0
VERTEX
  8
15
 10
853.21662697990462
 20
1113.62493442041
  0
VERTEX
  8
15
 10
853.3818398279484
 20
1114.3653326140409
  0
VERTEX
  8
15
 10
853.47802734375
 20
1115.1204833984375
  0
VERTEX
  8
15
 10
853.47802734375
 20
1140.1204833984375
  0
VERTEX
  8
15
 10
853.3818398279484
 20
1140.8756341828341
  0
VERTEX
  8
15
 10
853.21662697990462
 20
1141.616032376465
  0
VERTEX
  8
15
 10
852.98346380461305
 20
1142.3368311052529
  0
VERTEX
  8
15
 10
852.68406828987816
 20
1143.03269809735
  0
VERTEX
  8
15
 10
852.32043431278532
 20
1143.6987679410393
  0
VERTEX
  8
15
 10
851.89585876794285
 20
1144.3288094719164
  0
VERTEX
  8
15
 10
851.41405243204974
 20
1144.9173117083328
  0
VERTEX
  8
15
 10
850.87942825765583
 20
1145.4588782594003
  0
VERTEX
  8
15
 10
850.2969678196273
 20
1145.9484715379685
  0
VERTEX
  8
15
 10
849.67203608731597
 20
1146.3815877003346
  0
VERTEX
  8
15
 10
849.01035642505099
 20
1146.7542649501843
  0
VERTEX
  8
15
 10
848.31770335562157
 20
1147.0632538407972
  0
VERTEX
  8
15
 10
847.60053673256982
 20
1147.3057742620881
  0
VERTEX
  8
15
 10
846.86383915695001
 20
1147.4802384498107
  0
VERTEX
  8
15
 10
846.11303867322783
 20
1147.5853676784047
  0
VERTEX
  8
15
 10
845.35302734375
 20
1147.6204833984375
  0
VERTEX
  8
15
 10
844.59301601427217
 20
1147.5853676784047
  0
VERTEX
  8
15
 10
843.84221553054999
 20
1147.4802384498107
  0
VERTEX
  8
15
 10
843.10551795493018
 20
1147.3057742620881
  0
VERTEX
  8
15
 10
842.38835133187843
 20
1147.0632538407972
  0
VERTEX
  8
15
 10
841.69569826244901
 20
1146.7542649501843
  0
VERTEX
  8
15
 10
841.03401860018403
 20
1146.3815877003346
  0
VERTEX
  8
15
 10
840.4090868678727
 20
1145.9484715379685
  0
VERTEX
  8
15
 10
839.82662642984417
 20
1145.4588782594003
  0
VERTEX
  8
15
 10
839.29200225545026
 20
1144.9173117083328
  0
VERTEX
  8
15
 10
838.81019591955715
 20
1144.3288094719164
  0
VERTEX
  8
15
 10
838.38562037471468
 20
1143.6987679410393
  0
VERTEX
  8
15
 10
838.02198639762184
 20
1143.03269809735
  0
VERTEX
  8
15
 10
837.72259088288695
 20
1142.3368311052529
  0
VERTEX
  8
15
 10
837.48942770759538
 20
1141.616032376465
  0
VERTEX
  8
15
 10
837.3242148595516
 20
1140.8756341828341
  0
VERTEX
  8
15
 10
837.22802734375
 20
1140.1204833984375
  0
SEQEND
  8
15
  0
POLYLINE
  8
15
  6
CONTINUOUS
 62
     7
 66
     1
 70
     0
 40
0.0
 41
0.0
  0
VERTEX
  8
15
 10
869.10302734375
 20
1127.6204833984375
  0
VERTEX
  8
15
 10
894.10302734375
 20
1127.6204833984375
  0
SEQEND
  8
15
  0
POLYLINE
  8
15
  6
CONTINUOUS
 62
     7
 66
     1
 70
     0
 40
0.0
 41
0.0
  0
VERTEX
  8
15
 10
910.97802734375
 20
1147.6204833984375
  0
VERTEX
  8
15
 10
900.97802734375
 20
1120.1204833984375
  0
VERTEX
  8
15
 10
920.97802734375
 20
1120.1204833984375
  0
SEQEND
  8
15
  0
POLYLINE
  8
15
  6
CONTINUOUS
 62
     7
 66
     1
 70
     0
 40
0.0
 41
0.0
  0
VERTEX
  8
15
 10
914.72802734375
 20
1107.6204833984375
  0
VERTEX
  8
15
 10
914.72802734375
 20
1133.8704833984375
  0
SEQEND
  8
15
  0
POLYLINE
  8
15
  6
CONTINUOUS
 62
     7
 66
     1
 70
     0
 40
0.0
 41
0.0
  0
VERTEX
  8
15
 10
934.72802734375
 20
1140.1204833984375
  0
VERTEX
  8
15
 10
934.72802734375
 20
1115.1204833984375
  0
VERTEX
  8
15
 10
934.8242148595516
 20
1114.3653326140409
  0
VERTEX
  8
15
 10
934.98942770759538
 20
1113.62493442041
  0
VERTEX
  8
15
 10
935.22259088288695
 20
1112.9041356916221
  0
VERTEX
  8
15
 10
935.52198639762184
 20
1112.208268699525
  0
VERTEX
  8
15
 10
935.88562037471468
 20
1111.5421988558357
  0
VERTEX
  8
15
 10
936.31019591955715
 20
1110.9121573249586
  0
VERTEX
  8
15
 10
936.79200225545026
 20
1110.3236550885422
  0
VERTEX
  8
15
 10
937.32662642984417
 20
1109.7820885374747
  0
VERTEX
  8
15
 10
937.9090868678727
 20
1109.2924952589065
  0
VERTEX
  8
15
 10
938.53401860018403
 20
1108.8593790965404
  0
VERTEX
  8
15
 10
939.19569826244901
 20
1108.4867018466907
  0
VERTEX
  8
15
 10
939.88835133187843
 20
1108.1777129560778
  0
VERTEX
  8
15
 10
940.60551795493018
 20
1107.9351925347869
  0
VERTEX
  8
15
 10
941.34221553054999
 20
1107.7607283470643
  0
VERTEX
  8
15
 10
942.09301601427217
 20
1107.6555991184703
  0
VERTEX
  8
15
 10
942.85302734375
 20
1107.6204833984375
  0
VERTEX
  8
15
 10
943.61303867322783
 20
1107.6555991184703
  0
VERTEX
  8
15
 10
944.36383915695001
 20
1107.7607283470643
  0
VERTEX
  8
15
 10
945.10053673256982
 20
1107.9351925347869
  0
VERTEX
  8
15
 10
945.81770335562157
 20
1108.1777129560778
  0
VERTEX
  8
15
 10
946.51035642505099
 20
1108.4867018466907
  0
VERTEX
  8
15
 10
947.17203608731597
 20
1108.8593790965404
  0
VERTEX
  8
15
 10
947.7969678196273
 20
1109.2924952589065
  0
VERTEX
  8
15
 10
948.37942825765583
 20
1109.7820885374747
  0
VERTEX
  8
15
 10
948.91405243204974
 20
1110.3236550885422
  0
VERTEX
  8
15
 10
949.39585876794285
 20
1110.9121573249586
  0
VERTEX
  8
15
 10
949.82043431278532
 20
1111.5421988558357
  0
VERTEX
  8
15
 10
950.18406828987816
 20
1112.208268699525
  0
VERTEX
  8
15
 10
950.48346380461305
 20
1112.9041356916221
  0
VERTEX
  8
15
 10
950.71662697990462
 20
1113.62493442041
  0
VERTEX
  8
15
 10
950.8818398279484
 20
1114.3653326140409
  0
VERTEX
  8
15
 10
950.97802734375
 20
1115.1204833984375
  0
VERTEX
  8
15
 10
950.97802734375
 20
1140.1204833984375
  0
VERTEX
  8
15
 10
950.8818398279484
 20
1140.8756341828341
  0
VERTEX
  8
15
 10
950.71662697990462
 20
1141.616032376465
  0
VERTEX
  8
15
 10
950.48346380461305
 20
1142.3368311052529
  0
VERTEX
  8
15
 10
950.18406828987816
 20
1143.03269809735
  0
VERTEX
  8
15
 10
949.82043431278532
 20
1143.6987679410393
  0
VERTEX
  8
15
 10
949.39585876794285
 20
1144.3288094719164
  0
VERTEX
  8
15
 10
948.91405243204974
 20
1144.9173117083328
  0
VERTEX
  8
15
 10
948.37942825765583
 20
1145.4588782594003
  0
VERTEX
  8
15
 10
947.7969678196273
 20
1145.9484715379685
  0
VERTEX
  8
15
 10
947.17203608731597
 20
1146.3815877003346
  0
VERTEX
  8
15
 10
946.51035642505099
 20
1146.7542649501843
  0
VERTEX
  8
15
 10
945.81770335562157
 20
1147.0632538407972
  0
VERTEX
  8
15
 10
945.10053673256982
 20
1147.3057742620881
  0
VERTEX
  8
15
 10
944.36383915695001
 20
1147.4802384498107
  0
VERTEX
  8
15
 10
943.61303867322783
 20
1147.5853676784047
  0
VERTEX
  8
15
 10
942.85302734375
 20
1147.6204833984375
  0
VERTEX
  8
15
 10
942.09301601427217
 20
1147.5853676784047
  0
VERTEX
  8
15
 10
941.34221553054999
 20
1147.4802384498107
  0
VERTEX
  8
15
 10
940.60551795493018
 20
1147.3057742620881
  0
VERTEX
  8
15
 10
939.88835133187843
 20
1147.0632538407972
  0
VERTEX
  8
15
 10
939.19569826244901
 20
1146.7542649501843
  0
VERTEX
  8
15
 10
938.53401860018403
 20
1146.3815877003346
  0
VERTEX
  8
15
 10
937.9090868678727
 20
1145.9484715379685
  0
VERTEX
  8
15
 10
937.32662642984417
 20
1145.4588782594003
  0
VERTEX
  8
15
 10
936.79200225545026
 20
1144.9173117083328
  0
VERTEX
  8
15
 10
936.31019591955715
 20
1144.3288094719164
  0
VERTEX
  8
15
 10
935.88562037471468
 20
1143.6987679410393
  0
VERTEX
  8
15
 10
935.52198639762184
 20
1143.03269809735
  0
VERTEX
  8
15
 10
935.22259088288695
 20
1142.3368311052529
  0
VERTEX
  8
15
 10
934.98942770759538
 20
1141.616032376465
  0
VERTEX
  8
15
 10
934.8242148595516
 20
1140.8756341828341
  0
VERTEX
  8
15
 10
934.72802734375
 20
1140.1204833984375
  0
SEQEND
  8
15
  0
POLYLINE
  8
15
  6
CONTINUOUS
 62
     7
 66
     1
 70
     0
 40
0.0
 41
0.0
  0
VERTEX
  8
15
 10
1018.47802734375
 20
1147.6204833984375
  0
VERTEX
  8
15
 10
1013.47802734375
 20
1107.6204833984375
  0
VERTEX
  8
15
 10
1008.47802734375
 20
1146.3704833984375
  0
VERTEX
  8
15
 10
1003.47802734375
 20
1107.6204833984375
  0
VERTEX
  8
15
 10
998.47802734375
 20
1147.6204833984375
  0
SEQEND
  8
15
  0
POLYLINE
  8
15
  6
CONTINUOUS
 62
     7
 66
     1
 70
     0
 40
0.0
 41
0.0
  0
VERTEX
  8
15
 10
1030.97802734375
 20
1127.6204833984375
  0
VERTEX
  8
15
 10
1040.97802734375
 20
1127.6204833984375
  0
VERTEX
  8
15
 10
1041.961493043854
 20
1127.668240774306
  0
VERTEX
  8
15
 10
1042.9313350027446
 20
1127.8111943061299
  0
VERTEX
  8
15
 10
1043.8807312527806
 20
1128.0483489610888
  0
VERTEX
  8
15
 10
1044.8020424246531
 20
1128.3778073364276
  0
VERTEX
  8
15
 10
1045.6883227016383
 20
1128.7972473485599
  0
VERTEX
  8
15
 10
1046.5303298003403
 20
1129.3024647057102
  0
VERTEX
  8
15
 10
1047.3198975952087
 20
1129.888564593801
  0
VERTEX
  8
15
 10
1048.0489501953125
 20
1130.549560546875
  0
VERTEX
  8
15
 10
1048.7099461483865
 20
1131.2786131469788
  0
VERTEX
  8
15
 10
1049.2960460364773
 20
1132.0681809418472
  0
VERTEX
  8
15
 10
1049.8012633936276
 20
1132.9101880405492
  0
VERTEX
  8
15
 10
1050.2207034057599
 20
1133.7964683175344
  0
VERTEX
  8
15
 10
1050.5501617810987
 20
1134.7177794894069
  0
VERTEX
  8
15
 10
1050.7873164360576
 20
1135.6671757394429
  0
VERTEX
  8
15
 10
1050.9302699678815
 20
1136.6370176983335
  0
VERTEX
  8
15
 10
1050.97802734375
 20
1137.6204833984375
  0
VERTEX
  8
15
 10
1050.9302699678815
 20
1138.6039490985415
  0
VERTEX
  8
15
 10
1050.7873164360576
 20
1139.5737910574321
  0
VERTEX
  8
15
 10
1050.5501617810987
 20
1140.5231873074681
  0
VERTEX
  8
15
 10
1050.2207034057599
 20
1141.4444984793406
  0
VERTEX
  8
15
 10
1049.8012633936276
 20
1142.3307787563258
  0
VERTEX
  8
15
 10
1049.2960460364773
 20
1143.1727858550278
  0
VERTEX
  8
15
 10
1048.7099461483865
 20
1143.9623536498962
  0
VERTEX
  8
15
 10
1048.0489501953125
 20
1144.69140625
  0
VERTEX
  8
15
 10
1047.3198975952087
 20
1145.352402203074
  0
VERTEX
  8
15
 10
1046.5303298003403
 20
1145.9385020911648
  0
VERTEX
  8
15
 10
1045.6883227016383
 20
1146.4437194483151
  0
VERTEX
  8
15
 10
1044.8020424246531
 20
1146.8631594604474
  0
VERTEX
  8
15
 10
1043.8807312527806
 20
1147.1926178357862
  0
VERTEX
  8
15
 10
1042.9313350027446
 20
1147.4297724907451
  0
VERTEX
  8
15
 10
1041.961493043854
 20
1147.572726022569
  0
VERTEX
  8
15
 10
1040.97802734375
 20
1147.6204833984375
  0
VERTEX
  8
15
 10
1030.97802734375
 20
1147.6204833984375
  0
VERTEX
  8
15
 10
1030.97802734375
 20
1107.6204833984375
  0
SEQEND
  8
15
  0
ENDBLK
  8
15
  0
ENDSEC
  0
SECTION
  2
ENTITIES
  0
INSERT
  8
15
  6
CONTINUOUS
 62
     3
  2
SUB1
 10
0.0
 20
193.79999999999995
 41
1.0
 42
1.0
 50
0.0
  0
INSERT
  8
15
  6
CONTINUOUS
 62
     3
  2
COMP1
 10
0.0
 20
0.0
 41
1.0
 42
1.0
 50
0.0
  0
INSERT
  8
15
  6
CONTINUOUS
 62
     3
  2
SUB2
 10
0.0
 20
101.29999999999998
 41
1.0
 42
1.0
 50
0.0
  0
INSERT
  8
15
  6
CONTINUOUS
 62
     3
  2
COMP2
 10
0.0
 20
0.0
 41
1.0
 42
1.0
 50
0.0
  0
INSERT
  8
15
  6
CONTINUOUS
 62
     3
  2
COMP3
 10
0.0
 20
0.0
 41
1.0
 42
1.0
 50
0.0
  0
INSERT
  8
15
  6
CONTINUOUS
 62
     3
  2
SUB3
 10
115.0
 20
260.49999999999989
 41
1.0
 42
1.0
 50
0.0
  0
INSERT
  8
15
  6
CONTINUOUS
 62
     3
  2
SUB4
 10
77.900000000000091
 20
310.09999999999991
 41
1.0
 42
1.0
 50
0.0
  0
INSERT
  8
15
  6
CONTINUOUS
 62
     3
  2
SUB5
 10
138.40000000000009
 20
341.2999999999999
 41
1.0
 42
1.0
 50
0.0
  0
INSERT
  8
15
  6
CONTINUOUS
 62
     3
  2
COMP4
 10
0.0
 20
0.0
 41
1.0
 42
1.0
 50
0.0
  0
INSERT
  8
15
  6
CONTINUOUS
 62
     3
  2
COMP5
 10
0.0
 20
0.0
 41
1.0
 42
1.0
 50
0.0
  0
INSERT
  8
15
  6
CONTINUOUS
 62
     3
  2
SUB8
 10
-99.0
 20
282.39999999999992
 41
1.0
 42
1.0
 50
0.0
  0
INSERT
  8
15
  6
PHANTOM
 62
     6
  2
COMP6
 10
0.0
 20
0.0
 41
1.0
 42
1.0
 50
0.0
  0
INSERT
  8
15
  6
CONTINUOUS
 62
     3
  2
COMP7
 10
0.0
 20
0.0
 41
1.0
 42
1.0
 50
0.0
  0
INSERT
  8
15
  6
CONTINUOUS
 62
     3
  2
COMP8
 10
0.0
 20
0.0
 41
1.0
 42
1.0
 50
0.0
  0
INSERT
  8
15
  6
CONTINUOUS
 62
     3
  2
COMP9
 10
0.0
 20
0.0
 41
1.0
 42
1.0
 50
0.0
  0
INSERT
  8
15
  6
CONTINUOUS
 62
     3
  2
SUB9
 10
869.00569575235636
 20
193.79999999999998
 41
1.0
 42
1.0
 50
0.0
  0
INSERT
  8
15
  6
CONTINUOUS
 62
     3
  2
SUB10
 10
867.85569575235627
 20
260.5
 41
1.0
 42
1.0
 50
0.0
  0
INSERT
  8
15
  6
CONTINUOUS
 62
     3
  2
SUB11
 10
819.95569575235641
 20
310.10000000000002
 41
1.0
 42
1.0
 50
0.0
  0
INSERT
  8
15
  6
CONTINUOUS
 62
     3
  2
SUB12
 10
757.35569575235627
 20
341.30000000000007
 41
1.0
 42
1.0
 50
0.0
  0
INSERT
  8
15
  6
CONTINUOUS
 62
     3
  2
COMP10
 10
0.0
 20
0.0
 41
1.0
 42
1.0
 50
0.0
  0
INSERT
  8
15
  6
CONTINUOUS
 62
     3
  2
COMP11
 10
0.0
 20
0.0
 41
1.0
 42
1.0
 50
0.0
  0
INSERT
  8
15
  6
CONTINUOUS
 62
     3
  2
COMP12
 10
0.0
 20
0.0
 41
1.0
 42
1.0
 50
0.0
  0
INSERT
  8
15
  6
CONTINUOUS
 62
     3
  2
SUB16
 10
945.25569575235636
 20
101.29999999999998
 41
1.0
 42
1.0
 50
0.0
  0
INSERT
  8
15
  6
PHANTOM
 62
     6
  2
COMP13
 10
0.0
 20
0.0
 41
1.0
 42
1.0
 50
0.0
  0
INSERT
  8
15
  6
CONTINUOUS
 62
     3
  2
SUB17
 10
5.7417765450929794
 20
1161.878604793003
 41
1.0
 42
1.0
 50
0.0
  0
INSERT
  8
15
  6
CONTINUOUS
 62
     3
  2
SUB18
 10
-93.258223454907025
 20
1137.328604793003
 41
1.0
 42
1.0
 50
0.0
  0
INSERT
  8
15
  6
CONTINUOUS
 62
     3
  2
SUB19
 10
120.74177654509297
 20
1085.628604793003
 41
1.0
 42
1.0
 50
0.0
  0
INSERT
  8
15
  6
CONTINUOUS
 62
     3
  2
SUB20
 10
120.74177654509297
 20
1084.4786047930029
 41
1.0
 42
1.0
 50
0.0
  0
INSERT
  8
15
  6
CONTINUOUS
 62
     3
  2
SUB21
 10
5.7417765450929794
 20
1161.878604793003
 41
1.0
 42
1.0
 50
0.0
  0
INSERT
  8
15
  6
CONTINUOUS
 62
     3
  2
SUB22
 10
5.7417765450929794
 20
1161.878604793003
 41
1.0
 42
1.0
 50
0.0
  0
INSERT
  8
15
  6
CONTINUOUS
 62
     3
  2
SUB23
 10
144.14177654509308
 20
973.97860479300289
 41
1.0
 42
1.0
 50
0.0
  0
INSERT
  8
15
  6
CONTINUOUS
 62
     3
  2
SUB24
 10
83.641776545093066
 20
1036.578604793003
 41
1.0
 42
1.0
 50
0.0
  0
INSERT
  8
15
  6
CONTINUOUS
 62
     3
  2
COMP14
 10
0.0
 20
0.0
 41
1.0
 42
1.0
 50
0.0
  0
INSERT
  8
15
  6
CONTINUOUS
 62
     3
  2
COMP15
 10
0.0
 20
0.0
 41
1.0
 42
1.0
 50
0.0
  0
INSERT
  8
15
  6
CONTINUOUS
 62
     7
  2
COMP16
 10
0.0
 20
0.0
 41
1.0
 42
1.0
 50
0.0
  0
ENDSEC
  0
EOF
