  0
SECTION
  2
HEADER
  9
$ACADVER
  1
AC1006
  9
$INSBASE
 10
0.0
 20
0.0
 30
0.0
  9
$EXTMIN
 10
-496.3999999999999
 20
-217.8000000000001
  9
$EXTMAX
 10
1597.357764648109
 20
1586.478576075928
  9
$LIMMIN
 10
-496.3999999999999
 20
-217.8000000000001
  9
$LIMMAX
 10
1597.357764648109
 20
1586.478576075928
  9
$ORTHOMODE
 70
     0
  9
$REGENMODE
 70
     1
  9
$FILLMODE
 70
     1
  9
$QTEXTMODE
 70
     0
  9
$MIRRTEXT
 70
     1
  9
$DRAGMODE
 70
     2
  9
$LTSCALE
 40
1.0
  9
$OSMODE
 70
     0
  9
$ATTMODE
 70
     1
  9
$TEXTSIZE
 40
3.0
  9
$TRACEWID
 40
0.5
  9
$TEXTSTYLE
  7
STANDARD
  9
$CLAYER
  8
0
  9
$CELTYPE
  6
BYLAYER
  9
$CECOLOR
 62
   256
  9
$DIMSCALE
 40
1.0
  9
$DIMASZ
 40
3.0
  9
$DIMEXO
 40
1.0
  9
$DIMDLI
 40
5.0
  9
$DIMRND
 40
0.0
  9
$DIMDLE
 40
4.0
  9
$DIMEXE
 40
1.0
  9
$DIMTP
 40
0.0
  9
$DIMTM
 40
0.0
  9
$DIMTXT
 40
3.0
  9
$DIMCEN
 40
2.0
  9
$DIMTSZ
 40
0.0
  9
$DIMTOL
 70
     0
  9
$DIMLIM
 70
     0
  9
$DIMTIH
 70
     0
  9
$DIMTOH
 70
     0
  9
$DIMSE1
 70
     0
  9
$DIMSE2
 70
     0
  9
$DIMTAD
 70
     1
  9
$DIMZIN
 70
     8
  9
$DIMBLK
  1

  9
$DIMASO
 70
     1
  9
$DIMSHO
 70
     0
  9
$DIMPOST
  1

  9
$DIMAPOST
  1

  9
$DIMALT
 70
     0
  9
$DIMALTD
 70
     4
  9
$DIMALTF
 40
25.4
  9
$DIMLFAC
 40
1.0
  9
$DIMTOFL
 70
     1
  9
$DIMTVP
 40
1.0
  9
$DIMTIX
 70
     0
  9
$DIMSOXD
 70
     0
  9
$DIMSAH
 70
     0
  9
$DIMBLK1
  1

  9
$DIMBLK2
  1

  9
$LUNITS
 70
     2
  9
$LUPREC
 70
     4
  9
$AXISMODE
 70
     0
  9
$AXISUNIT
 10
0.0
 20
0.0
  9
$SKETCHINC
 40
1.0
  9
$FILLETRAD
 40
0.0
  9
$AUNITS
 70
     0
  9
$AUPREC
 70
     0
  9
$MENU
  1
acad
  9
$ELEVATION
 40
0.0
  9
$THICKNESS
 40
0.0
  9
$LIMCHECK
 70
     0
  9
$BLIPMODE
 70
     1
  9
$CHAMFERA
 40
0.0
  9
$CHAMFERB
 40
0.0
  9
$SKPOLY
 70
     0
  9
$TDCREATE
 40
2453956.439513889
  9
$TDUPDATE
 40
2453956.439513889
  9
$TDINDWG
 40
0.0
  9
$TDUSRTIMER
 40
0.0
  9
$USRTIMER
 70
     1
  9
$ANGBASE
 50
0.0
  9
$ANGDIR
 70
     0
  9
$PDMODE
 70
     0
  9
$PDSIZE
 40
0.0
  9
$PLINEWID
 40
0.0
  9
$COORDS
 70
     0
  9
$SPLFRAME
 70
     0
  9
$SPLINETYPE
 70
     6
  9
$SPLINESEGS
 70
     8
  9
$ATTDIA
 70
     0
  9
$ATTREQ
 70
     1
  9
$HANDLING
 70
     0
  9
$HANDSEED
  5
0
  9
$SURFTAB1
 70
     6
  9
$SURFTAB2
 70
     6
  9
$SURFTYPE
 70
     6
  9
$SURFU
 70
     6
  9
$SURFV
 70
     6
  9
$FLATLAND
 70
     0
  9
$UCSNAME
  2

  9
$UCSORG
 10
0.0
 20
0.0
 30
0.0
  9
$UCSXDIR
 10
1.0
 20
0.0
 30
0.0
  9
$UCSYDIR
 10
0.0
 20
1.0
 30
0.0
  9
$USERI1
 70
     0
  9
$USERI2
 70
     0
  9
$USERI3
 70
     0
  9
$USERI4
 70
     0
  9
$USERI5
 70
     0
  9
$USERR1
 40
0.0
  9
$USERR2
 40
0.0
  9
$USERR3
 40
0.0
  9
$USERR4
 40
0.0
  9
$USERR5
 40
0.0
  9
$WORLDVIEW
 70
     1
  0
ENDSEC
  0
SECTION
  2
TABLES
  0
TABLE
  2
VPORT
 70
     1
  0
VPORT
  2
*ACTIVE
 70
     0
 10
0.0
 20
0.0
 11
1.0
 21
1.0
 12
550.4788823240544
 22
684.339288037964
 13
0.0
 23
0.0
 14
0.0
 24
0.0
 15
0.0
 25
0.0
 16
0.0
 26
0.0
 36
1.0
 17
0.0
 27
0.0
 37
0.0
 40
1804.278576075928
 41
1.5
 42
50.0
 43
0.0
 44
0.0
 50
0.0
 51
0.0
 71
     0
 72
   100
 73
     1
 74
     1
 75
     0
 76
     0
 77
     0
 78
     0
  0
ENDTAB
  0
TABLE
  2
LTYPE
 70
    20
  0
LTYPE
  2
CONTINUOUS
 70
    64
  3
solid line
 72
    65
 73
     0
 40
0.0
  0
LTYPE
  2
DASHED
 70
    64
  3
-- -- -- -- -- -- -- -- -- --
 72
    65
 73
     2
 40
3.0
 49
2.0
 49
-1.0
  0
LTYPE
  2
CENTER
 70
    64
  3
--- - --- - --- - --- - --- -
 72
    65
 73
     4
 40
6.0
 49
3.0
 49
-1.0
 49
1.0
 49
-1.0
  0
LTYPE
  2
PHANTOM
 70
    64
  3
----- - - ----- - - ----- - -
 72
    65
 73
     6
 40
12.0
 49
7.0
 49
-1.0
 49
1.0
 49
-1.0
 49
1.0
 49
-1.0
  0
ENDTAB
  0
TABLE
  2
LAYER
 70
    20
  0
LAYER
  2
0
 70
    64
 62
     7
  6
CONTINUOUS
  0
LAYER
  2
15
 70
    64
 62
     7
  6
CONTINUOUS
  0
ENDTAB
  0
TABLE
  2
STYLE
 70
     4
  0
STYLE
  2
STANDARD
 70
    64
 40
0.0
 41
1.0
 50
0.0
 71
     0
 42
3.0
  3
txt
  4

  0
ENDTAB
  0
TABLE
  2
VIEW
 70
     0
  0
ENDTAB
  0
TABLE
  2
UCS
 70
     0
  0
ENDTAB
  0
TABLE
  2
DWGMGR
 70
     0
  0
ENDTAB
  0
ENDSEC
  0
SECTION
  2
BLOCKS
  0
BLOCK
  8
15
  2
SUB1
 70
    64
 10
0.0
 20
0.0
  0
LINE
  8
15
  6
CONTINUOUS
 62
     3
 10
-89.0
 20
-92.5
 11
89.0
 21
-92.5
  0
LINE
  8
15
  6
CONTINUOUS
 62
     3
 10
89.0
 20
-86.5
 11
89.0
 21
-92.5
  0
LINE
  8
15
  6
CONTINUOUS
 62
     3
 10
-89.0
 20
-92.5
 11
-89.0
 21
-62.30000000000004
  0
ENDBLK
  8
15
  0
BLOCK
  8
15
  2
SUB2
 70
    64
 10
0.0
 20
0.0
  0
LINE
  8
15
  6
CONTINUOUS
 62
     3
 10
-89.0
 20
-11.3
 11
89.0
 21
-11.3
  0
LINE
  8
15
  6
CONTINUOUS
 62
     3
 10
-89.0
 20
-101.3
 11
89.0
 21
-101.3
  0
LINE
  8
15
  6
CONTINUOUS
 62
     3
 10
-89.0
 20
-101.3
 11
-89.0
 21
0.0
  0
LINE
  8
15
  6
CONTINUOUS
 62
     3
 10
89.0
 20
-101.3
 11
89.0
 21
0.0
  0
LINE
  8
15
  6
CONTINUOUS
 62
     3
 10
-49.9849999999999
 20
-110.3
 11
49.9849999999999
 21
-110.3
  0
LINE
  8
15
  6
CONTINUOUS
 62
     3
 10
-49.9849999999999
 20
-110.3
 11
-49.9849999999999
 21
-101.3
  0
LINE
  8
15
  6
CONTINUOUS
 62
     3
 10
49.9849999999999
 20
-110.3
 11
49.9849999999999
 21
-101.3
  0
LINE
  8
15
  6
CONTINUOUS
 62
     3
 10
-89.0
 20
0.0
 11
89.0
 21
0.0
  0
ENDBLK
  8
15
  0
BLOCK
  8
15
  2
SUB3
 70
    64
 10
0.0
 20
0.0
  0
LINE
  8
15
  6
CONTINUOUS
 62
     3
 10
54.70000000000005
 20
26.80000000000001
 11
54.70000000000005
 21
57.80000000000001
  0
LINE
  8
15
  6
CONTINUOUS
 62
     3
 10
51.5
 20
28.30000000000007
 11
51.5
 21
57.80000000000001
  0
LINE
  8
15
  6
CONTINUOUS
 62
     3
 10
35.30000000000018
 20
57.80000000000001
 11
54.70000000000005
 21
57.80000000000001
  0
LINE
  8
15
  6
CONTINUOUS
 62
     3
 10
53.89803307569446
 20
26.80000000000001
 11
54.70000000000005
 21
26.80000000000001
  0
LINE
  8
15
  6
CONTINUOUS
 62
     3
 10
66.29999999999996
 20
-25.37000000000001
 11
66.29999999999996
 21
127.5853136786135
  0
LINE
  8
15
  6
CONTINUOUS
 62
     3
 10
66.29999999999996
 20
127.5853136786135
 11
56.5
 21
127.5853136786135
  0
LINE
  8
15
  6
CONTINUOUS
 62
     3
 10
64.89803307569446
 20
-25.37000000000001
 11
66.29999999999996
 21
-25.37000000000001
  0
LINE
  8
15
  6
CONTINUOUS
 62
     3
 10
53.89803307569446
 20
19.3234595566656
 11
56.5
 21
19.3234595566656
  0
LINE
  8
15
  6
CONTINUOUS
 62
     3
 10
56.5
 20
19.3234595566656
 11
56.5
 21
127.5853136786135
  0
ENDBLK
  8
15
  0
BLOCK
  8
15
  2
SUB4
 70
    64
 10
0.0
 20
0.0
  0
LINE
  8
15
  6
DASHED
 62
     3
 10
71.70000000000005
 20
-130.0
 11
71.69999999999982
 21
-129.8999999999996
  0
LINE
  8
15
  6
DASHED
 62
     3
 10
-202.1000000000001
 20
-111.6789706438852
 11
-202.1000000000001
 21
21.67897064388508
  0
ARC
  8
15
  6
DASHED
 62
     3
 10
-154.1000000000001
 20
40.00000000000001
 40
48.0
 50
90.0
 51
179.1315639689341
  0
ARC
  8
15
  6
DASHED
 62
     3
 10
-154.1000000000001
 20
-130.0
 40
47.99999999999999
 50
180.8684360310658
 51
270.0
  0
ARC
  8
15
  6
DASHED
 62
     3
 10
-190.9000000000001
 20
-121.2
 40
14.7
 50
139.6324064558147
 51
220.4007619222012
  0
ARC
  8
15
  6
DASHED
 62
     3
 10
-190.9000000000001
 20
31.2
 40
14.70000000000006
 50
139.6324064558144
 51
220.3675935441858
  0
LINE
  8
15
  6
CONTINUOUS
 62
     3
 10
73.20000000000005
 20
-160.7
 11
73.20000000000005
 21
-125.2999999999999
  0
LINE
  8
15
  6
CONTINUOUS
 62
     3
 10
-145.2000000000001
 20
-179.5
 11
-85.20000000000005
 21
-179.5
  0
LINE
  8
15
  6
CONTINUOUS
 62
     3
 10
-25.90000000000009
 20
-179.5
 11
34.09999999999991
 21
-179.5
  0
LINE
  8
15
  6
CENTER
 62
     3
 10
4.099999999999909
 20
-210.3934318819834
 11
4.099999999999909
 21
-178.6
  0
LINE
  8
15
  6
CENTER
 62
     3
 10
4.099999999999909
 20
-178.6
 11
4.099999999999909
 21
-171.5633590698242
  0
LINE
  8
15
  6
CENTER
 62
     3
 10
-115.2000000000001
 20
-210.3934318819834
 11
-115.2000000000001
 21
-178.6
  0
LINE
  8
15
  6
CENTER
 62
     3
 10
-115.2000000000001
 20
-178.6
 11
-115.2000000000001
 21
-171.5633590698242
  0
LINE
  8
15
  6
CONTINUOUS
 62
     3
 10
61.10697304442951
 20
-160.7
 11
73.20000000000005
 21
-160.7
  0
LINE
  8
15
  6
CONTINUOUS
 62
     3
 10
-85.20000000000005
 20
-179.5
 11
-85.20000000000005
 21
-178.6
  0
LINE
  8
15
  6
CONTINUOUS
 62
     3
 10
-145.2000000000001
 20
-179.5
 11
-145.2000000000001
 21
-178.6
  0
LINE
  8
15
  6
CONTINUOUS
 62
     3
 10
-25.90000000000009
 20
-179.5
 11
-25.90000000000009
 21
-178.6
  0
LINE
  8
15
  6
CONTINUOUS
 62
     3
 10
34.09999999999991
 20
-179.5
 11
34.09999999999991
 21
-177.3571534737545
  0
ENDBLK
  8
15
  0
BLOCK
  8
15
  2
SUB5
 70
    64
 10
0.0
 20
0.0
  0
LINE
  8
15
  6
CENTER
 62
     3
 10
0.0
 20
43.59999999999513
 11
0.0
 21
44.40000000000012
  0
LINE
  8
15
  6
CENTER
 62
     3
 10
0.0
 20
44.40000000000012
 11
0.0
 21
53.03934664726262
  0
LINE
  8
15
  6
CONTINUOUS
 62
     3
 10
-68.93306888445341
 20
44.40000000000012
 11
-68.56561649764444
 21
48.60000000000008
  0
LINE
  8
15
  6
CONTINUOUS
 62
     3
 10
68.93306888445319
 20
44.40000000000009
 11
68.56561649764444
 21
48.60000000000008
  0
ENDBLK
  8
15
  0
BLOCK
  8
15
  2
SUB6
 70
    64
 10
0.0
 20
0.0
  0
LINE
  8
15
  6
CONTINUOUS
 62
     3
 10
-68.0
 20
5.600000000000023
 11
68.0
 21
5.600000000000023
  0
LINE
  8
15
  6
CENTER
 62
     3
 10
0.0
 20
-430.5000000000002
 11
0.0
 21
233.1817593224601
  0
LINE
  8
15
  6
CONTINUOUS
 62
     3
 10
-68.0
 20
20.60000000000002
 11
-22.0
 21
20.60000000000002
  0
LINE
  8
15
  6
CONTINUOUS
 62
     3
 10
22.0
 20
20.60000000000002
 11
68.0
 21
20.60000000000002
  0
LINE
  8
15
  6
CONTINUOUS
 62
     3
 10
-68.0
 20
2.099999999999909
 11
-68.0
 21
20.60000000000002
  0
LINE
  8
15
  6
CONTINUOUS
 62
     3
 10
68.0
 20
2.099999999999909
 11
68.0
 21
20.60000000000002
  0
LINE
  8
15
  6
CONTINUOUS
 62
     3
 10
-295.5
 20
88.59999999999997
 11
295.5
 21
88.59999999999997
  0
LINE
  8
15
  6
CONTINUOUS
 62
     3
 10
-295.5
 20
69.59999999999997
 11
295.5
 21
69.59999999999997
  0
ARC
  8
15
  6
CONTINUOUS
 62
     3
 10
-295.5
 20
79.09999999999997
 40
9.5
 50
90.0
 51
270.0
  0
ARC
  8
15
  6
CONTINUOUS
 62
     3
 10
295.5
 20
79.09999999999997
 40
9.5
 50
270.0
 51
90.0
  0
LINE
  8
15
  6
CONTINUOUS
 62
     3
 10
-245.8205430561227
 20
69.59999999999997
 11
-67.46054305612279
 21
20.60000000000002
  0
LINE
  8
15
  6
CONTINUOUS
 62
     3
 10
-276.0194569438772
 20
69.59999999999997
 11
-68.0
 21
12.45179754289092
  0
LINE
  8
15
  6
CONTINUOUS
 62
     3
 10
245.8205430561227
 20
69.59999999999997
 11
67.46054305612279
 21
20.60000000000002
  0
LINE
  8
15
  6
CONTINUOUS
 62
     3
 10
276.0194569438772
 20
69.59999999999997
 11
68.0
 21
12.45179754289092
  0
LINE
  8
15
  6
CONTINUOUS
 62
     3
 10
-22.0
 20
12.45179754289092
 11
-22.0
 21
69.59999999999997
  0
LINE
  8
15
  6
CONTINUOUS
 62
     3
 10
22.0
 20
12.45179754289092
 11
22.0
 21
69.59999999999997
  0
LINE
  8
15
  6
CONTINUOUS
 62
     3
 10
-22.0
 20
12.45179754289092
 11
22.0
 21
12.45179754289092
  0
LINE
  8
15
  6
CONTINUOUS
 62
     3
 10
283.5
 20
113.6
 11
278.5
 21
170.3368481744041
  0
LINE
  8
15
  6
CONTINUOUS
 62
     3
 10
307.5
 20
113.6
 11
312.5
 21
170.3368481744041
  0
LINE
  8
15
  6
CONTINUOUS
 62
     3
 10
286.25
 20
184.6
 11
304.75
 21
184.6
  0
ARC
  8
15
  6
CONTINUOUS
 62
     3
 10
295.5
 20
170.3368481744041
 40
17.0
 50
0.0
 51
57.03561267624456
  0
ARC
  8
15
  6
CONTINUOUS
 62
     3
 10
295.5
 20
170.3368481744041
 40
17.0
 50
122.9643873237555
 51
180.0
  0
LINE
  8
15
  6
CONTINUOUS
 62
     3
 10
283.5
 20
91.59999999999997
 11
307.5
 21
91.59999999999997
  0
LINE
  8
15
  6
CONTINUOUS
 62
     3
 10
290.5
 20
88.59999999999997
 11
290.5
 21
91.59999999999997
  0
LINE
  8
15
  6
CONTINUOUS
 62
     3
 10
300.5
 20
87.17774721070174
 11
300.5
 21
91.59999999999997
  0
LINE
  8
15
  6
CONTINUOUS
 62
     3
 10
283.5
 20
91.59999999999997
 11
283.5
 21
113.6
  0
LINE
  8
15
  6
CONTINUOUS
 62
     3
 10
307.5
 20
91.59999999999997
 11
307.5
 21
113.6
  0
ENDBLK
  8
15
  0
BLOCK
  8
15
  2
SUB7
 70
    64
 10
0.0
 20
0.0
  0
LINE
  8
15
  6
CENTER
 62
     3
 10
-51.39999999999986
 20
-48.79999999999998
 11
24.32283782958984
 21
-48.79999999999998
  0
LINE
  8
15
  6
CONTINUOUS
 62
     3
 10
-50.59999999999991
 20
-158.3
 11
-50.59999999999991
 21
-150.9
  0
LINE
  8
15
  6
DASHED
 62
     3
 10
-50.59999999999991
 20
-150.9
 11
-50.59999999999991
 21
46.50000000000001
  0
LINE
  8
15
  6
DASHED
 62
     3
 10
-50.59999999999991
 20
46.50000000000001
 11
-45.59999999999991
 21
46.50000000000001
  0
LINE
  8
15
  6
CONTINUOUS
 62
     3
 10
-50.59999999999991
 20
-158.3
 11
-45.59999999999991
 21
-158.3
  0
LINE
  8
15
  6
CONTINUOUS
 62
     3
 10
-45.59999999999991
 20
-158.3
 11
-45.59999999999991
 21
-150.9
  0
LINE
  8
15
  6
DASHED
 62
     3
 10
-25.20000000000005
 20
32.74002625641458
 11
-45.59999999999991
 21
46.50000000000001
  0
LINE
  8
15
  6
DASHED
 62
     3
 10
-10.21764521499904
 20
-137.0401364012316
 11
-33.28433183060611
 21
-150.9
  0
LINE
  8
15
  6
CONTINUOUS
 62
     3
 10
-33.28433183060611
 20
-150.9
 11
-45.59999999999991
 21
-158.3
  0
LINE
  8
15
  6
CONTINUOUS
 62
     3
 10
-45.59999999999991
 20
-158.3
 11
-44.1615857123808
 21
-150.9
  0
ENDBLK
  8
15
  0
BLOCK
  8
15
  2
SUB8
 70
    64
 10
0.0
 20
0.0
  0
LINE
  8
15
  6
CENTER
 62
     3
 10
-101.0323867797852
 20
-79.00000000000004
 11
-25.59014129638672
 21
-79.00000000000004
  0
LINE
  8
15
  6
CONTINUOUS
 62
     3
 10
88.10000000000002
 20
-206.1000000000001
 11
88.10000000000002
 21
-202.1
  0
LINE
  8
15
  6
CONTINUOUS
 62
     3
 10
88.10000000000002
 20
-98.10000000000004
 11
88.10000000000002
 21
-37.39999999999998
  0
LINE
  8
15
  6
CONTINUOUS
 62
     3
 10
-326.4000000000001
 20
-194.2
 11
-326.4000000000001
 21
-155.1
  0
LINE
  8
15
  6
CONTINUOUS
 62
     3
 10
-326.4000000000001
 20
-142.4
 11
-326.4000000000001
 21
-101.1
  0
LINE
  8
15
  6
CONTINUOUS
 62
     3
 10
-326.4000000000001
 20
-88.40000000000002
 11
-326.4000000000001
 21
-49.29999999999996
  0
LINE
  8
15
  6
CONTINUOUS
 62
     3
 10
-277.1000000000001
 20
11.90000000000003
 11
38.79999999999984
 21
11.89999999999998
  0
LINE
  8
15
  6
CONTINUOUS
 62
     3
 10
-277.1000000000001
 20
-255.4000000000001
 11
38.79999999999984
 21
-255.4
  0
ARC
  8
15
  6
CONTINUOUS
 62
     3
 10
38.79999999999984
 20
-37.39999999999998
 40
49.3
 50
0.0
 51
90.0
  0
ARC
  8
15
  6
CONTINUOUS
 62
     3
 10
38.79999999999984
 20
-206.1000000000001
 40
49.3
 50
270.0
 51
0.0
  0
ARC
  8
15
  6
CONTINUOUS
 62
     3
 10
-277.1000000000001
 20
-37.39999999999998
 40
49.30000000000005
 50
90.0
 51
179.0702102337506
  0
ARC
  8
15
  6
CONTINUOUS
 62
     3
 10
38.79999999999984
 20
-37.39999999999998
 40
19.09999999999991
 50
0.0
 51
90.0
  0
ARC
  8
15
  6
CONTINUOUS
 62
     3
 10
38.79999999999984
 20
-206.1000000000001
 40
19.10000000000001
 50
270.0
 51
0.0
  0
ARC
  8
15
  6
CONTINUOUS
 62
     3
 10
-277.1000000000001
 20
-206.1000000000001
 40
19.09999999999999
 50
180.0
 51
270.0
  0
ARC
  8
15
  6
CONTINUOUS
 62
     3
 10
-277.1000000000001
 20
-37.39999999999998
 40
19.09999999999995
 50
90.0
 51
180.0
  0
LINE
  8
15
  6
CONTINUOUS
 62
     3
 10
-277.1000000000001
 20
-18.30000000000007
 11
38.79999999999984
 21
-18.30000000000007
  0
LINE
  8
15
  6
CONTINUOUS
 62
     3
 10
-277.1000000000001
 20
-225.2000000000001
 11
38.79999999999984
 21
-225.2000000000001
  0
LINE
  8
15
  6
CONTINUOUS
 62
     3
 10
57.89999999999975
 20
-206.1000000000001
 11
57.89999999999975
 21
-37.39999999999998
  0
LINE
  8
15
  6
CONTINUOUS
 62
     3
 10
-296.2000000000003
 20
-206.1000000000001
 11
-296.2000000000003
 21
-37.39999999999998
  0
LINE
  8
15
  6
CONTINUOUS
 62
     3
 10
-353.4000000000001
 20
-36.59999999999997
 11
-320.0000000000002
 21
-36.59999999999997
  0
LINE
  8
15
  6
CONTINUOUS
 62
     3
 10
-353.4000000000001
 20
-62.50000000000006
 11
-326.4000000000001
 21
-62.50000000000006
  0
LINE
  8
15
  6
CONTINUOUS
 62
     3
 10
-353.4000000000001
 20
-49.29999999999996
 11
-320.0000000000002
 21
-49.29999999999996
  0
LINE
  8
15
  6
CONTINUOUS
 62
     3
 10
-353.4000000000001
 20
-75.20000000000003
 11
-326.4000000000001
 21
-75.20000000000003
  0
LINE
  8
15
  6
CONTINUOUS
 62
     3
 10
-353.4000000000001
 20
-88.40000000000002
 11
-320.0000000000002
 21
-88.40000000000002
  0
LINE
  8
15
  6
CONTINUOUS
 62
     3
 10
-353.4000000000001
 20
-101.1
 11
-320.0000000000002
 21
-101.1
  0
LINE
  8
15
  6
CENTER
 62
     3
 10
-340.7000000000003
 20
-224.0955047607422
 11
-340.7000000000003
 21
-22.57976913452148
  0
LINE
  8
15
  6
CONTINUOUS
 62
     3
 10
-353.4000000000001
 20
-194.2
 11
-320.0000000000002
 21
-194.2
  0
LINE
  8
15
  6
CONTINUOUS
 62
     3
 10
-353.4000000000001
 20
-206.9
 11
-320.0000000000002
 21
-206.9
  0
LINE
  8
15
  6
CONTINUOUS
 62
     3
 10
-353.4000000000001
 20
-142.4
 11
-320.0000000000002
 21
-142.4
  0
LINE
  8
15
  6
CONTINUOUS
 62
     3
 10
-353.4000000000001
 20
-155.1
 11
-320.0000000000002
 21
-155.1
  0
LINE
  8
15
  6
CONTINUOUS
 62
     3
 10
-353.4000000000001
 20
-168.3
 11
-326.4000000000001
 21
-168.3
  0
LINE
  8
15
  6
CONTINUOUS
 62
     3
 10
-353.4000000000001
 20
-181.0
 11
-326.4000000000001
 21
-181.0
  0
LINE
  8
15
  6
CONTINUOUS
 62
     3
 10
57.89999999999975
 20
-95.99800000000003
 11
81.09999999999957
 21
-95.99800000000003
  0
LINE
  8
15
  6
CONTINUOUS
 62
     3
 10
57.89999999999975
 20
-204.202
 11
81.09999999999957
 21
-204.202
  0
LINE
  8
15
  6
CONTINUOUS
 62
     3
 10
81.09999999999957
 20
-204.202
 11
81.09999999999957
 21
-95.99800000000003
  0
LINE
  8
15
  6
CENTER
 62
     3
 10
69.47869873046886
 20
-150.1
 11
122.9703292846681
 21
-150.1
  0
LINE
  8
15
  6
CONTINUOUS
 62
     3
 10
106.6980330756943
 20
-98.10000000000004
 11
81.09999999999957
 21
-98.10000000000004
  0
LINE
  8
15
  6
CONTINUOUS
 62
     3
 10
106.6980330756943
 20
-124.8
 11
117.6980330756943
 21
-124.8
  0
LINE
  8
15
  6
CONTINUOUS
 62
     3
 10
117.6980330756943
 20
-135.8
 11
117.6980330756943
 21
-124.8
  0
LINE
  8
15
  6
CONTINUOUS
 62
     3
 10
106.6980330756943
 20
-135.8
 11
117.6980330756943
 21
-135.8
  0
LINE
  8
15
  6
CONTINUOUS
 62
     3
 10
106.6980330756943
 20
-144.6
 11
117.6980330756943
 21
-144.6
  0
LINE
  8
15
  6
CONTINUOUS
 62
     3
 10
117.6980330756943
 20
-155.6
 11
117.6980330756943
 21
-144.6
  0
LINE
  8
15
  6
CONTINUOUS
 62
     3
 10
106.6980330756943
 20
-155.6
 11
117.6980330756943
 21
-155.6
  0
LINE
  8
15
  6
CONTINUOUS
 62
     3
 10
106.6980330756943
 20
-164.4
 11
117.6980330756943
 21
-164.4
  0
LINE
  8
15
  6
CONTINUOUS
 62
     3
 10
117.6980330756943
 20
-175.4
 11
117.6980330756943
 21
-164.4
  0
LINE
  8
15
  6
CONTINUOUS
 62
     3
 10
106.6980330756943
 20
-175.4
 11
117.6980330756943
 21
-175.4
  0
LINE
  8
15
  6
CONTINUOUS
 62
     3
 10
81.09999999999957
 20
-202.1
 11
106.6980330756943
 21
-202.1
  0
LINE
  8
15
  6
CONTINUOUS
 62
     3
 10
-320.0000000000002
 20
-155.1
 11
-320.0000000000002
 21
-154.3
  0
LINE
  8
15
  6
CONTINUOUS
 62
     3
 10
-320.0000000000002
 20
-154.3
 11
-320.0000000000002
 21
-142.4
  0
LINE
  8
15
  6
CONTINUOUS
 62
     3
 10
-320.0000000000002
 20
-101.1
 11
-320.0000000000002
 21
-88.40000000000002
  0
LINE
  8
15
  6
CONTINUOUS
 62
     3
 10
-320.0000000000002
 20
-49.29999999999996
 11
-320.0000000000002
 21
-36.59999999999997
  0
LINE
  8
15
  6
CONTINUOUS
 62
     3
 10
-320.0000000000002
 20
-206.9
 11
-320.0000000000002
 21
-194.2
  0
ARC
  8
15
  6
CONTINUOUS
 62
     3
 10
-277.1000000000001
 20
-206.1000000000001
 40
49.30000000000011
 50
180.9297897662493
 51
270.0
  0
LINE
  8
15
  6
CONTINUOUS
 62
     3
 10
-353.4000000000001
 20
-129.7
 11
-353.4000000000001
 21
-206.9
  0
LINE
  8
15
  6
CONTINUOUS
 62
     3
 10
-353.4000000000001
 20
-113.8
 11
-326.4000000000001
 21
-113.8
  0
LINE
  8
15
  6
CONTINUOUS
 62
     3
 10
-353.4000000000001
 20
-129.7
 11
-326.4000000000001
 21
-129.7
  0
LINE
  8
15
  6
CONTINUOUS
 62
     3
 10
-353.4000000000001
 20
-113.8
 11
-353.4000000000001
 21
-36.59999999999997
  0
CIRCLE
  8
15
  6
CONTINUOUS
 62
     3
 10
-62.30000000000018
 20
-79.00000000000004
 40
28.575
  0
LINE
  8
15
  6
CONTINUOUS
 62
     3
 10
106.6980330756943
 20
-202.1
 11
106.6980330756943
 21
-98.10000000000001
  0
ENDBLK
  8
15
  0
BLOCK
  8
15
  2
SUB9
 70
    64
 10
0.0
 20
0.0
  0
LINE
  8
15
  6
CONTINUOUS
 62
     3
 10
-29.40000000000009
 20
-39.0
 11
29.40000000000009
 21
-39.0
  0
LINE
  8
15
  6
CONTINUOUS
 62
     3
 10
-39.0
 20
-29.39999999999998
 11
-39.0
 21
29.39999999999998
  0
LINE
  8
15
  6
CONTINUOUS
 62
     3
 10
39.0
 20
-29.39999999999998
 11
39.0
 21
29.39999999999998
  0
ARC
  8
15
  6
CONTINUOUS
 62
     3
 10
-29.40000000000009
 20
29.39999999999998
 40
9.599999999999991
 50
44.99999999999976
 51
225.0000000000002
  0
ARC
  8
15
  6
CONTINUOUS
 62
     3
 10
-29.40000000000009
 20
-29.39999999999998
 40
9.60000000000001
 50
134.9999999999995
 51
315.0000000000002
  0
ARC
  8
15
  6
CONTINUOUS
 62
     3
 10
29.40000000000009
 20
29.39999999999998
 40
9.600000000000001
 50
314.9999999999996
 51
135.0000000000003
  0
ARC
  8
15
  6
CONTINUOUS
 62
     3
 10
29.40000000000009
 20
-29.39999999999998
 40
9.600000000000001
 50
224.9999999999997
 51
45.00000000000048
  0
LINE
  8
15
  6
CONTINUOUS
 62
     3
 10
36.18822509939082
 20
-22.61177490060913
 11
26.43765257196628
 21
-12.86120237318454
  0
LINE
  8
15
  6
CONTINUOUS
 62
     3
 10
-12.8612023731846
 20
26.43765257196623
 11
-22.61177490060913
 21
36.18822509939088
  0
LINE
  8
15
  6
CONTINUOUS
 62
     3
 10
22.61177490060913
 20
-36.18822509939088
 11
12.8612023731846
 21
-26.43765257196623
  0
LINE
  8
15
  6
CONTINUOUS
 62
     3
 10
-26.43765257196628
 20
12.86120237318454
 11
-36.18822509939082
 21
22.61177490060913
  0
ARC
  8
15
  6
CONTINUOUS
 62
     3
 10
0.0
 20
0.0
 40
29.4
 50
90.0
 51
115.9416675171073
  0
ARC
  8
15
  6
CONTINUOUS
 62
     3
 10
0.0
 20
0.0
 40
29.4
 50
154.0583324828929
 51
205.9416675171071
  0
ARC
  8
15
  6
CONTINUOUS
 62
     3
 10
0.0
 20
0.0
 40
29.4
 50
244.0583324828927
 51
295.9416675171073
  0
ARC
  8
15
  6
CONTINUOUS
 62
     3
 10
0.0
 20
0.0
 40
29.4
 50
334.0583324828929
 51
25.94166751710715
  0
ARC
  8
15
  6
CONTINUOUS
 62
     3
 10
0.0
 20
0.0
 40
29.4
 50
64.05833248289271
 51
90.0
  0
LINE
  8
15
  6
CONTINUOUS
 62
     3
 10
-12.8612023731846
 20
-26.43765257196623
 11
-22.61177490060913
 21
-36.18822509939088
  0
LINE
  8
15
  6
CONTINUOUS
 62
     3
 10
-26.43765257196628
 20
-12.86120237318454
 11
-36.18822509939082
 21
-22.61177490060913
  0
LINE
  8
15
  6
CONTINUOUS
 62
     3
 10
36.18822509939082
 20
22.61177490060913
 11
26.43765257196628
 21
12.86120237318454
  0
LINE
  8
15
  6
CONTINUOUS
 62
     3
 10
22.61177490060913
 20
36.18822509939088
 11
12.8612023731846
 21
26.43765257196623
  0
CIRCLE
  8
15
  6
CONTINUOUS
 62
     3
 10
0.0
 20
0.0
 40
18.65334267766843
  0
LINE
  8
15
  6
CONTINUOUS
 62
     3
 10
-29.40000000000009
 20
39.0
 11
-19.96059700542605
 21
39.0
  0
LINE
  8
15
  6
CONTINUOUS
 62
     3
 10
17.56059700542596
 20
39.0
 11
29.40000000000009
 21
39.0
  0
ARC
  8
15
  6
CONTINUOUS
 62
     3
 10
-1.200000000000046
 20
66.80000000000001
 40
32.0
 50
244.7621328433167
 51
295.2378671566833
  0
ARC
  8
15
  6
CONTINUOUS
 62
     3
 10
-19.96059700542605
 20
27.0
 40
12.0
 50
64.76213284331713
 51
90.0
  0
ARC
  8
15
  6
CONTINUOUS
 62
     3
 10
17.56059700542596
 20
27.0
 40
12.0
 50
90.0
 51
115.2378671566829
  0
ENDBLK
  8
15
  0
BLOCK
  8
15
  2
SUB10
 70
    64
 10
0.0
 20
0.0
  0
LINE
  8
15
  6
CONTINUOUS
 62
     3
 10
123.1072906045781
 20
126.2380048720715
 11
137.1080048720717
 21
112.237290604578
  0
LINE
  8
15
  6
CONTINUOUS
 62
     3
 10
10.25304832720508
 20
-21.12304832720497
 11
137.1080048720717
 21
105.7319082176617
  0
LINE
  8
15
  6
CONTINUOUS
 62
     3
 10
-10.25304832720485
 20
-0.6169516727950395
 11
116.6019082176617
 21
126.2380048720715
  0
ARC
  8
15
  6
CONTINUOUS
 62
     3
 10
0.0
 20
-10.87000000000001
 40
14.5
 50
134.9999999999997
 51
315.0000000000003
  0
LINE
  8
15
  6
CONTINUOUS
 62
     3
 10
38.96158364337884
 20
48.59768029778866
 11
44.89240697147943
 21
42.66685696968796
  0
LINE
  8
15
  6
CONTINUOUS
 62
     3
 10
3.959797974644744
 20
6.383405460951735
 11
17.25340546095185
 21
-6.910202025355375
  0
LINE
  8
15
  6
CONTINUOUS
 62
     3
 10
3.959797974644744
 20
6.383405460951735
 11
42.56782822743026
 21
44.99143571373725
  0
LINE
  8
15
  6
CONTINUOUS
 62
     3
 10
17.25340546095185
 20
-6.910202025355375
 11
127.7741953604093
 21
103.6105878741021
  0
ARC
  8
15
  6
CONTINUOUS
 62
     3
 10
48.15397179880392
 20
48.17341622907674
 40
6.4
 50
315.0000000000014
 51
30.63848843708238
  0
ARC
  8
15
  6
CONTINUOUS
 62
     3
 10
48.15397179880392
 20
48.17341622907674
 40
6.4
 50
239.361511562916
 51
315.0000000000014
  0
LINE
  8
15
  6
CONTINUOUS
 62
     3
 10
47.72970773009206
 20
57.36580438450187
 11
53.66053105819287
 21
51.43498105640111
  0
LINE
  8
15
  6
CONTINUOUS
 62
     3
 10
121.9759197546796
 20
113.6515041669511
 11
127.7741953604093
 21
107.8532285612214
  0
LINE
  8
15
  6
CONTINUOUS
 62
     3
 10
125.582164338731
 20
117.2577487510024
 11
131.3804399444607
 21
111.4594731452728
  0
LINE
  8
15
  6
CONTINUOUS
 62
     3
 10
118.5942887578142
 20
110.2698731700857
 11
121.9759197546796
 21
113.6515041669511
  0
LINE
  8
15
  6
CONTINUOUS
 62
     3
 10
125.582164338731
 20
117.2577487510024
 11
128.8348555321891
 21
120.5104399444606
  0
ARC
  8
15
  6
CONTINUOUS
 62
     3
 10
125.6528750168495
 20
105.7319082176616
 40
8.099999999999994
 50
315.0000000000011
 51
45.0
  0
ARC
  8
15
  6
CONTINUOUS
 62
     3
 10
125.6528750168495
 20
105.7319082176616
 40
3.0
 50
315.0000000000031
 51
45.0
  0
LINE
  8
15
  6
CONTINUOUS
 62
     3
 10
114.7987859256361
 20
124.434882580046
 11
128.6115252415698
 21
120.7337702350799
  0
LINE
  8
15
  6
CONTINUOUS
 62
     3
 10
114.7987859256361
 20
124.434882580046
 11
118.5942887578142
 21
110.2698731700857
  0
ARC
  8
15
  6
CONTINUOUS
 62
     3
 10
133.8553136786136
 20
108.9845994111198
 40
4.6
 50
315.0
 51
45.000000000001
  0
ARC
  8
15
  6
CONTINUOUS
 62
     3
 10
119.85459941112
 20
122.9853136786135
 40
4.599999999999994
 50
45.0
 51
135.000000000002
  0
ARC
  8
15
  6
CONTINUOUS
 62
     3
 10
0.0
 20
-10.87000000000001
 40
20.0
 50
91.46884783262748
 51
270.0
  0
LINE
  8
15
  6
CONTINUOUS
 62
     3
 10
-37.89999999999986
 20
-15.69999999999999
 11
-37.89999999999986
 21
28.19999999999999
  0
LINE
  8
15
  6
CONTINUOUS
 62
     3
 10
-28.19999999999982
 20
37.89999999999998
 11
28.26390334559028
 21
37.89999999999998
  0
LINE
  8
15
  6
CONTINUOUS
 62
     3
 10
-28.19999999999982
 20
-25.39999999999998
 11
-17.77188791321828
 21
-25.39999999999998
  0
LINE
  8
15
  6
CONTINUOUS
 62
     3
 10
16.80000000000018
 20
-25.39999999999998
 11
45.25959179422671
 21
-25.39999999999998
  0
ARC
  8
15
  6
CONTINUOUS
 62
     3
 10
-28.19999999999982
 20
-15.69999999999999
 40
9.699999999999999
 50
180.0
 51
270.0
  0
ARC
  8
15
  6
CONTINUOUS
 62
     3
 10
-28.19999999999982
 20
28.19999999999999
 40
9.699999999999999
 50
90.0
 51
180.0
  0
ARC
  8
15
  6
CONTINUOUS
 62
     3
 10
0.0
 20
0.0
 40
31.0
 50
235.0202626867237
 51
304.9797373132766
  0
LINE
  8
15
  6
CONTINUOUS
 62
     3
 10
30.5
 20
-6.0
 11
33.80000000000018
 21
-6.0
  0
LINE
  8
15
  6
CONTINUOUS
 62
     3
 10
16.80000000000018
 20
-25.39999999999998
 11
16.80000000000018
 21
-14.57609665440987
  0
LINE
  8
15
  6
CONTINUOUS
 62
     3
 10
30.5
 20
-25.39999999999998
 11
30.5
 21
-0.8760966544098778
  0
LINE
  8
15
  6
CONTINUOUS
 62
     3
 10
33.80000000000018
 20
-25.2
 11
33.80000000000018
 21
2.423903345590134
  0
LINE
  8
15
  6
CONTINUOUS
 62
     3
 10
62.80000000000018
 20
-25.2
 11
62.80000000000018
 21
31.42390334559013
  0
LINE
  8
15
  6
CONTINUOUS
 62
     3
 10
45.25959179422671
 20
-25.2
 11
62.80000000000018
 21
-25.2
  0
LINE
  8
15
  6
CONTINUOUS
 62
     3
 10
58.17609665441
 20
26.80000000000001
 11
62.80000000000018
 21
26.80000000000001
  0
ARC
  8
15
  6
CONTINUOUS
 62
     3
 10
48.30000000000018
 20
48.30000000000001
 40
9.5
 50
90.0
 51
180.0
  0
LINE
  8
15
  6
CONTINUOUS
 62
     3
 10
30.19345955666563
 20
-1.182637097744305
 11
9.6873629022557
 21
19.32345955666563
  0
LINE
  8
15
  6
CONTINUOUS
 62
     3
 10
59.60000000000014
 20
-25.2
 11
59.60000000000014
 21
26.80000000000001
  0
ENDBLK
  8
15
  0
BLOCK
  8
15
  2
SUB11
 70
    64
 10
0.0
 20
0.0
  0
LINE
  8
15
  6
CONTINUOUS
 62
     3
 10
0.0
 20
39.50000000000011
 11
0.0
 21
-164.2000000000001
  0
LINE
  8
15
  6
CONTINUOUS
 62
     3
 10
-62.60000000000014
 20
88.0
 11
-62.60000000000014
 21
-178.0
  0
LINE
  8
15
  6
CONTINUOUS
 62
     3
 10
-62.60000000000014
 20
88.0
 11
-34.60000000000014
 21
88.0
  0
LINE
  8
15
  6
CONTINUOUS
 62
     3
 10
-62.60000000000014
 20
-178.0
 11
-53.20000000000005
 21
-178.0
  0
LINE
  8
15
  6
CONTINUOUS
 62
     3
 10
-53.20000000000005
 20
88.0
 11
-53.20000000000005
 21
39.50000000000011
  0
LINE
  8
15
  6
CONTINUOUS
 62
     3
 10
-53.20000000000005
 20
22.90000000000009
 11
-53.20000000000005
 21
-61.59999999999991
  0
LINE
  8
15
  6
CONTINUOUS
 62
     3
 10
-53.20000000000005
 20
-160.6999999999999
 11
-53.20000000000005
 21
-178.0
  0
LINE
  8
15
  6
CONTINUOUS
 62
     3
 10
-42.40314488188119
 20
57.69999999999993
 11
-12.29999999999996
 21
57.69999999999993
  0
LINE
  8
15
  6
CONTINUOUS
 62
     3
 10
-2.299999999999955
 20
47.69999999999993
 11
-2.299999999999955
 21
-160.7000000000001
  0
LINE
  8
15
  6
CONTINUOUS
 62
     3
 10
-2.299999999999955
 20
39.50000000000011
 11
0.0
 21
39.50000000000011
  0
LINE
  8
15
  6
CONTINUOUS
 62
     3
 10
-2.600000000000136
 20
-164.2000000000001
 11
0.0
 21
-164.2000000000001
  0
ARC
  8
15
  6
CONTINUOUS
 62
     3
 10
-12.29999999999996
 20
47.69999999999993
 40
10.0
 50
0.0
 51
90.0
  0
LINE
  8
15
  6
CONTINUOUS
 62
     3
 10
-34.60000000000014
 20
88.0
 11
-4.810166404090069
 21
54.3258880692008
  0
LINE
  8
15
  6
CONTINUOUS
 62
     3
 10
-53.20000000000005
 20
88.0
 11
-48.80439527646058
 21
63.07128684516476
  0
ARC
  8
15
  6
CONTINUOUS
 62
     3
 10
-42.40314488188119
 20
64.19999999999993
 40
6.500000000000032
 50
190.000000000001
 51
270.0
  0
LINE
  8
15
  6
CONTINUOUS
 62
     3
 10
-58.90000000000009
 20
-61.59999999999991
 11
-58.90000000000009
 21
-160.7000000000001
  0
LINE
  8
15
  6
CONTINUOUS
 62
     3
 10
-58.90000000000009
 20
-61.59999999999991
 11
-2.299999999999955
 21
-61.59999999999991
  0
LINE
  8
15
  6
CONTINUOUS
 62
     3
 10
-58.90000000000009
 20
-160.7000000000001
 11
-2.299999999999955
 21
-160.7000000000001
  0
LINE
  8
15
  6
CONTINUOUS
 62
     3
 10
-58.90000000000009
 20
-179.5
 11
-2.600000000000136
 21
-179.5
  0
LINE
  8
15
  6
CONTINUOUS
 62
     3
 10
-58.90000000000009
 20
-178.0
 11
-58.90000000000009
 21
-179.5
  0
LINE
  8
15
  6
CONTINUOUS
 62
     3
 10
-2.600000000000136
 20
-160.7000000000001
 11
-2.600000000000136
 21
-179.5
  0
LINE
  8
15
  6
CENTER
 62
     3
 10
-32.60000000000014
 20
-66.09555478817367
 11
-32.60000000000014
 21
-111.5529756734109
  0
LINE
  8
15
  6
CENTER
 62
     3
 10
-54.22720936276801
 20
-87.59999999999982
 11
-9.914255971251578
 21
-87.60000000000005
  0
LINE
  8
15
  6
CENTER
 62
     3
 10
-32.60000000000014
 20
-173.9773109436035
 11
-32.60000000000014
 21
-179.5
  0
LINE
  8
15
  6
CONTINUOUS
 62
     3
 10
-47.85729248453367
 20
57.69999999999993
 11
-47.85729248453367
 21
39.50000000000011
  0
LINE
  8
15
  6
CONTINUOUS
 62
     3
 10
-47.85729248453367
 20
22.90000000000009
 11
-47.85729248453367
 21
-61.59999999999991
  0
LINE
  8
15
  6
CONTINUOUS
 62
     3
 10
-62.60000000000014
 20
39.50000000000011
 11
-7.299999999999955
 21
39.50000000000011
  0
LINE
  8
15
  6
CONTINUOUS
 62
     3
 10
-62.60000000000014
 20
22.90000000000009
 11
-7.299999999999955
 21
22.90000000000003
  0
LINE
  8
15
  6
CONTINUOUS
 62
     3
 10
-34.60000000000014
 20
39.50000000000011
 11
-34.60000000000014
 21
22.90000000000003
  0
ENDBLK
  8
15
  0
BLOCK
  8
15
  2
SUB12
 70
    64
 10
0.0
 20
0.0
  0
LINE
  8
15
  6
CONTINUOUS
 62
     3
 10
-68.0
 20
5.600000000000051
 11
68.0
 21
5.600000000000051
  0
LINE
  8
15
  6
CONTINUOUS
 62
     3
 10
-68.0
 20
2.100000000000023
 11
-68.0
 21
20.60000000000005
  0
LINE
  8
15
  6
CONTINUOUS
 62
     3
 10
68.0
 20
2.100000000000023
 11
68.0
 21
20.60000000000005
  0
LINE
  8
15
  6
CONTINUOUS
 62
     3
 10
-295.5
 20
88.60000000000014
 11
295.5
 21
88.60000000000014
  0
LINE
  8
15
  6
CONTINUOUS
 62
     3
 10
-295.5
 20
69.60000000000014
 11
295.5
 21
69.60000000000014
  0
ARC
  8
15
  6
CONTINUOUS
 62
     3
 10
-295.5
 20
79.10000000000014
 40
9.5
 50
90.0
 51
270.0
  0
ARC
  8
15
  6
CONTINUOUS
 62
     3
 10
295.5
 20
79.10000000000014
 40
9.5
 50
270.0
 51
90.0
  0
LINE
  8
15
  6
CONTINUOUS
 62
     3
 10
-245.8205430561229
 20
69.60000000000014
 11
-67.46054305612279
 21
20.60000000000005
  0
LINE
  8
15
  6
CONTINUOUS
 62
     3
 10
-276.0194569438772
 20
69.60000000000014
 11
-68.0
 21
12.451797542891
  0
LINE
  8
15
  6
CONTINUOUS
 62
     3
 10
245.8205430561229
 20
69.60000000000014
 11
67.46054305612279
 21
20.60000000000005
  0
LINE
  8
15
  6
CONTINUOUS
 62
     3
 10
276.0194569438772
 20
69.60000000000014
 11
68.0
 21
12.451797542891
  0
LINE
  8
15
  6
CONTINUOUS
 62
     3
 10
-22.0
 20
12.451797542891
 11
22.0
 21
12.451797542891
  0
LINE
  8
15
  6
CONTINUOUS
 62
     3
 10
-22.0
 20
12.451797542891
 11
-22.0
 21
69.60000000000014
  0
LINE
  8
15
  6
CONTINUOUS
 62
     3
 10
22.0
 20
12.451797542891
 11
22.0
 21
69.60000000000014
  0
LINE
  8
15
  6
CONTINUOUS
 62
     3
 10
-68.0
 20
20.60000000000005
 11
-22.0
 21
20.60000000000005
  0
LINE
  8
15
  6
CONTINUOUS
 62
     3
 10
22.0
 20
20.60000000000005
 11
68.0
 21
20.60000000000005
  0
LINE
  8
15
  6
CONTINUOUS
 62
     3
 10
-12.0
 20
113.6000000000001
 11
-17.0
 21
170.3368481744042
  0
LINE
  8
15
  6
CONTINUOUS
 62
     3
 10
-9.25
 20
184.6000000000001
 11
9.25
 21
184.6000000000001
  0
ARC
  8
15
  6
CONTINUOUS
 62
     3
 10
0.0
 20
170.3368481744042
 40
17.0
 50
122.9643873237552
 51
180.0
  0
LINE
  8
15
  6
CONTINUOUS
 62
     3
 10
-12.0
 20
91.60000000000014
 11
12.0
 21
91.60000000000014
  0
LINE
  8
15
  6
CONTINUOUS
 62
     3
 10
-5.0
 20
88.60000000000014
 11
-5.0
 21
91.60000000000014
  0
LINE
  8
15
  6
CONTINUOUS
 62
     3
 10
-12.0
 20
91.60000000000014
 11
-12.0
 21
113.6000000000001
  0
LINE
  8
15
  6
CONTINUOUS
 62
     3
 10
5.0
 20
88.60000000000014
 11
5.0
 21
91.60000000000014
  0
LINE
  8
15
  6
CONTINUOUS
 62
     3
 10
12.0
 20
91.60000000000014
 11
12.0
 21
113.6000000000001
  0
LINE
  8
15
  6
CONTINUOUS
 62
     3
 10
12.0
 20
113.6000000000001
 11
17.0
 21
170.3368481744042
  0
ARC
  8
15
  6
CONTINUOUS
 62
     3
 10
0.0
 20
170.3368481744042
 40
17.0
 50
0.0
 51
57.03561267624477
  0
ENDBLK
  8
15
  0
BLOCK
  8
15
  2
SUB13
 70
    64
 10
0.0
 20
0.0
  0
LINE
  8
15
  6
CONTINUOUS
 62
     3
 10
-80.5
 20
0.0
 11
6.863903345590188
 21
0.0
  0
LINE
  8
15
  6
CONTINUOUS
 62
     3
 10
47.87609665440982
 20
0.0
 11
80.5
 21
0.0
  0
LINE
  8
15
  6
CONTINUOUS
 62
     3
 10
71.9033090111584
 20
10.44999999999993
 11
68.56561649764444
 21
48.59999999999991
  0
LINE
  8
15
  6
CONTINUOUS
 62
     3
 10
-71.9033090111584
 20
10.44999999999993
 11
-68.56561649764444
 21
48.59999999999991
  0
LINE
  8
15
  6
CONTINUOUS
 62
     3
 10
71.18025612106908
 20
10.44999999999993
 11
80.5
 21
10.44999999999993
  0
LINE
  8
15
  6
CONTINUOUS
 62
     3
 10
71.18025612106908
 20
10.44999999999993
 11
71.18025612106908
 21
16.75
  0
LINE
  8
15
  6
CONTINUOUS
 62
     3
 10
60.74325501199928
 20
16.75
 11
71.18025612106908
 21
16.75
  0
LINE
  8
15
  6
CONTINUOUS
 62
     3
 10
80.5
 20
0.0
 11
80.5
 21
10.44999999999993
  0
LINE
  8
15
  6
CONTINUOUS
 62
     3
 10
-41.5315536205851
 20
16.75
 11
-71.18025612106908
 21
16.75
  0
LINE
  8
15
  6
CONTINUOUS
 62
     3
 10
-71.18025612106908
 20
10.44999999999993
 11
-71.18025612106908
 21
16.75
  0
LINE
  8
15
  6
CONTINUOUS
 62
     3
 10
-71.18025612106908
 20
10.44999999999993
 11
-80.5
 21
10.44999999999993
  0
LINE
  8
15
  6
CONTINUOUS
 62
     3
 10
-62.20000000000005
 20
10.44999999999993
 11
17.31390334559023
 21
10.44999999999993
  0
LINE
  8
15
  6
CONTINUOUS
 62
     3
 10
58.32609665440987
 20
10.44999999999993
 11
62.20000000000005
 21
10.44999999999993
  0
LINE
  8
15
  6
CONTINUOUS
 62
     3
 10
-80.5
 20
0.0
 11
-80.5
 21
10.44999999999993
  0
ENDBLK
  8
15
  0
BLOCK
  8
15
  2
SUB14
 70
    64
 10
0.0
 20
0.0
  0
LINE
  8
15
  6
CENTER
 62
     3
 10
0.0
 20
445.4142110714911
 11
0.0
 21
-215.7312569255617
  0
LINE
  8
15
  6
CONTINUOUS
 62
     3
 10
-89.0
 20
-92.5
 11
89.0
 21
-92.5
  0
LINE
  8
15
  6
CONTINUOUS
 62
     3
 10
-80.5
 20
160.6000000000001
 11
6.863903345590188
 21
160.6000000000001
  0
LINE
  8
15
  6
CONTINUOUS
 62
     3
 10
47.87609665440982
 20
160.6000000000001
 11
80.5
 21
160.6000000000001
  0
LINE
  8
15
  6
CONTINUOUS
 62
     3
 10
89.0
 20
-41.5
 11
89.0
 21
-92.5
  0
LINE
  8
15
  6
CONTINUOUS
 62
     3
 10
-89.0
 20
-47.89999999999998
 11
-89.0
 21
-92.5
  0
LINE
  8
15
  6
CONTINUOUS
 62
     3
 10
-125.3
 20
-47.89999999999998
 11
-47.45000000000005
 21
-47.89999999999998
  0
LINE
  8
15
  6
CONTINUOUS
 62
     3
 10
-125.3
 20
155.4999999999999
 11
-97.79999999999996
 21
155.4999999999999
  0
LINE
  8
15
  6
CONTINUOUS
 62
     3
 10
-125.3
 20
155.4999999999999
 11
-125.3
 21
-47.89999999999998
  0
LINE
  8
15
  6
CONTINUOUS
 62
     3
 10
-37.15000000000009
 20
-41.5
 11
89.0
 21
-41.5
  0
LINE
  8
15
  6
CONTINUOUS
 62
     3
 10
89.0
 20
-41.5
 11
80.5
 21
-29.80075367599505
  0
LINE
  8
15
  6
CONTINUOUS
 62
     3
 10
80.5
 20
160.6000000000001
 11
80.5
 21
-29.80075367599505
  0
LINE
  8
15
  6
CONTINUOUS
 62
     3
 10
-80.5
 20
160.6000000000001
 11
-80.5
 21
142.7000000000001
  0
LINE
  8
15
  6
CONTINUOUS
 62
     3
 10
-125.3
 20
142.7000000000001
 11
-40.0
 21
142.7000000000001
  0
LINE
  8
15
  6
CONTINUOUS
 62
     3
 10
-118.8
 20
155.4999999999999
 11
-117.6801451068682
 21
142.7000000000001
  0
LINE
  8
15
  6
CONTINUOUS
 62
     3
 10
-105.6500000000001
 20
104.6
 11
-49.13609665440981
 21
104.6
  0
LINE
  8
15
  6
CONTINUOUS
 62
     3
 10
-115.3499999999999
 20
94.89999999999998
 11
-115.3499999999999
 21
29.39999999999998
  0
ARC
  8
15
  6
CONTINUOUS
 62
     3
 10
-105.6500000000001
 20
94.89999999999998
 40
9.700000000000003
 50
90.0
 51
180.0
  0
LINE
  8
15
  6
CONTINUOUS
 62
     3
 10
-37.15000000000009
 20
36.80000000000001
 11
-37.15000000000009
 21
29.39999999999998
  0
LINE
  8
15
  6
CONTINUOUS
 62
     3
 10
-37.15000000000009
 20
-29.39999999999998
 11
-37.15000000000009
 21
-41.5
  0
LINE
  8
15
  6
CONTINUOUS
 62
     3
 10
-32.65000000000009
 20
41.30000000000001
 11
-32.95000000000005
 21
41.30000000000001
  0
ARC
  8
15
  6
CONTINUOUS
 62
     3
 10
-32.65000000000009
 20
36.80000000000001
 40
4.5
 50
90.0
 51
180.0
  0
LINE
  8
15
  6
CONTINUOUS
 62
     3
 10
-40.0
 20
157.6000000000001
 11
-40.0
 21
142.7000000000001
  0
LINE
  8
15
  6
CONTINUOUS
 62
     3
 10
-97.79999999999996
 20
155.4999999999999
 11
-90.40991655437279
 21
142.7000000000001
  0
LINE
  8
15
  6
CONTINUOUS
 62
     3
 10
-40.0
 20
157.6000000000001
 11
0.0
 21
157.6000000000001
  0
ENDBLK
  8
15
  0
BLOCK
  8
15
  2
SUB15
 70
    64
 10
0.0
 20
0.0
  0
LINE
  8
15
  6
CONTINUOUS
 62
     3
 10
-89.0
 20
-11.30000000000001
 11
89.0
 21
-11.30000000000001
  0
LINE
  8
15
  6
CONTINUOUS
 62
     3
 10
-89.0
 20
-101.3
 11
89.0
 21
-101.3
  0
LINE
  8
15
  6
CONTINUOUS
 62
     3
 10
89.0
 20
-101.3
 11
89.0
 21
0.0
  0
LINE
  8
15
  6
CONTINUOUS
 62
     3
 10
-89.0
 20
-101.3
 11
-89.0
 21
0.0
  0
LINE
  8
15
  6
CONTINUOUS
 62
     3
 10
-49.9849999999999
 20
-110.3
 11
49.9849999999999
 21
-110.3
  0
LINE
  8
15
  6
CONTINUOUS
 62
     3
 10
49.9849999999999
 20
-110.3
 11
49.98500000000013
 21
-101.3
  0
LINE
  8
15
  6
CONTINUOUS
 62
     3
 10
-49.9849999999999
 20
-110.3
 11
-49.9849999999999
 21
-101.3
  0
LINE
  8
15
  6
CONTINUOUS
 62
     3
 10
-89.0
 20
0.0
 11
89.0
 21
0.0
  0
LINE
  8
15
  6
CENTER
 62
     3
 10
0.0
 20
-7.35724401473999
 11
0.0
 21
7.83078145980835
  0
ENDBLK
  8
15
  0
BLOCK
  8
15
  2
SUB16
 70
    64
 10
0.0
 20
0.0
  0
LINE
  8
15
  6
CONTINUOUS
 62
     3
 10
-26.20000000000027
 20
-255.4
 11
-26.20000000000027
 21
11.89999999999998
  0
LINE
  8
15
  6
CONTINUOUS
 62
     3
 10
-244.4000000000001
 20
-206.1000000000001
 11
-244.4000000000001
 21
-37.40000000000003
  0
LINE
  8
15
  6
CONTINUOUS
 62
     3
 10
-34.10000000000014
 20
-255.4
 11
-34.10000000000014
 21
11.89999999999998
  0
LINE
  8
15
  6
CONTINUOUS
 62
     3
 10
-34.10000000000014
 20
11.89999999999998
 11
-0.8000000000001819
 21
11.89999999999998
  0
LINE
  8
15
  6
CONTINUOUS
 62
     3
 10
-34.10000000000014
 20
-255.4
 11
-0.8000000000001819
 21
-255.4
  0
LINE
  8
15
  6
CONTINUOUS
 62
     3
 10
-225.3000000000002
 20
-18.30000000000007
 11
-34.10000000000014
 21
-18.30000000000007
  0
LINE
  8
15
  6
CONTINUOUS
 62
     3
 10
-225.3000000000002
 20
-225.2000000000001
 11
-34.10000000000014
 21
-225.2000000000001
  0
LINE
  8
15
  6
CENTER
 62
     3
 10
-156.2000000000003
 20
-211.9217376708985
 11
-156.2000000000003
 21
-87.94164943695071
  0
LINE
  8
15
  6
CENTER
 62
     3
 10
-93.3493339538577
 20
-150.1
 11
-218.0865547180179
 21
-150.1
  0
LINE
  8
15
  6
CONTINUOUS
 62
     3
 10
-195.9159968020515
 20
-100.7638983094585
 11
-163.2682390841183
 21
-96.46170770569088
  0
ARC
  8
15
  6
CONTINUOUS
 62
     3
 10
-194.4558910757548
 20
-111.8441089242454
 40
11.176
 50
97.50695495123378
 51
172.493045048766
  0
LINE
  8
15
  6
CONTINUOUS
 62
     3
 10
-209.8382922943092
 20
-143.0317609158819
 11
-205.5361016905417
 21
-110.3840031979486
  0
ARC
  8
15
  6
CONTINUOUS
 62
     3
 10
-156.2000000000003
 20
-150.1
 40
54.102
 50
172.4930450487659
 51
187.5069549512341
  0
ARC
  8
15
  6
CONTINUOUS
 62
     3
 10
-156.2000000000003
 20
-150.1
 40
54.102
 50
262.4930450487661
 51
277.5069549512341
  0
ARC
  8
15
  6
CONTINUOUS
 62
     3
 10
-156.2000000000003
 20
-150.1
 40
54.102
 50
352.493045048766
 51
7.506954951234069
  0
ARC
  8
15
  6
CONTINUOUS
 62
     3
 10
-156.2000000000003
 20
-150.1
 40
54.102
 50
82.49304504876594
 51
97.50695495123384
  0
LINE
  8
15
  6
CONTINUOUS
 62
     3
 10
-205.5361016905417
 20
-189.8159968020514
 11
-209.8382922943092
 21
-157.1682390841182
  0
ARC
  8
15
  6
CONTINUOUS
 62
     3
 10
-194.4558910757548
 20
-188.3558910757547
 40
11.176
 50
187.506954951234
 51
262.4930450487663
  0
LINE
  8
15
  6
CONTINUOUS
 62
     3
 10
-163.2682390841183
 20
-203.7382922943092
 11
-195.9159968020515
 21
-199.4361016905415
  0
LINE
  8
15
  6
CONTINUOUS
 62
     3
 10
-116.4840031979488
 20
-199.4361016905415
 11
-149.1317609158821
 21
-203.7382922943092
  0
ARC
  8
15
  6
CONTINUOUS
 62
     3
 10
-117.9441089242455
 20
-188.3558910757547
 40
11.176
 50
277.5069549512338
 51
352.493045048766
  0
LINE
  8
15
  6
CONTINUOUS
 62
     3
 10
-106.8638983094586
 20
-189.8159968020514
 11
-102.5617077056911
 21
-157.1682390841182
  0
LINE
  8
15
  6
CONTINUOUS
 62
     3
 10
-106.8638983094586
 20
-110.3840031979486
 11
-102.5617077056911
 21
-143.0317609158819
  0
ARC
  8
15
  6
CONTINUOUS
 62
     3
 10
-117.9441089242455
 20
-111.8441089242454
 40
11.176
 50
7.506954951234049
 51
82.49304504876622
  0
LINE
  8
15
  6
CONTINUOUS
 62
     3
 10
-149.1317609158821
 20
-96.46170770569088
 11
-116.4840031979488
 21
-100.7638983094585
  0
CIRCLE
  8
15
  6
CONTINUOUS
 62
     3
 10
-156.2000000000003
 20
-150.1
 40
47.0
  0
CIRCLE
  8
15
  6
CONTINUOUS
 62
     3
 10
-159.2000000000003
 20
-119.1
 40
9.524900000000002
  0
CIRCLE
  8
15
  6
CONTINUOUS
 62
     3
 10
-139.7000000000001
 20
-130.3
 40
5.5
  0
CIRCLE
  8
15
  6
CONTINUOUS
 62
     3
 10
-139.7000000000001
 20
-150.1
 40
5.5
  0
CIRCLE
  8
15
  6
CONTINUOUS
 62
     3
 10
-139.7000000000001
 20
-169.9
 40
5.5
  0
CIRCLE
  8
15
  6
CONTINUOUS
 62
     3
 10
-159.2000000000003
 20
-181.1
 40
9.524900000000002
  0
CIRCLE
  8
15
  6
CONTINUOUS
 62
     3
 10
-171.2000000000003
 20
-150.1
 40
9.524900000000002
  0
ARC
  8
15
  6
CONTINUOUS
 62
     3
 10
-225.3000000000002
 20
-37.40000000000003
 40
19.09999999999999
 50
90.0
 51
180.0
  0
ARC
  8
15
  6
CONTINUOUS
 62
     3
 10
-225.3000000000002
 20
-206.1000000000001
 40
19.09999999999999
 50
180.0
 51
270.0
  0
LINE
  8
15
  6
CONTINUOUS
 62
     3
 10
-0.8000000000001819
 20
-255.4
 11
-0.8000000000001819
 21
11.89999999999998
  0
ENDBLK
  8
15
  0
BLOCK
  8
15
  2
SUB17
 70
    64
 10
0.0
 20
0.0
  0
LINE
  8
15
  6
CENTER
 62
     3
 10
-327.5841064453125
 20
0.0
 11
339.9456176757813
 21
0.0
  0
LINE
  8
15
  6
CENTER
 62
     3
 10
0.0
 20
-398.3093239658116
 11
0.0
 21
330.8096313476563
  0
ARC
  8
15
  6
CONTINUOUS
 62
     3
 10
-62.20000000000005
 20
62.20000000000005
 40
12.7
 50
95.42300620239061
 51
174.5769937976094
  0
ARC
  8
15
  6
CONTINUOUS
 62
     3
 10
62.20000000000005
 20
62.20000000000005
 40
12.7
 50
5.423006202390603
 51
84.5769937976094
  0
ARC
  8
15
  6
CONTINUOUS
 62
     3
 10
62.20000000000005
 20
-62.20000000000005
 40
12.7
 50
275.4230062023906
 51
354.5769937976094
  0
ARC
  8
15
  6
CONTINUOUS
 62
     3
 10
-62.20000000000005
 20
-62.20000000000005
 40
12.7
 50
185.4230062023906
 51
264.5769937976094
  0
LINE
  8
15
  6
CONTINUOUS
 62
     3
 10
63.40025233252754
 20
74.8431560276008
 11
22.0
 21
78.77340487692868
  0
LINE
  8
15
  6
CONTINUOUS
 62
     3
 10
-22.0
 20
78.77340487692868
 11
-63.40025233252754
 21
74.8431560276008
  0
LINE
  8
15
  6
CONTINUOUS
 62
     3
 10
-74.8431560276008
 20
63.40025233252754
 11
-78.77340487692891
 21
22.0
  0
LINE
  8
15
  6
CONTINUOUS
 62
     3
 10
-78.77340487692891
 20
-22.0
 11
-74.8431560276008
 21
-63.40025233252754
  0
LINE
  8
15
  6
CONTINUOUS
 62
     3
 10
-63.40025233252754
 20
-74.8431560276008
 11
-22.0
 21
-78.77340487692891
  0
LINE
  8
15
  6
CONTINUOUS
 62
     3
 10
22.0
 20
-78.77340487692868
 11
63.40025233252754
 21
-74.8431560276008
  0
LINE
  8
15
  6
CONTINUOUS
 62
     3
 10
74.8431560276008
 20
-63.40025233252754
 11
78.77340487692891
 21
-22.0
  0
LINE
  8
15
  6
CONTINUOUS
 62
     3
 10
78.77340487692891
 20
22.0
 11
74.8431560276008
 21
63.40025233252754
  0
ARC
  8
15
  6
CONTINUOUS
 62
     3
 10
0.0
 20
0.0
 40
89.0
 50
344.0881987505566
 51
345.6886472613367
  0
ARC
  8
15
  6
CONTINUOUS
 62
     3
 10
0.0
 20
0.0
 40
88.99999999999999
 50
14.31135273866329
 51
30.66773551841401
  0
ARC
  8
15
  6
CONTINUOUS
 62
     3
 10
0.0
 20
0.0
 40
89.0
 50
59.33226448158599
 51
64.1896798397344
  0
ARC
  8
15
  6
CONTINUOUS
 62
     3
 10
0.0
 20
0.0
 40
88.99999999999999
 50
64.75527068397732
 51
75.68864726133671
  0
ARC
  8
15
  6
CONTINUOUS
 62
     3
 10
0.0
 20
0.0
 40
88.99999999999999
 50
104.3113527386633
 51
115.2447293160227
  0
ARC
  8
15
  6
CONTINUOUS
 62
     3
 10
0.0
 20
0.0
 40
88.99999999999996
 50
115.8103201602656
 51
120.667735518414
  0
ARC
  8
15
  6
CONTINUOUS
 62
     3
 10
0.0
 20
0.0
 40
88.99999999999999
 50
149.332264481586
 51
165.6886472613367
  0
LINE
  8
15
  6
CONTINUOUS
 62
     3
 10
-91.20000000000005
 20
-125.3
 11
-22.0
 21
-125.3
  0
LINE
  8
15
  6
CONTINUOUS
 62
     3
 10
22.0
 20
-125.3
 11
91.20000000000005
 21
-125.3
  0
LINE
  8
15
  6
CONTINUOUS
 62
     3
 10
-99.0
 20
-119.6500000000001
 11
-99.0
 21
-22.0
  0
LINE
  8
15
  6
CONTINUOUS
 62
     3
 10
115.0
 20
-115.3499999999999
 11
115.0
 21
-24.40000000000009
  0
LINE
  8
15
  6
CONTINUOUS
 62
     3
 10
-99.0
 20
-119.6500000000001
 11
-91.20000000000005
 21
-119.6500000000001
  0
LINE
  8
15
  6
CONTINUOUS
 62
     3
 10
-91.20000000000005
 20
-125.3
 11
-91.20000000000005
 21
-76.25
  0
LINE
  8
15
  6
CONTINUOUS
 62
     3
 10
91.20000000000005
 20
-125.3
 11
91.20000000000005
 21
-76.25
  0
LINE
  8
15
  6
CONTINUOUS
 62
     3
 10
91.20000000000005
 20
-115.3499999999999
 11
115.0
 21
-115.3499999999999
  0
LINE
  8
15
  6
CONTINUOUS
 62
     3
 10
91.20000000000005
 20
-76.25
 11
83.58721311475415
 21
-22.0
  0
LINE
  8
15
  6
CONTINUOUS
 62
     3
 10
-82.40922949888136
 20
-22.0
 11
-91.20000000000005
 21
-76.25
  0
LINE
  8
15
  6
CONTINUOUS
 62
     3
 10
83.92399999999998
 20
-24.40000000000009
 11
115.0
 21
-24.40000000000009
  0
LINE
  8
15
  6
CONTINUOUS
 62
     3
 10
-91.20000000000005
 20
-118.8
 11
-22.0
 21
-118.8
  0
LINE
  8
15
  6
CONTINUOUS
 62
     3
 10
22.0
 20
-118.8
 11
91.20000000000005
 21
-118.8
  0
LINE
  8
15
  6
CONTINUOUS
 62
     3
 10
-85.32598284487449
 20
-40.0
 11
-77.06461144447144
 21
-40.0
  0
LINE
  8
15
  6
CONTINUOUS
 62
     3
 10
77.06461144447144
 20
-40.0
 11
86.11311475409843
 21
-40.0
  0
LINE
  8
15
  6
CONTINUOUS
 62
     3
 10
-38.75
 20
80.5
 11
-22.0
 21
80.5
  0
LINE
  8
15
  6
CONTINUOUS
 62
     3
 10
22.0
 20
80.5
 11
38.75
 21
80.5
  0
LINE
  8
15
  6
CONTINUOUS
 62
     3
 10
38.75
 20
77.18327765505865
 11
38.75
 21
80.5
  0
LINE
  8
15
  6
CONTINUOUS
 62
     3
 10
-38.75
 20
77.18327765505865
 11
-38.75
 21
80.5
  0
ENDBLK
  8
15
  0
BLOCK
  8
15
  2
SUB18
 70
    64
 10
0.0
 20
0.0
  0
LINE
  8
15
  6
CONTINUOUS
 62
     3
 10
-45.59999999999991
 20
-95.10000000000014
 11
0.0
 21
-95.10000000000014
  0
LINE
  8
15
  6
CENTER
 62
     3
 10
-51.40000000000009
 20
-39.20000000000005
 11
19.17904663085938
 21
-39.20000000000005
  0
LINE
  8
15
  6
CONTINUOUS
 62
     3
 10
-50.59999999999991
 20
-111.8
 11
-50.59999999999991
 21
2.549999999999955
  0
LINE
  8
15
  6
CONTINUOUS
 62
     3
 10
-50.59999999999991
 20
46.54999999999996
 11
-50.59999999999991
 21
56.09999999999991
  0
LINE
  8
15
  6
CONTINUOUS
 62
     3
 10
-50.59999999999991
 20
-111.8
 11
-45.59999999999991
 21
-111.8
  0
LINE
  8
15
  6
CONTINUOUS
 62
     3
 10
-45.59999999999991
 20
-111.8
 11
-45.59999999999991
 21
2.549999999999955
  0
LINE
  8
15
  6
CONTINUOUS
 62
     3
 10
-45.59999999999991
 20
46.54999999999996
 11
-45.59999999999991
 21
56.09999999999991
  0
LINE
  8
15
  6
CONTINUOUS
 62
     3
 10
-33.01564736328328
 20
-95.10000000000014
 11
-45.59999999999991
 21
-111.8000000000002
  0
LINE
  8
15
  6
CONTINUOUS
 62
     3
 10
-45.59999999999991
 20
-36.90000000000009
 11
-0.7999999999999545
 21
-36.90000000000009
  0
LINE
  8
15
  6
CONTINUOUS
 62
     3
 10
-45.59999999999991
 20
-41.5
 11
-0.7999999999999545
 21
-41.5
  0
LINE
  8
15
  6
CONTINUOUS
 62
     3
 10
-50.59999999999991
 20
56.09999999999991
 11
-45.59999999999991
 21
56.09999999999991
  0
LINE
  8
15
  6
CONTINUOUS
 62
     3
 10
-34.99365048338132
 20
46.54999999999996
 11
-45.59999999999991
 21
56.10000000000014
  0
LINE
  8
15
  6
CONTINUOUS
 62
     3
 10
0.0
 20
-95.10000000000014
 11
0.0
 21
2.549999999999955
  0
ENDBLK
  8
15
  0
BLOCK
  8
15
  2
SUB19
 70
    64
 10
0.0
 20
0.0
  0
ARC
  8
15
  6
CONTINUOUS
 62
     3
 10
15.20000000000005
 20
-30.42661749821014
 40
2.5
 50
109.6333588975583
 51
180.0
  0
LINE
  8
15
  6
CONTINUOUS
 62
     3
 10
12.70000000000005
 20
-38.20000000000005
 11
12.70000000000005
 21
-21.15000000000009
  0
ARC
  8
15
  6
CONTINUOUS
 62
     3
 10
11.0
 20
-18.65334267766843
 40
10.00000000000001
 50
289.6333588975621
 51
345.542267170106
  0
LINE
  8
15
  6
CONTINUOUS
 62
     3
 10
12.70000000000005
 20
38.20000000000005
 11
12.70000000000005
 21
32.45000000000005
  0
LINE
  8
15
  6
CONTINUOUS
 62
     3
 10
12.70000000000005
 20
32.45000000000005
 11
12.70000000000005
 21
29.34999999999991
  0
ARC
  8
15
  6
CONTINUOUS
 62
     3
 10
15.20000000000005
 20
30.42661749821014
 40
2.5
 50
180.0
 51
205.5086273486607
  0
LINE
  8
15
  6
CONTINUOUS
 62
     3
 10
0.0
 20
-39.0
 11
0.0
 21
39.0
  0
ENDBLK
  8
15
  0
BLOCK
  8
15
  2
SUB20
 70
    64
 10
0.0
 20
0.0
  0
LINE
  8
15
  6
CONTINUOUS
 62
     3
 10
0.0
 20
-37.89999999999986
 11
0.0
 21
53.0
  0
LINE
  8
15
  6
CONTINUOUS
 62
     3
 10
12.70000000000005
 20
-37.89999999999986
 11
12.70000000000005
 21
-18.5
  0
LINE
  8
15
  6
CONTINUOUS
 62
     3
 10
9.700000000000046
 20
-18.5
 11
9.700000000000046
 21
53.0
  0
LINE
  8
15
  6
CONTINUOUS
 62
     3
 10
0.0
 20
-37.89999999999986
 11
12.70000000000005
 21
-37.89999999999986
  0
LINE
  8
15
  6
CONTINUOUS
 62
     3
 10
9.700000000000046
 20
-18.5
 11
12.70000000000005
 21
-18.5
  0
LINE
  8
15
  6
CONTINUOUS
 62
     3
 10
0.0
 20
53.00000000000023
 11
12.70000000000005
 21
53.00000000000023
  0
LINE
  8
15
  6
CONTINUOUS
 62
     3
 10
9.700000000000046
 20
33.60000000000014
 11
12.70000000000005
 21
33.60000000000014
  0
LINE
  8
15
  6
CONTINUOUS
 62
     3
 10
12.70000000000005
 20
33.60000000000014
 11
12.70000000000005
 21
55.40000000000009
  0
LINE
  8
15
  6
CONTINUOUS
 62
     3
 10
47.70000000000005
 20
-14.5
 11
47.70000000000005
 21
14.5
  0
LINE
  8
15
  6
CONTINUOUS
 62
     3
 10
21.5
 20
-20.0
 11
21.5
 21
20.0
  0
LINE
  8
15
  6
CONTINUOUS
 62
     3
 10
9.700000000000046
 20
20.0
 11
21.5
 21
20.0
  0
LINE
  8
15
  6
CONTINUOUS
 62
     3
 10
12.70000000000005
 20
-20.0
 11
21.5
 21
-20.0
  0
LINE
  8
15
  6
CONTINUOUS
 62
     3
 10
21.5
 20
14.5
 11
47.70000000000005
 21
14.5
  0
LINE
  8
15
  6
CONTINUOUS
 62
     3
 10
21.5
 20
-14.5
 11
66.29999999999996
 21
-14.5
  0
LINE
  8
15
  6
CONTINUOUS
 62
     3
 10
15.90000000000009
 20
33.80000000000018
 11
12.70000000000005
 21
33.80000000000018
  0
LINE
  8
15
  6
CONTINUOUS
 62
     3
 10
15.90000000000009
 20
33.80000000000018
 11
15.90000000000009
 21
55.40000000000009
  0
LINE
  8
15
  6
CONTINUOUS
 62
     3
 10
54.70000000000005
 20
38.80000000000018
 11
54.70000000000005
 21
55.40000000000009
  0
LINE
  8
15
  6
CONTINUOUS
 62
     3
 10
51.5
 20
38.80000000000018
 11
51.5
 21
55.40000000000009
  0
LINE
  8
15
  6
CONTINUOUS
 62
     3
 10
54.70000000000005
 20
38.80000000000018
 11
51.5
 21
38.80000000000018
  0
LINE
  8
15
  6
CONTINUOUS
 62
     3
 10
56.40000000000009
 20
9.6873629022557
 11
56.40000000000009
 21
30.19345955666563
  0
LINE
  8
15
  6
CONTINUOUS
 62
     3
 10
21.5
 20
16.80000000000018
 11
48.29999999999996
 21
16.80000000000018
  0
LINE
  8
15
  6
CONTINUOUS
 62
     3
 10
9.700000000000046
 20
30.5
 11
56.5
 21
30.50000000000023
  0
LINE
  8
15
  6
CONTINUOUS
 62
     3
 10
66.29999999999996
 20
138.4553136786135
 11
56.5
 21
138.4553136786135
  0
LINE
  8
15
  6
CONTINUOUS
 62
     3
 10
56.5
 20
30.19345955666563
 11
56.5
 21
55.40000000000009
  0
LINE
  8
15
  6
CONTINUOUS
 62
     3
 10
56.5
 20
99.40000000000009
 11
56.5
 21
138.4553136786135
  0
LINE
  8
15
  6
CONTINUOUS
 62
     3
 10
66.29999999999996
 20
-14.5
 11
66.29999999999996
 21
55.40000000000009
  0
LINE
  8
15
  6
CONTINUOUS
 62
     3
 10
66.29999999999996
 20
99.40000000000009
 11
66.29999999999996
 21
138.4553136786135
  0
LINE
  8
15
  6
CONTINUOUS
 62
     3
 10
48.29999999999996
 20
30.19345955666563
 11
56.5
 21
30.19345955666563
  0
LINE
  8
15
  6
CONTINUOUS
 62
     3
 10
48.29999999999996
 20
9.6873629022557
 11
48.29999999999996
 21
30.19345955666563
  0
LINE
  8
15
  6
CONTINUOUS
 62
     3
 10
47.70000000000005
 20
9.6873629022557
 11
56.40000000000009
 21
9.6873629022557
  0
LINE
  8
15
  6
CONTINUOUS
 62
     3
 10
48.29999999999996
 20
30.19345955666563
 11
56.40000000000009
 21
30.19345955666563
  0
LINE
  8
15
  6
CONTINUOUS
 62
     3
 10
56.5
 20
119.85459941112
 11
66.29999999999996
 21
119.85459941112
  0
ENDBLK
  8
15
  0
BLOCK
  8
15
  2
SUB21
 70
    64
 10
0.0
 20
0.0
  0
ARC
  8
15
  6
CONTINUOUS
 62
     3
 10
62.20000000000005
 20
-62.20000000000005
 40
12.7
 50
275.4230062023905
 51
354.5769937976084
  0
LINE
  8
15
  6
CONTINUOUS
 62
     3
 10
-22.0
 20
78.69655250604569
 11
-63.37697954039891
 21
74.84534377395426
  0
LINE
  8
15
  6
CONTINUOUS
 62
     3
 10
-74.8431560276008
 20
63.40025233252777
 11
-78.77340487692891
 21
22.0
  0
LINE
  8
15
  6
CONTINUOUS
 62
     3
 10
-78.77340487692891
 20
-22.0
 11
-74.8431560276008
 21
-63.40025233252777
  0
LINE
  8
15
  6
CONTINUOUS
 62
     3
 10
-63.40025233252754
 20
-74.84315602760103
 11
-22.0
 21
-78.77340487692891
  0
LINE
  8
15
  6
CONTINUOUS
 62
     3
 10
22.0
 20
-78.77340487692868
 11
63.40025233252754
 21
-74.84315602760103
  0
LINE
  8
15
  6
CONTINUOUS
 62
     3
 10
74.8431560276008
 20
-63.40025233252777
 11
78.77340487692891
 21
-22.0
  0
LINE
  8
15
  6
CONTINUOUS
 62
     3
 10
74.8431560276008
 20
63.40025233252777
 11
78.77340487692891
 21
22.0
  0
LINE
  8
15
  6
CONTINUOUS
 62
     3
 10
22.0
 20
78.77340487692868
 11
63.40025233252754
 21
74.84315602760103
  0
ARC
  8
15
  6
CONTINUOUS
 62
     3
 10
62.20000000000005
 20
62.20000000000005
 40
12.7
 50
5.423006202391624
 51
84.5769937976095
  0
ARC
  8
15
  6
CONTINUOUS
 62
     3
 10
-62.20000000000005
 20
62.20000000000005
 40
12.7
 50
95.42300620239051
 51
174.5769937976084
  0
ARC
  8
15
  6
CONTINUOUS
 62
     3
 10
-62.20000000000005
 20
-62.20000000000005
 40
12.7
 50
185.4230062023916
 51
264.5769937976095
  0
ENDBLK
  8
15
  0
BLOCK
  8
15
  2
SUB22
 70
    64
 10
0.0
 20
0.0
  0
ARC
  8
15
  6
CONTINUOUS
 62
     3
 10
0.0
 20
0.0
 40
305.0
 50
2.690837376041035
 51
357.309162623959
  0
ARC
  8
15
  6
CONTINUOUS
 62
     3
 10
0.0
 20
0.0
 40
286.0
 50
2.778798185867657
 51
357.2212018141324
  0
CIRCLE
  8
15
  6
CONTINUOUS
 62
     3
 10
0.0
 20
0.0
 40
68.0
  0
CIRCLE
  8
15
  6
CONTINUOUS
 62
     3
 10
0.0
 20
0.0
 40
46.0
  0
LINE
  8
15
  6
CONTINUOUS
 62
     3
 10
-22.0
 20
-285.1525907299458
 11
-22.0
 21
-64.34283176858162
  0
LINE
  8
15
  6
CONTINUOUS
 62
     3
 10
-22.0
 20
64.34283176858162
 11
-22.0
 21
285.1525907299458
  0
LINE
  8
15
  6
CONTINUOUS
 62
     3
 10
22.0
 20
-285.1525907299458
 11
22.0
 21
-64.34283176858162
  0
LINE
  8
15
  6
CONTINUOUS
 62
     3
 10
22.0
 20
64.34283176858162
 11
22.0
 21
285.1525907299458
  0
LINE
  8
15
  6
CONTINUOUS
 62
     3
 10
-285.1525907299458
 20
22.0
 11
-64.34283176858162
 21
22.0
  0
LINE
  8
15
  6
CONTINUOUS
 62
     3
 10
64.34283176858162
 20
22.0
 11
285.1525907299458
 21
22.0
  0
LINE
  8
15
  6
CONTINUOUS
 62
     3
 10
-285.1525907299458
 20
-22.0
 11
-64.34283176858162
 21
-22.0
  0
LINE
  8
15
  6
CONTINUOUS
 62
     3
 10
64.34283176858162
 20
-22.0
 11
285.1525907299458
 21
-22.0
  0
CIRCLE
  8
15
  6
CONTINUOUS
 62
     3
 10
295.5
 20
0.0
 40
17.0
  0
ENDBLK
  8
15
  0
BLOCK
  8
15
  2
SUB23
 70
    64
 10
0.0
 20
0.0
  0
LINE
  8
15
  6
CONTINUOUS
 62
     3
 10
-169.3000000000002
 20
0.0
 11
-169.0999999999999
 21
0.0
  0
LINE
  8
15
  6
CONTINUOUS
 62
     3
 10
-169.0999999999999
 20
0.0
 11
-99.90000000000009
 21
0.0
  0
LINE
  8
15
  6
CONTINUOUS
 62
     3
 10
-55.90000000000009
 20
0.0
 11
13.29999999999996
 21
0.0
  0
LINE
  8
15
  6
CONTINUOUS
 62
     3
 10
13.29999999999996
 20
0.0
 11
13.59999999999991
 21
0.0
  0
LINE
  8
15
  6
CONTINUOUS
 62
     3
 10
-205.6000000000001
 20
-62.60000000000014
 11
-99.90000000000009
 21
-62.60000000000014
  0
LINE
  8
15
  6
CONTINUOUS
 62
     3
 10
-55.90000000000009
 20
-62.60000000000014
 11
71.69999999999982
 21
-62.60000000000014
  0
LINE
  8
15
  6
CONTINUOUS
 62
     3
 10
-186.9000000000001
 20
-2.299999999999955
 11
-99.90000000000009
 21
-2.299999999999955
  0
LINE
  8
15
  6
CONTINUOUS
 62
     3
 10
-55.90000000000009
 20
-2.299999999999955
 11
73.19999999999982
 21
-2.299999999999955
  0
LINE
  8
15
  6
CONTINUOUS
 62
     3
 10
13.59999999999991
 20
-2.299999999999955
 11
13.59999999999991
 21
0.0
  0
LINE
  8
15
  6
CONTINUOUS
 62
     3
 10
-169.3000000000002
 20
-2.299999999999955
 11
-169.3000000000002
 21
0.0
  0
LINE
  8
15
  6
CONTINUOUS
 62
     3
 10
-202.1000000000001
 20
-53.20000000000005
 11
-99.90000000000009
 21
-53.20000000000005
  0
LINE
  8
15
  6
CONTINUOUS
 62
     3
 10
-55.90000000000009
 20
-53.20000000000005
 11
71.69999999999982
 21
-53.20000000000005
  0
LINE
  8
15
  6
CONTINUOUS
 62
     3
 10
71.69999999999982
 20
-62.60000000000014
 11
71.69999999999982
 21
-34.60000000000014
  0
LINE
  8
15
  6
CONTINUOUS
 62
     3
 10
-202.1000000000001
 20
-62.60000000000014
 11
-202.1000000000001
 21
-53.20000000000005
  0
LINE
  8
15
  6
CONTINUOUS
 62
     3
 10
-202.1000000000001
 20
-53.20000000000005
 11
-177.171286845165
 21
-48.80439527646058
  0
LINE
  8
15
  6
CONTINUOUS
 62
     3
 10
71.69999999999982
 20
-53.20000000000005
 11
46.77128684516492
 21
-48.80439527646058
  0
LINE
  8
15
  6
CONTINUOUS
 62
     3
 10
-171.8000000000002
 20
-42.40314488188119
 11
-171.8000000000002
 21
-12.29999999999996
  0
LINE
  8
15
  6
CONTINUOUS
 62
     3
 10
41.39999999999986
 20
-42.40314488188119
 11
41.39999999999986
 21
-12.29999999999996
  0
LINE
  8
15
  6
CONTINUOUS
 62
     3
 10
-171.8000000000002
 20
-47.85729248453367
 11
-99.90000000000009
 21
-47.85729248453367
  0
LINE
  8
15
  6
CONTINUOUS
 62
     3
 10
-55.90000000000009
 20
-47.85729248453367
 11
41.39999999999986
 21
-47.85729248453367
  0
ARC
  8
15
  6
CONTINUOUS
 62
     3
 10
-178.3000000000002
 20
-42.40314488188119
 40
6.500000000000012
 50
280.000000000001
 51
0.0
  0
ARC
  8
15
  6
CONTINUOUS
 62
     3
 10
47.89999999999986
 20
-42.40314488188119
 40
6.500000000000012
 50
180.0
 51
260.000000000001
  0
ARC
  8
15
  6
CONTINUOUS
 62
     3
 10
31.39999999999986
 20
-12.29999999999996
 40
10.0
 50
0.0
 51
90.0
  0
ARC
  8
15
  6
CONTINUOUS
 62
     3
 10
-161.8000000000002
 20
-12.29999999999996
 40
10.0
 50
90.0
 51
180.0
  0
LINE
  8
15
  6
CONTINUOUS
 62
     3
 10
73.19999999999982
 20
-59.40000000000009
 11
73.19999999999982
 21
-2.299999999999955
  0
LINE
  8
15
  6
CONTINUOUS
 62
     3
 10
71.69999999999982
 20
-59.40000000000009
 11
73.19999999999982
 21
-59.40000000000009
  0
LINE
  8
15
  6
CENTER
 62
     3
 10
62.88871154785147
 20
-32.60000000000014
 11
101.1105599883647
 21
-32.60000000000014
  0
LINE
  8
15
  6
CONTINUOUS
 62
     3
 10
71.69999999999982
 20
-34.60000000000014
 11
39.11932234405799
 21
-5.942951742473269
  0
LINE
  8
15
  6
CONTINUOUS
 62
     3
 10
-186.9000000000001
 20
-50.51982989323142
 11
-186.9000000000001
 21
-2.299999999999955
  0
LINE
  8
15
  6
CONTINUOUS
 62
     3
 10
-205.6000000000001
 20
-62.60000000000014
 11
-205.6000000000001
 21
-34.60000000000014
  0
LINE
  8
15
  6
CONTINUOUS
 62
     3
 10
-205.6000000000001
 20
-34.60000000000014
 11
-186.9000000000001
 21
-32.96396199206515
  0
ENDBLK
  8
15
  0
BLOCK
  8
15
  2
SUB24
 70
    64
 10
0.0
 20
0.0
  0
LINE
  8
15
  6
CONTINUOUS
 62
     3
 10
-336.6113891601563
 20
-26.19999999999982
 11
-280.209426401704
 21
-26.19999999999982
  0
LINE
  8
15
  6
CONTINUOUS
 62
     3
 10
-252.7232531739892
 20
-26.19999999999982
 11
-84.20000000000005
 21
-26.19999999999982
  0
LINE
  8
15
  6
CONTINUOUS
 62
     3
 10
-40.20000000000005
 20
-26.19999999999982
 11
88.09999999999991
 21
-26.19999999999982
  0
LINE
  8
15
  6
CONTINUOUS
 62
     3
 10
-326.4000000000001
 20
-34.09999999999991
 11
-272.1894283053316
 21
-34.09999999999991
  0
LINE
  8
15
  6
CONTINUOUS
 62
     3
 10
-243.491367693004
 20
-34.09999999999991
 11
-84.20000000000005
 21
-34.09999999999991
  0
LINE
  8
15
  6
CONTINUOUS
 62
     3
 10
-40.20000000000005
 20
-34.09999999999991
 11
88.09999999999991
 21
-34.09999999999991
  0
LINE
  8
15
  6
CONTINUOUS
 62
     3
 10
-326.4000000000001
 20
-34.09999999999991
 11
-326.4000000000001
 21
-7.099999999999909
  0
LINE
  8
15
  6
CONTINUOUS
 62
     3
 10
88.09999999999991
 20
-34.09999999999991
 11
88.09999999999991
 21
-0.7999999999999545
  0
LINE
  8
15
  6
CONTINUOUS
 62
     3
 10
-296.2000000000001
 20
-225.2999999999998
 11
-296.2000000000001
 21
-34.09999999999991
  0
LINE
  8
15
  6
CONTINUOUS
 62
     3
 10
57.89999999999986
 20
-225.2999999999998
 11
57.89999999999986
 21
-93.25868097849218
  0
LINE
  8
15
  6
CONTINUOUS
 62
     3
 10
57.89999999999986
 20
-72.4611488647713
 11
57.89999999999986
 21
-34.09999999999991
  0
LINE
  8
15
  6
CONTINUOUS
 62
     3
 10
-277.1
 20
-244.4
 11
38.79999999999984
 21
-244.3999999999999
  0
ARC
  8
15
  6
CONTINUOUS
 62
     3
 10
-277.1
 20
-225.2999999999998
 40
19.10000000000002
 50
180.0
 51
270.0
  0
ARC
  8
15
  6
CONTINUOUS
 62
     3
 10
38.79999999999984
 20
-225.2999999999998
 40
19.09999999999999
 50
270.0
 51
0.0
  0
LINE
  8
15
  6
CONTINUOUS
 62
     3
 10
57.89999999999986
 20
-102.098
 11
81.09999999999991
 21
-102.098
  0
LINE
  8
15
  6
CONTINUOUS
 62
     3
 10
57.89999999999986
 20
-210.3019999999999
 11
81.09999999999991
 21
-210.3019999999999
  0
LINE
  8
15
  6
CONTINUOUS
 62
     3
 10
81.09999999999991
 20
-210.3019999999999
 11
81.09999999999991
 21
-102.098
  0
LINE
  8
15
  6
CONTINUOUS
 62
     3
 10
106.6980330756942
 20
-208.1999999999999
 11
106.6980330756942
 21
-104.1999999999999
  0
LINE
  8
15
  6
CONTINUOUS
 62
     3
 10
106.6980330756942
 20
-104.1999999999999
 11
81.09999999999991
 21
-104.1999999999999
  0
LINE
  8
15
  6
CONTINUOUS
 62
     3
 10
117.6980330756942
 20
-145.1999999999999
 11
117.6980330756942
 21
-134.1999999999999
  0
LINE
  8
15
  6
CONTINUOUS
 62
     3
 10
106.6980330756942
 20
-134.1999999999999
 11
117.6980330756942
 21
-134.1999999999999
  0
LINE
  8
15
  6
CONTINUOUS
 62
     3
 10
106.6980330756942
 20
-145.1999999999999
 11
117.6980330756942
 21
-145.1999999999999
  0
LINE
  8
15
  6
CONTINUOUS
 62
     3
 10
81.09999999999991
 20
-208.1999999999999
 11
106.6980330756942
 21
-208.1999999999999
  0
LINE
  8
15
  6
CENTER
 62
     3
 10
-340.7000000000002
 20
-47.07195396423333
 11
-340.7000000000002
 21
-5.343775939941224
  0
ARC
  8
15
  6
CONTINUOUS
 62
     3
 10
-340.7000000000002
 20
-26.19999999999982
 40
12.70000000000002
 50
127.3613869157156
 51
0.0
  0
CIRCLE
  8
15
  6
CONTINUOUS
 62
     3
 10
-340.7000000000002
 20
-26.19999999999982
 40
4.1
  0
LINE
  8
15
  6
CONTINUOUS
 62
     3
 10
-336.6
 20
-50.09999999999991
 11
-336.6
 21
-38.21998336105321
  0
LINE
  8
15
  6
CONTINUOUS
 62
     3
 10
-336.6
 20
-50.09999999999991
 11
-296.2000000000001
 21
-50.09999999999991
  0
LINE
  8
15
  6
CONTINUOUS
 62
     3
 10
-190.0
 20
-0.7999999999999545
 11
-84.20000000000005
 21
-0.7999999999999545
  0
LINE
  8
15
  6
CONTINUOUS
 62
     3
 10
-40.20000000000005
 20
-0.7999999999999545
 11
88.09999999999991
 21
-0.7999999999999545
  0
LINE
  8
15
  6
CONTINUOUS
 62
     3
 10
-336.6113891601563
 20
-7.099999999999909
 11
-297.3836729026911
 21
-7.099999999999909
  0
LINE
  8
15
  6
CONTINUOUS
 62
     3
 10
-272.1579957991598
 20
-7.099999999999909
 11
-130.330078125
 21
-7.099999999999909
  0
LINE
  8
15
  6
CONTINUOUS
 62
     3
 10
-190.0
 20
-7.099999999999909
 11
-190.0
 21
-0.7999999999999545
  0
LINE
  8
15
  6
CENTER
 62
     3
 10
-360.6116333007813
 20
-26.19999999999982
 11
-336.6113891601563
 21
-26.19999999999982
  0
LINE
  8
15
  6
CONTINUOUS
 62
     3
 10
-336.6113891601563
 20
-26.19999999999982
 11
-336.6113891601563
 21
-7.099999999999909
  0
LINE
  8
15
  6
CONTINUOUS
 62
     3
 10
-336.6113891601563
 20
-7.099999999999909
 11
-348.4068721351392
 21
-16.10573816999886
  0
LINE
  8
15
  6
CENTER
 62
     3
 10
69.47869873046875
 20
-156.1999999999999
 11
122.970329284668
 21
-156.1999999999999
  0
ENDBLK
  8
15
  0
BLOCK
  8
15
  2
COMP1
 70
    64
 10
0.0
 20
0.0
  0
LINE
  8
15
  6
CONTINUOUS
 62
     3
 10
58.09999999999991
 20
-63.19999999999999
 11
57.8093604761516
 21
-72.49999999999999
  0
LINE
  8
15
  6
CONTINUOUS
 62
     3
 10
106.1906395238484
 20
-72.49999999999999
 11
57.8093604761516
 21
-72.49999999999999
  0
LINE
  8
15
  6
CONTINUOUS
 62
     3
 10
69.24437090899505
 20
-86.5
 11
69.0
 21
-72.49999999999999
  0
LINE
  8
15
  6
CONTINUOUS
 62
     3
 10
94.75562909100495
 20
-86.5
 11
69.24437090899505
 21
-86.5
  0
LINE
  8
15
  6
CONTINUOUS
 62
     3
 10
94.75562909100495
 20
-86.5
 11
95.0
 21
-72.49999999999999
  0
LINE
  8
15
  6
CONTINUOUS
 62
     3
 10
105.8999999999999
 20
-63.19999999999999
 11
106.1906395238484
 21
-72.49999999999999
  0
ENDBLK
  8
15
  0
BLOCK
  8
15
  2
COMP2
 70
    64
 10
0.0
 20
0.0
  0
LINE
  8
15
  6
CONTINUOUS
 62
     3
 10
-61.20000000000005
 20
-63.19999999999999
 11
-61.49063952384836
 21
-72.49999999999999
  0
LINE
  8
15
  6
CONTINUOUS
 62
     3
 10
-13.10936047615178
 20
-72.49999999999999
 11
-61.49063952384836
 21
-72.49999999999999
  0
LINE
  8
15
  6
CONTINUOUS
 62
     3
 10
-50.0556290910049
 20
-86.5
 11
-50.29999999999996
 21
-72.49999999999999
  0
LINE
  8
15
  6
CONTINUOUS
 62
     3
 10
-24.54437090899501
 20
-86.5
 11
-50.0556290910049
 21
-86.5
  0
LINE
  8
15
  6
CONTINUOUS
 62
     3
 10
-24.54437090899501
 20
-86.5
 11
-24.29999999999996
 21
-72.49999999999999
  0
LINE
  8
15
  6
CONTINUOUS
 62
     3
 10
-13.40000000000009
 20
-63.19999999999999
 11
-13.10936047615178
 21
-72.49999999999999
  0
ENDBLK
  8
15
  0
BLOCK
  8
15
  2
COMP3
 70
    64
 10
0.0
 20
0.0
  0
LINE
  8
15
  6
CONTINUOUS
 62
     3
 10
-68.56561649764444
 20
209.2
 11
68.56561649764444
 21
209.2
  0
INSERT
  8
15
  6
CONTINUOUS
 62
     3
  2
SUB5
 10
0.0
 20
160.5999999999999
 41
1.0
 42
1.0
 50
0.0
  0
LINE
  8
15
  6
CONTINUOUS
 62
     3
 10
68.0
 20
209.2
 11
68.0
 21
214.8
  0
LINE
  8
15
  6
CONTINUOUS
 62
     3
 10
68.0
 20
214.8
 11
-68.0
 21
214.8
  0
LINE
  8
15
  6
CONTINUOUS
 62
     3
 10
-68.0
 20
209.2
 11
-68.0
 21
214.8
  0
ENDBLK
  8
15
  0
BLOCK
  8
15
  2
COMP4
 70
    64
 10
0.0
 20
0.0
  0
INSERT
  8
15
  6
CONTINUOUS
 62
     3
  2
SUB6
 10
0.0
 20
212.7000000000001
 41
1.0
 42
1.0
 50
0.0
  0
LINE
  8
15
  6
CONTINUOUS
 62
     3
 10
-68.0
 20
214.8
 11
68.0
 21
214.8
  0
ENDBLK
  8
15
  0
BLOCK
  8
15
  2
COMP5
 70
    64
 10
0.0
 20
0.0
  0
ARC
  8
15
  6
PHANTOM
 62
     6
 10
0.0
 20
114.8
 40
310.0
 50
86.67127603763488
 51
93.32872396236512
  0
LINE
  8
15
  6
PHANTOM
 62
     6
 10
49.0
 20
389.8
 11
49.0
 21
407.8341277052896
  0
LINE
  8
15
  6
PHANTOM
 62
     6
 10
-49.0
 20
389.8
 11
49.0
 21
389.8
  0
LINE
  8
15
  6
PHANTOM
 62
     6
 10
-18.0
 20
434.8000000000001
 11
18.0
 21
434.8000000000001
  0
LINE
  8
15
  6
PHANTOM
 62
     6
 10
18.0
 20
434.8000000000001
 11
18.0
 21
424.2769781421553
  0
ARC
  8
15
  6
PHANTOM
 62
     6
 10
34.0
 20
407.8341277052896
 40
15.0
 50
0.0
 51
83.38171072174237
  0
ARC
  8
15
  6
PHANTOM
 62
     6
 10
0.0
 20
114.8
 40
310.0
 50
83.38171072174271
 51
86.67127603763488
  0
LINE
  8
15
  6
PHANTOM
 62
     6
 10
44.54999999999996
 20
380.6000000000004
 11
44.54999999999996
 21
301.3
  0
LINE
  8
15
  6
PHANTOM
 62
     6
 10
44.54999999999996
 20
282.3
 11
44.54999999999996
 21
256.7172752509374
  0
LINE
  8
15
  6
PHANTOM
 62
     6
 10
44.54999999999996
 20
256.7172752509374
 11
44.54999999999996
 21
251.6401421915086
  0
LINE
  8
15
  6
PHANTOM
 62
     6
 10
44.54999999999996
 20
251.6401421915086
 11
44.54999999999996
 21
233.3000000000001
  0
LINE
  8
15
  6
PHANTOM
 62
     6
 10
44.22862139331187
 20
389.9910482500497
 11
44.54999999999996
 21
380.6
  0
LINE
  8
15
  6
PHANTOM
 62
     6
 10
-49.0
 20
389.8
 11
-49.0
 21
407.8341277052896
  0
LINE
  8
15
  6
PHANTOM
 62
     6
 10
-18.0
 20
434.8000000000001
 11
-18.0
 21
424.2769781421553
  0
ARC
  8
15
  6
PHANTOM
 62
     6
 10
-34.0
 20
407.8341277052896
 40
15.0
 50
96.61828927825678
 51
180.0
  0
ARC
  8
15
  6
PHANTOM
 62
     6
 10
0.0
 20
114.8
 40
310.0
 50
93.32872396236512
 51
96.61828927825727
  0
LINE
  8
15
  6
PHANTOM
 62
     6
 10
-44.54999999999996
 20
380.6
 11
-44.54999999999996
 21
312.5972978673155
  0
LINE
  8
15
  6
PHANTOM
 62
     6
 10
-44.54999999999996
 20
312.5972978673155
 11
-44.54999999999996
 21
307.5201648078868
  0
LINE
  8
15
  6
PHANTOM
 62
     6
 10
-44.54999999999996
 20
307.5201648078868
 11
-44.54999999999996
 21
301.3
  0
LINE
  8
15
  6
PHANTOM
 62
     6
 10
-44.54999999999996
 20
282.3
 11
-44.54999999999996
 21
272.4280092320616
  0
LINE
  8
15
  6
PHANTOM
 62
     6
 10
-44.54999999999996
 20
272.4280092320616
 11
-44.54999999999996
 21
267.3508761726328
  0
LINE
  8
15
  6
PHANTOM
 62
     6
 10
-44.54999999999996
 20
267.3508761726328
 11
-44.54999999999996
 21
233.3000000000001
  0
LINE
  8
15
  6
PHANTOM
 62
     6
 10
-44.23515940896004
 20
389.8
 11
-44.54999999999996
 21
380.6
  0
ENDBLK
  8
15
  0
BLOCK
  8
15
  2
COMP6
 70
    64
 10
0.0
 20
0.0
  0
LINE
  8
15
  6
CONTINUOUS
 62
     3
 10
-160.4000000000001
 20
-70.00000000000034
 11
-150.4000000000001
 21
-70.00000000000034
  0
LINE
  8
15
  6
CENTER
 62
     3
 10
-453.0564520139683
 20
39.79999999999984
 11
-291.1999999999999
 21
39.79999999999984
  0
LINE
  8
15
  6
CENTER
 62
     3
 10
-291.1999999999999
 20
39.79999999999984
 11
-131.5362395924803
 21
39.79999999999984
  0
LINE
  8
15
  6
CENTER
 62
     3
 10
-453.0564520139683
 20
39.79999999999984
 11
-291.1999999999999
 21
39.79999999999984
  0
LINE
  8
15
  6
CENTER
 62
     3
 10
-291.1999999999999
 20
39.79999999999984
 11
-131.5362395924803
 21
39.79999999999984
  0
LINE
  8
15
  6
CONTINUOUS
 62
     3
 10
-432.4000000000001
 20
131.7999999999998
 11
-414.4000000000001
 21
131.7999999999998
  0
LINE
  8
15
  6
CONTINUOUS
 62
     3
 10
-432.4000000000001
 20
-52.20000000000017
 11
-414.4000000000001
 21
-52.20000000000017
  0
LINE
  8
15
  6
CONTINUOUS
 62
     3
 10
-414.4000000000001
 20
-52.20000000000017
 11
-414.4000000000001
 21
131.7999999999998
  0
LINE
  8
15
  6
CONTINUOUS
 62
     3
 10
-414.4000000000001
 20
123.7999999999998
 11
-291.1999999999999
 21
123.7999999999998
  0
LINE
  8
15
  6
DASHED
 62
     3
 10
-291.1999999999999
 20
123.7999999999998
 11
-230.4000000000001
 21
123.7999999999998
  0
LINE
  8
15
  6
DASHED
 62
     3
 10
-203.4000000000001
 20
-35.70000000000005
 11
-160.4000000000001
 21
-35.70000000000005
  0
LINE
  8
15
  6
DASHED
 62
     3
 10
-230.4000000000001
 20
-48.20000000000017
 11
-230.4000000000001
 21
-44.20000000000017
  0
LINE
  8
15
  6
DASHED
 62
     3
 10
-230.4000000000001
 20
123.7999999999998
 11
-230.4000000000001
 21
127.7999999999998
  0
LINE
  8
15
  6
DASHED
 62
     3
 10
-230.4000000000001
 20
-48.20000000000017
 11
-203.4000000000001
 21
-48.20000000000017
  0
LINE
  8
15
  6
DASHED
 62
     3
 10
-203.4000000000001
 20
-48.20000000000017
 11
-203.4000000000001
 21
-35.70000000000005
  0
LINE
  8
15
  6
DASHED
 62
     3
 10
-203.4000000000001
 20
127.7999999999998
 11
-203.4000000000001
 21
115.2999999999998
  0
LINE
  8
15
  6
CONTINUOUS
 62
     3
 10
-414.4000000000001
 20
-44.20000000000017
 11
-253.071324315512
 21
-44.20000000000017
  0
LINE
  8
15
  6
DASHED
 62
     3
 10
-253.071324315512
 20
-44.20000000000017
 11
-230.4000000000001
 21
-44.20000000000017
  0
LINE
  8
15
  6
CONTINUOUS
 62
     3
 10
-414.4000000000001
 20
115.7999999999998
 11
-291.1999999999999
 21
115.7999999999998
  0
LINE
  8
15
  6
CONTINUOUS
 62
     3
 10
-414.4000000000001
 20
-36.20000000000017
 11
-258.4000000000001
 21
-36.20000000000017
  0
LINE
  8
15
  6
CONTINUOUS
 62
     3
 10
-414.4000000000001
 20
111.7999999999998
 11
-392.4000000000001
 21
111.7999999999998
  0
LINE
  8
15
  6
CONTINUOUS
 62
     3
 10
-392.4000000000001
 20
107.7999999999998
 11
-291.1999999999999
 21
107.7999999999998
  0
LINE
  8
15
  6
CONTINUOUS
 62
     3
 10
-414.4000000000001
 20
-32.20000000000017
 11
-392.4000000000001
 21
-32.20000000000017
  0
LINE
  8
15
  6
CONTINUOUS
 62
     3
 10
-392.4000000000001
 20
-28.20000000000017
 11
-261.7982942120501
 21
-28.20000000000017
  0
LINE
  8
15
  6
CONTINUOUS
 62
     3
 10
-392.4000000000001
 20
-32.20000000000017
 11
-392.4000000000001
 21
111.7999999999998
  0
LINE
  8
15
  6
CONTINUOUS
 62
     3
 10
-392.4000000000001
 20
43.79999999999984
 11
-291.1999999999999
 21
43.79999999999984
  0
LINE
  8
15
  6
CONTINUOUS
 62
     3
 10
-392.4000000000001
 20
35.79999999999984
 11
-291.1999999999999
 21
35.79999999999984
  0
LINE
  8
15
  6
CONTINUOUS
 62
     3
 10
-432.4000000000001
 20
103.7999999999998
 11
-424.4000000000001
 21
99.18119784648285
  0
LINE
  8
15
  6
CONTINUOUS
 62
     3
 10
-432.4000000000001
 20
-24.20000000000017
 11
-424.4000000000001
 21
-19.58119784648319
  0
LINE
  8
15
  6
CONTINUOUS
 62
     3
 10
-432.4000000000001
 20
46.79999999999984
 11
-424.4000000000001
 21
46.79999999999984
  0
LINE
  8
15
  6
CONTINUOUS
 62
     3
 10
-432.4000000000001
 20
32.79999999999984
 11
-424.4000000000001
 21
32.79999999999984
  0
LINE
  8
15
  6
CONTINUOUS
 62
     3
 10
-432.4000000000001
 20
23.79999999999984
 11
-424.4000000000001
 21
19.18119784648286
  0
LINE
  8
15
  6
CONTINUOUS
 62
     3
 10
-432.4000000000001
 20
55.79999999999984
 11
-424.4000000000001
 21
60.41880215351682
  0
LINE
  8
15
  6
CONTINUOUS
 62
     3
 10
-432.4000000000001
 20
-52.20000000000017
 11
-432.4000000000001
 21
-24.20000000000017
  0
LINE
  8
15
  6
CONTINUOUS
 62
     3
 10
-432.4000000000001
 20
23.79999999999984
 11
-432.4000000000001
 21
55.79999999999984
  0
LINE
  8
15
  6
CONTINUOUS
 62
     3
 10
-432.4000000000001
 20
103.7999999999998
 11
-432.4000000000001
 21
131.7999999999998
  0
LINE
  8
15
  6
CONTINUOUS
 62
     3
 10
-424.4000000000001
 20
-52.20000000000017
 11
-424.4000000000001
 21
19.18119784648286
  0
LINE
  8
15
  6
CONTINUOUS
 62
     3
 10
-424.4000000000001
 20
32.79999999999984
 11
-424.4000000000001
 21
46.79999999999984
  0
LINE
  8
15
  6
CONTINUOUS
 62
     3
 10
-424.4000000000001
 20
60.41880215351682
 11
-424.4000000000001
 21
131.7999999999998
  0
LINE
  8
15
  6
DASHED
 62
     3
 10
-160.4000000000001
 20
135.2999999999998
 11
-150.4000000000001
 21
135.2999999999998
  0
LINE
  8
15
  6
DASHED
 62
     3
 10
-203.4000000000001
 20
115.2999999999998
 11
-160.4000000000001
 21
115.2999999999998
  0
LINE
  8
15
  6
DASHED
 62
     3
 10
-230.4000000000001
 20
127.7999999999998
 11
-203.4000000000001
 21
127.7999999999998
  0
LINE
  8
15
  6
CONTINUOUS
 62
     3
 10
-160.4000000000001
 20
-70.00000000000034
 11
-160.4000000000001
 21
-62.30000000000005
  0
LINE
  8
15
  6
DASHED
 62
     3
 10
-160.4000000000001
 20
-62.30000000000005
 11
-160.4000000000001
 21
-35.70000000000005
  0
LINE
  8
15
  6
DASHED
 62
     3
 10
-160.4000000000001
 20
115.2999999999998
 11
-160.4000000000001
 21
135.2999999999998
  0
ENDBLK
  8
15
  0
BLOCK
  8
15
  2
COMP7
 70
    64
 10
0.0
 20
0.0
  0
LINE
  8
15
  6
PHANTOM
 62
     6
 10
-496.3999999999999
 20
131.8
 11
-471.3999999999999
 21
131.8
  0
LINE
  8
15
  6
PHANTOM
 62
     6
 10
-496.3999999999999
 20
-52.20000000000005
 11
-496.3999999999999
 21
131.8
  0
LINE
  8
15
  6
PHANTOM
 62
     6
 10
-496.3999999999999
 20
-52.20000000000005
 11
-471.3999999999999
 21
-52.20000000000005
  0
ENDBLK
  8
15
  0
BLOCK
  8
15
  2
COMP8
 70
    64
 10
0.0
 20
0.0
  0
CIRCLE
  8
15
  6
CONTINUOUS
 62
     3
 10
1134.457764648109
 20
28.69999999999995
 40
16.875
  0
LINE
  8
15
  6
CONTINUOUS
 62
     3
 10
1124.957764648109
 20
38.19999999999995
 11
1124.957764648109
 21
19.19999999999995
  0
LINE
  8
15
  6
CONTINUOUS
 62
     3
 10
1143.957764648109
 20
38.19999999999995
 11
1124.957764648109
 21
38.19999999999995
  0
LINE
  8
15
  6
CONTINUOUS
 62
     3
 10
1143.957764648109
 20
19.19999999999995
 11
1124.957764648109
 21
19.19999999999995
  0
LINE
  8
15
  6
CONTINUOUS
 62
     3
 10
1143.957764648109
 20
38.19999999999995
 11
1143.957764648109
 21
19.19999999999995
  0
ENDBLK
  8
15
  0
BLOCK
  8
15
  2
COMP9
 70
    64
 10
0.0
 20
0.0
  0
LINE
  8
15
  6
CONTINUOUS
 62
     3
 10
1110.557764648109
 20
-63.20000000000011
 11
1110.267125124261
 21
-72.50000000000011
  0
LINE
  8
15
  6
CONTINUOUS
 62
     3
 10
1158.648404171957
 20
-72.50000000000011
 11
1110.267125124261
 21
-72.50000000000011
  0
LINE
  8
15
  6
CONTINUOUS
 62
     3
 10
1121.702135557104
 20
-86.50000000000011
 11
1121.457764648109
 21
-72.50000000000011
  0
LINE
  8
15
  6
CONTINUOUS
 62
     3
 10
1147.213393739114
 20
-86.50000000000011
 11
1121.702135557104
 21
-86.50000000000011
  0
LINE
  8
15
  6
CONTINUOUS
 62
     3
 10
1147.213393739114
 20
-86.50000000000011
 11
1147.457764648109
 21
-72.50000000000011
  0
LINE
  8
15
  6
CONTINUOUS
 62
     3
 10
1158.357764648109
 20
-63.20000000000011
 11
1158.648404171957
 21
-72.50000000000011
  0
ENDBLK
  8
15
  0
BLOCK
  8
15
  2
COMP10
 70
    64
 10
0.0
 20
0.0
  0
INSERT
  8
15
  6
CONTINUOUS
 62
     3
  2
SUB12
 10
1292.357764648109
 20
212.6999999999999
 41
1.0
 42
1.0
 50
0.0
  0
LINE
  8
15
  6
CONTINUOUS
 62
     3
 10
1224.357764648109
 20
214.7999999999999
 11
1360.357764648109
 21
214.7999999999999
  0
ENDBLK
  8
15
  0
BLOCK
  8
15
  2
COMP11
 70
    64
 10
0.0
 20
0.0
  0
INSERT
  8
15
  6
CONTINUOUS
 62
     3
  2
SUB13
 10
1292.357764648109
 20
160.6
 41
1.0
 42
1.0
 50
0.0
  0
LINE
  8
15
  6
CONTINUOUS
 62
     3
 10
1223.792148150464
 20
209.1999999999999
 11
1360.923381145753
 21
209.1999999999999
  0
LINE
  8
15
  6
CONTINUOUS
 62
     3
 10
1360.357764648109
 20
209.1999999999999
 11
1360.357764648109
 21
214.7999999999999
  0
LINE
  8
15
  6
CONTINUOUS
 62
     3
 10
1224.357764648109
 20
214.7999999999999
 11
1360.357764648109
 21
214.7999999999999
  0
LINE
  8
15
  6
CONTINUOUS
 62
     3
 10
1224.357764648109
 20
209.1999999999999
 11
1224.357764648109
 21
214.7999999999999
  0
ENDBLK
  8
15
  0
BLOCK
  8
15
  2
COMP12
 70
    64
 10
0.0
 20
0.0
  0
INSERT
  8
15
  6
CONTINUOUS
 62
     3
  2
SUB14
 10
1292.357764648109
 20
-1.207922650792170E-013
 41
1.0
 42
1.0
 50
0.0
  0
ENDBLK
  8
15
  0
BLOCK
  8
15
  2
COMP13
 70
    64
 10
0.0
 20
0.0
  0
ARC
  8
15
  6
PHANTOM
 62
     6
 10
1292.357764648109
 20
114.7999999999998
 40
310.0
 50
86.67127603763488
 51
93.32872396236512
  0
LINE
  8
15
  6
PHANTOM
 62
     6
 10
1341.357764648109
 20
389.7999999999998
 11
1341.357764648109
 21
407.8341277052894
  0
LINE
  8
15
  6
PHANTOM
 62
     6
 10
1243.357764648109
 20
389.7999999999998
 11
1276.760977242238
 21
389.7999999999998
  0
LINE
  8
15
  6
PHANTOM
 62
     6
 10
1307.95455205398
 20
389.7999999999998
 11
1341.357764648109
 21
389.7999999999998
  0
LINE
  8
15
  6
PHANTOM
 62
     6
 10
1274.357764648109
 20
434.7999999999999
 11
1310.357764648109
 21
434.7999999999999
  0
LINE
  8
15
  6
PHANTOM
 62
     6
 10
1310.357764648109
 20
434.7999999999999
 11
1310.357764648109
 21
424.2769781421551
  0
ARC
  8
15
  6
PHANTOM
 62
     6
 10
1326.357764648109
 20
407.8341277052894
 40
15.0
 50
0.0
 51
83.38171072174239
  0
ARC
  8
15
  6
PHANTOM
 62
     6
 10
1292.357764648109
 20
114.7999999999998
 40
310.0
 50
83.38171072174271
 51
86.67127603763488
  0
LINE
  8
15
  6
PHANTOM
 62
     6
 10
1336.907764648109
 20
380.6000000000002
 11
1336.907764648109
 21
301.3
  0
LINE
  8
15
  6
PHANTOM
 62
     6
 10
1336.907764648109
 20
282.3
 11
1336.907764648109
 21
256.7172752509371
  0
LINE
  8
15
  6
PHANTOM
 62
     6
 10
1336.907764648109
 20
256.7172752509371
 11
1336.907764648109
 21
251.6401421915085
  0
LINE
  8
15
  6
PHANTOM
 62
     6
 10
1336.907764648109
 20
251.6401421915085
 11
1336.907764648109
 21
233.2999999999999
  0
LINE
  8
15
  6
PHANTOM
 62
     6
 10
1336.586386041421
 20
389.9910482500495
 11
1336.907764648109
 21
380.5999999999997
  0
LINE
  8
15
  6
PHANTOM
 62
     6
 10
1243.357764648109
 20
389.7999999999998
 11
1243.357764648109
 21
407.8341277052894
  0
LINE
  8
15
  6
PHANTOM
 62
     6
 10
1274.357764648109
 20
434.7999999999999
 11
1274.357764648109
 21
424.2769781421551
  0
ARC
  8
15
  6
PHANTOM
 62
     6
 10
1258.357764648109
 20
407.8341277052894
 40
15.0
 50
96.61828927825675
 51
180.0
  0
ARC
  8
15
  6
PHANTOM
 62
     6
 10
1292.357764648109
 20
114.7999999999998
 40
310.0
 50
93.32872396236512
 51
96.61828927825727
  0
LINE
  8
15
  6
PHANTOM
 62
     6
 10
1247.807764648109
 20
380.5999999999997
 11
1247.807764648109
 21
312.5972978673153
  0
LINE
  8
15
  6
PHANTOM
 62
     6
 10
1247.807764648109
 20
312.5972978673153
 11
1247.807764648109
 21
307.5201648078866
  0
LINE
  8
15
  6
PHANTOM
 62
     6
 10
1247.807764648109
 20
307.5201648078866
 11
1247.807764648109
 21
301.3
  0
LINE
  8
15
  6
PHANTOM
 62
     6
 10
1247.807764648109
 20
282.3
 11
1247.807764648109
 21
272.4280092320614
  0
LINE
  8
15
  6
PHANTOM
 62
     6
 10
1247.807764648109
 20
272.4280092320614
 11
1247.807764648109
 21
267.3508761726326
  0
LINE
  8
15
  6
PHANTOM
 62
     6
 10
1247.807764648109
 20
267.3508761726326
 11
1247.807764648109
 21
233.2999999999999
  0
LINE
  8
15
  6
PHANTOM
 62
     6
 10
1248.122605239149
 20
389.7999999999998
 11
1247.807764648109
 21
380.5999999999997
  0
ENDBLK
  8
15
  0
BLOCK
  8
15
  2
COMP14
 70
    64
 10
0.0
 20
0.0
  0
LINE
  8
15
  6
CENTER
 62
     3
 10
-453.0564520139683
 20
1191.918944728272
 11
-131.5362395924803
 21
1191.918944728272
  0
LINE
  8
15
  6
CONTINUOUS
 62
     3
 10
-432.3999999999999
 20
1099.918944728272
 11
-414.3999999999999
 21
1099.918944728272
  0
LINE
  8
15
  6
CONTINUOUS
 62
     3
 10
-432.3999999999999
 20
1283.918944728272
 11
-414.3999999999999
 21
1283.918944728272
  0
LINE
  8
15
  6
CONTINUOUS
 62
     3
 10
-414.3999999999999
 20
1283.918944728272
 11
-414.3999999999999
 21
1099.918944728272
  0
LINE
  8
15
  6
CONTINUOUS
 62
     3
 10
-160.3999999999999
 20
1287.418944728272
 11
-150.3999999999999
 21
1287.418944728272
  0
LINE
  8
15
  6
CONTINUOUS
 62
     3
 10
-160.3999999999999
 20
1287.418944728272
 11
-160.3999999999999
 21
1277.668944728272
  0
LINE
  8
15
  6
CONTINUOUS
 62
     3
 10
-160.3999999999999
 20
1233.668944728272
 11
-160.3999999999999
 21
1079.168944728272
  0
LINE
  8
15
  6
CONTINUOUS
 62
     3
 10
-150.3999999999999
 20
1287.418944728272
 11
-150.3999999999999
 21
1277.668944728272
  0
LINE
  8
15
  6
CONTINUOUS
 62
     3
 10
-150.3999999999999
 20
1233.668944728272
 11
-150.3999999999999
 21
1079.168944728272
  0
LINE
  8
15
  6
CONTINUOUS
 62
     3
 10
-205.3999999999999
 20
1079.168944728272
 11
-150.3999999999999
 21
1079.168944728272
  0
LINE
  8
15
  6
CONTINUOUS
 62
     3
 10
-414.3999999999999
 20
1107.918944728272
 11
-266.8237948534576
 21
1107.918944728272
  0
LINE
  8
15
  6
CONTINUOUS
 62
     3
 10
-244.8794346203862
 20
1107.918944728272
 11
-230.3999999999999
 21
1107.918944728272
  0
LINE
  8
15
  6
CONTINUOUS
 62
     3
 10
-230.3999999999999
 20
1103.918944728272
 11
-160.3999999999999
 21
1103.918944728272
  0
LINE
  8
15
  6
CONTINUOUS
 62
     3
 10
-205.3999999999999
 20
1103.918944728272
 11
-205.3999999999999
 21
1079.168944728272
  0
LINE
  8
15
  6
CONTINUOUS
 62
     3
 10
-230.3999999999999
 20
1279.918944728272
 11
-230.3999999999999
 21
1277.668944728272
  0
LINE
  8
15
  6
CONTINUOUS
 62
     3
 10
-230.3999999999999
 20
1233.668944728272
 11
-230.3999999999999
 21
1103.918944728272
  0
LINE
  8
15
  6
CONTINUOUS
 62
     3
 10
-230.3999999999999
 20
1279.918944728272
 11
-203.3999999999999
 21
1279.918944728272
  0
LINE
  8
15
  6
CONTINUOUS
 62
     3
 10
-203.3999999999999
 20
1279.918944728272
 11
-203.3999999999999
 21
1277.668944728272
  0
LINE
  8
15
  6
CONTINUOUS
 62
     3
 10
-203.3999999999999
 20
1103.918944728272
 11
-203.3999999999999
 21
1116.418944728272
  0
LINE
  8
15
  6
CONTINUOUS
 62
     3
 10
-230.3999999999999
 20
1116.418944728272
 11
-203.3999999999999
 21
1116.418944728272
  0
LINE
  8
15
  6
CONTINUOUS
 62
     3
 10
-203.3999999999999
 20
1201.918944728272
 11
-203.3999999999999
 21
1181.918944728272
  0
LINE
  8
15
  6
CONTINUOUS
 62
     3
 10
-230.3999999999999
 20
1181.918944728272
 11
-203.3999999999999
 21
1181.918944728272
  0
LINE
  8
15
  6
CONTINUOUS
 62
     3
 10
-230.3999999999999
 20
1201.918944728272
 11
-203.3999999999999
 21
1201.918944728272
  0
LINE
  8
15
  6
CONTINUOUS
 62
     3
 10
-414.3999999999999
 20
1275.918944728272
 11
-304.3270239397086
 21
1275.918944728272
  0
LINE
  8
15
  6
CONTINUOUS
 62
     3
 10
-414.3999999999999
 20
1115.918944728272
 11
-271.0994974174611
 21
1115.918944728272
  0
LINE
  8
15
  6
CONTINUOUS
 62
     3
 10
-249.5314358953597
 20
1115.918944728272
 11
-230.3999999999999
 21
1115.918944728272
  0
LINE
  8
15
  6
CONTINUOUS
 62
     3
 10
-414.3999999999999
 20
1267.918944728272
 11
-304.7538966116758
 21
1267.918944728272
  0
LINE
  8
15
  6
CONTINUOUS
 62
     3
 10
-414.3999999999999
 20
1119.918944728272
 11
-392.3999999999999
 21
1119.918944728272
  0
LINE
  8
15
  6
CONTINUOUS
 62
     3
 10
-392.3999999999999
 20
1123.918944728272
 11
-275.0762394319073
 21
1123.918944728272
  0
LINE
  8
15
  6
CONTINUOUS
 62
     3
 10
-253.8462871503147
 20
1123.918944728272
 11
-230.3999999999999
 21
1123.918944728272
  0
LINE
  8
15
  6
CONTINUOUS
 62
     3
 10
-414.3999999999999
 20
1263.918944728272
 11
-392.3999999999999
 21
1263.918944728272
  0
LINE
  8
15
  6
CONTINUOUS
 62
     3
 10
-392.3999999999999
 20
1259.918944728272
 11
-304.9703879067605
 21
1259.918944728272
  0
LINE
  8
15
  6
CONTINUOUS
 62
     3
 10
-392.3999999999999
 20
1263.918944728272
 11
-392.3999999999999
 21
1119.918944728272
  0
LINE
  8
15
  6
CONTINUOUS
 62
     3
 10
-392.3999999999999
 20
1187.918944728272
 11
-297.3801229066933
 21
1187.918944728272
  0
LINE
  8
15
  6
CONTINUOUS
 62
     3
 10
-277.8595643486112
 20
1187.918944728272
 11
-230.3999999999999
 21
1187.918944728272
  0
LINE
  8
15
  6
CONTINUOUS
 62
     3
 10
-392.3999999999999
 20
1195.918944728272
 11
-299.0901828880379
 21
1195.918944728272
  0
LINE
  8
15
  6
CONTINUOUS
 62
     3
 10
-279.6890013926183
 20
1195.918944728272
 11
-230.3999999999999
 21
1195.918944728272
  0
LINE
  8
15
  6
CONTINUOUS
 62
     3
 10
-432.3999999999999
 20
1127.918944728272
 11
-424.3999999999999
 21
1132.537746881789
  0
LINE
  8
15
  6
CONTINUOUS
 62
     3
 10
-432.3999999999999
 20
1255.918944728272
 11
-424.3999999999999
 21
1251.300142574755
  0
LINE
  8
15
  6
CONTINUOUS
 62
     3
 10
-432.3999999999999
 20
1184.918944728272
 11
-424.3999999999999
 21
1184.918944728272
  0
LINE
  8
15
  6
CONTINUOUS
 62
     3
 10
-432.3999999999999
 20
1198.918944728272
 11
-424.3999999999999
 21
1198.918944728272
  0
LINE
  8
15
  6
CONTINUOUS
 62
     3
 10
-432.3999999999999
 20
1207.918944728272
 11
-424.3999999999999
 21
1212.537746881789
  0
LINE
  8
15
  6
CONTINUOUS
 62
     3
 10
-432.3999999999999
 20
1175.918944728272
 11
-424.3999999999999
 21
1171.300142574755
  0
LINE
  8
15
  6
CONTINUOUS
 62
     3
 10
-432.3999999999999
 20
1283.918944728272
 11
-432.3999999999999
 21
1255.918944728272
  0
LINE
  8
15
  6
CONTINUOUS
 62
     3
 10
-432.3999999999999
 20
1207.918944728272
 11
-432.3999999999999
 21
1175.918944728272
  0
LINE
  8
15
  6
CONTINUOUS
 62
     3
 10
-432.3999999999999
 20
1127.918944728272
 11
-432.3999999999999
 21
1099.918944728272
  0
LINE
  8
15
  6
CONTINUOUS
 62
     3
 10
-424.3999999999999
 20
1283.918944728272
 11
-424.3999999999999
 21
1212.537746881789
  0
LINE
  8
15
  6
CONTINUOUS
 62
     3
 10
-424.3999999999999
 20
1198.918944728272
 11
-424.3999999999999
 21
1184.918944728272
  0
LINE
  8
15
  6
CONTINUOUS
 62
     3
 10
-424.3999999999999
 20
1171.300142574755
 11
-424.3999999999999
 21
1099.918944728272
  0
ENDBLK
  8
15
  0
BLOCK
  8
15
  2
COMP15
 70
    64
 10
0.0
 20
0.0
  0
LINE
  8
15
  6
CONTINUOUS
 62
     3
 10
171.7099999999999
 20
1088.478405507411
 11
159.7099999999999
 21
1088.268944728272
  0
LINE
  8
15
  6
CONTINUOUS
 62
     3
 10
171.7099999999999
 20
1107.059483949133
 11
171.7099999999999
 21
1088.478405507411
  0
LINE
  8
15
  6
CONTINUOUS
 62
     3
 10
159.7099999999999
 20
1114.663020674544
 11
159.7099999999999
 21
1080.874868781999
  0
LINE
  8
15
  6
CONTINUOUS
 62
     3
 10
151.3217602188439
 20
1114.400875081435
 11
159.7099999999999
 21
1114.663020674544
  0
LINE
  8
15
  6
CONTINUOUS
 62
     3
 10
171.7099999999999
 20
1107.059483949133
 11
159.7099999999999
 21
1107.268944728272
  0
LINE
  8
15
  6
CONTINUOUS
 62
     3
 10
151.0999999999999
 20
1081.143944728272
 11
159.7099999999999
 21
1080.874868781999
  0
ENDBLK
  8
15
  0
BLOCK
  8
15
  2
COMP16
 70
    64
 10
0.0
 20
0.0
  0
ARC
  8
15
  6
CONTINUOUS
 62
     6
 10
-278.5000000000001
 20
1042.368944728272
 40
482.9999999999999
 50
325.6118755738984
 51
337.863675245037
  0
INSERT
  8
15
  6
CONTINUOUS
 62
     3
  2
SUB24
 10
62.20000000000005
 20
1068.568944728272
 41
1.0
 42
1.0
 50
0.0
  0
ENDBLK
  8
15
  0
ENDSEC
  0
SECTION
  2
ENTITIES
  0
INSERT
  8
15
  6
CONTINUOUS
 62
     3
  2
SUB1
 10
0.0
 20
0.0
 41
1.0
 42
1.0
 50
0.0
  0
INSERT
  8
15
  6
CONTINUOUS
 62
     3
  2
SUB2
 10
0.0
 20
-92.49999999999997
 41
1.0
 42
1.0
 50
0.0
  0
INSERT
  8
15
  6
CONTINUOUS
 62
     3
  2
COMP1
 10
0.0
 20
0.0
 41
1.0
 42
1.0
 50
0.0
  0
INSERT
  8
15
  6
CONTINUOUS
 62
     3
  2
COMP2
 10
0.0
 20
0.0
 41
1.0
 42
1.0
 50
0.0
  0
INSERT
  8
15
  6
CONTINUOUS
 62
     3
  2
SUB3
 10
115.0
 20
66.69999999999992
 41
1.0
 42
1.0
 50
0.0
  0
INSERT
  8
15
  6
CONTINUOUS
 62
     3
  2
SUB4
 10
77.90000000000009
 20
116.2999999999999
 41
1.0
 42
1.0
 50
0.0
  0
INSERT
  8
15
  6
CONTINUOUS
 62
     3
  2
COMP3
 10
0.0
 20
0.0
 41
1.0
 42
1.0
 50
0.0
  0
INSERT
  8
15
  6
CONTINUOUS
 62
     3
  2
COMP4
 10
0.0
 20
0.0
 41
1.0
 42
1.0
 50
0.0
  0
INSERT
  8
15
  6
CONTINUOUS
 62
     3
  2
SUB7
 10
-99.0
 20
88.59999999999995
 41
1.0
 42
1.0
 50
0.0
  0
INSERT
  8
15
  6
PHANTOM
 62
     6
  2
COMP5
 10
0.0
 20
0.0
 41
1.0
 42
1.0
 50
0.0
  0
INSERT
  8
15
  6
CONTINUOUS
 62
     3
  2
COMP6
 10
0.0
 20
0.0
 41
1.0
 42
1.0
 50
0.0
  0
INSERT
  8
15
  6
CONTINUOUS
 62
     3
  2
COMP7
 10
0.0
 20
0.0
 41
1.0
 42
1.0
 50
0.0
  0
INSERT
  8
15
  6
CONTINUOUS
 62
     3
  2
SUB8
 10
62.20000000000016
 20
193.1
 41
1.0
 42
1.0
 50
0.0
  0
INSERT
  8
15
  6
CONTINUOUS
 62
     3
  2
COMP8
 10
0.0
 20
0.0
 41
1.0
 42
1.0
 50
0.0
  0
INSERT
  8
15
  6
CONTINUOUS
 62
     3
  2
COMP9
 10
0.0
 20
0.0
 41
1.0
 42
1.0
 50
0.0
  0
INSERT
  8
15
  6
CONTINUOUS
 62
     3
  2
SUB9
 10
1216.107764648109
 20
-1.207922650792170E-013
 41
1.0
 42
1.0
 50
0.0
  0
INSERT
  8
15
  6
CONTINUOUS
 62
     3
  2
SUB10
 10
1214.957764648109
 20
66.69999999999988
 41
1.0
 42
1.0
 50
0.0
  0
INSERT
  8
15
  6
CONTINUOUS
 62
     3
  2
SUB11
 10
1167.057764648109
 20
116.2999999999999
 41
1.0
 42
1.0
 50
0.0
  0
INSERT
  8
15
  6
CONTINUOUS
 62
     3
  2
COMP10
 10
0.0
 20
0.0
 41
1.0
 42
1.0
 50
0.0
  0
INSERT
  8
15
  6
CONTINUOUS
 62
     3
  2
COMP11
 10
0.0
 20
0.0
 41
1.0
 42
1.0
 50
0.0
  0
INSERT
  8
15
  6
CONTINUOUS
 62
     3
  2
COMP12
 10
0.0
 20
0.0
 41
1.0
 42
1.0
 50
0.0
  0
INSERT
  8
15
  6
CONTINUOUS
 62
     3
  2
SUB15
 10
1292.357764648109
 20
-92.50000000000011
 41
1.0
 42
1.0
 50
0.0
  0
INSERT
  8
15
  6
PHANTOM
 62
     6
  2
COMP13
 10
0.0
 20
0.0
 41
1.0
 42
1.0
 50
0.0
  0
INSERT
  8
15
  6
CONTINUOUS
 62
     3
  2
SUB16
 10
1105.257764648109
 20
193.0999999999999
 41
1.0
 42
1.0
 50
0.0
  0
INSERT
  8
15
  6
CONTINUOUS
 62
     3
  2
SUB17
 10
0.0
 20
1255.668944728272
 41
1.0
 42
1.0
 50
0.0
  0
INSERT
  8
15
  6
CONTINUOUS
 62
     3
  2
SUB18
 10
-99.0
 20
1231.118944728272
 41
1.0
 42
1.0
 50
0.0
  0
INSERT
  8
15
  6
CONTINUOUS
 62
     3
  2
SUB19
 10
115.0
 20
1179.418944728272
 41
1.0
 42
1.0
 50
0.0
  0
INSERT
  8
15
  6
CONTINUOUS
 62
     3
  2
SUB20
 10
115.0
 20
1178.268944728272
 41
1.0
 42
1.0
 50
0.0
  0
INSERT
  8
15
  6
CONTINUOUS
 62
     3
  2
SUB21
 10
0.0
 20
1255.668944728272
 41
1.0
 42
1.0
 50
0.0
  0
INSERT
  8
15
  6
CONTINUOUS
 62
     3
  2
SUB22
 10
0.0
 20
1255.668944728272
 41
1.0
 42
1.0
 50
0.0
  0
INSERT
  8
15
  6
CONTINUOUS
 62
     3
  2
SUB23
 10
77.90000000000009
 20
1130.368944728272
 41
1.0
 42
1.0
 50
0.0
  0
INSERT
  8
15
  6
CONTINUOUS
 62
     3
  2
COMP14
 10
0.0
 20
0.0
 41
1.0
 42
1.0
 50
0.0
  0
INSERT
  8
15
  6
CONTINUOUS
 62
     3
  2
COMP15
 10
0.0
 20
0.0
 41
1.0
 42
1.0
 50
0.0
  0
INSERT
  8
15
  6
CONTINUOUS
 62
     3
  2
COMP16
 10
0.0
 20
0.0
 41
1.0
 42
1.0
 50
0.0
  0
TEXT
  8
15
  6
CONTINUOUS
 62
     7
 10
977.3935546875
 20
1061.127197265625
 40
50.0
 41
0.6842105263157895
 50
0.0
 51
0.0
  7
STANDARD
  1
GC1204-5101L
  0
TEXT
  8
15
  6
CONTINUOUS
 62
     7
 10
977.3935546875
 20
979.877197265625
 40
50.0
 41
0.6842105263157895
 50
0.0
 51
0.0
  7
STANDARD
  1
L120-40
  0
ENDSEC
  0
EOF
