  0
SECTION
  2
HEADER
  9
$ACADVER
  1
AC1006
  9
$INSBASE
 10
0.0
 20
0.0
 30
0.0
  9
$EXTMIN
 10
-130.0
 20
-273.09217293205745
  9
$EXTMAX
 10
551.4122228697853
 20
522.13570407361283
  9
$LIMMIN
 10
-130.0
 20
-273.09217293205745
  9
$LIMMAX
 10
551.4122228697853
 20
522.13570407361283
  9
$ORTHOMODE
 70
     0
  9
$REGENMODE
 70
     1
  9
$FILLMODE
 70
     1
  9
$QTEXTMODE
 70
     0
  9
$MIRRTEXT
 70
     1
  9
$DRAGMODE
 70
     2
  9
$LTSCALE
 40
1.0
  9
$OSMODE
 70
     0
  9
$ATTMODE
 70
     1
  9
$TEXTSIZE
 40
3.0
  9
$TRACEWID
 40
0.5
  9
$TEXTSTYLE
  7
STANDARD
  9
$CLAYER
  8
0
  9
$CELTYPE
  6
BYLAYER
  9
$CECOLOR
 62
   256
  9
$DIMSCALE
 40
1.0
  9
$DIMASZ
 40
3.0
  9
$DIMEXO
 40
1.0
  9
$DIMDLI
 40
5.0
  9
$DIMRND
 40
0.0
  9
$DIMDLE
 40
0.0
  9
$DIMEXE
 40
1.5
  9
$DIMTP
 40
0.0
  9
$DIMTM
 40
0.0
  9
$DIMTXT
 40
3.0
  9
$DIMCEN
 40
2.0
  9
$DIMTSZ
 40
0.0
  9
$DIMTOL
 70
     0
  9
$DIMLIM
 70
     0
  9
$DIMTIH
 70
     0
  9
$DIMTOH
 70
     0
  9
$DIMSE1
 70
     0
  9
$DIMSE2
 70
     0
  9
$DIMTAD
 70
     1
  9
$DIMZIN
 70
     8
  9
$DIMBLK
  1

  9
$DIMASO
 70
     1
  9
$DIMSHO
 70
     0
  9
$DIMPOST
  1

  9
$DIMAPOST
  1

  9
$DIMALT
 70
     0
  9
$DIMALTD
 70
     0
  9
$DIMALTF
 40
25.399999999999999
  9
$DIMLFAC
 40
1.0
  9
$DIMTOFL
 70
     0
  9
$DIMTVP
 40
1.0
  9
$DIMTIX
 70
     0
  9
$DIMSOXD
 70
     0
  9
$DIMSAH
 70
     0
  9
$DIMBLK1
  1

  9
$DIMBLK2
  1

  9
$LUNITS
 70
     2
  9
$LUPREC
 70
     4
  9
$AXISMODE
 70
     0
  9
$AXISUNIT
 10
0.0
 20
0.0
  9
$SKETCHINC
 40
1.0
  9
$FILLETRAD
 40
0.0
  9
$AUNITS
 70
     0
  9
$AUPREC
 70
     0
  9
$MENU
  1
acad
  9
$ELEVATION
 40
0.0
  9
$THICKNESS
 40
0.0
  9
$LIMCHECK
 70
     0
  9
$BLIPMODE
 70
     1
  9
$CHAMFERA
 40
0.0
  9
$CHAMFERB
 40
0.0
  9
$SKPOLY
 70
     0
  9
$TDCREATE
 40
2452685.7816782407
  9
$TDUPDATE
 40
2452685.7816782407
  9
$TDINDWG
 40
0.0
  9
$TDUSRTIMER
 40
0.0
  9
$USRTIMER
 70
     1
  9
$ANGBASE
 50
0.0
  9
$ANGDIR
 70
     0
  9
$PDMODE
 70
     0
  9
$PDSIZE
 40
0.0
  9
$PLINEWID
 40
0.0
  9
$COORDS
 70
     0
  9
$SPLFRAME
 70
     0
  9
$SPLINETYPE
 70
     6
  9
$SPLINESEGS
 70
     8
  9
$ATTDIA
 70
     0
  9
$ATTREQ
 70
     1
  9
$HANDLING
 70
     0
  9
$HANDSEED
  5
0
  9
$SURFTAB1
 70
     6
  9
$SURFTAB2
 70
     6
  9
$SURFTYPE
 70
     6
  9
$SURFU
 70
     6
  9
$SURFV
 70
     6
  9
$FLATLAND
 70
     0
  9
$UCSNAME
  2

  9
$UCSORG
 10
0.0
 20
0.0
 30
0.0
  9
$UCSXDIR
 10
1.0
 20
0.0
 30
0.0
  9
$UCSYDIR
 10
0.0
 20
1.0
 30
0.0
  9
$USERI1
 70
     0
  9
$USERI2
 70
     0
  9
$USERI3
 70
     0
  9
$USERI4
 70
     0
  9
$USERI5
 70
     0
  9
$USERR1
 40
0.0
  9
$USERR2
 40
0.0
  9
$USERR3
 40
0.0
  9
$USERR4
 40
0.0
  9
$USERR5
 40
0.0
  9
$WORLDVIEW
 70
     1
  0
ENDSEC
  0
SECTION
  2
TABLES
  0
TABLE
  2
VPORT
 70
     1
  0
VPORT
  2
*ACTIVE
 70
     0
 10
0.0
 20
0.0
 11
1.0
 21
1.0
 12
210.70611143489265
 22
124.52176557077769
 13
0.0
 23
0.0
 14
0.0
 24
0.0
 15
0.0
 25
0.0
 16
0.0
 26
0.0
 36
1.0
 17
0.0
 27
0.0
 37
0.0
 40
795.22787700567028
 41
1.5
 42
50.0
 43
0.0
 44
0.0
 50
0.0
 51
0.0
 71
     0
 72
   100
 73
     1
 74
     1
 75
     0
 76
     0
 77
     0
 78
     0
  0
ENDTAB
  0
TABLE
  2
LTYPE
 70
    20
  0
LTYPE
  2
CONTINUOUS
 70
    64
  3
solid line
 72
    65
 73
     0
 40
0.0
  0
LTYPE
  2
CENTER
 70
    64
  3
--- - --- - --- - --- - --- -
 72
    65
 73
     4
 40
6.0
 49
3.0
 49
-1.0
 49
1.0
 49
-1.0
  0
ENDTAB
  0
TABLE
  2
LAYER
 70
    20
  0
LAYER
  2
0
 70
    64
 62
     7
  6
CONTINUOUS
  0
LAYER
  2
15
 70
    64
 62
     7
  6
CONTINUOUS
  0
ENDTAB
  0
TABLE
  2
STYLE
 70
     4
  0
ENDTAB
  0
TABLE
  2
VIEW
 70
     0
  0
ENDTAB
  0
TABLE
  2
UCS
 70
     0
  0
ENDTAB
  0
TABLE
  2
DWGMGR
 70
     0
  0
ENDTAB
  0
ENDSEC
  0
SECTION
  2
BLOCKS
  0
BLOCK
  8
15
  2
COMP1
 70
    64
 10
0.0
 20
0.0
  0
POLYLINE
  8
15
  6
CONTINUOUS
 62
     7
 66
     1
 70
     0
 40
0.0
 41
0.0
  0
VERTEX
  8
15
 10
332.18313598632812
 20
-174.55123901367188
  0
VERTEX
  8
15
 10
340.62063598632812
 20
-174.55123901367188
  0
VERTEX
  8
15
 10
341.2910311412993
 20
-174.43108866737225
  0
VERTEX
  8
15
 10
341.94593660374602
 20
-174.2519203837158
  0
VERTEX
  8
15
 10
342.58129981903551
 20
-174.01483780731735
  0
VERTEX
  8
15
 10
343.19270911654354
 20
-173.72148174720252
  0
VERTEX
  8
15
 10
343.77613473028509
 20
-173.37370880372598
  0
VERTEX
  8
15
 10
344.32652092462041
 20
-172.9744512452929
  0
VERTEX
  8
15
 10
344.83939477081179
 20
-172.5269514590936
  0
VERTEX
  8
15
 10
345.31039780602492
 20
-172.03500841394188
  0
VERTEX
  8
15
 10
345.73550124002185
 20
-171.50282701547749
  0
VERTEX
  8
15
 10
346.11104131193389
 20
-170.93498852996552
  0
VERTEX
  8
15
 10
346.43382813732313
 20
-170.33632156806451
  0
VERTEX
  8
15
 10
346.70123697347901
 20
-169.71169809565768
  0
VERTEX
  8
15
 10
346.91102821513783
 20
-169.06652618754799
  0
VERTEX
  8
15
 10
347.06189072937156
 20
-168.40506094968848
  0
VERTEX
  8
15
 10
347.15277968369253
 20
-167.73190617716674
  0
VERTEX
  8
15
 10
347.18313598632812
 20
-167.05123901367187
  0
VERTEX
  8
15
 10
347.15277968369253
 20
-166.37057185017701
  0
VERTEX
  8
15
 10
347.06189072937156
 20
-165.69741707765527
  0
VERTEX
  8
15
 10
346.91102821513783
 20
-165.03595183979576
  0
VERTEX
  8
15
 10
346.70123697347901
 20
-164.39077993168607
  0
VERTEX
  8
15
 10
346.43382813732313
 20
-163.76615645927924
  0
VERTEX
  8
15
 10
346.11104131193389
 20
-163.16748949737823
  0
VERTEX
  8
15
 10
345.73550124002185
 20
-162.59965101186626
  0
VERTEX
  8
15
 10
345.31039780602492
 20
-162.06746961340187
  0
VERTEX
  8
15
 10
344.83939477081179
 20
-161.57552656825015
  0
VERTEX
  8
15
 10
344.32652092462041
 20
-161.12802678205085
  0
VERTEX
  8
15
 10
343.77613473028509
 20
-160.72876922361777
  0
VERTEX
  8
15
 10
343.19270911654354
 20
-160.38099628014123
  0
VERTEX
  8
15
 10
342.58129981903551
 20
-160.0876402200264
  0
VERTEX
  8
15
 10
341.94593660374602
 20
-159.85055764362795
  0
VERTEX
  8
15
 10
341.2910311412993
 20
-159.6713893599715
  0
VERTEX
  8
15
 10
340.62063598632812
 20
-159.55123901367187
  0
VERTEX
  8
15
 10
341.2910311412993
 20
-159.43108866737225
  0
VERTEX
  8
15
 10
341.94593660374602
 20
-159.2519203837158
  0
VERTEX
  8
15
 10
342.58129981903551
 20
-159.01483780731735
  0
VERTEX
  8
15
 10
343.19270911654354
 20
-158.72148174720252
  0
VERTEX
  8
15
 10
343.77613473028509
 20
-158.37370880372598
  0
VERTEX
  8
15
 10
344.32652092462041
 20
-157.9744512452929
  0
VERTEX
  8
15
 10
344.83939477081179
 20
-157.5269514590936
  0
VERTEX
  8
15
 10
345.31039780602492
 20
-157.03500841394188
  0
VERTEX
  8
15
 10
345.73550124002185
 20
-156.50282701547749
  0
VERTEX
  8
15
 10
346.11104131193389
 20
-155.93498852996552
  0
VERTEX
  8
15
 10
346.43382813732313
 20
-155.33632156806451
  0
VERTEX
  8
15
 10
346.70123697347901
 20
-154.71169809565768
  0
VERTEX
  8
15
 10
346.91102821513783
 20
-154.06652618754799
  0
VERTEX
  8
15
 10
347.06189072937156
 20
-153.40506094968848
  0
VERTEX
  8
15
 10
347.15277968369253
 20
-152.73190617716674
  0
VERTEX
  8
15
 10
347.18313598632812
 20
-152.05123901367187
  0
VERTEX
  8
15
 10
347.15277968369253
 20
-151.37057185017701
  0
VERTEX
  8
15
 10
347.06189072937156
 20
-150.69741707765527
  0
VERTEX
  8
15
 10
346.91102821513783
 20
-150.03595183979576
  0
VERTEX
  8
15
 10
346.70123697347901
 20
-149.39077993168607
  0
VERTEX
  8
15
 10
346.43382813732313
 20
-148.76615645927924
  0
VERTEX
  8
15
 10
346.11104131193389
 20
-148.16748949737823
  0
VERTEX
  8
15
 10
345.73550124002185
 20
-147.59965101186626
  0
VERTEX
  8
15
 10
345.31039780602492
 20
-147.06746961340187
  0
VERTEX
  8
15
 10
344.83939477081179
 20
-146.57552656825015
  0
VERTEX
  8
15
 10
344.32652092462041
 20
-146.12802678205085
  0
VERTEX
  8
15
 10
343.77613473028509
 20
-145.72876922361777
  0
VERTEX
  8
15
 10
343.19270911654354
 20
-145.38099628014123
  0
VERTEX
  8
15
 10
342.58129981903551
 20
-145.0876402200264
  0
VERTEX
  8
15
 10
341.94593660374602
 20
-144.85055764362795
  0
VERTEX
  8
15
 10
341.2910311412993
 20
-144.6713893599715
  0
VERTEX
  8
15
 10
340.62063598632812
 20
-144.55123901367188
  0
VERTEX
  8
15
 10
332.18313598632812
 20
-144.55123901367188
  0
VERTEX
  8
15
 10
332.18313598632812
 20
-174.55123901367188
  0
SEQEND
  8
15
  0
POLYLINE
  8
15
  6
CONTINUOUS
 62
     7
 66
     1
 70
     0
 40
0.0
 41
0.0
  0
VERTEX
  8
15
 10
332.18313598632812
 20
-159.55123901367187
  0
VERTEX
  8
15
 10
340.62063598632812
 20
-159.55123901367187
  0
SEQEND
  8
15
  0
POLYLINE
  8
15
  6
CONTINUOUS
 62
     7
 66
     1
 70
     0
 40
0.0
 41
0.0
  0
VERTEX
  8
15
 10
356.55813598632812
 20
-174.55123901367188
  0
VERTEX
  8
15
 10
364.05813598632812
 20
-144.55123901367188
  0
VERTEX
  8
15
 10
371.55813598632812
 20
-174.55123901367188
  0
SEQEND
  8
15
  0
POLYLINE
  8
15
  6
CONTINUOUS
 62
     7
 66
     1
 70
     0
 40
0.0
 41
0.0
  0
VERTEX
  8
15
 10
369.21438598632812
 20
-165.17623901367187
  0
VERTEX
  8
15
 10
358.90188598632812
 20
-165.17623901367187
  0
SEQEND
  8
15
  0
POLYLINE
  8
15
  6
CONTINUOUS
 62
     7
 66
     1
 70
     0
 40
0.0
 41
0.0
  0
VERTEX
  8
15
 10
381.40188598632812
 20
-159.55123901367187
  0
VERTEX
  8
15
 10
400.15188598632812
 20
-159.55123901367187
  0
SEQEND
  8
15
  0
POLYLINE
  8
15
  6
CONTINUOUS
 62
     7
 66
     1
 70
     0
 40
0.0
 41
0.0
  0
VERTEX
  8
15
 10
406.24563598632812
 20
-150.17623901367188
  0
VERTEX
  8
15
 10
406.24563598632812
 20
-168.92623901367188
  0
VERTEX
  8
15
 10
406.31777662317933
 20
-169.49260210196945
  0
VERTEX
  8
15
 10
406.44168625921219
 20
-170.04790074719259
  0
VERTEX
  8
15
 10
406.61655864068098
 20
-170.58849979378377
  0
VERTEX
  8
15
 10
406.84110527673204
 20
-171.11040003785621
  0
VERTEX
  8
15
 10
407.11383075955172
 20
-171.60995242062336
  0
VERTEX
  8
15
 10
407.43226241818348
 20
-172.08248356878093
  0
VERTEX
  8
15
 10
407.79361717010312
 20
-172.52386024609308
  0
VERTEX
  8
15
 10
408.19458530089872
 20
-172.9300351593939
  0
VERTEX
  8
15
 10
408.63143062942027
 20
-173.29723011832016
  0
VERTEX
  8
15
 10
409.10012942865353
 20
-173.62206724009457
  0
VERTEX
  8
15
 10
409.59638917535199
 20
-173.90157517748179
  0
VERTEX
  8
15
 10
410.11587897742436
 20
-174.13331684544158
  0
VERTEX
  8
15
 10
410.65375394471295
 20
-174.3152071614098
  0
VERTEX
  8
15
 10
411.20627712642801
 20
-174.44605530220178
  0
VERTEX
  8
15
 10
411.76937748921983
 20
-174.52490222364722
  0
VERTEX
  8
15
 10
412.33938598632812
 20
-174.55123901367188
  0
VERTEX
  8
15
 10
412.90939448343642
 20
-174.52490222364722
  0
VERTEX
  8
15
 10
413.47249484622824
 20
-174.44605530220178
  0
VERTEX
  8
15
 10
414.0250180279433
 20
-174.3152071614098
  0
VERTEX
  8
15
 10
414.56289299523189
 20
-174.13331684544158
  0
VERTEX
  8
15
 10
415.08238279730426
 20
-173.90157517748179
  0
VERTEX
  8
15
 10
415.57864254400272
 20
-173.62206724009457
  0
VERTEX
  8
15
 10
416.04734134323598
 20
-173.29723011832016
  0
VERTEX
  8
15
 10
416.48418667175753
 20
-172.9300351593939
  0
VERTEX
  8
15
 10
416.88515480255313
 20
-172.52386024609308
  0
VERTEX
  8
15
 10
417.24650955447277
 20
-172.08248356878093
  0
VERTEX
  8
15
 10
417.56494121310453
 20
-171.60995242062336
  0
VERTEX
  8
15
 10
417.83766669592421
 20
-171.11040003785621
  0
VERTEX
  8
15
 10
418.06221333197527
 20
-170.58849979378377
  0
VERTEX
  8
15
 10
418.23708571344406
 20
-170.04790074719259
  0
VERTEX
  8
15
 10
418.36099534947692
 20
-169.49260210196945
  0
VERTEX
  8
15
 10
418.43313598632812
 20
-168.92623901367188
  0
VERTEX
  8
15
 10
418.43313598632812
 20
-150.17623901367188
  0
VERTEX
  8
15
 10
418.36099534947692
 20
-149.6098759253743
  0
VERTEX
  8
15
 10
418.23708571344406
 20
-149.05457728015116
  0
VERTEX
  8
15
 10
418.06221333197527
 20
-148.51397823355998
  0
VERTEX
  8
15
 10
417.83766669592421
 20
-147.99207798948754
  0
VERTEX
  8
15
 10
417.56494121310453
 20
-147.49252560672039
  0
VERTEX
  8
15
 10
417.24650955447277
 20
-147.01999445856282
  0
VERTEX
  8
15
 10
416.88515480255313
 20
-146.57861778125067
  0
VERTEX
  8
15
 10
416.48418667175753
 20
-146.17244286794985
  0
VERTEX
  8
15
 10
416.04734134323598
 20
-145.80524790902359
  0
VERTEX
  8
15
 10
415.57864254400272
 20
-145.48041078724918
  0
VERTEX
  8
15
 10
415.08238279730426
 20
-145.20090284986196
  0
VERTEX
  8
15
 10
414.56289299523189
 20
-144.96916118190217
  0
VERTEX
  8
15
 10
414.0250180279433
 20
-144.78727086593395
  0
VERTEX
  8
15
 10
413.47249484622824
 20
-144.65642272514197
  0
VERTEX
  8
15
 10
412.90939448343642
 20
-144.57757580369653
  0
VERTEX
  8
15
 10
412.33938598632812
 20
-144.55123901367188
  0
VERTEX
  8
15
 10
411.76937748921983
 20
-144.57757580369653
  0
VERTEX
  8
15
 10
411.20627712642801
 20
-144.65642272514197
  0
VERTEX
  8
15
 10
410.65375394471295
 20
-144.78727086593395
  0
VERTEX
  8
15
 10
410.11587897742436
 20
-144.96916118190217
  0
VERTEX
  8
15
 10
409.59638917535199
 20
-145.20090284986196
  0
VERTEX
  8
15
 10
409.10012942865353
 20
-145.48041078724918
  0
VERTEX
  8
15
 10
408.63143062942027
 20
-145.80524790902359
  0
VERTEX
  8
15
 10
408.19458530089872
 20
-146.17244286794985
  0
VERTEX
  8
15
 10
407.79361717010312
 20
-146.57861778125067
  0
VERTEX
  8
15
 10
407.43226241818348
 20
-147.01999445856282
  0
VERTEX
  8
15
 10
407.11383075955172
 20
-147.49252560672039
  0
VERTEX
  8
15
 10
406.84110527673204
 20
-147.99207798948754
  0
VERTEX
  8
15
 10
406.61655864068098
 20
-148.51397823355998
  0
VERTEX
  8
15
 10
406.44168625921219
 20
-149.05457728015116
  0
VERTEX
  8
15
 10
406.31777662317933
 20
-149.6098759253743
  0
VERTEX
  8
15
 10
406.24563598632812
 20
-150.17623901367188
  0
SEQEND
  8
15
  0
POLYLINE
  8
15
  6
CONTINUOUS
 62
     7
 66
     1
 70
     0
 40
0.0
 41
0.0
  0
VERTEX
  8
15
 10
437.18313598632812
 20
-144.55123901367188
  0
VERTEX
  8
15
 10
429.68313598632812
 20
-165.17623901367187
  0
VERTEX
  8
15
 10
444.68313598632812
 20
-165.17623901367187
  0
SEQEND
  8
15
  0
POLYLINE
  8
15
  6
CONTINUOUS
 62
     7
 66
     1
 70
     0
 40
0.0
 41
0.0
  0
VERTEX
  8
15
 10
439.99563598632812
 20
-174.55123901367188
  0
VERTEX
  8
15
 10
439.99563598632812
 20
-154.86373901367187
  0
SEQEND
  8
15
  0
POLYLINE
  8
15
  6
CONTINUOUS
 62
     7
 66
     1
 70
     0
 40
0.0
 41
0.0
  0
VERTEX
  8
15
 10
347.18313598632812
 20
-198.92623901367187
  0
VERTEX
  8
15
 10
347.00817194831961
 20
-198.31457886078226
  0
VERTEX
  8
15
 10
346.78173259243681
 20
-197.72183364758789
  0
VERTEX
  8
15
 10
346.50513705893042
 20
-197.15146712920378
  0
VERTEX
  8
15
 10
346.18018002799943
 20
-196.60718923465299
  0
VERTEX
  8
15
 10
345.80881742245617
 20
-196.09238036662697
  0
VERTEX
  8
15
 10
345.39395124041852
 20
-195.61115577312677
  0
VERTEX
  8
15
 10
344.93869932106696
 20
-195.16713418173376
  0
VERTEX
  8
15
 10
344.44662475585937
 20
-194.7637939453125
  0
VERTEX
  8
15
 10
343.9216158299144
 20
-194.40432156336934
  0
VERTEX
  8
15
 10
343.367820471465
 20
-194.09155769641163
  0
VERTEX
  8
15
 10
342.78957606847678
 20
-193.82794935114239
  0
VERTEX
  8
15
 10
342.1912303943555
 20
-193.61547700942003
  0
VERTEX
  8
15
 10
341.57754785797914
 20
-193.45577522849047
  0
VERTEX
  8
15
 10
340.95232249984343
 20
-193.3497760781429
  0
VERTEX
  8
15
 10
340.31961983923412
 20
-193.29816477896796
  0
VERTEX
  8
15
 10
339.68313598632812
 20
-193.30123901367187
  0
VERTEX
  8
15
 10
338.97272129736177
 20
-193.22644747207258
  0
VERTEX
  8
15
 10
338.2631463294976
 20
-193.22939714203741
  0
VERTEX
  8
15
 10
337.56020808452081
 20
-193.31007612718656
  0
VERTEX
  8
15
 10
336.87066463246629
 20
-193.46772085048437
  0
VERTEX
  8
15
 10
336.20059204442344
 20
-193.7011335373443
  0
VERTEX
  8
15
 10
335.55882400084363
 20
-194.00743565500906
  0
VERTEX
  8
15
 10
334.95313912893312
 20
-194.38292072444091
  0
VERTEX
  8
15
 10
334.39138386935844
 20
-194.8227344277382
  0
VERTEX
  8
15
 10
333.88097293976483
 20
-195.32105888554983
  0
VERTEX
  8
15
 10
333.42857012247902
 20
-195.87137942865289
  0
VERTEX
  8
15
 10
333.04001891524246
 20
-196.46657432333268
  0
VERTEX
  8
15
 10
332.72001174299976
 20
-197.09944529571385
  0
VERTEX
  8
15
 10
332.47256139799902
 20
-197.76163908585008
  0
VERTEX
  8
15
 10
332.29964751060641
 20
-198.44732293510685
  0
VERTEX
  8
15
 10
332.20291412927492
 20
-199.14992844323857
  0
VERTEX
  8
15
 10
332.18313598632812
 20
-199.86373901367187
  0
VERTEX
  8
15
 10
332.17489430243785
 20
-200.64973055125017
  0
VERTEX
  8
15
 10
332.2431505598513
 20
-201.42926727003214
  0
VERTEX
  8
15
 10
332.38743401086901
 20
-202.19687782050397
  0
VERTEX
  8
15
 10
332.60659471939425
 20
-202.94639885562921
  0
VERTEX
  8
15
 10
332.89911287970142
 20
-203.67219973330452
  0
VERTEX
  8
15
 10
333.26207863233293
 20
-204.36673303069875
  0
VERTEX
  8
15
 10
333.69198221826576
 20
-205.02327543055478
  0
VERTEX
  8
15
 10
334.18444010859577
 20
-205.63512273796982
  0
VERTEX
  8
15
 10
334.73438192142299
 20
-206.19597148516408
  0
VERTEX
  8
15
 10
335.33611100900254
 20
-206.70000530473004
  0
VERTEX
  8
15
 10
335.98347806135422
 20
-207.14208017550928
  0
VERTEX
  8
15
 10
336.67020792950467
 20
-207.51791500934402
  0
VERTEX
  8
15
 10
337.38913661373374
 20
-207.8237281165971
  0
VERTEX
  8
15
 10
338.13483398938752
 20
-208.05734122686502
  0
VERTEX
  8
15
 10
338.9012985229935
 20
-208.21688298033592
  0
VERTEX
  8
15
 10
339.68313598632812
 20
-208.30123901367187
  0
VERTEX
  8
15
 10
340.40369653638521
 20
-208.38269029109364
  0
VERTEX
  8
15
 10
341.11181493165151
 20
-208.52765743379317
  0
VERTEX
  8
15
 10
341.80313038647847
 20
-208.73525288594738
  0
VERTEX
  8
15
 10
342.47287091906009
 20
-209.00404917722369
  0
VERTEX
  8
15
 10
343.11664981162835
 20
-209.33236354222728
  0
VERTEX
  8
15
 10
343.72893968500597
 20
-209.71745890865193
  0
VERTEX
  8
15
 10
344.30480262235756
 20
-210.15623191475009
  0
VERTEX
  8
15
 10
344.83938598632812
 20
-210.64498901367187
  0
VERTEX
  8
15
 10
345.32814308524991
 20
-211.17957237764244
  0
VERTEX
  8
15
 10
345.76691609134804
 20
-211.755435314994
  0
VERTEX
  8
15
 10
346.15201145777263
 20
-212.36772518837154
  0
VERTEX
  8
15
 10
346.48032582277631
 20
-213.01150408093989
  0
VERTEX
  8
15
 10
346.74912211405262
 20
-213.68124461352147
  0
VERTEX
  8
15
 10
346.95671756620686
 20
-214.37256006834852
  0
VERTEX
  8
15
 10
347.10168470890636
 20
-215.08067846361493
  0
VERTEX
  8
15
 10
347.18313598632812
 20
-215.80123901367188
  0
VERTEX
  8
15
 10
347.25116538844838
 20
-216.54040047591025
  0
VERTEX
  8
15
 10
347.23643456185198
 20
-217.27703885308904
  0
VERTEX
  8
15
 10
347.1390531635696
 20
-218.00496553607715
  0
VERTEX
  8
15
 10
346.95997731565217
 20
-218.71692993736332
  0
VERTEX
  8
15
 10
346.70060753351964
 20
-219.40646721316114
  0
VERTEX
  8
15
 10
346.36431207113606
 20
-220.06399866678296
  0
VERTEX
  8
15
 10
345.9553611365456
 20
-220.68116055779907
  0
VERTEX
  8
15
 10
345.47932731237324
 20
-221.24952487188233
  0
VERTEX
  8
15
 10
344.94279376153338
 20
-221.7612278432799
  0
VERTEX
  8
15
 10
344.3532198486231
 20
-222.20914579713826
  0
VERTEX
  8
15
 10
343.71866276761324
 20
-222.58717001870366
  0
VERTEX
  8
15
 10
343.04720411599857
 20
-222.8904936974894
  0
VERTEX
  8
15
 10
342.34819603888036
 20
-223.1151328388346
  0
VERTEX
  8
15
 10
341.62801569221836
 20
-223.25926737894787
  0
VERTEX
  8
15
 10
340.89385152346301
 20
-223.32147266532544
  0
VERTEX
  8
15
 10
340.15188598632812
 20
-223.30123901367187
  0
SEQEND
  8
15
  0
POLYLINE
  8
15
  6
CONTINUOUS
 62
     7
 66
     1
 70
     0
 40
0.0
 41
0.0
  0
VERTEX
  8
15
 10
332.18313598632812
 20
-217.67623901367187
  0
VERTEX
  8
15
 10
332.43492490814106
 20
-218.30836555868862
  0
VERTEX
  8
15
 10
332.73605093053618
 20
-218.91703193009974
  0
VERTEX
  8
15
 10
333.08494246888824
 20
-219.49905486075704
  0
VERTEX
  8
15
 10
333.47959855416997
 20
-220.05109026148693
  0
VERTEX
  8
15
 10
333.91788732205401
 20
-220.57008649479241
  0
VERTEX
  8
15
 10
334.39684550287268
 20
-221.05247123589103
  0
VERTEX
  8
15
 10
334.91335375140295
 20
-221.49510132631175
  0
VERTEX
  8
15
 10
335.46392822265625
 20
-221.89498901367187
  0
VERTEX
  8
15
 10
336.04482497586935
 20
-222.249415475956
  0
VERTEX
  8
15
 10
336.65209428243463
 20
-222.55597042226569
  0
VERTEX
  8
15
 10
337.28163806916268
 20
-222.81258699286485
  0
VERTEX
  8
15
 10
337.92935487900854
 20
-223.01759447804599
  0
VERTEX
  8
15
 10
338.59080696411047
 20
-223.16963119090514
  0
VERTEX
  8
15
 10
339.26235697183057
 20
-223.26790262429597
  0
VERTEX
  8
15
 10
339.94014782001636
 20
-223.31184749993884
  0
VERTEX
  8
15
 10
340.62063598632812
 20
-223.30123901367187
  0
SEQEND
  8
15
  0
POLYLINE
  8
15
  6
CONTINUOUS
 62
     7
 66
     1
 70
     0
 40
0.0
 41
0.0
  0
VERTEX
  8
15
 10
356.55813598632812
 20
-223.30123901367187
  0
VERTEX
  8
15
 10
356.55813598632812
 20
-193.30123901367187
  0
VERTEX
  8
15
 10
364.05813598632812
 20
-212.98873901367187
  0
VERTEX
  8
15
 10
371.55813598632812
 20
-193.30123901367187
  0
VERTEX
  8
15
 10
371.55813598632812
 20
-223.30123901367187
  0
SEQEND
  8
15
  0
POLYLINE
  8
15
  6
CONTINUOUS
 62
     7
 66
     1
 70
     0
 40
0.0
 41
0.0
  0
VERTEX
  8
15
 10
380.93313598632812
 20
-223.30123901367187
  0
VERTEX
  8
15
 10
389.37063598632812
 20
-223.30123901367187
  0
VERTEX
  8
15
 10
390.0410311412993
 20
-223.18108866737225
  0
VERTEX
  8
15
 10
390.69593660374602
 20
-223.0019203837158
  0
VERTEX
  8
15
 10
391.33129981903551
 20
-222.76483780731735
  0
VERTEX
  8
15
 10
391.94270911654354
 20
-222.47148174720252
  0
VERTEX
  8
15
 10
392.52613473028509
 20
-222.12370880372598
  0
VERTEX
  8
15
 10
393.07652092462041
 20
-221.7244512452929
  0
VERTEX
  8
15
 10
393.58939477081179
 20
-221.2769514590936
  0
VERTEX
  8
15
 10
394.06039780602492
 20
-220.78500841394188
  0
VERTEX
  8
15
 10
394.48550124002185
 20
-220.25282701547749
  0
VERTEX
  8
15
 10
394.86104131193389
 20
-219.68498852996552
  0
VERTEX
  8
15
 10
395.18382813732313
 20
-219.08632156806451
  0
VERTEX
  8
15
 10
395.45123697347901
 20
-218.46169809565768
  0
VERTEX
  8
15
 10
395.66102821513783
 20
-217.81652618754799
  0
VERTEX
  8
15
 10
395.81189072937156
 20
-217.15506094968848
  0
VERTEX
  8
15
 10
395.90277968369253
 20
-216.48190617716674
  0
VERTEX
  8
15
 10
395.93313598632812
 20
-215.80123901367188
  0
VERTEX
  8
15
 10
395.90277968369253
 20
-215.12057185017701
  0
VERTEX
  8
15
 10
395.81189072937156
 20
-214.44741707765527
  0
VERTEX
  8
15
 10
395.66102821513783
 20
-213.78595183979576
  0
VERTEX
  8
15
 10
395.45123697347901
 20
-213.14077993168607
  0
VERTEX
  8
15
 10
395.18382813732313
 20
-212.51615645927924
  0
VERTEX
  8
15
 10
394.86104131193389
 20
-211.91748949737823
  0
VERTEX
  8
15
 10
394.48550124002185
 20
-211.34965101186626
  0
VERTEX
  8
15
 10
394.06039780602492
 20
-210.81746961340187
  0
VERTEX
  8
15
 10
393.58939477081179
 20
-210.32552656825015
  0
VERTEX
  8
15
 10
393.07652092462041
 20
-209.87802678205085
  0
VERTEX
  8
15
 10
392.52613473028509
 20
-209.47876922361777
  0
VERTEX
  8
15
 10
391.94270911654354
 20
-209.13099628014123
  0
VERTEX
  8
15
 10
391.33129981903551
 20
-208.8376402200264
  0
VERTEX
  8
15
 10
390.69593660374602
 20
-208.60055764362795
  0
VERTEX
  8
15
 10
390.0410311412993
 20
-208.4213893599715
  0
VERTEX
  8
15
 10
389.37063598632812
 20
-208.30123901367187
  0
VERTEX
  8
15
 10
390.0410311412993
 20
-208.18108866737225
  0
VERTEX
  8
15
 10
390.69593660374602
 20
-208.0019203837158
  0
VERTEX
  8
15
 10
391.33129981903551
 20
-207.76483780731735
  0
VERTEX
  8
15
 10
391.94270911654354
 20
-207.47148174720252
  0
VERTEX
  8
15
 10
392.52613473028509
 20
-207.12370880372598
  0
VERTEX
  8
15
 10
393.07652092462041
 20
-206.7244512452929
  0
VERTEX
  8
15
 10
393.58939477081179
 20
-206.2769514590936
  0
VERTEX
  8
15
 10
394.06039780602492
 20
-205.78500841394188
  0
VERTEX
  8
15
 10
394.48550124002185
 20
-205.25282701547749
  0
VERTEX
  8
15
 10
394.86104131193389
 20
-204.68498852996552
  0
VERTEX
  8
15
 10
395.18382813732313
 20
-204.08632156806451
  0
VERTEX
  8
15
 10
395.45123697347901
 20
-203.46169809565768
  0
VERTEX
  8
15
 10
395.66102821513783
 20
-202.81652618754799
  0
VERTEX
  8
15
 10
395.81189072937156
 20
-202.15506094968848
  0
VERTEX
  8
15
 10
395.90277968369253
 20
-201.48190617716674
  0
VERTEX
  8
15
 10
395.93313598632812
 20
-200.80123901367187
  0
VERTEX
  8
15
 10
395.90277968369253
 20
-200.12057185017701
  0
VERTEX
  8
15
 10
395.81189072937156
 20
-199.44741707765527
  0
VERTEX
  8
15
 10
395.66102821513783
 20
-198.78595183979576
  0
VERTEX
  8
15
 10
395.45123697347901
 20
-198.14077993168607
  0
VERTEX
  8
15
 10
395.18382813732313
 20
-197.51615645927924
  0
VERTEX
  8
15
 10
394.86104131193389
 20
-196.91748949737823
  0
VERTEX
  8
15
 10
394.48550124002185
 20
-196.34965101186626
  0
VERTEX
  8
15
 10
394.06039780602492
 20
-195.81746961340187
  0
VERTEX
  8
15
 10
393.58939477081179
 20
-195.32552656825015
  0
VERTEX
  8
15
 10
393.07652092462041
 20
-194.87802678205085
  0
VERTEX
  8
15
 10
392.52613473028509
 20
-194.47876922361777
  0
VERTEX
  8
15
 10
391.94270911654354
 20
-194.13099628014123
  0
VERTEX
  8
15
 10
391.33129981903551
 20
-193.8376402200264
  0
VERTEX
  8
15
 10
390.69593660374602
 20
-193.60055764362795
  0
VERTEX
  8
15
 10
390.0410311412993
 20
-193.4213893599715
  0
VERTEX
  8
15
 10
389.37063598632812
 20
-193.30123901367187
  0
VERTEX
  8
15
 10
380.93313598632812
 20
-193.30123901367187
  0
VERTEX
  8
15
 10
380.93313598632812
 20
-223.30123901367187
  0
SEQEND
  8
15
  0
POLYLINE
  8
15
  6
CONTINUOUS
 62
     7
 66
     1
 70
     0
 40
0.0
 41
0.0
  0
VERTEX
  8
15
 10
380.93313598632812
 20
-208.30123901367187
  0
VERTEX
  8
15
 10
389.37063598632812
 20
-208.30123901367187
  0
SEQEND
  8
15
  0
POLYLINE
  8
15
  6
CONTINUOUS
 62
     7
 66
     1
 70
     0
 40
0.0
 41
0.0
  0
VERTEX
  8
15
 10
405.77688598632812
 20
-208.30123901367187
  0
VERTEX
  8
15
 10
424.52688598632812
 20
-208.30123901367187
  0
SEQEND
  8
15
  0
POLYLINE
  8
15
  6
CONTINUOUS
 62
     7
 66
     1
 70
     0
 40
0.0
 41
0.0
  0
VERTEX
  8
15
 10
430.62063598632812
 20
-198.92623901367187
  0
VERTEX
  8
15
 10
430.62063598632812
 20
-217.67623901367187
  0
VERTEX
  8
15
 10
430.69277662317933
 20
-218.24260210196945
  0
VERTEX
  8
15
 10
430.81668625921219
 20
-218.79790074719259
  0
VERTEX
  8
15
 10
430.99155864068098
 20
-219.33849979378377
  0
VERTEX
  8
15
 10
431.21610527673204
 20
-219.86040003785621
  0
VERTEX
  8
15
 10
431.48883075955172
 20
-220.35995242062336
  0
VERTEX
  8
15
 10
431.80726241818348
 20
-220.83248356878093
  0
VERTEX
  8
15
 10
432.16861717010312
 20
-221.27386024609308
  0
VERTEX
  8
15
 10
432.56958530089872
 20
-221.6800351593939
  0
VERTEX
  8
15
 10
433.00643062942027
 20
-222.04723011832016
  0
VERTEX
  8
15
 10
433.47512942865353
 20
-222.37206724009457
  0
VERTEX
  8
15
 10
433.97138917535199
 20
-222.65157517748179
  0
VERTEX
  8
15
 10
434.49087897742436
 20
-222.88331684544158
  0
VERTEX
  8
15
 10
435.02875394471295
 20
-223.0652071614098
  0
VERTEX
  8
15
 10
435.58127712642801
 20
-223.19605530220178
  0
VERTEX
  8
15
 10
436.14437748921983
 20
-223.27490222364722
  0
VERTEX
  8
15
 10
436.71438598632812
 20
-223.30123901367187
  0
VERTEX
  8
15
 10
437.28439448343642
 20
-223.27490222364722
  0
VERTEX
  8
15
 10
437.84749484622824
 20
-223.19605530220178
  0
VERTEX
  8
15
 10
438.4000180279433
 20
-223.0652071614098
  0
VERTEX
  8
15
 10
438.93789299523189
 20
-222.88331684544158
  0
VERTEX
  8
15
 10
439.45738279730426
 20
-222.65157517748179
  0
VERTEX
  8
15
 10
439.95364254400272
 20
-222.37206724009457
  0
VERTEX
  8
15
 10
440.42234134323598
 20
-222.04723011832016
  0
VERTEX
  8
15
 10
440.85918667175753
 20
-221.6800351593939
  0
VERTEX
  8
15
 10
441.26015480255313
 20
-221.27386024609308
  0
VERTEX
  8
15
 10
441.62150955447277
 20
-220.83248356878093
  0
VERTEX
  8
15
 10
441.93994121310453
 20
-220.35995242062336
  0
VERTEX
  8
15
 10
442.21266669592421
 20
-219.86040003785621
  0
VERTEX
  8
15
 10
442.43721333197527
 20
-219.33849979378377
  0
VERTEX
  8
15
 10
442.61208571344406
 20
-218.79790074719259
  0
VERTEX
  8
15
 10
442.73599534947692
 20
-218.24260210196945
  0
VERTEX
  8
15
 10
442.80813598632812
 20
-217.67623901367187
  0
VERTEX
  8
15
 10
442.80813598632812
 20
-198.92623901367187
  0
VERTEX
  8
15
 10
442.73599534947692
 20
-198.3598759253743
  0
VERTEX
  8
15
 10
442.61208571344406
 20
-197.80457728015116
  0
VERTEX
  8
15
 10
442.43721333197527
 20
-197.26397823355998
  0
VERTEX
  8
15
 10
442.21266669592421
 20
-196.74207798948754
  0
VERTEX
  8
15
 10
441.93994121310453
 20
-196.24252560672039
  0
VERTEX
  8
15
 10
441.62150955447277
 20
-195.76999445856282
  0
VERTEX
  8
15
 10
441.26015480255313
 20
-195.32861778125067
  0
VERTEX
  8
15
 10
440.85918667175753
 20
-194.92244286794985
  0
VERTEX
  8
15
 10
440.42234134323598
 20
-194.55524790902359
  0
VERTEX
  8
15
 10
439.95364254400272
 20
-194.23041078724918
  0
VERTEX
  8
15
 10
439.45738279730426
 20
-193.95090284986196
  0
VERTEX
  8
15
 10
438.93789299523189
 20
-193.71916118190217
  0
VERTEX
  8
15
 10
438.4000180279433
 20
-193.53727086593395
  0
VERTEX
  8
15
 10
437.84749484622824
 20
-193.40642272514197
  0
VERTEX
  8
15
 10
437.28439448343642
 20
-193.32757580369653
  0
VERTEX
  8
15
 10
436.71438598632812
 20
-193.30123901367187
  0
VERTEX
  8
15
 10
436.14437748921983
 20
-193.32757580369653
  0
VERTEX
  8
15
 10
435.58127712642801
 20
-193.40642272514197
  0
VERTEX
  8
15
 10
435.02875394471295
 20
-193.53727086593395
  0
VERTEX
  8
15
 10
434.49087897742436
 20
-193.71916118190217
  0
VERTEX
  8
15
 10
433.97138917535199
 20
-193.95090284986196
  0
VERTEX
  8
15
 10
433.47512942865353
 20
-194.23041078724918
  0
VERTEX
  8
15
 10
433.00643062942027
 20
-194.55524790902359
  0
VERTEX
  8
15
 10
432.56958530089872
 20
-194.92244286794985
  0
VERTEX
  8
15
 10
432.16861717010312
 20
-195.32861778125067
  0
VERTEX
  8
15
 10
431.80726241818348
 20
-195.76999445856282
  0
VERTEX
  8
15
 10
431.48883075955172
 20
-196.24252560672039
  0
VERTEX
  8
15
 10
431.21610527673204
 20
-196.74207798948754
  0
VERTEX
  8
15
 10
430.99155864068098
 20
-197.26397823355998
  0
VERTEX
  8
15
 10
430.81668625921219
 20
-197.80457728015116
  0
VERTEX
  8
15
 10
430.69277662317933
 20
-198.3598759253743
  0
VERTEX
  8
15
 10
430.62063598632812
 20
-198.92623901367187
  0
SEQEND
  8
15
  0
POLYLINE
  8
15
  6
CONTINUOUS
 62
     7
 66
     1
 70
     0
 40
0.0
 41
0.0
  0
VERTEX
  8
15
 10
454.99563598632812
 20
-198.92623901367187
  0
VERTEX
  8
15
 10
454.99563598632812
 20
-217.67623901367187
  0
VERTEX
  8
15
 10
455.06777662317933
 20
-218.24260210196945
  0
VERTEX
  8
15
 10
455.19168625921219
 20
-218.79790074719259
  0
VERTEX
  8
15
 10
455.36655864068098
 20
-219.33849979378377
  0
VERTEX
  8
15
 10
455.59110527673204
 20
-219.86040003785621
  0
VERTEX
  8
15
 10
455.86383075955172
 20
-220.35995242062336
  0
VERTEX
  8
15
 10
456.18226241818348
 20
-220.83248356878093
  0
VERTEX
  8
15
 10
456.54361717010312
 20
-221.27386024609308
  0
VERTEX
  8
15
 10
456.94458530089872
 20
-221.6800351593939
  0
VERTEX
  8
15
 10
457.38143062942027
 20
-222.04723011832016
  0
VERTEX
  8
15
 10
457.85012942865353
 20
-222.37206724009457
  0
VERTEX
  8
15
 10
458.34638917535199
 20
-222.65157517748179
  0
VERTEX
  8
15
 10
458.86587897742436
 20
-222.88331684544158
  0
VERTEX
  8
15
 10
459.40375394471295
 20
-223.0652071614098
  0
VERTEX
  8
15
 10
459.95627712642801
 20
-223.19605530220178
  0
VERTEX
  8
15
 10
460.51937748921983
 20
-223.27490222364722
  0
VERTEX
  8
15
 10
461.08938598632812
 20
-223.30123901367187
  0
VERTEX
  8
15
 10
461.65939448343642
 20
-223.27490222364722
  0
VERTEX
  8
15
 10
462.22249484622824
 20
-223.19605530220178
  0
VERTEX
  8
15
 10
462.7750180279433
 20
-223.0652071614098
  0
VERTEX
  8
15
 10
463.31289299523189
 20
-222.88331684544158
  0
VERTEX
  8
15
 10
463.83238279730426
 20
-222.65157517748179
  0
VERTEX
  8
15
 10
464.32864254400272
 20
-222.37206724009457
  0
VERTEX
  8
15
 10
464.79734134323598
 20
-222.04723011832016
  0
VERTEX
  8
15
 10
465.23418667175753
 20
-221.6800351593939
  0
VERTEX
  8
15
 10
465.63515480255313
 20
-221.27386024609308
  0
VERTEX
  8
15
 10
465.99650955447277
 20
-220.83248356878093
  0
VERTEX
  8
15
 10
466.31494121310453
 20
-220.35995242062336
  0
VERTEX
  8
15
 10
466.58766669592421
 20
-219.86040003785621
  0
VERTEX
  8
15
 10
466.81221333197527
 20
-219.33849979378377
  0
VERTEX
  8
15
 10
466.98708571344406
 20
-218.79790074719259
  0
VERTEX
  8
15
 10
467.11099534947692
 20
-218.24260210196945
  0
VERTEX
  8
15
 10
467.18313598632812
 20
-217.67623901367187
  0
VERTEX
  8
15
 10
467.18313598632812
 20
-198.92623901367187
  0
VERTEX
  8
15
 10
467.11099534947692
 20
-198.3598759253743
  0
VERTEX
  8
15
 10
466.98708571344406
 20
-197.80457728015116
  0
VERTEX
  8
15
 10
466.81221333197527
 20
-197.26397823355998
  0
VERTEX
  8
15
 10
466.58766669592421
 20
-196.74207798948754
  0
VERTEX
  8
15
 10
466.31494121310453
 20
-196.24252560672039
  0
VERTEX
  8
15
 10
465.99650955447277
 20
-195.76999445856282
  0
VERTEX
  8
15
 10
465.63515480255313
 20
-195.32861778125067
  0
VERTEX
  8
15
 10
465.23418667175753
 20
-194.92244286794985
  0
VERTEX
  8
15
 10
464.79734134323598
 20
-194.55524790902359
  0
VERTEX
  8
15
 10
464.32864254400272
 20
-194.23041078724918
  0
VERTEX
  8
15
 10
463.83238279730426
 20
-193.95090284986196
  0
VERTEX
  8
15
 10
463.31289299523189
 20
-193.71916118190217
  0
VERTEX
  8
15
 10
462.7750180279433
 20
-193.53727086593395
  0
VERTEX
  8
15
 10
462.22249484622824
 20
-193.40642272514197
  0
VERTEX
  8
15
 10
461.65939448343642
 20
-193.32757580369653
  0
VERTEX
  8
15
 10
461.08938598632812
 20
-193.30123901367187
  0
VERTEX
  8
15
 10
460.51937748921983
 20
-193.32757580369653
  0
VERTEX
  8
15
 10
459.95627712642801
 20
-193.40642272514197
  0
VERTEX
  8
15
 10
459.40375394471295
 20
-193.53727086593395
  0
VERTEX
  8
15
 10
458.86587897742436
 20
-193.71916118190217
  0
VERTEX
  8
15
 10
458.34638917535199
 20
-193.95090284986196
  0
VERTEX
  8
15
 10
457.85012942865353
 20
-194.23041078724918
  0
VERTEX
  8
15
 10
457.38143062942027
 20
-194.55524790902359
  0
VERTEX
  8
15
 10
456.94458530089872
 20
-194.92244286794985
  0
VERTEX
  8
15
 10
456.54361717010312
 20
-195.32861778125067
  0
VERTEX
  8
15
 10
456.18226241818348
 20
-195.76999445856282
  0
VERTEX
  8
15
 10
455.86383075955172
 20
-196.24252560672039
  0
VERTEX
  8
15
 10
455.59110527673204
 20
-196.74207798948754
  0
VERTEX
  8
15
 10
455.36655864068098
 20
-197.26397823355998
  0
VERTEX
  8
15
 10
455.19168625921219
 20
-197.80457728015116
  0
VERTEX
  8
15
 10
455.06777662317933
 20
-198.3598759253743
  0
VERTEX
  8
15
 10
454.99563598632812
 20
-198.92623901367187
  0
SEQEND
  8
15
  0
POLYLINE
  8
15
  6
CONTINUOUS
 62
     7
 66
     1
 70
     0
 40
0.0
 41
0.0
  0
VERTEX
  8
15
 10
479.37063598632812
 20
-198.92623901367187
  0
VERTEX
  8
15
 10
479.37063598632812
 20
-217.67623901367187
  0
VERTEX
  8
15
 10
479.44277662317933
 20
-218.24260210196945
  0
VERTEX
  8
15
 10
479.56668625921219
 20
-218.79790074719259
  0
VERTEX
  8
15
 10
479.74155864068098
 20
-219.33849979378377
  0
VERTEX
  8
15
 10
479.96610527673204
 20
-219.86040003785621
  0
VERTEX
  8
15
 10
480.23883075955172
 20
-220.35995242062336
  0
VERTEX
  8
15
 10
480.55726241818348
 20
-220.83248356878093
  0
VERTEX
  8
15
 10
480.91861717010312
 20
-221.27386024609308
  0
VERTEX
  8
15
 10
481.31958530089872
 20
-221.6800351593939
  0
VERTEX
  8
15
 10
481.75643062942027
 20
-222.04723011832016
  0
VERTEX
  8
15
 10
482.22512942865353
 20
-222.37206724009457
  0
VERTEX
  8
15
 10
482.72138917535199
 20
-222.65157517748179
  0
VERTEX
  8
15
 10
483.24087897742436
 20
-222.88331684544158
  0
VERTEX
  8
15
 10
483.77875394471295
 20
-223.0652071614098
  0
VERTEX
  8
15
 10
484.33127712642801
 20
-223.19605530220178
  0
VERTEX
  8
15
 10
484.89437748921983
 20
-223.27490222364722
  0
VERTEX
  8
15
 10
485.46438598632812
 20
-223.30123901367187
  0
VERTEX
  8
15
 10
486.03439448343642
 20
-223.27490222364722
  0
VERTEX
  8
15
 10
486.59749484622824
 20
-223.19605530220178
  0
VERTEX
  8
15
 10
487.1500180279433
 20
-223.0652071614098
  0
VERTEX
  8
15
 10
487.68789299523189
 20
-222.88331684544158
  0
VERTEX
  8
15
 10
488.20738279730426
 20
-222.65157517748179
  0
VERTEX
  8
15
 10
488.70364254400272
 20
-222.37206724009457
  0
VERTEX
  8
15
 10
489.17234134323598
 20
-222.04723011832016
  0
VERTEX
  8
15
 10
489.60918667175753
 20
-221.6800351593939
  0
VERTEX
  8
15
 10
490.01015480255313
 20
-221.27386024609308
  0
VERTEX
  8
15
 10
490.37150955447277
 20
-220.83248356878093
  0
VERTEX
  8
15
 10
490.68994121310453
 20
-220.35995242062336
  0
VERTEX
  8
15
 10
490.96266669592421
 20
-219.86040003785621
  0
VERTEX
  8
15
 10
491.18721333197527
 20
-219.33849979378377
  0
VERTEX
  8
15
 10
491.36208571344406
 20
-218.79790074719259
  0
VERTEX
  8
15
 10
491.48599534947692
 20
-218.24260210196945
  0
VERTEX
  8
15
 10
491.55813598632812
 20
-217.67623901367187
  0
VERTEX
  8
15
 10
491.55813598632812
 20
-198.92623901367187
  0
VERTEX
  8
15
 10
491.48599534947692
 20
-198.3598759253743
  0
VERTEX
  8
15
 10
491.36208571344406
 20
-197.80457728015116
  0
VERTEX
  8
15
 10
491.18721333197527
 20
-197.26397823355998
  0
VERTEX
  8
15
 10
490.96266669592421
 20
-196.74207798948754
  0
VERTEX
  8
15
 10
490.68994121310453
 20
-196.24252560672039
  0
VERTEX
  8
15
 10
490.37150955447277
 20
-195.76999445856282
  0
VERTEX
  8
15
 10
490.01015480255313
 20
-195.32861778125067
  0
VERTEX
  8
15
 10
489.60918667175753
 20
-194.92244286794985
  0
VERTEX
  8
15
 10
489.17234134323598
 20
-194.55524790902359
  0
VERTEX
  8
15
 10
488.70364254400272
 20
-194.23041078724918
  0
VERTEX
  8
15
 10
488.20738279730426
 20
-193.95090284986196
  0
VERTEX
  8
15
 10
487.68789299523189
 20
-193.71916118190217
  0
VERTEX
  8
15
 10
487.1500180279433
 20
-193.53727086593395
  0
VERTEX
  8
15
 10
486.59749484622824
 20
-193.40642272514197
  0
VERTEX
  8
15
 10
486.03439448343642
 20
-193.32757580369653
  0
VERTEX
  8
15
 10
485.46438598632812
 20
-193.30123901367187
  0
VERTEX
  8
15
 10
484.89437748921983
 20
-193.32757580369653
  0
VERTEX
  8
15
 10
484.33127712642801
 20
-193.40642272514197
  0
VERTEX
  8
15
 10
483.77875394471295
 20
-193.53727086593395
  0
VERTEX
  8
15
 10
483.24087897742436
 20
-193.71916118190217
  0
VERTEX
  8
15
 10
482.72138917535199
 20
-193.95090284986196
  0
VERTEX
  8
15
 10
482.22512942865353
 20
-194.23041078724918
  0
VERTEX
  8
15
 10
481.75643062942027
 20
-194.55524790902359
  0
VERTEX
  8
15
 10
481.31958530089872
 20
-194.92244286794985
  0
VERTEX
  8
15
 10
480.91861717010312
 20
-195.32861778125067
  0
VERTEX
  8
15
 10
480.55726241818348
 20
-195.76999445856282
  0
VERTEX
  8
15
 10
480.23883075955172
 20
-196.24252560672039
  0
VERTEX
  8
15
 10
479.96610527673204
 20
-196.74207798948754
  0
VERTEX
  8
15
 10
479.74155864068098
 20
-197.26397823355998
  0
VERTEX
  8
15
 10
479.56668625921219
 20
-197.80457728015116
  0
VERTEX
  8
15
 10
479.44277662317933
 20
-198.3598759253743
  0
VERTEX
  8
15
 10
479.37063598632812
 20
-198.92623901367187
  0
SEQEND
  8
15
  0
ENDBLK
  8
15
  0
ENDSEC
  0
SECTION
  2
ENTITIES
  0
LINE
  8
15
  6
CENTER
 62
     3
 10
0.0
 20
-37.997486003024733
 11
0.0
 21
520.0
  0
LINE
  8
15
  6
CONTINUOUS
 62
     3
 10
-120.0
 20
0.0
 11
120.0
 21
0.0
  0
LINE
  8
15
  6
CONTINUOUS
 62
     3
 10
-120.0
 20
26.0
 11
120.0
 21
26.0
  0
LINE
  8
15
  6
CONTINUOUS
 62
     3
 10
-62.0
 20
500.0
 11
62.0
 21
500.0
  0
LINE
  8
15
  6
CONTINUOUS
 62
     3
 10
-62.0
 20
480.0
 11
62.0
 21
480.0
  0
LINE
  8
15
  6
CONTINUOUS
 62
     3
 10
-120.0
 20
0.0
 11
-120.0
 21
26.0
  0
LINE
  8
15
  6
CONTINUOUS
 62
     3
 10
120.0
 20
0.0
 11
120.0
 21
26.0
  0
LINE
  8
15
  6
CONTINUOUS
 62
     3
 10
95.0
 20
65.0
 11
95.0
 21
235.0
  0
LINE
  8
15
  6
CONTINUOUS
 62
     3
 10
-62.0
 20
480.0
 11
-62.0
 21
500.0
  0
LINE
  8
15
  6
CONTINUOUS
 62
     3
 10
62.0
 20
480.0
 11
62.0
 21
500.0
  0
LINE
  8
15
  6
CONTINUOUS
 62
     3
 10
3.8396207703124219
 20
235.0
 11
95.0
 21
235.0
  0
LINE
  8
15
  6
CONTINUOUS
 62
     3
 10
64.502349853515625
 20
65.0
 11
95.0
 21
65.0
  0
LINE
  8
15
  6
CONTINUOUS
 62
     3
 10
-26.0
 20
430.0
 11
-26.0
 21
465.0
  0
LINE
  8
15
  6
CONTINUOUS
 62
     3
 10
-28.356892908110581
 20
476.78446454055273
 11
-26.0
 21
465.0
  0
ARC
  8
15
  6
CONTINUOUS
 62
     3
 10
-32.279215610874303
 20
476.0
 40
4.00000000000004
 50
11.309932474020053
 51
90.0
  0
LINE
  8
15
  6
CONTINUOUS
 62
     3
 10
-4.5
 20
388.55249667610912
 11
-4.5
 21
476.0
  0
LINE
  8
15
  6
CONTINUOUS
 62
     3
 10
4.5
 20
388.55249667610912
 11
4.5
 21
476.0
  0
ARC
  8
15
  6
CONTINUOUS
 62
     3
 10
-8.5
 20
476.0
 40
4.0
 50
0.0
 51
90.0
  0
ARC
  8
15
  6
CONTINUOUS
 62
     3
 10
8.5
 20
476.0
 40
4.0
 50
90.0
 51
180.0
  0
LINE
  8
15
  6
CONTINUOUS
 62
     3
 10
28.356892908110581
 20
476.78446454055279
 11
26.0
 21
465.0
  0
LINE
  8
15
  6
CONTINUOUS
 62
     3
 10
26.0
 20
430.0
 11
26.0
 21
465.0
  0
LINE
  8
15
  6
CONTINUOUS
 62
     3
 10
34.811925647216867
 20
389.72887757815954
 11
59.0
 21
480.0
  0
ARC
  8
15
  6
CONTINUOUS
 62
     3
 10
32.279215610874303
 20
476.0
 40
4.00000000000004
 50
90.0
 51
168.69006752597915
  0
LINE
  8
15
  6
CONTINUOUS
 62
     3
 10
95.799999999999955
 20
235.0
 11
106.79999999999995
 21
235.0
  0
ARC
  8
15
  6
CONTINUOUS
 62
     3
 10
106.79999999999995
 20
233.0
 40
2.0
 50
0.0
 51
90.0
  0
LINE
  8
15
  6
CONTINUOUS
 62
     3
 10
108.79999999999995
 20
67.0
 11
108.79999999999995
 21
233.0
  0
LINE
  8
15
  6
CONTINUOUS
 62
     3
 10
95.799999999999955
 20
65.0
 11
95.799999999999955
 21
235.0
  0
LINE
  8
15
  6
CONTINUOUS
 62
     3
 10
95.799999999999955
 20
65.0
 11
106.79999999999995
 21
65.0
  0
ARC
  8
15
  6
CONTINUOUS
 62
     3
 10
106.79999999999995
 20
67.0
 40
2.0
 50
270.0
 51
0.0
  0
LINE
  8
15
  6
CONTINUOUS
 62
     3
 10
91.887759391632244
 20
42.652546958928838
 11
88.093889456752777
 21
65.0
  0
LINE
  8
15
  6
CONTINUOUS
 62
     3
 10
56.40636404279519
 20
251.65254695892884
 11
26.125165776793324
 21
430.02124907373474
  0
ARC
  8
15
  6
CONTINUOUS
 62
     3
 10
111.60563346917479
 20
46.0
 40
20.000000000000025
 50
189.63509448349095
 51
270.0
  0
ARC
  8
15
  6
CONTINUOUS
 62
     3
 10
54.130442172998187
 20
384.55249667610912
 40
19.999999999999957
 50
164.99999999999994
 51
189.63509448349086
  0
LINE
  8
15
  6
CONTINUOUS
 62
     3
 10
-91.887759391632244
 20
42.652546958928838
 11
-26.125165776793324
 21
430.02124907373474
  0
ARC
  8
15
  6
CONTINUOUS
 62
     3
 10
-54.130442172998187
 20
384.55249667610912
 40
19.999999999999957
 50
350.36490551650917
 51
15.000000000000062
  0
LINE
  8
15
  6
CONTINUOUS
 62
     3
 10
-34.811925647216867
 20
389.72887757815954
 11
-59.0
 21
480.0
  0
ARC
  8
15
  6
CONTINUOUS
 62
     3
 10
-111.60563346917479
 20
46.0
 40
20.000000000000025
 50
270.0
 51
350.36490551650905
  0
ARC
  8
15
  6
CONTINUOUS
 62
     3
 10
76.124238120337736
 20
255.0
 40
20.0
 50
189.63509448349112
 51
270.0
  0
LINE
  8
15
  6
CONTINUOUS
 62
     3
 10
3.0319692030467422
 20
227.00905446563576
 11
63.092585837035699
 21
68.715521734415233
  0
LINE
  8
15
  6
CENTER
 62
     3
 10
-130.0
 20
-143.09217293205745
 11
130.0
 21
-143.09217293205745
  0
LINE
  8
15
  6
CENTER
 62
     3
 10
0.0
 20
-273.09217293205745
 11
0.0
 21
-133.09217293205745
  0
LINE
  8
15
  6
CENTER
 62
     3
 10
100.0
 20
-260.59217293205745
 11
100.0
 21
-225.59217293205745
  0
LINE
  8
15
  6
CENTER
 62
     3
 10
-100.0
 20
-260.59217293205745
 11
-100.0
 21
-225.59217293205745
  0
LINE
  8
15
  6
CENTER
 62
     3
 10
82.5
 20
-243.09217293205745
 11
117.5
 21
-243.09217293205745
  0
LINE
  8
15
  6
CENTER
 62
     3
 10
-117.5
 20
-243.09217293205745
 11
-82.5
 21
-243.09217293205745
  0
LINE
  8
15
  6
CONTINUOUS
 62
     3
 10
-100.0
 20
-263.09217293205745
 11
100.0
 21
-263.09217293205745
  0
CIRCLE
  8
15
  6
CONTINUOUS
 62
     3
 10
100.0
 20
-243.09217293205745
 40
9.5
  0
ARC
  8
15
  6
CONTINUOUS
 62
     3
 10
100.0
 20
-243.09217293205745
 40
20.0
 50
270.0
 51
0.0
  0
LINE
  8
15
  6
CONTINUOUS
 62
     3
 10
120.0
 20
-243.09217293205745
 11
120.0
 21
-143.09217293205745
  0
ARC
  8
15
  6
CONTINUOUS
 62
     3
 10
-100.0
 20
-243.09217293205745
 40
20.0
 50
180.0
 51
270.0
  0
CIRCLE
  8
15
  6
CONTINUOUS
 62
     3
 10
-100.0
 20
-243.09217293205745
 40
9.5
  0
LINE
  8
15
  6
CONTINUOUS
 62
     3
 10
-120.0
 20
-243.09217293205745
 11
-120.0
 21
-143.09217293205745
  0
ARC
  8
15
  6
CONTINUOUS
 62
     3
 10
0.0
 20
-143.09217293205745
 40
106.0
 50
180.0
 51
0.0
  0
LINE
  8
15
  6
CENTER
 62
     3
 10
431.4122228697853
 20
-35.861781929411791
 11
431.4122228697853
 21
522.13570407361283
  0
LINE
  8
15
  6
CONTINUOUS
 62
     3
 10
311.4122228697853
 20
2.1357040736128283
 11
551.4122228697853
 21
2.1357040736128283
  0
LINE
  8
15
  6
CONTINUOUS
 62
     3
 10
311.4122228697853
 20
28.135704073612828
 11
551.4122228697853
 21
28.135704073612828
  0
LINE
  8
15
  6
CONTINUOUS
 62
     3
 10
369.4122228697853
 20
502.13570407361283
 11
493.4122228697853
 21
502.13570407361283
  0
LINE
  8
15
  6
CONTINUOUS
 62
     3
 10
369.4122228697853
 20
482.13570407361283
 11
493.4122228697853
 21
482.13570407361283
  0
LINE
  8
15
  6
CONTINUOUS
 62
     3
 10
311.4122228697853
 20
2.1357040736128283
 11
311.4122228697853
 21
28.135704073612828
  0
LINE
  8
15
  6
CONTINUOUS
 62
     3
 10
551.4122228697853
 20
2.1357040736128283
 11
551.4122228697853
 21
28.135704073612828
  0
LINE
  8
15
  6
CONTINUOUS
 62
     3
 10
369.4122228697853
 20
482.13570407361283
 11
369.4122228697853
 21
502.13570407361283
  0
LINE
  8
15
  6
CONTINUOUS
 62
     3
 10
493.4122228697853
 20
482.13570407361283
 11
493.4122228697853
 21
502.13570407361283
  0
LINE
  8
15
  6
CONTINUOUS
 62
     3
 10
405.4122228697853
 20
432.13570407361283
 11
405.4122228697853
 21
467.13570407361283
  0
LINE
  8
15
  6
CONTINUOUS
 62
     3
 10
403.0553299616746
 20
478.92016861416556
 11
405.4122228697853
 21
467.13570407361283
  0
ARC
  8
15
  6
CONTINUOUS
 62
     3
 10
399.13300725891088
 20
478.13570407361283
 40
4.00000000000004
 50
11.309932474020053
 51
90.0
  0
LINE
  8
15
  6
CONTINUOUS
 62
     3
 10
426.9122228697853
 20
390.68820074972194
 11
426.9122228697853
 21
478.13570407361283
  0
LINE
  8
15
  6
CONTINUOUS
 62
     3
 10
435.9122228697853
 20
390.68820074972194
 11
435.9122228697853
 21
478.13570407361283
  0
ARC
  8
15
  6
CONTINUOUS
 62
     3
 10
422.9122228697853
 20
478.13570407361283
 40
4.0
 50
0.0
 51
90.0
  0
ARC
  8
15
  6
CONTINUOUS
 62
     3
 10
439.9122228697853
 20
478.13570407361283
 40
4.0
 50
90.0
 51
180.0
  0
LINE
  8
15
  6
CONTINUOUS
 62
     3
 10
459.76911577789599
 20
478.92016861416562
 11
457.4122228697853
 21
467.13570407361283
  0
LINE
  8
15
  6
CONTINUOUS
 62
     3
 10
457.4122228697853
 20
432.13570407361283
 11
457.4122228697853
 21
467.13570407361283
  0
LINE
  8
15
  6
CONTINUOUS
 62
     3
 10
466.22414851700216
 20
391.86458165177237
 11
490.4122228697853
 21
482.13570407361283
  0
ARC
  8
15
  6
CONTINUOUS
 62
     3
 10
463.69143848065971
 20
478.13570407361283
 40
4.00000000000004
 50
90.0
 51
168.69006752597915
  0
ARC
  8
15
  6
CONTINUOUS
 62
     3
 10
543.01785633896009
 20
48.135704073612828
 40
20.000000000000025
 50
189.63509448349095
 51
270.0
  0
ARC
  8
15
  6
CONTINUOUS
 62
     3
 10
485.5426650427836
 20
386.68820074972194
 40
19.999999999999957
 50
165.00000000000003
 51
189.6350944834908
  0
LINE
  8
15
  6
CONTINUOUS
 62
     3
 10
339.52446347815305
 20
44.788251032541666
 11
405.28705709299186
 21
432.15695314734756
  0
ARC
  8
15
  6
CONTINUOUS
 62
     3
 10
377.281780696787
 20
386.68820074972194
 40
19.999999999999957
 50
350.36490551650922
 51
14.999999999999979
  0
LINE
  8
15
  6
CONTINUOUS
 62
     3
 10
396.60029722256843
 20
391.86458165177237
 11
372.4122228697853
 21
482.13570407361283
  0
ARC
  8
15
  6
CONTINUOUS
 62
     3
 10
319.80658940061051
 20
48.135704073612828
 40
20.000000000000025
 50
270.0
 51
350.36490551650905
  0
LINE
  8
15
  6
CONTINUOUS
 62
     3
 10
479.4122228697853
 20
237.13570407361283
 11
383.4122228697853
 21
237.13570407361283
  0
ARC
  8
15
  6
CONTINUOUS
 62
     3
 10
479.4122228697853
 20
225.13570407361283
 40
12.0
 50
0.0
 51
90.0
  0
ARC
  8
15
  6
CONTINUOUS
 62
     3
 10
383.4122228697853
 20
225.13570407361283
 40
12.0
 50
90.0
 51
180.0
  0
LINE
  8
15
  6
CONTINUOUS
 62
     3
 10
479.4122228697853
 20
67.135704073612828
 11
383.4122228697853
 21
67.135704073612828
  0
ARC
  8
15
  6
CONTINUOUS
 62
     3
 10
383.4122228697853
 20
79.135704073612828
 40
12.0
 50
180.0
 51
270.0
  0
ARC
  8
15
  6
CONTINUOUS
 62
     3
 10
479.4122228697853
 20
79.135704073612828
 40
12.0
 50
270.0
 51
0.0
  0
LINE
  8
15
  6
CONTINUOUS
 62
     3
 10
371.4122228697853
 20
79.135704073612828
 11
371.4122228697853
 21
225.13570407361283
  0
LINE
  8
15
  6
CONTINUOUS
 62
     3
 10
491.4122228697853
 20
79.135704073612828
 11
491.4122228697853
 21
225.13570407361283
  0
LINE
  8
15
  6
CONTINUOUS
 62
     3
 10
523.29998226141754
 20
44.788251032541666
 11
457.53738864657873
 21
432.15695314734756
  0
INSERT
  8
15
  6
CONTINUOUS
 62
     7
  2
COMP1
 10
0.0
 20
0.0
 41
1.0
 42
1.0
 50
0.0
  0
ENDSEC
  0
EOF
