  0
SECTION
  2
HEADER
  9
$ACADVER
  1
AC1006
  9
$INSBASE
 10
0.0
 20
0.0
 30
0.0
  9
$EXTMIN
 10
-215.0
 20
-474.81423741043272
  9
$EXTMAX
 10
715.46552750521641
 20
615.0
  9
$LIMMIN
 10
-215.0
 20
-474.81423741043272
  9
$LIMMAX
 10
715.46552750521641
 20
615.0
  9
$ORTHOMODE
 70
     0
  9
$REGENMODE
 70
     1
  9
$FILLMODE
 70
     1
  9
$QTEXTMODE
 70
     0
  9
$MIRRTEXT
 70
     1
  9
$DRAGMODE
 70
     2
  9
$LTSCALE
 40
1.0
  9
$OSMODE
 70
     0
  9
$ATTMODE
 70
     1
  9
$TEXTSIZE
 40
3.0
  9
$TRACEWID
 40
0.5
  9
$TEXTSTYLE
  7
STANDARD
  9
$CLAYER
  8
0
  9
$CELTYPE
  6
BYLAYER
  9
$CECOLOR
 62
   256
  9
$DIMSCALE
 40
1.0
  9
$DIMASZ
 40
3.0
  9
$DIMEXO
 40
1.0
  9
$DIMDLI
 40
5.0
  9
$DIMRND
 40
0.0
  9
$DIMDLE
 40
0.0
  9
$DIMEXE
 40
1.5
  9
$DIMTP
 40
0.0
  9
$DIMTM
 40
0.0
  9
$DIMTXT
 40
3.0
  9
$DIMCEN
 40
2.0
  9
$DIMTSZ
 40
0.0
  9
$DIMTOL
 70
     0
  9
$DIMLIM
 70
     0
  9
$DIMTIH
 70
     0
  9
$DIMTOH
 70
     0
  9
$DIMSE1
 70
     0
  9
$DIMSE2
 70
     0
  9
$DIMTAD
 70
     1
  9
$DIMZIN
 70
     8
  9
$DIMBLK
  1

  9
$DIMASO
 70
     1
  9
$DIMSHO
 70
     0
  9
$DIMPOST
  1

  9
$DIMAPOST
  1

  9
$DIMALT
 70
     0
  9
$DIMALTD
 70
     0
  9
$DIMALTF
 40
25.399999999999999
  9
$DIMLFAC
 40
1.0
  9
$DIMTOFL
 70
     0
  9
$DIMTVP
 40
1.0
  9
$DIMTIX
 70
     0
  9
$DIMSOXD
 70
     0
  9
$DIMSAH
 70
     0
  9
$DIMBLK1
  1

  9
$DIMBLK2
  1

  9
$LUNITS
 70
     2
  9
$LUPREC
 70
     4
  9
$AXISMODE
 70
     0
  9
$AXISUNIT
 10
0.0
 20
0.0
  9
$SKETCHINC
 40
1.0
  9
$FILLETRAD
 40
0.0
  9
$AUNITS
 70
     0
  9
$AUPREC
 70
     0
  9
$MENU
  1
acad
  9
$ELEVATION
 40
0.0
  9
$THICKNESS
 40
0.0
  9
$LIMCHECK
 70
     0
  9
$BLIPMODE
 70
     1
  9
$CHAMFERA
 40
0.0
  9
$CHAMFERB
 40
0.0
  9
$SKPOLY
 70
     0
  9
$TDCREATE
 40
2452685.7820949075
  9
$TDUPDATE
 40
2452685.7820949075
  9
$TDINDWG
 40
0.0
  9
$TDUSRTIMER
 40
0.0
  9
$USRTIMER
 70
     1
  9
$ANGBASE
 50
0.0
  9
$ANGDIR
 70
     0
  9
$PDMODE
 70
     0
  9
$PDSIZE
 40
0.0
  9
$PLINEWID
 40
0.0
  9
$COORDS
 70
     0
  9
$SPLFRAME
 70
     0
  9
$SPLINETYPE
 70
     6
  9
$SPLINESEGS
 70
     8
  9
$ATTDIA
 70
     0
  9
$ATTREQ
 70
     1
  9
$HANDLING
 70
     0
  9
$HANDSEED
  5
0
  9
$SURFTAB1
 70
     6
  9
$SURFTAB2
 70
     6
  9
$SURFTYPE
 70
     6
  9
$SURFU
 70
     6
  9
$SURFV
 70
     6
  9
$FLATLAND
 70
     0
  9
$UCSNAME
  2

  9
$UCSORG
 10
0.0
 20
0.0
 30
0.0
  9
$UCSXDIR
 10
1.0
 20
0.0
 30
0.0
  9
$UCSYDIR
 10
0.0
 20
1.0
 30
0.0
  9
$USERI1
 70
     0
  9
$USERI2
 70
     0
  9
$USERI3
 70
     0
  9
$USERI4
 70
     0
  9
$USERI5
 70
     0
  9
$USERR1
 40
0.0
  9
$USERR2
 40
0.0
  9
$USERR3
 40
0.0
  9
$USERR4
 40
0.0
  9
$USERR5
 40
0.0
  9
$WORLDVIEW
 70
     1
  0
ENDSEC
  0
SECTION
  2
TABLES
  0
TABLE
  2
VPORT
 70
     1
  0
VPORT
  2
*ACTIVE
 70
     0
 10
0.0
 20
0.0
 11
1.0
 21
1.0
 12
250.23276375260821
 22
70.092881294783638
 13
0.0
 23
0.0
 14
0.0
 24
0.0
 15
0.0
 25
0.0
 16
0.0
 26
0.0
 36
1.0
 17
0.0
 27
0.0
 37
0.0
 40
1089.8142374104327
 41
1.5
 42
50.0
 43
0.0
 44
0.0
 50
0.0
 51
0.0
 71
     0
 72
   100
 73
     1
 74
     1
 75
     0
 76
     0
 77
     0
 78
     0
  0
ENDTAB
  0
TABLE
  2
LTYPE
 70
    20
  0
LTYPE
  2
CONTINUOUS
 70
    64
  3
solid line
 72
    65
 73
     0
 40
0.0
  0
LTYPE
  2
CENTER
 70
    64
  3
--- - --- - --- - --- - --- -
 72
    65
 73
     4
 40
6.0
 49
3.0
 49
-1.0
 49
1.0
 49
-1.0
  0
ENDTAB
  0
TABLE
  2
LAYER
 70
    20
  0
LAYER
  2
0
 70
    64
 62
     7
  6
CONTINUOUS
  0
LAYER
  2
15
 70
    64
 62
     7
  6
CONTINUOUS
  0
ENDTAB
  0
TABLE
  2
STYLE
 70
     4
  0
ENDTAB
  0
TABLE
  2
VIEW
 70
     0
  0
ENDTAB
  0
TABLE
  2
UCS
 70
     0
  0
ENDTAB
  0
TABLE
  2
DWGMGR
 70
     0
  0
ENDTAB
  0
ENDSEC
  0
SECTION
  2
BLOCKS
  0
BLOCK
  8
15
  2
COMP1
 70
    64
 10
0.0
 20
0.0
  0
LINE
  8
15
  6
CONTINUOUS
 62
     3
 10
183.80000000000001
 20
80.0
 11
183.80000000000001
 21
280.0
  0
LINE
  8
15
  6
CONTINUOUS
 62
     3
 10
170.80000000000001
 20
80.0
 11
170.80000000000001
 21
280.0
  0
LINE
  8
15
  6
CONTINUOUS
 62
     3
 10
171.5
 20
571.0
 11
171.5
 21
600.0
  0
LINE
  8
15
  6
CONTINUOUS
 62
     3
 10
-168.5
 20
568.0
 11
168.5
 21
568.0
  0
LINE
  8
15
  6
CONTINUOUS
 62
     3
 10
-171.5
 20
600.0
 11
171.5
 21
600.0
  0
LINE
  8
15
  6
CONTINUOUS
 62
     3
 10
124.67546773390112
 20
411.90872058011513
 11
166.49999999999994
 21
568.0
  0
LINE
  8
15
  6
CONTINUOUS
 62
     3
 10
110.0
 20
500.0
 11
110.0
 21
558.0
  0
ARC
  8
15
  6
CONTINUOUS
 62
     3
 10
120.0
 20
558.0
 40
10.0
 50
90.0
 51
180.0
  0
ARC
  8
15
  6
CONTINUOUS
 62
     3
 10
158.48287165401851
 20
402.85005400152693
 40
35.000000000000007
 50
165.00000000000006
 51
187.6321700723642
  0
ARC
  8
15
  6
CONTINUOUS
 62
     3
 10
18.0
 20
558.0
 40
10.0
 50
90.0
 51
180.0
  0
LINE
  8
15
  6
CONTINUOUS
 62
     3
 10
8.0
 20
405.14346417965135
 11
8.0
 21
558.0
  0
LINE
  8
15
  6
CONTINUOUS
 62
     3
 10
110.15194694488065
 20
500.0
 11
137.30788554588142
 21
297.34374178357643
  0
LINE
  8
15
  6
CONTINUOUS
 62
     3
 10
166.43194694488065
 20
80.0
 11
168.52883949663197
 21
64.351548121258816
  0
LINE
  8
15
  6
CONTINUOUS
 62
     3
 10
200.0
 20
0.0
 11
200.0
 21
31.512311499446696
  0
LINE
  8
15
  6
CONTINUOUS
 62
     3
 10
-198.67672476101919
 20
34.0
 11
198.67672476101686
 21
34.0
  0
LINE
  8
15
  6
CONTINUOUS
 62
     3
 10
-200.0
 20
0.0
 11
200.0
 21
0.0
  0
LINE
  8
15
  6
CONTINUOUS
 62
     3
 10
170.0
 20
80.0
 11
170.0
 21
280.0
  0
ARC
  8
15
  6
CONTINUOUS
 62
     3
 10
203.21877889022312
 20
69.0
 40
34.999999999999993
 50
187.63217007236412
 51
260.58106022277133
  0
ARC
  8
15
  6
CONTINUOUS
 62
     3
 10
157.13070805650494
 20
300.0
 40
20.000000000000011
 50
187.6321700723642
 51
270.0
  0
LINE
  8
15
  6
CONTINUOUS
 62
     3
 10
114.4424772871418
 20
280.0
 11
183.80000000000001
 21
280.0
  0
LINE
  8
15
  6
CONTINUOUS
 62
     3
 10
145.94380070377628
 20
80.0
 11
183.80000000000001
 21
80.0
  0
LINE
  8
15
  6
CONTINUOUS
 62
     3
 10
115.23001037255766
 20
275.0
 11
145.15626761836043
 21
85.0
  0
LINE
  8
15
  6
CONTINUOUS
 62
     3
 10
-200.0
 20
0.0
 11
-200.0
 21
31.512311499446696
  0
LINE
  8
15
  6
CONTINUOUS
 62
     3
 10
-168.52883949663195
 20
64.351548121258816
 11
-110.15194694488062
 21
500.0
  0
ARC
  8
15
  6
CONTINUOUS
 62
     3
 10
-203.21877889022309
 20
69.0
 40
34.999999999999993
 50
279.41893977722862
 51
352.36782992763585
  0
LINE
  8
15
  6
CONTINUOUS
 62
     3
 10
-171.5
 20
571.0
 11
-171.5
 21
600.0
  0
ARC
  8
15
  6
CONTINUOUS
 62
     3
 10
-158.48287165401851
 20
402.85005400152681
 40
35.000000000000021
 50
352.3678299276358
 51
15.000000000000043
  0
LINE
  8
15
  6
CONTINUOUS
 62
     3
 10
-124.6754677339011
 20
411.90872058011507
 11
-166.5
 21
568.0
  0
LINE
  8
15
  6
CONTINUOUS
 62
     3
 10
-110.0
 20
500.0
 11
-110.0
 21
558.0
  0
ARC
  8
15
  6
CONTINUOUS
 62
     3
 10
-120.0
 20
558.0
 40
10.0
 50
0.0
 51
90.0
  0
ARC
  8
15
  6
CONTINUOUS
 62
     3
 10
-18.0
 20
558.0
 40
10.0
 50
0.0
 51
90.0
  0
LINE
  8
15
  6
CONTINUOUS
 62
     3
 10
-8.0
 20
405.14346417965135
 11
-8.0
 21
558.0
  0
ARC
  8
15
  6
CONTINUOUS
 62
     3
 10
168.5
 20
571.0
 40
3.0
 50
270.0
 51
0.0
  0
ARC
  8
15
  6
CONTINUOUS
 62
     3
 10
-168.5
 20
571.0
 40
3.0
 50
180.0
 51
270.0
  0
ARC
  8
15
  6
CONTINUOUS
 62
     3
 10
-197.0
 20
31.512311499446696
 40
3.0
 50
99.4189397772288
 51
180.0
  0
ARC
  8
15
  6
CONTINUOUS
 62
     3
 10
197.0
 20
31.512311499446696
 40
3.0
 50
0.0
 51
80.581060222771214
  0
ENDBLK
  8
15
  0
BLOCK
  8
15
  2
COMP2
 70
    64
 10
0.0
 20
0.0
  0
LINE
  8
15
  6
CONTINUOUS
 62
     3
 10
346.96552750521641
 20
568.0
 11
683.96552750521641
 21
568.0
  0
LINE
  8
15
  6
CONTINUOUS
 62
     3
 10
343.96552750521641
 20
600.0
 11
686.96552750521641
 21
600.0
  0
ARC
  8
15
  6
CONTINUOUS
 62
     3
 10
497.46552750521641
 20
558.0
 40
10.0
 50
0.0
 51
90.0
  0
LINE
  8
15
  6
CONTINUOUS
 62
     3
 10
507.46552750521641
 20
405.14346417965135
 11
507.46552750521641
 21
558.0
  0
ARC
  8
15
  6
CONTINUOUS
 62
     3
 10
533.46552750521641
 20
558.0
 40
10.0
 50
90.0
 51
180.0
  0
LINE
  8
15
  6
CONTINUOUS
 62
     3
 10
523.46552750521641
 20
405.14346417965135
 11
523.46552750521641
 21
558.0
  0
LINE
  8
15
  6
CONTINUOUS
 62
     3
 10
686.96552750521641
 20
571.0
 11
686.96552750521641
 21
600.0
  0
LINE
  8
15
  6
CONTINUOUS
 62
     3
 10
640.1409952391175
 20
411.90872058011513
 11
681.96552750521641
 21
568.0
  0
LINE
  8
15
  6
CONTINUOUS
 62
     3
 10
625.46552750521641
 20
500.0
 11
625.46552750521641
 21
558.0
  0
ARC
  8
15
  6
CONTINUOUS
 62
     3
 10
635.46552750521641
 20
558.0
 40
10.0
 50
90.0
 51
180.0
  0
LINE
  8
15
  6
CONTINUOUS
 62
     3
 10
625.61747445009701
 20
500.0
 11
683.99436700184833
 21
64.351548121258816
  0
LINE
  8
15
  6
CONTINUOUS
 62
     3
 10
715.46552750521641
 20
0.0
 11
715.46552750521641
 21
31.512311499446696
  0
LINE
  8
15
  6
CONTINUOUS
 62
     3
 10
316.78880274419726
 20
34.0
 11
714.1422522662333
 21
34.0
  0
LINE
  8
15
  6
CONTINUOUS
 62
     3
 10
315.46552750521641
 20
0.0
 11
715.46552750521641
 21
0.0
  0
ARC
  8
15
  6
CONTINUOUS
 62
     3
 10
673.9483991592349
 20
402.85005400152693
 40
35.000000000000007
 50
165.00000000000006
 51
187.63217007236423
  0
ARC
  8
15
  6
CONTINUOUS
 62
     3
 10
718.68430639543953
 20
69.0
 40
34.999999999999993
 50
187.63217007236409
 51
260.58106022277127
  0
ARC
  8
15
  6
CONTINUOUS
 62
     3
 10
583.46552750521641
 20
268.0
 40
12.0
 50
0.0
 51
90.0
  0
LINE
  8
15
  6
CONTINUOUS
 62
     3
 10
447.46552750521641
 20
280.0
 11
583.46552750521641
 21
280.0
  0
LINE
  8
15
  6
CONTINUOUS
 62
     3
 10
447.46552750521641
 20
80.0
 11
583.46552750521641
 21
80.0
  0
LINE
  8
15
  6
CONTINUOUS
 62
     3
 10
595.46552750521641
 20
92.0
 11
595.46552750521641
 21
268.0
  0
ARC
  8
15
  6
CONTINUOUS
 62
     3
 10
583.46552750521641
 20
92.0
 40
12.0
 50
270.0
 51
0.0
  0
LINE
  8
15
  6
CONTINUOUS
 62
     3
 10
315.46552750521641
 20
0.0
 11
315.46552750521641
 21
31.512311499446696
  0
LINE
  8
15
  6
CONTINUOUS
 62
     3
 10
346.9366880085845
 20
64.351548121258816
 11
405.31358056033582
 21
500.0
  0
ARC
  8
15
  6
CONTINUOUS
 62
     3
 10
312.24674861499329
 20
69.0
 40
34.999999999999993
 50
279.41893977722873
 51
352.36782992763591
  0
ARC
  8
15
  6
CONTINUOUS
 62
     3
 10
447.46552750521641
 20
268.0
 40
12.0
 50
90.0
 51
180.0
  0
LINE
  8
15
  6
CONTINUOUS
 62
     3
 10
435.46552750521641
 20
92.0
 11
435.46552750521641
 21
268.0
  0
ARC
  8
15
  6
CONTINUOUS
 62
     3
 10
447.46552750521641
 20
92.0
 40
12.0
 50
180.0
 51
270.0
  0
LINE
  8
15
  6
CONTINUOUS
 62
     3
 10
343.96552750521641
 20
571.0
 11
343.96552750521641
 21
600.0
  0
ARC
  8
15
  6
CONTINUOUS
 62
     3
 10
356.98265585119793
 20
402.85005400152681
 40
35.000000000000021
 50
352.3678299276358
 51
15.00000000000005
  0
LINE
  8
15
  6
CONTINUOUS
 62
     3
 10
390.79005977131533
 20
411.90872058011507
 11
348.96552750521641
 21
568.0
  0
LINE
  8
15
  6
CONTINUOUS
 62
     3
 10
405.46552750521641
 20
500.0
 11
405.46552750521641
 21
558.0
  0
ARC
  8
15
  6
CONTINUOUS
 62
     3
 10
395.46552750521641
 20
558.0
 40
10.0
 50
0.0
 51
90.0
  0
ARC
  8
15
  6
CONTINUOUS
 62
     3
 10
346.96552750521641
 20
571.0
 40
3.0
 50
180.0
 51
270.0
  0
ARC
  8
15
  6
CONTINUOUS
 62
     3
 10
683.96552750521641
 20
571.0
 40
3.0
 50
270.0
 51
0.0
  0
ARC
  8
15
  6
CONTINUOUS
 62
     3
 10
712.46552750521641
 20
31.512311499446696
 40
3.0
 50
0.0
 51
80.58106022277174
  0
ARC
  8
15
  6
CONTINUOUS
 62
     3
 10
318.46552750521641
 20
31.512311499446696
 40
3.0
 50
99.41893977722826
 51
180.0
  0
ENDBLK
  8
15
  0
BLOCK
  8
15
  2
COMP3
 70
    64
 10
0.0
 20
0.0
  0
LINE
  8
15
  6
CONTINUOUS
 62
     3
 10
-200.0
 20
-429.81423741043272
 11
-200.0
 21
-259.81423741043272
  0
CIRCLE
  8
15
  6
CONTINUOUS
 62
     3
 10
-170.0
 20
-429.81423741043272
 40
13.5
  0
CIRCLE
  8
15
  6
CONTINUOUS
 62
     3
 10
-170.0
 20
-429.81423741043272
 40
13.5
  0
ARC
  8
15
  6
CONTINUOUS
 62
     3
 10
0.0
 20
-259.81423741043272
 40
185.0
 50
180.0
 51
0.0
  0
LINE
  8
15
  6
CONTINUOUS
 62
     3
 10
-170.0
 20
-459.81423741043272
 11
170.0
 21
-459.81423741043272
  0
ARC
  8
15
  6
CONTINUOUS
 62
     3
 10
-170.0
 20
-429.81423741043272
 40
30.0
 50
180.0
 51
270.0
  0
ARC
  8
15
  6
CONTINUOUS
 62
     3
 10
170.0
 20
-429.81423741043272
 40
30.0
 50
270.0
 51
0.0
  0
CIRCLE
  8
15
  6
CONTINUOUS
 62
     3
 10
170.0
 20
-429.81423741043272
 40
13.5
  0
LINE
  8
15
  6
CONTINUOUS
 62
     3
 10
200.0
 20
-429.81423741043272
 11
200.0
 21
-259.81423741043272
  0
ENDBLK
  8
15
  0
BLOCK
  8
15
  2
COMP4
 70
    64
 10
0.0
 20
0.0
  0
POLYLINE
  8
15
  6
CONTINUOUS
 62
     7
 66
     1
 70
     0
 40
0.0
 41
0.0
  0
VERTEX
  8
15
 10
413.77981567382812
 20
-113.75920104980469
  0
VERTEX
  8
15
 10
413.97967932547829
 20
-114.35544467141638
  0
VERTEX
  8
15
 10
414.22631471588085
 20
-114.932592908514
  0
VERTEX
  8
15
 10
414.5184349193587
 20
-115.48762731038089
  0
VERTEX
  8
15
 10
414.85436433147129
 20
-116.01735799055398
  0
VERTEX
  8
15
 10
415.23229191698738
 20
-116.51885884897489
  0
VERTEX
  8
15
 10
415.64966332246354
 20
-116.98867718771184
  0
VERTEX
  8
15
 10
416.10375806347173
 20
-117.42374918170019
  0
VERTEX
  8
15
 10
416.59150994781942
 20
-117.82113491735794
  0
VERTEX
  8
15
 10
417.10960614923931
 20
-118.1781342783985
  0
VERTEX
  8
15
 10
417.65451156024511
 20
-118.49230956593352
  0
VERTEX
  8
15
 10
418.22254301633546
 20
-118.76153897462009
  0
VERTEX
  8
15
 10
418.80999321687108
 20
-118.98406643093729
  0
VERTEX
  8
15
 10
419.41282822294397
 20
-119.15840430597598
  0
VERTEX
  8
15
 10
420.02772402098975
 20
-119.28363028080848
  0
VERTEX
  8
15
 10
420.65114182118504
 20
-119.3590266112808
  0
VERTEX
  8
15
 10
421.27981567382812
 20
-119.38420104980469
  0
VERTEX
  8
15
 10
421.90848952647121
 20
-119.3590266112808
  0
VERTEX
  8
15
 10
422.5319073266665
 20
-119.28363028080848
  0
VERTEX
  8
15
 10
423.14680312471228
 20
-119.15840430597598
  0
VERTEX
  8
15
 10
423.74963813078517
 20
-118.98406643093729
  0
VERTEX
  8
15
 10
424.33708833132079
 20
-118.76153897462009
  0
VERTEX
  8
15
 10
424.90511978741114
 20
-118.49230956593352
  0
VERTEX
  8
15
 10
425.45002519841694
 20
-118.1781342783985
  0
VERTEX
  8
15
 10
425.96812139983683
 20
-117.82113491735794
  0
VERTEX
  8
15
 10
426.45587328418452
 20
-117.42374918170019
  0
VERTEX
  8
15
 10
426.90996802519271
 20
-116.98867718771184
  0
VERTEX
  8
15
 10
427.32733943066887
 20
-116.51885884897489
  0
VERTEX
  8
15
 10
427.70526701618496
 20
-116.01735799055398
  0
VERTEX
  8
15
 10
428.04119642829755
 20
-115.4876273103809
  0
VERTEX
  8
15
 10
428.3333166317754
 20
-114.932592908514
  0
VERTEX
  8
15
 10
428.57995202217796
 20
-114.35544467141638
  0
VERTEX
  8
15
 10
428.77981567382812
 20
-113.75920104980469
  0
VERTEX
  8
15
 10
428.77981567382812
 20
-89.384201049804687
  0
VERTEX
  8
15
 10
423.15481567382812
 20
-89.384201049804687
  0
SEQEND
  8
15
  0
POLYLINE
  8
15
  6
CONTINUOUS
 62
     7
 66
     1
 70
     0
 40
0.0
 41
0.0
  0
VERTEX
  8
15
 10
438.15481567382812
 20
-119.38420104980469
  0
VERTEX
  8
15
 10
438.15481567382812
 20
-89.384201049804687
  0
VERTEX
  8
15
 10
445.65481567382812
 20
-109.07170104980469
  0
VERTEX
  8
15
 10
453.15481567382812
 20
-89.384201049804687
  0
VERTEX
  8
15
 10
453.15481567382812
 20
-119.38420104980469
  0
SEQEND
  8
15
  0
POLYLINE
  8
15
  6
CONTINUOUS
 62
     7
 66
     1
 70
     0
 40
0.0
 41
0.0
  0
VERTEX
  8
15
 10
462.52981567382812
 20
-119.38420104980469
  0
VERTEX
  8
15
 10
470.96731567382812
 20
-119.38420104980469
  0
VERTEX
  8
15
 10
471.6377108287993
 20
-119.26405070350506
  0
VERTEX
  8
15
 10
472.29261629124602
 20
-119.08488241984861
  0
VERTEX
  8
15
 10
472.92797950653551
 20
-118.84779984345015
  0
VERTEX
  8
15
 10
473.53938880404354
 20
-118.55444378333533
  0
VERTEX
  8
15
 10
474.12281441778509
 20
-118.20667083985883
  0
VERTEX
  8
15
 10
474.67320061212047
 20
-117.80741328142568
  0
VERTEX
  8
15
 10
475.18607445831191
 20
-117.35991349522631
  0
VERTEX
  8
15
 10
475.65707749352492
 20
-116.86797045007468
  0
VERTEX
  8
15
 10
476.08218092752179
 20
-116.33578905161038
  0
VERTEX
  8
15
 10
476.45772099943389
 20
-115.76795056609835
  0
VERTEX
  8
15
 10
476.78050782482313
 20
-115.16928360419728
  0
VERTEX
  8
15
 10
477.04791666097901
 20
-114.54466013179049
  0
VERTEX
  8
15
 10
477.25770790263783
 20
-113.89948822368082
  0
VERTEX
  8
15
 10
477.40857041687156
 20
-113.23802298582129
  0
VERTEX
  8
15
 10
477.49945937119253
 20
-112.56486821329953
  0
VERTEX
  8
15
 10
477.52981567382812
 20
-111.88420104980469
  0
VERTEX
  8
15
 10
477.49945937119253
 20
-111.20353388630984
  0
VERTEX
  8
15
 10
477.40857041687156
 20
-110.53037911378809
  0
VERTEX
  8
15
 10
477.25770790263783
 20
-109.86891387592856
  0
VERTEX
  8
15
 10
477.04791666097901
 20
-109.22374196781888
  0
VERTEX
  8
15
 10
476.78050782482313
 20
-108.5991184954121
  0
VERTEX
  8
15
 10
476.45772099943389
 20
-108.00045153351103
  0
VERTEX
  8
15
 10
476.08218092752179
 20
-107.432613047999
  0
VERTEX
  8
15
 10
475.65707749352492
 20
-106.9004316495347
  0
VERTEX
  8
15
 10
475.18607445831191
 20
-106.40848860438307
  0
VERTEX
  8
15
 10
474.67320061212047
 20
-105.96098881818369
  0
VERTEX
  8
15
 10
474.12281441778509
 20
-105.56173125975056
  0
VERTEX
  8
15
 10
473.53938880404354
 20
-105.21395831627405
  0
VERTEX
  8
15
 10
472.92797950653551
 20
-104.92060225615923
  0
VERTEX
  8
15
 10
472.29261629124602
 20
-104.68351967976076
  0
VERTEX
  8
15
 10
471.6377108287993
 20
-104.50435139610431
  0
VERTEX
  8
15
 10
470.96731567382812
 20
-104.38420104980469
  0
VERTEX
  8
15
 10
471.6377108287993
 20
-104.26405070350506
  0
VERTEX
  8
15
 10
472.29261629124602
 20
-104.08488241984861
  0
VERTEX
  8
15
 10
472.92797950653551
 20
-103.84779984345015
  0
VERTEX
  8
15
 10
473.53938880404354
 20
-103.55444378333533
  0
VERTEX
  8
15
 10
474.12281441778509
 20
-103.20667083985883
  0
VERTEX
  8
15
 10
474.67320061212047
 20
-102.80741328142568
  0
VERTEX
  8
15
 10
475.18607445831191
 20
-102.35991349522631
  0
VERTEX
  8
15
 10
475.65707749352492
 20
-101.86797045007468
  0
VERTEX
  8
15
 10
476.08218092752179
 20
-101.33578905161038
  0
VERTEX
  8
15
 10
476.45772099943389
 20
-100.76795056609835
  0
VERTEX
  8
15
 10
476.78050782482313
 20
-100.16928360419728
  0
VERTEX
  8
15
 10
477.04791666097901
 20
-99.544660131790494
  0
VERTEX
  8
15
 10
477.25770790263783
 20
-98.899488223680819
  0
VERTEX
  8
15
 10
477.40857041687156
 20
-98.238022985821289
  0
VERTEX
  8
15
 10
477.49945937119253
 20
-97.564868213299533
  0
VERTEX
  8
15
 10
477.52981567382812
 20
-96.884201049804688
  0
VERTEX
  8
15
 10
477.49945937119253
 20
-96.203533886309842
  0
VERTEX
  8
15
 10
477.40857041687156
 20
-95.530379113788086
  0
VERTEX
  8
15
 10
477.25770790263783
 20
-94.868913875928556
  0
VERTEX
  8
15
 10
477.04791666097901
 20
-94.223741967818881
  0
VERTEX
  8
15
 10
476.78050782482313
 20
-93.5991184954121
  0
VERTEX
  8
15
 10
476.45772099943389
 20
-93.000451533511026
  0
VERTEX
  8
15
 10
476.08218092752179
 20
-92.432613047998998
  0
VERTEX
  8
15
 10
475.65707749352492
 20
-91.900431649534696
  0
VERTEX
  8
15
 10
475.18607445831191
 20
-91.408488604383066
  0
VERTEX
  8
15
 10
474.67320061212047
 20
-90.960988818183694
  0
VERTEX
  8
15
 10
474.12281441778509
 20
-90.561731259750559
  0
VERTEX
  8
15
 10
473.53938880404354
 20
-90.213958316274045
  0
VERTEX
  8
15
 10
472.92797950653551
 20
-89.920602256159228
  0
VERTEX
  8
15
 10
472.29261629124602
 20
-89.683519679760764
  0
VERTEX
  8
15
 10
471.6377108287993
 20
-89.504351396104312
  0
VERTEX
  8
15
 10
470.96731567382812
 20
-89.384201049804687
  0
VERTEX
  8
15
 10
462.52981567382812
 20
-89.384201049804687
  0
VERTEX
  8
15
 10
462.52981567382812
 20
-119.38420104980469
  0
SEQEND
  8
15
  0
POLYLINE
  8
15
  6
CONTINUOUS
 62
     7
 66
     1
 70
     0
 40
0.0
 41
0.0
  0
VERTEX
  8
15
 10
462.52981567382812
 20
-104.38420104980469
  0
VERTEX
  8
15
 10
470.96731567382812
 20
-104.38420104980469
  0
SEQEND
  8
15
  0
POLYLINE
  8
15
  6
CONTINUOUS
 62
     7
 66
     1
 70
     0
 40
0.0
 41
0.0
  0
VERTEX
  8
15
 10
428.77981567382812
 20
-143.75920104980469
  0
VERTEX
  8
15
 10
428.60485163581961
 20
-143.14754089691507
  0
VERTEX
  8
15
 10
428.37841227993681
 20
-142.5547956837207
  0
VERTEX
  8
15
 10
428.10181674643042
 20
-141.98442916533659
  0
VERTEX
  8
15
 10
427.77685971549943
 20
-141.4401512707858
  0
VERTEX
  8
15
 10
427.40549710995617
 20
-140.92534240275978
  0
VERTEX
  8
15
 10
426.99063092791852
 20
-140.44411780925958
  0
VERTEX
  8
15
 10
426.53537900856696
 20
-140.00009621786657
  0
VERTEX
  8
15
 10
426.04330444335937
 20
-139.59675598144531
  0
VERTEX
  8
15
 10
425.5182955174144
 20
-139.23728359950215
  0
VERTEX
  8
15
 10
424.964500158965
 20
-138.92451973254444
  0
VERTEX
  8
15
 10
424.38625575597678
 20
-138.66091138727521
  0
VERTEX
  8
15
 10
423.7879100818555
 20
-138.44843904555285
  0
VERTEX
  8
15
 10
423.17422754547914
 20
-138.28873726462328
  0
VERTEX
  8
15
 10
422.54900218734343
 20
-138.18273811427571
  0
VERTEX
  8
15
 10
421.91629952673412
 20
-138.13112681510077
  0
VERTEX
  8
15
 10
421.27981567382812
 20
-138.13420104980469
  0
VERTEX
  8
15
 10
420.56940098486177
 20
-138.05940950820539
  0
VERTEX
  8
15
 10
419.8598260169976
 20
-138.06235917817023
  0
VERTEX
  8
15
 10
419.15688777202081
 20
-138.14303816331937
  0
VERTEX
  8
15
 10
418.46734431996629
 20
-138.30068288661718
  0
VERTEX
  8
15
 10
417.79727173192344
 20
-138.53409557347712
  0
VERTEX
  8
15
 10
417.15550368834363
 20
-138.84039769114187
  0
VERTEX
  8
15
 10
416.54981881643312
 20
-139.21588276057372
  0
VERTEX
  8
15
 10
415.98806355685844
 20
-139.65569646387101
  0
VERTEX
  8
15
 10
415.47765262726483
 20
-140.15402092168264
  0
VERTEX
  8
15
 10
415.02524980997902
 20
-140.7043414647857
  0
VERTEX
  8
15
 10
414.63669860274246
 20
-141.29953635946549
  0
VERTEX
  8
15
 10
414.31669143049976
 20
-141.93240733184666
  0
VERTEX
  8
15
 10
414.06924108549902
 20
-142.59460112198289
  0
VERTEX
  8
15
 10
413.89632719810641
 20
-143.28028497123967
  0
VERTEX
  8
15
 10
413.79959381677492
 20
-143.98289047937138
  0
VERTEX
  8
15
 10
413.77981567382812
 20
-144.69670104980469
  0
VERTEX
  8
15
 10
413.77157398993785
 20
-145.48269258738299
  0
VERTEX
  8
15
 10
413.8398302473513
 20
-146.26222930616495
  0
VERTEX
  8
15
 10
413.98411369836901
 20
-147.02983985663678
  0
VERTEX
  8
15
 10
414.20327440689425
 20
-147.77936089176202
  0
VERTEX
  8
15
 10
414.49579256720142
 20
-148.50516176943734
  0
VERTEX
  8
15
 10
414.85875831983293
 20
-149.19969506683157
  0
VERTEX
  8
15
 10
415.28866190576576
 20
-149.85623746668759
  0
VERTEX
  8
15
 10
415.78111979609577
 20
-150.46808477410264
  0
VERTEX
  8
15
 10
416.33106160892299
 20
-151.02893352129689
  0
VERTEX
  8
15
 10
416.93279069650254
 20
-151.53296734086285
  0
VERTEX
  8
15
 10
417.58015774885422
 20
-151.97504221164209
  0
VERTEX
  8
15
 10
418.26688761700467
 20
-152.35087704547684
  0
VERTEX
  8
15
 10
418.98581630123374
 20
-152.65669015272991
  0
VERTEX
  8
15
 10
419.73151367688752
 20
-152.89030326299783
  0
VERTEX
  8
15
 10
420.4979782104935
 20
-153.04984501646874
  0
VERTEX
  8
15
 10
421.27981567382812
 20
-153.13420104980469
  0
VERTEX
  8
15
 10
422.00037622388521
 20
-153.21565232722645
  0
VERTEX
  8
15
 10
422.70849461915151
 20
-153.36061946992598
  0
VERTEX
  8
15
 10
423.39981007397847
 20
-153.56821492208019
  0
VERTEX
  8
15
 10
424.06955060656009
 20
-153.8370112133565
  0
VERTEX
  8
15
 10
424.71332949912835
 20
-154.1653255783601
  0
VERTEX
  8
15
 10
425.32561937250597
 20
-154.55042094478475
  0
VERTEX
  8
15
 10
425.90148230985756
 20
-154.98919395088291
  0
VERTEX
  8
15
 10
426.43606567382812
 20
-155.47795104980469
  0
VERTEX
  8
15
 10
426.92482277274991
 20
-156.01253441377526
  0
VERTEX
  8
15
 10
427.36359577884804
 20
-156.58839735112682
  0
VERTEX
  8
15
 10
427.74869114527263
 20
-157.20068722450435
  0
VERTEX
  8
15
 10
428.07700551027631
 20
-157.8444661170727
  0
VERTEX
  8
15
 10
428.34580180155262
 20
-158.51420664965428
  0
VERTEX
  8
15
 10
428.55339725370686
 20
-159.20552210448133
  0
VERTEX
  8
15
 10
428.69836439640636
 20
-159.91364049974774
  0
VERTEX
  8
15
 10
428.77981567382812
 20
-160.63420104980469
  0
VERTEX
  8
15
 10
428.84784507594838
 20
-161.37336251204306
  0
VERTEX
  8
15
 10
428.83311424935198
 20
-162.11000088922185
  0
VERTEX
  8
15
 10
428.7357328510696
 20
-162.83792757220996
  0
VERTEX
  8
15
 10
428.55665700315217
 20
-163.54989197349613
  0
VERTEX
  8
15
 10
428.29728722101964
 20
-164.23942924929395
  0
VERTEX
  8
15
 10
427.96099175863606
 20
-164.89696070291578
  0
VERTEX
  8
15
 10
427.5520408240456
 20
-165.51412259393189
  0
VERTEX
  8
15
 10
427.07600699987324
 20
-166.08248690801514
  0
VERTEX
  8
15
 10
426.53947344903338
 20
-166.59418987941271
  0
VERTEX
  8
15
 10
425.9498995361231
 20
-167.04210783327107
  0
VERTEX
  8
15
 10
425.31534245511324
 20
-167.42013205483647
  0
VERTEX
  8
15
 10
424.64388380349857
 20
-167.72345573362222
  0
VERTEX
  8
15
 10
423.94487572638036
 20
-167.94809487496741
  0
VERTEX
  8
15
 10
423.22469537971836
 20
-168.09222941508068
  0
VERTEX
  8
15
 10
422.49053121096301
 20
-168.15443470145826
  0
VERTEX
  8
15
 10
421.74856567382812
 20
-168.13420104980469
  0
SEQEND
  8
15
  0
POLYLINE
  8
15
  6
CONTINUOUS
 62
     7
 66
     1
 70
     0
 40
0.0
 41
0.0
  0
VERTEX
  8
15
 10
413.77981567382812
 20
-162.50920104980469
  0
VERTEX
  8
15
 10
414.03160459564106
 20
-163.14132759482143
  0
VERTEX
  8
15
 10
414.33273061803618
 20
-163.74999396623255
  0
VERTEX
  8
15
 10
414.68162215638824
 20
-164.33201689688985
  0
VERTEX
  8
15
 10
415.07627824166997
 20
-164.88405229761975
  0
VERTEX
  8
15
 10
415.51456700955401
 20
-165.40304853092522
  0
VERTEX
  8
15
 10
415.99352519037268
 20
-165.88543327202385
  0
VERTEX
  8
15
 10
416.51003343890295
 20
-166.32806336244457
  0
VERTEX
  8
15
 10
417.06060791015625
 20
-166.72795104980469
  0
VERTEX
  8
15
 10
417.64150466336935
 20
-167.08237751208881
  0
VERTEX
  8
15
 10
418.24877396993463
 20
-167.3889324583985
  0
VERTEX
  8
15
 10
418.87831775666268
 20
-167.64554902899766
  0
VERTEX
  8
15
 10
419.52603456650854
 20
-167.85055651417881
  0
VERTEX
  8
15
 10
420.18748665161047
 20
-168.00259322703795
  0
VERTEX
  8
15
 10
420.85903665933057
 20
-168.10086466042878
  0
VERTEX
  8
15
 10
421.53682750751636
 20
-168.14480953607165
  0
VERTEX
  8
15
 10
422.21731567382812
 20
-168.13420104980469
  0
SEQEND
  8
15
  0
POLYLINE
  8
15
  6
CONTINUOUS
 62
     7
 66
     1
 70
     0
 40
0.0
 41
0.0
  0
VERTEX
  8
15
 10
438.15481567382812
 20
-168.13420104980469
  0
VERTEX
  8
15
 10
438.15481567382812
 20
-138.13420104980469
  0
VERTEX
  8
15
 10
445.65481567382812
 20
-157.82170104980469
  0
VERTEX
  8
15
 10
453.15481567382812
 20
-138.13420104980469
  0
VERTEX
  8
15
 10
453.15481567382812
 20
-168.13420104980469
  0
SEQEND
  8
15
  0
POLYLINE
  8
15
  6
CONTINUOUS
 62
     7
 66
     1
 70
     0
 40
0.0
 41
0.0
  0
VERTEX
  8
15
 10
462.52981567382812
 20
-168.13420104980469
  0
VERTEX
  8
15
 10
470.96731567382812
 20
-168.13420104980469
  0
VERTEX
  8
15
 10
471.6377108287993
 20
-168.01405070350506
  0
VERTEX
  8
15
 10
472.29261629124602
 20
-167.83488241984861
  0
VERTEX
  8
15
 10
472.92797950653551
 20
-167.59779984345016
  0
VERTEX
  8
15
 10
473.53938880404354
 20
-167.30444378333533
  0
VERTEX
  8
15
 10
474.12281441778509
 20
-166.95667083985879
  0
VERTEX
  8
15
 10
474.67320061212041
 20
-166.55741328142571
  0
VERTEX
  8
15
 10
475.18607445831179
 20
-166.10991349522641
  0
VERTEX
  8
15
 10
475.65707749352492
 20
-165.61797045007469
  0
VERTEX
  8
15
 10
476.08218092752185
 20
-165.08578905161031
  0
VERTEX
  8
15
 10
476.45772099943389
 20
-164.51795056609834
  0
VERTEX
  8
15
 10
476.78050782482313
 20
-163.91928360419732
  0
VERTEX
  8
15
 10
477.04791666097901
 20
-163.29466013179049
  0
VERTEX
  8
15
 10
477.25770790263783
 20
-162.64948822368081
  0
VERTEX
  8
15
 10
477.40857041687156
 20
-161.98802298582129
  0
VERTEX
  8
15
 10
477.49945937119253
 20
-161.31486821329955
  0
VERTEX
  8
15
 10
477.52981567382812
 20
-160.63420104980469
  0
VERTEX
  8
15
 10
477.49945937119253
 20
-159.95353388630983
  0
VERTEX
  8
15
 10
477.40857041687156
 20
-159.28037911378809
  0
VERTEX
  8
15
 10
477.25770790263783
 20
-158.61891387592857
  0
VERTEX
  8
15
 10
477.04791666097901
 20
-157.97374196781888
  0
VERTEX
  8
15
 10
476.78050782482313
 20
-157.34911849541206
  0
VERTEX
  8
15
 10
476.45772099943389
 20
-156.75045153351104
  0
VERTEX
  8
15
 10
476.08218092752185
 20
-156.18261304799907
  0
VERTEX
  8
15
 10
475.65707749352492
 20
-155.65043164953468
  0
VERTEX
  8
15
 10
475.18607445831179
 20
-155.15848860438297
  0
VERTEX
  8
15
 10
474.67320061212041
 20
-154.71098881818367
  0
VERTEX
  8
15
 10
474.12281441778509
 20
-154.31173125975059
  0
VERTEX
  8
15
 10
473.53938880404354
 20
-153.96395831627405
  0
VERTEX
  8
15
 10
472.92797950653551
 20
-153.67060225615921
  0
VERTEX
  8
15
 10
472.29261629124602
 20
-153.43351967976076
  0
VERTEX
  8
15
 10
471.6377108287993
 20
-153.25435139610431
  0
VERTEX
  8
15
 10
470.96731567382812
 20
-153.13420104980469
  0
VERTEX
  8
15
 10
471.6377108287993
 20
-153.01405070350506
  0
VERTEX
  8
15
 10
472.29261629124602
 20
-152.83488241984861
  0
VERTEX
  8
15
 10
472.92797950653551
 20
-152.59779984345016
  0
VERTEX
  8
15
 10
473.53938880404354
 20
-152.30444378333533
  0
VERTEX
  8
15
 10
474.12281441778509
 20
-151.95667083985879
  0
VERTEX
  8
15
 10
474.67320061212041
 20
-151.55741328142571
  0
VERTEX
  8
15
 10
475.18607445831179
 20
-151.10991349522641
  0
VERTEX
  8
15
 10
475.65707749352492
 20
-150.61797045007469
  0
VERTEX
  8
15
 10
476.08218092752185
 20
-150.08578905161031
  0
VERTEX
  8
15
 10
476.45772099943389
 20
-149.51795056609834
  0
VERTEX
  8
15
 10
476.78050782482313
 20
-148.91928360419732
  0
VERTEX
  8
15
 10
477.04791666097901
 20
-148.29466013179049
  0
VERTEX
  8
15
 10
477.25770790263783
 20
-147.64948822368081
  0
VERTEX
  8
15
 10
477.40857041687156
 20
-146.98802298582129
  0
VERTEX
  8
15
 10
477.49945937119253
 20
-146.31486821329955
  0
VERTEX
  8
15
 10
477.52981567382812
 20
-145.63420104980469
  0
VERTEX
  8
15
 10
477.49945937119253
 20
-144.95353388630983
  0
VERTEX
  8
15
 10
477.40857041687156
 20
-144.28037911378809
  0
VERTEX
  8
15
 10
477.25770790263783
 20
-143.61891387592857
  0
VERTEX
  8
15
 10
477.04791666097901
 20
-142.97374196781888
  0
VERTEX
  8
15
 10
476.78050782482313
 20
-142.34911849541206
  0
VERTEX
  8
15
 10
476.45772099943389
 20
-141.75045153351104
  0
VERTEX
  8
15
 10
476.08218092752185
 20
-141.18261304799907
  0
VERTEX
  8
15
 10
475.65707749352492
 20
-140.65043164953468
  0
VERTEX
  8
15
 10
475.18607445831179
 20
-140.15848860438297
  0
VERTEX
  8
15
 10
474.67320061212041
 20
-139.71098881818367
  0
VERTEX
  8
15
 10
474.12281441778509
 20
-139.31173125975059
  0
VERTEX
  8
15
 10
473.53938880404354
 20
-138.96395831627405
  0
VERTEX
  8
15
 10
472.92797950653551
 20
-138.67060225615921
  0
VERTEX
  8
15
 10
472.29261629124602
 20
-138.43351967976076
  0
VERTEX
  8
15
 10
471.6377108287993
 20
-138.25435139610431
  0
VERTEX
  8
15
 10
470.96731567382812
 20
-138.13420104980469
  0
VERTEX
  8
15
 10
462.52981567382812
 20
-138.13420104980469
  0
VERTEX
  8
15
 10
462.52981567382812
 20
-168.13420104980469
  0
SEQEND
  8
15
  0
POLYLINE
  8
15
  6
CONTINUOUS
 62
     7
 66
     1
 70
     0
 40
0.0
 41
0.0
  0
VERTEX
  8
15
 10
462.52981567382812
 20
-153.13420104980469
  0
VERTEX
  8
15
 10
470.96731567382812
 20
-153.13420104980469
  0
SEQEND
  8
15
  0
POLYLINE
  8
15
  6
CONTINUOUS
 62
     7
 66
     1
 70
     0
 40
0.0
 41
0.0
  0
VERTEX
  8
15
 10
487.37356567382812
 20
-153.13420104980469
  0
VERTEX
  8
15
 10
506.12356567382812
 20
-153.13420104980469
  0
SEQEND
  8
15
  0
POLYLINE
  8
15
  6
CONTINUOUS
 62
     7
 66
     1
 70
     0
 40
0.0
 41
0.0
  0
VERTEX
  8
15
 10
511.27981567382812
 20
-143.75920104980469
  0
VERTEX
  8
15
 10
515.96728515625
 20
-138.13420104980469
  0
VERTEX
  8
15
 10
521.59228515625
 20
-138.13420104980469
  0
VERTEX
  8
15
 10
526.27978515625
 20
-143.75920104980469
  0
VERTEX
  8
15
 10
526.27978515625
 20
-151.25920104980469
  0
VERTEX
  8
15
 10
511.27981567382812
 20
-164.38420104980469
  0
VERTEX
  8
15
 10
511.27981567382812
 20
-168.13420104980469
  0
VERTEX
  8
15
 10
526.27978515625
 20
-168.13420104980469
  0
SEQEND
  8
15
  0
POLYLINE
  8
15
  6
CONTINUOUS
 62
     7
 66
     1
 70
     0
 40
0.0
 41
0.0
  0
VERTEX
  8
15
 10
438.15481567382812
 20
-216.88420104980469
  0
VERTEX
  8
15
 10
446.59231567382812
 20
-216.88420104980469
  0
VERTEX
  8
15
 10
447.2627108287993
 20
-216.76405070350506
  0
VERTEX
  8
15
 10
447.91761629124602
 20
-216.58488241984861
  0
VERTEX
  8
15
 10
448.55297950653551
 20
-216.34779984345016
  0
VERTEX
  8
15
 10
449.16438880404354
 20
-216.05444378333533
  0
VERTEX
  8
15
 10
449.74781441778509
 20
-215.70667083985879
  0
VERTEX
  8
15
 10
450.29820061212041
 20
-215.30741328142571
  0
VERTEX
  8
15
 10
450.81107445831179
 20
-214.85991349522641
  0
VERTEX
  8
15
 10
451.28207749352492
 20
-214.36797045007469
  0
VERTEX
  8
15
 10
451.70718092752185
 20
-213.83578905161031
  0
VERTEX
  8
15
 10
452.08272099943389
 20
-213.26795056609834
  0
VERTEX
  8
15
 10
452.40550782482313
 20
-212.66928360419732
  0
VERTEX
  8
15
 10
452.67291666097901
 20
-212.04466013179049
  0
VERTEX
  8
15
 10
452.88270790263783
 20
-211.39948822368081
  0
VERTEX
  8
15
 10
453.03357041687156
 20
-210.73802298582129
  0
VERTEX
  8
15
 10
453.12445937119253
 20
-210.06486821329955
  0
VERTEX
  8
15
 10
453.15481567382812
 20
-209.38420104980469
  0
VERTEX
  8
15
 10
453.12445937119253
 20
-208.70353388630983
  0
VERTEX
  8
15
 10
453.03357041687156
 20
-208.03037911378809
  0
VERTEX
  8
15
 10
452.88270790263783
 20
-207.36891387592857
  0
VERTEX
  8
15
 10
452.67291666097901
 20
-206.72374196781888
  0
VERTEX
  8
15
 10
452.40550782482313
 20
-206.09911849541206
  0
VERTEX
  8
15
 10
452.08272099943389
 20
-205.50045153351104
  0
VERTEX
  8
15
 10
451.70718092752185
 20
-204.93261304799907
  0
VERTEX
  8
15
 10
451.28207749352492
 20
-204.40043164953468
  0
VERTEX
  8
15
 10
450.81107445831179
 20
-203.90848860438297
  0
VERTEX
  8
15
 10
450.29820061212041
 20
-203.46098881818367
  0
VERTEX
  8
15
 10
449.74781441778509
 20
-203.06173125975059
  0
VERTEX
  8
15
 10
449.16438880404354
 20
-202.71395831627405
  0
VERTEX
  8
15
 10
448.55297950653551
 20
-202.42060225615921
  0
VERTEX
  8
15
 10
447.91761629124602
 20
-202.18351967976076
  0
VERTEX
  8
15
 10
447.2627108287993
 20
-202.00435139610431
  0
VERTEX
  8
15
 10
446.59231567382812
 20
-201.88420104980469
  0
VERTEX
  8
15
 10
447.2627108287993
 20
-201.76405070350506
  0
VERTEX
  8
15
 10
447.91761629124602
 20
-201.58488241984861
  0
VERTEX
  8
15
 10
448.55297950653551
 20
-201.34779984345016
  0
VERTEX
  8
15
 10
449.16438880404354
 20
-201.05444378333533
  0
VERTEX
  8
15
 10
449.74781441778509
 20
-200.70667083985879
  0
VERTEX
  8
15
 10
450.29820061212041
 20
-200.30741328142571
  0
VERTEX
  8
15
 10
450.81107445831179
 20
-199.85991349522641
  0
VERTEX
  8
15
 10
451.28207749352492
 20
-199.36797045007469
  0
VERTEX
  8
15
 10
451.70718092752185
 20
-198.83578905161031
  0
VERTEX
  8
15
 10
452.08272099943389
 20
-198.26795056609834
  0
VERTEX
  8
15
 10
452.40550782482313
 20
-197.66928360419732
  0
VERTEX
  8
15
 10
452.67291666097901
 20
-197.04466013179049
  0
VERTEX
  8
15
 10
452.88270790263783
 20
-196.39948822368081
  0
VERTEX
  8
15
 10
453.03357041687156
 20
-195.73802298582129
  0
VERTEX
  8
15
 10
453.12445937119253
 20
-195.06486821329955
  0
VERTEX
  8
15
 10
453.15481567382812
 20
-194.38420104980469
  0
VERTEX
  8
15
 10
453.12445937119253
 20
-193.70353388630983
  0
VERTEX
  8
15
 10
453.03357041687156
 20
-193.03037911378809
  0
VERTEX
  8
15
 10
452.88270790263783
 20
-192.36891387592857
  0
VERTEX
  8
15
 10
452.67291666097901
 20
-191.72374196781888
  0
VERTEX
  8
15
 10
452.40550782482313
 20
-191.09911849541206
  0
VERTEX
  8
15
 10
452.08272099943389
 20
-190.50045153351104
  0
VERTEX
  8
15
 10
451.70718092752185
 20
-189.93261304799907
  0
VERTEX
  8
15
 10
451.28207749352492
 20
-189.40043164953468
  0
VERTEX
  8
15
 10
450.81107445831179
 20
-188.90848860438297
  0
VERTEX
  8
15
 10
450.29820061212041
 20
-188.46098881818367
  0
VERTEX
  8
15
 10
449.74781441778509
 20
-188.06173125975059
  0
VERTEX
  8
15
 10
449.16438880404354
 20
-187.71395831627405
  0
VERTEX
  8
15
 10
448.55297950653551
 20
-187.42060225615921
  0
VERTEX
  8
15
 10
447.91761629124602
 20
-187.18351967976076
  0
VERTEX
  8
15
 10
447.2627108287993
 20
-187.00435139610431
  0
VERTEX
  8
15
 10
446.59231567382812
 20
-186.88420104980469
  0
VERTEX
  8
15
 10
438.15481567382812
 20
-186.88420104980469
  0
VERTEX
  8
15
 10
438.15481567382812
 20
-216.88420104980469
  0
SEQEND
  8
15
  0
POLYLINE
  8
15
  6
CONTINUOUS
 62
     7
 66
     1
 70
     0
 40
0.0
 41
0.0
  0
VERTEX
  8
15
 10
438.15481567382812
 20
-201.88420104980469
  0
VERTEX
  8
15
 10
446.59231567382812
 20
-201.88420104980469
  0
SEQEND
  8
15
  0
POLYLINE
  8
15
  6
CONTINUOUS
 62
     7
 66
     1
 70
     0
 40
0.0
 41
0.0
  0
VERTEX
  8
15
 10
462.52981567382812
 20
-216.88420104980469
  0
VERTEX
  8
15
 10
470.02981567382812
 20
-186.88420104980469
  0
VERTEX
  8
15
 10
477.52981567382812
 20
-216.88420104980469
  0
SEQEND
  8
15
  0
POLYLINE
  8
15
  6
CONTINUOUS
 62
     7
 66
     1
 70
     0
 40
0.0
 41
0.0
  0
VERTEX
  8
15
 10
475.18606567382812
 20
-207.50920104980469
  0
VERTEX
  8
15
 10
464.87356567382812
 20
-207.50920104980469
  0
SEQEND
  8
15
  0
ENDBLK
  8
15
  0
ENDSEC
  0
SECTION
  2
ENTITIES
  0
LINE
  8
15
  6
CENTER
 62
     3
 10
0.0
 20
-15.0
 11
0.0
 21
615.0
  0
INSERT
  8
15
  6
CONTINUOUS
 62
     3
  2
COMP1
 10
0.0
 20
0.0
 41
1.0
 42
1.0
 50
0.0
  0
LINE
  8
15
  6
CENTER
 62
     3
 10
515.46552750521641
 20
-15.0
 11
515.46552750521641
 21
615.0
  0
INSERT
  8
15
  6
CONTINUOUS
 62
     3
  2
COMP2
 10
0.0
 20
0.0
 41
1.0
 42
1.0
 50
0.0
  0
LINE
  8
15
  6
CENTER
 62
     3
 10
-215.0
 20
-259.81423741043272
 11
215.0
 21
-259.81423741043272
  0
LINE
  8
15
  6
CENTER
 62
     3
 10
0.0
 20
-474.81423741043272
 11
0.0
 21
-244.81423741043272
  0
LINE
  8
15
  6
CENTER
 62
     3
 10
146.5
 20
-429.81423741043272
 11
193.5
 21
-429.81423741043272
  0
LINE
  8
15
  6
CENTER
 62
     3
 10
170.0
 20
-453.31423741043272
 11
170.0
 21
-406.31423741043272
  0
CIRCLE
  8
15
  6
CONTINUOUS
 62
     3
 10
170.0
 20
-429.81423741043272
 40
13.5
  0
LINE
  8
15
  6
CENTER
 62
     3
 10
-146.5
 20
-429.81423741043272
 11
-193.5
 21
-429.81423741043272
  0
LINE
  8
15
  6
CENTER
 62
     3
 10
-170.0
 20
-453.31423741043272
 11
-170.0
 21
-406.31423741043272
  0
INSERT
  8
15
  6
CONTINUOUS
 62
     3
  2
COMP3
 10
0.0
 20
0.0
 41
1.0
 42
1.0
 50
0.0
  0
INSERT
  8
15
  6
CONTINUOUS
 62
     7
  2
COMP4
 10
0.0
 20
0.0
 41
1.0
 42
1.0
 50
0.0
  0
ENDSEC
  0
EOF
