  0
SECTION
  2
HEADER
  9
$ACADVER
  1
AC1006
  9
$INSBASE
 10
0.0
 20
0.0
 30
0.0
  9
$EXTMIN
 10
-255.0
 20
-380.15465399047253
  9
$EXTMAX
 10
862.63417329817707
 20
615.0
  9
$LIMMIN
 10
-255.0
 20
-380.15465399047253
  9
$LIMMAX
 10
862.63417329817707
 20
615.0
  9
$ORTHOMODE
 70
     0
  9
$REGENMODE
 70
     1
  9
$FILLMODE
 70
     1
  9
$QTEXTMODE
 70
     0
  9
$MIRRTEXT
 70
     1
  9
$DRAGMODE
 70
     2
  9
$LTSCALE
 40
1.0
  9
$OSMODE
 70
     0
  9
$ATTMODE
 70
     1
  9
$TEXTSIZE
 40
3.0
  9
$TRACEWID
 40
0.5
  9
$TEXTSTYLE
  7
STANDARD
  9
$CLAYER
  8
0
  9
$CELTYPE
  6
BYLAYER
  9
$CECOLOR
 62
   256
  9
$DIMSCALE
 40
1.0
  9
$DIMASZ
 40
3.0
  9
$DIMEXO
 40
1.0
  9
$DIMDLI
 40
5.0
  9
$DIMRND
 40
0.0
  9
$DIMDLE
 40
0.0
  9
$DIMEXE
 40
1.5
  9
$DIMTP
 40
0.0
  9
$DIMTM
 40
0.0
  9
$DIMTXT
 40
3.0
  9
$DIMCEN
 40
2.0
  9
$DIMTSZ
 40
0.0
  9
$DIMTOL
 70
     0
  9
$DIMLIM
 70
     0
  9
$DIMTIH
 70
     0
  9
$DIMTOH
 70
     0
  9
$DIMSE1
 70
     0
  9
$DIMSE2
 70
     0
  9
$DIMTAD
 70
     1
  9
$DIMZIN
 70
     8
  9
$DIMBLK
  1

  9
$DIMASO
 70
     1
  9
$DIMSHO
 70
     0
  9
$DIMPOST
  1

  9
$DIMAPOST
  1

  9
$DIMALT
 70
     0
  9
$DIMALTD
 70
     0
  9
$DIMALTF
 40
25.399999999999999
  9
$DIMLFAC
 40
1.0
  9
$DIMTOFL
 70
     0
  9
$DIMTVP
 40
1.0
  9
$DIMTIX
 70
     0
  9
$DIMSOXD
 70
     0
  9
$DIMSAH
 70
     0
  9
$DIMBLK1
  1

  9
$DIMBLK2
  1

  9
$LUNITS
 70
     2
  9
$LUPREC
 70
     4
  9
$AXISMODE
 70
     0
  9
$AXISUNIT
 10
0.0
 20
0.0
  9
$SKETCHINC
 40
1.0
  9
$FILLETRAD
 40
0.0
  9
$AUNITS
 70
     0
  9
$AUPREC
 70
     0
  9
$MENU
  1
acad
  9
$ELEVATION
 40
0.0
  9
$THICKNESS
 40
0.0
  9
$LIMCHECK
 70
     0
  9
$BLIPMODE
 70
     1
  9
$CHAMFERA
 40
0.0
  9
$CHAMFERB
 40
0.0
  9
$SKPOLY
 70
     0
  9
$TDCREATE
 40
2452685.782199074
  9
$TDUPDATE
 40
2452685.782199074
  9
$TDINDWG
 40
0.0
  9
$TDUSRTIMER
 40
0.0
  9
$USRTIMER
 70
     1
  9
$ANGBASE
 50
0.0
  9
$ANGDIR
 70
     0
  9
$PDMODE
 70
     0
  9
$PDSIZE
 40
0.0
  9
$PLINEWID
 40
0.0
  9
$COORDS
 70
     0
  9
$SPLFRAME
 70
     0
  9
$SPLINETYPE
 70
     6
  9
$SPLINESEGS
 70
     8
  9
$ATTDIA
 70
     0
  9
$ATTREQ
 70
     1
  9
$HANDLING
 70
     0
  9
$HANDSEED
  5
0
  9
$SURFTAB1
 70
     6
  9
$SURFTAB2
 70
     6
  9
$SURFTYPE
 70
     6
  9
$SURFU
 70
     6
  9
$SURFV
 70
     6
  9
$FLATLAND
 70
     0
  9
$UCSNAME
  2

  9
$UCSORG
 10
0.0
 20
0.0
 30
0.0
  9
$UCSXDIR
 10
1.0
 20
0.0
 30
0.0
  9
$UCSYDIR
 10
0.0
 20
1.0
 30
0.0
  9
$USERI1
 70
     0
  9
$USERI2
 70
     0
  9
$USERI3
 70
     0
  9
$USERI4
 70
     0
  9
$USERI5
 70
     0
  9
$USERR1
 40
0.0
  9
$USERR2
 40
0.0
  9
$USERR3
 40
0.0
  9
$USERR4
 40
0.0
  9
$USERR5
 40
0.0
  9
$WORLDVIEW
 70
     1
  0
ENDSEC
  0
SECTION
  2
TABLES
  0
TABLE
  2
VPORT
 70
     1
  0
VPORT
  2
*ACTIVE
 70
     0
 10
0.0
 20
0.0
 11
1.0
 21
1.0
 12
303.81708664908854
 22
117.42267300476374
 13
0.0
 23
0.0
 14
0.0
 24
0.0
 15
0.0
 25
0.0
 16
0.0
 26
0.0
 36
1.0
 17
0.0
 27
0.0
 37
0.0
 40
995.15465399047253
 41
1.5
 42
50.0
 43
0.0
 44
0.0
 50
0.0
 51
0.0
 71
     0
 72
   100
 73
     1
 74
     1
 75
     0
 76
     0
 77
     0
 78
     0
  0
ENDTAB
  0
TABLE
  2
LTYPE
 70
    20
  0
LTYPE
  2
CONTINUOUS
 70
    64
  3
solid line
 72
    65
 73
     0
 40
0.0
  0
LTYPE
  2
CENTER
 70
    64
  3
--- - --- - --- - --- - --- -
 72
    65
 73
     4
 40
6.0
 49
3.0
 49
-1.0
 49
1.0
 49
-1.0
  0
ENDTAB
  0
TABLE
  2
LAYER
 70
    20
  0
LAYER
  2
0
 70
    64
 62
     7
  6
CONTINUOUS
  0
LAYER
  2
15
 70
    64
 62
     7
  6
CONTINUOUS
  0
ENDTAB
  0
TABLE
  2
STYLE
 70
     4
  0
ENDTAB
  0
TABLE
  2
VIEW
 70
     0
  0
ENDTAB
  0
TABLE
  2
UCS
 70
     0
  0
ENDTAB
  0
TABLE
  2
DWGMGR
 70
     0
  0
ENDTAB
  0
ENDSEC
  0
SECTION
  2
BLOCKS
  0
BLOCK
  8
15
  2
COMP1
 70
    64
 10
0.0
 20
0.0
  0
LINE
  8
15
  6
CONTINUOUS
 62
     3
 10
-203.0
 20
600.0
 11
203.0
 21
600.0
  0
LINE
  8
15
  6
CONTINUOUS
 62
     3
 10
-235.0
 20
36.0
 11
235.0
 21
36.0
  0
LINE
  8
15
  6
CONTINUOUS
 62
     3
 10
-235.0
 20
0.0
 11
235.0
 21
0.0
  0
LINE
  8
15
  6
CONTINUOUS
 62
     3
 10
126.82429291625434
 20
554.17833805065504
 11
125.27587510099409
 21
450.0
  0
ARC
  8
15
  6
CONTINUOUS
 62
     3
 10
138.82296765722839
 20
554.0
 40
12.000000000000009
 50
90.0
 51
179.14846718341022
  0
LINE
  8
15
  6
CONTINUOUS
 62
     3
 10
203.0
 20
569.0
 11
203.0
 21
600.0
  0
ARC
  8
15
  6
CONTINUOUS
 62
     3
 10
200.0
 20
569.0
 40
3.0
 50
270.0
 51
0.0
  0
LINE
  8
15
  6
CONTINUOUS
 62
     3
 10
-200.0
 20
566.0
 11
200.0
 21
566.0
  0
LINE
  8
15
  6
CONTINUOUS
 62
     3
 10
235.0
 20
0.0
 11
235.0
 21
34.377777732679988
  0
ARC
  8
15
  6
CONTINUOUS
 62
     3
 10
232.0
 20
34.377777732679988
 40
3.0
 50
0.0
 51
77.995291689467308
  0
LINE
  8
15
  6
CONTINUOUS
 62
     3
 10
142.61910293331124
 20
370.51183080108194
 11
194.99999999999994
 21
566.0
  0
ARC
  8
15
  6
CONTINUOUS
 62
     3
 10
186.08576511631929
 20
358.8649737714685
 40
44.999999999999979
 50
165.0
 51
189.4623222080256
  0
LINE
  8
15
  6
CONTINUOUS
 62
     3
 10
190.0
 20
80.0
 11
190.0
 21
280.0
  0
LINE
  8
15
  6
CONTINUOUS
 62
     3
 10
203.80000000000001
 20
80.0
 11
203.80000000000001
 21
280.0
  0
LINE
  8
15
  6
CONTINUOUS
 62
     3
 10
190.80000000000001
 20
80.0
 11
190.80000000000001
 21
280.0
  0
ARC
  8
15
  6
CONTINUOUS
 62
     3
 10
170.55175020198814
 20
300.0
 40
19.999999999999993
 50
189.46232220802551
 51
270.0
  0
LINE
  8
15
  6
CONTINUOUS
 62
     3
 10
125.27587510099409
 20
450.0
 11
150.82387172534527
 21
296.71202025389289
  0
ARC
  8
15
  6
CONTINUOUS
 62
     3
 10
245.10350040397628
 20
96.0
 40
60.000000000000057
 50
195.46600995342052
 51
257.99529168946702
  0
LINE
  8
15
  6
CONTINUOUS
 62
     3
 10
131.13271489533281
 20
280.0
 11
203.80000000000001
 21
280.0
  0
LINE
  8
15
  6
CONTINUOUS
 62
     3
 10
168.96009565146909
 20
80.0
 11
203.80000000000001
 21
80.0
  0
LINE
  8
15
  6
CONTINUOUS
 62
     3
 10
132.07839941423623
 20
275.0
 11
168.01441113256567
 21
85.0
  0
ARC
  8
15
  6
CONTINUOUS
 62
     3
 10
21.0
 20
554.0
 40
12.0
 50
90.0
 51
180.0
  0
LINE
  8
15
  6
CONTINUOUS
 62
     3
 10
9.0
 20
361.08925786276666
 11
9.0
 21
554.0
  0
ARC
  8
15
  6
CONTINUOUS
 62
     3
 10
-21.0
 20
554.0
 40
12.0
 50
0.0
 51
90.0
  0
LINE
  8
15
  6
CONTINUOUS
 62
     3
 10
-9.0
 20
361.08925786276666
 11
-9.0
 21
554.0
  0
LINE
  8
15
  6
CONTINUOUS
 62
     3
 10
-185.91986497404764
 20
86.13606076167855
 11
-125.27587510099406
 21
450.0
  0
LINE
  8
15
  6
CONTINUOUS
 62
     3
 10
-126.82429291625434
 20
554.17833805065504
 11
-125.27587510099406
 21
450.0
  0
ARC
  8
15
  6
CONTINUOUS
 62
     3
 10
-138.82296765722839
 20
554.0
 40
12.000000000000009
 50
0.8515328165897964
 51
90.0
  0
LINE
  8
15
  6
CONTINUOUS
 62
     3
 10
-203.0
 20
569.0
 11
-203.0
 21
600.0
  0
ARC
  8
15
  6
CONTINUOUS
 62
     3
 10
-200.0
 20
569.0
 40
3.0
 50
180.0
 51
270.0
  0
ARC
  8
15
  6
CONTINUOUS
 62
     3
 10
-245.10350040397626
 20
96.0
 40
59.999999999999993
 50
282.00470831053292
 51
350.53767779197437
  0
LINE
  8
15
  6
CONTINUOUS
 62
     3
 10
-235.0
 20
0.0
 11
-235.0
 21
34.377777732679988
  0
ARC
  8
15
  6
CONTINUOUS
 62
     3
 10
-232.0
 20
34.377777732679988
 40
3.0
 50
102.00470831053323
 51
180.0
  0
LINE
  8
15
  6
CONTINUOUS
 62
     3
 10
-142.61910293331121
 20
370.51183080108194
 11
-194.99999999999994
 21
566.0
  0
ARC
  8
15
  6
CONTINUOUS
 62
     3
 10
-186.08576511631929
 20
358.8649737714685
 40
45.000000000000014
 50
350.53767779197432
 51
15.000000000000009
  0
ENDBLK
  8
15
  0
BLOCK
  8
15
  2
COMP2
 70
    64
 10
0.0
 20
0.0
  0
LINE
  8
15
  6
CONTINUOUS
 62
     3
 10
424.63417329817707
 20
600.0
 11
830.63417329817707
 21
600.0
  0
LINE
  8
15
  6
CONTINUOUS
 62
     3
 10
392.63417329817707
 20
36.0
 11
862.63417329817707
 21
36.0
  0
LINE
  8
15
  6
CONTINUOUS
 62
     3
 10
392.63417329817707
 20
0.0
 11
862.63417329817707
 21
0.0
  0
ARC
  8
15
  6
CONTINUOUS
 62
     3
 10
606.63417329817707
 20
554.0
 40
12.0
 50
0.0
 51
90.0
  0
LINE
  8
15
  6
CONTINUOUS
 62
     3
 10
427.63417329817707
 20
566.0
 11
827.63417329817707
 21
566.0
  0
LINE
  8
15
  6
CONTINUOUS
 62
     3
 10
618.63417329817707
 20
361.08925786276666
 11
618.63417329817707
 21
554.0
  0
LINE
  8
15
  6
CONTINUOUS
 62
     3
 10
559.63417329817707
 20
280.0
 11
695.63417329817707
 21
280.0
  0
LINE
  8
15
  6
CONTINUOUS
 62
     3
 10
559.63417329817707
 20
80.0
 11
695.63417329817707
 21
80.0
  0
LINE
  8
15
  6
CONTINUOUS
 62
     3
 10
441.71430832412943
 20
86.13606076167855
 11
502.35829819718299
 21
450.0
  0
LINE
  8
15
  6
CONTINUOUS
 62
     3
 10
500.80988038192277
 20
554.17833805065504
 11
502.35829819718299
 21
450.0
  0
ARC
  8
15
  6
CONTINUOUS
 62
     3
 10
488.81120564094869
 20
554.0
 40
12.000000000000009
 50
0.8515328165897943
 51
90.0
  0
LINE
  8
15
  6
CONTINUOUS
 62
     3
 10
424.63417329817707
 20
569.0
 11
424.63417329817707
 21
600.0
  0
ARC
  8
15
  6
CONTINUOUS
 62
     3
 10
427.63417329817707
 20
569.0
 40
3.0
 50
180.0
 51
270.0
  0
ARC
  8
15
  6
CONTINUOUS
 62
     3
 10
382.53067289420085
 20
96.0
 40
59.999999999999993
 50
282.00470831053286
 51
350.53767779197437
  0
LINE
  8
15
  6
CONTINUOUS
 62
     3
 10
392.63417329817707
 20
0.0
 11
392.63417329817707
 21
34.377777732679988
  0
ARC
  8
15
  6
CONTINUOUS
 62
     3
 10
395.63417329817707
 20
34.377777732679988
 40
3.0
 50
102.00470831053376
 51
180.0
  0
LINE
  8
15
  6
CONTINUOUS
 62
     3
 10
485.01507036486589
 20
370.51183080108194
 11
432.63417329817713
 21
566.0
  0
ARC
  8
15
  6
CONTINUOUS
 62
     3
 10
441.54840818185778
 20
358.8649737714685
 40
45.000000000000014
 50
350.53767779197432
 51
14.999999999999998
  0
ARC
  8
15
  6
CONTINUOUS
 62
     3
 10
559.63417329817707
 20
268.0
 40
12.0
 50
90.0
 51
180.0
  0
LINE
  8
15
  6
CONTINUOUS
 62
     3
 10
547.63417329817707
 20
92.0
 11
547.63417329817707
 21
268.0
  0
ARC
  8
15
  6
CONTINUOUS
 62
     3
 10
559.63417329817707
 20
92.0
 40
12.0
 50
180.0
 51
270.0
  0
ARC
  8
15
  6
CONTINUOUS
 62
     3
 10
648.63417329817707
 20
554.0
 40
12.0
 50
90.0
 51
180.0
  0
LINE
  8
15
  6
CONTINUOUS
 62
     3
 10
636.63417329817707
 20
361.08925786276666
 11
636.63417329817707
 21
554.0
  0
ARC
  8
15
  6
CONTINUOUS
 62
     3
 10
695.63417329817707
 20
268.0
 40
12.0
 50
0.0
 51
90.0
  0
LINE
  8
15
  6
CONTINUOUS
 62
     3
 10
707.63417329817707
 20
92.0
 11
707.63417329817707
 21
268.0
  0
ARC
  8
15
  6
CONTINUOUS
 62
     3
 10
695.63417329817707
 20
92.0
 40
12.0
 50
270.0
 51
0.0
  0
LINE
  8
15
  6
CONTINUOUS
 62
     3
 10
752.91004839917116
 20
450.0
 11
813.55403827222472
 21
86.13606076167855
  0
LINE
  8
15
  6
CONTINUOUS
 62
     3
 10
754.45846621443138
 20
554.17833805065504
 11
752.91004839917116
 21
450.0
  0
ARC
  8
15
  6
CONTINUOUS
 62
     3
 10
766.45714095540552
 20
554.0
 40
12.000000000000009
 50
90.0
 51
179.14846718341022
  0
LINE
  8
15
  6
CONTINUOUS
 62
     3
 10
830.63417329817707
 20
569.0
 11
830.63417329817707
 21
600.0
  0
ARC
  8
15
  6
CONTINUOUS
 62
     3
 10
827.63417329817707
 20
569.0
 40
3.0
 50
270.0
 51
0.0
  0
ARC
  8
15
  6
CONTINUOUS
 62
     3
 10
872.73767370215342
 20
96.0
 40
60.000000000000021
 50
189.46232220802563
 51
257.99529168946702
  0
LINE
  8
15
  6
CONTINUOUS
 62
     3
 10
862.63417329817707
 20
0.0
 11
862.63417329817707
 21
34.377777732679988
  0
ARC
  8
15
  6
CONTINUOUS
 62
     3
 10
859.63417329817707
 20
34.377777732679988
 40
3.0
 50
0.0
 51
77.995291689466242
  0
LINE
  8
15
  6
CONTINUOUS
 62
     3
 10
770.25327623148837
 20
370.51183080108194
 11
822.63417329817707
 21
566.0
  0
ARC
  8
15
  6
CONTINUOUS
 62
     3
 10
813.71993841449637
 20
358.8649737714685
 40
44.999999999999979
 50
164.99999999999997
 51
189.4623222080256
  0
ENDBLK
  8
15
  0
BLOCK
  8
15
  2
COMP3
 70
    64
 10
0.0
 20
0.0
  0
LINE
  8
15
  6
CONTINUOUS
 62
     3
 10
235.0
 20
-320.15465399047253
 11
235.0
 21
-125.15465399047253
  0
ARC
  8
15
  6
CONTINUOUS
 62
     3
 10
0.0
 20
-125.15465399047253
 40
205.0
 50
180.0
 51
0.0
  0
LINE
  8
15
  6
CONTINUOUS
 62
     3
 10
-195.0
 20
-360.15465399047253
 11
195.0
 21
-360.15465399047253
  0
CIRCLE
  8
15
  6
CONTINUOUS
 62
     3
 10
195.0
 20
-320.15465399047253
 40
16.5
  0
ARC
  8
15
  6
CONTINUOUS
 62
     3
 10
195.0
 20
-320.15465399047253
 40
40.0
 50
270.0
 51
0.0
  0
CIRCLE
  8
15
  6
CONTINUOUS
 62
     3
 10
-195.0
 20
-320.15465399047253
 40
16.5
  0
ARC
  8
15
  6
CONTINUOUS
 62
     3
 10
-195.0
 20
-320.15465399047253
 40
40.0
 50
180.0
 51
270.0
  0
LINE
  8
15
  6
CONTINUOUS
 62
     3
 10
-235.0
 20
-320.15465399047253
 11
-235.0
 21
-125.15465399047253
  0
ENDBLK
  8
15
  0
BLOCK
  8
15
  2
COMP4
 70
    64
 10
0.0
 20
0.0
  0
POLYLINE
  8
15
  6
CONTINUOUS
 62
     7
 66
     1
 70
     0
 40
0.0
 41
0.0
  0
VERTEX
  8
15
 10
510.51324462890625
 20
-169.97625732421875
  0
VERTEX
  8
15
 10
510.71310828055641
 20
-170.57250094583048
  0
VERTEX
  8
15
 10
510.95974367095897
 20
-171.14964918292804
  0
VERTEX
  8
15
 10
511.25186387443676
 20
-171.70468358479488
  0
VERTEX
  8
15
 10
511.58779328654941
 20
-172.23441426496805
  0
VERTEX
  8
15
 10
511.9657208720655
 20
-172.73591512338893
  0
VERTEX
  8
15
 10
512.38309227754166
 20
-173.20573346212592
  0
VERTEX
  8
15
 10
512.83718701854991
 20
-173.64080545611429
  0
VERTEX
  8
15
 10
513.32493890289754
 20
-174.038191191772
  0
VERTEX
  8
15
 10
513.84303510431766
 20
-174.39519055281275
  0
VERTEX
  8
15
 10
514.38794051532341
 20
-174.70936584034763
  0
VERTEX
  8
15
 10
514.95597197141365
 20
-174.97859524903419
  0
VERTEX
  8
15
 10
515.54342217194926
 20
-175.20112270535134
  0
VERTEX
  8
15
 10
516.14625717802198
 20
-175.37546058038998
  0
VERTEX
  8
15
 10
516.76115297606782
 20
-175.50068655522253
  0
VERTEX
  8
15
 10
517.3845707762631
 20
-175.57608288569486
  0
VERTEX
  8
15
 10
518.01324462890625
 20
-175.60125732421875
  0
VERTEX
  8
15
 10
518.6419184815494
 20
-175.57608288569486
  0
VERTEX
  8
15
 10
519.26533628174468
 20
-175.50068655522253
  0
VERTEX
  8
15
 10
519.88023207979052
 20
-175.37546058038998
  0
VERTEX
  8
15
 10
520.48306708586324
 20
-175.20112270535134
  0
VERTEX
  8
15
 10
521.07051728639885
 20
-174.97859524903419
  0
VERTEX
  8
15
 10
521.63854874248909
 20
-174.70936584034763
  0
VERTEX
  8
15
 10
522.18345415349484
 20
-174.39519055281275
  0
VERTEX
  8
15
 10
522.70155035491496
 20
-174.038191191772
  0
VERTEX
  8
15
 10
523.18930223926259
 20
-173.64080545611429
  0
VERTEX
  8
15
 10
523.64339698027084
 20
-173.20573346212592
  0
VERTEX
  8
15
 10
524.060768385747
 20
-172.73591512338893
  0
VERTEX
  8
15
 10
524.43869597126309
 20
-172.23441426496805
  0
VERTEX
  8
15
 10
524.77462538337556
 20
-171.70468358479513
  0
VERTEX
  8
15
 10
525.06674558685359
 20
-171.14964918292804
  0
VERTEX
  8
15
 10
525.3133809772562
 20
-170.57250094583017
  0
VERTEX
  8
15
 10
525.51324462890625
 20
-169.97625732421875
  0
VERTEX
  8
15
 10
525.51324462890625
 20
-145.60125732421875
  0
VERTEX
  8
15
 10
519.88824462890625
 20
-145.60125732421875
  0
SEQEND
  8
15
  0
POLYLINE
  8
15
  6
CONTINUOUS
 62
     7
 66
     1
 70
     0
 40
0.0
 41
0.0
  0
VERTEX
  8
15
 10
534.88824462890625
 20
-175.60125732421875
  0
VERTEX
  8
15
 10
534.88824462890625
 20
-145.60125732421875
  0
VERTEX
  8
15
 10
542.38824462890625
 20
-165.28875732421875
  0
VERTEX
  8
15
 10
549.88824462890625
 20
-145.60125732421875
  0
VERTEX
  8
15
 10
549.88824462890625
 20
-175.60125732421875
  0
SEQEND
  8
15
  0
POLYLINE
  8
15
  6
CONTINUOUS
 62
     7
 66
     1
 70
     0
 40
0.0
 41
0.0
  0
VERTEX
  8
15
 10
559.26324462890625
 20
-175.60125732421875
  0
VERTEX
  8
15
 10
567.70074462890625
 20
-175.60125732421875
  0
VERTEX
  8
15
 10
568.37113978387754
 20
-175.4811069779191
  0
VERTEX
  8
15
 10
569.02604524632409
 20
-175.30193869426267
  0
VERTEX
  8
15
 10
569.66140846161352
 20
-175.06485611786428
  0
VERTEX
  8
15
 10
570.27281775912161
 20
-174.77150005774942
  0
VERTEX
  8
15
 10
570.85624337286299
 20
-174.42372711427302
  0
VERTEX
  8
15
 10
571.40662956719848
 20
-174.02446955583986
  0
VERTEX
  8
15
 10
571.91950341338986
 20
-173.57696976964056
  0
VERTEX
  8
15
 10
572.39050644860311
 20
-173.08502672448876
  0
VERTEX
  8
15
 10
572.81560988260014
 20
-172.55284532602417
  0
VERTEX
  8
15
 10
573.19114995451218
 20
-171.98500684051217
  0
VERTEX
  8
15
 10
573.51393677990154
 20
-171.3863398786109
  0
VERTEX
  8
15
 10
573.78134561605714
 20
-170.76171640620447
  0
VERTEX
  8
15
 10
573.9911368577159
 20
-170.11654449809532
  0
VERTEX
  8
15
 10
574.14199937194974
 20
-169.45507926023538
  0
VERTEX
  8
15
 10
574.23288832627065
 20
-168.78192448771327
  0
VERTEX
  8
15
 10
574.26324462890625
 20
-168.10125732421875
  0
VERTEX
  8
15
 10
574.23288832627065
 20
-167.42059016072423
  0
VERTEX
  8
15
 10
574.14199937194974
 20
-166.74743538820212
  0
VERTEX
  8
15
 10
573.9911368577159
 20
-166.08597015034218
  0
VERTEX
  8
15
 10
573.78134561605714
 20
-165.44079824223303
  0
VERTEX
  8
15
 10
573.51393677990143
 20
-164.81617476982657
  0
VERTEX
  8
15
 10
573.19114995451218
 20
-164.21750780792533
  0
VERTEX
  8
15
 10
572.81560988260014
 20
-163.64966932241333
  0
VERTEX
  8
15
 10
572.39050644860311
 20
-163.11748792394874
  0
VERTEX
  8
15
 10
571.91950341338986
 20
-162.62554487879694
  0
VERTEX
  8
15
 10
571.40662956719848
 20
-162.17804509259764
  0
VERTEX
  8
15
 10
570.85624337286299
 20
-161.77878753416448
  0
VERTEX
  8
15
 10
570.27281775912161
 20
-161.43101459068808
  0
VERTEX
  8
15
 10
569.66140846161352
 20
-161.13765853057322
  0
VERTEX
  8
15
 10
569.02604524632409
 20
-160.90057595417483
  0
VERTEX
  8
15
 10
568.37113978387754
 20
-160.7214076705184
  0
VERTEX
  8
15
 10
567.70074462890625
 20
-160.60125732421875
  0
VERTEX
  8
15
 10
568.37113978387754
 20
-160.4811069779191
  0
VERTEX
  8
15
 10
569.02604524632409
 20
-160.30193869426267
  0
VERTEX
  8
15
 10
569.66140846161352
 20
-160.06485611786428
  0
VERTEX
  8
15
 10
570.27281775912161
 20
-159.77150005774942
  0
VERTEX
  8
15
 10
570.85624337286299
 20
-159.42372711427302
  0
VERTEX
  8
15
 10
571.40662956719848
 20
-159.02446955583986
  0
VERTEX
  8
15
 10
571.91950341338986
 20
-158.57696976964056
  0
VERTEX
  8
15
 10
572.39050644860311
 20
-158.08502672448876
  0
VERTEX
  8
15
 10
572.81560988260014
 20
-157.55284532602417
  0
VERTEX
  8
15
 10
573.19114995451218
 20
-156.98500684051217
  0
VERTEX
  8
15
 10
573.51393677990154
 20
-156.3863398786109
  0
VERTEX
  8
15
 10
573.78134561605714
 20
-155.76171640620447
  0
VERTEX
  8
15
 10
573.9911368577159
 20
-155.11654449809532
  0
VERTEX
  8
15
 10
574.14199937194974
 20
-154.45507926023538
  0
VERTEX
  8
15
 10
574.23288832627065
 20
-153.78192448771327
  0
VERTEX
  8
15
 10
574.26324462890625
 20
-153.10125732421875
  0
VERTEX
  8
15
 10
574.23288832627065
 20
-152.42059016072423
  0
VERTEX
  8
15
 10
574.14199937194974
 20
-151.74743538820212
  0
VERTEX
  8
15
 10
573.9911368577159
 20
-151.08597015034218
  0
VERTEX
  8
15
 10
573.78134561605714
 20
-150.44079824223303
  0
VERTEX
  8
15
 10
573.51393677990143
 20
-149.81617476982657
  0
VERTEX
  8
15
 10
573.19114995451218
 20
-149.21750780792533
  0
VERTEX
  8
15
 10
572.81560988260014
 20
-148.64966932241333
  0
VERTEX
  8
15
 10
572.39050644860311
 20
-148.11748792394874
  0
VERTEX
  8
15
 10
571.91950341338986
 20
-147.62554487879694
  0
VERTEX
  8
15
 10
571.40662956719848
 20
-147.17804509259764
  0
VERTEX
  8
15
 10
570.85624337286299
 20
-146.77878753416448
  0
VERTEX
  8
15
 10
570.27281775912161
 20
-146.43101459068808
  0
VERTEX
  8
15
 10
569.66140846161352
 20
-146.13765853057322
  0
VERTEX
  8
15
 10
569.02604524632409
 20
-145.90057595417483
  0
VERTEX
  8
15
 10
568.37113978387754
 20
-145.7214076705184
  0
VERTEX
  8
15
 10
567.70074462890625
 20
-145.60125732421875
  0
VERTEX
  8
15
 10
559.26324462890625
 20
-145.60125732421875
  0
VERTEX
  8
15
 10
559.26324462890625
 20
-175.60125732421875
  0
SEQEND
  8
15
  0
POLYLINE
  8
15
  6
CONTINUOUS
 62
     7
 66
     1
 70
     0
 40
0.0
 41
0.0
  0
VERTEX
  8
15
 10
559.26324462890625
 20
-160.60125732421875
  0
VERTEX
  8
15
 10
567.70074462890625
 20
-160.60125732421875
  0
SEQEND
  8
15
  0
POLYLINE
  8
15
  6
CONTINUOUS
 62
     7
 66
     1
 70
     0
 40
0.0
 41
0.0
  0
VERTEX
  8
15
 10
525.51324462890625
 20
-199.97625732421875
  0
VERTEX
  8
15
 10
525.33828059089774
 20
-199.36459717132914
  0
VERTEX
  8
15
 10
525.11184123501494
 20
-198.77185195813476
  0
VERTEX
  8
15
 10
524.8352457015086
 20
-198.20148543975066
  0
VERTEX
  8
15
 10
524.51028867057755
 20
-197.65720754519987
  0
VERTEX
  8
15
 10
524.13892606503418
 20
-197.14239867717365
  0
VERTEX
  8
15
 10
523.72405988299658
 20
-196.66117408367364
  0
VERTEX
  8
15
 10
523.26880796364526
 20
-196.21715249228077
  0
VERTEX
  8
15
 10
522.7767333984375
 20
-195.81381225585937
  0
VERTEX
  8
15
 10
522.25172447249247
 20
-195.45433987391618
  0
VERTEX
  8
15
 10
521.69792911404306
 20
-195.14157600695847
  0
VERTEX
  8
15
 10
521.11968471105479
 20
-194.87796766168921
  0
VERTEX
  8
15
 10
520.52133903693357
 20
-194.66549531996691
  0
VERTEX
  8
15
 10
519.90765650055744
 20
-194.50579353903737
  0
VERTEX
  8
15
 10
519.28243114242161
 20
-194.39979438868977
  0
VERTEX
  8
15
 10
518.64972848181219
 20
-194.34818308951483
  0
VERTEX
  8
15
 10
518.01324462890625
 20
-194.35125732421875
  0
VERTEX
  8
15
 10
517.3028299399399
 20
-194.27646578261945
  0
VERTEX
  8
15
 10
516.59325497207567
 20
-194.27941545258429
  0
VERTEX
  8
15
 10
515.89031672709893
 20
-194.36009443773344
  0
VERTEX
  8
15
 10
515.20077327504441
 20
-194.51773916103124
  0
VERTEX
  8
15
 10
514.53070068700163
 20
-194.75115184789115
  0
VERTEX
  8
15
 10
513.88893264342164
 20
-195.05745396555596
  0
VERTEX
  8
15
 10
513.28324777151101
 20
-195.43293903498798
  0
VERTEX
  8
15
 10
512.72149251193662
 20
-195.87275273828507
  0
VERTEX
  8
15
 10
512.21108158234313
 20
-196.37107719609654
  0
VERTEX
  8
15
 10
511.75867876505725
 20
-196.92139773919962
  0
VERTEX
  8
15
 10
511.37012755782069
 20
-197.51659263387933
  0
VERTEX
  8
15
 10
511.05012038557788
 20
-198.14946360626067
  0
VERTEX
  8
15
 10
510.80267004057708
 20
-198.81165739639704
  0
VERTEX
  8
15
 10
510.62975615318453
 20
-199.49734124565376
  0
VERTEX
  8
15
 10
510.53302277185304
 20
-200.19994675378541
  0
VERTEX
  8
15
 10
510.51324462890625
 20
-200.91375732421875
  0
VERTEX
  8
15
 10
510.50500294501597
 20
-201.69974886179708
  0
VERTEX
  8
15
 10
510.57325920242943
 20
-202.4792855805789
  0
VERTEX
  8
15
 10
510.71754265344708
 20
-203.24689613105051
  0
VERTEX
  8
15
 10
510.93670336197232
 20
-203.99641716617603
  0
VERTEX
  8
15
 10
511.2292215222796
 20
-204.72221804385146
  0
VERTEX
  8
15
 10
511.592187274911
 20
-205.41675134124554
  0
VERTEX
  8
15
 10
512.02209086084372
 20
-206.07329374110145
  0
VERTEX
  8
15
 10
512.51454875117383
 20
-206.6851410485167
  0
VERTEX
  8
15
 10
513.06449056400129
 20
-207.2459897957111
  0
VERTEX
  8
15
 10
513.66621965158072
 20
-207.75002361527697
  0
VERTEX
  8
15
 10
514.3135867039324
 20
-208.19209848605621
  0
VERTEX
  8
15
 10
515.00031657208285
 20
-208.56793331989093
  0
VERTEX
  8
15
 10
515.71924525631186
 20
-208.87374642714397
  0
VERTEX
  8
15
 10
516.46494263196564
 20
-209.1073595374119
  0
VERTEX
  8
15
 10
517.23140716557157
 20
-209.2669012908828
  0
VERTEX
  8
15
 10
518.01324462890625
 20
-209.35125732421875
  0
VERTEX
  8
15
 10
518.73380517896339
 20
-209.43270860164051
  0
VERTEX
  8
15
 10
519.44192357422958
 20
-209.57767574434004
  0
VERTEX
  8
15
 10
520.13323902905643
 20
-209.78527119649416
  0
VERTEX
  8
15
 10
520.80297956163827
 20
-210.05406748777057
  0
VERTEX
  8
15
 10
521.44675845420659
 20
-210.38238185277424
  0
VERTEX
  8
15
 10
522.05904832758415
 20
-210.76747721919884
  0
VERTEX
  8
15
 10
522.63491126493579
 20
-211.20625022529703
  0
VERTEX
  8
15
 10
523.16949462890625
 20
-211.69500732421875
  0
VERTEX
  8
15
 10
523.65825172782786
 20
-212.22959068818915
  0
VERTEX
  8
15
 10
524.09702473392622
 20
-212.80545362554088
  0
VERTEX
  8
15
 10
524.48212010035093
 20
-213.41774349891864
  0
VERTEX
  8
15
 10
524.81043446535443
 20
-214.06152239148676
  0
VERTEX
  8
15
 10
525.07923075663075
 20
-214.73126292406835
  0
VERTEX
  8
15
 10
525.28682620878499
 20
-215.42257837889539
  0
VERTEX
  8
15
 10
525.43179335148454
 20
-216.13069677416181
  0
VERTEX
  8
15
 10
525.51324462890625
 20
-216.85125732421875
  0
VERTEX
  8
15
 10
525.58127403102651
 20
-217.59041878645712
  0
VERTEX
  8
15
 10
525.5665432044301
 20
-218.32705716363591
  0
VERTEX
  8
15
 10
525.46916180614778
 20
-219.05498384662403
  0
VERTEX
  8
15
 10
525.29008595823029
 20
-219.76694824791019
  0
VERTEX
  8
15
 10
525.03071617609771
 20
-220.45648552370801
  0
VERTEX
  8
15
 10
524.69442071371418
 20
-221.11401697732984
  0
VERTEX
  8
15
 10
524.28546977912367
 20
-221.73117886834595
  0
VERTEX
  8
15
 10
523.80943595495137
 20
-222.2995431824292
  0
VERTEX
  8
15
 10
523.27290240411162
 20
-222.81124615382669
  0
VERTEX
  8
15
 10
522.68332849120134
 20
-223.25916410768508
  0
VERTEX
  8
15
 10
522.04877141019142
 20
-223.63718832925048
  0
VERTEX
  8
15
 10
521.37731275857675
 20
-223.94051200803628
  0
VERTEX
  8
15
 10
520.67830468145837
 20
-224.1651511493815
  0
VERTEX
  8
15
 10
519.95812433479648
 20
-224.30928568949474
  0
VERTEX
  8
15
 10
519.22396016604114
 20
-224.37149097587232
  0
VERTEX
  8
15
 10
518.48199462890625
 20
-224.35125732421875
  0
SEQEND
  8
15
  0
POLYLINE
  8
15
  6
CONTINUOUS
 62
     7
 66
     1
 70
     0
 40
0.0
 41
0.0
  0
VERTEX
  8
15
 10
510.51324462890625
 20
-218.72625732421875
  0
VERTEX
  8
15
 10
510.76503355071918
 20
-219.3583838692355
  0
VERTEX
  8
15
 10
511.06615957311431
 20
-219.96705024064661
  0
VERTEX
  8
15
 10
511.41505111146637
 20
-220.54907317130392
  0
VERTEX
  8
15
 10
511.80970719674809
 20
-221.10110857203381
  0
VERTEX
  8
15
 10
512.24799596463208
 20
-221.62010480533928
  0
VERTEX
  8
15
 10
512.7269541454508
 20
-222.10248954643791
  0
VERTEX
  8
15
 10
513.24346239398108
 20
-222.54511963685863
  0
VERTEX
  8
15
 10
513.79403686523437
 20
-222.94500732421875
  0
VERTEX
  8
15
 10
514.37493361844747
 20
-223.29943378650287
  0
VERTEX
  8
15
 10
514.98220292501276
 20
-223.60598873281256
  0
VERTEX
  8
15
 10
515.61174671174081
 20
-223.86260530341173
  0
VERTEX
  8
15
 10
516.25946352158667
 20
-224.06761278859287
  0
VERTEX
  8
15
 10
516.92091560668848
 20
-224.21964950145201
  0
VERTEX
  8
15
 10
517.59246561440864
 20
-224.31792093484285
  0
VERTEX
  8
15
 10
518.27025646259449
 20
-224.36186581048571
  0
VERTEX
  8
15
 10
518.95074462890625
 20
-224.35125732421875
  0
SEQEND
  8
15
  0
POLYLINE
  8
15
  6
CONTINUOUS
 62
     7
 66
     1
 70
     0
 40
0.0
 41
0.0
  0
VERTEX
  8
15
 10
534.88824462890625
 20
-224.35125732421875
  0
VERTEX
  8
15
 10
534.88824462890625
 20
-194.35125732421875
  0
VERTEX
  8
15
 10
542.38824462890625
 20
-214.03875732421875
  0
VERTEX
  8
15
 10
549.88824462890625
 20
-194.35125732421875
  0
VERTEX
  8
15
 10
549.88824462890625
 20
-224.35125732421875
  0
SEQEND
  8
15
  0
POLYLINE
  8
15
  6
CONTINUOUS
 62
     7
 66
     1
 70
     0
 40
0.0
 41
0.0
  0
VERTEX
  8
15
 10
559.26324462890625
 20
-224.35125732421875
  0
VERTEX
  8
15
 10
567.70074462890625
 20
-224.35125732421875
  0
VERTEX
  8
15
 10
568.37113978387754
 20
-224.2311069779191
  0
VERTEX
  8
15
 10
569.02604524632409
 20
-224.05193869426267
  0
VERTEX
  8
15
 10
569.66140846161352
 20
-223.81485611786428
  0
VERTEX
  8
15
 10
570.27281775912161
 20
-223.52150005774942
  0
VERTEX
  8
15
 10
570.85624337286299
 20
-223.17372711427302
  0
VERTEX
  8
15
 10
571.40662956719848
 20
-222.77446955583986
  0
VERTEX
  8
15
 10
571.91950341338986
 20
-222.32696976964056
  0
VERTEX
  8
15
 10
572.39050644860311
 20
-221.83502672448876
  0
VERTEX
  8
15
 10
572.81560988260014
 20
-221.30284532602417
  0
VERTEX
  8
15
 10
573.19114995451218
 20
-220.73500684051217
  0
VERTEX
  8
15
 10
573.51393677990154
 20
-220.1363398786109
  0
VERTEX
  8
15
 10
573.78134561605714
 20
-219.51171640620447
  0
VERTEX
  8
15
 10
573.9911368577159
 20
-218.86654449809532
  0
VERTEX
  8
15
 10
574.14199937194974
 20
-218.20507926023538
  0
VERTEX
  8
15
 10
574.23288832627065
 20
-217.53192448771327
  0
VERTEX
  8
15
 10
574.26324462890625
 20
-216.85125732421875
  0
VERTEX
  8
15
 10
574.23288832627065
 20
-216.17059016072423
  0
VERTEX
  8
15
 10
574.14199937194974
 20
-215.49743538820212
  0
VERTEX
  8
15
 10
573.9911368577159
 20
-214.83597015034218
  0
VERTEX
  8
15
 10
573.78134561605714
 20
-214.19079824223303
  0
VERTEX
  8
15
 10
573.51393677990143
 20
-213.56617476982657
  0
VERTEX
  8
15
 10
573.19114995451218
 20
-212.96750780792533
  0
VERTEX
  8
15
 10
572.81560988260014
 20
-212.39966932241333
  0
VERTEX
  8
15
 10
572.39050644860311
 20
-211.86748792394874
  0
VERTEX
  8
15
 10
571.91950341338986
 20
-211.37554487879694
  0
VERTEX
  8
15
 10
571.40662956719848
 20
-210.92804509259764
  0
VERTEX
  8
15
 10
570.85624337286299
 20
-210.52878753416448
  0
VERTEX
  8
15
 10
570.27281775912161
 20
-210.18101459068808
  0
VERTEX
  8
15
 10
569.66140846161352
 20
-209.88765853057322
  0
VERTEX
  8
15
 10
569.02604524632409
 20
-209.65057595417483
  0
VERTEX
  8
15
 10
568.37113978387754
 20
-209.4714076705184
  0
VERTEX
  8
15
 10
567.70074462890625
 20
-209.35125732421875
  0
VERTEX
  8
15
 10
568.37113978387754
 20
-209.2311069779191
  0
VERTEX
  8
15
 10
569.02604524632409
 20
-209.05193869426267
  0
VERTEX
  8
15
 10
569.66140846161352
 20
-208.81485611786428
  0
VERTEX
  8
15
 10
570.27281775912161
 20
-208.52150005774942
  0
VERTEX
  8
15
 10
570.85624337286299
 20
-208.17372711427302
  0
VERTEX
  8
15
 10
571.40662956719848
 20
-207.77446955583986
  0
VERTEX
  8
15
 10
571.91950341338986
 20
-207.32696976964056
  0
VERTEX
  8
15
 10
572.39050644860311
 20
-206.83502672448876
  0
VERTEX
  8
15
 10
572.81560988260014
 20
-206.30284532602417
  0
VERTEX
  8
15
 10
573.19114995451218
 20
-205.73500684051217
  0
VERTEX
  8
15
 10
573.51393677990154
 20
-205.1363398786109
  0
VERTEX
  8
15
 10
573.78134561605714
 20
-204.51171640620447
  0
VERTEX
  8
15
 10
573.9911368577159
 20
-203.86654449809532
  0
VERTEX
  8
15
 10
574.14199937194974
 20
-203.20507926023538
  0
VERTEX
  8
15
 10
574.23288832627065
 20
-202.53192448771327
  0
VERTEX
  8
15
 10
574.26324462890625
 20
-201.85125732421875
  0
VERTEX
  8
15
 10
574.23288832627065
 20
-201.17059016072423
  0
VERTEX
  8
15
 10
574.14199937194974
 20
-200.49743538820212
  0
VERTEX
  8
15
 10
573.9911368577159
 20
-199.83597015034218
  0
VERTEX
  8
15
 10
573.78134561605714
 20
-199.19079824223303
  0
VERTEX
  8
15
 10
573.51393677990143
 20
-198.56617476982657
  0
VERTEX
  8
15
 10
573.19114995451218
 20
-197.96750780792533
  0
VERTEX
  8
15
 10
572.81560988260014
 20
-197.39966932241333
  0
VERTEX
  8
15
 10
572.39050644860311
 20
-196.86748792394874
  0
VERTEX
  8
15
 10
571.91950341338986
 20
-196.37554487879694
  0
VERTEX
  8
15
 10
571.40662956719848
 20
-195.92804509259764
  0
VERTEX
  8
15
 10
570.85624337286299
 20
-195.52878753416448
  0
VERTEX
  8
15
 10
570.27281775912161
 20
-195.18101459068808
  0
VERTEX
  8
15
 10
569.66140846161352
 20
-194.88765853057322
  0
VERTEX
  8
15
 10
569.02604524632409
 20
-194.65057595417483
  0
VERTEX
  8
15
 10
568.37113978387754
 20
-194.4714076705184
  0
VERTEX
  8
15
 10
567.70074462890625
 20
-194.35125732421875
  0
VERTEX
  8
15
 10
559.26324462890625
 20
-194.35125732421875
  0
VERTEX
  8
15
 10
559.26324462890625
 20
-224.35125732421875
  0
SEQEND
  8
15
  0
POLYLINE
  8
15
  6
CONTINUOUS
 62
     7
 66
     1
 70
     0
 40
0.0
 41
0.0
  0
VERTEX
  8
15
 10
559.26324462890625
 20
-209.35125732421875
  0
VERTEX
  8
15
 10
567.70074462890625
 20
-209.35125732421875
  0
SEQEND
  8
15
  0
POLYLINE
  8
15
  6
CONTINUOUS
 62
     7
 66
     1
 70
     0
 40
0.0
 41
0.0
  0
VERTEX
  8
15
 10
584.10699462890625
 20
-209.35125732421875
  0
VERTEX
  8
15
 10
602.85699462890625
 20
-209.35125732421875
  0
SEQEND
  8
15
  0
POLYLINE
  8
15
  6
CONTINUOUS
 62
     7
 66
     1
 70
     0
 40
0.0
 41
0.0
  0
VERTEX
  8
15
 10
608.01324462890625
 20
-199.97625732421875
  0
VERTEX
  8
15
 10
612.70074462890625
 20
-194.35125732421875
  0
VERTEX
  8
15
 10
618.32574462890625
 20
-194.35125732421875
  0
VERTEX
  8
15
 10
623.01324462890625
 20
-199.97625732421875
  0
VERTEX
  8
15
 10
623.01324462890625
 20
-204.66375732421875
  0
VERTEX
  8
15
 10
617.38824462890625
 20
-209.35125732421875
  0
VERTEX
  8
15
 10
611.76324462890625
 20
-209.35125732421875
  0
SEQEND
  8
15
  0
POLYLINE
  8
15
  6
CONTINUOUS
 62
     7
 66
     1
 70
     0
 40
0.0
 41
0.0
  0
VERTEX
  8
15
 10
617.38824462890625
 20
-209.35125732421875
  0
VERTEX
  8
15
 10
623.01324462890625
 20
-214.97625732421875
  0
VERTEX
  8
15
 10
623.01324462890625
 20
-219.66375732421875
  0
VERTEX
  8
15
 10
618.32574462890625
 20
-224.35125732421875
  0
VERTEX
  8
15
 10
612.70074462890625
 20
-224.35125732421875
  0
VERTEX
  8
15
 10
608.01324462890625
 20
-219.66375732421875
  0
SEQEND
  8
15
  0
POLYLINE
  8
15
  6
CONTINUOUS
 62
     7
 66
     1
 70
     0
 40
0.0
 41
0.0
  0
VERTEX
  8
15
 10
534.88824462890625
 20
-273.10125732421875
  0
VERTEX
  8
15
 10
543.32574462890625
 20
-273.10125732421875
  0
VERTEX
  8
15
 10
543.99613978387742
 20
-272.98110697791913
  0
VERTEX
  8
15
 10
544.6510452463242
 20
-272.80193869426267
  0
VERTEX
  8
15
 10
545.28640846161386
 20
-272.56485611786411
  0
VERTEX
  8
15
 10
545.89781775912161
 20
-272.27150005774939
  0
VERTEX
  8
15
 10
546.48124337286288
 20
-271.92372711427311
  0
VERTEX
  8
15
 10
547.03162956719848
 20
-271.52446955583986
  0
VERTEX
  8
15
 10
547.54450341338986
 20
-271.07696976964047
  0
VERTEX
  8
15
 10
548.01550644860311
 20
-270.58502672448873
  0
VERTEX
  8
15
 10
548.44060988260037
 20
-270.05284532602388
  0
VERTEX
  8
15
 10
548.81614995451207
 20
-269.4850068405122
  0
VERTEX
  8
15
 10
549.13893677990131
 20
-268.88633987861135
  0
VERTEX
  8
15
 10
549.40634561605714
 20
-268.26171640620447
  0
VERTEX
  8
15
 10
549.6161368577159
 20
-267.61654449809532
  0
VERTEX
  8
15
 10
549.76699937194974
 20
-266.95507926023538
  0
VERTEX
  8
15
 10
549.85788832627065
 20
-266.2819244877133
  0
VERTEX
  8
15
 10
549.88824462890625
 20
-265.60125732421875
  0
VERTEX
  8
15
 10
549.85788832627065
 20
-264.92059016072426
  0
VERTEX
  8
15
 10
549.76699937194974
 20
-264.24743538820212
  0
VERTEX
  8
15
 10
549.6161368577159
 20
-263.58597015034218
  0
VERTEX
  8
15
 10
549.40634561605714
 20
-262.94079824223303
  0
VERTEX
  8
15
 10
549.13893677990131
 20
-262.31617476982615
  0
VERTEX
  8
15
 10
548.81614995451207
 20
-261.7175078079253
  0
VERTEX
  8
15
 10
548.44060988260037
 20
-261.14966932241362
  0
VERTEX
  8
15
 10
548.01550644860311
 20
-260.61748792394877
  0
VERTEX
  8
15
 10
547.54450341338986
 20
-260.12554487879703
  0
VERTEX
  8
15
 10
547.03162956719848
 20
-259.67804509259764
  0
VERTEX
  8
15
 10
546.48124337286288
 20
-259.27878753416439
  0
VERTEX
  8
15
 10
545.89781775912161
 20
-258.93101459068811
  0
VERTEX
  8
15
 10
545.28640846161386
 20
-258.63765853057339
  0
VERTEX
  8
15
 10
544.6510452463242
 20
-258.40057595417483
  0
VERTEX
  8
15
 10
543.99613978387742
 20
-258.22140767051837
  0
VERTEX
  8
15
 10
543.32574462890625
 20
-258.10125732421875
  0
VERTEX
  8
15
 10
543.9961397838772
 20
-257.98110697791918
  0
VERTEX
  8
15
 10
544.65104524632409
 20
-257.80193869426273
  0
VERTEX
  8
15
 10
545.28640846161363
 20
-257.56485611786422
  0
VERTEX
  8
15
 10
545.89781775912161
 20
-257.27150005774945
  0
VERTEX
  8
15
 10
546.48124337286333
 20
-256.92372711427276
  0
VERTEX
  8
15
 10
547.03162956719848
 20
-256.5244695558398
  0
VERTEX
  8
15
 10
547.54450341338963
 20
-256.0769697696407
  0
VERTEX
  8
15
 10
548.01550644860311
 20
-255.58502672448876
  0
VERTEX
  8
15
 10
548.44060988260014
 20
-255.05284532602417
  0
VERTEX
  8
15
 10
548.81614995451218
 20
-254.48500684051217
  0
VERTEX
  8
15
 10
549.13893677990154
 20
-253.8863398786109
  0
VERTEX
  8
15
 10
549.40634561605714
 20
-253.26171640620447
  0
VERTEX
  8
15
 10
549.6161368577159
 20
-252.61654449809532
  0
VERTEX
  8
15
 10
549.76699937194974
 20
-251.95507926023538
  0
VERTEX
  8
15
 10
549.85788832627065
 20
-251.28192448771327
  0
VERTEX
  8
15
 10
549.88824462890625
 20
-250.60125732421875
  0
VERTEX
  8
15
 10
549.85788832627065
 20
-249.92059016072423
  0
VERTEX
  8
15
 10
549.76699937194974
 20
-249.24743538820212
  0
VERTEX
  8
15
 10
549.6161368577159
 20
-248.58597015034218
  0
VERTEX
  8
15
 10
549.40634561605714
 20
-247.94079824223303
  0
VERTEX
  8
15
 10
549.13893677990143
 20
-247.31617476982657
  0
VERTEX
  8
15
 10
548.81614995451218
 20
-246.71750780792533
  0
VERTEX
  8
15
 10
548.44060988260014
 20
-246.14966932241333
  0
VERTEX
  8
15
 10
548.01550644860311
 20
-245.61748792394874
  0
VERTEX
  8
15
 10
547.54450341338986
 20
-245.12554487879694
  0
VERTEX
  8
15
 10
547.03162956719848
 20
-244.67804509259764
  0
VERTEX
  8
15
 10
546.48124337286299
 20
-244.27878753416448
  0
VERTEX
  8
15
 10
545.89781775912161
 20
-243.93101459068808
  0
VERTEX
  8
15
 10
545.28640846161352
 20
-243.63765853057322
  0
VERTEX
  8
15
 10
544.65104524632409
 20
-243.40057595417483
  0
VERTEX
  8
15
 10
543.99613978387754
 20
-243.2214076705184
  0
VERTEX
  8
15
 10
543.32574462890625
 20
-243.10125732421875
  0
VERTEX
  8
15
 10
534.88824462890625
 20
-243.10125732421875
  0
VERTEX
  8
15
 10
534.88824462890625
 20
-273.10125732421875
  0
SEQEND
  8
15
  0
POLYLINE
  8
15
  6
CONTINUOUS
 62
     7
 66
     1
 70
     0
 40
0.0
 41
0.0
  0
VERTEX
  8
15
 10
534.88824462890625
 20
-258.10125732421875
  0
VERTEX
  8
15
 10
543.32574462890625
 20
-258.10125732421875
  0
SEQEND
  8
15
  0
POLYLINE
  8
15
  6
CONTINUOUS
 62
     7
 66
     1
 70
     0
 40
0.0
 41
0.0
  0
VERTEX
  8
15
 10
559.26324462890625
 20
-273.10125732421875
  0
VERTEX
  8
15
 10
566.76324462890625
 20
-243.10125732421875
  0
VERTEX
  8
15
 10
574.26324462890625
 20
-273.10125732421875
  0
SEQEND
  8
15
  0
POLYLINE
  8
15
  6
CONTINUOUS
 62
     7
 66
     1
 70
     0
 40
0.0
 41
0.0
  0
VERTEX
  8
15
 10
571.91949462890625
 20
-263.72625732421875
  0
VERTEX
  8
15
 10
561.60699462890625
 20
-263.72625732421875
  0
SEQEND
  8
15
  0
ENDBLK
  8
15
  0
ENDSEC
  0
SECTION
  2
ENTITIES
  0
LINE
  8
15
  6
CENTER
 62
     3
 10
0.0
 20
-15.0
 11
0.0
 21
615.0
  0
INSERT
  8
15
  6
CONTINUOUS
 62
     3
  2
COMP1
 10
0.0
 20
0.0
 41
1.0
 42
1.0
 50
0.0
  0
LINE
  8
15
  6
CENTER
 62
     3
 10
627.63417329817707
 20
-15.0
 11
627.63417329817707
 21
615.0
  0
INSERT
  8
15
  6
CONTINUOUS
 62
     3
  2
COMP2
 10
0.0
 20
0.0
 41
1.0
 42
1.0
 50
0.0
  0
LINE
  8
15
  6
CENTER
 62
     3
 10
-255.0
 20
-125.15465399047253
 11
254.99999999999997
 21
-125.15465399047253
  0
LINE
  8
15
  6
CENTER
 62
     3
 10
0.0
 20
-380.15465399047253
 11
0.0
 21
-105.15465399047253
  0
LINE
  8
15
  6
CENTER
 62
     3
 10
163.5
 20
-320.15465399047253
 11
226.5
 21
-320.15465399047253
  0
LINE
  8
15
  6
CENTER
 62
     3
 10
195.0
 20
-351.65465399047253
 11
195.0
 21
-288.65465399047253
  0
LINE
  8
15
  6
CENTER
 62
     3
 10
-163.5
 20
-320.15465399047253
 11
-226.5
 21
-320.15465399047253
  0
LINE
  8
15
  6
CENTER
 62
     3
 10
-195.0
 20
-351.65465399047253
 11
-195.0
 21
-288.65465399047253
  0
INSERT
  8
15
  6
CONTINUOUS
 62
     3
  2
COMP3
 10
0.0
 20
0.0
 41
1.0
 42
1.0
 50
0.0
  0
INSERT
  8
15
  6
CONTINUOUS
 62
     7
  2
COMP4
 10
0.0
 20
0.0
 41
1.0
 42
1.0
 50
0.0
  0
ENDSEC
  0
EOF
