  0
SECTION
  2
HEADER
  9
$ACADVER
  1
AC1006
  9
$INSBASE
 10
0.0
 20
0.0
 30
0.0
  9
$EXTMIN
 10
-272.84341430664062
 20
-432.42466166107624
  9
$EXTMAX
 10
984.06328831287669
 20
643.0662841796875
  9
$LIMMIN
 10
-272.84341430664062
 20
-432.42466166107624
  9
$LIMMAX
 10
984.06328831287669
 20
643.0662841796875
  9
$ORTHOMODE
 70
     0
  9
$REGENMODE
 70
     1
  9
$FILLMODE
 70
     1
  9
$QTEXTMODE
 70
     0
  9
$MIRRTEXT
 70
     1
  9
$DRAGMODE
 70
     2
  9
$LTSCALE
 40
1.0
  9
$OSMODE
 70
     0
  9
$ATTMODE
 70
     1
  9
$TEXTSIZE
 40
3.0
  9
$TRACEWID
 40
0.5
  9
$TEXTSTYLE
  7
STANDARD
  9
$CLAYER
  8
0
  9
$CELTYPE
  6
BYLAYER
  9
$CECOLOR
 62
   256
  9
$DIMSCALE
 40
1.0
  9
$DIMASZ
 40
3.0
  9
$DIMEXO
 40
1.0
  9
$DIMDLI
 40
5.0
  9
$DIMRND
 40
0.0
  9
$DIMDLE
 40
0.0
  9
$DIMEXE
 40
1.5
  9
$DIMTP
 40
0.0
  9
$DIMTM
 40
0.0
  9
$DIMTXT
 40
3.0
  9
$DIMCEN
 40
2.0
  9
$DIMTSZ
 40
0.0
  9
$DIMTOL
 70
     0
  9
$DIMLIM
 70
     0
  9
$DIMTIH
 70
     0
  9
$DIMTOH
 70
     0
  9
$DIMSE1
 70
     0
  9
$DIMSE2
 70
     0
  9
$DIMTAD
 70
     1
  9
$DIMZIN
 70
     8
  9
$DIMBLK
  1

  9
$DIMASO
 70
     1
  9
$DIMSHO
 70
     0
  9
$DIMPOST
  1

  9
$DIMAPOST
  1

  9
$DIMALT
 70
     0
  9
$DIMALTD
 70
     0
  9
$DIMALTF
 40
25.399999999999999
  9
$DIMLFAC
 40
1.0
  9
$DIMTOFL
 70
     0
  9
$DIMTVP
 40
1.0
  9
$DIMTIX
 70
     0
  9
$DIMSOXD
 70
     0
  9
$DIMSAH
 70
     0
  9
$DIMBLK1
  1

  9
$DIMBLK2
  1

  9
$LUNITS
 70
     2
  9
$LUPREC
 70
     4
  9
$AXISMODE
 70
     0
  9
$AXISUNIT
 10
0.0
 20
0.0
  9
$SKETCHINC
 40
1.0
  9
$FILLETRAD
 40
0.0
  9
$AUNITS
 70
     0
  9
$AUPREC
 70
     0
  9
$MENU
  1
acad
  9
$ELEVATION
 40
0.0
  9
$THICKNESS
 40
0.0
  9
$LIMCHECK
 70
     0
  9
$BLIPMODE
 70
     1
  9
$CHAMFERA
 40
0.0
  9
$CHAMFERB
 40
0.0
  9
$SKPOLY
 70
     0
  9
$TDCREATE
 40
2452685.7823263891
  9
$TDUPDATE
 40
2452685.7823263891
  9
$TDINDWG
 40
0.0
  9
$TDUSRTIMER
 40
0.0
  9
$USRTIMER
 70
     1
  9
$ANGBASE
 50
0.0
  9
$ANGDIR
 70
     0
  9
$PDMODE
 70
     0
  9
$PDSIZE
 40
0.0
  9
$PLINEWID
 40
0.0
  9
$COORDS
 70
     0
  9
$SPLFRAME
 70
     0
  9
$SPLINETYPE
 70
     6
  9
$SPLINESEGS
 70
     8
  9
$ATTDIA
 70
     0
  9
$ATTREQ
 70
     1
  9
$HANDLING
 70
     0
  9
$HANDSEED
  5
0
  9
$SURFTAB1
 70
     6
  9
$SURFTAB2
 70
     6
  9
$SURFTYPE
 70
     6
  9
$SURFU
 70
     6
  9
$SURFV
 70
     6
  9
$FLATLAND
 70
     0
  9
$UCSNAME
  2

  9
$UCSORG
 10
0.0
 20
0.0
 30
0.0
  9
$UCSXDIR
 10
1.0
 20
0.0
 30
0.0
  9
$UCSYDIR
 10
0.0
 20
1.0
 30
0.0
  9
$USERI1
 70
     0
  9
$USERI2
 70
     0
  9
$USERI3
 70
     0
  9
$USERI4
 70
     0
  9
$USERI5
 70
     0
  9
$USERR1
 40
0.0
  9
$USERR2
 40
0.0
  9
$USERR3
 40
0.0
  9
$USERR4
 40
0.0
  9
$USERR5
 40
0.0
  9
$WORLDVIEW
 70
     1
  0
ENDSEC
  0
SECTION
  2
TABLES
  0
TABLE
  2
VPORT
 70
     1
  0
VPORT
  2
*ACTIVE
 70
     0
 10
0.0
 20
0.0
 11
1.0
 21
1.0
 12
355.60993700311803
 22
105.32081125930563
 13
0.0
 23
0.0
 14
0.0
 24
0.0
 15
0.0
 25
0.0
 16
0.0
 26
0.0
 36
1.0
 17
0.0
 27
0.0
 37
0.0
 40
1075.4909458407637
 41
1.5
 42
50.0
 43
0.0
 44
0.0
 50
0.0
 51
0.0
 71
     0
 72
   100
 73
     1
 74
     1
 75
     0
 76
     0
 77
     0
 78
     0
  0
ENDTAB
  0
TABLE
  2
LTYPE
 70
    20
  0
LTYPE
  2
CONTINUOUS
 70
    64
  3
solid line
 72
    65
 73
     0
 40
0.0
  0
LTYPE
  2
CENTER
 70
    64
  3
--- - --- - --- - --- - --- -
 72
    65
 73
     4
 40
6.0
 49
3.0
 49
-1.0
 49
1.0
 49
-1.0
  0
ENDTAB
  0
TABLE
  2
LAYER
 70
    20
  0
LAYER
  2
0
 70
    64
 62
     7
  6
CONTINUOUS
  0
LAYER
  2
15
 70
    64
 62
     7
  6
CONTINUOUS
  0
ENDTAB
  0
TABLE
  2
STYLE
 70
     4
  0
ENDTAB
  0
TABLE
  2
VIEW
 70
     0
  0
ENDTAB
  0
TABLE
  2
UCS
 70
     0
  0
ENDTAB
  0
TABLE
  2
DWGMGR
 70
     0
  0
ENDTAB
  0
ENDSEC
  0
SECTION
  2
BLOCKS
  0
BLOCK
  8
15
  2
COMP1
 70
    64
 10
0.0
 20
0.0
  0
LINE
  8
15
  6
CONTINUOUS
 62
     3
 10
250.0
 20
0.0
 11
-250.0
 21
0.0
  0
LINE
  8
15
  6
CONTINUOUS
 62
     3
 10
238.0
 20
600.0
 11
-238.0
 21
600.0
  0
LINE
  8
15
  6
CONTINUOUS
 62
     3
 10
238.0
 20
567.00000000000011
 11
238.0
 21
600.0
  0
ARC
  8
15
  6
CONTINUOUS
 62
     3
 10
235.0
 20
567.0
 40
3.0
 50
270.0
 51
0.0000000000021713
  0
LINE
  8
15
  6
CONTINUOUS
 62
     3
 10
210.0
 20
80.0
 11
210.0
 21
280.0
  0
LINE
  8
15
  6
CONTINUOUS
 62
     3
 10
136.0451877648735
 20
451.92039336289565
 11
163.322767378604
 21
296.54177531000011
  0
ARC
  8
15
  6
CONTINUOUS
 62
     3
 10
246.14828354580686
 20
85.0
 40
45.0
 50
190.98057542761214
 51
270.0
  0
ARC
  8
15
  6
CONTINUOUS
 62
     3
 10
247.0
 20
37.0
 40
3.0
 50
0.0
 51
90.0
  0
ARC
  8
15
  6
CONTINUOUS
 62
     3
 10
183.0215156127806
 20
299.99999999999994
 40
20.0
 50
189.95712772190763
 51
270.0
  0
ARC
  8
15
  6
CONTINUOUS
 62
     3
 10
204.91722728963032
 20
77.0
 40
3.0
 50
90.0
 51
190.98057542761151
  0
ARC
  8
15
  6
CONTINUOUS
 62
     3
 10
139.0
 20
452.4391270663956
 40
3.0
 50
180.0
 51
189.95712772190709
  0
LINE
  8
15
  6
CONTINUOUS
 62
     3
 10
155.50870651879893
 20
375.8217177311605
 11
221.60514917423802
 21
557.42020143325658
  0
ARC
  8
15
  6
CONTINUOUS
 62
     3
 10
231.00207538209702
 20
553.99999999999989
 40
10.0
 50
90.0
 51
159.9999999999998
  0
ARC
  8
15
  6
CONTINUOUS
 62
     3
 10
197.79487445416476
 20
360.43081128150538
 40
44.999999999999993
 50
159.99999999999994
 51
189.95712772190777
  0
LINE
  8
15
  6
CONTINUOUS
 62
     3
 10
136.0
 20
452.4391270663956
 11
136.0
 21
534.00000000000011
  0
ARC
  8
15
  6
CONTINUOUS
 62
     3
 10
161.50332203915059
 20
539.0
 40
25.000000000000011
 50
90.0
 51
175.23635830927381
  0
LINE
  8
15
  6
CONTINUOUS
 62
     3
 10
136.58967808302862
 20
541.07613699634351
 11
136.0
 21
534.00000000000011
  0
LINE
  8
15
  6
CONTINUOUS
 62
     3
 10
235.0
 20
564.0
 11
-235.0
 21
564.0
  0
LINE
  8
15
  6
CONTINUOUS
 62
     3
 10
247.0
 20
40.0
 11
-246.14828354580686
 21
40.0
  0
LINE
  8
15
  6
CONTINUOUS
 62
     3
 10
183.78554896297572
 20
85.0
 11
146.68607638462976
 21
275.0
  0
LINE
  8
15
  6
CONTINUOUS
 62
     3
 10
223.80000000000001
 20
80.0
 11
223.80000000000001
 21
280.0
  0
LINE
  8
15
  6
CONTINUOUS
 62
     3
 10
210.80000000000001
 20
80.0
 11
210.80000000000001
 21
280.0
  0
LINE
  8
15
  6
CONTINUOUS
 62
     3
 10
223.80000000000001
 20
80.0
 11
184.7618508729322
 21
80.0
  0
LINE
  8
15
  6
CONTINUOUS
 62
     3
 10
223.80000000000001
 20
280.0
 11
145.70977447467328
 21
280.0
  0
LINE
  8
15
  6
CONTINUOUS
 62
     3
 10
250.0
 20
0.0
 11
250.0
 21
37.0
  0
ARC
  8
15
  6
CONTINUOUS
 62
     3
 10
20.0
 20
554.0
 40
10.000000000000002
 50
90.0
 51
180.0
  0
LINE
  8
15
  6
CONTINUOUS
 62
     3
 10
10.0
 20
364.5081279241362
 11
10.0
 21
554.0
  0
ARC
  8
15
  6
CONTINUOUS
 62
     3
 10
-20.0
 20
554.0
 40
9.9999999999999982
 50
0.0
 51
90.0
  0
LINE
  8
15
  6
CONTINUOUS
 62
     3
 10
-10.0
 20
364.5081279241362
 11
-10.0
 21
554.0
  0
LINE
  8
15
  6
CONTINUOUS
 62
     3
 10
-238.0
 20
567.0
 11
-238.0
 21
600.0
  0
LINE
  8
15
  6
CONTINUOUS
 62
     3
 10
-250.0
 20
0.0
 11
-250.0
 21
37.007557062786873
  0
ARC
  8
15
  6
CONTINUOUS
 62
     3
 10
-235.0
 20
567.0
 40
3.0
 50
180.0
 51
270.0
  0
LINE
  8
15
  6
CONTINUOUS
 62
     3
 10
-136.0451877648735
 20
451.9203933628956
 11
-201.82610001890953
 21
77.218994447500336
  0
LINE
  8
15
  6
CONTINUOUS
 62
     3
 10
-136.0
 20
452.4391270663956
 11
-136.0
 21
534.0
  0
ARC
  8
15
  6
CONTINUOUS
 62
     3
 10
-246.14828354580686
 20
85.0
 40
45.000000000000007
 50
268.98328501415983
 51
350.04287227809232
  0
ARC
  8
15
  6
CONTINUOUS
 62
     3
 10
-247.0
 20
37.007557062786873
 40
3.0
 50
88.983285014159364
 51
180.0
  0
ARC
  8
15
  6
CONTINUOUS
 62
     3
 10
-161.50332203915059
 20
538.99999999999989
 40
25.000000000000011
 50
4.7636416907264589
 51
90.0
  0
ARC
  8
15
  6
CONTINUOUS
 62
     3
 10
-139.0
 20
452.4391270663956
 40
3.0
 50
350.04287227809186
 51
0.0
  0
LINE
  8
15
  6
CONTINUOUS
 62
     3
 10
-155.50870651879893
 20
375.8217177311605
 11
-221.60514917423802
 21
557.42020143325669
  0
ARC
  8
15
  6
CONTINUOUS
 62
     3
 10
-231.00207538209708
 20
554.0
 40
10.0
 50
20.000000000000092
 51
90.0
  0
ARC
  8
15
  6
CONTINUOUS
 62
     3
 10
-197.79487445416476
 20
360.43081128150544
 40
44.999999999999993
 50
350.0428722780922
 51
19.999999999999986
  0
LINE
  8
15
  6
CONTINUOUS
 62
     3
 10
-136.58967808302862
 20
541.07613699634351
 11
-136.0
 21
534.0
  0
ENDBLK
  8
15
  0
BLOCK
  8
15
  2
COMP2
 70
    64
 10
0.0
 20
0.0
  0
LINE
  8
15
  6
CONTINUOUS
 62
     3
 10
984.06328831287669
 20
0.0
 11
484.06328831287669
 21
0.0
  0
LINE
  8
15
  6
CONTINUOUS
 62
     3
 10
972.06328831287669
 20
600.0
 11
496.06328831287669
 21
600.0
  0
ARC
  8
15
  6
CONTINUOUS
 62
     3
 10
714.06328831287669
 20
554.0
 40
9.9999999999999982
 50
0.0
 51
90.0
  0
LINE
  8
15
  6
CONTINUOUS
 62
     3
 10
969.06328831287669
 20
564.0
 11
499.06328831287669
 21
564.0
  0
LINE
  8
15
  6
CONTINUOUS
 62
     3
 10
981.06328831287669
 20
40.0
 11
487.91500476706983
 21
40.0
  0
LINE
  8
15
  6
CONTINUOUS
 62
     3
 10
802.06328831287669
 20
280.0
 11
666.06328831287669
 21
280.0
  0
LINE
  8
15
  6
CONTINUOUS
 62
     3
 10
802.06328831287669
 20
80.0
 11
666.06328831287669
 21
80.0
  0
LINE
  8
15
  6
CONTINUOUS
 62
     3
 10
724.06328831287669
 20
364.5081279241362
 11
724.06328831287669
 21
554.0
  0
LINE
  8
15
  6
CONTINUOUS
 62
     3
 10
496.06328831287669
 20
567.0
 11
496.06328831287669
 21
600.0
  0
LINE
  8
15
  6
CONTINUOUS
 62
     3
 10
484.06328831287669
 20
0.0
 11
484.06328831287669
 21
37.007557062786873
  0
ARC
  8
15
  6
CONTINUOUS
 62
     3
 10
499.06328831287669
 20
567.0
 40
3.0
 50
180.0
 51
270.0
  0
LINE
  8
15
  6
CONTINUOUS
 62
     3
 10
598.01810054800319
 20
451.9203933628956
 11
532.23718829396717
 21
77.218994447500336
  0
LINE
  8
15
  6
CONTINUOUS
 62
     3
 10
598.06328831287669
 20
452.4391270663956
 11
598.06328831287669
 21
534.0
  0
ARC
  8
15
  6
CONTINUOUS
 62
     3
 10
487.91500476706983
 20
85.0
 40
45.000000000000007
 50
268.98328501415983
 51
350.04287227809232
  0
ARC
  8
15
  6
CONTINUOUS
 62
     3
 10
487.06328831287669
 20
37.007557062786873
 40
3.0
 50
88.983285014159364
 51
180.0
  0
ARC
  8
15
  6
CONTINUOUS
 62
     3
 10
572.5599662737261
 20
538.99999999999989
 40
25.000000000000011
 50
4.7636416907264589
 51
90.0
  0
ARC
  8
15
  6
CONTINUOUS
 62
     3
 10
595.06328831287669
 20
452.4391270663956
 40
3.0
 50
350.04287227809186
 51
0.0
  0
LINE
  8
15
  6
CONTINUOUS
 62
     3
 10
578.55458179407776
 20
375.8217177311605
 11
512.45813913863867
 21
557.42020143325669
  0
ARC
  8
15
  6
CONTINUOUS
 62
     3
 10
503.06121293077962
 20
554.0
 40
10.0
 50
20.000000000000092
 51
90.0
  0
ARC
  8
15
  6
CONTINUOUS
 62
     3
 10
536.26841385871194
 20
360.43081128150544
 40
44.999999999999993
 50
350.0428722780922
 51
19.999999999999986
  0
LINE
  8
15
  6
CONTINUOUS
 62
     3
 10
597.47361022984808
 20
541.07613699634351
 11
598.06328831287669
 21
534.0
  0
ARC
  8
15
  6
CONTINUOUS
 62
     3
 10
666.06328831287669
 20
268.0
 40
12.0
 50
90.0
 51
180.0
  0
LINE
  8
15
  6
CONTINUOUS
 62
     3
 10
654.06328831287669
 20
92.0
 11
654.06328831287669
 21
268.0
  0
ARC
  8
15
  6
CONTINUOUS
 62
     3
 10
666.06328831287669
 20
92.0
 40
12.0
 50
180.0
 51
270.0
  0
ARC
  8
15
  6
CONTINUOUS
 62
     3
 10
754.06328831287669
 20
554.0
 40
10.000000000000002
 50
90.0
 51
180.0
  0
LINE
  8
15
  6
CONTINUOUS
 62
     3
 10
744.06328831287669
 20
364.5081279241362
 11
744.06328831287669
 21
554.0
  0
ARC
  8
15
  6
CONTINUOUS
 62
     3
 10
802.06328831287669
 20
268.0
 40
12.0
 50
0.0
 51
90.0
  0
LINE
  8
15
  6
CONTINUOUS
 62
     3
 10
814.06328831287669
 20
92.0
 11
814.06328831287669
 21
268.0
  0
ARC
  8
15
  6
CONTINUOUS
 62
     3
 10
802.06328831287669
 20
92.0
 40
12.0
 50
270.0
 51
0.0
  0
LINE
  8
15
  6
CONTINUOUS
 62
     3
 10
972.06328831287669
 20
567.00000000000011
 11
972.06328831287669
 21
600.0
  0
LINE
  8
15
  6
CONTINUOUS
 62
     3
 10
984.06328831287669
 20
0.0
 11
984.06328831287669
 21
37.0
  0
ARC
  8
15
  6
CONTINUOUS
 62
     3
 10
969.06328831287669
 20
567.0
 40
3.0
 50
270.0
 51
0.0000000000021713
  0
ARC
  8
15
  6
CONTINUOUS
 62
     3
 10
980.21157185868356
 20
85.0
 40
45.0
 50
190.98057542761214
 51
270.0
  0
ARC
  8
15
  6
CONTINUOUS
 62
     3
 10
981.06328831287669
 20
37.0
 40
3.0
 50
0.0
 51
90.0
  0
ARC
  8
15
  6
CONTINUOUS
 62
     3
 10
873.06328831287669
 20
452.4391270663956
 40
3.0
 50
180.0
 51
189.95712772190709
  0
LINE
  8
15
  6
CONTINUOUS
 62
     3
 10
889.57199483167562
 20
375.8217177311605
 11
955.66843748711472
 21
557.42020143325658
  0
ARC
  8
15
  6
CONTINUOUS
 62
     3
 10
965.06536369497371
 20
553.99999999999989
 40
10.0
 50
90.0
 51
159.9999999999998
  0
ARC
  8
15
  6
CONTINUOUS
 62
     3
 10
931.85816276704145
 20
360.43081128150538
 40
44.999999999999993
 50
159.99999999999994
 51
189.95712772190777
  0
LINE
  8
15
  6
CONTINUOUS
 62
     3
 10
870.06328831287669
 20
452.4391270663956
 11
870.06328831287669
 21
534.00000000000011
  0
ARC
  8
15
  6
CONTINUOUS
 62
     3
 10
895.56661035202728
 20
539.0
 40
25.000000000000011
 50
90.0
 51
175.23635830927381
  0
LINE
  8
15
  6
CONTINUOUS
 62
     3
 10
870.65296639590531
 20
541.07613699634351
 11
870.06328831287669
 21
534.00000000000011
  0
LINE
  8
15
  6
CONTINUOUS
 62
     3
 10
870.1084760777502
 20
451.92039336289565
 11
935.88938833178622
 21
77.218994447500108
  0
ENDBLK
  8
15
  0
BLOCK
  8
15
  2
COMP3
 70
    64
 10
0.0
 20
0.0
  0
LINE
  8
15
  6
CONTINUOUS
 62
     3
 10
210.0
 20
-408.59501078216999
 11
-210.0
 21
-408.59501078216999
  0
ARC
  8
15
  6
CONTINUOUS
 62
     3
 10
0.0
 20
-158.59501078216999
 40
220.0
 50
180.0
 51
0.0
  0
CIRCLE
  8
15
  6
CONTINUOUS
 62
     3
 10
-210.0
 20
-368.59501078216999
 40
19.5
  0
ARC
  8
15
  6
CONTINUOUS
 62
     3
 10
-210.0
 20
-368.59501078216999
 40
40.0
 50
180.0
 51
270.0
  0
LINE
  8
15
  6
CONTINUOUS
 62
     3
 10
-249.99999999999997
 20
-368.59501078216999
 11
-249.99999999999997
 21
-158.59501078216999
  0
CIRCLE
  8
15
  6
CONTINUOUS
 62
     3
 10
210.0
 20
-368.59501078216999
 40
19.5
  0
ARC
  8
15
  6
CONTINUOUS
 62
     3
 10
210.0
 20
-368.59501078216999
 40
40.0
 50
270.0
 51
0.0
  0
LINE
  8
15
  6
CONTINUOUS
 62
     3
 10
250.0
 20
-368.59501078216999
 11
250.0
 21
-158.59501078216999
  0
ENDBLK
  8
15
  0
BLOCK
  8
15
  2
COMP4
 70
    64
 10
0.0
 20
0.0
  0
POLYLINE
  8
15
  6
CONTINUOUS
 62
     7
 66
     1
 70
     0
 40
0.0
 41
0.0
  0
VERTEX
  8
15
 10
628.80291748046875
 20
-150.53102111816406
  0
VERTEX
  8
15
 10
629.0027811321188
 20
-151.12726473977548
  0
VERTEX
  8
15
 10
629.24941652252141
 20
-151.70441297687336
  0
VERTEX
  8
15
 10
629.54153672599944
 20
-152.25944737874045
  0
VERTEX
  8
15
 10
629.87746613811191
 20
-152.78917805891336
  0
VERTEX
  8
15
 10
630.255393723628
 20
-153.29067891733425
  0
VERTEX
  8
15
 10
630.67276512910416
 20
-153.76049725607123
  0
VERTEX
  8
15
 10
631.12685987011241
 20
-154.19556925005961
  0
VERTEX
  8
15
 10
631.61461175446004
 20
-154.59295498571731
  0
VERTEX
  8
15
 10
632.13270795588016
 20
-154.94995434675806
  0
VERTEX
  8
15
 10
632.67761336688591
 20
-155.26412963429294
  0
VERTEX
  8
15
 10
633.24564482297615
 20
-155.5333590429795
  0
VERTEX
  8
15
 10
633.83309502351176
 20
-155.75588649929665
  0
VERTEX
  8
15
 10
634.43593002958448
 20
-155.9302243743353
  0
VERTEX
  8
15
 10
635.05082582763032
 20
-156.05545034916784
  0
VERTEX
  8
15
 10
635.6742436278256
 20
-156.13084667964017
  0
VERTEX
  8
15
 10
636.30291748046875
 20
-156.15602111816406
  0
VERTEX
  8
15
 10
636.9315913331119
 20
-156.13084667964017
  0
VERTEX
  8
15
 10
637.55500913330718
 20
-156.05545034916784
  0
VERTEX
  8
15
 10
638.16990493135302
 20
-155.9302243743353
  0
VERTEX
  8
15
 10
638.77273993742574
 20
-155.75588649929665
  0
VERTEX
  8
15
 10
639.36019013796135
 20
-155.5333590429795
  0
VERTEX
  8
15
 10
639.92822159405159
 20
-155.26412963429294
  0
VERTEX
  8
15
 10
640.47312700505734
 20
-154.94995434675806
  0
VERTEX
  8
15
 10
640.99122320647746
 20
-154.59295498571731
  0
VERTEX
  8
15
 10
641.47897509082509
 20
-154.19556925005961
  0
VERTEX
  8
15
 10
641.93306983183334
 20
-153.76049725607123
  0
VERTEX
  8
15
 10
642.3504412373095
 20
-153.29067891733425
  0
VERTEX
  8
15
 10
642.72836882282559
 20
-152.78917805891336
  0
VERTEX
  8
15
 10
643.06429823493806
 20
-152.25944737874045
  0
VERTEX
  8
15
 10
643.35641843841609
 20
-151.70441297687336
  0
VERTEX
  8
15
 10
643.6030538288187
 20
-151.12726473977548
  0
VERTEX
  8
15
 10
643.80291748046875
 20
-150.53102111816406
  0
VERTEX
  8
15
 10
643.80291748046875
 20
-126.15602111816406
  0
VERTEX
  8
15
 10
638.17791748046875
 20
-126.15602111816406
  0
SEQEND
  8
15
  0
POLYLINE
  8
15
  6
CONTINUOUS
 62
     7
 66
     1
 70
     0
 40
0.0
 41
0.0
  0
VERTEX
  8
15
 10
653.17791748046875
 20
-156.15602111816406
  0
VERTEX
  8
15
 10
653.17791748046875
 20
-126.15602111816406
  0
VERTEX
  8
15
 10
660.67791748046875
 20
-145.84352111816406
  0
VERTEX
  8
15
 10
668.17791748046875
 20
-126.15602111816406
  0
VERTEX
  8
15
 10
668.17791748046875
 20
-156.15602111816406
  0
SEQEND
  8
15
  0
POLYLINE
  8
15
  6
CONTINUOUS
 62
     7
 66
     1
 70
     0
 40
0.0
 41
0.0
  0
VERTEX
  8
15
 10
677.55291748046875
 20
-156.15602111816406
  0
VERTEX
  8
15
 10
685.99041748046875
 20
-156.15602111816406
  0
VERTEX
  8
15
 10
686.66081263544004
 20
-156.03587077186441
  0
VERTEX
  8
15
 10
687.31571809788659
 20
-155.85670248820799
  0
VERTEX
  8
15
 10
687.95108131317602
 20
-155.61961991180959
  0
VERTEX
  8
15
 10
688.56249061068411
 20
-155.32626385169473
  0
VERTEX
  8
15
 10
689.14591622442549
 20
-154.97849090821833
  0
VERTEX
  8
15
 10
689.69630241876098
 20
-154.57923334978517
  0
VERTEX
  8
15
 10
690.20917626495236
 20
-154.13173356358587
  0
VERTEX
  8
15
 10
690.68017930016561
 20
-153.63979051843407
  0
VERTEX
  8
15
 10
691.10528273416264
 20
-153.10760911996948
  0
VERTEX
  8
15
 10
691.48082280607468
 20
-152.53977063445748
  0
VERTEX
  8
15
 10
691.80360963146404
 20
-151.94110367255621
  0
VERTEX
  8
15
 10
692.07101846761964
 20
-151.31648020014978
  0
VERTEX
  8
15
 10
692.2808097092784
 20
-150.67130829204064
  0
VERTEX
  8
15
 10
692.43167222351224
 20
-150.00984305418069
  0
VERTEX
  8
15
 10
692.52256117783315
 20
-149.33668828165858
  0
VERTEX
  8
15
 10
692.55291748046875
 20
-148.65602111816406
  0
VERTEX
  8
15
 10
692.52256117783315
 20
-147.97535395466954
  0
VERTEX
  8
15
 10
692.43167222351224
 20
-147.30219918214743
  0
VERTEX
  8
15
 10
692.2808097092784
 20
-146.64073394428749
  0
VERTEX
  8
15
 10
692.07101846761964
 20
-145.99556203617834
  0
VERTEX
  8
15
 10
691.80360963146393
 20
-145.37093856377189
  0
VERTEX
  8
15
 10
691.48082280607468
 20
-144.77227160187064
  0
VERTEX
  8
15
 10
691.10528273416264
 20
-144.20443311635864
  0
VERTEX
  8
15
 10
690.68017930016561
 20
-143.67225171789406
  0
VERTEX
  8
15
 10
690.20917626495236
 20
-143.18030867274226
  0
VERTEX
  8
15
 10
689.69630241876098
 20
-142.73280888654295
  0
VERTEX
  8
15
 10
689.14591622442549
 20
-142.33355132810979
  0
VERTEX
  8
15
 10
688.56249061068411
 20
-141.98577838463339
  0
VERTEX
  8
15
 10
687.95108131317602
 20
-141.69242232451853
  0
VERTEX
  8
15
 10
687.31571809788659
 20
-141.45533974812014
  0
VERTEX
  8
15
 10
686.66081263544004
 20
-141.27617146446372
  0
VERTEX
  8
15
 10
685.99041748046875
 20
-141.15602111816406
  0
VERTEX
  8
15
 10
686.66081263544004
 20
-141.03587077186441
  0
VERTEX
  8
15
 10
687.31571809788659
 20
-140.85670248820799
  0
VERTEX
  8
15
 10
687.95108131317602
 20
-140.61961991180959
  0
VERTEX
  8
15
 10
688.56249061068411
 20
-140.32626385169473
  0
VERTEX
  8
15
 10
689.14591622442549
 20
-139.97849090821833
  0
VERTEX
  8
15
 10
689.69630241876098
 20
-139.57923334978517
  0
VERTEX
  8
15
 10
690.20917626495236
 20
-139.13173356358587
  0
VERTEX
  8
15
 10
690.68017930016561
 20
-138.63979051843407
  0
VERTEX
  8
15
 10
691.10528273416264
 20
-138.10760911996948
  0
VERTEX
  8
15
 10
691.48082280607468
 20
-137.53977063445748
  0
VERTEX
  8
15
 10
691.80360963146404
 20
-136.94110367255621
  0
VERTEX
  8
15
 10
692.07101846761964
 20
-136.31648020014978
  0
VERTEX
  8
15
 10
692.2808097092784
 20
-135.67130829204064
  0
VERTEX
  8
15
 10
692.43167222351224
 20
-135.00984305418069
  0
VERTEX
  8
15
 10
692.52256117783315
 20
-134.33668828165858
  0
VERTEX
  8
15
 10
692.55291748046875
 20
-133.65602111816406
  0
VERTEX
  8
15
 10
692.52256117783315
 20
-132.97535395466954
  0
VERTEX
  8
15
 10
692.43167222351224
 20
-132.30219918214743
  0
VERTEX
  8
15
 10
692.2808097092784
 20
-131.64073394428749
  0
VERTEX
  8
15
 10
692.07101846761964
 20
-130.99556203617834
  0
VERTEX
  8
15
 10
691.80360963146393
 20
-130.37093856377189
  0
VERTEX
  8
15
 10
691.48082280607468
 20
-129.77227160187064
  0
VERTEX
  8
15
 10
691.10528273416264
 20
-129.20443311635864
  0
VERTEX
  8
15
 10
690.68017930016561
 20
-128.67225171789406
  0
VERTEX
  8
15
 10
690.20917626495225
 20
-128.18030867274223
  0
VERTEX
  8
15
 10
689.69630241876098
 20
-127.73280888654297
  0
VERTEX
  8
15
 10
689.1459162244256
 20
-127.33355132810983
  0
VERTEX
  8
15
 10
688.56249061068411
 20
-126.98577838463339
  0
VERTEX
  8
15
 10
687.95108131317602
 20
-126.69242232451855
  0
VERTEX
  8
15
 10
687.31571809788659
 20
-126.45533974812014
  0
VERTEX
  8
15
 10
686.66081263544004
 20
-126.2761714644637
  0
VERTEX
  8
15
 10
685.99041748046875
 20
-126.15602111816406
  0
VERTEX
  8
15
 10
677.55291748046875
 20
-126.15602111816406
  0
VERTEX
  8
15
 10
677.55291748046875
 20
-156.15602111816406
  0
SEQEND
  8
15
  0
POLYLINE
  8
15
  6
CONTINUOUS
 62
     7
 66
     1
 70
     0
 40
0.0
 41
0.0
  0
VERTEX
  8
15
 10
677.55291748046875
 20
-141.15602111816406
  0
VERTEX
  8
15
 10
685.99041748046875
 20
-141.15602111816406
  0
SEQEND
  8
15
  0
POLYLINE
  8
15
  6
CONTINUOUS
 62
     7
 66
     1
 70
     0
 40
0.0
 41
0.0
  0
VERTEX
  8
15
 10
643.80291748046875
 20
-180.53102111816406
  0
VERTEX
  8
15
 10
643.62795344246024
 20
-179.91936096527445
  0
VERTEX
  8
15
 10
643.40151408657744
 20
-179.32661575208007
  0
VERTEX
  8
15
 10
643.1249185530711
 20
-178.75624923369597
  0
VERTEX
  8
15
 10
642.79996152214005
 20
-178.21197133914518
  0
VERTEX
  8
15
 10
642.42859891659668
 20
-177.69716247111896
  0
VERTEX
  8
15
 10
642.01373273455908
 20
-177.21593787761896
  0
VERTEX
  8
15
 10
641.55848081520776
 20
-176.77191628622609
  0
VERTEX
  8
15
 10
641.06640625
 20
-176.36857604980469
  0
VERTEX
  8
15
 10
640.54139732405497
 20
-176.0091036678615
  0
VERTEX
  8
15
 10
639.98760196560556
 20
-175.69633980090379
  0
VERTEX
  8
15
 10
639.40935756261729
 20
-175.43273145563452
  0
VERTEX
  8
15
 10
638.81101188849607
 20
-175.22025911391222
  0
VERTEX
  8
15
 10
638.19732935211994
 20
-175.06055733298268
  0
VERTEX
  8
15
 10
637.57210399398411
 20
-174.95455818263508
  0
VERTEX
  8
15
 10
636.93940133337469
 20
-174.90294688346015
  0
VERTEX
  8
15
 10
636.30291748046875
 20
-174.90602111816406
  0
VERTEX
  8
15
 10
635.5925027915024
 20
-174.83122957656477
  0
VERTEX
  8
15
 10
634.88292782363817
 20
-174.8341792465296
  0
VERTEX
  8
15
 10
634.17998957866143
 20
-174.91485823167875
  0
VERTEX
  8
15
 10
633.49044612660691
 20
-175.07250295497656
  0
VERTEX
  8
15
 10
632.82037353856413
 20
-175.30591564183646
  0
VERTEX
  8
15
 10
632.17860549498414
 20
-175.61221775950128
  0
VERTEX
  8
15
 10
631.57292062307351
 20
-175.98770282893329
  0
VERTEX
  8
15
 10
631.01116536349912
 20
-176.42751653223038
  0
VERTEX
  8
15
 10
630.50075443390551
 20
-176.92584099004199
  0
VERTEX
  8
15
 10
630.04835161661981
 20
-177.47616153314493
  0
VERTEX
  8
15
 10
629.65980040938337
 20
-178.07135642782444
  0
VERTEX
  8
15
 10
629.33979323714038
 20
-178.70422740020598
  0
VERTEX
  8
15
 10
629.09234289213964
 20
-179.36642119034235
  0
VERTEX
  8
15
 10
628.91942900474703
 20
-180.05210503959907
  0
VERTEX
  8
15
 10
628.82269562341548
 20
-180.75471054773072
  0
VERTEX
  8
15
 10
628.80291748046875
 20
-181.46852111816406
  0
VERTEX
  8
15
 10
628.79467579657842
 20
-182.25451265574236
  0
VERTEX
  8
15
 10
628.86293205399193
 20
-183.03404937452436
  0
VERTEX
  8
15
 10
629.00721550500964
 20
-183.80165992499624
  0
VERTEX
  8
15
 10
629.22637621353488
 20
-184.55118096012134
  0
VERTEX
  8
15
 10
629.51889437384204
 20
-185.27698183779671
  0
VERTEX
  8
15
 10
629.8818601264735
 20
-185.97151513519077
  0
VERTEX
  8
15
 10
630.3117637124061
 20
-186.62805753504657
  0
VERTEX
  8
15
 10
630.80422160273633
 20
-187.23990484246201
  0
VERTEX
  8
15
 10
631.35416341556379
 20
-187.80075358965641
  0
VERTEX
  8
15
 10
631.95589250314322
 20
-188.30478740922229
  0
VERTEX
  8
15
 10
632.6032595554949
 20
-188.74686228000152
  0
VERTEX
  8
15
 10
633.28998942364535
 20
-189.12269711383624
  0
VERTEX
  8
15
 10
634.00891810787436
 20
-189.42851022108928
  0
VERTEX
  8
15
 10
634.75461548352814
 20
-189.66212333135721
  0
VERTEX
  8
15
 10
635.52108001713407
 20
-189.82166508482811
  0
VERTEX
  8
15
 10
636.30291748046875
 20
-189.90602111816406
  0
VERTEX
  8
15
 10
637.02347803052589
 20
-189.98747239558583
  0
VERTEX
  8
15
 10
637.73159642579208
 20
-190.13243953828535
  0
VERTEX
  8
15
 10
638.42291188061893
 20
-190.34003499043948
  0
VERTEX
  8
15
 10
639.09265241320077
 20
-190.60883128171588
  0
VERTEX
  8
15
 10
639.73643130576909
 20
-190.93714564671956
  0
VERTEX
  8
15
 10
640.34872117914665
 20
-191.32224101314415
  0
VERTEX
  8
15
 10
640.92458411649829
 20
-191.76101401924234
  0
VERTEX
  8
15
 10
641.45916748046875
 20
-192.24977111816406
  0
VERTEX
  8
15
 10
641.94792457939036
 20
-192.78435448213446
  0
VERTEX
  8
15
 10
642.38669758548872
 20
-193.36021741948619
  0
VERTEX
  8
15
 10
642.77179295191343
 20
-193.97250729286395
  0
VERTEX
  8
15
 10
643.10010731691693
 20
-194.61628618543207
  0
VERTEX
  8
15
 10
643.36890360819325
 20
-195.28602671801366
  0
VERTEX
  8
15
 10
643.57649906034749
 20
-195.97734217284071
  0
VERTEX
  8
15
 10
643.72146620304704
 20
-196.68546056810712
  0
VERTEX
  8
15
 10
643.80291748046875
 20
-197.40602111816406
  0
VERTEX
  8
15
 10
643.87094688258901
 20
-198.14518258040243
  0
VERTEX
  8
15
 10
643.8562160559926
 20
-198.88182095758123
  0
VERTEX
  8
15
 10
643.75883465771028
 20
-199.60974764056934
  0
VERTEX
  8
15
 10
643.57975880979279
 20
-200.32171204185551
  0
VERTEX
  8
15
 10
643.32038902766021
 20
-201.01124931765332
  0
VERTEX
  8
15
 10
642.98409356527668
 20
-201.66878077127515
  0
VERTEX
  8
15
 10
642.57514263068617
 20
-202.28594266229126
  0
VERTEX
  8
15
 10
642.09910880651387
 20
-202.85430697637452
  0
VERTEX
  8
15
 10
641.56257525567412
 20
-203.366009947772
  0
VERTEX
  8
15
 10
640.97300134276384
 20
-203.81392790163039
  0
VERTEX
  8
15
 10
640.33844426175392
 20
-204.19195212319579
  0
VERTEX
  8
15
 10
639.66698561013925
 20
-204.49527580198159
  0
VERTEX
  8
15
 10
638.96797753302087
 20
-204.71991494332681
  0
VERTEX
  8
15
 10
638.24779718635898
 20
-204.86404948344006
  0
VERTEX
  8
15
 10
637.51363301760364
 20
-204.92625476981763
  0
VERTEX
  8
15
 10
636.77166748046875
 20
-204.90602111816406
  0
SEQEND
  8
15
  0
POLYLINE
  8
15
  6
CONTINUOUS
 62
     7
 66
     1
 70
     0
 40
0.0
 41
0.0
  0
VERTEX
  8
15
 10
628.80291748046875
 20
-199.28102111816406
  0
VERTEX
  8
15
 10
629.05470640228157
 20
-199.91314766318052
  0
VERTEX
  8
15
 10
629.35583242467669
 20
-200.52181403459178
  0
VERTEX
  8
15
 10
629.70472396302875
 20
-201.10383696524906
  0
VERTEX
  8
15
 10
630.09938004831054
 20
-201.65587236597912
  0
VERTEX
  8
15
 10
630.53766881619492
 20
-202.17486859928491
  0
VERTEX
  8
15
 10
631.01662699701342
 20
-202.65725334038331
  0
VERTEX
  8
15
 10
631.53313524554358
 20
-203.09988343080391
  0
VERTEX
  8
15
 10
632.08370971679687
 20
-203.49977111816406
  0
VERTEX
  8
15
 10
632.66460647000997
 20
-203.85419758044819
  0
VERTEX
  8
15
 10
633.27187577657526
 20
-204.16075252675788
  0
VERTEX
  8
15
 10
633.90141956330331
 20
-204.41736909735704
  0
VERTEX
  8
15
 10
634.54913637314917
 20
-204.62237658253818
  0
VERTEX
  8
15
 10
635.21058845825098
 20
-204.77441329539732
  0
VERTEX
  8
15
 10
635.88213846597114
 20
-204.87268472878816
  0
VERTEX
  8
15
 10
636.55992931415699
 20
-204.91662960443102
  0
VERTEX
  8
15
 10
637.24041748046875
 20
-204.90602111816406
  0
SEQEND
  8
15
  0
POLYLINE
  8
15
  6
CONTINUOUS
 62
     7
 66
     1
 70
     0
 40
0.0
 41
0.0
  0
VERTEX
  8
15
 10
653.17791748046875
 20
-204.90602111816406
  0
VERTEX
  8
15
 10
653.17791748046875
 20
-174.90602111816406
  0
VERTEX
  8
15
 10
660.67791748046875
 20
-194.59352111816406
  0
VERTEX
  8
15
 10
668.17791748046875
 20
-174.90602111816406
  0
VERTEX
  8
15
 10
668.17791748046875
 20
-204.90602111816406
  0
SEQEND
  8
15
  0
POLYLINE
  8
15
  6
CONTINUOUS
 62
     7
 66
     1
 70
     0
 40
0.0
 41
0.0
  0
VERTEX
  8
15
 10
677.55291748046875
 20
-204.90602111816406
  0
VERTEX
  8
15
 10
685.99041748046875
 20
-204.90602111816406
  0
VERTEX
  8
15
 10
686.66081263544004
 20
-204.78587077186441
  0
VERTEX
  8
15
 10
687.31571809788659
 20
-204.60670248820799
  0
VERTEX
  8
15
 10
687.95108131317602
 20
-204.36961991180959
  0
VERTEX
  8
15
 10
688.56249061068411
 20
-204.07626385169473
  0
VERTEX
  8
15
 10
689.14591622442549
 20
-203.72849090821833
  0
VERTEX
  8
15
 10
689.69630241876098
 20
-203.32923334978517
  0
VERTEX
  8
15
 10
690.20917626495236
 20
-202.88173356358587
  0
VERTEX
  8
15
 10
690.68017930016561
 20
-202.38979051843407
  0
VERTEX
  8
15
 10
691.10528273416264
 20
-201.85760911996948
  0
VERTEX
  8
15
 10
691.48082280607468
 20
-201.28977063445748
  0
VERTEX
  8
15
 10
691.80360963146404
 20
-200.69110367255621
  0
VERTEX
  8
15
 10
692.07101846761964
 20
-200.06648020014978
  0
VERTEX
  8
15
 10
692.2808097092784
 20
-199.42130829204064
  0
VERTEX
  8
15
 10
692.43167222351224
 20
-198.75984305418069
  0
VERTEX
  8
15
 10
692.52256117783315
 20
-198.08668828165858
  0
VERTEX
  8
15
 10
692.55291748046875
 20
-197.40602111816406
  0
VERTEX
  8
15
 10
692.52256117783315
 20
-196.72535395466954
  0
VERTEX
  8
15
 10
692.43167222351224
 20
-196.05219918214743
  0
VERTEX
  8
15
 10
692.2808097092784
 20
-195.39073394428749
  0
VERTEX
  8
15
 10
692.07101846761964
 20
-194.74556203617834
  0
VERTEX
  8
15
 10
691.80360963146393
 20
-194.12093856377189
  0
VERTEX
  8
15
 10
691.48082280607468
 20
-193.52227160187064
  0
VERTEX
  8
15
 10
691.10528273416264
 20
-192.95443311635864
  0
VERTEX
  8
15
 10
690.68017930016561
 20
-192.42225171789406
  0
VERTEX
  8
15
 10
690.20917626495236
 20
-191.93030867274226
  0
VERTEX
  8
15
 10
689.69630241876098
 20
-191.48280888654295
  0
VERTEX
  8
15
 10
689.14591622442549
 20
-191.08355132810979
  0
VERTEX
  8
15
 10
688.56249061068411
 20
-190.73577838463339
  0
VERTEX
  8
15
 10
687.95108131317602
 20
-190.44242232451853
  0
VERTEX
  8
15
 10
687.31571809788659
 20
-190.20533974812014
  0
VERTEX
  8
15
 10
686.66081263544004
 20
-190.02617146446372
  0
VERTEX
  8
15
 10
685.99041748046875
 20
-189.90602111816406
  0
VERTEX
  8
15
 10
686.66081263544004
 20
-189.78587077186441
  0
VERTEX
  8
15
 10
687.31571809788659
 20
-189.60670248820799
  0
VERTEX
  8
15
 10
687.95108131317602
 20
-189.36961991180959
  0
VERTEX
  8
15
 10
688.56249061068411
 20
-189.07626385169473
  0
VERTEX
  8
15
 10
689.14591622442549
 20
-188.72849090821833
  0
VERTEX
  8
15
 10
689.69630241876098
 20
-188.32923334978517
  0
VERTEX
  8
15
 10
690.20917626495236
 20
-187.88173356358587
  0
VERTEX
  8
15
 10
690.68017930016561
 20
-187.38979051843407
  0
VERTEX
  8
15
 10
691.10528273416264
 20
-186.85760911996948
  0
VERTEX
  8
15
 10
691.48082280607468
 20
-186.28977063445748
  0
VERTEX
  8
15
 10
691.80360963146404
 20
-185.69110367255621
  0
VERTEX
  8
15
 10
692.07101846761964
 20
-185.06648020014978
  0
VERTEX
  8
15
 10
692.2808097092784
 20
-184.42130829204064
  0
VERTEX
  8
15
 10
692.43167222351224
 20
-183.75984305418069
  0
VERTEX
  8
15
 10
692.52256117783315
 20
-183.08668828165858
  0
VERTEX
  8
15
 10
692.55291748046875
 20
-182.40602111816406
  0
VERTEX
  8
15
 10
692.52256117783315
 20
-181.72535395466954
  0
VERTEX
  8
15
 10
692.43167222351224
 20
-181.05219918214743
  0
VERTEX
  8
15
 10
692.2808097092784
 20
-180.39073394428749
  0
VERTEX
  8
15
 10
692.07101846761964
 20
-179.74556203617834
  0
VERTEX
  8
15
 10
691.80360963146393
 20
-179.12093856377189
  0
VERTEX
  8
15
 10
691.48082280607468
 20
-178.52227160187064
  0
VERTEX
  8
15
 10
691.10528273416264
 20
-177.95443311635864
  0
VERTEX
  8
15
 10
690.68017930016561
 20
-177.42225171789406
  0
VERTEX
  8
15
 10
690.20917626495236
 20
-176.93030867274226
  0
VERTEX
  8
15
 10
689.69630241876098
 20
-176.48280888654295
  0
VERTEX
  8
15
 10
689.14591622442549
 20
-176.08355132810979
  0
VERTEX
  8
15
 10
688.56249061068411
 20
-175.73577838463339
  0
VERTEX
  8
15
 10
687.95108131317602
 20
-175.44242232451853
  0
VERTEX
  8
15
 10
687.31571809788659
 20
-175.20533974812014
  0
VERTEX
  8
15
 10
686.66081263544004
 20
-175.02617146446372
  0
VERTEX
  8
15
 10
685.99041748046875
 20
-174.90602111816406
  0
VERTEX
  8
15
 10
677.55291748046875
 20
-174.90602111816406
  0
VERTEX
  8
15
 10
677.55291748046875
 20
-204.90602111816406
  0
SEQEND
  8
15
  0
POLYLINE
  8
15
  6
CONTINUOUS
 62
     7
 66
     1
 70
     0
 40
0.0
 41
0.0
  0
VERTEX
  8
15
 10
677.55291748046875
 20
-189.90602111816406
  0
VERTEX
  8
15
 10
685.99041748046875
 20
-189.90602111816406
  0
SEQEND
  8
15
  0
POLYLINE
  8
15
  6
CONTINUOUS
 62
     7
 66
     1
 70
     0
 40
0.0
 41
0.0
  0
VERTEX
  8
15
 10
702.39666748046875
 20
-189.90602111816406
  0
VERTEX
  8
15
 10
721.14666748046875
 20
-189.90602111816406
  0
SEQEND
  8
15
  0
POLYLINE
  8
15
  6
CONTINUOUS
 62
     7
 66
     1
 70
     0
 40
0.0
 41
0.0
  0
VERTEX
  8
15
 10
733.80291748046875
 20
-174.90602111816406
  0
VERTEX
  8
15
 10
726.30291748046875
 20
-195.53102111816406
  0
VERTEX
  8
15
 10
741.30291748046875
 20
-195.53102111816406
  0
SEQEND
  8
15
  0
POLYLINE
  8
15
  6
CONTINUOUS
 62
     7
 66
     1
 70
     0
 40
0.0
 41
0.0
  0
VERTEX
  8
15
 10
736.61541748046875
 20
-204.90602111816406
  0
VERTEX
  8
15
 10
736.61541748046875
 20
-185.21852111816406
  0
SEQEND
  8
15
  0
POLYLINE
  8
15
  6
CONTINUOUS
 62
     7
 66
     1
 70
     0
 40
0.0
 41
0.0
  0
VERTEX
  8
15
 10
653.17791748046875
 20
-253.65602111816406
  0
VERTEX
  8
15
 10
661.61541748046875
 20
-253.65602111816406
  0
VERTEX
  8
15
 10
662.28581263544004
 20
-253.53587077186441
  0
VERTEX
  8
15
 10
662.94071809788659
 20
-253.35670248820799
  0
VERTEX
  8
15
 10
663.57608131317602
 20
-253.11961991180959
  0
VERTEX
  8
15
 10
664.18749061068411
 20
-252.82626385169473
  0
VERTEX
  8
15
 10
664.77091622442549
 20
-252.47849090821833
  0
VERTEX
  8
15
 10
665.32130241876098
 20
-252.07923334978517
  0
VERTEX
  8
15
 10
665.83417626495236
 20
-251.63173356358587
  0
VERTEX
  8
15
 10
666.30517930016561
 20
-251.13979051843407
  0
VERTEX
  8
15
 10
666.73028273416264
 20
-250.60760911996948
  0
VERTEX
  8
15
 10
667.10582280607468
 20
-250.03977063445748
  0
VERTEX
  8
15
 10
667.42860963146404
 20
-249.44110367255621
  0
VERTEX
  8
15
 10
667.69601846761964
 20
-248.81648020014978
  0
VERTEX
  8
15
 10
667.9058097092784
 20
-248.17130829204064
  0
VERTEX
  8
15
 10
668.05667222351224
 20
-247.50984305418069
  0
VERTEX
  8
15
 10
668.14756117783315
 20
-246.83668828165858
  0
VERTEX
  8
15
 10
668.17791748046875
 20
-246.15602111816406
  0
VERTEX
  8
15
 10
668.14756117783315
 20
-245.47535395466954
  0
VERTEX
  8
15
 10
668.05667222351224
 20
-244.80219918214743
  0
VERTEX
  8
15
 10
667.9058097092784
 20
-244.14073394428749
  0
VERTEX
  8
15
 10
667.69601846761964
 20
-243.49556203617834
  0
VERTEX
  8
15
 10
667.42860963146393
 20
-242.87093856377189
  0
VERTEX
  8
15
 10
667.10582280607468
 20
-242.27227160187064
  0
VERTEX
  8
15
 10
666.73028273416264
 20
-241.70443311635864
  0
VERTEX
  8
15
 10
666.30517930016561
 20
-241.17225171789406
  0
VERTEX
  8
15
 10
665.83417626495236
 20
-240.68030867274226
  0
VERTEX
  8
15
 10
665.32130241876098
 20
-240.23280888654295
  0
VERTEX
  8
15
 10
664.77091622442549
 20
-239.83355132810979
  0
VERTEX
  8
15
 10
664.18749061068411
 20
-239.48577838463339
  0
VERTEX
  8
15
 10
663.57608131317602
 20
-239.19242232451853
  0
VERTEX
  8
15
 10
662.94071809788659
 20
-238.95533974812014
  0
VERTEX
  8
15
 10
662.28581263544004
 20
-238.77617146446372
  0
VERTEX
  8
15
 10
661.61541748046875
 20
-238.65602111816406
  0
VERTEX
  8
15
 10
662.28581263544004
 20
-238.53587077186441
  0
VERTEX
  8
15
 10
662.94071809788659
 20
-238.35670248820799
  0
VERTEX
  8
15
 10
663.57608131317602
 20
-238.11961991180959
  0
VERTEX
  8
15
 10
664.18749061068411
 20
-237.82626385169473
  0
VERTEX
  8
15
 10
664.77091622442549
 20
-237.47849090821833
  0
VERTEX
  8
15
 10
665.32130241876098
 20
-237.07923334978517
  0
VERTEX
  8
15
 10
665.83417626495236
 20
-236.63173356358587
  0
VERTEX
  8
15
 10
666.30517930016561
 20
-236.13979051843407
  0
VERTEX
  8
15
 10
666.73028273416264
 20
-235.60760911996948
  0
VERTEX
  8
15
 10
667.10582280607468
 20
-235.03977063445748
  0
VERTEX
  8
15
 10
667.42860963146404
 20
-234.44110367255621
  0
VERTEX
  8
15
 10
667.69601846761964
 20
-233.81648020014978
  0
VERTEX
  8
15
 10
667.9058097092784
 20
-233.17130829204064
  0
VERTEX
  8
15
 10
668.05667222351224
 20
-232.50984305418069
  0
VERTEX
  8
15
 10
668.14756117783315
 20
-231.83668828165858
  0
VERTEX
  8
15
 10
668.17791748046875
 20
-231.15602111816406
  0
VERTEX
  8
15
 10
668.14756117783315
 20
-230.47535395466954
  0
VERTEX
  8
15
 10
668.05667222351224
 20
-229.80219918214743
  0
VERTEX
  8
15
 10
667.9058097092784
 20
-229.14073394428749
  0
VERTEX
  8
15
 10
667.69601846761964
 20
-228.49556203617834
  0
VERTEX
  8
15
 10
667.42860963146393
 20
-227.87093856377189
  0
VERTEX
  8
15
 10
667.10582280607468
 20
-227.27227160187064
  0
VERTEX
  8
15
 10
666.73028273416264
 20
-226.70443311635864
  0
VERTEX
  8
15
 10
666.30517930016561
 20
-226.17225171789406
  0
VERTEX
  8
15
 10
665.83417626495236
 20
-225.68030867274226
  0
VERTEX
  8
15
 10
665.32130241876098
 20
-225.23280888654295
  0
VERTEX
  8
15
 10
664.77091622442549
 20
-224.83355132810979
  0
VERTEX
  8
15
 10
664.18749061068411
 20
-224.48577838463339
  0
VERTEX
  8
15
 10
663.57608131317602
 20
-224.19242232451853
  0
VERTEX
  8
15
 10
662.94071809788659
 20
-223.95533974812014
  0
VERTEX
  8
15
 10
662.28581263544004
 20
-223.77617146446372
  0
VERTEX
  8
15
 10
661.61541748046875
 20
-223.65602111816406
  0
VERTEX
  8
15
 10
653.17791748046875
 20
-223.65602111816406
  0
VERTEX
  8
15
 10
653.17791748046875
 20
-253.65602111816406
  0
SEQEND
  8
15
  0
POLYLINE
  8
15
  6
CONTINUOUS
 62
     7
 66
     1
 70
     0
 40
0.0
 41
0.0
  0
VERTEX
  8
15
 10
653.17791748046875
 20
-238.65602111816406
  0
VERTEX
  8
15
 10
661.61541748046875
 20
-238.65602111816406
  0
SEQEND
  8
15
  0
POLYLINE
  8
15
  6
CONTINUOUS
 62
     7
 66
     1
 70
     0
 40
0.0
 41
0.0
  0
VERTEX
  8
15
 10
677.55291748046875
 20
-253.65602111816406
  0
VERTEX
  8
15
 10
685.05291748046875
 20
-223.65602111816406
  0
VERTEX
  8
15
 10
692.55291748046875
 20
-253.65602111816406
  0
SEQEND
  8
15
  0
POLYLINE
  8
15
  6
CONTINUOUS
 62
     7
 66
     1
 70
     0
 40
0.0
 41
0.0
  0
VERTEX
  8
15
 10
690.20916748046875
 20
-244.28102111816406
  0
VERTEX
  8
15
 10
679.89666748046875
 20
-244.28102111816406
  0
SEQEND
  8
15
  0
ENDBLK
  8
15
  0
ENDSEC
  0
SECTION
  2
ENTITIES
  0
LINE
  8
15
  6
CENTER
 62
     3
 10
0.0
 20
-41.168834686279297
 11
0.0
 21
643.0662841796875
  0
INSERT
  8
15
  6
CONTINUOUS
 62
     3
  2
COMP1
 10
0.0
 20
0.0
 41
1.0
 42
1.0
 50
0.0
  0
LINE
  8
15
  6
CENTER
 62
     3
 10
734.06328831287669
 20
-41.168834686279297
 11
734.06328831287669
 21
643.0662841796875
  0
INSERT
  8
15
  6
CONTINUOUS
 62
     3
  2
COMP2
 10
0.0
 20
0.0
 41
1.0
 42
1.0
 50
0.0
  0
LINE
  8
15
  6
CENTER
 62
     3
 10
0.0
 20
-432.42466166107624
 11
0.0
 21
-140.79261019318074
  0
LINE
  8
15
  6
CENTER
 62
     3
 10
267.53359985351562
 20
-158.59501078216999
 11
-272.84341430664062
 21
-158.59501078216999
  0
LINE
  8
15
  6
CENTER
 62
     3
 10
-210.0
 20
-409.96003153412312
 11
-210.0
 21
-325.81968119232624
  0
LINE
  8
15
  6
CENTER
 62
     3
 10
210.0
 20
-409.96003153412312
 11
210.0
 21
-325.81968119232624
  0
LINE
  8
15
  6
CENTER
 62
     3
 10
252.01258850097656
 20
-368.59501078216999
 11
167.87225341796875
 21
-368.59501078216999
  0
LINE
  8
15
  6
CENTER
 62
     3
 10
-169.09759521484375
 20
-368.59501078216999
 11
-251.60414123535153
 21
-368.59501078216999
  0
INSERT
  8
15
  6
CONTINUOUS
 62
     3
  2
COMP3
 10
0.0
 20
0.0
 41
1.0
 42
1.0
 50
0.0
  0
INSERT
  8
15
  6
CONTINUOUS
 62
     7
  2
COMP4
 10
0.0
 20
0.0
 41
1.0
 42
1.0
 50
0.0
  0
ENDSEC
  0
EOF
