  0
SECTION
  2
HEADER
  9
$ACADVER
  1
AC1015
  9
$ACADMAINTVER
 70
     6
  9
$DWGCODEPAGE
  3
DOS932
  9
$INSBASE
 10
0.0
 20
0.0
 30
0.0
  9
$EXTMIN
 10
39.269775
 20
50.744568
 30
1.000000E+20
  9
$EXTMAX
 10
848.682556
 20
819.505615
 30
-1.000000E+20
  9
$LIMMIN
 10
0.0
 20
0.0
  9
$LIMMAX
 10
12.0
 20
9.0
  9
$ORTHOMODE
 70
     0
  9
$REGENMODE
 70
     1
  9
$FILLMODE
 70
     1
  9
$QTEXTMODE
 70
     0
  9
$MIRRTEXT
 70
     1
  9
$LTSCALE
 40
13.490213
  9
$ATTMODE
 70
     1
  9
$TEXTSIZE
 40
3.2
  9
$TRACEWID
 40
0.05
  9
$TEXTSTYLE
  7
STANDARD
  9
$CLAYER
  8
0
  9
$CELTYPE
  6
Continuous
  9
$CECOLOR
 62
   256
  9
$CELTSCALE
 40
1.0
  9
$DISPSILH
 70
     0
  9
$DIMSCALE
 40
1.0
  9
$DIMASZ
 40
0.18
  9
$DIMEXO
 40
0.0625
  9
$DIMDLI
 40
0.38
  9
$DIMRND
 40
0.0
  9
$DIMDLE
 40
0.0
  9
$DIMEXE
 40
0.18
  9
$DIMTP
 40
0.0
  9
$DIMTM
 40
0.0
  9
$DIMTXT
 40
0.18
  9
$DIMCEN
 40
0.09
  9
$DIMTSZ
 40
0.0
  9
$DIMTOL
 70
     0
  9
$DIMLIM
 70
     0
  9
$DIMTIH
 70
     1
  9
$DIMTOH
 70
     1
  9
$DIMSE1
 70
     0
  9
$DIMSE2
 70
     0
  9
$DIMTAD
 70
     0
  9
$DIMZIN
 70
     0
  9
$DIMBLK
  1

  9
$DIMASO
 70
     1
  9
$DIMSHO
 70
     1
  9
$DIMPOST
  1

  9
$DIMAPOST
  1

  9
$DIMALT
 70
     0
  9
$DIMALTD
 70
     2
  9
$DIMALTF
 40
25.4
  9
$DIMLFAC
 40
1.0
  9
$DIMTOFL
 70
     0
  9
$DIMTVP
 40
0.0
  9
$DIMTIX
 70
     0
  9
$DIMSOXD
 70
     0
  9
$DIMSAH
 70
     0
  9
$DIMBLK1
  1

  9
$DIMBLK2
  1

  9
$DIMSTYLE
  2
Standard
  9
$DIMCLRD
 70
     0
  9
$DIMCLRE
 70
     0
  9
$DIMCLRT
 70
     0
  9
$DIMTFAC
 40
1.0
  9
$DIMGAP
 40
0.09
  9
$DIMJUST
 70
     0
  9
$DIMSD1
 70
     0
  9
$DIMSD2
 70
     0
  9
$DIMTOLJ
 70
     1
  9
$DIMTZIN
 70
     0
  9
$DIMALTZ
 70
     0
  9
$DIMALTTZ
 70
     0
  9
$DIMUPT
 70
     0
  9
$DIMDEC
 70
     4
  9
$DIMTDEC
 70
     4
  9
$DIMALTU
 70
     2
  9
$DIMALTTD
 70
     2
  9
$DIMTXSTY
  7
STANDARD
  9
$DIMAUNIT
 70
     0
  9
$DIMADEC
 70
     0
  9
$DIMALTRND
 40
0.0
  9
$DIMAZIN
 70
     0
  9
$DIMDSEP
 70
     0
  9
$DIMATFIT
 70
     3
  9
$DIMFRAC
 70
     0
  9
$DIMLDRBLK
  1

  9
$DIMLUNIT
 70
     2
  9
$DIMLWD
 70
     0
  9
$DIMLWE
 70
     0
  9
$DIMTMOVE
 70
     0
  9
$LUNITS
 70
     2
  9
$LUPREC
 70
     4
  9
$SKETCHINC
 40
0.1
  9
$FILLETRAD
 40
0.0
  9
$AUNITS
 70
     0
  9
$AUPREC
 70
     0
  9
$MENU
  1
.
  9
$ELEVATION
 40
0.0
  9
$PELEVATION
 40
0.0
  9
$THICKNESS
 40
0.0
  9
$LIMCHECK
 70
     0
  9
$CHAMFERA
 40
0.0
  9
$CHAMFERB
 40
0.0
  9
$CHAMFERC
 40
0.0
  9
$CHAMFERD
 40
0.0
  9
$SKPOLY
 70
     0
  9
$TDCREATE
 40
0.000000000
  9
$TDUCREATE
 40
0.000000000
  9
$TDUPDATE
 40
0.000000000
  9
$TDUUPDATE
 40
0.000000000
  9
$TDINDWG
 40
0.0000000000
  9
$TDUSRTIMER
 40
0.0000000000
  9
$USRTIMER
 70
     1
  9
$ANGBASE
 50
0.0
  9
$ANGDIR
 70
     0
  9
$PDMODE
 70
     0
  9
$PDSIZE
 40
0.0
  9
$PLINEWID
 40
0.0
  9
$SPLFRAME
 70
     0
  9
$SPLINETYPE
 70
     6
  9
$SPLINESEGS
 70
     8
  9
$HANDSEED
  5
586
  9
$SURFTAB1
 70
     6
  9
$SURFTAB2
 70
     6
  9
$SURFTYPE
 70
     6
  9
$SURFU
 70
     6
  9
$SURFV
 70
     6
  9
$UCSBASE
  2

  9
$UCSNAME
  2

  9
$UCSORG
 10
0.0
 20
0.0
 30
0.0
  9
$UCSXDIR
 10
1.0
 20
0.0
 30
0.0
  9
$UCSYDIR
 10
0.0
 20
1.0
 30
0.0
  9
$UCSORTHOREF
  2

  9
$UCSORTHOVIEW
 70
     0
  9
$UCSORGTOP
 10
0.0
 20
0.0
 30
0.0
  9
$UCSORGBOTTOM
 10
0.0
 20
0.0
 30
0.0
  9
$UCSORGLEFT
 10
0.0
 20
0.0
 30
0.0
  9
$UCSORGRIGHT
 10
0.0
 20
0.0
 30
0.0
  9
$UCSORGFRONT
 10
0.0
 20
0.0
 30
0.0
  9
$UCSORGBACK
 10
0.0
 20
0.0
 30
0.0
  9
$PUCSBASE
  2

  9
$PUCSNAME
  2

  9
$PUCSORG
 10
0.0
 20
0.0
 30
0.0
  9
$PUCSXDIR
 10
1.0
 20
0.0
 30
0.0
  9
$PUCSYDIR
 10
0.0
 20
1.0
 30
0.0
  9
$PUCSORTHOREF
  2

  9
$PUCSORTHOVIEW
 70
     0
  9
$PUCSORGTOP
 10
0.0
 20
0.0
 30
0.0
  9
$PUCSORGBOTTOM
 10
0.0
 20
0.0
 30
0.0
  9
$PUCSORGLEFT
 10
0.0
 20
0.0
 30
0.0
  9
$PUCSORGRIGHT
 10
0.0
 20
0.0
 30
0.0
  9
$PUCSORGFRONT
 10
0.0
 20
0.0
 30
0.0
  9
$PUCSORGBACK
 10
0.0
 20
0.0
 30
0.0
  9
$USERI1
 70
     0
  9
$USERI2
 70
     0
  9
$USERI3
 70
     0
  9
$USERI4
 70
     0
  9
$USERI5
 70
     0
  9
$USERR1
 40
0.0
  9
$USERR2
 40
0.0
  9
$USERR3
 40
0.0
  9
$USERR4
 40
0.0
  9
$USERR5
 40
0.0
  9
$WORLDVIEW
 70
     1
  9
$SHADEDGE
 70
     3
  9
$SHADEDIF
 70
    70
  9
$TILEMODE
 70
     1
  9
$MAXACTVP
 70
    16
  9
$PINSBASE
 10
0.0
 20
0.0
 30
0.0
  9
$PLIMCHECK
 70
     0
  9
$PEXTMIN
 10
1.000000E+20
 20
1.000000E+20
 30
1.000000E+20
  9
$PEXTMAX
 10
-1.000000E+20
 20
-1.000000E+20
 30
-1.000000E+20
  9
$PLIMMIN
 10
0.0
 20
0.0
  9
$PLIMMAX
 10
12.0
 20
9.0
  9
$UNITMODE
 70
     0
  9
$VISRETAIN
 70
     0
  9
$PLINEGEN
 70
     0
  9
$PSLTSCALE
 70
     1
  9
$TREEDEPTH
 70
  3020
  9
$CMLSTYLE
  2
Standard
  9
$CMLJUST
 70
     0
  9
$CMLSCALE
 40
1.0
  9
$PROXYGRAPHICS
 70
     0
  9
$MEASUREMENT
 70
     0
  9
$CELWEIGHT
370
     0
  9
$ENDCAPS
280
     0
  9
$JOINSTYLE
280
     0
  9
$LWDISPLAY
290
     0
  9
$INSUNITS
 70
     0
  9
$HYPERLINKBASE
  1

  9
$XEDIT
290
     1
  9
$CEPSNTYPE
380
     0
  9
$PSTYLEMODE
290
     1
  9
$FINGERPRINTGUID
  2

  9
$VERSIONGUID
  2

  9
$EXTNAMES
290
     1
  9
$PSVPSCALE
 40
0.0
  0
ENDSEC
  0
SECTION
  2
CLASSES
  0
CLASS
  1
LWPOLYLINE
  2
AcDbPolyline
  3
AutoCAD 2000
 90
    32768
280
     0
281
     1
  0
CLASS
  1
IMAGE
  2
AcDbRasterImage
  3
ISM
 90
    32895
280
     0
281
     1
  0
CLASS
  1
OLE2FRAME
  2
AcDbOle2Frame
  3
AutoCAD 2000
 90
    32768
280
     0
281
     1
  0
CLASS
  1
HATCH
  2
AcDbHatch
  3
AutoCAD 2000
 90
    32768
280
     0
281
     1
  0
CLASS
  1
DICTIONARYVAR
  2
AcDbDictionaryVar
  3
AutoCAD 2000
 90
    32768
280
     0
281
     0
  0
CLASS
  1
RASTERVARIABLES
  2
AcDbRasterVariables
  3
ISM
 90
    32768
280
     0
281
     0
  0
CLASS
  1
IMAGEDEF
  2
AcDbRasterImageDef
  3
ISM
 90
    32768
280
     0
281
     0
  0
CLASS
  1
IMAGEDEF_REACTOR
  2
AcDbRasterImageDefReactor
  3
ISM
 90
    32769
280
     0
281
     0
  0
CLASS
  1
IDBUFFER
  2
AcDbIdBuffer
  3
AutoCAD 2000
 90
    32768
280
     0
281
     0
  0
CLASS
  1
SPATIAL_FILTER
  2
AcDbSpatialFilter
  3
AutoCAD 2000
 90
    32768
280
     0
281
     0
  0
CLASS
  1
XRECORD
  2
AcDbXrecord
  3
AutoCAD 2000
 90
    32768
280
     0
281
     0
  0
CLASS
  1
SORTENTSTABLE
  2
AcDbSortentsTable
  3
AutoCAD 2000
 90
    32768
280
     0
281
     0
  0
CLASS
  1
LAYER_INDEX
  2
AcDbLayerIndex
  3
AutoCAD 2000
 90
    32768
280
     0
281
     0
  0
CLASS
  1
SPATIAL_INDEX
  2
AcDbSpatialIndex
  3
AutoCAD 2000
 90
    32768
280
     0
281
     0
  0
CLASS
  1
OBJECT_PTR
  2
CAseDLPNTableRecord
  3
"ASE-LPNTableRecord"
 90
    32769
280
     0
281
     0
  0
CLASS
  1
LAYOUT
  2
AcDbLayout
  3
AutoCAD 2000
 90
        0
280
     0
281
     0
  0
CLASS
  1
PLOTSETTINGS
  2
AcDbPlotSettings
  3
AutoCAD 2000
 90
    32768
280
     0
281
     0
  0
CLASS
  1
ACDBDICTIONARYWDFLT
  2
AcDbDictionaryWithDefault
  3
AutoCAD 2000
 90
        0
280
     0
281
     0
  0
CLASS
  1
ACDBPLACEHOLDER
  2
AcDbPlaceHolder
  3
AutoCAD 2000
 90
        0
280
     0
281
     0
  0
CLASS
  1
VBA_PROJECT
  2
AcDbVbaProject
  3
acadvba
 90
    32768
280
     0
281
     0
  0
CLASS
  1
WIPEOUT
  2
AcDbWipeout
  3
WipeOut|AutoCAD Express Tool|expresstools@autodesk.com
 90
    32895
280
     0
281
     1
  0
CLASS
  1
WIPEOUTVARIABLES
  2
AcDbWipeoutVariables
  3
WipeOut|AutoCAD Express Tool|expresstools@autodesk.com
 90
        0
280
     0
281
     0
  0
CLASS
  1
RTEXT
  2
RText
  3
RText|AutoCAD Express Tool|expresstools@autodesk.com
 90
    32768
280
     0
281
     1
  0
CLASS
  1
ARCALIGNEDTEXT
  2
AcDbArcAlignedText
  3
ATEXT|AutoCAD Express Tool|expresstools@autodesk.com
 90
    32768
280
     0
281
     1
  0
ENDSEC
  0
SECTION
  2
TABLES
  0
TABLE
  2
VPORT
  5
7
100
AcDbSymbolTable
 70
     1
  0
VPORT
  5
15
100
AcDbSymbolTableRecord
100
AcDbViewportTableRecord
  2
*ACTIVE
 70
     0
 10
0.0
 20
0.0
 11
1.0
 21
1.0
 12
443.976166
 22
435.125092
 13
0.0
 23
0.0
 14
1.0
 24
1.0
 15
0.0
 25
0.0
 16
0.0
 26
0.0
 36
1.0
 17
0.0
 27
0.0
 37
0.0
 40
776.448658
 41
1.691288
 42
50.0
 43
0.0
 44
0.0
 50
0.0
 51
0.0
 71
     0
 72
   100
 73
     1
 74
     1
 75
     0
 76
     0
 77
     0
 78
     0
281
     0
 65
     0
110
0.0
120
0.0
130
0.0
111
1.0
121
0.0
131
0.0
112
0.0
122
1.0
132
0.0
345
0
346
0
 79
     0
146
0.0
  0
ENDTAB
  0
TABLE
  2
LTYPE
  5
4
100
AcDbSymbolTable
 70
     7
  0
LTYPE
  5
11
100
AcDbSymbolTableRecord
100
AcDbLinetypeTableRecord
  2
ByBlock
 70
    64
  3

 72
    65
 73
     0
 40
0.0
  0
LTYPE
  5
12
100
AcDbSymbolTableRecord
100
AcDbLinetypeTableRecord
  2
ByLayer
 70
    64
  3

 72
    65
 73
     0
 40
0.0
  0
LTYPE
  5
13
100
AcDbSymbolTableRecord
100
AcDbLinetypeTableRecord
  2
Continuous
 70
    64
  3
Solid line
 72
    65
 73
     0
 40
0.0
  0
LTYPE
  5
24
100
AcDbSymbolTableRecord
100
AcDbLinetypeTableRecord
  2
DASHED
 70
    64
  3
DASHED
 72
    65
 73
     2
 40
0.75
 49
0.5
 74
     0
 49
-0.25
 74
     0
  0
LTYPE
  5
25
100
AcDbSymbolTableRecord
100
AcDbLinetypeTableRecord
  2
HIDDEN
 70
    64
  3
HIDDEN
 72
    65
 73
     2
 40
0.375
 49
0.25
 74
     0
 49
-0.125
 74
     0
  0
LTYPE
  5
26
100
AcDbSymbolTableRecord
100
AcDbLinetypeTableRecord
  2
CENTER
 70
    64
  3
CENTER
 72
    65
 73
     4
 40
2.0
 49
1.25
 74
     0
 49
-0.25
 74
     0
 49
0.25
 74
     0
 49
-0.25
 74
     0
  0
LTYPE
  5
27
100
AcDbSymbolTableRecord
100
AcDbLinetypeTableRecord
  2
PHANTOM
 70
    64
  3
PHANTOM
 72
    65
 73
     6
 40
2.5
 49
1.25
 74
     0
 49
-0.25
 74
     0
 49
0.25
 74
     0
 49
-0.25
 74
     0
 49
0.25
 74
     0
 49
-0.25
 74
     0
  0
ENDTAB
  0
TABLE
  2
LAYER
  5
2
100
AcDbSymbolTable
 70
     3
  0
LAYER
  5
14
100
AcDbSymbolTableRecord
100
AcDbLayerTableRecord
  2
0
 70
     0
 62
     7
  6
Continuous
290
     1
370
    -3
390
1D
  0
LAYER
  5
28
100
AcDbSymbolTableRecord
100
AcDbLayerTableRecord
  2
002
 70
     0
 62
     7
  6
Continuous
290
     1
370
    -3
390
1F
  0
LAYER
  5
29
100
AcDbSymbolTableRecord
100
AcDbLayerTableRecord
  2
003
 70
     0
 62
     7
  6
Continuous
290
     1
370
    -3
390
1F
  0
ENDTAB
  0
TABLE
  2
STYLE
  5
3
100
AcDbSymbolTable
 70
     2
  0
STYLE
  5
17
100
AcDbSymbolTableRecord
100
AcDbTextStyleTableRecord
  2
STANDARD
 70
     0
 40
0.0
 41
1.0
 50
0.0
 71
     0
 42
0.2
  3
TXT
  4
BIGFONT
  0
STYLE
  5
2A
100
AcDbSymbolTableRecord
100
AcDbTextStyleTableRecord
  2
TATEGAKI
 70
     4
 40
1.0
 41
1.0
 50
0.0
 71
     0
 42
0.2
  3
TXT
  4
BIGFONT
  0
ENDTAB
  0
TABLE
  2
VIEW
  5
5
100
AcDbSymbolTable
 70
     0
  0
ENDTAB
  0
TABLE
  2
UCS
  5
6
100
AcDbSymbolTable
 70
     0
  0
ENDTAB
  0
TABLE
  2
APPID
  5
8
100
AcDbSymbolTable
 70
     1
  0
APPID
  5
16
100
AcDbSymbolTableRecord
100
AcDbRegAppTableRecord
  2
ACAD
 70
     0
  0
ENDTAB
  0
TABLE
  2
DIMSTYLE
  5
9
100
AcDbSymbolTable
 70
     1
100
AcDbDimStyleTable
 71
     0
  0
DIMSTYLE
105
18
100
AcDbSymbolTableRecord
100
AcDbDimStyleTableRecord
  2
Standard
 70
     0
  3

  4

 40
1.0
 41
0.18
 42
0.0625
 43
0.38
 44
0.18
 45
0.0
 46
0.0
 47
0.0
 48
0.0
 71
     0
 72
     0
 73
     1
 74
     1
 75
     0
 76
     0
 77
     0
 78
     0
 79
     0
140
0.18
141
0.09
142
0.0
143
25.4
144
1.0
145
0.0
146
1.0
147
0.09
148
0.0
170
     0
171
     2
172
     0
173
     0
174
     0
175
     0
176
     0
177
     0
178
     0
179
     0
271
     4
272
     4
273
     2
274
     2
275
     0
276
     0
277
     2
278
    46
279
     0
280
     0
281
     0
282
     0
283
     1
284
     0
285
     0
286
     0
288
     0
340
17
341
0
342
0
343
0
344
0
371
    -2
372
    -2
  0
ENDTAB
  0
TABLE
  2
BLOCK_RECORD
  5
1
100
AcDbSymbolTable
 70
     0
  0
BLOCK_RECORD
  5
A
100
AcDbSymbolTableRecord
100
AcDbBlockTableRecord
  2
*MODEL_SPACE
340
20
  0
BLOCK_RECORD
  5
B
100
AcDbSymbolTableRecord
100
AcDbBlockTableRecord
  2
*PAPER_SPACE
340
21
  0
ENDTAB
  0
ENDSEC
  0
SECTION
  2
BLOCKS
  0
BLOCK
  5
D
100
AcDbEntity
  8
0
100
AcDbBlockBegin
  2
*MODEL_SPACE
 70
     0
 10
0.0
 20
0.0
 30
0.0
  3
*MODEL_SPACE
  1

  0
ENDBLK
  5
E
100
AcDbEntity
  8
0
100
AcDbBlockEnd
  0
BLOCK
  5
F
100
AcDbEntity
 67
     1
  8
0
100
AcDbBlockBegin
  2
*PAPER_SPACE
 70
     0
 10
0.0
 20
0.0
 30
0.0
  3
*PAPER_SPACE
  1

  0
ENDBLK
  5
10
100
AcDbEntity
 67
     1
  8
0
100
AcDbBlockEnd
  0
ENDSEC
  0
SECTION
  2
ENTITIES
  0
LINE
  5
2B
100
AcDbEntity
  8
002
 62
     3
100
AcDbLine
 10
122.543846
 20
527.754434
 30
0.0
 11
118.043846
 21
527.754434
 31
0.0
  0
LINE
  5
2C
100
AcDbEntity
  8
002
 62
     3
100
AcDbLine
 10
118.043846
 20
527.754434
 30
0.0
 11
117.793846
 21
527.504434
 31
0.0
  0
LINE
  5
2D
100
AcDbEntity
  8
002
 62
     3
100
AcDbLine
 10
117.793846
 20
527.504434
 30
0.0
 11
117.793846
 21
523.004434
 31
0.0
  0
LINE
  5
2E
100
AcDbEntity
  8
002
 62
     3
100
AcDbLine
 10
117.793846
 20
523.004434
 30
0.0
 11
118.043846
 21
522.754434
 31
0.0
  0
LINE
  5
2F
100
AcDbEntity
  8
002
 62
     3
100
AcDbLine
 10
118.043846
 20
522.754434
 30
0.0
 11
122.543846
 21
522.754434
 31
0.0
  0
LINE
  5
30
100
AcDbEntity
  8
002
 62
     3
100
AcDbLine
 10
122.543846
 20
522.754434
 30
0.0
 11
122.793846
 21
523.004434
 31
0.0
  0
LINE
  5
31
100
AcDbEntity
  8
002
 62
     3
100
AcDbLine
 10
122.793846
 20
523.004434
 30
0.0
 11
122.793846
 21
527.504434
 31
0.0
  0
LINE
  5
32
100
AcDbEntity
  8
002
 62
     3
100
AcDbLine
 10
122.793846
 20
527.504434
 30
0.0
 11
122.543846
 21
527.754434
 31
0.0
  0
ARC
  5
33
100
AcDbEntity
  8
002
 62
     3
100
AcDbCircle
 10
122.593846
 20
522.954434
 30
0.0
 40
0.2
100
AcDbArc
 50
270.0
 51
0.0
  0
ARC
  5
34
100
AcDbEntity
  8
002
 62
     3
100
AcDbCircle
 10
117.993846
 20
522.954434
 30
0.0
 40
0.2
100
AcDbArc
 50
180.0
 51
270.0
  0
ARC
  5
35
100
AcDbEntity
  8
002
 62
     3
100
AcDbCircle
 10
120.293846
 20
518.254434
 30
0.0
 40
7.499936
100
AcDbArc
 50
109.471393
 51
70.528607
  0
LINE
  5
36
100
AcDbEntity
  8
002
  6
CENTER
 62
     9
100
AcDbLine
 10
109.494946
 20
518.254434
 30
0.0
 11
132.028146
 21
518.254434
 31
0.0
  0
LINE
  5
37
100
AcDbEntity
  8
002
  6
CENTER
 62
     9
100
AcDbLine
 10
120.293846
 20
530.066434
 30
0.0
 11
120.293846
 21
508.131434
 31
0.0
  0
LINE
  5
38
100
AcDbEntity
  8
002
 62
     3
100
AcDbLine
 10
276.721312
 20
571.343342
 30
0.0
 11
274.721312
 21
573.343342
 31
0.0
  0
LINE
  5
39
100
AcDbEntity
  8
002
 62
     3
100
AcDbLine
 10
274.721312
 20
573.343342
 30
0.0
 11
274.721312
 21
628.343342
 31
0.0
  0
LINE
  5
3A
100
AcDbEntity
  8
002
 62
     3
100
AcDbLine
 10
274.721312
 20
628.343342
 30
0.0
 11
277.721312
 21
631.343342
 31
0.0
  0
LINE
  5
3B
100
AcDbEntity
  8
002
 62
     3
100
AcDbLine
 10
277.721312
 20
631.343342
 30
0.0
 11
303.721312
 21
631.343342
 31
0.0
  0
LINE
  5
3C
100
AcDbEntity
  8
002
 62
     3
100
AcDbLine
 10
303.721312
 20
631.343342
 30
0.0
 11
306.721312
 21
628.343342
 31
0.0
  0
LINE
  5
3D
100
AcDbEntity
  8
002
 62
     3
100
AcDbLine
 10
306.721312
 20
628.343342
 30
0.0
 11
306.721312
 21
573.343342
 31
0.0
  0
LINE
  5
3E
100
AcDbEntity
  8
002
 62
     3
100
AcDbLine
 10
306.721312
 20
573.343342
 30
0.0
 11
304.721312
 21
571.343342
 31
0.0
  0
LINE
  5
3F
100
AcDbEntity
  8
002
 62
     3
100
AcDbLine
 10
274.721312
 20
573.343342
 30
0.0
 11
306.721312
 21
573.343342
 31
0.0
  0
LINE
  5
40
100
AcDbEntity
  8
002
 62
     3
100
AcDbLine
 10
298.721312
 20
598.343342
 30
0.0
 11
282.721312
 21
598.343342
 31
0.0
  0
ARC
  5
41
100
AcDbEntity
  8
002
 62
     3
100
AcDbCircle
 10
283.728212
 20
603.240842
 30
0.0
 40
4.999946
100
AcDbArc
 50
202.30297
 51
258.382178
  0
LINE
  5
42
100
AcDbEntity
  8
002
 62
     3
100
AcDbLine
 10
279.102312
 20
601.343342
 30
0.0
 11
279.102312
 21
628.343342
 31
0.0
  0
LINE
  5
43
100
AcDbEntity
  8
002
 62
     3
100
AcDbLine
 10
279.102312
 20
628.343342
 30
0.0
 11
282.975312
 21
631.343342
 31
0.0
  0
LINE
  5
44
100
AcDbEntity
  8
002
 62
     3
100
AcDbLine
 10
279.102312
 20
628.343342
 30
0.0
 11
274.721312
 21
628.343342
 31
0.0
  0
CIRCLE
  5
45
100
AcDbEntity
  8
002
 62
     3
100
AcDbCircle
 10
290.721312
 20
616.343342
 30
0.0
 40
7.5
  0
LINE
  5
46
100
AcDbEntity
  8
002
 62
     3
100
AcDbLine
 10
279.102312
 20
601.343342
 30
0.0
 11
302.340212
 21
601.343342
 31
0.0
  0
ARC
  5
47
100
AcDbEntity
  8
002
 62
     3
100
AcDbCircle
 10
297.714312
 20
603.240842
 30
0.0
 40
4.999956
100
AcDbArc
 50
281.618944
 51
337.69703
  0
LINE
  5
48
100
AcDbEntity
  8
002
 62
     3
100
AcDbLine
 10
302.340212
 20
601.343342
 30
0.0
 11
302.340212
 21
628.343342
 31
0.0
  0
LINE
  5
49
100
AcDbEntity
  8
002
 62
     3
100
AcDbLine
 10
302.340212
 20
628.343342
 30
0.0
 11
306.721312
 21
628.343342
 31
0.0
  0
LINE
  5
4A
100
AcDbEntity
  8
002
 62
     3
100
AcDbLine
 10
302.340212
 20
628.343342
 30
0.0
 11
298.467212
 21
631.343342
 31
0.0
  0
LINE
  5
4B
100
AcDbEntity
  8
002
  6
CENTER
 62
     9
100
AcDbLine
 10
303.550912
 20
616.343342
 30
0.0
 11
278.405012
 21
616.343342
 31
0.0
  0
CIRCLE
  5
4C
100
AcDbEntity
  8
002
 62
     3
100
AcDbCircle
 10
290.721312
 20
706.343342
 30
0.0
 40
16.0
  0
ARC
  5
4D
100
AcDbEntity
  8
002
 62
     3
100
AcDbCircle
 10
290.721312
 20
706.343342
 30
0.0
 40
12.999998
100
AcDbArc
 50
302.204215
 51
57.795785
  0
LINE
  5
4E
100
AcDbEntity
  8
002
 62
     3
100
AcDbLine
 10
279.102312
 20
717.343342
 30
0.0
 11
302.340212
 21
717.343342
 31
0.0
  0
ARC
  5
4F
100
AcDbEntity
  8
002
 62
     3
100
AcDbCircle
 10
290.721312
 20
706.343342
 30
0.0
 40
13.000052
100
AcDbArc
 50
122.204588
 51
237.795412
  0
LINE
  5
50
100
AcDbEntity
  8
002
 62
     3
100
AcDbLine
 10
302.340212
 20
695.343342
 30
0.0
 11
279.102312
 21
695.343342
 31
0.0
  0
LINE
  5
51
100
AcDbEntity
  8
002
 62
     3
100
AcDbLine
 10
304.721312
 20
571.343342
 30
0.0
 11
276.721312
 21
571.343342
 31
0.0
  0
LINE
  5
52
100
AcDbEntity
  8
002
  6
HIDDEN
 62
     9
100
AcDbLine
 10
298.221312
 20
717.343342
 30
0.0
 11
298.221312
 21
695.343342
 31
0.0
  0
LINE
  5
53
100
AcDbEntity
  8
002
  6
HIDDEN
 62
     9
100
AcDbLine
 10
283.221312
 20
717.343342
 30
0.0
 11
283.221312
 21
695.343342
 31
0.0
  0
LINE
  5
54
100
AcDbEntity
  8
002
  6
CENTER
 62
     9
100
AcDbLine
 10
290.721312
 20
732.343342
 30
0.0
 11
290.721312
 21
680.343342
 31
0.0
  0
LINE
  5
55
100
AcDbEntity
  8
002
  6
CENTER
 62
     9
100
AcDbLine
 10
316.721312
 20
706.343342
 30
0.0
 11
264.721312
 21
706.343342
 31
0.0
  0
CIRCLE
  5
56
100
AcDbEntity
  8
002
 62
     3
100
AcDbCircle
 10
459.123443
 20
706.343342
 30
0.0
 40
50.0
  0
CIRCLE
  5
57
100
AcDbEntity
  8
002
 62
     3
100
AcDbCircle
 10
459.123443
 20
673.843342
 30
0.0
 40
4.5
  0
CIRCLE
  5
58
100
AcDbEntity
  8
002
 62
     3
100
AcDbCircle
 10
491.623443
 20
706.343342
 30
0.0
 40
4.5
  0
CIRCLE
  5
59
100
AcDbEntity
  8
002
 62
     3
100
AcDbCircle
 10
459.123443
 20
706.343342
 30
0.0
 40
6.188
  0
CIRCLE
  5
5A
100
AcDbEntity
  8
002
 62
     3
100
AcDbCircle
 10
426.623443
 20
706.343342
 30
0.0
 40
4.5
  0
CIRCLE
  5
5B
100
AcDbEntity
  8
002
 62
     3
100
AcDbCircle
 10
459.123443
 20
738.843242
 30
0.0
 40
4.5
  0
CIRCLE
  5
5C
100
AcDbEntity
  8
002
 62
     9
100
AcDbCircle
 10
459.123443
 20
706.343342
 30
0.0
 40
7.0
  0
CIRCLE
  5
5D
100
AcDbEntity
  8
002
  6
CENTER
 62
     9
100
AcDbCircle
 10
459.123443
 20
706.343342
 30
0.0
 40
32.5
  0
LINE
  5
5E
100
AcDbEntity
  8
002
 62
     3
100
AcDbLine
 10
443.123443
 20
585.03741
 30
0.0
 11
443.123443
 21
575.03741
 31
0.0
  0
LINE
  5
5F
100
AcDbEntity
  8
002
 62
     3
100
AcDbLine
 10
443.123443
 20
575.03741
 30
0.0
 11
444.123443
 21
574.03741
 31
0.0
  0
ARC
  5
60
100
AcDbEntity
  8
002
 62
     3
100
AcDbCircle
 10
442.123443
 20
585.03741
 30
0.0
 40
1.0
100
AcDbArc
 50
0.0
 51
90.0
  0
LINE
  5
61
100
AcDbEntity
  8
002
 62
     3
100
AcDbLine
 10
444.123443
 20
574.03741
 30
0.0
 11
474.083143
 21
574.03741
 31
0.0
  0
LINE
  5
62
100
AcDbEntity
  8
002
 62
     3
100
AcDbLine
 10
409.123443
 20
595.03741
 30
0.0
 11
410.123443
 21
596.03741
 31
0.0
  0
LINE
  5
63
100
AcDbEntity
  8
002
 62
     3
100
AcDbLine
 10
410.123443
 20
586.03741
 30
0.0
 11
409.123443
 21
587.03741
 31
0.0
  0
LINE
  5
64
100
AcDbEntity
  8
002
 62
     3
100
AcDbLine
 10
410.123443
 20
596.03741
 30
0.0
 11
508.123443
 21
596.03741
 31
0.0
  0
LINE
  5
65
100
AcDbEntity
  8
002
 62
     3
100
AcDbLine
 10
508.123443
 20
586.03741
 30
0.0
 11
410.123443
 21
586.03741
 31
0.0
  0
LINE
  5
66
100
AcDbEntity
  8
002
 62
     3
100
AcDbLine
 10
409.123443
 20
587.03741
 30
0.0
 11
409.123443
 21
595.03741
 31
0.0
  0
LINE
  5
67
100
AcDbEntity
  8
002
 62
     3
100
AcDbLine
 10
474.123443
 20
574.03741
 30
0.0
 11
475.123443
 21
575.03741
 31
0.0
  0
LINE
  5
68
100
AcDbEntity
  8
002
 62
     3
100
AcDbLine
 10
475.123443
 20
575.03741
 30
0.0
 11
475.123443
 21
585.03741
 31
0.0
  0
ARC
  5
69
100
AcDbEntity
  8
002
 62
     3
100
AcDbCircle
 10
476.123443
 20
585.03741
 30
0.0
 40
1.0
100
AcDbArc
 50
90.0
 51
180.0
  0
LINE
  5
6A
100
AcDbEntity
  8
002
 62
     3
100
AcDbLine
 10
508.123443
 20
596.03741
 30
0.0
 11
509.123443
 21
595.03741
 31
0.0
  0
LINE
  5
6B
100
AcDbEntity
  8
002
 62
     3
100
AcDbLine
 10
509.123443
 20
595.03741
 30
0.0
 11
509.123443
 21
587.03741
 31
0.0
  0
LINE
  5
6C
100
AcDbEntity
  8
002
 62
     3
100
AcDbLine
 10
509.123443
 20
587.03741
 30
0.0
 11
508.123443
 21
586.03741
 31
0.0
  0
LINE
  5
6D
100
AcDbEntity
  8
002
  6
CENTER
 62
     9
100
AcDbLine
 10
426.623443
 20
601.03741
 30
0.0
 11
426.623443
 21
581.03741
 31
0.0
  0
LINE
  5
6E
100
AcDbEntity
  8
002
  6
CENTER
 62
     9
100
AcDbLine
 10
491.623443
 20
581.03741
 30
0.0
 11
491.623443
 21
601.03741
 31
0.0
  0
LINE
  5
6F
100
AcDbEntity
  8
002
  6
CENTER
 62
     9
100
AcDbLine
 10
404.123443
 20
706.343342
 30
0.0
 11
514.123443
 21
706.343342
 31
0.0
  0
LINE
  5
70
100
AcDbEntity
  8
002
  6
CENTER
 62
     9
100
AcDbLine
 10
459.123443
 20
651.343342
 30
0.0
 11
459.123443
 21
761.343342
 31
0.0
  0
LINE
  5
71
100
AcDbEntity
  8
002
  6
CENTER
 62
     9
100
AcDbLine
 10
290.721312
 20
641.343342
 30
0.0
 11
290.721312
 21
547.031379
 31
0.0
  0
LINE
  5
72
100
AcDbEntity
  8
002
  6
HIDDEN
 62
     9
100
AcDbLine
 10
297.721312
 20
591.343342
 30
0.0
 11
297.721312
 21
571.343342
 31
0.0
  0
LINE
  5
73
100
AcDbEntity
  8
002
  6
HIDDEN
 62
     9
100
AcDbLine
 10
283.721312
 20
591.343342
 30
0.0
 11
297.721312
 21
591.343342
 31
0.0
  0
LINE
  5
74
100
AcDbEntity
  8
002
  6
HIDDEN
 62
     9
100
AcDbLine
 10
283.721312
 20
591.343342
 30
0.0
 11
283.721312
 21
571.343342
 31
0.0
  0
LINE
  5
75
100
AcDbEntity
  8
002
  6
HIDDEN
 62
     9
100
AcDbLine
 10
284.533312
 20
571.343342
 30
0.0
 11
284.533312
 21
591.343342
 31
0.0
  0
LINE
  5
76
100
AcDbEntity
  8
002
  6
HIDDEN
 62
     9
100
AcDbLine
 10
296.909312
 20
591.343342
 30
0.0
 11
296.909312
 21
571.343342
 31
0.0
  0
LINE
  5
77
100
AcDbEntity
  8
002
  6
HIDDEN
 62
     9
100
AcDbLine
 10
466.123443
 20
594.03741
 30
0.0
 11
466.123443
 21
574.03741
 31
0.0
  0
LINE
  5
78
100
AcDbEntity
  8
002
  6
HIDDEN
 62
     9
100
AcDbLine
 10
452.123443
 20
594.03741
 30
0.0
 11
466.123443
 21
594.03741
 31
0.0
  0
LINE
  5
79
100
AcDbEntity
  8
002
  6
HIDDEN
 62
     9
100
AcDbLine
 10
452.123443
 20
594.03741
 30
0.0
 11
452.123443
 21
574.03741
 31
0.0
  0
LINE
  5
7A
100
AcDbEntity
  8
002
  6
HIDDEN
 62
     9
100
AcDbLine
 10
452.935443
 20
574.03741
 30
0.0
 11
452.935443
 21
594.03741
 31
0.0
  0
LINE
  5
7B
100
AcDbEntity
  8
002
  6
HIDDEN
 62
     9
100
AcDbLine
 10
465.311443
 20
594.03741
 30
0.0
 11
465.311443
 21
574.03741
 31
0.0
  0
LINE
  5
7C
100
AcDbEntity
  8
002
  6
CENTER
 62
     9
100
AcDbLine
 10
459.123443
 20
606.03741
 30
0.0
 11
459.123443
 21
547.031379
 31
0.0
  0
LINE
  5
7D
100
AcDbEntity
  8
002
 62
     3
100
AcDbLine
 10
85.025353
 20
298.645754
 30
0.0
 11
90.798853
 21
298.645754
 31
0.0
  0
LINE
  5
7E
100
AcDbEntity
  8
002
 62
     3
100
AcDbLine
 10
90.798853
 20
298.645754
 30
0.0
 11
93.685653
 21
293.645754
 31
0.0
  0
LINE
  5
7F
100
AcDbEntity
  8
002
 62
     3
100
AcDbLine
 10
93.685653
 20
293.645754
 30
0.0
 11
90.798853
 21
288.645754
 31
0.0
  0
LINE
  5
80
100
AcDbEntity
  8
002
 62
     3
100
AcDbLine
 10
90.798853
 20
288.645754
 30
0.0
 11
85.025353
 21
288.645754
 31
0.0
  0
LINE
  5
81
100
AcDbEntity
  8
002
 62
     3
100
AcDbLine
 10
85.025353
 20
288.645754
 30
0.0
 11
82.138653
 21
293.645754
 31
0.0
  0
LINE
  5
82
100
AcDbEntity
  8
002
 62
     3
100
AcDbLine
 10
82.138653
 20
293.645754
 30
0.0
 11
85.025353
 21
298.645754
 31
0.0
  0
CIRCLE
  5
83
100
AcDbEntity
  8
002
 62
     3
100
AcDbCircle
 10
87.912153
 20
293.645754
 30
0.0
 40
0.75
  0
CIRCLE
  5
84
100
AcDbEntity
  8
002
 62
     3
100
AcDbCircle
 10
87.912153
 20
293.645754
 30
0.0
 40
2.5
  0
CIRCLE
  5
85
100
AcDbEntity
  8
002
 62
     3
100
AcDbCircle
 10
87.912153
 20
293.645754
 30
0.0
 40
3.25
  0
CIRCLE
  5
86
100
AcDbEntity
  8
002
 62
     3
100
AcDbCircle
 10
87.912153
 20
293.645754
 30
0.0
 40
5.0
  0
LINE
  5
87
100
AcDbEntity
  8
002
 62
     3
100
AcDbLine
 10
58.912153
 20
313.145754
 30
0.0
 11
116.912153
 21
313.145754
 31
0.0
  0
LINE
  5
88
100
AcDbEntity
  8
002
 62
     3
100
AcDbLine
 10
116.912153
 20
313.145754
 30
0.0
 11
116.912153
 21
262.145754
 31
0.0
  0
LINE
  5
89
100
AcDbEntity
  8
002
 62
     3
100
AcDbLine
 10
117.660853
 20
262.145754
 30
0.0
 11
107.660853
 21
262.145754
 31
0.0
  0
LINE
  5
8A
100
AcDbEntity
  8
002
 62
     3
100
AcDbLine
 10
117.660853
 20
262.145754
 30
0.0
 11
117.660853
 21
256.145754
 31
0.0
  0
LINE
  5
8B
100
AcDbEntity
  8
002
 62
     3
100
AcDbLine
 10
107.660853
 20
262.145754
 30
0.0
 11
107.660853
 21
256.145754
 31
0.0
  0
ARC
  5
8C
100
AcDbEntity
  8
002
 62
     3
100
AcDbCircle
 10
104.735553
 20
231.322254
 30
0.0
 40
7.999954
100
AcDbArc
 50
93.652192
 51
176.347047
  0
LINE
  5
8D
100
AcDbEntity
  8
002
 62
     3
100
AcDbLine
 10
96.751853
 20
231.831954
 30
0.0
 11
95.747153
 21
216.092454
 31
0.0
  0
LINE
  5
8E
100
AcDbEntity
  8
002
 62
     3
100
AcDbLine
 10
95.747153
 20
216.199054
 30
0.0
 11
97.134453
 21
194.464254
 31
0.0
  0
LINE
  5
8F
100
AcDbEntity
  8
002
 62
     3
100
AcDbLine
 10
98.004153
 20
191.252754
 30
0.0
 11
96.409053
 21
216.241254
 31
0.0
  0
LINE
  5
90
100
AcDbEntity
  8
002
 62
     3
100
AcDbLine
 10
96.409053
 20
216.050154
 30
0.0
 11
97.264453
 21
229.450754
 31
0.0
  0
LINE
  5
91
100
AcDbEntity
  8
002
 62
     3
100
AcDbLine
 10
96.708053
 20
231.145754
 30
0.0
 11
53.412153
 21
231.145754
 31
0.0
  0
LINE
  5
92
100
AcDbEntity
  8
002
 62
     3
100
AcDbLine
 10
52.044353
 20
231.475654
 30
0.0
 11
60.174453
 21
227.310954
 31
0.0
  0
ARC
  5
93
100
AcDbEntity
  8
002
 62
     3
100
AcDbCircle
 10
63.163353
 20
233.145754
 30
0.0
 40
6.555861
100
AcDbArc
 50
242.876021
 51
280.689287
  0
LINE
  5
94
100
AcDbEntity
  8
002
 62
     3
100
AcDbLine
 10
64.379353
 20
226.703654
 30
0.0
 11
86.073553
 21
230.798654
 31
0.0
  0
ARC
  5
95
100
AcDbEntity
  8
002
 62
     3
100
AcDbCircle
 10
89.783253
 20
211.145754
 30
0.0
 40
19.999959
100
AcDbArc
 50
90.0
 51
100.689433
  0
LINE
  5
96
100
AcDbEntity
  8
002
 62
     3
100
AcDbLine
 10
106.607153
 20
238.793454
 30
0.0
 11
120.007653
 21
239.648754
 31
0.0
  0
LINE
  5
97
100
AcDbEntity
  8
002
 62
     3
100
AcDbLine
 10
119.816553
 20
239.648754
 30
0.0
 11
133.217153
 21
238.793454
 31
0.0
  0
LINE
  5
98
100
AcDbEntity
  8
002
 62
     3
100
AcDbLine
 10
136.386453
 20
240.094154
 30
0.0
 11
126.978553
 21
240.593554
 31
0.0
  0
ARC
  5
99
100
AcDbEntity
  8
002
 62
     3
100
AcDbCircle
 10
127.137553
 20
243.589354
 30
0.0
 40
3.000016
100
AcDbArc
 50
194.957129
 51
266.961917
  0
LINE
  5
9A
100
AcDbEntity
  8
002
 62
     3
100
AcDbLine
 10
126.137553
 20
244.145754
 30
0.0
 11
143.912153
 21
244.145754
 31
0.0
  0
LINE
  5
9B
100
AcDbEntity
  8
002
 62
     3
100
AcDbLine
 10
143.912153
 20
244.145754
 30
0.0
 11
143.912153
 21
236.473754
 31
0.0
  0
ARC
  5
9C
100
AcDbEntity
  8
002
 62
     3
100
AcDbCircle
 10
146.912153
 20
236.473754
 30
0.0
 40
3.000031
100
AcDbArc
 50
180.0
 51
250.502652
  0
LINE
  5
9D
100
AcDbEntity
  8
002
 62
     3
100
AcDbLine
 10
145.910853
 20
233.645754
 30
0.0
 11
145.910853
 21
198.645754
 31
0.0
  0
LINE
  5
9E
100
AcDbEntity
  8
002
 62
     3
100
AcDbLine
 10
145.910853
 20
198.645754
 30
0.0
 11
145.885853
 21
198.645754
 31
0.0
  0
ARC
  5
9F
100
AcDbEntity
  8
002
 62
     3
100
AcDbCircle
 10
145.898353
 20
195.645754
 30
0.0
 40
2.99996
100
AcDbArc
 50
89.761269
 51
155.650251
  0
LINE
  5
A0
100
AcDbEntity
  8
002
 62
     3
100
AcDbLine
 10
143.860553
 20
199.671454
 30
0.0
 11
144.912153
 21
216.145754
 31
0.0
  0
LINE
  5
A1
100
AcDbEntity
  8
002
 62
     3
100
AcDbLine
 10
144.912153
 20
216.145754
 30
0.0
 11
143.860553
 21
232.620054
 31
0.0
  0
ARC
  5
A2
100
AcDbEntity
  8
002
 62
     3
100
AcDbCircle
 10
135.876853
 20
232.110454
 30
0.0
 40
7.999947
100
AcDbArc
 50
3.652238
 51
86.347762
  0
LINE
  5
A3
100
AcDbEntity
  8
002
 62
     3
100
AcDbLine
 10
137.773653
 20
244.145754
 30
0.0
 11
137.773653
 21
245.145754
 31
0.0
  0
LINE
  5
A4
100
AcDbEntity
  8
002
 62
     3
100
AcDbLine
 10
137.912153
 20
245.145754
 30
0.0
 11
138.912153
 21
246.145754
 31
0.0
  0
LINE
  5
A5
100
AcDbEntity
  8
002
 62
     3
100
AcDbLine
 10
138.912153
 20
246.145754
 30
0.0
 11
138.912153
 21
249.145754
 31
0.0
  0
LINE
  5
A6
100
AcDbEntity
  8
002
 62
     3
100
AcDbLine
 10
138.912153
 20
249.145754
 30
0.0
 11
136.772153
 21
252.059254
 31
0.0
  0
LINE
  5
A7
100
AcDbEntity
  8
002
 62
     3
100
AcDbLine
 10
136.209653
 20
252.621754
 30
0.0
 11
131.614653
 21
252.621754
 31
0.0
  0
LINE
  5
A8
100
AcDbEntity
  8
002
 62
     3
100
AcDbLine
 10
131.193053
 20
253.296354
 30
0.0
 11
130.662153
 21
254.145754
 31
0.0
  0
LINE
  5
A9
100
AcDbEntity
  8
002
 62
     3
100
AcDbLine
 10
130.662153
 20
254.145754
 30
0.0
 11
131.412153
 21
257.145754
 31
0.0
  0
LINE
  5
AA
100
AcDbEntity
  8
002
 62
     3
100
AcDbLine
 10
131.412153
 20
257.145754
 30
0.0
 11
136.412153
 21
257.145754
 31
0.0
  0
LINE
  5
AB
100
AcDbEntity
  8
002
 62
     3
100
AcDbLine
 10
136.412153
 20
257.145754
 30
0.0
 11
137.162153
 21
254.145754
 31
0.0
  0
LINE
  5
AC
100
AcDbEntity
  8
002
 62
     3
100
AcDbLine
 10
137.162153
 20
254.145754
 30
0.0
 11
136.631253
 21
253.296354
 31
0.0
  0
ARC
  5
AD
100
AcDbEntity
  8
002
 62
     3
100
AcDbCircle
 10
137.479253
 20
252.766354
 30
0.0
 40
0.99999
100
AcDbArc
 50
147.994617
 51
225.0
  0
LINE
  5
AE
100
AcDbEntity
  8
002
 62
     3
100
AcDbLine
 10
136.412153
 20
254.145754
 30
0.0
 11
131.412153
 21
254.145754
 31
0.0
  0
ARC
  5
AF
100
AcDbEntity
  8
002
 62
     3
100
AcDbCircle
 10
130.345053
 20
252.766354
 30
0.0
 40
1.000002
100
AcDbArc
 50
315.0
 51
32.005383
  0
LINE
  5
B0
100
AcDbEntity
  8
002
 62
     3
100
AcDbLine
 10
131.052153
 20
252.059254
 30
0.0
 11
128.912153
 21
249.145754
 31
0.0
  0
LINE
  5
B1
100
AcDbEntity
  8
002
 62
     3
100
AcDbLine
 10
128.912153
 20
249.145754
 30
0.0
 11
128.912153
 21
246.145754
 31
0.0
  0
LINE
  5
B2
100
AcDbEntity
  8
002
 62
     3
100
AcDbLine
 10
128.912153
 20
246.145754
 30
0.0
 11
129.912153
 21
245.145754
 31
0.0
  0
LINE
  5
B3
100
AcDbEntity
  8
002
 62
     3
100
AcDbLine
 10
129.912153
 20
245.145754
 30
0.0
 11
137.912153
 21
245.145754
 31
0.0
  0
ARC
  5
B4
100
AcDbEntity
  8
002
 62
     3
100
AcDbCircle
 10
136.412153
 20
246.520754
 30
0.0
 40
3.625
100
AcDbArc
 50
46.397181
 51
133.602819
  0
LINE
  5
B5
100
AcDbEntity
  8
002
 62
     3
100
AcDbLine
 10
133.912153
 20
249.145754
 30
0.0
 11
133.912153
 21
246.145754
 31
0.0
  0
ARC
  5
B6
100
AcDbEntity
  8
002
 62
     3
100
AcDbCircle
 10
136.412153
 20
248.770754
 30
0.0
 40
3.625
100
AcDbArc
 50
226.397181
 51
313.602819
  0
ARC
  5
B7
100
AcDbEntity
  8
002
 62
     3
100
AcDbCircle
 10
131.412153
 20
246.520754
 30
0.0
 40
3.625
100
AcDbArc
 50
46.397181
 51
133.602819
  0
ARC
  5
B8
100
AcDbEntity
  8
002
 62
     3
100
AcDbCircle
 10
131.412153
 20
248.770754
 30
0.0
 40
3.625
100
AcDbArc
 50
226.397181
 51
313.602819
  0
LINE
  5
B9
100
AcDbEntity
  8
002
 62
     3
100
AcDbLine
 10
130.050653
 20
245.145754
 30
0.0
 11
130.050653
 21
244.145754
 31
0.0
  0
LINE
  5
BA
100
AcDbEntity
  8
002
 62
     3
100
AcDbLine
 10
125.412153
 20
244.281954
 30
0.0
 11
125.412153
 21
256.145754
 31
0.0
  0
LINE
  5
BB
100
AcDbEntity
  8
002
 62
     3
100
AcDbLine
 10
125.412153
 20
256.145754
 30
0.0
 11
50.412153
 21
256.145754
 31
0.0
  0
LINE
  5
BC
100
AcDbEntity
  8
002
 62
     3
100
AcDbLine
 10
50.412153
 20
256.145754
 30
0.0
 11
50.412153
 21
234.145754
 31
0.0
  0
ARC
  5
BD
100
AcDbEntity
  8
002
 62
     3
100
AcDbCircle
 10
53.412153
 20
234.145754
 30
0.0
 40
3.0
100
AcDbArc
 50
180.0
 51
270.0
  0
LINE
  5
BE
100
AcDbEntity
  8
002
 62
     3
100
AcDbLine
 10
51.912153
 20
230.177054
 30
0.0
 11
51.912153
 21
190.114354
 31
0.0
  0
LINE
  5
BF
100
AcDbEntity
  8
002
 62
     3
100
AcDbLine
 10
53.412153
 20
189.145754
 30
0.0
 11
92.144653
 21
189.145754
 31
0.0
  0
ARC
  5
C0
100
AcDbEntity
  8
002
 62
     3
100
AcDbCircle
 10
92.144653
 20
194.145754
 30
0.0
 40
4.999955
100
AcDbArc
 50
270.0
 51
3.652247
  0
ARC
  5
C1
100
AcDbEntity
  8
002
 62
     3
100
AcDbCircle
 10
95.010153
 20
191.061654
 30
0.0
 40
3.000093
100
AcDbArc
 50
270.0
 51
3.652101
  0
LINE
  5
C2
100
AcDbEntity
  8
002
 62
     3
100
AcDbLine
 10
97.912153
 20
187.145754
 30
0.0
 11
94.545353
 21
187.145754
 31
0.0
  0
LINE
  5
C3
100
AcDbEntity
  8
002
 62
     3
100
AcDbLine
 10
94.545353
 20
187.145754
 30
0.0
 11
94.545353
 21
186.145754
 31
0.0
  0
LINE
  5
C4
100
AcDbEntity
  8
002
 62
     3
100
AcDbLine
 10
94.545353
 20
186.145754
 30
0.0
 11
81.278853
 21
186.145754
 31
0.0
  0
LINE
  5
C5
100
AcDbEntity
  8
002
 62
     3
100
AcDbLine
 10
81.278853
 20
186.145754
 30
0.0
 11
81.278853
 21
187.145754
 31
0.0
  0
LINE
  5
C6
100
AcDbEntity
  8
002
 62
     3
100
AcDbLine
 10
81.278853
 20
187.145754
 30
0.0
 11
77.912153
 21
187.145754
 31
0.0
  0
ARC
  5
C7
100
AcDbEntity
  8
002
 62
     3
100
AcDbCircle
 10
77.912153
 20
183.145754
 30
0.0
 40
4.0
100
AcDbArc
 50
90.0
 51
180.0
  0
LINE
  5
C8
100
AcDbEntity
  8
002
 62
     3
100
AcDbLine
 10
73.912153
 20
183.145754
 30
0.0
 11
73.912153
 21
176.145754
 31
0.0
  0
LINE
  5
C9
100
AcDbEntity
  8
002
 62
     3
100
AcDbLine
 10
76.252253
 20
172.145754
 30
0.0
 11
76.252253
 21
167.145754
 31
0.0
  0
LINE
  5
CA
100
AcDbEntity
  8
002
 62
     3
100
AcDbLine
 10
67.752253
 20
167.145754
 30
0.0
 11
67.752253
 21
172.145754
 31
0.0
  0
LINE
  5
CB
100
AcDbEntity
  8
002
 62
     3
100
AcDbLine
 10
67.358753
 20
169.189354
 30
0.0
 11
67.912153
 21
131.145754
 31
0.0
  0
LINE
  5
CC
100
AcDbEntity
  8
002
 62
     3
100
AcDbLine
 10
67.912153
 20
131.145754
 30
0.0
 11
107.912153
 21
131.145754
 31
0.0
  0
LINE
  5
CD
100
AcDbEntity
  8
002
 62
     3
100
AcDbLine
 10
107.912153
 20
131.145754
 30
0.0
 11
108.465453
 21
169.189354
 31
0.0
  0
LINE
  5
CE
100
AcDbEntity
  8
002
 62
     3
100
AcDbLine
 10
99.572053
 20
167.145754
 30
0.0
 11
99.572053
 21
172.145754
 31
0.0
  0
LINE
  5
CF
100
AcDbEntity
  8
002
 62
     3
100
AcDbLine
 10
101.912153
 20
176.145754
 30
0.0
 11
101.912153
 21
183.145754
 31
0.0
  0
ARC
  5
D0
100
AcDbEntity
  8
002
 62
     3
100
AcDbCircle
 10
97.912153
 20
183.145754
 30
0.0
 40
4.0
100
AcDbArc
 50
0.0
 51
90.0
  0
ARC
  5
D1
100
AcDbEntity
  8
002
 62
     3
100
AcDbCircle
 10
87.912153
 20
125.361354
 30
0.0
 40
62.412979
100
AcDbArc
 50
81.861576
 51
98.138515
  0
LINE
  5
D2
100
AcDbEntity
  8
002
 62
     3
100
AcDbLine
 10
73.912153
 20
187.145754
 30
0.0
 11
62.912153
 21
189.145754
 31
0.0
  0
LINE
  5
D3
100
AcDbEntity
  8
002
 62
     3
100
AcDbLine
 10
62.912153
 20
187.145754
 30
0.0
 11
62.912153
 21
176.145754
 31
0.0
  0
LINE
  5
D4
100
AcDbEntity
  8
002
 62
     3
100
AcDbLine
 10
60.412153
 20
176.145754
 30
0.0
 11
60.412153
 21
172.145754
 31
0.0
  0
LINE
  5
D5
100
AcDbEntity
  8
002
 62
     3
100
AcDbLine
 10
60.412153
 20
172.145754
 30
0.0
 11
115.412153
 21
172.145754
 31
0.0
  0
LINE
  5
D6
100
AcDbEntity
  8
002
 62
     3
100
AcDbLine
 10
115.412153
 20
172.145754
 30
0.0
 11
115.412153
 21
176.145754
 31
0.0
  0
LINE
  5
D7
100
AcDbEntity
  8
002
 62
     3
100
AcDbLine
 10
112.912153
 20
176.145754
 30
0.0
 11
112.912153
 21
187.145754
 31
0.0
  0
LINE
  5
D8
100
AcDbEntity
  8
002
 62
     3
100
AcDbLine
 10
107.144153
 20
190.600754
 30
0.0
 11
107.144153
 21
190.852754
 31
0.0
  0
LINE
  5
D9
100
AcDbEntity
  8
002
 62
     3
100
AcDbLine
 10
106.607153
 20
193.498054
 30
0.0
 11
120.007653
 21
192.642654
 31
0.0
  0
LINE
  5
DA
100
AcDbEntity
  8
002
 62
     3
100
AcDbLine
 10
119.816553
 20
192.642654
 30
0.0
 11
133.217153
 21
193.498054
 31
0.0
  0
ARC
  5
DB
100
AcDbEntity
  8
002
 62
     3
100
AcDbCircle
 10
132.580153
 20
203.477754
 30
0.0
 40
10.000009
100
AcDbArc
 50
273.652211
 51
356.347789
  0
LINE
  5
DC
100
AcDbEntity
  8
002
 62
     3
100
AcDbLine
 10
142.559853
 20
202.840754
 30
0.0
 11
143.415153
 21
216.241254
 31
0.0
  0
LINE
  5
DD
100
AcDbEntity
  8
002
 62
     3
100
AcDbLine
 10
143.415153
 20
216.050154
 30
0.0
 11
142.559853
 21
229.450754
 31
0.0
  0
ARC
  5
DE
100
AcDbEntity
  8
002
 62
     3
100
AcDbCircle
 10
132.580153
 20
228.813754
 30
0.0
 40
10.000009
100
AcDbArc
 50
3.652211
 51
86.347789
  0
CIRCLE
  5
DF
100
AcDbEntity
  8
002
 62
     3
100
AcDbCircle
 10
119.912153
 20
216.145754
 30
0.0
 40
17.5
  0
LINE
  5
E0
100
AcDbEntity
  8
002
 62
     3
100
AcDbLine
 10
122.412153
 20
220.895754
 30
0.0
 11
122.162153
 21
220.645754
 31
0.0
  0
LINE
  5
E1
100
AcDbEntity
  8
002
 62
     3
100
AcDbLine
 10
122.162153
 20
220.645754
 30
0.0
 11
117.662153
 21
220.645754
 31
0.0
  0
LINE
  5
E2
100
AcDbEntity
  8
002
 62
     3
100
AcDbLine
 10
117.662153
 20
220.645754
 30
0.0
 11
117.412153
 21
220.895754
 31
0.0
  0
LINE
  5
E3
100
AcDbEntity
  8
002
 62
     3
100
AcDbLine
 10
117.412153
 20
220.895754
 30
0.0
 11
117.412153
 21
225.395754
 31
0.0
  0
LINE
  5
E4
100
AcDbEntity
  8
002
 62
     3
100
AcDbLine
 10
117.412153
 20
225.395754
 30
0.0
 11
117.662153
 21
225.645754
 31
0.0
  0
LINE
  5
E5
100
AcDbEntity
  8
002
 62
     3
100
AcDbLine
 10
117.662153
 20
225.645754
 30
0.0
 11
122.162153
 21
225.645754
 31
0.0
  0
LINE
  5
E6
100
AcDbEntity
  8
002
 62
     3
100
AcDbLine
 10
122.162153
 20
225.645754
 30
0.0
 11
122.412153
 21
225.395754
 31
0.0
  0
LINE
  5
E7
100
AcDbEntity
  8
002
 62
     3
100
AcDbLine
 10
122.412153
 20
225.395754
 30
0.0
 11
122.412153
 21
220.895754
 31
0.0
  0
ARC
  5
E8
100
AcDbEntity
  8
002
 62
     3
100
AcDbCircle
 10
122.212153
 20
220.845754
 30
0.0
 40
0.2
100
AcDbArc
 50
270.0
 51
0.0
  0
ARC
  5
E9
100
AcDbEntity
  8
002
 62
     3
100
AcDbCircle
 10
117.612153
 20
220.845754
 30
0.0
 40
0.2
100
AcDbArc
 50
180.0
 51
270.0
  0
ARC
  5
EA
100
AcDbEntity
  8
002
 62
     3
100
AcDbCircle
 10
119.912153
 20
216.145754
 30
0.0
 40
7.499936
100
AcDbArc
 50
109.471393
 51
70.528607
  0
ARC
  5
EB
100
AcDbEntity
  8
002
 62
     3
100
AcDbCircle
 10
119.912153
 20
216.145754
 30
0.0
 40
8.499963
100
AcDbArc
 50
107.104711
 51
72.895289
  0
LINE
  5
EC
100
AcDbEntity
  8
002
 62
     3
100
AcDbLine
 10
121.424753
 20
240.483454
 30
0.0
 11
119.642953
 21
240.312054
 31
0.0
  0
LINE
  5
ED
100
AcDbEntity
  8
002
 62
     3
100
AcDbLine
 10
119.642953
 20
240.312054
 30
0.0
 11
104.225953
 21
239.306054
 31
0.0
  0
ARC
  5
EE
100
AcDbEntity
  8
002
 62
     3
100
AcDbCircle
 10
107.244153
 20
228.813754
 30
0.0
 40
10.000009
100
AcDbArc
 50
93.652211
 51
176.347789
  0
ARC
  5
EF
100
AcDbEntity
  8
002
 62
     3
100
AcDbCircle
 10
121.137553
 20
243.469654
 30
0.0
 40
2.999999
100
AcDbArc
 50
275.493568
 51
347.987011
  0
ARC
  5
F0
100
AcDbEntity
  8
002
 62
     3
100
AcDbCircle
 10
126.137553
 20
246.145754
 30
0.0
 40
2.0
100
AcDbArc
 50
180.0
 51
270.0
  0
LINE
  5
F1
100
AcDbEntity
  8
002
 62
     3
100
AcDbLine
 10
125.412153
 20
246.145754
 30
0.0
 11
50.412153
 21
246.145754
 31
0.0
  0
LINE
  5
F2
100
AcDbEntity
  8
002
 62
     3
100
AcDbLine
 10
58.163353
 20
256.145754
 30
0.0
 11
58.163353
 21
262.145754
 31
0.0
  0
LINE
  5
F3
100
AcDbEntity
  8
002
 62
     3
100
AcDbLine
 10
58.163353
 20
262.145754
 30
0.0
 11
68.163353
 21
262.145754
 31
0.0
  0
LINE
  5
F4
100
AcDbEntity
  8
002
 62
     3
100
AcDbLine
 10
58.912153
 20
262.145754
 30
0.0
 11
58.912153
 21
313.145754
 31
0.0
  0
LINE
  5
F5
100
AcDbEntity
  8
002
 62
     3
100
AcDbLine
 10
68.163353
 20
262.145754
 30
0.0
 11
68.163353
 21
256.145754
 31
0.0
  0
ARC
  5
F6
100
AcDbEntity
  8
002
 62
     3
100
AcDbCircle
 10
48.912153
 20
230.177054
 30
0.0
 40
3.000057
100
AcDbArc
 50
0.0
 51
41.410861
  0
ARC
  5
F7
100
AcDbEntity
  8
002
 62
     3
100
AcDbCircle
 10
53.412153
 20
186.145754
 30
0.0
 40
3.0
100
AcDbArc
 50
90.0
 51
180.0
  0
LINE
  5
F8
100
AcDbEntity
  8
002
 62
     3
100
AcDbLine
 10
50.412153
 20
186.145754
 30
0.0
 11
50.412153
 21
176.145754
 31
0.0
  0
LINE
  5
F9
100
AcDbEntity
  8
002
 62
     3
100
AcDbLine
 10
50.412153
 20
176.145754
 30
0.0
 11
125.412153
 21
176.145754
 31
0.0
  0
LINE
  5
FA
100
AcDbEntity
  8
002
 62
     3
100
AcDbLine
 10
125.412153
 20
176.145754
 30
0.0
 11
125.412153
 21
186.805754
 31
0.0
  0
LINE
  5
FB
100
AcDbEntity
  8
002
 62
     3
100
AcDbLine
 10
130.093653
 20
191.795654
 30
0.0
 11
136.386453
 21
192.197254
 31
0.0
  0
ARC
  5
FC
100
AcDbEntity
  8
002
 62
     3
100
AcDbCircle
 10
135.876853
 20
200.181054
 30
0.0
 40
7.999947
100
AcDbArc
 50
273.652192
 51
356.347762
  0
ARC
  5
FD
100
AcDbEntity
  8
002
 62
     3
100
AcDbCircle
 10
119.912153
 20
215.101354
 30
0.0
 40
15.66944
100
AcDbArc
 50
306.867484
 51
233.132223
  0
ARC
  5
FE
100
AcDbEntity
  8
002
 62
     3
100
AcDbCircle
 10
112.010953
 20
204.565554
 30
0.0
 40
2.499985
100
AcDbArc
 50
233.131477
 51
314.849286
  0
CIRCLE
  5
FF
100
AcDbEntity
  8
002
 62
     3
100
AcDbCircle
 10
115.537153
 20
201.020754
 30
0.0
 40
1.09375
  0
ARC
  5
100
100
AcDbEntity
  8
002
 62
     3
100
AcDbCircle
 10
115.537153
 20
201.020754
 30
0.0
 40
2.499985
100
AcDbArc
 50
0.0
 51
134.849286
  0
LINE
  5
101
100
AcDbEntity
  8
002
 62
     3
100
AcDbLine
 10
118.037153
 20
201.020754
 30
0.0
 11
118.037153
 21
198.774154
 31
0.0
  0
LINE
  5
102
100
AcDbEntity
  8
002
 62
     3
100
AcDbLine
 10
121.787153
 20
198.774154
 30
0.0
 11
121.787153
 21
201.020754
 31
0.0
  0
CIRCLE
  5
103
100
AcDbEntity
  8
002
 62
     3
100
AcDbCircle
 10
124.287153
 20
201.020754
 30
0.0
 40
1.09375
  0
ARC
  5
104
100
AcDbEntity
  8
002
 62
     3
100
AcDbCircle
 10
127.813353
 20
204.565554
 30
0.0
 40
2.50002
100
AcDbArc
 50
225.150714
 51
306.866689
  0
ARC
  5
105
100
AcDbEntity
  8
002
 62
     3
100
AcDbCircle
 10
124.287153
 20
201.020754
 30
0.0
 40
2.5
100
AcDbArc
 50
45.150714
 51
180.0
  0
ARC
  5
106
100
AcDbEntity
  8
002
 62
     3
100
AcDbCircle
 10
130.412153
 20
186.805754
 30
0.0
 40
5.0
100
AcDbArc
 50
93.652174
 51
180.0
  0
ARC
  5
107
100
AcDbEntity
  8
002
 62
     3
100
AcDbCircle
 10
111.465153
 20
169.145754
 30
0.0
 40
3.000017
100
AcDbArc
 50
90.0
 51
179.167277
  0
LINE
  5
108
100
AcDbEntity
  8
002
 62
     3
100
AcDbLine
 10
108.072053
 20
167.145754
 30
0.0
 11
108.072053
 21
172.145754
 31
0.0
  0
LINE
  5
109
100
AcDbEntity
  8
002
 62
     3
100
AcDbLine
 10
108.072053
 20
167.145754
 30
0.0
 11
99.572053
 21
167.145754
 31
0.0
  0
LINE
  5
10A
100
AcDbEntity
  8
002
 62
     3
100
AcDbLine
 10
101.912153
 20
187.145754
 30
0.0
 11
104.680753
 21
187.649154
 31
0.0
  0
ARC
  5
10B
100
AcDbEntity
  8
002
 62
     3
100
AcDbCircle
 10
104.144153
 20
190.600754
 30
0.0
 40
3.0
100
AcDbArc
 50
280.303822
 51
0.0
  0
ARC
  5
10C
100
AcDbEntity
  8
002
 62
     3
100
AcDbCircle
 10
107.244153
 20
203.477754
 30
0.0
 40
10.000009
100
AcDbArc
 50
183.652211
 51
266.347789
  0
LINE
  5
10D
100
AcDbEntity
  8
002
 62
     3
100
AcDbLine
 10
76.252253
 20
167.145754
 30
0.0
 11
67.752253
 21
167.145754
 31
0.0
  0
ARC
  5
10E
100
AcDbEntity
  8
002
 62
     3
100
AcDbCircle
 10
64.359053
 20
169.145754
 30
0.0
 40
3.0
100
AcDbArc
 50
0.832723
 51
90.0
  0
ARC
  5
10F
100
AcDbEntity
  8
002
 62
     3
100
AcDbCircle
 10
48.912153
 20
190.114354
 30
0.0
 40
3.0
100
AcDbArc
 50
318.590571
 51
0.0
  0
ARC
  5
110
100
AcDbEntity
  8
002
 62
     3
100
AcDbCircle
 10
133.912153
 20
256.484254
 30
0.0
 40
1.000041
100
AcDbArc
 50
41.412294
 51
138.587706
  0
LINE
  5
111
100
AcDbEntity
  8
002
  6
DASHED
100
AcDbLine
 10
99.912153
 20
186.145754
 30
0.0
 11
99.912153
 21
186.609854
 31
0.0
  0
LINE
  5
112
100
AcDbEntity
  8
002
  6
CENTER
 62
     9
100
AcDbLine
 10
72.002253
 20
178.145754
 30
0.0
 11
72.002253
 21
164.424154
 31
0.0
  0
LINE
  5
113
100
AcDbEntity
  8
002
  6
CENTER
 62
     9
100
AcDbLine
 10
103.822053
 20
164.424154
 30
0.0
 11
103.822053
 21
178.145754
 31
0.0
  0
LINE
  5
114
100
AcDbEntity
  8
002
  6
DASHED
 62
     9
100
AcDbLine
 10
75.912153
 20
186.145754
 30
0.0
 11
75.912153
 21
186.609854
 31
0.0
  0
LINE
  5
115
100
AcDbEntity
  8
002
  6
CENTER
 62
     9
100
AcDbLine
 10
119.912153
 20
264.706254
 30
0.0
 11
119.912153
 21
168.102554
 31
0.0
  0
LINE
  5
116
100
AcDbEntity
  8
002
  6
CENTER
 62
     9
100
AcDbLine
 10
63.163353
 20
266.645754
 30
0.0
 11
63.163353
 21
240.312054
 31
0.0
  0
LINE
  5
117
100
AcDbEntity
  8
002
  6
CENTER
 62
     9
100
AcDbLine
 10
112.660853
 20
240.312054
 30
0.0
 11
112.660853
 21
266.645754
 31
0.0
  0
LINE
  5
118
100
AcDbEntity
  8
002
  6
CENTER
 62
     9
100
AcDbLine
 10
42.796753
 20
216.145754
 30
0.0
 11
154.843953
 21
216.145754
 31
0.0
  0
LINE
  5
119
100
AcDbEntity
  8
002
  6
CENTER
 62
     9
100
AcDbLine
 10
133.912153
 20
241.404054
 30
0.0
 11
133.912153
 21
259.749754
 31
0.0
  0
LINE
  5
11A
100
AcDbEntity
  8
002
  6
CENTER
 62
     9
100
AcDbLine
 10
96.685153
 20
293.645754
 30
0.0
 11
79.511853
 21
293.645754
 31
0.0
  0
LINE
  5
11B
100
AcDbEntity
  8
002
  6
HIDDEN
 62
     9
100
AcDbLine
 10
93.412153
 20
186.145754
 30
0.0
 11
93.412153
 21
176.145754
 31
0.0
  0
LINE
  5
11C
100
AcDbEntity
  8
002
  6
HIDDEN
 62
     9
100
AcDbLine
 10
99.912153
 20
186.145754
 30
0.0
 11
94.545353
 21
186.145754
 31
0.0
  0
LINE
  5
11D
100
AcDbEntity
  8
002
  6
HIDDEN
 62
     9
100
AcDbLine
 10
82.412153
 20
176.145754
 30
0.0
 11
82.412153
 21
186.145754
 31
0.0
  0
LINE
  5
11E
100
AcDbEntity
  8
002
  6
HIDDEN
 62
     9
100
AcDbLine
 10
81.278853
 20
186.145754
 30
0.0
 11
75.912153
 21
186.145754
 31
0.0
  0
LINE
  5
11F
100
AcDbEntity
  8
002
 62
     3
100
AcDbLine
 10
94.912153
 20
426.445754
 30
0.0
 11
94.912153
 21
409.445754
 31
0.0
  0
LINE
  5
120
100
AcDbEntity
  8
002
 62
     3
100
AcDbLine
 10
94.912153
 20
409.445754
 30
0.0
 11
80.912153
 21
409.445754
 31
0.0
  0
LINE
  5
121
100
AcDbEntity
  8
002
 62
     3
100
AcDbLine
 10
80.912153
 20
426.445754
 30
0.0
 11
80.912153
 21
409.445754
 31
0.0
  0
LINE
  5
122
100
AcDbEntity
  8
002
 62
     3
100
AcDbLine
 10
94.912153
 20
426.445754
 30
0.0
 11
80.912153
 21
426.445754
 31
0.0
  0
LINE
  5
123
100
AcDbEntity
  8
002
 62
     3
100
AcDbLine
 10
93.762153
 20
409.445754
 30
0.0
 11
93.762153
 21
406.445754
 31
0.0
  0
LINE
  5
124
100
AcDbEntity
  8
002
 62
     3
100
AcDbLine
 10
77.912453
 20
406.445754
 30
0.0
 11
97.912453
 21
406.445754
 31
0.0
  0
LINE
  5
125
100
AcDbEntity
  8
002
 62
     3
100
AcDbLine
 10
77.912453
 20
406.445754
 30
0.0
 11
77.912453
 21
313.145754
 31
0.0
  0
LINE
  5
126
100
AcDbEntity
  8
002
 62
     3
100
AcDbLine
 10
97.912453
 20
406.445754
 30
0.0
 11
97.912453
 21
313.145754
 31
0.0
  0
LINE
  5
127
100
AcDbEntity
  8
002
 62
     3
100
AcDbLine
 10
82.062153
 20
406.445754
 30
0.0
 11
82.062153
 21
409.445754
 31
0.0
  0
LINE
  5
128
100
AcDbEntity
  8
002
 62
     9
100
AcDbLine
 10
79.142453
 20
313.145754
 30
0.0
 11
79.142453
 21
406.445754
 31
0.0
  0
LINE
  5
129
100
AcDbEntity
  8
002
 62
     9
100
AcDbLine
 10
96.682453
 20
406.445754
 30
0.0
 11
96.682453
 21
313.145754
 31
0.0
  0
LINE
  5
12A
100
AcDbEntity
  8
002
 62
     9
100
AcDbLine
 10
81.962153
 20
426.445754
 30
0.0
 11
81.962153
 21
409.445754
 31
0.0
  0
LINE
  5
12B
100
AcDbEntity
  8
002
 62
     9
100
AcDbLine
 10
93.862153
 20
409.445754
 30
0.0
 11
93.862153
 21
426.445754
 31
0.0
  0
LINE
  5
12C
100
AcDbEntity
  8
002
 62
     3
100
AcDbLine
 10
69.912153
 20
76.145754
 30
0.0
 11
105.912153
 21
76.145754
 31
0.0
  0
LINE
  5
12D
100
AcDbEntity
  8
002
 62
     3
100
AcDbLine
 10
105.912153
 20
76.145754
 30
0.0
 11
105.912153
 21
59.145754
 31
0.0
  0
LINE
  5
12E
100
AcDbEntity
  8
002
 62
     3
100
AcDbLine
 10
102.912153
 20
56.145754
 30
0.0
 11
72.912153
 21
56.145754
 31
0.0
  0
LINE
  5
12F
100
AcDbEntity
  8
002
 62
     3
100
AcDbLine
 10
69.912153
 20
59.145754
 30
0.0
 11
69.912153
 21
76.145754
 31
0.0
  0
ARC
  5
130
100
AcDbEntity
  8
002
 62
     3
100
AcDbCircle
 10
72.912153
 20
59.145754
 30
0.0
 40
3.0
100
AcDbArc
 50
180.0
 51
270.0
  0
ARC
  5
131
100
AcDbEntity
  8
002
 62
     3
100
AcDbCircle
 10
102.912153
 20
59.145754
 30
0.0
 40
3.0
100
AcDbArc
 50
270.0
 51
0.0
  0
LINE
  5
132
100
AcDbEntity
  8
002
 62
     3
100
AcDbLine
 10
113.412153
 20
637.829919
 30
0.0
 11
126.412153
 21
637.829919
 31
0.0
  0
LINE
  5
133
100
AcDbEntity
  8
002
 62
     3
100
AcDbLine
 10
126.412153
 20
637.829919
 30
0.0
 11
127.412153
 21
638.829919
 31
0.0
  0
LINE
  5
134
100
AcDbEntity
  8
002
 62
     3
100
AcDbLine
 10
127.412153
 20
638.829919
 30
0.0
 11
127.412153
 21
670.829919
 31
0.0
  0
LINE
  5
135
100
AcDbEntity
  8
002
 62
     3
100
AcDbLine
 10
111.412153
 20
670.829919
 30
0.0
 11
128.412153
 21
670.829919
 31
0.0
  0
LINE
  5
136
100
AcDbEntity
  8
002
 62
     3
100
AcDbLine
 10
112.412153
 20
670.829919
 30
0.0
 11
112.412153
 21
638.829919
 31
0.0
  0
LINE
  5
137
100
AcDbEntity
  8
002
 62
     3
100
AcDbLine
 10
112.412153
 20
638.829919
 30
0.0
 11
113.412153
 21
637.829919
 31
0.0
  0
LINE
  5
138
100
AcDbEntity
  8
002
 62
     3
100
AcDbLine
 10
112.412153
 20
638.829919
 30
0.0
 11
117.412153
 21
638.829919
 31
0.0
  0
LINE
  5
139
100
AcDbEntity
  8
002
 62
     3
100
AcDbLine
 10
117.412153
 20
637.829919
 30
0.0
 11
117.412153
 21
665.329919
 31
0.0
  0
LINE
  5
13A
100
AcDbEntity
  8
002
 62
     3
100
AcDbLine
 10
122.412153
 20
665.329919
 30
0.0
 11
122.412153
 21
637.829919
 31
0.0
  0
LINE
  5
13B
100
AcDbEntity
  8
002
 62
     3
100
AcDbLine
 10
122.412153
 20
638.829919
 30
0.0
 11
127.412153
 21
638.829919
 31
0.0
  0
LINE
  5
13C
100
AcDbEntity
  8
002
 62
     3
100
AcDbLine
 10
122.412153
 20
659.829919
 30
0.0
 11
117.412153
 21
659.829919
 31
0.0
  0
ARC
  5
13D
100
AcDbEntity
  8
002
 62
     3
100
AcDbCircle
 10
119.912153
 20
665.329919
 30
0.0
 40
2.5
100
AcDbArc
 50
0.0
 51
180.0
  0
LINE
  5
13E
100
AcDbEntity
  8
002
 62
     3
100
AcDbLine
 10
111.412153
 20
670.829919
 30
0.0
 11
111.412153
 21
672.829919
 31
0.0
  0
LINE
  5
13F
100
AcDbEntity
  8
002
 62
     3
100
AcDbLine
 10
128.412153
 20
670.829919
 30
0.0
 11
128.412153
 21
672.829919
 31
0.0
  0
LINE
  5
140
100
AcDbEntity
  8
002
 62
     3
100
AcDbLine
 10
143.412153
 20
672.829919
 30
0.0
 11
144.912153
 21
722.829619
 31
0.0
  0
LINE
  5
141
100
AcDbEntity
  8
002
 62
     3
100
AcDbLine
 10
144.912153
 20
722.829619
 30
0.0
 11
143.412153
 21
772.829619
 31
0.0
  0
LINE
  5
142
100
AcDbEntity
  8
002
 62
     3
100
AcDbLine
 10
143.412153
 20
772.829619
 30
0.0
 11
96.412153
 21
772.829619
 31
0.0
  0
LINE
  5
143
100
AcDbEntity
  8
002
 62
     3
100
AcDbLine
 10
96.412153
 20
772.829619
 30
0.0
 11
96.018953
 21
764.965619
 31
0.0
  0
CIRCLE
  5
144
100
AcDbEntity
  8
002
 62
     3
100
AcDbCircle
 10
112.660953
 20
747.578619
 30
0.0
 40
5.0
  0
LINE
  5
145
100
AcDbEntity
  8
002
 62
     3
100
AcDbLine
 10
114.104253
 20
750.078619
 30
0.0
 11
115.547653
 21
747.578619
 31
0.0
  0
LINE
  5
146
100
AcDbEntity
  8
002
 62
     3
100
AcDbLine
 10
115.547653
 20
747.578619
 30
0.0
 11
114.104253
 21
745.078619
 31
0.0
  0
LINE
  5
147
100
AcDbEntity
  8
002
 62
     3
100
AcDbLine
 10
114.104253
 20
745.078619
 30
0.0
 11
111.217553
 21
745.078619
 31
0.0
  0
LINE
  5
148
100
AcDbEntity
  8
002
 62
     3
100
AcDbLine
 10
111.217553
 20
745.078619
 30
0.0
 11
109.774153
 21
747.578619
 31
0.0
  0
LINE
  5
149
100
AcDbEntity
  8
002
 62
     3
100
AcDbLine
 10
109.774153
 20
747.578619
 30
0.0
 11
111.217553
 21
750.078619
 31
0.0
  0
LINE
  5
14A
100
AcDbEntity
  8
002
 62
     3
100
AcDbLine
 10
111.217553
 20
750.078619
 30
0.0
 11
114.104253
 21
750.078619
 31
0.0
  0
LINE
  5
14B
100
AcDbEntity
  8
002
 62
     3
100
AcDbLine
 10
120.308553
 20
751.342619
 30
0.0
 11
124.634953
 21
730.425619
 31
0.0
  0
LINE
  5
14C
100
AcDbEntity
  8
002
 62
     3
100
AcDbLine
 10
128.209253
 20
732.829619
 30
0.0
 11
133.912153
 21
732.829619
 31
0.0
  0
LINE
  5
14D
100
AcDbEntity
  8
002
 62
     3
100
AcDbLine
 10
133.912153
 20
728.603619
 30
0.0
 11
138.912153
 21
725.716619
 31
0.0
  0
LINE
  5
14E
100
AcDbEntity
  8
002
 62
     3
100
AcDbLine
 10
138.912153
 20
725.716619
 30
0.0
 11
138.912153
 21
719.943119
 31
0.0
  0
LINE
  5
14F
100
AcDbEntity
  8
002
 62
     3
100
AcDbLine
 10
138.912153
 20
719.943119
 30
0.0
 11
133.912153
 21
717.056419
 31
0.0
  0
LINE
  5
150
100
AcDbEntity
  8
002
 62
     3
100
AcDbLine
 10
133.912153
 20
717.056419
 30
0.0
 11
128.912153
 21
719.943119
 31
0.0
  0
LINE
  5
151
100
AcDbEntity
  8
002
 62
     3
100
AcDbLine
 10
128.912153
 20
719.943119
 30
0.0
 11
128.912153
 21
725.716619
 31
0.0
  0
LINE
  5
152
100
AcDbEntity
  8
002
 62
     3
100
AcDbLine
 10
128.912153
 20
725.716619
 30
0.0
 11
133.912153
 21
728.603619
 31
0.0
  0
CIRCLE
  5
153
100
AcDbEntity
  8
002
 62
     3
100
AcDbCircle
 10
133.912153
 20
722.829619
 30
0.0
 40
5.0
  0
CIRCLE
  5
154
100
AcDbEntity
  8
002
 62
     3
100
AcDbCircle
 10
133.912153
 20
722.829619
 30
0.0
 40
3.25
  0
CIRCLE
  5
155
100
AcDbEntity
  8
002
 62
     3
100
AcDbCircle
 10
133.912153
 20
722.829619
 30
0.0
 40
2.5
  0
CIRCLE
  5
156
100
AcDbEntity
  8
002
 62
     3
100
AcDbCircle
 10
133.912153
 20
722.829619
 30
0.0
 40
0.75
  0
ARC
  5
157
100
AcDbEntity
  8
002
 62
     3
100
AcDbCircle
 10
133.912153
 20
722.829619
 30
0.0
 40
10.0
100
AcDbArc
 50
270.0
 51
90.0
  0
ARC
  5
158
100
AcDbEntity
  8
002
 62
     3
100
AcDbCircle
 10
128.209253
 20
737.829619
 30
0.0
 40
5.0
100
AcDbArc
 50
191.677606
 51
270.0
  0
LINE
  5
159
100
AcDbEntity
  8
002
 62
     3
100
AcDbLine
 10
124.634953
 20
715.234419
 30
0.0
 11
120.308553
 21
694.317119
 31
0.0
  0
LINE
  5
15A
100
AcDbEntity
  8
002
 62
     3
100
AcDbLine
 10
116.424953
 20
690.433519
 30
0.0
 11
95.507653
 21
686.107119
 31
0.0
  0
ARC
  5
15B
100
AcDbEntity
  8
002
 62
     3
100
AcDbCircle
 10
91.025253
 20
680.444019
 30
0.0
 40
5.000036
100
AcDbArc
 50
2.862577
 51
94.201223
  0
LINE
  5
15C
100
AcDbEntity
  8
002
 62
     3
100
AcDbLine
 10
96.018953
 20
680.693719
 30
0.0
 11
96.412153
 21
672.829919
 31
0.0
  0
LINE
  5
15D
100
AcDbEntity
  8
002
 62
     3
100
AcDbLine
 10
96.412153
 20
672.829919
 30
0.0
 11
143.412153
 21
672.829919
 31
0.0
  0
LINE
  5
15E
100
AcDbEntity
  8
002
 62
     3
100
AcDbLine
 10
144.088053
 20
695.359819
 30
0.0
 11
145.087653
 21
695.329919
 31
0.0
  0
LINE
  5
15F
100
AcDbEntity
  8
002
 62
     3
100
AcDbLine
 10
145.087653
 20
695.329919
 30
0.0
 11
145.911753
 21
722.799619
 31
0.0
  0
LINE
  5
160
100
AcDbEntity
  8
002
 62
     3
100
AcDbLine
 10
145.911753
 20
722.859619
 30
0.0
 11
145.087653
 21
750.329619
 31
0.0
  0
LINE
  5
161
100
AcDbEntity
  8
002
 62
     3
100
AcDbLine
 10
145.087653
 20
750.329619
 30
0.0
 11
144.088053
 21
750.299619
 31
0.0
  0
ARC
  5
162
100
AcDbEntity
  8
002
 62
     3
100
AcDbCircle
 10
115.412153
 20
750.329619
 30
0.0
 40
5.000637
100
AcDbArc
 50
11.688827
 51
78.314809
  0
LINE
  5
163
100
AcDbEntity
  8
002
 62
     3
100
AcDbLine
 10
65.663753
 20
746.135619
 30
0.0
 11
65.663753
 21
749.021619
 31
0.0
  0
LINE
  5
164
100
AcDbEntity
  8
002
 62
     3
100
AcDbLine
 10
65.663753
 20
749.021619
 30
0.0
 11
63.163753
 21
750.465619
 31
0.0
  0
LINE
  5
165
100
AcDbEntity
  8
002
 62
     3
100
AcDbLine
 10
63.163753
 20
750.465619
 30
0.0
 11
60.663753
 21
749.021619
 31
0.0
  0
LINE
  5
166
100
AcDbEntity
  8
002
 62
     3
100
AcDbLine
 10
60.663753
 20
749.021619
 30
0.0
 11
60.663753
 21
746.135619
 31
0.0
  0
LINE
  5
167
100
AcDbEntity
  8
002
 62
     3
100
AcDbLine
 10
60.663753
 20
746.135619
 30
0.0
 11
63.163753
 21
744.691619
 31
0.0
  0
LINE
  5
168
100
AcDbEntity
  8
002
 62
     3
100
AcDbLine
 10
63.163753
 20
744.691619
 30
0.0
 11
65.663753
 21
746.135619
 31
0.0
  0
CIRCLE
  5
169
100
AcDbEntity
  8
002
 62
     3
100
AcDbCircle
 10
63.163753
 20
747.578619
 30
0.0
 40
5.0
  0
LINE
  5
16A
100
AcDbEntity
  8
002
 62
     3
100
AcDbLine
 10
64.342753
 20
756.248619
 30
0.0
 11
72.349053
 21
786.854619
 31
0.0
  0
ARC
  5
16B
100
AcDbEntity
  8
002
 62
     3
100
AcDbCircle
 10
80.088653
 20
784.829619
 30
0.0
 40
8.000127
100
AcDbArc
 50
90.0
 51
165.337727
  0
LINE
  5
16C
100
AcDbEntity
  8
002
 62
     3
100
AcDbLine
 10
80.088653
 20
792.829619
 30
0.0
 11
95.735753
 21
792.829619
 31
0.0
  0
CIRCLE
  5
16D
100
AcDbEntity
  8
002
 62
     3
100
AcDbCircle
 10
87.912153
 20
782.829619
 30
0.0
 40
5.5
  0
ARC
  5
16E
100
AcDbEntity
  8
002
 62
     3
100
AcDbCircle
 10
87.912153
 20
782.829619
 30
0.0
 40
12.000028
100
AcDbArc
 50
123.557112
 51
56.44249
  0
ARC
  5
16F
100
AcDbEntity
  8
002
 62
     3
100
AcDbCircle
 10
95.735753
 20
784.829619
 30
0.0
 40
8.0
100
AcDbArc
 50
14.662273
 51
90.0
  0
LINE
  5
170
100
AcDbEntity
  8
002
 62
     3
100
AcDbLine
 10
103.475353
 20
786.854619
 30
0.0
 11
107.144153
 21
772.829619
 31
0.0
  0
LINE
  5
171
100
AcDbEntity
  8
002
 62
     3
100
AcDbLine
 10
111.412153
 20
774.829619
 30
0.0
 11
111.412153
 21
772.829619
 31
0.0
  0
LINE
  5
172
100
AcDbEntity
  8
002
 62
     3
100
AcDbLine
 10
128.412153
 20
774.829619
 30
0.0
 11
128.412153
 21
772.829619
 31
0.0
  0
LINE
  5
173
100
AcDbEntity
  8
002
 62
     3
100
AcDbLine
 10
111.412153
 20
774.829619
 30
0.0
 11
128.412153
 21
774.829619
 31
0.0
  0
LINE
  5
174
100
AcDbEntity
  8
002
 62
     3
100
AcDbLine
 10
112.412153
 20
774.829619
 30
0.0
 11
112.412153
 21
806.829619
 31
0.0
  0
LINE
  5
175
100
AcDbEntity
  8
002
 62
     3
100
AcDbLine
 10
112.412153
 20
806.829619
 30
0.0
 11
113.412153
 21
807.829619
 31
0.0
  0
LINE
  5
176
100
AcDbEntity
  8
002
 62
     3
100
AcDbLine
 10
113.412153
 20
807.829619
 30
0.0
 11
126.412153
 21
807.829619
 31
0.0
  0
LINE
  5
177
100
AcDbEntity
  8
002
 62
     3
100
AcDbLine
 10
126.412153
 20
807.829619
 30
0.0
 11
127.412153
 21
806.829619
 31
0.0
  0
LINE
  5
178
100
AcDbEntity
  8
002
 62
     3
100
AcDbLine
 10
127.412153
 20
806.829619
 30
0.0
 11
127.412153
 21
774.829619
 31
0.0
  0
LINE
  5
179
100
AcDbEntity
  8
002
 62
     3
100
AcDbLine
 10
122.412153
 20
780.329619
 30
0.0
 11
122.412153
 21
807.829619
 31
0.0
  0
LINE
  5
17A
100
AcDbEntity
  8
002
 62
     3
100
AcDbLine
 10
122.412153
 20
806.829619
 30
0.0
 11
127.412153
 21
806.829619
 31
0.0
  0
LINE
  5
17B
100
AcDbEntity
  8
002
 62
     3
100
AcDbLine
 10
117.412153
 20
806.829619
 30
0.0
 11
112.412153
 21
806.829619
 31
0.0
  0
LINE
  5
17C
100
AcDbEntity
  8
002
 62
     3
100
AcDbLine
 10
117.412153
 20
807.829619
 30
0.0
 11
117.412153
 21
780.329619
 31
0.0
  0
ARC
  5
17D
100
AcDbEntity
  8
002
 62
     3
100
AcDbCircle
 10
119.912153
 20
780.329619
 30
0.0
 40
2.5
100
AcDbArc
 50
180.0
 51
0.0
  0
LINE
  5
17E
100
AcDbEntity
  8
002
 62
     3
100
AcDbLine
 10
122.412153
 20
785.829619
 30
0.0
 11
117.412153
 21
785.829619
 31
0.0
  0
ARC
  5
17F
100
AcDbEntity
  8
002
 62
     3
100
AcDbCircle
 10
60.411753
 20
750.329619
 30
0.0
 40
5.0
100
AcDbArc
 50
90.0
 51
180.0
  0
LINE
  5
180
100
AcDbEntity
  8
002
 62
     3
100
AcDbLine
 10
55.515753
 20
751.342619
 30
0.0
 11
51.189753
 21
730.425619
 31
0.0
  0
ARC
  5
181
100
AcDbEntity
  8
002
 62
     3
100
AcDbCircle
 10
87.912153
 20
722.829619
 30
0.0
 40
37.499623
100
AcDbArc
 50
164.766885
 51
191.685572
  0
LINE
  5
182
100
AcDbEntity
  8
002
 62
     3
100
AcDbLine
 10
51.189753
 20
715.234419
 30
0.0
 11
55.515753
 21
694.317119
 31
0.0
  0
ARC
  5
183
100
AcDbEntity
  8
002
 62
     3
100
AcDbCircle
 10
60.411753
 20
695.329919
 30
0.0
 40
4.999888
100
AcDbArc
 50
191.687512
 51
258.322394
  0
LINE
  5
184
100
AcDbEntity
  8
002
 62
     3
100
AcDbLine
 10
59.399753
 20
690.433519
 30
0.0
 11
80.316753
 21
686.107119
 31
0.0
  0
CIRCLE
  5
185
100
AcDbEntity
  8
002
 62
     3
100
AcDbCircle
 10
112.660953
 20
698.081119
 30
0.0
 40
5.0
  0
LINE
  5
186
100
AcDbEntity
  8
002
 62
     3
100
AcDbLine
 10
112.660953
 20
700.967919
 30
0.0
 11
110.160953
 21
699.524519
 31
0.0
  0
LINE
  5
187
100
AcDbEntity
  8
002
 62
     3
100
AcDbLine
 10
110.160953
 20
699.524519
 30
0.0
 11
110.160953
 21
696.637819
 31
0.0
  0
LINE
  5
188
100
AcDbEntity
  8
002
 62
     3
100
AcDbLine
 10
110.160953
 20
696.637819
 30
0.0
 11
112.660953
 21
695.194419
 31
0.0
  0
LINE
  5
189
100
AcDbEntity
  8
002
 62
     3
100
AcDbLine
 10
112.660953
 20
695.194419
 30
0.0
 11
115.160953
 21
696.637819
 31
0.0
  0
LINE
  5
18A
100
AcDbEntity
  8
002
 62
     3
100
AcDbLine
 10
115.160953
 20
696.637819
 30
0.0
 11
115.160953
 21
699.524519
 31
0.0
  0
LINE
  5
18B
100
AcDbEntity
  8
002
 62
     3
100
AcDbLine
 10
115.160953
 20
699.524519
 30
0.0
 11
112.660953
 21
700.967919
 31
0.0
  0
ARC
  5
18C
100
AcDbEntity
  8
002
 62
     3
100
AcDbCircle
 10
115.412153
 20
695.329919
 30
0.0
 40
5.00005
100
AcDbArc
 50
281.686583
 51
348.313417
  0
LINE
  5
18D
100
AcDbEntity
  8
002
 62
     3
100
AcDbLine
 10
128.209253
 20
712.829919
 30
0.0
 11
133.912153
 21
712.829919
 31
0.0
  0
ARC
  5
18E
100
AcDbEntity
  8
002
 62
     3
100
AcDbCircle
 10
128.209253
 20
707.829919
 30
0.0
 40
5.000029
100
AcDbArc
 50
90.0
 51
168.314539
  0
ARC
  5
18F
100
AcDbEntity
  8
002
 62
     3
100
AcDbCircle
 10
87.912153
 20
722.829619
 30
0.0
 40
37.500177
100
AcDbArc
 50
348.314552
 51
11.686645
  0
ARC
  5
190
100
AcDbEntity
  8
002
 62
     3
100
AcDbCircle
 10
91.025253
 20
765.215619
 30
0.0
 40
4.999954
100
AcDbArc
 50
265.798274
 51
357.13399
  0
LINE
  5
191
100
AcDbEntity
  8
002
 62
     3
100
AcDbLine
 10
64.606753
 20
700.581119
 30
0.0
 11
66.049753
 21
698.081119
 31
0.0
  0
LINE
  5
192
100
AcDbEntity
  8
002
 62
     3
100
AcDbLine
 10
66.049753
 20
698.081119
 30
0.0
 11
64.606753
 21
695.581119
 31
0.0
  0
LINE
  5
193
100
AcDbEntity
  8
002
 62
     3
100
AcDbLine
 10
64.606753
 20
695.581119
 30
0.0
 11
61.719753
 21
695.581119
 31
0.0
  0
LINE
  5
194
100
AcDbEntity
  8
002
 62
     3
100
AcDbLine
 10
61.719753
 20
695.581119
 30
0.0
 11
60.276753
 21
698.081119
 31
0.0
  0
LINE
  5
195
100
AcDbEntity
  8
002
 62
     3
100
AcDbLine
 10
60.276753
 20
698.081119
 30
0.0
 11
61.719753
 21
700.581119
 31
0.0
  0
LINE
  5
196
100
AcDbEntity
  8
002
 62
     3
100
AcDbLine
 10
61.719753
 20
700.581119
 30
0.0
 11
64.606753
 21
700.581119
 31
0.0
  0
CIRCLE
  5
197
100
AcDbEntity
  8
002
 62
     3
100
AcDbCircle
 10
63.163753
 20
698.081119
 30
0.0
 40
5.0
  0
LINE
  5
198
100
AcDbEntity
  8
002
 62
     3
100
AcDbLine
 10
64.342753
 20
689.411119
 30
0.0
 11
72.349053
 21
658.805219
 31
0.0
  0
ARC
  5
199
100
AcDbEntity
  8
002
 62
     3
100
AcDbCircle
 10
80.088653
 20
660.829919
 30
0.0
 40
8.0
100
AcDbArc
 50
194.660194
 51
270.0
  0
LINE
  5
19A
100
AcDbEntity
  8
002
 62
     3
100
AcDbLine
 10
80.088653
 20
652.829919
 30
0.0
 11
95.735753
 21
652.829919
 31
0.0
  0
ARC
  5
19B
100
AcDbEntity
  8
002
 62
     3
100
AcDbCircle
 10
95.735753
 20
660.829919
 30
0.0
 40
8.000051
100
AcDbArc
 50
270.0
 51
345.339806
  0
LINE
  5
19C
100
AcDbEntity
  8
002
 62
     3
100
AcDbLine
 10
103.475353
 20
658.805219
 30
0.0
 11
107.144153
 21
672.829919
 31
0.0
  0
CIRCLE
  5
19D
100
AcDbEntity
  8
002
 62
     3
100
AcDbCircle
 10
87.912153
 20
662.829919
 30
0.0
 40
5.5
  0
ARC
  5
19E
100
AcDbEntity
  8
002
 62
     3
100
AcDbCircle
 10
87.912153
 20
662.829919
 30
0.0
 40
11.999973
100
AcDbArc
 50
303.55751
 51
236.442888
  0
LINE
  5
19F
100
AcDbEntity
  8
002
  6
CENTER
 62
     9
100
AcDbLine
 10
119.912153
 20
819.505619
 30
0.0
 11
119.912153
 21
630.564419
 31
0.0
  0
LINE
  5
1A0
100
AcDbEntity
  8
002
  6
CENTER
 62
     9
100
AcDbLine
 10
39.269753
 20
722.829619
 30
0.0
 11
153.026753
 21
722.829619
 31
0.0
  0
LINE
  5
1A1
100
AcDbEntity
  8
002
  6
CENTER
 62
     9
100
AcDbLine
 10
105.661553
 20
782.829619
 30
0.0
 11
69.631653
 21
782.829619
 31
0.0
  0
LINE
  5
1A2
100
AcDbEntity
  8
002
  6
CENTER
 62
     9
100
AcDbLine
 10
87.912153
 20
643.541619
 30
0.0
 11
87.912153
 21
803.854619
 31
0.0
  0
CIRCLE
  5
1A3
100
AcDbEntity
  8
002
  6
CENTER
 62
     9
100
AcDbCircle
 10
87.912153
 20
722.829619
 30
0.0
 40
35.0
  0
LINE
  5
1A4
100
AcDbEntity
  8
002
  6
CENTER
 62
     9
100
AcDbLine
 10
109.469753
 20
744.387619
 30
0.0
 11
115.580253
 21
750.497619
 31
0.0
  0
LINE
  5
1A5
100
AcDbEntity
  8
002
  6
CENTER
 62
     9
100
AcDbLine
 10
66.354753
 20
744.387619
 30
0.0
 11
60.243753
 21
750.497619
 31
0.0
  0
LINE
  5
1A6
100
AcDbEntity
  8
002
  6
CENTER
 62
     9
100
AcDbLine
 10
60.243753
 20
695.161819
 30
0.0
 11
66.354753
 21
701.272319
 31
0.0
  0
LINE
  5
1A7
100
AcDbEntity
  8
002
  6
CENTER
 62
     9
100
AcDbLine
 10
109.469753
 20
701.272319
 30
0.0
 11
115.580253
 21
695.161819
 31
0.0
  0
LINE
  5
1A8
100
AcDbEntity
  8
002
  6
CENTER
 62
     9
100
AcDbLine
 10
133.912153
 20
714.429619
 30
0.0
 11
133.912153
 21
731.602619
 31
0.0
  0
LINE
  5
1A9
100
AcDbEntity
  8
002
  6
CENTER
 62
     9
100
AcDbLine
 10
105.661553
 20
662.829919
 30
0.0
 11
69.631653
 21
662.829919
 31
0.0
  0
LINE
  5
1AA
100
AcDbEntity
  8
002
  6
HIDDEN
 62
     9
100
AcDbLine
 10
111.481753
 20
756.248619
 30
0.0
 11
107.144153
 21
772.829619
 31
0.0
  0
LINE
  5
1AB
100
AcDbEntity
  8
002
  6
HIDDEN
 62
     9
100
AcDbLine
 10
111.481753
 20
689.411119
 30
0.0
 11
107.144153
 21
672.829919
 31
0.0
  0
LINE
  5
1AC
100
AcDbEntity
  8
002
 62
     3
100
AcDbLine
 10
116.424953
 20
755.225719
 30
0.0
 11
95.507653
 21
759.552119
 31
0.0
  0
LINE
  5
1AD
100
AcDbEntity
  8
002
 62
     3
100
AcDbLine
 10
59.399753
 20
755.225719
 30
0.0
 11
80.316753
 21
759.552119
 31
0.0
  0
CIRCLE
  5
1AE
100
AcDbEntity
  8
002
 62
     3
100
AcDbCircle
 10
87.912153
 20
722.829619
 30
0.0
 40
29.0
  0
CIRCLE
  5
1AF
100
AcDbEntity
  8
002
 62
     3
100
AcDbCircle
 10
87.912153
 20
722.829619
 30
0.0
 40
10.0
  0
CIRCLE
  5
1B0
100
AcDbEntity
  8
002
 62
     3
100
AcDbCircle
 10
87.912153
 20
722.829619
 30
0.0
 40
7.0
  0
CIRCLE
  5
1B1
100
AcDbEntity
  8
002
 62
     9
100
AcDbCircle
 10
87.912153
 20
722.829619
 30
0.0
 40
6.25
  0
LINE
  5
1B2
100
AcDbEntity
  8
002
 62
     3
100
AcDbLine
 10
85.412153
 20
764.829619
 30
0.0
 11
90.412153
 21
764.829619
 31
0.0
  0
ARC
  5
1B3
100
AcDbEntity
  8
002
 62
     3
100
AcDbCircle
 10
87.912153
 20
764.168119
 30
0.0
 40
1.000041
100
AcDbArc
 50
41.412294
 51
138.587706
  0
LINE
  5
1B4
100
AcDbEntity
  8
002
 62
     3
100
AcDbLine
 10
84.662153
 20
761.829619
 30
0.0
 11
85.412153
 21
764.829619
 31
0.0
  0
LINE
  5
1B5
100
AcDbEntity
  8
002
 62
     3
100
AcDbLine
 10
85.193053
 20
760.980219
 30
0.0
 11
84.662153
 21
761.829619
 31
0.0
  0
LINE
  5
1B6
100
AcDbEntity
  8
002
 62
     3
100
AcDbLine
 10
90.412153
 20
761.829619
 30
0.0
 11
85.412153
 21
761.829619
 31
0.0
  0
LINE
  5
1B7
100
AcDbEntity
  8
002
 62
     3
100
AcDbLine
 10
90.209653
 20
760.305619
 30
0.0
 11
85.614653
 21
760.305619
 31
0.0
  0
ARC
  5
1B8
100
AcDbEntity
  8
002
 62
     3
100
AcDbCircle
 10
84.345053
 20
760.450219
 30
0.0
 40
1.000002
100
AcDbArc
 50
315.0
 51
32.005383
  0
LINE
  5
1B9
100
AcDbEntity
  8
002
 62
     3
100
AcDbLine
 10
85.052153
 20
759.743119
 30
0.0
 11
82.912153
 21
756.829619
 31
0.0
  0
ARC
  5
1BA
100
AcDbEntity
  8
002
 62
     3
100
AcDbCircle
 10
85.412153
 20
754.204619
 30
0.0
 40
3.625
100
AcDbArc
 50
46.397181
 51
133.602819
  0
ARC
  5
1BB
100
AcDbEntity
  8
002
 62
     3
100
AcDbCircle
 10
87.912153
 20
722.829619
 30
0.0
 40
37.50017
100
AcDbArc
 50
93.959418
 51
101.685087
  0
LINE
  5
1BC
100
AcDbEntity
  8
002
 62
     3
100
AcDbLine
 10
82.912153
 20
756.829619
 30
0.0
 11
82.912153
 21
753.829619
 31
0.0
  0
ARC
  5
1BD
100
AcDbEntity
  8
002
 62
     3
100
AcDbCircle
 10
87.912153
 20
722.829619
 30
0.0
 40
37.50017
100
AcDbArc
 50
78.313417
 51
86.040564
  0
LINE
  5
1BE
100
AcDbEntity
  8
002
 62
     3
100
AcDbLine
 10
90.412153
 20
764.829619
 30
0.0
 11
91.162153
 21
761.829619
 31
0.0
  0
LINE
  5
1BF
100
AcDbEntity
  8
002
 62
     3
100
AcDbLine
 10
91.162153
 20
761.829619
 30
0.0
 11
90.631253
 21
760.980219
 31
0.0
  0
ARC
  5
1C0
100
AcDbEntity
  8
002
 62
     3
100
AcDbCircle
 10
91.479253
 20
760.450219
 30
0.0
 40
0.99999
100
AcDbArc
 50
147.994617
 51
225.0
  0
LINE
  5
1C1
100
AcDbEntity
  8
002
 62
     3
100
AcDbLine
 10
92.912153
 20
756.829619
 30
0.0
 11
90.772153
 21
759.743119
 31
0.0
  0
ARC
  5
1C2
100
AcDbEntity
  8
002
 62
     3
100
AcDbCircle
 10
90.412153
 20
754.204619
 30
0.0
 40
3.625
100
AcDbArc
 50
46.397181
 51
133.602819
  0
ARC
  5
1C3
100
AcDbEntity
  8
002
 62
     3
100
AcDbCircle
 10
90.412153
 20
756.454619
 30
0.0
 40
3.625
100
AcDbArc
 50
226.397181
 51
313.602819
  0
ARC
  5
1C4
100
AcDbEntity
  8
002
 62
     3
100
AcDbCircle
 10
85.412153
 20
756.454619
 30
0.0
 40
3.625
100
AcDbArc
 50
226.397181
 51
313.602819
  0
LINE
  5
1C5
100
AcDbEntity
  8
002
 62
     3
100
AcDbLine
 10
83.912153
 20
752.829619
 30
0.0
 11
91.912153
 21
752.829619
 31
0.0
  0
LINE
  5
1C6
100
AcDbEntity
  8
002
 62
     3
100
AcDbLine
 10
82.912153
 20
753.829619
 30
0.0
 11
83.912153
 21
752.829619
 31
0.0
  0
LINE
  5
1C7
100
AcDbEntity
  8
002
 62
     3
100
AcDbLine
 10
84.050653
 20
752.829619
 30
0.0
 11
84.050653
 21
751.57138
 31
0.0
  0
LINE
  5
1C8
100
AcDbEntity
  8
002
 62
     3
100
AcDbLine
 10
91.773653
 20
751.57138
 30
0.0
 11
91.773653
 21
752.829619
 31
0.0
  0
LINE
  5
1C9
100
AcDbEntity
  8
002
 62
     3
100
AcDbLine
 10
91.912153
 20
752.829619
 30
0.0
 11
92.912153
 21
753.829619
 31
0.0
  0
LINE
  5
1CA
100
AcDbEntity
  8
002
 62
     3
100
AcDbLine
 10
92.912153
 20
753.829619
 30
0.0
 11
92.912153
 21
756.829619
 31
0.0
  0
LINE
  5
1CB
100
AcDbEntity
  8
002
 62
     3
100
AcDbLine
 10
87.912153
 20
756.829619
 30
0.0
 11
87.912153
 21
753.829619
 31
0.0
  0
ARC
  5
1CC
100
AcDbEntity
  8
002
 62
     3
100
AcDbCircle
 10
87.912153
 20
681.491119
 30
0.0
 40
1.000041
100
AcDbArc
 50
221.412294
 51
318.587706
  0
LINE
  5
1CD
100
AcDbEntity
  8
002
 62
     3
100
AcDbLine
 10
85.412153
 20
680.829619
 30
0.0
 11
90.412153
 21
680.829619
 31
0.0
  0
LINE
  5
1CE
100
AcDbEntity
  8
002
 62
     3
100
AcDbLine
 10
90.412153
 20
680.829619
 30
0.0
 11
91.162153
 21
683.829619
 31
0.0
  0
LINE
  5
1CF
100
AcDbEntity
  8
002
 62
     3
100
AcDbLine
 10
84.662153
 20
683.829619
 30
0.0
 11
85.412153
 21
680.829619
 31
0.0
  0
LINE
  5
1D0
100
AcDbEntity
  8
002
 62
     3
100
AcDbLine
 10
85.193053
 20
684.679019
 30
0.0
 11
84.662153
 21
683.829619
 31
0.0
  0
LINE
  5
1D1
100
AcDbEntity
  8
002
 62
     3
100
AcDbLine
 10
90.412153
 20
683.829619
 30
0.0
 11
85.412153
 21
683.829619
 31
0.0
  0
ARC
  5
1D2
100
AcDbEntity
  8
002
 62
     3
100
AcDbCircle
 10
84.345053
 20
685.209019
 30
0.0
 40
1.000002
100
AcDbArc
 50
327.994617
 51
45.0
  0
ARC
  5
1D3
100
AcDbEntity
  8
002
 62
     3
100
AcDbCircle
 10
87.912153
 20
722.829619
 30
0.0
 40
37.500373
100
AcDbArc
 50
258.314913
 51
266.040671
  0
LINE
  5
1D4
100
AcDbEntity
  8
002
 62
     3
100
AcDbLine
 10
90.209653
 20
685.353619
 30
0.0
 11
85.614653
 21
685.353619
 31
0.0
  0
LINE
  5
1D5
100
AcDbEntity
  8
002
 62
     3
100
AcDbLine
 10
85.052153
 20
685.916119
 30
0.0
 11
82.912153
 21
688.829619
 31
0.0
  0
LINE
  5
1D6
100
AcDbEntity
  8
002
 62
     3
100
AcDbLine
 10
91.162153
 20
683.829619
 30
0.0
 11
90.631253
 21
684.679019
 31
0.0
  0
ARC
  5
1D7
100
AcDbEntity
  8
002
 62
     3
100
AcDbCircle
 10
87.912153
 20
722.829619
 30
0.0
 40
37.500373
100
AcDbArc
 50
273.959347
 51
281.686583
  0
LINE
  5
1D8
100
AcDbEntity
  8
002
 62
     3
100
AcDbLine
 10
92.912153
 20
688.829619
 30
0.0
 11
90.772153
 21
685.916119
 31
0.0
  0
ARC
  5
1D9
100
AcDbEntity
  8
002
 62
     3
100
AcDbCircle
 10
91.479253
 20
685.209019
 30
0.0
 40
0.99999
100
AcDbArc
 50
135.0
 51
212.005383
  0
ARC
  5
1DA
100
AcDbEntity
  8
002
 62
     3
100
AcDbCircle
 10
90.412153
 20
691.454619
 30
0.0
 40
3.625
100
AcDbArc
 50
226.397181
 51
313.602819
  0
ARC
  5
1DB
100
AcDbEntity
  8
002
 62
     3
100
AcDbCircle
 10
85.412153
 20
691.454619
 30
0.0
 40
3.625
100
AcDbArc
 50
226.397181
 51
313.602819
  0
LINE
  5
1DC
100
AcDbEntity
  8
002
 62
     3
100
AcDbLine
 10
82.912153
 20
688.829619
 30
0.0
 11
82.912153
 21
691.829619
 31
0.0
  0
ARC
  5
1DD
100
AcDbEntity
  8
002
 62
     3
100
AcDbCircle
 10
85.412153
 20
689.204619
 30
0.0
 40
3.625
100
AcDbArc
 50
46.397181
 51
133.602819
  0
LINE
  5
1DE
100
AcDbEntity
  8
002
 62
     3
100
AcDbLine
 10
82.912153
 20
691.829619
 30
0.0
 11
83.912153
 21
692.829619
 31
0.0
  0
LINE
  5
1DF
100
AcDbEntity
  8
002
 62
     3
100
AcDbLine
 10
83.912153
 20
692.829619
 30
0.0
 11
91.912153
 21
692.829619
 31
0.0
  0
LINE
  5
1E0
100
AcDbEntity
  8
002
 62
     3
100
AcDbLine
 10
84.050653
 20
692.829619
 30
0.0
 11
84.050653
 21
694.087858
 31
0.0
  0
ARC
  5
1E1
100
AcDbEntity
  8
002
 62
     3
100
AcDbCircle
 10
90.412153
 20
689.204619
 30
0.0
 40
3.625
100
AcDbArc
 50
46.397181
 51
133.602819
  0
LINE
  5
1E2
100
AcDbEntity
  8
002
 62
     3
100
AcDbLine
 10
91.912153
 20
692.829619
 30
0.0
 11
92.912153
 21
691.829619
 31
0.0
  0
LINE
  5
1E3
100
AcDbEntity
  8
002
 62
     3
100
AcDbLine
 10
91.773653
 20
694.087858
 30
0.0
 11
91.773653
 21
692.829619
 31
0.0
  0
LINE
  5
1E4
100
AcDbEntity
  8
002
 62
     3
100
AcDbLine
 10
92.912153
 20
691.829619
 30
0.0
 11
92.912153
 21
688.829619
 31
0.0
  0
LINE
  5
1E5
100
AcDbEntity
  8
002
 62
     3
100
AcDbLine
 10
87.912153
 20
688.829619
 30
0.0
 11
87.912153
 21
691.829619
 31
0.0
  0
LINE
  5
1E6
100
AcDbEntity
  8
002
  6
CENTER
 62
     9
100
AcDbLine
 10
453.993984
 20
216.145754
 30
0.0
 11
566.041184
 21
216.145754
 31
0.0
  0
LINE
  5
1E7
100
AcDbEntity
  8
002
 62
     3
100
AcDbLine
 10
496.222584
 20
298.645754
 30
0.0
 11
501.996084
 21
298.645754
 31
0.0
  0
LINE
  5
1E8
100
AcDbEntity
  8
002
 62
     3
100
AcDbLine
 10
501.996084
 20
298.645754
 30
0.0
 11
504.882884
 21
293.645754
 31
0.0
  0
LINE
  5
1E9
100
AcDbEntity
  8
002
 62
     3
100
AcDbLine
 10
504.882884
 20
293.645754
 30
0.0
 11
501.996084
 21
288.645754
 31
0.0
  0
LINE
  5
1EA
100
AcDbEntity
  8
002
 62
     3
100
AcDbLine
 10
501.996084
 20
288.645754
 30
0.0
 11
496.222584
 21
288.645754
 31
0.0
  0
LINE
  5
1EB
100
AcDbEntity
  8
002
 62
     3
100
AcDbLine
 10
496.222584
 20
288.645754
 30
0.0
 11
493.335884
 21
293.645754
 31
0.0
  0
LINE
  5
1EC
100
AcDbEntity
  8
002
 62
     3
100
AcDbLine
 10
493.335884
 20
293.645754
 30
0.0
 11
496.222584
 21
298.645754
 31
0.0
  0
CIRCLE
  5
1ED
100
AcDbEntity
  8
002
 62
     3
100
AcDbCircle
 10
499.109384
 20
293.645754
 30
0.0
 40
0.75
  0
CIRCLE
  5
1EE
100
AcDbEntity
  8
002
 62
     3
100
AcDbCircle
 10
499.109384
 20
293.645754
 30
0.0
 40
2.5
  0
CIRCLE
  5
1EF
100
AcDbEntity
  8
002
 62
     3
100
AcDbCircle
 10
499.109384
 20
293.645754
 30
0.0
 40
3.25
  0
CIRCLE
  5
1F0
100
AcDbEntity
  8
002
 62
     3
100
AcDbCircle
 10
499.109384
 20
293.645754
 30
0.0
 40
5.0
  0
LINE
  5
1F1
100
AcDbEntity
  8
002
 62
     3
100
AcDbLine
 10
470.109384
 20
313.145754
 30
0.0
 11
528.109384
 21
313.145754
 31
0.0
  0
LINE
  5
1F2
100
AcDbEntity
  8
002
 62
     3
100
AcDbLine
 10
528.109384
 20
313.145754
 30
0.0
 11
528.109384
 21
262.145754
 31
0.0
  0
LINE
  5
1F3
100
AcDbEntity
  8
002
 62
     3
100
AcDbLine
 10
528.858084
 20
262.145754
 30
0.0
 11
518.858084
 21
262.145754
 31
0.0
  0
LINE
  5
1F4
100
AcDbEntity
  8
002
 62
     3
100
AcDbLine
 10
528.858084
 20
262.145754
 30
0.0
 11
528.858084
 21
256.145754
 31
0.0
  0
LINE
  5
1F5
100
AcDbEntity
  8
002
 62
     3
100
AcDbLine
 10
518.858084
 20
262.145754
 30
0.0
 11
518.858084
 21
256.145754
 31
0.0
  0
ARC
  5
1F6
100
AcDbEntity
  8
002
 62
     3
100
AcDbCircle
 10
515.932784
 20
231.322254
 30
0.0
 40
7.999954
100
AcDbArc
 50
93.652192
 51
176.347047
  0
LINE
  5
1F7
100
AcDbEntity
  8
002
 62
     3
100
AcDbLine
 10
507.949084
 20
231.831954
 30
0.0
 11
506.944384
 21
216.092454
 31
0.0
  0
LINE
  5
1F8
100
AcDbEntity
  8
002
 62
     3
100
AcDbLine
 10
506.944384
 20
216.199054
 30
0.0
 11
508.331684
 21
194.464254
 31
0.0
  0
LINE
  5
1F9
100
AcDbEntity
  8
002
 62
     3
100
AcDbLine
 10
509.201384
 20
191.252754
 30
0.0
 11
507.606284
 21
216.241254
 31
0.0
  0
LINE
  5
1FA
100
AcDbEntity
  8
002
 62
     3
100
AcDbLine
 10
507.606284
 20
216.050154
 30
0.0
 11
508.461684
 21
229.450754
 31
0.0
  0
LINE
  5
1FB
100
AcDbEntity
  8
002
 62
     3
100
AcDbLine
 10
507.905284
 20
231.145754
 30
0.0
 11
464.609384
 21
231.145754
 31
0.0
  0
LINE
  5
1FC
100
AcDbEntity
  8
002
 62
     3
100
AcDbLine
 10
463.241584
 20
231.475654
 30
0.0
 11
471.371684
 21
227.310954
 31
0.0
  0
ARC
  5
1FD
100
AcDbEntity
  8
002
 62
     3
100
AcDbCircle
 10
474.360584
 20
233.145754
 30
0.0
 40
6.555861
100
AcDbArc
 50
242.876021
 51
280.689287
  0
LINE
  5
1FE
100
AcDbEntity
  8
002
 62
     3
100
AcDbLine
 10
475.576584
 20
226.703654
 30
0.0
 11
497.270784
 21
230.798654
 31
0.0
  0
ARC
  5
1FF
100
AcDbEntity
  8
002
 62
     3
100
AcDbCircle
 10
500.980484
 20
211.145754
 30
0.0
 40
19.999959
100
AcDbArc
 50
90.0
 51
100.689433
  0
LINE
  5
200
100
AcDbEntity
  8
002
 62
     3
100
AcDbLine
 10
517.804384
 20
238.793454
 30
0.0
 11
531.204884
 21
239.648754
 31
0.0
  0
LINE
  5
201
100
AcDbEntity
  8
002
 62
     3
100
AcDbLine
 10
531.013784
 20
239.648754
 30
0.0
 11
544.414384
 21
238.793454
 31
0.0
  0
LINE
  5
202
100
AcDbEntity
  8
002
 62
     3
100
AcDbLine
 10
547.583684
 20
240.094154
 30
0.0
 11
538.175784
 21
240.593554
 31
0.0
  0
ARC
  5
203
100
AcDbEntity
  8
002
 62
     3
100
AcDbCircle
 10
538.334784
 20
243.589354
 30
0.0
 40
3.000016
100
AcDbArc
 50
194.957129
 51
266.961917
  0
LINE
  5
204
100
AcDbEntity
  8
002
 62
     3
100
AcDbLine
 10
537.334784
 20
244.145754
 30
0.0
 11
555.109384
 21
244.145754
 31
0.0
  0
LINE
  5
205
100
AcDbEntity
  8
002
 62
     3
100
AcDbLine
 10
555.109384
 20
244.145754
 30
0.0
 11
555.109384
 21
236.473754
 31
0.0
  0
ARC
  5
206
100
AcDbEntity
  8
002
 62
     3
100
AcDbCircle
 10
558.109384
 20
236.473754
 30
0.0
 40
3.000031
100
AcDbArc
 50
180.0
 51
250.502652
  0
LINE
  5
207
100
AcDbEntity
  8
002
 62
     3
100
AcDbLine
 10
557.108084
 20
233.645754
 30
0.0
 11
557.108084
 21
198.645754
 31
0.0
  0
LINE
  5
208
100
AcDbEntity
  8
002
 62
     3
100
AcDbLine
 10
557.108084
 20
198.645754
 30
0.0
 11
557.083084
 21
198.645754
 31
0.0
  0
ARC
  5
209
100
AcDbEntity
  8
002
 62
     3
100
AcDbCircle
 10
557.095584
 20
195.645754
 30
0.0
 40
2.99996
100
AcDbArc
 50
89.761269
 51
155.650251
  0
LINE
  5
20A
100
AcDbEntity
  8
002
 62
     3
100
AcDbLine
 10
555.057784
 20
199.671454
 30
0.0
 11
556.109384
 21
216.145754
 31
0.0
  0
LINE
  5
20B
100
AcDbEntity
  8
002
 62
     3
100
AcDbLine
 10
556.109384
 20
216.145754
 30
0.0
 11
555.057784
 21
232.620054
 31
0.0
  0
ARC
  5
20C
100
AcDbEntity
  8
002
 62
     3
100
AcDbCircle
 10
547.074084
 20
232.110454
 30
0.0
 40
7.999947
100
AcDbArc
 50
3.652238
 51
86.347762
  0
LINE
  5
20D
100
AcDbEntity
  8
002
 62
     3
100
AcDbLine
 10
548.970884
 20
244.145754
 30
0.0
 11
548.970884
 21
245.145754
 31
0.0
  0
LINE
  5
20E
100
AcDbEntity
  8
002
 62
     3
100
AcDbLine
 10
549.109384
 20
245.145754
 30
0.0
 11
550.109384
 21
246.145754
 31
0.0
  0
LINE
  5
20F
100
AcDbEntity
  8
002
 62
     3
100
AcDbLine
 10
550.109384
 20
246.145754
 30
0.0
 11
550.109384
 21
249.145754
 31
0.0
  0
LINE
  5
210
100
AcDbEntity
  8
002
 62
     3
100
AcDbLine
 10
550.109384
 20
249.145754
 30
0.0
 11
547.969384
 21
252.059254
 31
0.0
  0
LINE
  5
211
100
AcDbEntity
  8
002
 62
     3
100
AcDbLine
 10
547.406884
 20
252.621754
 30
0.0
 11
542.811884
 21
252.621754
 31
0.0
  0
LINE
  5
212
100
AcDbEntity
  8
002
 62
     3
100
AcDbLine
 10
542.390284
 20
253.296354
 30
0.0
 11
541.859384
 21
254.145754
 31
0.0
  0
LINE
  5
213
100
AcDbEntity
  8
002
 62
     3
100
AcDbLine
 10
541.859384
 20
254.145754
 30
0.0
 11
542.609384
 21
257.145754
 31
0.0
  0
LINE
  5
214
100
AcDbEntity
  8
002
 62
     3
100
AcDbLine
 10
542.609384
 20
257.145754
 30
0.0
 11
547.609384
 21
257.145754
 31
0.0
  0
LINE
  5
215
100
AcDbEntity
  8
002
 62
     3
100
AcDbLine
 10
547.609384
 20
257.145754
 30
0.0
 11
548.359384
 21
254.145754
 31
0.0
  0
LINE
  5
216
100
AcDbEntity
  8
002
 62
     3
100
AcDbLine
 10
548.359384
 20
254.145754
 30
0.0
 11
547.828484
 21
253.296354
 31
0.0
  0
ARC
  5
217
100
AcDbEntity
  8
002
 62
     3
100
AcDbCircle
 10
548.676484
 20
252.766354
 30
0.0
 40
0.99999
100
AcDbArc
 50
147.994617
 51
225.0
  0
LINE
  5
218
100
AcDbEntity
  8
002
 62
     3
100
AcDbLine
 10
547.609384
 20
254.145754
 30
0.0
 11
542.609384
 21
254.145754
 31
0.0
  0
ARC
  5
219
100
AcDbEntity
  8
002
 62
     3
100
AcDbCircle
 10
541.542284
 20
252.766354
 30
0.0
 40
1.000002
100
AcDbArc
 50
315.0
 51
32.005383
  0
LINE
  5
21A
100
AcDbEntity
  8
002
 62
     3
100
AcDbLine
 10
542.249384
 20
252.059254
 30
0.0
 11
540.109384
 21
249.145754
 31
0.0
  0
LINE
  5
21B
100
AcDbEntity
  8
002
 62
     3
100
AcDbLine
 10
540.109384
 20
249.145754
 30
0.0
 11
540.109384
 21
246.145754
 31
0.0
  0
LINE
  5
21C
100
AcDbEntity
  8
002
 62
     3
100
AcDbLine
 10
540.109384
 20
246.145754
 30
0.0
 11
541.109384
 21
245.145754
 31
0.0
  0
LINE
  5
21D
100
AcDbEntity
  8
002
 62
     3
100
AcDbLine
 10
541.109384
 20
245.145754
 30
0.0
 11
549.109384
 21
245.145754
 31
0.0
  0
ARC
  5
21E
100
AcDbEntity
  8
002
 62
     3
100
AcDbCircle
 10
547.609384
 20
246.520754
 30
0.0
 40
3.625
100
AcDbArc
 50
46.397181
 51
133.602819
  0
LINE
  5
21F
100
AcDbEntity
  8
002
 62
     3
100
AcDbLine
 10
545.109384
 20
249.145754
 30
0.0
 11
545.109384
 21
246.145754
 31
0.0
  0
ARC
  5
220
100
AcDbEntity
  8
002
 62
     3
100
AcDbCircle
 10
547.609384
 20
248.770754
 30
0.0
 40
3.625
100
AcDbArc
 50
226.397181
 51
313.602819
  0
ARC
  5
221
100
AcDbEntity
  8
002
 62
     3
100
AcDbCircle
 10
542.609384
 20
246.520754
 30
0.0
 40
3.625
100
AcDbArc
 50
46.397181
 51
133.602819
  0
ARC
  5
222
100
AcDbEntity
  8
002
 62
     3
100
AcDbCircle
 10
542.609384
 20
248.770754
 30
0.0
 40
3.625
100
AcDbArc
 50
226.397181
 51
313.602819
  0
LINE
  5
223
100
AcDbEntity
  8
002
 62
     3
100
AcDbLine
 10
541.247884
 20
245.145754
 30
0.0
 11
541.247884
 21
244.145754
 31
0.0
  0
LINE
  5
224
100
AcDbEntity
  8
002
 62
     3
100
AcDbLine
 10
536.609384
 20
244.281954
 30
0.0
 11
536.609384
 21
256.145754
 31
0.0
  0
LINE
  5
225
100
AcDbEntity
  8
002
 62
     3
100
AcDbLine
 10
536.609384
 20
256.145754
 30
0.0
 11
461.609384
 21
256.145754
 31
0.0
  0
LINE
  5
226
100
AcDbEntity
  8
002
 62
     3
100
AcDbLine
 10
461.609384
 20
256.145754
 30
0.0
 11
461.609384
 21
234.145754
 31
0.0
  0
ARC
  5
227
100
AcDbEntity
  8
002
 62
     3
100
AcDbCircle
 10
464.609384
 20
234.145754
 30
0.0
 40
3.0
100
AcDbArc
 50
180.0
 51
270.0
  0
LINE
  5
228
100
AcDbEntity
  8
002
 62
     3
100
AcDbLine
 10
463.109384
 20
230.177054
 30
0.0
 11
463.109384
 21
190.114354
 31
0.0
  0
LINE
  5
229
100
AcDbEntity
  8
002
 62
     3
100
AcDbLine
 10
464.609384
 20
189.145754
 30
0.0
 11
503.341884
 21
189.145754
 31
0.0
  0
ARC
  5
22A
100
AcDbEntity
  8
002
 62
     3
100
AcDbCircle
 10
503.341884
 20
194.145754
 30
0.0
 40
4.999955
100
AcDbArc
 50
270.0
 51
3.652247
  0
ARC
  5
22B
100
AcDbEntity
  8
002
 62
     3
100
AcDbCircle
 10
506.207384
 20
191.061654
 30
0.0
 40
3.000093
100
AcDbArc
 50
270.0
 51
3.652101
  0
LINE
  5
22C
100
AcDbEntity
  8
002
 62
     3
100
AcDbLine
 10
509.109384
 20
187.145754
 30
0.0
 11
505.742584
 21
187.145754
 31
0.0
  0
LINE
  5
22D
100
AcDbEntity
  8
002
 62
     3
100
AcDbLine
 10
505.742584
 20
187.145754
 30
0.0
 11
505.742584
 21
186.145754
 31
0.0
  0
LINE
  5
22E
100
AcDbEntity
  8
002
 62
     3
100
AcDbLine
 10
505.742584
 20
186.145754
 30
0.0
 11
492.476084
 21
186.145754
 31
0.0
  0
LINE
  5
22F
100
AcDbEntity
  8
002
 62
     3
100
AcDbLine
 10
492.476084
 20
186.145754
 30
0.0
 11
492.476084
 21
187.145754
 31
0.0
  0
LINE
  5
230
100
AcDbEntity
  8
002
 62
     3
100
AcDbLine
 10
492.476084
 20
187.145754
 30
0.0
 11
489.109384
 21
187.145754
 31
0.0
  0
ARC
  5
231
100
AcDbEntity
  8
002
 62
     3
100
AcDbCircle
 10
489.109384
 20
183.145754
 30
0.0
 40
4.0
100
AcDbArc
 50
90.0
 51
180.0
  0
LINE
  5
232
100
AcDbEntity
  8
002
 62
     3
100
AcDbLine
 10
485.109384
 20
183.145754
 30
0.0
 11
485.109384
 21
176.145754
 31
0.0
  0
LINE
  5
233
100
AcDbEntity
  8
002
 62
     3
100
AcDbLine
 10
487.449484
 20
172.145754
 30
0.0
 11
487.449484
 21
167.145754
 31
0.0
  0
LINE
  5
234
100
AcDbEntity
  8
002
 62
     3
100
AcDbLine
 10
478.949484
 20
167.145754
 30
0.0
 11
478.949484
 21
172.145754
 31
0.0
  0
LINE
  5
235
100
AcDbEntity
  8
002
 62
     3
100
AcDbLine
 10
478.555984
 20
169.189354
 30
0.0
 11
479.109384
 21
131.145754
 31
0.0
  0
LINE
  5
236
100
AcDbEntity
  8
002
 62
     3
100
AcDbLine
 10
479.109384
 20
131.145754
 30
0.0
 11
519.109384
 21
131.145754
 31
0.0
  0
LINE
  5
237
100
AcDbEntity
  8
002
 62
     3
100
AcDbLine
 10
519.109384
 20
131.145754
 30
0.0
 11
519.662684
 21
169.189354
 31
0.0
  0
LINE
  5
238
100
AcDbEntity
  8
002
 62
     3
100
AcDbLine
 10
510.769284
 20
167.145754
 30
0.0
 11
510.769284
 21
172.145754
 31
0.0
  0
LINE
  5
239
100
AcDbEntity
  8
002
 62
     3
100
AcDbLine
 10
513.109384
 20
176.145754
 30
0.0
 11
513.109384
 21
183.145754
 31
0.0
  0
ARC
  5
23A
100
AcDbEntity
  8
002
 62
     3
100
AcDbCircle
 10
509.109384
 20
183.145754
 30
0.0
 40
4.0
100
AcDbArc
 50
0.0
 51
90.0
  0
ARC
  5
23B
100
AcDbEntity
  8
002
 62
     3
100
AcDbCircle
 10
499.109384
 20
125.361354
 30
0.0
 40
62.412979
100
AcDbArc
 50
81.861576
 51
98.138515
  0
LINE
  5
23C
100
AcDbEntity
  8
002
 62
     3
100
AcDbLine
 10
485.109384
 20
187.145754
 30
0.0
 11
474.109384
 21
189.145754
 31
0.0
  0
LINE
  5
23D
100
AcDbEntity
  8
002
 62
     3
100
AcDbLine
 10
474.109384
 20
187.145754
 30
0.0
 11
474.109384
 21
176.145754
 31
0.0
  0
LINE
  5
23E
100
AcDbEntity
  8
002
 62
     3
100
AcDbLine
 10
471.609384
 20
176.145754
 30
0.0
 11
471.609384
 21
172.145754
 31
0.0
  0
LINE
  5
23F
100
AcDbEntity
  8
002
 62
     3
100
AcDbLine
 10
471.609384
 20
172.145754
 30
0.0
 11
526.609384
 21
172.145754
 31
0.0
  0
LINE
  5
240
100
AcDbEntity
  8
002
 62
     3
100
AcDbLine
 10
526.609384
 20
172.145754
 30
0.0
 11
526.609384
 21
176.145754
 31
0.0
  0
LINE
  5
241
100
AcDbEntity
  8
002
 62
     3
100
AcDbLine
 10
524.109384
 20
176.145754
 30
0.0
 11
524.109384
 21
187.145754
 31
0.0
  0
LINE
  5
242
100
AcDbEntity
  8
002
 62
     3
100
AcDbLine
 10
518.341384
 20
190.600754
 30
0.0
 11
518.341384
 21
190.852754
 31
0.0
  0
LINE
  5
243
100
AcDbEntity
  8
002
 62
     3
100
AcDbLine
 10
517.804384
 20
193.498054
 30
0.0
 11
531.204884
 21
192.642654
 31
0.0
  0
LINE
  5
244
100
AcDbEntity
  8
002
 62
     3
100
AcDbLine
 10
531.013784
 20
192.642654
 30
0.0
 11
544.414384
 21
193.498054
 31
0.0
  0
ARC
  5
245
100
AcDbEntity
  8
002
 62
     3
100
AcDbCircle
 10
543.777384
 20
203.477754
 30
0.0
 40
10.000009
100
AcDbArc
 50
273.652211
 51
356.347789
  0
LINE
  5
246
100
AcDbEntity
  8
002
 62
     3
100
AcDbLine
 10
553.757084
 20
202.840754
 30
0.0
 11
554.612384
 21
216.241254
 31
0.0
  0
LINE
  5
247
100
AcDbEntity
  8
002
 62
     3
100
AcDbLine
 10
554.612384
 20
216.050154
 30
0.0
 11
553.757084
 21
229.450754
 31
0.0
  0
ARC
  5
248
100
AcDbEntity
  8
002
 62
     3
100
AcDbCircle
 10
543.777384
 20
228.813754
 30
0.0
 40
10.000009
100
AcDbArc
 50
3.652211
 51
86.347789
  0
CIRCLE
  5
249
100
AcDbEntity
  8
002
 62
     3
100
AcDbCircle
 10
531.109384
 20
216.145754
 30
0.0
 40
17.5
  0
LINE
  5
24A
100
AcDbEntity
  8
002
 62
     3
100
AcDbLine
 10
533.609384
 20
220.895754
 30
0.0
 11
533.359384
 21
220.645754
 31
0.0
  0
LINE
  5
24B
100
AcDbEntity
  8
002
 62
     3
100
AcDbLine
 10
533.359384
 20
220.645754
 30
0.0
 11
528.859384
 21
220.645754
 31
0.0
  0
LINE
  5
24C
100
AcDbEntity
  8
002
 62
     3
100
AcDbLine
 10
528.859384
 20
220.645754
 30
0.0
 11
528.609384
 21
220.895754
 31
0.0
  0
LINE
  5
24D
100
AcDbEntity
  8
002
 62
     3
100
AcDbLine
 10
528.609384
 20
220.895754
 30
0.0
 11
528.609384
 21
225.395754
 31
0.0
  0
LINE
  5
24E
100
AcDbEntity
  8
002
 62
     3
100
AcDbLine
 10
528.609384
 20
225.395754
 30
0.0
 11
528.859384
 21
225.645754
 31
0.0
  0
LINE
  5
24F
100
AcDbEntity
  8
002
 62
     3
100
AcDbLine
 10
528.859384
 20
225.645754
 30
0.0
 11
533.359384
 21
225.645754
 31
0.0
  0
LINE
  5
250
100
AcDbEntity
  8
002
 62
     3
100
AcDbLine
 10
533.359384
 20
225.645754
 30
0.0
 11
533.609384
 21
225.395754
 31
0.0
  0
LINE
  5
251
100
AcDbEntity
  8
002
 62
     3
100
AcDbLine
 10
533.609384
 20
225.395754
 30
0.0
 11
533.609384
 21
220.895754
 31
0.0
  0
ARC
  5
252
100
AcDbEntity
  8
002
 62
     3
100
AcDbCircle
 10
533.409384
 20
220.845754
 30
0.0
 40
0.2
100
AcDbArc
 50
270.0
 51
0.0
  0
ARC
  5
253
100
AcDbEntity
  8
002
 62
     3
100
AcDbCircle
 10
528.809384
 20
220.845754
 30
0.0
 40
0.2
100
AcDbArc
 50
180.0
 51
270.0
  0
ARC
  5
254
100
AcDbEntity
  8
002
 62
     3
100
AcDbCircle
 10
531.109384
 20
216.145754
 30
0.0
 40
7.499936
100
AcDbArc
 50
109.471393
 51
70.528607
  0
ARC
  5
255
100
AcDbEntity
  8
002
 62
     3
100
AcDbCircle
 10
531.109384
 20
216.145754
 30
0.0
 40
8.499963
100
AcDbArc
 50
107.104711
 51
72.895289
  0
LINE
  5
256
100
AcDbEntity
  8
002
 62
     3
100
AcDbLine
 10
532.621984
 20
240.483454
 30
0.0
 11
530.840184
 21
240.312054
 31
0.0
  0
LINE
  5
257
100
AcDbEntity
  8
002
 62
     3
100
AcDbLine
 10
530.840184
 20
240.312054
 30
0.0
 11
515.423184
 21
239.306054
 31
0.0
  0
ARC
  5
258
100
AcDbEntity
  8
002
 62
     3
100
AcDbCircle
 10
518.441384
 20
228.813754
 30
0.0
 40
10.000009
100
AcDbArc
 50
93.652211
 51
176.347789
  0
ARC
  5
259
100
AcDbEntity
  8
002
 62
     3
100
AcDbCircle
 10
532.334784
 20
243.469654
 30
0.0
 40
2.999999
100
AcDbArc
 50
275.493568
 51
347.987011
  0
ARC
  5
25A
100
AcDbEntity
  8
002
 62
     3
100
AcDbCircle
 10
537.334784
 20
246.145754
 30
0.0
 40
2.0
100
AcDbArc
 50
180.0
 51
270.0
  0
LINE
  5
25B
100
AcDbEntity
  8
002
 62
     3
100
AcDbLine
 10
536.609384
 20
246.145754
 30
0.0
 11
461.609384
 21
246.145754
 31
0.0
  0
LINE
  5
25C
100
AcDbEntity
  8
002
 62
     3
100
AcDbLine
 10
469.360584
 20
256.145754
 30
0.0
 11
469.360584
 21
262.145754
 31
0.0
  0
LINE
  5
25D
100
AcDbEntity
  8
002
 62
     3
100
AcDbLine
 10
469.360584
 20
262.145754
 30
0.0
 11
479.360584
 21
262.145754
 31
0.0
  0
LINE
  5
25E
100
AcDbEntity
  8
002
 62
     3
100
AcDbLine
 10
470.109384
 20
262.145754
 30
0.0
 11
470.109384
 21
313.145754
 31
0.0
  0
LINE
  5
25F
100
AcDbEntity
  8
002
 62
     3
100
AcDbLine
 10
479.360584
 20
262.145754
 30
0.0
 11
479.360584
 21
256.145754
 31
0.0
  0
ARC
  5
260
100
AcDbEntity
  8
002
 62
     3
100
AcDbCircle
 10
460.109384
 20
230.177054
 30
0.0
 40
3.000057
100
AcDbArc
 50
0.0
 51
41.410861
  0
ARC
  5
261
100
AcDbEntity
  8
002
 62
     3
100
AcDbCircle
 10
464.609384
 20
186.145754
 30
0.0
 40
3.0
100
AcDbArc
 50
90.0
 51
180.0
  0
LINE
  5
262
100
AcDbEntity
  8
002
 62
     3
100
AcDbLine
 10
461.609384
 20
186.145754
 30
0.0
 11
461.609384
 21
176.145754
 31
0.0
  0
LINE
  5
263
100
AcDbEntity
  8
002
 62
     3
100
AcDbLine
 10
461.609384
 20
176.145754
 30
0.0
 11
536.609384
 21
176.145754
 31
0.0
  0
LINE
  5
264
100
AcDbEntity
  8
002
 62
     3
100
AcDbLine
 10
536.609384
 20
176.145754
 30
0.0
 11
536.609384
 21
186.805754
 31
0.0
  0
LINE
  5
265
100
AcDbEntity
  8
002
 62
     3
100
AcDbLine
 10
541.290884
 20
191.795654
 30
0.0
 11
547.583684
 21
192.197254
 31
0.0
  0
ARC
  5
266
100
AcDbEntity
  8
002
 62
     3
100
AcDbCircle
 10
547.074084
 20
200.181054
 30
0.0
 40
7.999947
100
AcDbArc
 50
273.652192
 51
356.347762
  0
ARC
  5
267
100
AcDbEntity
  8
002
 62
     3
100
AcDbCircle
 10
531.109384
 20
215.101354
 30
0.0
 40
15.66944
100
AcDbArc
 50
306.867484
 51
233.132223
  0
ARC
  5
268
100
AcDbEntity
  8
002
 62
     3
100
AcDbCircle
 10
523.208184
 20
204.565554
 30
0.0
 40
2.499985
100
AcDbArc
 50
233.131477
 51
314.849286
  0
CIRCLE
  5
269
100
AcDbEntity
  8
002
 62
     3
100
AcDbCircle
 10
526.734384
 20
201.020754
 30
0.0
 40
1.09375
  0
ARC
  5
26A
100
AcDbEntity
  8
002
 62
     3
100
AcDbCircle
 10
526.734384
 20
201.020754
 30
0.0
 40
2.499985
100
AcDbArc
 50
0.0
 51
134.849286
  0
LINE
  5
26B
100
AcDbEntity
  8
002
 62
     3
100
AcDbLine
 10
529.234384
 20
201.020754
 30
0.0
 11
529.234384
 21
198.774154
 31
0.0
  0
LINE
  5
26C
100
AcDbEntity
  8
002
 62
     3
100
AcDbLine
 10
532.984384
 20
198.774154
 30
0.0
 11
532.984384
 21
201.020754
 31
0.0
  0
CIRCLE
  5
26D
100
AcDbEntity
  8
002
 62
     3
100
AcDbCircle
 10
535.484384
 20
201.020754
 30
0.0
 40
1.09375
  0
ARC
  5
26E
100
AcDbEntity
  8
002
 62
     3
100
AcDbCircle
 10
539.010584
 20
204.565554
 30
0.0
 40
2.50002
100
AcDbArc
 50
225.150714
 51
306.866689
  0
ARC
  5
26F
100
AcDbEntity
  8
002
 62
     3
100
AcDbCircle
 10
535.484384
 20
201.020754
 30
0.0
 40
2.5
100
AcDbArc
 50
45.150714
 51
180.0
  0
ARC
  5
270
100
AcDbEntity
  8
002
 62
     3
100
AcDbCircle
 10
541.609384
 20
186.805754
 30
0.0
 40
5.0
100
AcDbArc
 50
93.652174
 51
180.0
  0
ARC
  5
271
100
AcDbEntity
  8
002
 62
     3
100
AcDbCircle
 10
522.662384
 20
169.145754
 30
0.0
 40
3.000017
100
AcDbArc
 50
90.0
 51
179.167277
  0
LINE
  5
272
100
AcDbEntity
  8
002
 62
     3
100
AcDbLine
 10
519.269284
 20
167.145754
 30
0.0
 11
519.269284
 21
172.145754
 31
0.0
  0
LINE
  5
273
100
AcDbEntity
  8
002
 62
     3
100
AcDbLine
 10
519.269284
 20
167.145754
 30
0.0
 11
510.769284
 21
167.145754
 31
0.0
  0
LINE
  5
274
100
AcDbEntity
  8
002
 62
     3
100
AcDbLine
 10
513.109384
 20
187.145754
 30
0.0
 11
515.877984
 21
187.649154
 31
0.0
  0
ARC
  5
275
100
AcDbEntity
  8
002
 62
     3
100
AcDbCircle
 10
515.341384
 20
190.600754
 30
0.0
 40
3.0
100
AcDbArc
 50
280.303822
 51
0.0
  0
ARC
  5
276
100
AcDbEntity
  8
002
 62
     3
100
AcDbCircle
 10
518.441384
 20
203.477754
 30
0.0
 40
10.000009
100
AcDbArc
 50
183.652211
 51
266.347789
  0
LINE
  5
277
100
AcDbEntity
  8
002
 62
     3
100
AcDbLine
 10
487.449484
 20
167.145754
 30
0.0
 11
478.949484
 21
167.145754
 31
0.0
  0
ARC
  5
278
100
AcDbEntity
  8
002
 62
     3
100
AcDbCircle
 10
475.556284
 20
169.145754
 30
0.0
 40
3.0
100
AcDbArc
 50
0.832723
 51
90.0
  0
ARC
  5
279
100
AcDbEntity
  8
002
 62
     3
100
AcDbCircle
 10
460.109384
 20
190.114354
 30
0.0
 40
3.0
100
AcDbArc
 50
318.590571
 51
0.0
  0
ARC
  5
27A
100
AcDbEntity
  8
002
 62
     3
100
AcDbCircle
 10
545.109384
 20
256.484254
 30
0.0
 40
1.000041
100
AcDbArc
 50
41.412294
 51
138.587706
  0
LINE
  5
27B
100
AcDbEntity
  8
002
 62
     3
100
AcDbLine
 10
471.609384
 20
313.145754
 30
0.0
 11
471.609384
 21
316.145754
 31
0.0
  0
LINE
  5
27C
100
AcDbEntity
  8
002
 62
     3
100
AcDbLine
 10
471.609384
 20
316.145754
 30
0.0
 11
526.609384
 21
316.145754
 31
0.0
  0
LINE
  5
27D
100
AcDbEntity
  8
002
 62
     3
100
AcDbLine
 10
526.609384
 20
316.145754
 30
0.0
 11
526.609384
 21
313.145754
 31
0.0
  0
LINE
  5
27E
100
AcDbEntity
  8
002
 62
     3
100
AcDbLine
 10
525.859384
 20
316.145754
 30
0.0
 11
525.859384
 21
321.145754
 31
0.0
  0
LINE
  5
27F
100
AcDbEntity
  8
002
 62
     3
100
AcDbLine
 10
517.359384
 20
321.145754
 30
0.0
 11
517.359384
 21
316.145754
 31
0.0
  0
LINE
  5
280
100
AcDbEntity
  8
002
 62
     3
100
AcDbLine
 10
515.409384
 20
330.145754
 30
0.0
 11
474.809384
 21
330.145754
 31
0.0
  0
ARC
  5
281
100
AcDbEntity
  8
002
 62
     3
100
AcDbCircle
 10
474.809384
 20
328.145754
 30
0.0
 40
2.0
100
AcDbArc
 50
90.0
 51
180.0
  0
LINE
  5
282
100
AcDbEntity
  8
002
 62
     3
100
AcDbLine
 10
472.809384
 20
328.145754
 30
0.0
 11
472.809384
 21
321.145754
 31
0.0
  0
LINE
  5
283
100
AcDbEntity
  8
002
 62
     3
100
AcDbLine
 10
480.859384
 20
321.145754
 30
0.0
 11
480.859384
 21
316.145754
 31
0.0
  0
LINE
  5
284
100
AcDbEntity
  8
002
 62
     3
100
AcDbLine
 10
494.859384
 20
316.145754
 30
0.0
 11
494.859384
 21
321.145754
 31
0.0
  0
LINE
  5
285
100
AcDbEntity
  8
002
 62
     3
100
AcDbLine
 10
503.359384
 20
321.145754
 30
0.0
 11
503.359384
 21
316.145754
 31
0.0
  0
LINE
  5
286
100
AcDbEntity
  8
002
 62
     3
100
AcDbLine
 10
517.359384
 20
321.145754
 30
0.0
 11
525.859384
 21
321.145754
 31
0.0
  0
ARC
  5
287
100
AcDbEntity
  8
002
 62
     3
100
AcDbCircle
 10
528.109384
 20
334.145754
 30
0.0
 40
0.999967
100
AcDbArc
 50
279.990722
 51
80.008284
  0
LINE
  5
288
100
AcDbEntity
  8
002
 62
     3
100
AcDbLine
 10
528.282884
 20
335.130554
 30
0.0
 11
517.435784
 21
336.160854
 31
0.0
  0
ARC
  5
289
100
AcDbEntity
  8
002
 62
     3
100
AcDbCircle
 10
517.609384
 20
337.145754
 30
0.0
 40
1.000082
100
AcDbArc
 50
99.997359
 51
260.003636
  0
LINE
  5
28A
100
AcDbEntity
  8
002
 62
     3
100
AcDbLine
 10
517.435784
 20
338.130554
 30
0.0
 11
528.282884
 21
339.160854
 31
0.0
  0
ARC
  5
28B
100
AcDbEntity
  8
002
 62
     3
100
AcDbCircle
 10
528.109384
 20
340.145754
 30
0.0
 40
0.999967
100
AcDbArc
 50
279.990722
 51
80.008284
  0
LINE
  5
28C
100
AcDbEntity
  8
002
 62
     3
100
AcDbLine
 10
528.282884
 20
341.130554
 30
0.0
 11
517.435784
 21
342.160854
 31
0.0
  0
ARC
  5
28D
100
AcDbEntity
  8
002
 62
     3
100
AcDbCircle
 10
517.609384
 20
343.145754
 30
0.0
 40
1.000082
100
AcDbArc
 50
180.0
 51
260.003636
  0
LINE
  5
28E
100
AcDbEntity
  8
002
 62
     3
100
AcDbLine
 10
515.609384
 20
343.145754
 30
0.0
 11
482.609384
 21
343.145754
 31
0.0
  0
LINE
  5
28F
100
AcDbEntity
  8
002
 62
     3
100
AcDbLine
 10
480.782884
 20
342.160854
 30
0.0
 11
469.935784
 21
341.130554
 31
0.0
  0
ARC
  5
290
100
AcDbEntity
  8
002
 62
     3
100
AcDbCircle
 10
470.109384
 20
340.145754
 30
0.0
 40
1.000082
100
AcDbArc
 50
99.997359
 51
260.003636
  0
LINE
  5
291
100
AcDbEntity
  8
002
 62
     3
100
AcDbLine
 10
469.935784
 20
339.160854
 30
0.0
 11
480.782884
 21
338.130554
 31
0.0
  0
ARC
  5
292
100
AcDbEntity
  8
002
 62
     3
100
AcDbCircle
 10
480.609384
 20
337.145754
 30
0.0
 40
0.999967
100
AcDbArc
 50
279.990722
 51
80.008284
  0
LINE
  5
293
100
AcDbEntity
  8
002
 62
     3
100
AcDbLine
 10
480.782884
 20
336.160854
 30
0.0
 11
469.935784
 21
335.130554
 31
0.0
  0
ARC
  5
294
100
AcDbEntity
  8
002
 62
     3
100
AcDbCircle
 10
470.109384
 20
334.145754
 30
0.0
 40
1.000082
100
AcDbArc
 50
99.997359
 51
260.003636
  0
LINE
  5
295
100
AcDbEntity
  8
002
 62
     3
100
AcDbLine
 10
469.935784
 20
333.160854
 30
0.0
 11
483.409384
 21
331.145754
 31
0.0
  0
LINE
  5
296
100
AcDbEntity
  8
002
 62
     3
100
AcDbLine
 10
483.409384
 20
331.145754
 30
0.0
 11
483.409384
 21
330.145754
 31
0.0
  0
LINE
  5
297
100
AcDbEntity
  8
002
 62
     3
100
AcDbLine
 10
480.859384
 20
321.145754
 30
0.0
 11
472.359384
 21
321.145754
 31
0.0
  0
LINE
  5
298
100
AcDbEntity
  8
002
 62
     3
100
AcDbLine
 10
472.359384
 20
321.145754
 30
0.0
 11
472.359384
 21
316.145754
 31
0.0
  0
CIRCLE
  5
299
100
AcDbEntity
  8
002
 62
     3
100
AcDbCircle
 10
477.809384
 20
323.645754
 30
0.0
 40
1.0
  0
LINE
  5
29A
100
AcDbEntity
  8
002
 62
     3
100
AcDbLine
 10
514.809384
 20
331.145754
 30
0.0
 11
528.282884
 21
333.160854
 31
0.0
  0
LINE
  5
29B
100
AcDbEntity
  8
002
 62
     3
100
AcDbLine
 10
528.109384
 20
334.145754
 30
0.0
 11
470.109384
 21
334.145754
 31
0.0
  0
LINE
  5
29C
100
AcDbEntity
  8
002
 62
     3
100
AcDbLine
 10
470.109384
 20
340.145754
 30
0.0
 11
528.109384
 21
340.145754
 31
0.0
  0
LINE
  5
29D
100
AcDbEntity
  8
002
 62
     3
100
AcDbLine
 10
515.609384
 20
337.145754
 30
0.0
 11
482.609384
 21
337.145754
 31
0.0
  0
ARC
  5
29E
100
AcDbEntity
  8
002
 62
     3
100
AcDbCircle
 10
480.609384
 20
343.145754
 30
0.0
 40
1.0
100
AcDbArc
 50
279.990722
 51
0.0
  0
LINE
  5
29F
100
AcDbEntity
  8
002
 62
     3
100
AcDbLine
 10
514.809384
 20
331.145754
 30
0.0
 11
514.809384
 21
330.145754
 31
0.0
  0
LINE
  5
2A0
100
AcDbEntity
  8
002
 62
     3
100
AcDbLine
 10
503.359384
 20
321.145754
 30
0.0
 11
494.859384
 21
321.145754
 31
0.0
  0
LINE
  5
2A1
100
AcDbEntity
  8
002
  6
PHANTOM
 62
     9
100
AcDbLine
 10
469.109384
 20
381.445754
 30
0.0
 11
469.109384
 21
340.145754
 31
0.0
  0
LINE
  5
2A2
100
AcDbEntity
  8
002
  6
PHANTOM
 62
     9
100
AcDbLine
 10
481.609384
 20
343.145754
 30
0.0
 11
481.609384
 21
378.445754
 31
0.0
  0
LINE
  5
2A3
100
AcDbEntity
  8
002
  6
PHANTOM
 62
     9
100
AcDbLine
 10
516.609384
 20
378.445754
 30
0.0
 11
516.609384
 21
343.145754
 31
0.0
  0
LINE
  5
2A4
100
AcDbEntity
  8
002
  6
PHANTOM
 62
     9
100
AcDbLine
 10
529.109384
 20
340.145754
 30
0.0
 11
529.109384
 21
381.445754
 31
0.0
  0
LINE
  5
2A5
100
AcDbEntity
  8
002
  6
CENTER
 62
     9
100
AcDbLine
 10
521.609384
 20
310.145754
 30
0.0
 11
521.609384
 21
323.867354
 31
0.0
  0
LINE
  5
2A6
100
AcDbEntity
  8
002
  6
CENTER
 62
     9
100
AcDbLine
 10
475.441584
 20
323.645754
 30
0.0
 11
480.466684
 21
323.645754
 31
0.0
  0
LINE
  5
2A7
100
AcDbEntity
  8
002
  6
CENTER
 62
     9
100
AcDbLine
 10
477.809384
 20
327.153454
 30
0.0
 11
477.809384
 21
320.393554
 31
0.0
  0
LINE
  5
2A8
100
AcDbEntity
  8
002
  6
CENTER
 62
     9
100
AcDbLine
 10
476.609384
 20
323.867354
 30
0.0
 11
476.609384
 21
310.145754
 31
0.0
  0
LINE
  5
2A9
100
AcDbEntity
  8
002
  6
CENTER
 62
     9
100
AcDbLine
 10
507.882384
 20
293.645754
 30
0.0
 11
490.709084
 21
293.645754
 31
0.0
  0
LINE
  5
2AA
100
AcDbEntity
  8
002
  6
CENTER
 62
     9
100
AcDbLine
 10
474.360584
 20
266.645754
 30
0.0
 11
474.360584
 21
240.312054
 31
0.0
  0
LINE
  5
2AB
100
AcDbEntity
  8
002
  6
CENTER
 62
     9
100
AcDbLine
 10
523.858084
 20
240.312054
 30
0.0
 11
523.858084
 21
266.645754
 31
0.0
  0
LINE
  5
2AC
100
AcDbEntity
  8
002
  6
CENTER
 62
     9
100
AcDbLine
 10
531.109384
 20
264.706254
 30
0.0
 11
531.109384
 21
168.102554
 31
0.0
  0
LINE
  5
2AD
100
AcDbEntity
  8
002
  6
CENTER
 62
     9
100
AcDbLine
 10
545.109384
 20
241.404054
 30
0.0
 11
545.109384
 21
259.749754
 31
0.0
  0
LINE
  5
2AE
100
AcDbEntity
  8
002
  6
CENTER
 62
     9
100
AcDbLine
 10
483.199484
 20
178.145754
 30
0.0
 11
483.199484
 21
164.424154
 31
0.0
  0
LINE
  5
2AF
100
AcDbEntity
  8
002
  6
CENTER
 62
     9
100
AcDbLine
 10
515.019284
 20
164.424154
 30
0.0
 11
515.019284
 21
178.145754
 31
0.0
  0
LINE
  5
2B0
100
AcDbEntity
  8
002
  6
DASHED
 62
     9
100
AcDbLine
 10
511.109384
 20
186.145754
 30
0.0
 11
511.109384
 21
186.609854
 31
0.0
  0
LINE
  5
2B1
100
AcDbEntity
  8
002
  6
DASHED
 62
     9
100
AcDbLine
 10
487.109384
 20
186.145754
 30
0.0
 11
487.109384
 21
186.609854
 31
0.0
  0
LINE
  5
2B2
100
AcDbEntity
  8
002
  6
HIDDEN
 62
     9
100
AcDbLine
 10
492.476084
 20
186.145754
 30
0.0
 11
487.109384
 21
186.145754
 31
0.0
  0
LINE
  5
2B3
100
AcDbEntity
  8
002
  6
HIDDEN
 62
     9
100
AcDbLine
 10
493.609384
 20
176.145754
 30
0.0
 11
493.609384
 21
186.145754
 31
0.0
  0
LINE
  5
2B4
100
AcDbEntity
  8
002
  6
HIDDEN
 62
     9
100
AcDbLine
 10
504.609384
 20
186.145754
 30
0.0
 11
504.609384
 21
176.145754
 31
0.0
  0
LINE
  5
2B5
100
AcDbEntity
  8
002
  6
HIDDEN
 62
     9
100
AcDbLine
 10
511.109384
 20
186.145754
 30
0.0
 11
505.742584
 21
186.145754
 31
0.0
  0
ARC
  5
2B6
100
AcDbEntity
  8
002
 62
     3
100
AcDbCircle
 10
480.609384
 20
378.445754
 30
0.0
 40
0.999967
100
AcDbArc
 50
0.0
 51
80.008284
  0
LINE
  5
2B7
100
AcDbEntity
  8
002
 62
     3
100
AcDbLine
 10
480.782884
 20
379.430554
 30
0.0
 11
469.935784
 21
380.460854
 31
0.0
  0
LINE
  5
2B8
100
AcDbEntity
  8
002
 62
     3
100
AcDbLine
 10
470.109384
 20
381.445754
 30
0.0
 11
528.109384
 21
381.445754
 31
0.0
  0
ARC
  5
2B9
100
AcDbEntity
  8
002
 62
     3
100
AcDbCircle
 10
528.109384
 20
381.445754
 30
0.0
 40
0.999967
100
AcDbArc
 50
279.990722
 51
80.008284
  0
LINE
  5
2BA
100
AcDbEntity
  8
002
 62
     3
100
AcDbLine
 10
528.282884
 20
382.430554
 30
0.0
 11
517.435784
 21
383.460854
 31
0.0
  0
ARC
  5
2BB
100
AcDbEntity
  8
002
 62
     3
100
AcDbCircle
 10
517.609384
 20
384.445754
 30
0.0
 40
1.000082
100
AcDbArc
 50
99.997359
 51
260.003636
  0
LINE
  5
2BC
100
AcDbEntity
  8
002
 62
     3
100
AcDbLine
 10
517.435784
 20
385.430554
 30
0.0
 11
528.282884
 21
386.460854
 31
0.0
  0
ARC
  5
2BD
100
AcDbEntity
  8
002
 62
     3
100
AcDbCircle
 10
528.109384
 20
387.445754
 30
0.0
 40
0.999967
100
AcDbArc
 50
279.990722
 51
80.008284
  0
LINE
  5
2BE
100
AcDbEntity
  8
002
 62
     3
100
AcDbLine
 10
528.282884
 20
388.430554
 30
0.0
 11
509.809384
 21
390.445754
 31
0.0
  0
LINE
  5
2BF
100
AcDbEntity
  8
002
 62
     3
100
AcDbLine
 10
488.409384
 20
390.445754
 30
0.0
 11
469.935784
 21
388.430554
 31
0.0
  0
ARC
  5
2C0
100
AcDbEntity
  8
002
 62
     3
100
AcDbCircle
 10
470.109384
 20
387.445754
 30
0.0
 40
1.000082
100
AcDbArc
 50
99.997359
 51
260.003636
  0
LINE
  5
2C1
100
AcDbEntity
  8
002
 62
     3
100
AcDbLine
 10
469.935784
 20
386.460854
 30
0.0
 11
480.782884
 21
385.430554
 31
0.0
  0
LINE
  5
2C2
100
AcDbEntity
  8
002
 62
     3
100
AcDbLine
 10
480.782884
 20
383.460854
 30
0.0
 11
469.935784
 21
382.430554
 31
0.0
  0
ARC
  5
2C3
100
AcDbEntity
  8
002
 62
     3
100
AcDbCircle
 10
470.109384
 20
381.445754
 30
0.0
 40
1.000082
100
AcDbArc
 50
99.997359
 51
260.003636
  0
LINE
  5
2C4
100
AcDbEntity
  8
002
 62
     3
100
AcDbLine
 10
470.109384
 20
387.445754
 30
0.0
 11
528.109384
 21
387.445754
 31
0.0
  0
LINE
  5
2C5
100
AcDbEntity
  8
002
 62
     3
100
AcDbLine
 10
528.282884
 20
380.460854
 30
0.0
 11
517.435784
 21
379.430554
 31
0.0
  0
ARC
  5
2C6
100
AcDbEntity
  8
002
 62
     3
100
AcDbCircle
 10
517.609384
 20
378.445754
 30
0.0
 40
1.0
100
AcDbArc
 50
99.997359
 51
180.0
  0
LINE
  5
2C7
100
AcDbEntity
  8
002
 62
     3
100
AcDbLine
 10
515.609384
 20
378.445754
 30
0.0
 11
482.609384
 21
378.445754
 31
0.0
  0
ARC
  5
2C8
100
AcDbEntity
  8
002
 62
     3
100
AcDbCircle
 10
480.609384
 20
384.445754
 30
0.0
 40
0.999967
100
AcDbArc
 50
279.990722
 51
80.008284
  0
LINE
  5
2C9
100
AcDbEntity
  8
002
 62
     3
100
AcDbLine
 10
482.609384
 20
384.445754
 30
0.0
 11
515.609384
 21
384.445754
 31
0.0
  0
LINE
  5
2CA
100
AcDbEntity
  8
002
 62
     3
100
AcDbLine
 10
509.809384
 20
390.445754
 30
0.0
 11
509.809384
 21
391.445754
 31
0.0
  0
LINE
  5
2CB
100
AcDbEntity
  8
002
 62
     3
100
AcDbLine
 10
510.409384
 20
391.445754
 30
0.0
 11
479.809384
 21
391.445754
 31
0.0
  0
LINE
  5
2CC
100
AcDbEntity
  8
002
 62
     3
100
AcDbLine
 10
488.409384
 20
391.445754
 30
0.0
 11
488.409384
 21
390.445754
 31
0.0
  0
CIRCLE
  5
2CD
100
AcDbEntity
  8
002
 62
     3
100
AcDbCircle
 10
482.809384
 20
397.945754
 30
0.0
 40
1.0
  0
LINE
  5
2CE
100
AcDbEntity
  8
002
 62
     3
100
AcDbLine
 10
488.409384
 20
406.445754
 30
0.0
 11
509.809384
 21
406.445754
 31
0.0
  0
LINE
  5
2CF
100
AcDbEntity
  8
002
 62
     3
100
AcDbLine
 10
504.959384
 20
406.445754
 30
0.0
 11
504.959384
 21
409.445754
 31
0.0
  0
LINE
  5
2D0
100
AcDbEntity
  8
002
 62
     3
100
AcDbLine
 10
506.109384
 20
426.445754
 30
0.0
 11
506.109384
 21
409.445754
 31
0.0
  0
LINE
  5
2D1
100
AcDbEntity
  8
002
 62
     3
100
AcDbLine
 10
492.109384
 20
426.445754
 30
0.0
 11
506.109384
 21
426.445754
 31
0.0
  0
LINE
  5
2D2
100
AcDbEntity
  8
002
 62
     3
100
AcDbLine
 10
492.109384
 20
426.445754
 30
0.0
 11
492.109384
 21
409.445754
 31
0.0
  0
LINE
  5
2D3
100
AcDbEntity
  8
002
 62
     3
100
AcDbLine
 10
492.109384
 20
409.445754
 30
0.0
 11
506.109384
 21
409.445754
 31
0.0
  0
LINE
  5
2D4
100
AcDbEntity
  8
002
 62
     3
100
AcDbLine
 10
493.259384
 20
409.445754
 30
0.0
 11
493.259384
 21
406.445754
 31
0.0
  0
LINE
  5
2D5
100
AcDbEntity
  8
002
 62
     9
100
AcDbLine
 10
493.159384
 20
409.445754
 30
0.0
 11
493.159384
 21
426.445754
 31
0.0
  0
LINE
  5
2D6
100
AcDbEntity
  8
002
 62
     9
100
AcDbLine
 10
505.059384
 20
426.445754
 30
0.0
 11
505.059384
 21
409.445754
 31
0.0
  0
LINE
  5
2D7
100
AcDbEntity
  8
002
  6
CENTER
 62
     9
100
AcDbLine
 10
482.809384
 20
394.693554
 30
0.0
 11
482.809384
 21
401.453454
 31
0.0
  0
LINE
  5
2D8
100
AcDbEntity
  8
002
  6
CENTER
 62
     9
100
AcDbLine
 10
480.441584
 20
397.945754
 30
0.0
 11
485.466684
 21
397.945754
 31
0.0
  0
LINE
  5
2D9
100
AcDbEntity
  8
002
 62
     3
100
AcDbLine
 10
481.109384
 20
76.145754
 30
0.0
 11
517.109384
 21
76.145754
 31
0.0
  0
LINE
  5
2DA
100
AcDbEntity
  8
002
 62
     3
100
AcDbLine
 10
517.109384
 20
76.145754
 30
0.0
 11
517.109384
 21
59.145754
 31
0.0
  0
LINE
  5
2DB
100
AcDbEntity
  8
002
 62
     3
100
AcDbLine
 10
514.109384
 20
56.145754
 30
0.0
 11
484.109384
 21
56.145754
 31
0.0
  0
LINE
  5
2DC
100
AcDbEntity
  8
002
 62
     3
100
AcDbLine
 10
481.109384
 20
59.145754
 30
0.0
 11
481.109384
 21
76.145754
 31
0.0
  0
ARC
  5
2DD
100
AcDbEntity
  8
002
 62
     3
100
AcDbCircle
 10
484.109384
 20
59.145754
 30
0.0
 40
3.0
100
AcDbArc
 50
180.0
 51
270.0
  0
ARC
  5
2DE
100
AcDbEntity
  8
002
 62
     3
100
AcDbCircle
 10
514.109384
 20
59.145754
 30
0.0
 40
3.0
100
AcDbArc
 50
270.0
 51
0.0
  0
ARC
  5
2DF
100
AcDbEntity
  8
002
 62
     3
100
AcDbCircle
 10
479.809384
 20
393.445754
 30
0.0
 40
2.0
100
AcDbArc
 50
180.0
 51
270.0
  0
LINE
  5
2E0
100
AcDbEntity
  8
002
 62
     3
100
AcDbLine
 10
477.809384
 20
393.445754
 30
0.0
 11
477.809384
 21
401.445754
 31
0.0
  0
LINE
  5
2E1
100
AcDbEntity
  8
002
 62
     3
100
AcDbLine
 10
510.409384
 20
403.445754
 30
0.0
 11
510.409384
 21
391.445754
 31
0.0
  0
LINE
  5
2E2
100
AcDbEntity
  8
002
 62
     3
100
AcDbLine
 10
509.809384
 20
403.445754
 30
0.0
 11
509.809384
 21
406.445754
 31
0.0
  0
LINE
  5
2E3
100
AcDbEntity
  8
002
 62
     3
100
AcDbLine
 10
488.409384
 20
406.445754
 30
0.0
 11
488.409384
 21
403.445754
 31
0.0
  0
LINE
  5
2E4
100
AcDbEntity
  8
002
 62
     3
100
AcDbLine
 10
487.809384
 20
403.445754
 30
0.0
 11
487.809384
 21
391.445754
 31
0.0
  0
ARC
  5
2E5
100
AcDbEntity
  8
002
 62
     3
100
AcDbCircle
 10
479.809384
 20
401.445754
 30
0.0
 40
2.0
100
AcDbArc
 50
90.0
 51
180.0
  0
LINE
  5
2E6
100
AcDbEntity
  8
002
 62
     3
100
AcDbLine
 10
479.809384
 20
403.445754
 30
0.0
 11
510.409384
 21
403.445754
 31
0.0
  0
LINE
  5
2E7
100
AcDbEntity
  8
002
 62
     3
100
AcDbLine
 10
515.409384
 20
318.145754
 30
0.0
 11
515.409384
 21
330.145754
 31
0.0
  0
LINE
  5
2E8
100
AcDbEntity
  8
002
 62
     3
100
AcDbLine
 10
480.859384
 20
318.145754
 30
0.0
 11
494.859384
 21
318.145754
 31
0.0
  0
LINE
  5
2E9
100
AcDbEntity
  8
002
 62
     3
100
AcDbLine
 10
503.359384
 20
318.145754
 30
0.0
 11
515.409384
 21
318.145754
 31
0.0
  0
LINE
  5
2EA
100
AcDbEntity
  8
002
 62
     3
100
AcDbLine
 10
514.109384
 20
318.145754
 30
0.0
 11
514.109384
 21
316.145754
 31
0.0
  0
LINE
  5
2EB
100
AcDbEntity
  8
002
 62
     3
100
AcDbLine
 10
482.809384
 20
330.145754
 30
0.0
 11
482.809384
 21
318.145754
 31
0.0
  0
LINE
  5
2EC
100
AcDbEntity
  8
002
 62
     3
100
AcDbLine
 10
484.109384
 20
318.145754
 30
0.0
 11
484.109384
 21
316.145754
 31
0.0
  0
LINE
  5
2ED
100
AcDbEntity
  8
002
 62
     3
100
AcDbLine
 10
635.552559
 20
95.845754
 30
0.0
 11
635.552559
 21
92.845754
 31
0.0
  0
LINE
  5
2EE
100
AcDbEntity
  8
002
 62
     3
100
AcDbLine
 10
636.702559
 20
75.845754
 30
0.0
 11
636.702559
 21
92.845754
 31
0.0
  0
LINE
  5
2EF
100
AcDbEntity
  8
002
 62
     3
100
AcDbLine
 10
622.702559
 20
75.845754
 30
0.0
 11
622.702559
 21
92.845754
 31
0.0
  0
LINE
  5
2F0
100
AcDbEntity
  8
002
 62
     3
100
AcDbLine
 10
622.702559
 20
92.845754
 30
0.0
 11
636.702559
 21
92.845754
 31
0.0
  0
LINE
  5
2F1
100
AcDbEntity
  8
002
 62
     3
100
AcDbLine
 10
623.852559
 20
92.845754
 30
0.0
 11
623.852559
 21
95.845754
 31
0.0
  0
LINE
  5
2F2
100
AcDbEntity
  8
002
 62
     9
100
AcDbLine
 10
623.752559
 20
75.845754
 30
0.0
 11
623.752559
 21
92.845754
 31
0.0
  0
LINE
  5
2F3
100
AcDbEntity
  8
002
 62
     9
100
AcDbLine
 10
635.652559
 20
92.845754
 30
0.0
 11
635.652559
 21
75.845754
 31
0.0
  0
LINE
  5
2F4
100
AcDbEntity
  8
002
 62
     3
100
AcDbLine
 10
622.702559
 20
75.845754
 30
0.0
 11
636.702559
 21
75.845754
 31
0.0
  0
LINE
  5
2F5
100
AcDbEntity
  8
002
 62
     3
100
AcDbLine
 10
687.700559
 20
198.645754
 30
0.0
 11
687.700559
 21
233.645754
 31
0.0
  0
ARC
  5
2F6
100
AcDbEntity
  8
002
 62
     3
100
AcDbCircle
 10
688.702559
 20
236.473754
 30
0.0
 40
3.0
100
AcDbArc
 50
180.0
 51
250.490051
  0
LINE
  5
2F7
100
AcDbEntity
  8
002
 62
     3
100
AcDbLine
 10
685.702559
 20
236.473754
 30
0.0
 11
685.702559
 21
244.145754
 31
0.0
  0
LINE
  5
2F8
100
AcDbEntity
  8
002
 62
     3
100
AcDbLine
 10
685.702559
 20
244.145754
 30
0.0
 11
667.927559
 21
244.145754
 31
0.0
  0
ARC
  5
2F9
100
AcDbEntity
  8
002
 62
     3
100
AcDbCircle
 10
667.927559
 20
246.145754
 30
0.0
 40
2.0
100
AcDbArc
 50
180.0
 51
270.0
  0
LINE
  5
2FA
100
AcDbEntity
  8
002
 62
     3
100
AcDbLine
 10
667.202559
 20
246.145754
 30
0.0
 11
592.202559
 21
246.145754
 31
0.0
  0
LINE
  5
2FB
100
AcDbEntity
  8
002
 62
     3
100
AcDbLine
 10
592.202559
 20
256.145754
 30
0.0
 11
592.202559
 21
234.145754
 31
0.0
  0
ARC
  5
2FC
100
AcDbEntity
  8
002
 62
     3
100
AcDbCircle
 10
590.702559
 20
230.177054
 30
0.0
 40
3.0
100
AcDbArc
 50
0.0
 51
41.410861
  0
LINE
  5
2FD
100
AcDbEntity
  8
002
 62
     3
100
AcDbLine
 10
593.702559
 20
230.177054
 30
0.0
 11
593.702559
 21
190.114354
 31
0.0
  0
ARC
  5
2FE
100
AcDbEntity
  8
002
 62
     3
100
AcDbCircle
 10
590.702559
 20
190.114354
 30
0.0
 40
2.999991
100
AcDbArc
 50
318.590571
 51
0.0
  0
LINE
  5
2FF
100
AcDbEntity
  8
002
 62
     3
100
AcDbLine
 10
592.202559
 20
186.145754
 30
0.0
 11
592.202559
 21
176.145754
 31
0.0
  0
LINE
  5
300
100
AcDbEntity
  8
002
 62
     3
100
AcDbLine
 10
592.202559
 20
176.145754
 30
0.0
 11
667.202559
 21
176.145754
 31
0.0
  0
LINE
  5
301
100
AcDbEntity
  8
002
 62
     3
100
AcDbLine
 10
667.202559
 20
176.145754
 30
0.0
 11
667.202559
 21
186.805754
 31
0.0
  0
ARC
  5
302
100
AcDbEntity
  8
002
 62
     3
100
AcDbCircle
 10
672.202559
 20
186.805754
 30
0.0
 40
5.000086
100
AcDbArc
 50
93.657892
 51
180.0
  0
LINE
  5
303
100
AcDbEntity
  8
002
 62
     3
100
AcDbLine
 10
671.883559
 20
191.795654
 30
0.0
 11
678.176559
 21
192.197254
 31
0.0
  0
LINE
  5
304
100
AcDbEntity
  8
002
 62
     3
100
AcDbLine
 10
675.007559
 20
193.498054
 30
0.0
 11
661.606559
 21
192.642654
 31
0.0
  0
LINE
  5
305
100
AcDbEntity
  8
002
 62
     3
100
AcDbLine
 10
661.797559
 20
192.642654
 30
0.0
 11
648.397559
 21
193.498054
 31
0.0
  0
ARC
  5
306
100
AcDbEntity
  8
002
 62
     3
100
AcDbCircle
 10
649.034559
 20
203.477754
 30
0.0
 40
10.000308
100
AcDbArc
 50
183.652101
 51
266.347789
  0
LINE
  5
307
100
AcDbEntity
  8
002
 62
     3
100
AcDbLine
 10
638.924559
 20
194.464254
 30
0.0
 11
637.537559
 21
216.199054
 31
0.0
  0
LINE
  5
308
100
AcDbEntity
  8
002
 62
     3
100
AcDbLine
 10
637.537559
 20
216.092454
 30
0.0
 11
638.541559
 21
231.831954
 31
0.0
  0
ARC
  5
309
100
AcDbEntity
  8
002
 62
     3
100
AcDbCircle
 10
646.525559
 20
231.322254
 30
0.0
 40
8.000009
100
AcDbArc
 50
93.647904
 51
176.347184
  0
LINE
  5
30A
100
AcDbEntity
  8
002
 62
     3
100
AcDbLine
 10
646.016559
 20
239.306054
 30
0.0
 11
661.432559
 21
240.312054
 31
0.0
  0
LINE
  5
30B
100
AcDbEntity
  8
002
 62
     3
100
AcDbLine
 10
661.432559
 20
240.312054
 30
0.0
 11
663.214559
 21
240.483454
 31
0.0
  0
LINE
  5
30C
100
AcDbEntity
  8
002
 62
     3
100
AcDbLine
 10
661.797559
 20
239.648754
 30
0.0
 11
648.397559
 21
238.793454
 31
0.0
  0
LINE
  5
30D
100
AcDbEntity
  8
002
 62
     3
100
AcDbLine
 10
638.498559
 20
231.145754
 30
0.0
 11
595.202559
 21
231.145754
 31
0.0
  0
ARC
  5
30E
100
AcDbEntity
  8
002
 62
     3
100
AcDbCircle
 10
595.202559
 20
234.145754
 30
0.0
 40
3.0
100
AcDbArc
 50
180.0
 51
270.0
  0
LINE
  5
30F
100
AcDbEntity
  8
002
 62
     3
100
AcDbLine
 10
593.834559
 20
231.475654
 30
0.0
 11
601.964559
 21
227.310954
 31
0.0
  0
LINE
  5
310
100
AcDbEntity
  8
002
 62
     3
100
AcDbLine
 10
606.169559
 20
226.703654
 30
0.0
 11
627.863559
 21
230.798654
 31
0.0
  0
ARC
  5
311
100
AcDbEntity
  8
002
 62
     3
100
AcDbCircle
 10
631.573559
 20
211.145754
 30
0.0
 40
20.0
100
AcDbArc
 50
90.0
 51
100.690277
  0
LINE
  5
312
100
AcDbEntity
  8
002
 62
     3
100
AcDbLine
 10
639.054559
 20
229.450754
 30
0.0
 11
638.199559
 21
216.050154
 31
0.0
  0
LINE
  5
313
100
AcDbEntity
  8
002
 62
     3
100
AcDbLine
 10
638.199559
 20
216.241254
 30
0.0
 11
639.794559
 21
191.252754
 31
0.0
  0
ARC
  5
314
100
AcDbEntity
  8
002
 62
     3
100
AcDbCircle
 10
636.800559
 20
191.061654
 30
0.0
 40
3.0
100
AcDbArc
 50
270.0
 51
3.652101
  0
LINE
  5
315
100
AcDbEntity
  8
002
 62
     3
100
AcDbLine
 10
636.335559
 20
187.145754
 30
0.0
 11
639.702559
 21
187.145754
 31
0.0
  0
ARC
  5
316
100
AcDbEntity
  8
002
 62
     3
100
AcDbCircle
 10
639.702559
 20
183.145754
 30
0.0
 40
4.0
100
AcDbArc
 50
0.0
 51
90.0
  0
LINE
  5
317
100
AcDbEntity
  8
002
 62
     3
100
AcDbLine
 10
643.702559
 20
183.145754
 30
0.0
 11
643.702559
 21
176.145754
 31
0.0
  0
LINE
  5
318
100
AcDbEntity
  8
002
 62
     3
100
AcDbLine
 10
615.702559
 20
176.145754
 30
0.0
 11
615.702559
 21
183.145754
 31
0.0
  0
ARC
  5
319
100
AcDbEntity
  8
002
 62
     3
100
AcDbCircle
 10
619.702559
 20
183.145754
 30
0.0
 40
4.0
100
AcDbArc
 50
90.0
 51
180.0
  0
LINE
  5
31A
100
AcDbEntity
  8
002
 62
     3
100
AcDbLine
 10
619.702559
 20
187.145754
 30
0.0
 11
623.068559
 21
187.145754
 31
0.0
  0
LINE
  5
31B
100
AcDbEntity
  8
002
 62
     3
100
AcDbLine
 10
623.068559
 20
187.145754
 30
0.0
 11
623.068559
 21
186.145754
 31
0.0
  0
LINE
  5
31C
100
AcDbEntity
  8
002
 62
     3
100
AcDbLine
 10
623.068559
 20
186.145754
 30
0.0
 11
636.335559
 21
186.145754
 31
0.0
  0
LINE
  5
31D
100
AcDbEntity
  8
002
 62
     3
100
AcDbLine
 10
636.335559
 20
186.145754
 30
0.0
 11
636.335559
 21
187.145754
 31
0.0
  0
LINE
  5
31E
100
AcDbEntity
  8
002
 62
     3
100
AcDbLine
 10
633.934559
 20
189.145754
 30
0.0
 11
595.202559
 21
189.145754
 31
0.0
  0
ARC
  5
31F
100
AcDbEntity
  8
002
 62
     3
100
AcDbCircle
 10
595.202559
 20
186.145754
 30
0.0
 40
3.0
100
AcDbArc
 50
90.0
 51
180.0
  0
LINE
  5
320
100
AcDbEntity
  8
002
 62
     3
100
AcDbLine
 10
604.702559
 20
189.145754
 30
0.0
 11
615.702559
 21
187.145754
 31
0.0
  0
ARC
  5
321
100
AcDbEntity
  8
002
 62
     3
100
AcDbCircle
 10
629.702559
 20
125.361354
 30
0.0
 40
62.412894
100
AcDbArc
 50
81.86203
 51
98.138879
  0
LINE
  5
322
100
AcDbEntity
  8
002
 62
     3
100
AcDbLine
 10
643.702559
 20
187.145754
 30
0.0
 11
646.470559
 21
187.649154
 31
0.0
  0
LINE
  5
323
100
AcDbEntity
  8
002
 62
     3
100
AcDbLine
 10
648.934559
 20
190.600754
 30
0.0
 11
648.934559
 21
190.852754
 31
0.0
  0
ARC
  5
324
100
AcDbEntity
  8
002
 62
     3
100
AcDbCircle
 10
645.934559
 20
190.600754
 30
0.0
 40
2.999873
100
AcDbArc
 50
280.292547
 51
0.0
  0
LINE
  5
325
100
AcDbEntity
  8
002
 62
     3
100
AcDbLine
 10
654.702559
 20
187.145754
 30
0.0
 11
654.702559
 21
176.145754
 31
0.0
  0
LINE
  5
326
100
AcDbEntity
  8
002
 62
     3
100
AcDbLine
 10
659.827559
 20
198.774154
 30
0.0
 11
659.827559
 21
201.020754
 31
0.0
  0
CIRCLE
  5
327
100
AcDbEntity
  8
002
 62
     3
100
AcDbCircle
 10
657.327559
 20
201.020754
 30
0.0
 40
1.09375
  0
ARC
  5
328
100
AcDbEntity
  8
002
 62
     3
100
AcDbCircle
 10
657.327559
 20
201.020754
 30
0.0
 40
2.5
100
AcDbArc
 50
0.0
 51
134.847661
  0
LINE
  5
329
100
AcDbEntity
  8
002
 62
     3
100
AcDbLine
 10
663.577559
 20
201.020754
 30
0.0
 11
663.577559
 21
198.774154
 31
0.0
  0
ARC
  5
32A
100
AcDbEntity
  8
002
 62
     3
100
AcDbCircle
 10
666.077559
 20
201.020754
 30
0.0
 40
2.499914
100
AcDbArc
 50
45.152339
 51
180.0
  0
ARC
  5
32B
100
AcDbEntity
  8
002
 62
     3
100
AcDbCircle
 10
669.603559
 20
204.565554
 30
0.0
 40
2.499914
100
AcDbArc
 50
225.152339
 51
306.868523
  0
CIRCLE
  5
32C
100
AcDbEntity
  8
002
 62
     3
100
AcDbCircle
 10
666.077559
 20
201.020754
 30
0.0
 40
1.09375
  0
ARC
  5
32D
100
AcDbEntity
  8
002
 62
     3
100
AcDbCircle
 10
653.800559
 20
204.565554
 30
0.0
 40
2.49948
100
AcDbArc
 50
233.149816
 51
314.863906
  0
ARC
  5
32E
100
AcDbEntity
  8
002
 62
     3
100
AcDbCircle
 10
661.702559
 20
215.101354
 30
0.0
 40
15.66932
100
AcDbArc
 50
306.867192
 51
233.132808
  0
ARC
  5
32F
100
AcDbEntity
  8
002
 62
     3
100
AcDbCircle
 10
674.370559
 20
203.477754
 30
0.0
 40
10.000009
100
AcDbArc
 50
273.652211
 51
356.347534
  0
ARC
  5
330
100
AcDbEntity
  8
002
 62
     3
100
AcDbCircle
 10
687.688559
 20
195.645754
 30
0.0
 40
3.000024
100
AcDbArc
 50
89.770818
 51
155.649463
  0
LINE
  5
331
100
AcDbEntity
  8
002
 62
     3
100
AcDbLine
 10
687.700559
 20
198.645754
 30
0.0
 11
687.675559
 21
198.645754
 31
0.0
  0
ARC
  5
332
100
AcDbEntity
  8
002
 62
     3
100
AcDbCircle
 10
677.666559
 20
200.181054
 30
0.0
 40
8.000073
100
AcDbArc
 50
273.655051
 51
356.347899
  0
LINE
  5
333
100
AcDbEntity
  8
002
 62
     3
100
AcDbLine
 10
685.650559
 20
199.671454
 30
0.0
 11
686.702559
 21
216.145754
 31
0.0
  0
LINE
  5
334
100
AcDbEntity
  8
002
 62
     3
100
AcDbLine
 10
686.702559
 20
216.145754
 30
0.0
 11
685.650559
 21
232.620054
 31
0.0
  0
LINE
  5
335
100
AcDbEntity
  8
002
 62
     3
100
AcDbLine
 10
684.349559
 20
229.450754
 30
0.0
 11
685.205559
 21
216.050154
 31
0.0
  0
LINE
  5
336
100
AcDbEntity
  8
002
 62
     3
100
AcDbLine
 10
685.205559
 20
216.241254
 30
0.0
 11
684.349559
 21
202.840754
 31
0.0
  0
ARC
  5
337
100
AcDbEntity
  8
002
 62
     3
100
AcDbCircle
 10
664.002559
 20
220.845754
 30
0.0
 40
0.2
100
AcDbArc
 50
270.0
 51
0.0
  0
LINE
  5
338
100
AcDbEntity
  8
002
 62
     3
100
AcDbLine
 10
663.952559
 20
220.645754
 30
0.0
 11
659.452559
 21
220.645754
 31
0.0
  0
LINE
  5
339
100
AcDbEntity
  8
002
 62
     3
100
AcDbLine
 10
659.452559
 20
220.645754
 30
0.0
 11
659.202559
 21
220.895754
 31
0.0
  0
LINE
  5
33A
100
AcDbEntity
  8
002
 62
     3
100
AcDbLine
 10
659.202559
 20
220.895754
 30
0.0
 11
659.202559
 21
225.395754
 31
0.0
  0
LINE
  5
33B
100
AcDbEntity
  8
002
 62
     3
100
AcDbLine
 10
659.202559
 20
225.395754
 30
0.0
 11
659.452559
 21
225.645754
 31
0.0
  0
LINE
  5
33C
100
AcDbEntity
  8
002
 62
     3
100
AcDbLine
 10
659.452559
 20
225.645754
 30
0.0
 11
663.952559
 21
225.645754
 31
0.0
  0
LINE
  5
33D
100
AcDbEntity
  8
002
 62
     3
100
AcDbLine
 10
663.952559
 20
225.645754
 30
0.0
 11
664.202559
 21
225.395754
 31
0.0
  0
LINE
  5
33E
100
AcDbEntity
  8
002
 62
     3
100
AcDbLine
 10
664.202559
 20
225.395754
 30
0.0
 11
664.202559
 21
220.895754
 31
0.0
  0
LINE
  5
33F
100
AcDbEntity
  8
002
 62
     3
100
AcDbLine
 10
664.202559
 20
220.895754
 30
0.0
 11
663.952559
 21
220.645754
 31
0.0
  0
ARC
  5
340
100
AcDbEntity
  8
002
 62
     3
100
AcDbCircle
 10
661.702559
 20
216.145754
 30
0.0
 40
7.499936
100
AcDbArc
 50
109.471393
 51
70.528607
  0
ARC
  5
341
100
AcDbEntity
  8
002
 62
     3
100
AcDbCircle
 10
659.402559
 20
220.845754
 30
0.0
 40
0.2
100
AcDbArc
 50
180.0
 51
270.0
  0
ARC
  5
342
100
AcDbEntity
  8
002
 62
     3
100
AcDbCircle
 10
661.702559
 20
216.145754
 30
0.0
 40
8.499963
100
AcDbArc
 50
107.104711
 51
72.895289
  0
LINE
  5
343
100
AcDbEntity
  8
002
 62
     3
100
AcDbLine
 10
661.606559
 20
239.648754
 30
0.0
 11
675.007559
 21
238.793454
 31
0.0
  0
ARC
  5
344
100
AcDbEntity
  8
002
 62
     3
100
AcDbCircle
 10
674.370559
 20
228.813754
 30
0.0
 40
9.99931
100
AcDbArc
 50
3.652466
 51
86.347789
  0
ARC
  5
345
100
AcDbEntity
  8
002
 62
     3
100
AcDbCircle
 10
677.666559
 20
232.110454
 30
0.0
 40
8.000247
100
AcDbArc
 50
3.652101
 51
86.344903
  0
LINE
  5
346
100
AcDbEntity
  8
002
 62
     3
100
AcDbLine
 10
678.176559
 20
240.094154
 30
0.0
 11
668.768559
 21
240.593554
 31
0.0
  0
ARC
  5
347
100
AcDbEntity
  8
002
 62
     3
100
AcDbCircle
 10
668.927559
 20
243.589354
 30
0.0
 40
2.999657
100
AcDbArc
 50
194.959101
 51
266.961917
  0
ARC
  5
348
100
AcDbEntity
  8
002
 62
     3
100
AcDbCircle
 10
662.927559
 20
243.469654
 30
0.0
 40
2.99996
100
AcDbArc
 50
275.489765
 51
347.985819
  0
LINE
  5
349
100
AcDbEntity
  8
002
 62
     3
100
AcDbLine
 10
667.202559
 20
244.281954
 30
0.0
 11
667.202559
 21
256.145754
 31
0.0
  0
LINE
  5
34A
100
AcDbEntity
  8
002
 62
     3
100
AcDbLine
 10
667.202559
 20
256.145754
 30
0.0
 11
592.202559
 21
256.145754
 31
0.0
  0
LINE
  5
34B
100
AcDbEntity
  8
002
 62
     3
100
AcDbLine
 10
599.953559
 20
256.145754
 30
0.0
 11
599.953559
 21
262.145754
 31
0.0
  0
LINE
  5
34C
100
AcDbEntity
  8
002
 62
     3
100
AcDbLine
 10
609.953559
 20
262.145754
 30
0.0
 11
599.953559
 21
262.145754
 31
0.0
  0
LINE
  5
34D
100
AcDbEntity
  8
002
 62
     3
100
AcDbLine
 10
600.702559
 20
262.145754
 30
0.0
 11
600.702559
 21
313.145754
 31
0.0
  0
LINE
  5
34E
100
AcDbEntity
  8
002
 62
     3
100
AcDbLine
 10
600.702559
 20
313.145754
 30
0.0
 11
658.702559
 21
313.145754
 31
0.0
  0
LINE
  5
34F
100
AcDbEntity
  8
002
 62
     3
100
AcDbLine
 10
658.702559
 20
313.145754
 30
0.0
 11
658.702559
 21
262.145754
 31
0.0
  0
LINE
  5
350
100
AcDbEntity
  8
002
 62
     3
100
AcDbLine
 10
659.450559
 20
262.145754
 30
0.0
 11
649.450559
 21
262.145754
 31
0.0
  0
LINE
  5
351
100
AcDbEntity
  8
002
 62
     3
100
AcDbLine
 10
659.450559
 20
262.145754
 30
0.0
 11
659.450559
 21
256.145754
 31
0.0
  0
LINE
  5
352
100
AcDbEntity
  8
002
 62
     3
100
AcDbLine
 10
649.450559
 20
256.145754
 30
0.0
 11
649.450559
 21
262.145754
 31
0.0
  0
LINE
  5
353
100
AcDbEntity
  8
002
 62
     3
100
AcDbLine
 10
673.202559
 20
257.145754
 30
0.0
 11
678.202559
 21
257.145754
 31
0.0
  0
LINE
  5
354
100
AcDbEntity
  8
002
 62
     3
100
AcDbLine
 10
678.202559
 20
257.145754
 30
0.0
 11
678.952559
 21
254.145754
 31
0.0
  0
LINE
  5
355
100
AcDbEntity
  8
002
 62
     3
100
AcDbLine
 10
678.952559
 20
254.145754
 30
0.0
 11
678.421559
 21
253.296354
 31
0.0
  0
LINE
  5
356
100
AcDbEntity
  8
002
 62
     3
100
AcDbLine
 10
677.999559
 20
252.621754
 30
0.0
 11
673.404559
 21
252.621754
 31
0.0
  0
LINE
  5
357
100
AcDbEntity
  8
002
 62
     3
100
AcDbLine
 10
672.983559
 20
253.296354
 30
0.0
 11
672.452559
 21
254.145754
 31
0.0
  0
LINE
  5
358
100
AcDbEntity
  8
002
 62
     3
100
AcDbLine
 10
672.452559
 20
254.145754
 30
0.0
 11
673.202559
 21
257.145754
 31
0.0
  0
ARC
  5
359
100
AcDbEntity
  8
002
 62
     3
100
AcDbCircle
 10
675.702559
 20
256.484254
 30
0.0
 40
1.000041
100
AcDbArc
 50
41.412294
 51
138.587706
  0
LINE
  5
35A
100
AcDbEntity
  8
002
 62
     3
100
AcDbLine
 10
678.202559
 20
254.145754
 30
0.0
 11
673.202559
 21
254.145754
 31
0.0
  0
ARC
  5
35B
100
AcDbEntity
  8
002
 62
     3
100
AcDbCircle
 10
672.135559
 20
252.766354
 30
0.0
 40
0.99992
100
AcDbArc
 50
314.995948
 51
32.005383
  0
LINE
  5
35C
100
AcDbEntity
  8
002
 62
     3
100
AcDbLine
 10
672.842559
 20
252.059254
 30
0.0
 11
670.702559
 21
249.145754
 31
0.0
  0
ARC
  5
35D
100
AcDbEntity
  8
002
 62
     3
100
AcDbCircle
 10
673.202559
 20
246.520754
 30
0.0
 40
3.625
100
AcDbArc
 50
46.397181
 51
133.602819
  0
LINE
  5
35E
100
AcDbEntity
  8
002
 62
     3
100
AcDbLine
 10
675.702559
 20
249.145754
 30
0.0
 11
675.702559
 21
246.145754
 31
0.0
  0
ARC
  5
35F
100
AcDbEntity
  8
002
 62
     3
100
AcDbCircle
 10
673.202559
 20
248.770754
 30
0.0
 40
3.625
100
AcDbArc
 50
226.397181
 51
313.602819
  0
LINE
  5
360
100
AcDbEntity
  8
002
 62
     3
100
AcDbLine
 10
670.702559
 20
246.145754
 30
0.0
 11
671.702559
 21
245.145754
 31
0.0
  0
LINE
  5
361
100
AcDbEntity
  8
002
 62
     3
100
AcDbLine
 10
671.702559
 20
245.145754
 30
0.0
 11
679.702559
 21
245.145754
 31
0.0
  0
LINE
  5
362
100
AcDbEntity
  8
002
 62
     3
100
AcDbLine
 10
679.702559
 20
245.145754
 30
0.0
 11
680.702559
 21
246.145754
 31
0.0
  0
LINE
  5
363
100
AcDbEntity
  8
002
 62
     3
100
AcDbLine
 10
680.702559
 20
246.145754
 30
0.0
 11
680.702559
 21
249.145754
 31
0.0
  0
LINE
  5
364
100
AcDbEntity
  8
002
 62
     3
100
AcDbLine
 10
680.702559
 20
249.145754
 30
0.0
 11
678.562559
 21
252.059254
 31
0.0
  0
ARC
  5
365
100
AcDbEntity
  8
002
 62
     3
100
AcDbCircle
 10
679.269559
 20
252.766354
 30
0.0
 40
1.000002
100
AcDbArc
 50
147.994617
 51
225.004052
  0
ARC
  5
366
100
AcDbEntity
  8
002
 62
     3
100
AcDbCircle
 10
678.202559
 20
246.520754
 30
0.0
 40
3.625
100
AcDbArc
 50
46.397181
 51
133.602819
  0
ARC
  5
367
100
AcDbEntity
  8
002
 62
     3
100
AcDbCircle
 10
678.202559
 20
248.770754
 30
0.0
 40
3.625
100
AcDbArc
 50
226.397181
 51
313.602819
  0
LINE
  5
368
100
AcDbEntity
  8
002
 62
     3
100
AcDbLine
 10
671.840559
 20
245.145754
 30
0.0
 11
671.840559
 21
244.145754
 31
0.0
  0
LINE
  5
369
100
AcDbEntity
  8
002
 62
     3
100
AcDbLine
 10
670.702559
 20
246.145754
 30
0.0
 11
670.702559
 21
249.145754
 31
0.0
  0
LINE
  5
36A
100
AcDbEntity
  8
002
 62
     3
100
AcDbLine
 10
679.563559
 20
245.145754
 30
0.0
 11
679.563559
 21
244.145754
 31
0.0
  0
ARC
  5
36B
100
AcDbEntity
  8
002
 62
     3
100
AcDbCircle
 10
649.034559
 20
228.813754
 30
0.0
 40
10.000009
100
AcDbArc
 50
93.652211
 51
176.347899
  0
CIRCLE
  5
36C
100
AcDbEntity
  8
002
 62
     3
100
AcDbCircle
 10
661.702559
 20
216.145754
 30
0.0
 40
17.5
  0
ARC
  5
36D
100
AcDbEntity
  8
002
 62
     3
100
AcDbCircle
 10
633.934559
 20
194.145754
 30
0.0
 40
5.0
100
AcDbArc
 50
270.0
 51
3.652101
  0
LINE
  5
36E
100
AcDbEntity
  8
002
 62
     3
100
AcDbLine
 10
604.702559
 20
187.145754
 30
0.0
 11
604.702559
 21
176.145754
 31
0.0
  0
ARC
  5
36F
100
AcDbEntity
  8
002
 62
     3
100
AcDbCircle
 10
604.953559
 20
233.145754
 30
0.0
 40
6.555838
100
AcDbArc
 50
242.875244
 51
280.689287
  0
LINE
  5
370
100
AcDbEntity
  8
002
 62
     3
100
AcDbLine
 10
609.953559
 20
256.145754
 30
0.0
 11
609.953559
 21
262.145754
 31
0.0
  0
LINE
  5
371
100
AcDbEntity
  8
002
 62
     3
100
AcDbLine
 10
626.815559
 20
288.645754
 30
0.0
 11
623.928559
 21
293.645754
 31
0.0
  0
LINE
  5
372
100
AcDbEntity
  8
002
 62
     3
100
AcDbLine
 10
623.928559
 20
293.645754
 30
0.0
 11
626.815559
 21
298.645754
 31
0.0
  0
LINE
  5
373
100
AcDbEntity
  8
002
 62
     3
100
AcDbLine
 10
626.815559
 20
298.645754
 30
0.0
 11
632.588559
 21
298.645754
 31
0.0
  0
LINE
  5
374
100
AcDbEntity
  8
002
 62
     3
100
AcDbLine
 10
632.588559
 20
298.645754
 30
0.0
 11
635.475559
 21
293.645754
 31
0.0
  0
LINE
  5
375
100
AcDbEntity
  8
002
 62
     3
100
AcDbLine
 10
635.475559
 20
293.645754
 30
0.0
 11
632.588559
 21
288.645754
 31
0.0
  0
LINE
  5
376
100
AcDbEntity
  8
002
 62
     3
100
AcDbLine
 10
632.588559
 20
288.645754
 30
0.0
 11
626.815559
 21
288.645754
 31
0.0
  0
CIRCLE
  5
377
100
AcDbEntity
  8
002
 62
     3
100
AcDbCircle
 10
629.702559
 20
293.645754
 30
0.0
 40
3.25
  0
CIRCLE
  5
378
100
AcDbEntity
  8
002
 62
     3
100
AcDbCircle
 10
629.702559
 20
293.645754
 30
0.0
 40
2.5
  0
CIRCLE
  5
379
100
AcDbEntity
  8
002
 62
     3
100
AcDbCircle
 10
629.702559
 20
293.645754
 30
0.0
 40
0.75
  0
CIRCLE
  5
37A
100
AcDbEntity
  8
002
 62
     3
100
AcDbCircle
 10
629.702559
 20
293.645754
 30
0.0
 40
5.0
  0
LINE
  5
37B
100
AcDbEntity
  8
002
 62
     3
100
AcDbLine
 10
625.452559
 20
317.145754
 30
0.0
 11
625.452559
 21
322.145754
 31
0.0
  0
LINE
  5
37C
100
AcDbEntity
  8
002
 62
     3
100
AcDbLine
 10
633.952559
 20
322.145754
 30
0.0
 11
633.952559
 21
317.145754
 31
0.0
  0
LINE
  5
37D
100
AcDbEntity
  8
002
 62
     3
100
AcDbLine
 10
633.952559
 20
322.145754
 30
0.0
 11
625.452559
 21
322.145754
 31
0.0
  0
LINE
  5
37E
100
AcDbEntity
  8
002
 62
     3
100
AcDbLine
 10
609.17832
 20
322.145754
 30
0.0
 11
602.952559
 21
322.145754
 31
0.0
  0
LINE
  5
37F
100
AcDbEntity
  8
002
 62
     3
100
AcDbLine
 10
602.952559
 20
322.145754
 30
0.0
 11
602.952559
 21
317.145754
 31
0.0
  0
LINE
  5
380
100
AcDbEntity
  8
002
 62
     3
100
AcDbLine
 10
602.202559
 20
317.145754
 30
0.0
 11
602.202559
 21
313.145754
 31
0.0
  0
LINE
  5
381
100
AcDbEntity
  8
002
 62
     3
100
AcDbLine
 10
602.202559
 20
317.145754
 30
0.0
 11
657.202559
 21
317.145754
 31
0.0
  0
LINE
  5
382
100
AcDbEntity
  8
002
 62
     3
100
AcDbLine
 10
657.202559
 20
317.145754
 30
0.0
 11
657.202559
 21
313.145754
 31
0.0
  0
LINE
  5
383
100
AcDbEntity
  8
002
 62
     3
100
AcDbLine
 10
656.452559
 20
317.145754
 30
0.0
 11
656.452559
 21
322.145754
 31
0.0
  0
LINE
  5
384
100
AcDbEntity
  8
002
 62
     3
100
AcDbLine
 10
650.225559
 20
322.145754
 30
0.0
 11
656.452559
 21
322.145754
 31
0.0
  0
ARC
  5
385
100
AcDbEntity
  8
002
 62
     3
100
AcDbCircle
 10
653.255559
 20
320.145754
 30
0.0
 40
3.000318
100
AcDbArc
 50
180.834549
 51
270.0
  0
LINE
  5
386
100
AcDbEntity
  8
002
 62
     3
100
AcDbLine
 10
650.255559
 20
320.102054
 30
0.0
 11
649.702559
 21
358.145754
 31
0.0
  0
LINE
  5
387
100
AcDbEntity
  8
002
 62
     3
100
AcDbLine
 10
649.702559
 20
358.145754
 30
0.0
 11
609.702559
 21
358.145754
 31
0.0
  0
LINE
  5
388
100
AcDbEntity
  8
002
 62
     3
100
AcDbLine
 10
609.702559
 20
358.145754
 30
0.0
 11
609.148559
 21
320.102054
 31
0.0
  0
ARC
  5
389
100
AcDbEntity
  8
002
 62
     3
100
AcDbCircle
 10
606.149559
 20
320.145754
 30
0.0
 40
3.0
100
AcDbArc
 50
270.0
 51
359.165172
  0
LINE
  5
38A
100
AcDbEntity
  8
002
  6
DASHED
 62
     9
100
AcDbLine
 10
641.702559
 20
186.145754
 30
0.0
 11
641.702559
 21
186.609854
 31
0.0
  0
LINE
  5
38B
100
AcDbEntity
  8
002
  6
DASHED
 62
     9
100
AcDbLine
 10
617.702559
 20
186.145754
 30
0.0
 11
617.702559
 21
186.609854
 31
0.0
  0
LINE
  5
38C
100
AcDbEntity
  8
002
  6
CENTER
 62
     9
100
AcDbLine
 10
584.586559
 20
216.145754
 30
0.0
 11
696.634559
 21
216.145754
 31
0.0
  0
LINE
  5
38D
100
AcDbEntity
  8
002
  6
CENTER
 62
     9
100
AcDbLine
 10
604.953559
 20
266.645754
 30
0.0
 11
604.953559
 21
240.312054
 31
0.0
  0
LINE
  5
38E
100
AcDbEntity
  8
002
  6
CENTER
 62
     9
100
AcDbLine
 10
654.450559
 20
240.312054
 30
0.0
 11
654.450559
 21
266.645754
 31
0.0
  0
LINE
  5
38F
100
AcDbEntity
  8
002
  6
CENTER
 62
     9
100
AcDbLine
 10
638.102559
 20
293.645754
 30
0.0
 11
620.929559
 21
293.645754
 31
0.0
  0
LINE
  5
390
100
AcDbEntity
  8
002
  6
CENTER
 62
     9
100
AcDbLine
 10
652.202559
 20
323.645754
 30
0.0
 11
652.202559
 21
311.145754
 31
0.0
  0
LINE
  5
391
100
AcDbEntity
  8
002
  6
CENTER
 62
     9
100
AcDbLine
 10
607.202559
 20
311.145754
 30
0.0
 11
607.202559
 21
323.645754
 31
0.0
  0
LINE
  5
392
100
AcDbEntity
  8
002
  6
CENTER
 62
     9
100
AcDbLine
 10
675.702559
 20
241.404054
 30
0.0
 11
675.702559
 21
259.749754
 31
0.0
  0
LINE
  5
393
100
AcDbEntity
  8
002
  6
HIDDEN
 62
     9
100
AcDbLine
 10
623.068559
 20
186.145754
 30
0.0
 11
617.702559
 21
186.145754
 31
0.0
  0
LINE
  5
394
100
AcDbEntity
  8
002
  6
HIDDEN
 62
     9
100
AcDbLine
 10
624.202559
 20
176.145754
 30
0.0
 11
624.202559
 21
186.145754
 31
0.0
  0
LINE
  5
395
100
AcDbEntity
  8
002
  6
HIDDEN
 62
     9
100
AcDbLine
 10
635.202559
 20
186.145754
 30
0.0
 11
635.202559
 21
176.145754
 31
0.0
  0
LINE
  5
396
100
AcDbEntity
  8
002
  6
HIDDEN
 62
     9
100
AcDbLine
 10
636.335559
 20
186.145754
 30
0.0
 11
641.702559
 21
186.145754
 31
0.0
  0
LINE
  5
397
100
AcDbEntity
  8
002
 62
     3
100
AcDbLine
 10
639.702559
 20
176.145754
 30
0.0
 11
639.702559
 21
95.845754
 31
0.0
  0
LINE
  5
398
100
AcDbEntity
  8
002
 62
     3
100
AcDbLine
 10
619.702559
 20
95.845754
 30
0.0
 11
619.702559
 21
176.145754
 31
0.0
  0
LINE
  5
399
100
AcDbEntity
  8
002
 62
     9
100
AcDbLine
 10
620.932559
 20
95.845754
 30
0.0
 11
620.932559
 21
176.145754
 31
0.0
  0
LINE
  5
39A
100
AcDbEntity
  8
002
 62
     9
100
AcDbLine
 10
638.472559
 20
176.145754
 30
0.0
 11
638.472559
 21
95.845754
 31
0.0
  0
LINE
  5
39B
100
AcDbEntity
  8
002
  6
CENTER
 62
     9
100
AcDbLine
 10
661.702559
 20
265.706254
 30
0.0
 11
661.702559
 21
169.102554
 31
0.0
  0
LINE
  5
39C
100
AcDbEntity
  8
002
 62
     3
100
AcDbLine
 10
611.702559
 20
404.86133
 30
0.0
 11
647.702559
 21
404.86133
 31
0.0
  0
LINE
  5
39D
100
AcDbEntity
  8
002
 62
     3
100
AcDbLine
 10
644.702559
 20
424.86133
 30
0.0
 11
614.702559
 21
424.86133
 31
0.0
  0
LINE
  5
39E
100
AcDbEntity
  8
002
 62
     3
100
AcDbLine
 10
611.702559
 20
421.86133
 30
0.0
 11
611.702559
 21
404.86133
 31
0.0
  0
ARC
  5
39F
100
AcDbEntity
  8
002
 62
     3
100
AcDbCircle
 10
614.702559
 20
421.86133
 30
0.0
 40
3.0
100
AcDbArc
 50
90.0
 51
180.0
  0
LINE
  5
3A0
100
AcDbEntity
  8
002
 62
     3
100
AcDbLine
 10
647.702559
 20
404.86133
 30
0.0
 11
647.702559
 21
421.86133
 31
0.0
  0
ARC
  5
3A1
100
AcDbEntity
  8
002
 62
     3
100
AcDbCircle
 10
644.702559
 20
421.86133
 30
0.0
 40
3.0
100
AcDbArc
 50
0.0
 51
90.0
  0
LINE
  5
3A2
100
AcDbEntity
  8
002
 62
     3
100
AcDbLine
 10
613.702559
 20
358.145754
 30
0.0
 11
613.702559
 21
404.86133
 31
0.0
  0
LINE
  5
3A3
100
AcDbEntity
  8
002
 62
     3
100
AcDbLine
 10
645.702559
 20
404.86133
 30
0.0
 11
645.702559
 21
358.145754
 31
0.0
  0
LINE
  5
3A4
100
AcDbEntity
  8
002
  6
CENTER
 62
     9
100
AcDbLine
 10
629.702559
 20
69.921428
 30
0.0
 11
629.702559
 21
432.574501
 31
0.0
  0
LINE
  5
3A5
100
AcDbEntity
  8
002
  6
CENTER
 62
     9
100
AcDbLine
 10
499.109384
 20
434.045034
 30
0.0
 11
499.109384
 21
50.744592
 31
0.0
  0
LINE
  5
3A6
100
AcDbEntity
  8
002
 62
     3
100
AcDbLine
 10
71.912153
 20
131.145754
 30
0.0
 11
71.912153
 21
76.145754
 31
0.0
  0
LINE
  5
3A7
100
AcDbEntity
  8
002
 62
     3
100
AcDbLine
 10
103.912153
 20
76.145754
 30
0.0
 11
103.912153
 21
131.145754
 31
0.0
  0
LINE
  5
3A8
100
AcDbEntity
  8
002
 62
     3
100
AcDbLine
 10
483.109384
 20
131.145754
 30
0.0
 11
483.109384
 21
76.145754
 31
0.0
  0
LINE
  5
3A9
100
AcDbEntity
  8
002
 62
     3
100
AcDbLine
 10
515.109384
 20
76.145754
 30
0.0
 11
515.109384
 21
131.145754
 31
0.0
  0
LINE
  5
3AA
100
AcDbEntity
  8
002
  6
CENTER
 62
     9
100
AcDbLine
 10
87.912153
 20
434.045034
 30
0.0
 11
87.912153
 21
51.620323
 31
0.0
  0
LINE
  5
3AB
100
AcDbEntity
  8
002
 62
     3
100
AcDbLine
 10
280.721612
 20
571.343342
 30
0.0
 11
280.721612
 21
547.031379
 31
0.0
  0
LINE
  5
3AC
100
AcDbEntity
  8
002
 62
     9
100
AcDbLine
 10
281.951612
 20
547.031379
 30
0.0
 11
281.951612
 21
571.343342
 31
0.0
  0
LINE
  5
3AD
100
AcDbEntity
  8
002
 62
     3
100
AcDbLine
 10
300.721612
 20
571.343342
 30
0.0
 11
300.721612
 21
547.031379
 31
0.0
  0
LINE
  5
3AE
100
AcDbEntity
  8
002
 62
     9
100
AcDbLine
 10
299.491612
 20
571.343342
 30
0.0
 11
299.491612
 21
547.031379
 31
0.0
  0
LINE
  5
3AF
100
AcDbEntity
  8
002
 62
     3
100
AcDbLine
 10
449.123743
 20
574.03741
 30
0.0
 11
449.123743
 21
549.725446
 31
0.0
  0
LINE
  5
3B0
100
AcDbEntity
  8
002
 62
     9
100
AcDbLine
 10
450.353743
 20
549.725446
 30
0.0
 11
450.353743
 21
574.03741
 31
0.0
  0
LINE
  5
3B1
100
AcDbEntity
  8
002
 62
     3
100
AcDbLine
 10
469.123743
 20
574.03741
 30
0.0
 11
469.123743
 21
549.725446
 31
0.0
  0
LINE
  5
3B2
100
AcDbEntity
  8
002
 62
     9
100
AcDbLine
 10
467.893743
 20
574.03741
 30
0.0
 11
467.893743
 21
549.725446
 31
0.0
  0
LINE
  5
3B3
100
AcDbEntity
  8
002
 62
     3
100
AcDbLine
 10
839.748559
 20
198.645754
 30
0.0
 11
839.748559
 21
233.645754
 31
0.0
  0
ARC
  5
3B4
100
AcDbEntity
  8
002
 62
     3
100
AcDbCircle
 10
840.750559
 20
236.473754
 30
0.0
 40
3.0
100
AcDbArc
 50
180.0
 51
250.490051
  0
LINE
  5
3B5
100
AcDbEntity
  8
002
 62
     3
100
AcDbLine
 10
837.750559
 20
236.473754
 30
0.0
 11
837.750559
 21
244.145754
 31
0.0
  0
LINE
  5
3B6
100
AcDbEntity
  8
002
 62
     3
100
AcDbLine
 10
837.750559
 20
244.145754
 30
0.0
 11
819.975559
 21
244.145754
 31
0.0
  0
ARC
  5
3B7
100
AcDbEntity
  8
002
 62
     3
100
AcDbCircle
 10
819.975559
 20
246.145754
 30
0.0
 40
2.0
100
AcDbArc
 50
180.0
 51
270.0
  0
LINE
  5
3B8
100
AcDbEntity
  8
002
 62
     3
100
AcDbLine
 10
819.250559
 20
246.145754
 30
0.0
 11
744.250559
 21
246.145754
 31
0.0
  0
LINE
  5
3B9
100
AcDbEntity
  8
002
 62
     3
100
AcDbLine
 10
744.250559
 20
256.145754
 30
0.0
 11
744.250559
 21
234.145754
 31
0.0
  0
ARC
  5
3BA
100
AcDbEntity
  8
002
 62
     3
100
AcDbCircle
 10
742.750559
 20
230.177054
 30
0.0
 40
3.0
100
AcDbArc
 50
0.0
 51
41.410861
  0
LINE
  5
3BB
100
AcDbEntity
  8
002
 62
     3
100
AcDbLine
 10
745.750559
 20
230.177054
 30
0.0
 11
745.750559
 21
190.114354
 31
0.0
  0
ARC
  5
3BC
100
AcDbEntity
  8
002
 62
     3
100
AcDbCircle
 10
742.750559
 20
190.114354
 30
0.0
 40
2.999991
100
AcDbArc
 50
318.590571
 51
0.0
  0
LINE
  5
3BD
100
AcDbEntity
  8
002
 62
     3
100
AcDbLine
 10
744.250559
 20
186.145754
 30
0.0
 11
744.250559
 21
176.145754
 31
0.0
  0
LINE
  5
3BE
100
AcDbEntity
  8
002
 62
     3
100
AcDbLine
 10
744.250559
 20
176.145754
 30
0.0
 11
819.250559
 21
176.145754
 31
0.0
  0
LINE
  5
3BF
100
AcDbEntity
  8
002
 62
     3
100
AcDbLine
 10
819.250559
 20
176.145754
 30
0.0
 11
819.250559
 21
186.805754
 31
0.0
  0
ARC
  5
3C0
100
AcDbEntity
  8
002
 62
     3
100
AcDbCircle
 10
824.250559
 20
186.805754
 30
0.0
 40
5.000086
100
AcDbArc
 50
93.657892
 51
180.0
  0
LINE
  5
3C1
100
AcDbEntity
  8
002
 62
     3
100
AcDbLine
 10
823.931559
 20
191.795654
 30
0.0
 11
830.224559
 21
192.197254
 31
0.0
  0
LINE
  5
3C2
100
AcDbEntity
  8
002
 62
     3
100
AcDbLine
 10
827.055559
 20
193.498054
 30
0.0
 11
813.654559
 21
192.642654
 31
0.0
  0
LINE
  5
3C3
100
AcDbEntity
  8
002
 62
     3
100
AcDbLine
 10
813.845559
 20
192.642654
 30
0.0
 11
800.445559
 21
193.498054
 31
0.0
  0
ARC
  5
3C4
100
AcDbEntity
  8
002
 62
     3
100
AcDbCircle
 10
801.082559
 20
203.477754
 30
0.0
 40
10.000308
100
AcDbArc
 50
183.652101
 51
266.347789
  0
LINE
  5
3C5
100
AcDbEntity
  8
002
 62
     3
100
AcDbLine
 10
790.972559
 20
194.464254
 30
0.0
 11
789.585559
 21
216.199054
 31
0.0
  0
LINE
  5
3C6
100
AcDbEntity
  8
002
 62
     3
100
AcDbLine
 10
789.585559
 20
216.092454
 30
0.0
 11
790.589559
 21
231.831954
 31
0.0
  0
ARC
  5
3C7
100
AcDbEntity
  8
002
 62
     3
100
AcDbCircle
 10
798.573559
 20
231.322254
 30
0.0
 40
8.000009
100
AcDbArc
 50
93.647904
 51
176.347184
  0
LINE
  5
3C8
100
AcDbEntity
  8
002
 62
     3
100
AcDbLine
 10
798.064559
 20
239.306054
 30
0.0
 11
813.480559
 21
240.312054
 31
0.0
  0
LINE
  5
3C9
100
AcDbEntity
  8
002
 62
     3
100
AcDbLine
 10
813.480559
 20
240.312054
 30
0.0
 11
815.262559
 21
240.483454
 31
0.0
  0
LINE
  5
3CA
100
AcDbEntity
  8
002
 62
     3
100
AcDbLine
 10
813.845559
 20
239.648754
 30
0.0
 11
800.445559
 21
238.793454
 31
0.0
  0
LINE
  5
3CB
100
AcDbEntity
  8
002
 62
     3
100
AcDbLine
 10
790.546559
 20
231.145754
 30
0.0
 11
747.250559
 21
231.145754
 31
0.0
  0
ARC
  5
3CC
100
AcDbEntity
  8
002
 62
     3
100
AcDbCircle
 10
747.250559
 20
234.145754
 30
0.0
 40
3.0
100
AcDbArc
 50
180.0
 51
270.0
  0
LINE
  5
3CD
100
AcDbEntity
  8
002
 62
     3
100
AcDbLine
 10
745.882559
 20
231.475654
 30
0.0
 11
754.012559
 21
227.310954
 31
0.0
  0
LINE
  5
3CE
100
AcDbEntity
  8
002
 62
     3
100
AcDbLine
 10
758.217559
 20
226.703654
 30
0.0
 11
779.911559
 21
230.798654
 31
0.0
  0
ARC
  5
3CF
100
AcDbEntity
  8
002
 62
     3
100
AcDbCircle
 10
783.621559
 20
211.145754
 30
0.0
 40
20.0
100
AcDbArc
 50
90.0
 51
100.690277
  0
LINE
  5
3D0
100
AcDbEntity
  8
002
 62
     3
100
AcDbLine
 10
791.102559
 20
229.450754
 30
0.0
 11
790.247559
 21
216.050154
 31
0.0
  0
LINE
  5
3D1
100
AcDbEntity
  8
002
 62
     3
100
AcDbLine
 10
790.247559
 20
216.241254
 30
0.0
 11
791.842559
 21
191.252754
 31
0.0
  0
ARC
  5
3D2
100
AcDbEntity
  8
002
 62
     3
100
AcDbCircle
 10
788.848559
 20
191.061654
 30
0.0
 40
3.0
100
AcDbArc
 50
270.0
 51
3.652101
  0
LINE
  5
3D3
100
AcDbEntity
  8
002
 62
     3
100
AcDbLine
 10
788.383559
 20
187.145754
 30
0.0
 11
791.750559
 21
187.145754
 31
0.0
  0
ARC
  5
3D4
100
AcDbEntity
  8
002
 62
     3
100
AcDbCircle
 10
791.750559
 20
183.145754
 30
0.0
 40
4.0
100
AcDbArc
 50
0.0
 51
90.0
  0
LINE
  5
3D5
100
AcDbEntity
  8
002
 62
     3
100
AcDbLine
 10
795.750559
 20
183.145754
 30
0.0
 11
795.750559
 21
176.145754
 31
0.0
  0
LINE
  5
3D6
100
AcDbEntity
  8
002
 62
     3
100
AcDbLine
 10
767.750559
 20
176.145754
 30
0.0
 11
767.750559
 21
183.145754
 31
0.0
  0
ARC
  5
3D7
100
AcDbEntity
  8
002
 62
     3
100
AcDbCircle
 10
771.750559
 20
183.145754
 30
0.0
 40
4.0
100
AcDbArc
 50
90.0
 51
180.0
  0
LINE
  5
3D8
100
AcDbEntity
  8
002
 62
     3
100
AcDbLine
 10
771.750559
 20
187.145754
 30
0.0
 11
775.116559
 21
187.145754
 31
0.0
  0
LINE
  5
3D9
100
AcDbEntity
  8
002
 62
     3
100
AcDbLine
 10
775.116559
 20
187.145754
 30
0.0
 11
775.116559
 21
186.145754
 31
0.0
  0
LINE
  5
3DA
100
AcDbEntity
  8
002
 62
     3
100
AcDbLine
 10
775.116559
 20
186.145754
 30
0.0
 11
788.383559
 21
186.145754
 31
0.0
  0
LINE
  5
3DB
100
AcDbEntity
  8
002
 62
     3
100
AcDbLine
 10
788.383559
 20
186.145754
 30
0.0
 11
788.383559
 21
187.145754
 31
0.0
  0
LINE
  5
3DC
100
AcDbEntity
  8
002
 62
     3
100
AcDbLine
 10
785.982559
 20
189.145754
 30
0.0
 11
747.250559
 21
189.145754
 31
0.0
  0
ARC
  5
3DD
100
AcDbEntity
  8
002
 62
     3
100
AcDbCircle
 10
747.250559
 20
186.145754
 30
0.0
 40
3.0
100
AcDbArc
 50
90.0
 51
180.0
  0
LINE
  5
3DE
100
AcDbEntity
  8
002
 62
     3
100
AcDbLine
 10
756.750559
 20
189.145754
 30
0.0
 11
767.750559
 21
187.145754
 31
0.0
  0
ARC
  5
3DF
100
AcDbEntity
  8
002
 62
     3
100
AcDbCircle
 10
781.750559
 20
125.361354
 30
0.0
 40
62.412894
100
AcDbArc
 50
81.86203
 51
98.138879
  0
LINE
  5
3E0
100
AcDbEntity
  8
002
 62
     3
100
AcDbLine
 10
795.750559
 20
187.145754
 30
0.0
 11
798.518559
 21
187.649154
 31
0.0
  0
LINE
  5
3E1
100
AcDbEntity
  8
002
 62
     3
100
AcDbLine
 10
800.982559
 20
190.600754
 30
0.0
 11
800.982559
 21
190.852754
 31
0.0
  0
ARC
  5
3E2
100
AcDbEntity
  8
002
 62
     3
100
AcDbCircle
 10
797.982559
 20
190.600754
 30
0.0
 40
2.999873
100
AcDbArc
 50
280.292547
 51
0.0
  0
LINE
  5
3E3
100
AcDbEntity
  8
002
 62
     3
100
AcDbLine
 10
806.750559
 20
187.145754
 30
0.0
 11
806.750559
 21
176.145754
 31
0.0
  0
LINE
  5
3E4
100
AcDbEntity
  8
002
 62
     3
100
AcDbLine
 10
811.875559
 20
198.774154
 30
0.0
 11
811.875559
 21
201.020754
 31
0.0
  0
CIRCLE
  5
3E5
100
AcDbEntity
  8
002
 62
     3
100
AcDbCircle
 10
809.375559
 20
201.020754
 30
0.0
 40
1.09375
  0
ARC
  5
3E6
100
AcDbEntity
  8
002
 62
     3
100
AcDbCircle
 10
809.375559
 20
201.020754
 30
0.0
 40
2.5
100
AcDbArc
 50
0.0
 51
134.847661
  0
LINE
  5
3E7
100
AcDbEntity
  8
002
 62
     3
100
AcDbLine
 10
815.625559
 20
201.020754
 30
0.0
 11
815.625559
 21
198.774154
 31
0.0
  0
ARC
  5
3E8
100
AcDbEntity
  8
002
 62
     3
100
AcDbCircle
 10
818.125559
 20
201.020754
 30
0.0
 40
2.499914
100
AcDbArc
 50
45.152339
 51
180.0
  0
ARC
  5
3E9
100
AcDbEntity
  8
002
 62
     3
100
AcDbCircle
 10
821.651559
 20
204.565554
 30
0.0
 40
2.499914
100
AcDbArc
 50
225.152339
 51
306.868523
  0
CIRCLE
  5
3EA
100
AcDbEntity
  8
002
 62
     3
100
AcDbCircle
 10
818.125559
 20
201.020754
 30
0.0
 40
1.09375
  0
ARC
  5
3EB
100
AcDbEntity
  8
002
 62
     3
100
AcDbCircle
 10
805.848559
 20
204.565554
 30
0.0
 40
2.49948
100
AcDbArc
 50
233.149816
 51
314.863906
  0
ARC
  5
3EC
100
AcDbEntity
  8
002
 62
     3
100
AcDbCircle
 10
813.750559
 20
215.101354
 30
0.0
 40
15.66932
100
AcDbArc
 50
306.867192
 51
233.132808
  0
ARC
  5
3ED
100
AcDbEntity
  8
002
 62
     3
100
AcDbCircle
 10
826.418559
 20
203.477754
 30
0.0
 40
10.000009
100
AcDbArc
 50
273.652211
 51
356.347534
  0
ARC
  5
3EE
100
AcDbEntity
  8
002
 62
     3
100
AcDbCircle
 10
839.736559
 20
195.645754
 30
0.0
 40
3.000024
100
AcDbArc
 50
89.770818
 51
155.649463
  0
LINE
  5
3EF
100
AcDbEntity
  8
002
 62
     3
100
AcDbLine
 10
839.748559
 20
198.645754
 30
0.0
 11
839.723559
 21
198.645754
 31
0.0
  0
ARC
  5
3F0
100
AcDbEntity
  8
002
 62
     3
100
AcDbCircle
 10
829.714559
 20
200.181054
 30
0.0
 40
8.000073
100
AcDbArc
 50
273.655051
 51
356.347899
  0
LINE
  5
3F1
100
AcDbEntity
  8
002
 62
     3
100
AcDbLine
 10
837.698559
 20
199.671454
 30
0.0
 11
838.750559
 21
216.145754
 31
0.0
  0
LINE
  5
3F2
100
AcDbEntity
  8
002
 62
     3
100
AcDbLine
 10
838.750559
 20
216.145754
 30
0.0
 11
837.698559
 21
232.620054
 31
0.0
  0
LINE
  5
3F3
100
AcDbEntity
  8
002
 62
     3
100
AcDbLine
 10
836.397559
 20
229.450754
 30
0.0
 11
837.253559
 21
216.050154
 31
0.0
  0
LINE
  5
3F4
100
AcDbEntity
  8
002
 62
     3
100
AcDbLine
 10
837.253559
 20
216.241254
 30
0.0
 11
836.397559
 21
202.840754
 31
0.0
  0
ARC
  5
3F5
100
AcDbEntity
  8
002
 62
     3
100
AcDbCircle
 10
816.050559
 20
220.845754
 30
0.0
 40
0.2
100
AcDbArc
 50
270.0
 51
0.0
  0
LINE
  5
3F6
100
AcDbEntity
  8
002
 62
     3
100
AcDbLine
 10
816.000559
 20
220.645754
 30
0.0
 11
811.500559
 21
220.645754
 31
0.0
  0
LINE
  5
3F7
100
AcDbEntity
  8
002
 62
     3
100
AcDbLine
 10
811.500559
 20
220.645754
 30
0.0
 11
811.250559
 21
220.895754
 31
0.0
  0
LINE
  5
3F8
100
AcDbEntity
  8
002
 62
     3
100
AcDbLine
 10
811.250559
 20
220.895754
 30
0.0
 11
811.250559
 21
225.395754
 31
0.0
  0
LINE
  5
3F9
100
AcDbEntity
  8
002
 62
     3
100
AcDbLine
 10
811.250559
 20
225.395754
 30
0.0
 11
811.500559
 21
225.645754
 31
0.0
  0
LINE
  5
3FA
100
AcDbEntity
  8
002
 62
     3
100
AcDbLine
 10
811.500559
 20
225.645754
 30
0.0
 11
816.000559
 21
225.645754
 31
0.0
  0
LINE
  5
3FB
100
AcDbEntity
  8
002
 62
     3
100
AcDbLine
 10
816.000559
 20
225.645754
 30
0.0
 11
816.250559
 21
225.395754
 31
0.0
  0
LINE
  5
3FC
100
AcDbEntity
  8
002
 62
     3
100
AcDbLine
 10
816.250559
 20
225.395754
 30
0.0
 11
816.250559
 21
220.895754
 31
0.0
  0
LINE
  5
3FD
100
AcDbEntity
  8
002
 62
     3
100
AcDbLine
 10
816.250559
 20
220.895754
 30
0.0
 11
816.000559
 21
220.645754
 31
0.0
  0
ARC
  5
3FE
100
AcDbEntity
  8
002
 62
     3
100
AcDbCircle
 10
813.750559
 20
216.145754
 30
0.0
 40
7.499936
100
AcDbArc
 50
109.471393
 51
70.528607
  0
ARC
  5
3FF
100
AcDbEntity
  8
002
 62
     3
100
AcDbCircle
 10
811.450559
 20
220.845754
 30
0.0
 40
0.2
100
AcDbArc
 50
180.0
 51
270.0
  0
ARC
  5
400
100
AcDbEntity
  8
002
 62
     3
100
AcDbCircle
 10
813.750559
 20
216.145754
 30
0.0
 40
8.499963
100
AcDbArc
 50
107.104711
 51
72.895289
  0
LINE
  5
401
100
AcDbEntity
  8
002
 62
     3
100
AcDbLine
 10
813.654559
 20
239.648754
 30
0.0
 11
827.055559
 21
238.793454
 31
0.0
  0
ARC
  5
402
100
AcDbEntity
  8
002
 62
     3
100
AcDbCircle
 10
826.418559
 20
228.813754
 30
0.0
 40
9.99931
100
AcDbArc
 50
3.652466
 51
86.347789
  0
ARC
  5
403
100
AcDbEntity
  8
002
 62
     3
100
AcDbCircle
 10
829.714559
 20
232.110454
 30
0.0
 40
8.000247
100
AcDbArc
 50
3.652101
 51
86.344903
  0
LINE
  5
404
100
AcDbEntity
  8
002
 62
     3
100
AcDbLine
 10
830.224559
 20
240.094154
 30
0.0
 11
820.816559
 21
240.593554
 31
0.0
  0
ARC
  5
405
100
AcDbEntity
  8
002
 62
     3
100
AcDbCircle
 10
820.975559
 20
243.589354
 30
0.0
 40
2.999657
100
AcDbArc
 50
194.959101
 51
266.961917
  0
ARC
  5
406
100
AcDbEntity
  8
002
 62
     3
100
AcDbCircle
 10
814.975559
 20
243.469654
 30
0.0
 40
2.99996
100
AcDbArc
 50
275.489765
 51
347.985819
  0
LINE
  5
407
100
AcDbEntity
  8
002
 62
     3
100
AcDbLine
 10
819.250559
 20
244.281954
 30
0.0
 11
819.250559
 21
256.145754
 31
0.0
  0
LINE
  5
408
100
AcDbEntity
  8
002
 62
     3
100
AcDbLine
 10
819.250559
 20
256.145754
 30
0.0
 11
744.250559
 21
256.145754
 31
0.0
  0
LINE
  5
409
100
AcDbEntity
  8
002
 62
     3
100
AcDbLine
 10
752.001559
 20
256.145754
 30
0.0
 11
752.001559
 21
262.145754
 31
0.0
  0
LINE
  5
40A
100
AcDbEntity
  8
002
 62
     3
100
AcDbLine
 10
762.001559
 20
262.145754
 30
0.0
 11
752.001559
 21
262.145754
 31
0.0
  0
LINE
  5
40B
100
AcDbEntity
  8
002
 62
     3
100
AcDbLine
 10
752.750559
 20
262.145754
 30
0.0
 11
752.750559
 21
313.145754
 31
0.0
  0
LINE
  5
40C
100
AcDbEntity
  8
002
 62
     3
100
AcDbLine
 10
752.750559
 20
313.145754
 30
0.0
 11
810.750559
 21
313.145754
 31
0.0
  0
LINE
  5
40D
100
AcDbEntity
  8
002
 62
     3
100
AcDbLine
 10
810.750559
 20
313.145754
 30
0.0
 11
810.750559
 21
262.145754
 31
0.0
  0
LINE
  5
40E
100
AcDbEntity
  8
002
 62
     3
100
AcDbLine
 10
811.498559
 20
262.145754
 30
0.0
 11
801.498559
 21
262.145754
 31
0.0
  0
LINE
  5
40F
100
AcDbEntity
  8
002
 62
     3
100
AcDbLine
 10
811.498559
 20
262.145754
 30
0.0
 11
811.498559
 21
256.145754
 31
0.0
  0
LINE
  5
410
100
AcDbEntity
  8
002
 62
     3
100
AcDbLine
 10
801.498559
 20
256.145754
 30
0.0
 11
801.498559
 21
262.145754
 31
0.0
  0
LINE
  5
411
100
AcDbEntity
  8
002
 62
     3
100
AcDbLine
 10
825.250559
 20
257.145754
 30
0.0
 11
830.250559
 21
257.145754
 31
0.0
  0
LINE
  5
412
100
AcDbEntity
  8
002
 62
     3
100
AcDbLine
 10
830.250559
 20
257.145754
 30
0.0
 11
831.000559
 21
254.145754
 31
0.0
  0
LINE
  5
413
100
AcDbEntity
  8
002
 62
     3
100
AcDbLine
 10
831.000559
 20
254.145754
 30
0.0
 11
830.469559
 21
253.296354
 31
0.0
  0
LINE
  5
414
100
AcDbEntity
  8
002
 62
     3
100
AcDbLine
 10
830.047559
 20
252.621754
 30
0.0
 11
825.452559
 21
252.621754
 31
0.0
  0
LINE
  5
415
100
AcDbEntity
  8
002
 62
     3
100
AcDbLine
 10
825.031559
 20
253.296354
 30
0.0
 11
824.500559
 21
254.145754
 31
0.0
  0
LINE
  5
416
100
AcDbEntity
  8
002
 62
     3
100
AcDbLine
 10
824.500559
 20
254.145754
 30
0.0
 11
825.250559
 21
257.145754
 31
0.0
  0
ARC
  5
417
100
AcDbEntity
  8
002
 62
     3
100
AcDbCircle
 10
827.750559
 20
256.484254
 30
0.0
 40
1.000041
100
AcDbArc
 50
41.412294
 51
138.587706
  0
LINE
  5
418
100
AcDbEntity
  8
002
 62
     3
100
AcDbLine
 10
830.250559
 20
254.145754
 30
0.0
 11
825.250559
 21
254.145754
 31
0.0
  0
ARC
  5
419
100
AcDbEntity
  8
002
 62
     3
100
AcDbCircle
 10
824.183559
 20
252.766354
 30
0.0
 40
0.99992
100
AcDbArc
 50
314.995948
 51
32.005383
  0
LINE
  5
41A
100
AcDbEntity
  8
002
 62
     3
100
AcDbLine
 10
824.890559
 20
252.059254
 30
0.0
 11
822.750559
 21
249.145754
 31
0.0
  0
ARC
  5
41B
100
AcDbEntity
  8
002
 62
     3
100
AcDbCircle
 10
825.250559
 20
246.520754
 30
0.0
 40
3.625
100
AcDbArc
 50
46.397181
 51
133.602819
  0
LINE
  5
41C
100
AcDbEntity
  8
002
 62
     3
100
AcDbLine
 10
827.750559
 20
249.145754
 30
0.0
 11
827.750559
 21
246.145754
 31
0.0
  0
ARC
  5
41D
100
AcDbEntity
  8
002
 62
     3
100
AcDbCircle
 10
825.250559
 20
248.770754
 30
0.0
 40
3.625
100
AcDbArc
 50
226.397181
 51
313.602819
  0
LINE
  5
41E
100
AcDbEntity
  8
002
 62
     3
100
AcDbLine
 10
822.750559
 20
246.145754
 30
0.0
 11
823.750559
 21
245.145754
 31
0.0
  0
LINE
  5
41F
100
AcDbEntity
  8
002
 62
     3
100
AcDbLine
 10
823.750559
 20
245.145754
 30
0.0
 11
831.750559
 21
245.145754
 31
0.0
  0
LINE
  5
420
100
AcDbEntity
  8
002
 62
     3
100
AcDbLine
 10
831.750559
 20
245.145754
 30
0.0
 11
832.750559
 21
246.145754
 31
0.0
  0
LINE
  5
421
100
AcDbEntity
  8
002
 62
     3
100
AcDbLine
 10
832.750559
 20
246.145754
 30
0.0
 11
832.750559
 21
249.145754
 31
0.0
  0
LINE
  5
422
100
AcDbEntity
  8
002
 62
     3
100
AcDbLine
 10
832.750559
 20
249.145754
 30
0.0
 11
830.610559
 21
252.059254
 31
0.0
  0
ARC
  5
423
100
AcDbEntity
  8
002
 62
     3
100
AcDbCircle
 10
831.317559
 20
252.766354
 30
0.0
 40
1.000002
100
AcDbArc
 50
147.994617
 51
225.004052
  0
ARC
  5
424
100
AcDbEntity
  8
002
 62
     3
100
AcDbCircle
 10
830.250559
 20
246.520754
 30
0.0
 40
3.625
100
AcDbArc
 50
46.397181
 51
133.602819
  0
ARC
  5
425
100
AcDbEntity
  8
002
 62
     3
100
AcDbCircle
 10
830.250559
 20
248.770754
 30
0.0
 40
3.625
100
AcDbArc
 50
226.397181
 51
313.602819
  0
LINE
  5
426
100
AcDbEntity
  8
002
 62
     3
100
AcDbLine
 10
823.888559
 20
245.145754
 30
0.0
 11
823.888559
 21
244.145754
 31
0.0
  0
LINE
  5
427
100
AcDbEntity
  8
002
 62
     3
100
AcDbLine
 10
822.750559
 20
246.145754
 30
0.0
 11
822.750559
 21
249.145754
 31
0.0
  0
LINE
  5
428
100
AcDbEntity
  8
002
 62
     3
100
AcDbLine
 10
831.611559
 20
245.145754
 30
0.0
 11
831.611559
 21
244.145754
 31
0.0
  0
ARC
  5
429
100
AcDbEntity
  8
002
 62
     3
100
AcDbCircle
 10
801.082559
 20
228.813754
 30
0.0
 40
10.000009
100
AcDbArc
 50
93.652211
 51
176.347899
  0
CIRCLE
  5
42A
100
AcDbEntity
  8
002
 62
     3
100
AcDbCircle
 10
813.750559
 20
216.145754
 30
0.0
 40
17.5
  0
ARC
  5
42B
100
AcDbEntity
  8
002
 62
     3
100
AcDbCircle
 10
785.982559
 20
194.145754
 30
0.0
 40
5.0
100
AcDbArc
 50
270.0
 51
3.652101
  0
LINE
  5
42C
100
AcDbEntity
  8
002
 62
     3
100
AcDbLine
 10
756.750559
 20
187.145754
 30
0.0
 11
756.750559
 21
176.145754
 31
0.0
  0
ARC
  5
42D
100
AcDbEntity
  8
002
 62
     3
100
AcDbCircle
 10
757.001559
 20
233.145754
 30
0.0
 40
6.555838
100
AcDbArc
 50
242.875244
 51
280.689287
  0
LINE
  5
42E
100
AcDbEntity
  8
002
 62
     3
100
AcDbLine
 10
762.001559
 20
256.145754
 30
0.0
 11
762.001559
 21
262.145754
 31
0.0
  0
LINE
  5
42F
100
AcDbEntity
  8
002
 62
     3
100
AcDbLine
 10
778.863559
 20
288.645754
 30
0.0
 11
775.976559
 21
293.645754
 31
0.0
  0
LINE
  5
430
100
AcDbEntity
  8
002
 62
     3
100
AcDbLine
 10
775.976559
 20
293.645754
 30
0.0
 11
778.863559
 21
298.645754
 31
0.0
  0
LINE
  5
431
100
AcDbEntity
  8
002
 62
     3
100
AcDbLine
 10
778.863559
 20
298.645754
 30
0.0
 11
784.636559
 21
298.645754
 31
0.0
  0
LINE
  5
432
100
AcDbEntity
  8
002
 62
     3
100
AcDbLine
 10
784.636559
 20
298.645754
 30
0.0
 11
787.523559
 21
293.645754
 31
0.0
  0
LINE
  5
433
100
AcDbEntity
  8
002
 62
     3
100
AcDbLine
 10
787.523559
 20
293.645754
 30
0.0
 11
784.636559
 21
288.645754
 31
0.0
  0
LINE
  5
434
100
AcDbEntity
  8
002
 62
     3
100
AcDbLine
 10
784.636559
 20
288.645754
 30
0.0
 11
778.863559
 21
288.645754
 31
0.0
  0
CIRCLE
  5
435
100
AcDbEntity
  8
002
 62
     3
100
AcDbCircle
 10
781.750559
 20
293.645754
 30
0.0
 40
3.25
  0
CIRCLE
  5
436
100
AcDbEntity
  8
002
 62
     3
100
AcDbCircle
 10
781.750559
 20
293.645754
 30
0.0
 40
2.5
  0
CIRCLE
  5
437
100
AcDbEntity
  8
002
 62
     3
100
AcDbCircle
 10
781.750559
 20
293.645754
 30
0.0
 40
0.75
  0
CIRCLE
  5
438
100
AcDbEntity
  8
002
 62
     3
100
AcDbCircle
 10
781.750559
 20
293.645754
 30
0.0
 40
5.0
  0
LINE
  5
439
100
AcDbEntity
  8
002
 62
     3
100
AcDbLine
 10
777.500559
 20
317.145754
 30
0.0
 11
777.500559
 21
322.145754
 31
0.0
  0
LINE
  5
43A
100
AcDbEntity
  8
002
 62
     3
100
AcDbLine
 10
786.000559
 20
322.145754
 30
0.0
 11
786.000559
 21
317.145754
 31
0.0
  0
LINE
  5
43B
100
AcDbEntity
  8
002
 62
     3
100
AcDbLine
 10
786.000559
 20
322.145754
 30
0.0
 11
777.500559
 21
322.145754
 31
0.0
  0
LINE
  5
43C
100
AcDbEntity
  8
002
 62
     3
100
AcDbLine
 10
761.22632
 20
322.145754
 30
0.0
 11
755.000559
 21
322.145754
 31
0.0
  0
LINE
  5
43D
100
AcDbEntity
  8
002
 62
     3
100
AcDbLine
 10
755.000559
 20
322.145754
 30
0.0
 11
755.000559
 21
317.145754
 31
0.0
  0
LINE
  5
43E
100
AcDbEntity
  8
002
 62
     3
100
AcDbLine
 10
754.250559
 20
317.145754
 30
0.0
 11
754.250559
 21
313.145754
 31
0.0
  0
LINE
  5
43F
100
AcDbEntity
  8
002
 62
     3
100
AcDbLine
 10
754.250559
 20
317.145754
 30
0.0
 11
809.250559
 21
317.145754
 31
0.0
  0
LINE
  5
440
100
AcDbEntity
  8
002
 62
     3
100
AcDbLine
 10
809.250559
 20
317.145754
 30
0.0
 11
809.250559
 21
313.145754
 31
0.0
  0
LINE
  5
441
100
AcDbEntity
  8
002
 62
     3
100
AcDbLine
 10
808.500559
 20
317.145754
 30
0.0
 11
808.500559
 21
322.145754
 31
0.0
  0
LINE
  5
442
100
AcDbEntity
  8
002
 62
     3
100
AcDbLine
 10
802.273559
 20
322.145754
 30
0.0
 11
808.500559
 21
322.145754
 31
0.0
  0
ARC
  5
443
100
AcDbEntity
  8
002
 62
     3
100
AcDbCircle
 10
805.303559
 20
320.145754
 30
0.0
 40
3.000318
100
AcDbArc
 50
180.834549
 51
270.0
  0
LINE
  5
444
100
AcDbEntity
  8
002
 62
     3
100
AcDbLine
 10
802.303559
 20
320.102054
 30
0.0
 11
801.750559
 21
358.145754
 31
0.0
  0
LINE
  5
445
100
AcDbEntity
  8
002
 62
     3
100
AcDbLine
 10
801.750559
 20
358.145754
 30
0.0
 11
761.750559
 21
358.145754
 31
0.0
  0
LINE
  5
446
100
AcDbEntity
  8
002
 62
     3
100
AcDbLine
 10
761.750559
 20
358.145754
 30
0.0
 11
761.196559
 21
320.102054
 31
0.0
  0
ARC
  5
447
100
AcDbEntity
  8
002
 62
     3
100
AcDbCircle
 10
758.197559
 20
320.145754
 30
0.0
 40
3.0
100
AcDbArc
 50
270.0
 51
359.165172
  0
LINE
  5
448
100
AcDbEntity
  8
002
  6
DASHED
 62
     9
100
AcDbLine
 10
793.750559
 20
186.145754
 30
0.0
 11
793.750559
 21
186.609854
 31
0.0
  0
LINE
  5
449
100
AcDbEntity
  8
002
  6
DASHED
 62
     9
100
AcDbLine
 10
769.750559
 20
186.145754
 30
0.0
 11
769.750559
 21
186.609854
 31
0.0
  0
LINE
  5
44A
100
AcDbEntity
  8
002
  6
CENTER
 62
     9
100
AcDbLine
 10
736.634559
 20
216.145754
 30
0.0
 11
848.682559
 21
216.145754
 31
0.0
  0
LINE
  5
44B
100
AcDbEntity
  8
002
  6
CENTER
 62
     9
100
AcDbLine
 10
757.001559
 20
266.645754
 30
0.0
 11
757.001559
 21
240.312054
 31
0.0
  0
LINE
  5
44C
100
AcDbEntity
  8
002
  6
CENTER
 62
     9
100
AcDbLine
 10
806.498559
 20
240.312054
 30
0.0
 11
806.498559
 21
266.645754
 31
0.0
  0
LINE
  5
44D
100
AcDbEntity
  8
002
  6
CENTER
 62
     9
100
AcDbLine
 10
790.150559
 20
293.645754
 30
0.0
 11
772.977559
 21
293.645754
 31
0.0
  0
LINE
  5
44E
100
AcDbEntity
  8
002
  6
CENTER
 62
     9
100
AcDbLine
 10
804.250559
 20
323.645754
 30
0.0
 11
804.250559
 21
311.145754
 31
0.0
  0
LINE
  5
44F
100
AcDbEntity
  8
002
  6
CENTER
 62
     9
100
AcDbLine
 10
759.250559
 20
311.145754
 30
0.0
 11
759.250559
 21
323.645754
 31
0.0
  0
LINE
  5
450
100
AcDbEntity
  8
002
  6
CENTER
 62
     9
100
AcDbLine
 10
827.750559
 20
241.404054
 30
0.0
 11
827.750559
 21
259.749754
 31
0.0
  0
LINE
  5
451
100
AcDbEntity
  8
002
  6
HIDDEN
 62
     9
100
AcDbLine
 10
775.116559
 20
186.145754
 30
0.0
 11
769.750559
 21
186.145754
 31
0.0
  0
LINE
  5
452
100
AcDbEntity
  8
002
  6
HIDDEN
 62
     9
100
AcDbLine
 10
776.250559
 20
176.145754
 30
0.0
 11
776.250559
 21
186.145754
 31
0.0
  0
LINE
  5
453
100
AcDbEntity
  8
002
  6
HIDDEN
 62
     9
100
AcDbLine
 10
787.250559
 20
186.145754
 30
0.0
 11
787.250559
 21
176.145754
 31
0.0
  0
LINE
  5
454
100
AcDbEntity
  8
002
  6
HIDDEN
 62
     9
100
AcDbLine
 10
788.383559
 20
186.145754
 30
0.0
 11
793.750559
 21
186.145754
 31
0.0
  0
LINE
  5
455
100
AcDbEntity
  8
002
  6
CENTER
 62
     9
100
AcDbLine
 10
813.750559
 20
265.706254
 30
0.0
 11
813.750559
 21
169.102554
 31
0.0
  0
LINE
  5
456
100
AcDbEntity
  8
002
 62
     3
100
AcDbLine
 10
763.750559
 20
404.86133
 30
0.0
 11
799.750559
 21
404.86133
 31
0.0
  0
LINE
  5
457
100
AcDbEntity
  8
002
 62
     3
100
AcDbLine
 10
796.750559
 20
424.86133
 30
0.0
 11
766.750559
 21
424.86133
 31
0.0
  0
LINE
  5
458
100
AcDbEntity
  8
002
 62
     3
100
AcDbLine
 10
763.750559
 20
421.86133
 30
0.0
 11
763.750559
 21
404.86133
 31
0.0
  0
ARC
  5
459
100
AcDbEntity
  8
002
 62
     3
100
AcDbCircle
 10
766.750559
 20
421.86133
 30
0.0
 40
3.0
100
AcDbArc
 50
90.0
 51
180.0
  0
LINE
  5
45A
100
AcDbEntity
  8
002
 62
     3
100
AcDbLine
 10
799.750559
 20
404.86133
 30
0.0
 11
799.750559
 21
421.86133
 31
0.0
  0
ARC
  5
45B
100
AcDbEntity
  8
002
 62
     3
100
AcDbCircle
 10
796.750559
 20
421.86133
 30
0.0
 40
3.0
100
AcDbArc
 50
0.0
 51
90.0
  0
LINE
  5
45C
100
AcDbEntity
  8
002
 62
     3
100
AcDbLine
 10
765.750559
 20
358.145754
 30
0.0
 11
765.750559
 21
404.86133
 31
0.0
  0
LINE
  5
45D
100
AcDbEntity
  8
002
 62
     3
100
AcDbLine
 10
797.750559
 20
404.86133
 30
0.0
 11
797.750559
 21
358.145754
 31
0.0
  0
LINE
  5
45E
100
AcDbEntity
  8
002
  6
CENTER
 62
     9
100
AcDbLine
 10
781.750559
 20
69.921428
 30
0.0
 11
781.750559
 21
432.574501
 31
0.0
  0
LINE
  5
45F
100
AcDbEntity
  8
002
 62
     3
100
AcDbLine
 10
619.702559
 20
95.845754
 30
0.0
 11
639.702559
 21
95.845754
 31
0.0
  0
LINE
  5
460
100
AcDbEntity
  8
002
 62
     3
100
AcDbLine
 10
754.250559
 20
176.145754
 30
0.0
 11
754.250559
 21
173.145754
 31
0.0
  0
LINE
  5
461
100
AcDbEntity
  8
002
 62
     3
100
AcDbLine
 10
754.250559
 20
173.145754
 30
0.0
 11
809.250559
 21
173.145754
 31
0.0
  0
LINE
  5
462
100
AcDbEntity
  8
002
 62
     3
100
AcDbLine
 10
809.250559
 20
173.145754
 30
0.0
 11
809.250559
 21
176.145754
 31
0.0
  0
LINE
  5
463
100
AcDbEntity
  8
002
 62
     3
100
AcDbLine
 10
793.410559
 20
168.145754
 30
0.0
 11
793.410559
 21
173.145754
 31
0.0
  0
LINE
  5
464
100
AcDbEntity
  8
002
 62
     3
100
AcDbLine
 10
770.090559
 20
173.145754
 30
0.0
 11
770.090559
 21
168.145754
 31
0.0
  0
LINE
  5
465
100
AcDbEntity
  8
002
 62
     3
100
AcDbLine
 10
761.590559
 20
168.145754
 30
0.0
 11
761.590559
 21
173.145754
 31
0.0
  0
LINE
  5
466
100
AcDbEntity
  8
002
 62
     3
100
AcDbLine
 10
761.590559
 20
168.145754
 30
0.0
 11
770.090559
 21
168.145754
 31
0.0
  0
LINE
  5
467
100
AcDbEntity
  8
002
 62
     3
100
AcDbLine
 10
765.450559
 20
168.145754
 30
0.0
 11
765.450559
 21
159.145754
 31
0.0
  0
LINE
  5
468
100
AcDbEntity
  8
002
 62
     3
100
AcDbLine
 10
765.450559
 20
159.145754
 30
0.0
 11
806.050559
 21
159.145754
 31
0.0
  0
LINE
  5
469
100
AcDbEntity
  8
002
 62
     3
100
AcDbLine
 10
801.910559
 20
168.145754
 30
0.0
 11
793.410559
 21
168.145754
 31
0.0
  0
LINE
  5
46A
100
AcDbEntity
  8
002
 62
     3
100
AcDbLine
 10
798.050559
 20
168.145754
 30
0.0
 11
798.050559
 21
159.145754
 31
0.0
  0
LINE
  5
46B
100
AcDbEntity
  8
002
 62
     3
100
AcDbLine
 10
797.450559
 20
159.145754
 30
0.0
 11
797.450559
 21
158.145754
 31
0.0
  0
LINE
  5
46C
100
AcDbEntity
  8
002
 62
     3
100
AcDbLine
 10
797.450559
 20
158.145754
 30
0.0
 11
810.924559
 21
156.130554
 31
0.0
  0
LINE
  5
46D
100
AcDbEntity
  8
002
 62
     3
100
AcDbLine
 10
810.750559
 20
155.145754
 30
0.0
 11
752.750559
 21
155.145754
 31
0.0
  0
LINE
  5
46E
100
AcDbEntity
  8
002
 62
     3
100
AcDbLine
 10
752.577559
 20
156.130554
 30
0.0
 11
766.050559
 21
158.145754
 31
0.0
  0
LINE
  5
46F
100
AcDbEntity
  8
002
 62
     3
100
AcDbLine
 10
766.050559
 20
158.145754
 30
0.0
 11
766.050559
 21
159.145754
 31
0.0
  0
LINE
  5
470
100
AcDbEntity
  8
002
 62
     3
100
AcDbLine
 10
800.077559
 20
153.130554
 30
0.0
 11
810.924559
 21
154.160854
 31
0.0
  0
ARC
  5
471
100
AcDbEntity
  8
002
 62
     3
100
AcDbCircle
 10
810.750559
 20
155.145754
 30
0.0
 40
1.000054
100
AcDbArc
 50
280.018931
 51
79.980072
  0
LINE
  5
472
100
AcDbEntity
  8
002
 62
     3
100
AcDbLine
 10
810.924559
 20
150.130554
 30
0.0
 11
800.077559
 21
151.160854
 31
0.0
  0
ARC
  5
473
100
AcDbEntity
  8
002
 62
     3
100
AcDbCircle
 10
800.250559
 20
152.145754
 30
0.0
 40
0.999979
100
AcDbArc
 50
99.963499
 51
260.037492
  0
LINE
  5
474
100
AcDbEntity
  8
002
 62
     3
100
AcDbLine
 10
798.250559
 20
152.145754
 30
0.0
 11
765.250559
 21
152.145754
 31
0.0
  0
LINE
  5
475
100
AcDbEntity
  8
002
 62
     3
100
AcDbLine
 10
763.424559
 20
153.130554
 30
0.0
 11
752.577559
 21
154.160854
 31
0.0
  0
ARC
  5
476
100
AcDbEntity
  8
002
 62
     3
100
AcDbCircle
 10
752.750559
 20
155.145754
 30
0.0
 40
0.999979
100
AcDbArc
 50
99.963499
 51
260.037492
  0
ARC
  5
477
100
AcDbEntity
  8
002
 62
     3
100
AcDbCircle
 10
752.750559
 20
149.145754
 30
0.0
 40
0.999979
100
AcDbArc
 50
99.963499
 51
260.037492
  0
LINE
  5
478
100
AcDbEntity
  8
002
 62
     3
100
AcDbLine
 10
752.577559
 20
148.160854
 30
0.0
 11
763.424559
 21
147.130554
 31
0.0
  0
ARC
  5
479
100
AcDbEntity
  8
002
 62
     3
100
AcDbCircle
 10
763.250559
 20
146.145754
 30
0.0
 40
1.000054
100
AcDbArc
 50
0.0
 51
79.980072
  0
LINE
  5
47A
100
AcDbEntity
  8
002
 62
     3
100
AcDbLine
 10
765.250559
 20
146.145754
 30
0.0
 11
798.250559
 21
146.145754
 31
0.0
  0
LINE
  5
47B
100
AcDbEntity
  8
002
 62
     3
100
AcDbLine
 10
800.077559
 20
147.130554
 30
0.0
 11
810.924559
 21
148.160854
 31
0.0
  0
ARC
  5
47C
100
AcDbEntity
  8
002
 62
     3
100
AcDbCircle
 10
810.750559
 20
149.145754
 30
0.0
 40
1.000054
100
AcDbArc
 50
280.018931
 51
79.980072
  0
LINE
  5
47D
100
AcDbEntity
  8
002
 62
     3
100
AcDbLine
 10
810.750559
 20
149.145754
 30
0.0
 11
752.750559
 21
149.145754
 31
0.0
  0
LINE
  5
47E
100
AcDbEntity
  8
002
 62
     3
100
AcDbLine
 10
752.577559
 20
150.130554
 30
0.0
 11
763.424559
 21
151.160854
 31
0.0
  0
ARC
  5
47F
100
AcDbEntity
  8
002
 62
     3
100
AcDbCircle
 10
763.250559
 20
152.145754
 30
0.0
 40
1.000054
100
AcDbArc
 50
280.018931
 51
79.980072
  0
ARC
  5
480
100
AcDbEntity
  8
002
 62
     3
100
AcDbCircle
 10
800.250559
 20
146.145754
 30
0.0
 40
1.0
100
AcDbArc
 50
99.963499
 51
180.0
  0
CIRCLE
  5
481
100
AcDbEntity
  8
002
 62
     3
100
AcDbCircle
 10
803.050559
 20
165.645754
 30
0.0
 40
1.0
  0
LINE
  5
482
100
AcDbEntity
  8
002
  6
CENTER
 62
     9
100
AcDbLine
 10
765.840559
 20
165.424154
 30
0.0
 11
765.840559
 21
179.145754
 31
0.0
  0
LINE
  5
483
100
AcDbEntity
  8
002
  6
CENTER
 62
     9
100
AcDbLine
 10
797.660559
 20
165.424154
 30
0.0
 11
797.660559
 21
179.145754
 31
0.0
  0
LINE
  5
484
100
AcDbEntity
  8
002
  6
CENTER
 62
     9
100
AcDbLine
 10
803.050559
 20
168.897954
 30
0.0
 11
803.050559
 21
162.137954
 31
0.0
  0
LINE
  5
485
100
AcDbEntity
  8
002
  6
CENTER
 62
     9
100
AcDbLine
 10
805.418559
 20
165.645754
 30
0.0
 11
800.393559
 21
165.645754
 31
0.0
  0
LINE
  5
486
100
AcDbEntity
  8
002
  6
PHANTOM
 62
     9
100
AcDbLine
 10
751.750559
 20
120.845754
 30
0.0
 11
751.750559
 21
149.145754
 31
0.0
  0
LINE
  5
487
100
AcDbEntity
  8
002
  6
PHANTOM
 62
     9
100
AcDbLine
 10
764.250559
 20
146.145754
 30
0.0
 11
764.250559
 21
123.845754
 31
0.0
  0
LINE
  5
488
100
AcDbEntity
  8
002
  6
PHANTOM
 62
     9
100
AcDbLine
 10
799.250559
 20
123.845754
 30
0.0
 11
799.250559
 21
146.145754
 31
0.0
  0
LINE
  5
489
100
AcDbEntity
  8
002
  6
PHANTOM
 62
     9
100
AcDbLine
 10
811.750559
 20
149.145754
 30
0.0
 11
811.750559
 21
120.845754
 31
0.0
  0
LINE
  5
48A
100
AcDbEntity
  8
002
 62
     3
100
AcDbLine
 10
765.250559
 20
123.845754
 30
0.0
 11
798.250559
 21
123.845754
 31
0.0
  0
ARC
  5
48B
100
AcDbEntity
  8
002
 62
     3
100
AcDbCircle
 10
800.250559
 20
123.845754
 30
0.0
 40
0.999979
100
AcDbArc
 50
180.0
 51
260.037492
  0
LINE
  5
48C
100
AcDbEntity
  8
002
 62
     3
100
AcDbLine
 10
800.077559
 20
122.860854
 30
0.0
 11
810.924559
 21
121.830554
 31
0.0
  0
LINE
  5
48D
100
AcDbEntity
  8
002
 62
     3
100
AcDbLine
 10
810.750559
 20
120.845754
 30
0.0
 11
752.750559
 21
120.845754
 31
0.0
  0
ARC
  5
48E
100
AcDbEntity
  8
002
 62
     3
100
AcDbCircle
 10
752.750559
 20
120.845754
 30
0.0
 40
0.999979
100
AcDbArc
 50
99.963499
 51
260.037492
  0
LINE
  5
48F
100
AcDbEntity
  8
002
 62
     3
100
AcDbLine
 10
752.577559
 20
119.860854
 30
0.0
 11
763.424559
 21
118.830554
 31
0.0
  0
ARC
  5
490
100
AcDbEntity
  8
002
 62
     3
100
AcDbCircle
 10
763.250559
 20
117.845754
 30
0.0
 40
1.000054
100
AcDbArc
 50
280.018931
 51
79.980072
  0
LINE
  5
491
100
AcDbEntity
  8
002
 62
     3
100
AcDbLine
 10
763.424559
 20
116.860854
 30
0.0
 11
752.577559
 21
115.830554
 31
0.0
  0
ARC
  5
492
100
AcDbEntity
  8
002
 62
     3
100
AcDbCircle
 10
752.750559
 20
114.845754
 30
0.0
 40
0.999979
100
AcDbArc
 50
99.963499
 51
260.037492
  0
LINE
  5
493
100
AcDbEntity
  8
002
 62
     3
100
AcDbLine
 10
752.577559
 20
113.860854
 30
0.0
 11
771.050559
 21
111.845754
 31
0.0
  0
LINE
  5
494
100
AcDbEntity
  8
002
 62
     3
100
AcDbLine
 10
792.450559
 20
111.845754
 30
0.0
 11
810.924559
 21
113.860854
 31
0.0
  0
ARC
  5
495
100
AcDbEntity
  8
002
 62
     3
100
AcDbCircle
 10
810.750559
 20
114.845754
 30
0.0
 40
1.000054
100
AcDbArc
 50
280.018931
 51
79.980072
  0
LINE
  5
496
100
AcDbEntity
  8
002
 62
     3
100
AcDbLine
 10
810.924559
 20
115.830554
 30
0.0
 11
800.077559
 21
116.860854
 31
0.0
  0
LINE
  5
497
100
AcDbEntity
  8
002
 62
     3
100
AcDbLine
 10
800.077559
 20
118.830554
 30
0.0
 11
810.924559
 21
119.860854
 31
0.0
  0
ARC
  5
498
100
AcDbEntity
  8
002
 62
     3
100
AcDbCircle
 10
810.750559
 20
120.845754
 30
0.0
 40
1.000054
100
AcDbArc
 50
280.018931
 51
79.980072
  0
LINE
  5
499
100
AcDbEntity
  8
002
 62
     3
100
AcDbLine
 10
810.750559
 20
114.845754
 30
0.0
 11
752.750559
 21
114.845754
 31
0.0
  0
LINE
  5
49A
100
AcDbEntity
  8
002
 62
     3
100
AcDbLine
 10
752.577559
 20
121.830554
 30
0.0
 11
763.424559
 21
122.860854
 31
0.0
  0
ARC
  5
49B
100
AcDbEntity
  8
002
 62
     3
100
AcDbCircle
 10
763.250559
 20
123.845754
 30
0.0
 40
1.0
100
AcDbArc
 50
280.018931
 51
0.0
  0
LINE
  5
49C
100
AcDbEntity
  8
002
 62
     3
100
AcDbLine
 10
765.250559
 20
117.845754
 30
0.0
 11
798.250559
 21
117.845754
 31
0.0
  0
ARC
  5
49D
100
AcDbEntity
  8
002
 62
     3
100
AcDbCircle
 10
800.250559
 20
117.845754
 30
0.0
 40
0.999979
100
AcDbArc
 50
99.963499
 51
260.037492
  0
LINE
  5
49E
100
AcDbEntity
  8
002
 62
     3
100
AcDbLine
 10
801.050559
 20
110.845754
 30
0.0
 11
770.450559
 21
110.845754
 31
0.0
  0
CIRCLE
  5
49F
100
AcDbEntity
  8
002
 62
     3
100
AcDbCircle
 10
798.050559
 20
104.345754
 30
0.0
 40
1.0
  0
LINE
  5
4A0
100
AcDbEntity
  8
002
 62
     3
100
AcDbLine
 10
771.050559
 20
95.845754
 30
0.0
 11
792.450559
 21
95.845754
 31
0.0
  0
LINE
  5
4A1
100
AcDbEntity
  8
002
 62
     3
100
AcDbLine
 10
787.600559
 20
95.845754
 30
0.0
 11
787.600559
 21
92.845754
 31
0.0
  0
LINE
  5
4A2
100
AcDbEntity
  8
002
 62
     3
100
AcDbLine
 10
788.750559
 20
75.845754
 30
0.0
 11
788.750559
 21
92.845754
 31
0.0
  0
LINE
  5
4A3
100
AcDbEntity
  8
002
 62
     3
100
AcDbLine
 10
774.750559
 20
75.845754
 30
0.0
 11
788.750559
 21
75.845754
 31
0.0
  0
LINE
  5
4A4
100
AcDbEntity
  8
002
 62
     3
100
AcDbLine
 10
774.750559
 20
75.845754
 30
0.0
 11
774.750559
 21
92.845754
 31
0.0
  0
LINE
  5
4A5
100
AcDbEntity
  8
002
 62
     3
100
AcDbLine
 10
774.750559
 20
92.845754
 30
0.0
 11
788.750559
 21
92.845754
 31
0.0
  0
LINE
  5
4A6
100
AcDbEntity
  8
002
 62
     3
100
AcDbLine
 10
775.900559
 20
92.845754
 30
0.0
 11
775.900559
 21
95.845754
 31
0.0
  0
LINE
  5
4A7
100
AcDbEntity
  8
002
 62
     3
100
AcDbLine
 10
771.050559
 20
110.845754
 30
0.0
 11
771.050559
 21
111.845754
 31
0.0
  0
LINE
  5
4A8
100
AcDbEntity
  8
002
 62
     3
100
AcDbLine
 10
792.450559
 20
111.845754
 30
0.0
 11
792.450559
 21
110.845754
 31
0.0
  0
LINE
  5
4A9
100
AcDbEntity
  8
002
  6
CENTER
 62
     9
100
AcDbLine
 10
798.050559
 20
107.597954
 30
0.0
 11
798.050559
 21
100.837954
 31
0.0
  0
LINE
  5
4AA
100
AcDbEntity
  8
002
  6
CENTER
 62
     9
100
AcDbLine
 10
800.418559
 20
104.345754
 30
0.0
 11
795.393559
 21
104.345754
 31
0.0
  0
LINE
  5
4AB
100
AcDbEntity
  8
002
 62
     9
100
AcDbLine
 10
787.700559
 20
92.845754
 30
0.0
 11
787.700559
 21
75.845754
 31
0.0
  0
LINE
  5
4AC
100
AcDbEntity
  8
002
 62
     9
100
AcDbLine
 10
775.800559
 20
75.845754
 30
0.0
 11
775.800559
 21
92.845754
 31
0.0
  0
LINE
  5
4AD
100
AcDbEntity
  8
002
 62
     3
100
AcDbLine
 10
770.450559
 20
110.845754
 30
0.0
 11
770.450559
 21
98.845754
 31
0.0
  0
LINE
  5
4AE
100
AcDbEntity
  8
002
 62
     3
100
AcDbLine
 10
793.050559
 20
110.845754
 30
0.0
 11
793.050559
 21
98.845754
 31
0.0
  0
LINE
  5
4AF
100
AcDbEntity
  8
002
 62
     3
100
AcDbLine
 10
792.450559
 20
95.845754
 30
0.0
 11
792.450559
 21
98.845754
 31
0.0
  0
LINE
  5
4B0
100
AcDbEntity
  8
002
 62
     3
100
AcDbLine
 10
770.450559
 20
98.845754
 30
0.0
 11
801.050559
 21
98.845754
 31
0.0
  0
LINE
  5
4B1
100
AcDbEntity
  8
002
 62
     3
100
AcDbLine
 10
771.050559
 20
95.845754
 30
0.0
 11
771.050559
 21
98.845754
 31
0.0
  0
ARC
  5
4B2
100
AcDbEntity
  8
002
 62
     3
100
AcDbCircle
 10
801.050559
 20
100.845754
 30
0.0
 40
2.0
100
AcDbArc
 50
270.0
 51
0.0
  0
ARC
  5
4B3
100
AcDbEntity
  8
002
 62
     3
100
AcDbCircle
 10
801.050559
 20
108.845754
 30
0.0
 40
2.0
100
AcDbArc
 50
0.0
 51
90.0
  0
LINE
  5
4B4
100
AcDbEntity
  8
002
 62
     3
100
AcDbLine
 10
803.050559
 20
100.845754
 30
0.0
 11
803.050559
 21
108.845754
 31
0.0
  0
LINE
  5
4B5
100
AcDbEntity
  8
002
 62
     3
100
AcDbLine
 10
793.410559
 20
171.145754
 30
0.0
 11
770.090559
 21
171.145754
 31
0.0
  0
LINE
  5
4B6
100
AcDbEntity
  8
002
 62
     3
100
AcDbLine
 10
801.910559
 20
173.145754
 30
0.0
 11
801.910559
 21
168.145754
 31
0.0
  0
LINE
  5
4B7
100
AcDbEntity
  8
002
 62
     3
100
AcDbLine
 10
806.050559
 20
171.145754
 30
0.0
 11
801.910559
 21
171.145754
 31
0.0
  0
ARC
  5
4B8
100
AcDbEntity
  8
002
 62
     3
100
AcDbCircle
 10
806.050559
 20
161.145754
 30
0.0
 40
2.0
100
AcDbArc
 50
270.0
 51
0.0
  0
ARC
  5
4B9
100
AcDbEntity
  8
002
 62
     3
100
AcDbCircle
 10
806.050559
 20
169.145754
 30
0.0
 40
2.0
100
AcDbArc
 50
0.0
 51
90.0
  0
LINE
  5
4BA
100
AcDbEntity
  8
002
 62
     3
100
AcDbLine
 10
808.050559
 20
161.145754
 30
0.0
 11
808.050559
 21
169.145754
 31
0.0
  0
LINE
  5
4BB
100
AcDbEntity
  8
002
 62
     3
100
AcDbLine
 10
224.530053
 20
239.645754
 30
0.0
 11
224.530053
 21
192.645754
 31
0.0
  0
LINE
  5
4BC
100
AcDbEntity
  8
002
 62
     3
100
AcDbLine
 10
224.530053
 20
192.645754
 30
0.0
 11
274.530053
 21
191.145754
 31
0.0
  0
LINE
  5
4BD
100
AcDbEntity
  8
002
 62
     3
100
AcDbLine
 10
274.530053
 20
191.145754
 30
0.0
 11
324.530053
 21
192.645754
 31
0.0
  0
LINE
  5
4BE
100
AcDbEntity
  8
002
 62
     3
100
AcDbLine
 10
324.530053
 20
192.645754
 30
0.0
 11
324.530053
 21
239.645754
 31
0.0
  0
LINE
  5
4BF
100
AcDbEntity
  8
002
 62
     3
100
AcDbLine
 10
324.530053
 20
239.645754
 30
0.0
 11
287.440053
 21
240.758454
 31
0.0
  0
LINE
  5
4C0
100
AcDbEntity
  8
002
 62
     3
100
AcDbLine
 10
284.530053
 20
243.757054
 30
0.0
 11
284.530053
 21
244.145754
 31
0.0
  0
LINE
  5
4C1
100
AcDbEntity
  8
002
 62
     3
100
AcDbLine
 10
284.530053
 20
244.145754
 30
0.0
 11
264.530053
 21
244.145754
 31
0.0
  0
LINE
  5
4C2
100
AcDbEntity
  8
002
 62
     3
100
AcDbLine
 10
264.530053
 20
244.145754
 30
0.0
 11
264.530053
 21
243.757054
 31
0.0
  0
ARC
  5
4C3
100
AcDbEntity
  8
002
 62
     3
100
AcDbCircle
 10
274.530053
 20
250.096054
 30
0.0
 40
13.622336
100
AcDbArc
 50
222.769752
 51
317.230248
  0
ARC
  5
4C4
100
AcDbEntity
  8
002
 62
     3
100
AcDbCircle
 10
287.530053
 20
243.757054
 30
0.0
 40
2.99995
100
AcDbArc
 50
180.0
 51
268.28084
  0
LINE
  5
4C5
100
AcDbEntity
  8
002
 62
     3
100
AcDbLine
 10
280.304053
 20
246.145754
 30
0.0
 11
280.304053
 21
249.145754
 31
0.0
  0
LINE
  5
4C6
100
AcDbEntity
  8
002
 62
     3
100
AcDbLine
 10
280.304053
 20
249.145754
 30
0.0
 11
277.390053
 21
252.059254
 31
0.0
  0
LINE
  5
4C7
100
AcDbEntity
  8
002
 62
     3
100
AcDbLine
 10
276.828053
 20
252.621754
 30
0.0
 11
272.233053
 21
252.621754
 31
0.0
  0
LINE
  5
4C8
100
AcDbEntity
  8
002
 62
     3
100
AcDbLine
 10
271.811053
 20
253.296354
 30
0.0
 11
271.280053
 21
254.145754
 31
0.0
  0
LINE
  5
4C9
100
AcDbEntity
  8
002
 62
     3
100
AcDbLine
 10
271.280053
 20
254.145754
 30
0.0
 11
272.030053
 21
257.145754
 31
0.0
  0
LINE
  5
4CA
100
AcDbEntity
  8
002
 62
     3
100
AcDbLine
 10
272.030053
 20
257.145754
 30
0.0
 11
277.030053
 21
257.145754
 31
0.0
  0
LINE
  5
4CB
100
AcDbEntity
  8
002
 62
     3
100
AcDbLine
 10
277.030053
 20
257.145754
 30
0.0
 11
277.780053
 21
254.145754
 31
0.0
  0
LINE
  5
4CC
100
AcDbEntity
  8
002
 62
     3
100
AcDbLine
 10
277.780053
 20
254.145754
 30
0.0
 11
277.249053
 21
253.296354
 31
0.0
  0
ARC
  5
4CD
100
AcDbEntity
  8
002
 62
     3
100
AcDbCircle
 10
278.097053
 20
252.766354
 30
0.0
 40
0.99992
100
AcDbArc
 50
147.994617
 51
225.004052
  0
LINE
  5
4CE
100
AcDbEntity
  8
002
 62
     3
100
AcDbLine
 10
277.030053
 20
254.145754
 30
0.0
 11
272.030053
 21
254.145754
 31
0.0
  0
LINE
  5
4CF
100
AcDbEntity
  8
002
 62
     3
100
AcDbLine
 10
237.030053
 20
256.145754
 30
0.0
 11
237.030053
 21
240.020754
 31
0.0
  0
LINE
  5
4D0
100
AcDbEntity
  8
002
 62
     3
100
AcDbLine
 10
237.030053
 20
246.145754
 30
0.0
 11
268.757053
 21
246.145754
 31
0.0
  0
LINE
  5
4D1
100
AcDbEntity
  8
002
 62
     3
100
AcDbLine
 10
268.757053
 20
246.145754
 30
0.0
 11
269.659053
 21
245.243054
 31
0.0
  0
ARC
  5
4D2
100
AcDbEntity
  8
002
 62
     3
100
AcDbCircle
 10
270.200053
 20
246.686454
 30
0.0
 40
1.540975
100
AcDbArc
 50
249.453526
 51
339.458751
  0
LINE
  5
4D3
100
AcDbEntity
  8
002
 62
     3
100
AcDbLine
 10
271.643053
 20
246.145754
 30
0.0
 11
271.643053
 21
249.145754
 31
0.0
  0
ARC
  5
4D4
100
AcDbEntity
  8
002
 62
     3
100
AcDbCircle
 10
270.200053
 20
248.605054
 30
0.0
 40
1.541455
100
AcDbArc
 50
20.541249
 51
110.546474
  0
LINE
  5
4D5
100
AcDbEntity
  8
002
 62
     3
100
AcDbLine
 10
268.757053
 20
249.145754
 30
0.0
 11
271.670053
 21
252.059254
 31
0.0
  0
ARC
  5
4D6
100
AcDbEntity
  8
002
 62
     3
100
AcDbCircle
 10
270.963053
 20
252.766354
 30
0.0
 40
1.000002
100
AcDbArc
 50
314.995948
 51
32.005383
  0
LINE
  5
4D7
100
AcDbEntity
  8
002
 62
     3
100
AcDbLine
 10
268.757053
 20
249.145754
 30
0.0
 11
268.757053
 21
246.145754
 31
0.0
  0
LINE
  5
4D8
100
AcDbEntity
  8
002
 62
     3
100
AcDbLine
 10
270.244053
 20
245.145754
 30
0.0
 11
278.816053
 21
245.145754
 31
0.0
  0
LINE
  5
4D9
100
AcDbEntity
  8
002
 62
     3
100
AcDbLine
 10
278.392053
 20
245.145754
 30
0.0
 11
278.392053
 21
244.145754
 31
0.0
  0
LINE
  5
4DA
100
AcDbEntity
  8
002
 62
     3
100
AcDbLine
 10
279.401053
 20
245.243054
 30
0.0
 11
280.304053
 21
246.145754
 31
0.0
  0
LINE
  5
4DB
100
AcDbEntity
  8
002
 62
     3
100
AcDbLine
 10
280.304053
 20
246.145754
 30
0.0
 11
312.030053
 21
246.145754
 31
0.0
  0
LINE
  5
4DC
100
AcDbEntity
  8
002
 62
     3
100
AcDbLine
 10
312.030053
 20
240.020754
 30
0.0
 11
312.030053
 21
256.145754
 31
0.0
  0
ARC
  5
4DD
100
AcDbEntity
  8
002
 62
     3
100
AcDbCircle
 10
274.530053
 20
256.484254
 30
0.0
 40
1.000041
100
AcDbArc
 50
41.412294
 51
138.587706
  0
LINE
  5
4DE
100
AcDbEntity
  8
002
 62
     3
100
AcDbLine
 10
277.417053
 20
249.145754
 30
0.0
 11
277.417053
 21
246.145754
 31
0.0
  0
ARC
  5
4DF
100
AcDbEntity
  8
002
 62
     3
100
AcDbCircle
 10
278.860053
 20
246.686454
 30
0.0
 40
1.541455
100
AcDbArc
 50
200.541249
 51
290.546474
  0
ARC
  5
4E0
100
AcDbEntity
  8
002
 62
     3
100
AcDbCircle
 10
274.530053
 20
245.479054
 30
0.0
 40
4.666847
100
AcDbArc
 50
51.784644
 51
128.215356
  0
ARC
  5
4E1
100
AcDbEntity
  8
002
 62
     3
100
AcDbCircle
 10
274.530053
 20
249.812354
 30
0.0
 40
4.666768
100
AcDbArc
 50
231.783884
 51
308.216116
  0
ARC
  5
4E2
100
AcDbEntity
  8
002
 62
     3
100
AcDbCircle
 10
278.860053
 20
248.605054
 30
0.0
 40
1.540975
100
AcDbArc
 50
69.453526
 51
159.458751
  0
LINE
  5
4E3
100
AcDbEntity
  8
002
 62
     3
100
AcDbLine
 10
270.669053
 20
245.145754
 30
0.0
 11
270.669053
 21
244.145754
 31
0.0
  0
LINE
  5
4E4
100
AcDbEntity
  8
002
 62
     3
100
AcDbLine
 10
261.620053
 20
240.758454
 30
0.0
 11
224.530053
 21
239.645754
 31
0.0
  0
LINE
  5
4E5
100
AcDbEntity
  8
002
 62
     3
100
AcDbLine
 10
247.030053
 20
233.645754
 30
0.0
 11
302.030053
 21
233.645754
 31
0.0
  0
LINE
  5
4E6
100
AcDbEntity
  8
002
 62
     3
100
AcDbLine
 10
302.030053
 20
233.645754
 30
0.0
 11
302.030053
 21
198.645754
 31
0.0
  0
LINE
  5
4E7
100
AcDbEntity
  8
002
 62
     3
100
AcDbLine
 10
302.030053
 20
198.645754
 30
0.0
 11
247.030053
 21
198.645754
 31
0.0
  0
LINE
  5
4E8
100
AcDbEntity
  8
002
 62
     3
100
AcDbLine
 10
247.030053
 20
198.645754
 30
0.0
 11
247.030053
 21
233.645754
 31
0.0
  0
ARC
  5
4E9
100
AcDbEntity
  8
002
 62
     3
100
AcDbCircle
 10
261.530053
 20
243.757054
 30
0.0
 40
3.0
100
AcDbArc
 50
271.71916
 51
0.0
  0
ARC
  5
4EA
100
AcDbEntity
  8
002
 62
     3
100
AcDbCircle
 10
208.530053
 20
183.258354
 30
0.0
 40
4.0
100
AcDbArc
 50
91.633141
 51
180.0
  0
LINE
  5
4EB
100
AcDbEntity
  8
002
 62
     3
100
AcDbLine
 10
204.530053
 20
183.258354
 30
0.0
 11
204.530053
 21
176.145754
 31
0.0
  0
LINE
  5
4EC
100
AcDbEntity
  8
002
 62
     3
100
AcDbLine
 10
204.530053
 20
176.145754
 30
0.0
 11
344.530053
 21
176.145754
 31
0.0
  0
LINE
  5
4ED
100
AcDbEntity
  8
002
 62
     3
100
AcDbLine
 10
344.530053
 20
176.145754
 30
0.0
 11
344.530053
 21
183.258354
 31
0.0
  0
ARC
  5
4EE
100
AcDbEntity
  8
002
 62
     3
100
AcDbCircle
 10
340.530053
 20
183.258354
 30
0.0
 40
4.000025
100
AcDbArc
 50
0.0
 51
88.366859
  0
LINE
  5
4EF
100
AcDbEntity
  8
002
 62
     3
100
AcDbLine
 10
340.644053
 20
187.256754
 30
0.0
 11
274.530053
 21
189.145754
 31
0.0
  0
LINE
  5
4F0
100
AcDbEntity
  8
002
 62
     3
100
AcDbLine
 10
274.530053
 20
189.145754
 30
0.0
 11
208.416053
 21
187.256754
 31
0.0
  0
ARC
  5
4F1
100
AcDbEntity
  8
002
 62
     3
100
AcDbCircle
 10
236.530053
 20
190.060854
 30
0.0
 40
2.0
100
AcDbArc
 50
271.633141
 51
0.0
  0
ARC
  5
4F2
100
AcDbEntity
  8
002
 62
     3
100
AcDbCircle
 10
236.530053
 20
190.284854
 30
0.0
 40
2.0
100
AcDbArc
 50
0.0
 51
88.280869
  0
ARC
  5
4F3
100
AcDbEntity
  8
002
 62
     3
100
AcDbCircle
 10
253.345053
 20
184.538754
 30
0.0
 40
4.0
100
AcDbArc
 50
139.328795
 51
180.0
  0
LINE
  5
4F4
100
AcDbEntity
  8
002
 62
     3
100
AcDbLine
 10
249.345053
 20
184.310254
 30
0.0
 11
249.345053
 21
176.145754
 31
0.0
  0
LINE
  5
4F5
100
AcDbEntity
  8
002
 62
     3
100
AcDbLine
 10
299.716053
 20
176.145754
 30
0.0
 11
299.716053
 21
184.310254
 31
0.0
  0
ARC
  5
4F6
100
AcDbEntity
  8
002
 62
     3
100
AcDbCircle
 10
295.716053
 20
184.538754
 30
0.0
 40
3.999442
100
AcDbArc
 50
0.0
 51
40.680542
  0
ARC
  5
4F7
100
AcDbEntity
  8
002
 62
     3
100
AcDbCircle
 10
303.716053
 20
184.310254
 30
0.0
 40
4.0
100
AcDbArc
 50
134.86328
 51
180.0
  0
ARC
  5
4F8
100
AcDbEntity
  8
002
 62
     3
100
AcDbCircle
 10
312.530053
 20
190.060854
 30
0.0
 40
2.000012
100
AcDbArc
 50
180.0
 51
268.366859
  0
ARC
  5
4F9
100
AcDbEntity
  8
002
 62
     3
100
AcDbCircle
 10
312.530053
 20
190.284854
 30
0.0
 40
2.0
100
AcDbArc
 50
91.719131
 51
180.0
  0
ARC
  5
4FA
100
AcDbEntity
  8
002
 62
     3
100
AcDbCircle
 10
245.345053
 20
184.310254
 30
0.0
 40
3.999763
100
AcDbArc
 50
0.0
 51
45.146873
  0
LINE
  5
4FB
100
AcDbEntity
  8
003
  6
CENTER
 62
     9
100
AcDbLine
 10
274.530053
 20
62.499554
 30
0.0
 11
274.530053
 21
451.945854
 31
0.0
  0
LINE
  5
4FC
100
AcDbEntity
  8
003
  6
CENTER
 62
     9
100
AcDbLine
 10
334.530053
 20
192.344054
 30
0.0
 11
334.530053
 21
171.953854
 31
0.0
  0
LINE
  5
4FD
100
AcDbEntity
  8
003
  6
HIDDEN
 62
     9
100
AcDbLine
 10
340.030053
 20
176.145754
 30
0.0
 11
340.030053
 21
186.145754
 31
0.0
  0
LINE
  5
4FE
100
AcDbEntity
  8
003
  6
HIDDEN
 62
     9
100
AcDbLine
 10
343.298053
 20
186.145754
 30
0.0
 11
322.530053
 21
186.145754
 31
0.0
  0
LINE
  5
4FF
100
AcDbEntity
  8
003
  6
HIDDEN
 62
     9
100
AcDbLine
 10
322.530053
 20
186.145754
 30
0.0
 11
322.530053
 21
187.774254
 31
0.0
  0
LINE
  5
500
100
AcDbEntity
  8
003
  6
HIDDEN
 62
     9
100
AcDbLine
 10
329.030053
 20
186.145754
 30
0.0
 11
329.030053
 21
176.145754
 31
0.0
  0
LINE
  5
501
100
AcDbEntity
  8
003
  6
HIDDEN
 62
     9
100
AcDbLine
 10
226.530053
 20
186.145754
 30
0.0
 11
205.762053
 21
186.145754
 31
0.0
  0
LINE
  5
502
100
AcDbEntity
  8
003
  6
HIDDEN
 62
     9
100
AcDbLine
 10
209.030053
 20
186.145754
 30
0.0
 11
209.030053
 21
176.145754
 31
0.0
  0
LINE
  5
503
100
AcDbEntity
  8
003
  6
CENTER
 62
     9
100
AcDbLine
 10
214.530053
 20
171.953854
 30
0.0
 11
214.530053
 21
192.344054
 31
0.0
  0
LINE
  5
504
100
AcDbEntity
  8
003
  6
HIDDEN
 62
     9
100
AcDbLine
 10
220.030053
 20
186.145754
 30
0.0
 11
220.030053
 21
176.145754
 31
0.0
  0
LINE
  5
505
100
AcDbEntity
  8
003
  6
HIDDEN
 62
     9
100
AcDbLine
 10
226.530053
 20
186.145754
 30
0.0
 11
226.530053
 21
187.774254
 31
0.0
  0
LINE
  5
506
100
AcDbEntity
  8
002
 62
     3
100
AcDbLine
 10
245.530053
 20
313.145754
 30
0.0
 11
303.530053
 21
313.145754
 31
0.0
  0
LINE
  5
507
100
AcDbEntity
  8
002
 62
     3
100
AcDbLine
 10
303.530053
 20
313.145754
 30
0.0
 11
303.530053
 21
262.145754
 31
0.0
  0
LINE
  5
508
100
AcDbEntity
  8
002
 62
     3
100
AcDbLine
 10
304.278753
 20
262.145754
 30
0.0
 11
294.278753
 21
262.145754
 31
0.0
  0
LINE
  5
509
100
AcDbEntity
  8
002
 62
     3
100
AcDbLine
 10
304.278753
 20
262.145754
 30
0.0
 11
304.278753
 21
256.145754
 31
0.0
  0
LINE
  5
50A
100
AcDbEntity
  8
002
 62
     3
100
AcDbLine
 10
294.278753
 20
262.145754
 30
0.0
 11
294.278753
 21
256.145754
 31
0.0
  0
LINE
  5
50B
100
AcDbEntity
  8
002
 62
     3
100
AcDbLine
 10
312.030053
 20
256.145754
 30
0.0
 11
237.030053
 21
256.145754
 31
0.0
  0
LINE
  5
50C
100
AcDbEntity
  8
002
 62
     3
100
AcDbLine
 10
244.781253
 20
256.145754
 30
0.0
 11
244.781253
 21
262.145754
 31
0.0
  0
LINE
  5
50D
100
AcDbEntity
  8
002
 62
     3
100
AcDbLine
 10
244.781253
 20
262.145754
 30
0.0
 11
254.781253
 21
262.145754
 31
0.0
  0
LINE
  5
50E
100
AcDbEntity
  8
002
 62
     3
100
AcDbLine
 10
245.530053
 20
262.145754
 30
0.0
 11
245.530053
 21
313.145754
 31
0.0
  0
LINE
  5
50F
100
AcDbEntity
  8
002
 62
     3
100
AcDbLine
 10
254.781253
 20
262.145754
 30
0.0
 11
254.781253
 21
256.145754
 31
0.0
  0
LINE
  5
510
100
AcDbEntity
  8
002
  6
CENTER
 62
     9
100
AcDbLine
 10
249.781253
 20
266.645754
 30
0.0
 11
249.781253
 21
240.312054
 31
0.0
  0
LINE
  5
511
100
AcDbEntity
  8
002
  6
CENTER
 62
     9
100
AcDbLine
 10
299.278753
 20
240.312054
 30
0.0
 11
299.278753
 21
266.645754
 31
0.0
  0
LINE
  5
512
100
AcDbEntity
  8
002
 62
     3
100
AcDbLine
 10
281.530053
 20
426.445754
 30
0.0
 11
281.530053
 21
409.445754
 31
0.0
  0
LINE
  5
513
100
AcDbEntity
  8
002
 62
     3
100
AcDbLine
 10
281.530053
 20
409.445754
 30
0.0
 11
267.530053
 21
409.445754
 31
0.0
  0
LINE
  5
514
100
AcDbEntity
  8
002
 62
     3
100
AcDbLine
 10
267.530053
 20
426.445754
 30
0.0
 11
267.530053
 21
409.445754
 31
0.0
  0
LINE
  5
515
100
AcDbEntity
  8
002
 62
     3
100
AcDbLine
 10
281.530053
 20
426.445754
 30
0.0
 11
267.530053
 21
426.445754
 31
0.0
  0
LINE
  5
516
100
AcDbEntity
  8
002
 62
     3
100
AcDbLine
 10
280.380053
 20
409.445754
 30
0.0
 11
280.380053
 21
406.445754
 31
0.0
  0
LINE
  5
517
100
AcDbEntity
  8
002
 62
     3
100
AcDbLine
 10
264.530353
 20
406.445754
 30
0.0
 11
284.530353
 21
406.445754
 31
0.0
  0
LINE
  5
518
100
AcDbEntity
  8
002
 62
     3
100
AcDbLine
 10
264.530353
 20
406.445754
 30
0.0
 11
264.530353
 21
313.145754
 31
0.0
  0
LINE
  5
519
100
AcDbEntity
  8
002
 62
     3
100
AcDbLine
 10
284.530353
 20
406.445754
 30
0.0
 11
284.530353
 21
313.145754
 31
0.0
  0
LINE
  5
51A
100
AcDbEntity
  8
002
 62
     3
100
AcDbLine
 10
268.680053
 20
406.445754
 30
0.0
 11
268.680053
 21
409.445754
 31
0.0
  0
LINE
  5
51B
100
AcDbEntity
  8
002
 62
     9
100
AcDbLine
 10
265.760353
 20
313.145754
 30
0.0
 11
265.760353
 21
406.445754
 31
0.0
  0
LINE
  5
51C
100
AcDbEntity
  8
002
 62
     9
100
AcDbLine
 10
283.300353
 20
406.445754
 30
0.0
 11
283.300353
 21
313.145754
 31
0.0
  0
LINE
  5
51D
100
AcDbEntity
  8
002
 62
     9
100
AcDbLine
 10
268.580053
 20
426.445754
 30
0.0
 11
268.580053
 21
409.445754
 31
0.0
  0
LINE
  5
51E
100
AcDbEntity
  8
002
 62
     9
100
AcDbLine
 10
280.480053
 20
409.445754
 30
0.0
 11
280.480053
 21
426.445754
 31
0.0
  0
ARC
  5
51F
100
AcDbEntity
  8
002
 62
     3
100
AcDbCircle
 10
233.191553
 20
293.645754
 30
0.0
 40
1.000041
100
AcDbArc
 50
131.412294
 51
228.587706
  0
LINE
  5
520
100
AcDbEntity
  8
002
 62
     3
100
AcDbLine
 10
232.530053
 20
296.145754
 30
0.0
 11
232.530053
 21
291.145754
 31
0.0
  0
LINE
  5
521
100
AcDbEntity
  8
002
 62
     3
100
AcDbLine
 10
232.530053
 20
291.145754
 30
0.0
 11
235.530053
 21
290.395754
 31
0.0
  0
LINE
  5
522
100
AcDbEntity
  8
002
 62
     3
100
AcDbLine
 10
235.530053
 20
296.895754
 30
0.0
 11
232.530053
 21
296.145754
 31
0.0
  0
LINE
  5
523
100
AcDbEntity
  8
002
 62
     3
100
AcDbLine
 10
236.379453
 20
296.364854
 30
0.0
 11
235.530053
 21
296.895754
 31
0.0
  0
LINE
  5
524
100
AcDbEntity
  8
002
 62
     3
100
AcDbLine
 10
235.530053
 20
291.145754
 30
0.0
 11
235.530053
 21
296.145754
 31
0.0
  0
ARC
  5
525
100
AcDbEntity
  8
002
 62
     3
100
AcDbCircle
 10
236.909453
 20
297.212854
 30
0.0
 40
1.000002
100
AcDbArc
 50
237.994617
 51
315.0
  0
LINE
  5
526
100
AcDbEntity
  8
002
 62
     3
100
AcDbLine
 10
237.054053
 20
291.348254
 30
0.0
 11
237.054053
 21
295.943254
 31
0.0
  0
LINE
  5
527
100
AcDbEntity
  8
002
 62
     3
100
AcDbLine
 10
237.616553
 20
296.505754
 30
0.0
 11
240.530053
 21
298.645754
 31
0.0
  0
LINE
  5
528
100
AcDbEntity
  8
002
 62
     3
100
AcDbLine
 10
235.530053
 20
290.395754
 30
0.0
 11
236.379453
 21
290.926654
 31
0.0
  0
LINE
  5
529
100
AcDbEntity
  8
002
 62
     3
100
AcDbLine
 10
240.530053
 20
288.645754
 30
0.0
 11
237.616553
 21
290.785754
 31
0.0
  0
ARC
  5
52A
100
AcDbEntity
  8
002
 62
     3
100
AcDbCircle
 10
236.909453
 20
290.078654
 30
0.0
 40
0.99999
100
AcDbArc
 50
45.0
 51
122.005383
  0
ARC
  5
52B
100
AcDbEntity
  8
002
 62
     3
100
AcDbCircle
 10
243.155053
 20
291.145754
 30
0.0
 40
3.625
100
AcDbArc
 50
136.397181
 51
223.602819
  0
ARC
  5
52C
100
AcDbEntity
  8
002
 62
     3
100
AcDbCircle
 10
243.155053
 20
296.145754
 30
0.0
 40
3.625
100
AcDbArc
 50
136.397181
 51
223.602819
  0
LINE
  5
52D
100
AcDbEntity
  8
002
 62
     3
100
AcDbLine
 10
240.530053
 20
298.645754
 30
0.0
 11
243.530053
 21
298.645754
 31
0.0
  0
ARC
  5
52E
100
AcDbEntity
  8
002
 62
     3
100
AcDbCircle
 10
240.905053
 20
296.145754
 30
0.0
 40
3.625
100
AcDbArc
 50
316.397181
 51
43.602819
  0
LINE
  5
52F
100
AcDbEntity
  8
002
 62
     3
100
AcDbLine
 10
243.530053
 20
298.645754
 30
0.0
 11
244.530053
 21
297.645754
 31
0.0
  0
LINE
  5
530
100
AcDbEntity
  8
002
 62
     3
100
AcDbLine
 10
244.530053
 20
297.645754
 30
0.0
 11
244.530053
 21
289.645754
 31
0.0
  0
ARC
  5
531
100
AcDbEntity
  8
002
 62
     3
100
AcDbCircle
 10
240.905053
 20
291.145754
 30
0.0
 40
3.625
100
AcDbArc
 50
316.397181
 51
43.602819
  0
LINE
  5
532
100
AcDbEntity
  8
002
 62
     3
100
AcDbLine
 10
244.530053
 20
289.645754
 30
0.0
 11
243.530053
 21
288.645754
 31
0.0
  0
LINE
  5
533
100
AcDbEntity
  8
002
 62
     3
100
AcDbLine
 10
243.530053
 20
288.645754
 30
0.0
 11
240.530053
 21
288.645754
 31
0.0
  0
LINE
  5
534
100
AcDbEntity
  8
002
 62
     3
100
AcDbLine
 10
240.530053
 20
293.645754
 30
0.0
 11
243.530053
 21
293.645754
 31
0.0
  0
LINE
  5
535
100
AcDbEntity
  8
002
 62
     3
100
AcDbLine
 10
244.530053
 20
297.507254
 30
0.0
 11
245.530053
 21
297.507254
 31
0.0
  0
LINE
  5
536
100
AcDbEntity
  8
002
 62
     3
100
AcDbLine
 10
245.530053
 20
289.784254
 30
0.0
 11
244.530053
 21
289.784254
 31
0.0
  0
LINE
  5
537
100
AcDbEntity
  8
002
  6
CENTER
 62
     9
100
AcDbLine
 10
247.627593
 20
293.645754
 30
0.0
 11
231.244946
 21
293.645754
 31
0.0
  0
ARC
  5
538
100
AcDbEntity
  8
002
 62
     3
100
AcDbCircle
 10
315.868553
 20
293.645754
 30
0.0
 40
1.000041
100
AcDbArc
 50
311.412294
 51
48.587706
  0
LINE
  5
539
100
AcDbEntity
  8
002
 62
     3
100
AcDbLine
 10
316.530053
 20
296.145754
 30
0.0
 11
316.530053
 21
291.145754
 31
0.0
  0
LINE
  5
53A
100
AcDbEntity
  8
002
 62
     3
100
AcDbLine
 10
316.530053
 20
291.145754
 30
0.0
 11
313.530053
 21
290.395754
 31
0.0
  0
LINE
  5
53B
100
AcDbEntity
  8
002
 62
     3
100
AcDbLine
 10
313.530053
 20
296.895754
 30
0.0
 11
316.530053
 21
296.145754
 31
0.0
  0
LINE
  5
53C
100
AcDbEntity
  8
002
 62
     3
100
AcDbLine
 10
312.680653
 20
296.364854
 30
0.0
 11
313.530053
 21
296.895754
 31
0.0
  0
LINE
  5
53D
100
AcDbEntity
  8
002
 62
     3
100
AcDbLine
 10
313.530053
 20
291.145754
 30
0.0
 11
313.530053
 21
296.145754
 31
0.0
  0
ARC
  5
53E
100
AcDbEntity
  8
002
 62
     3
100
AcDbCircle
 10
312.150653
 20
297.212854
 30
0.0
 40
1.000002
100
AcDbArc
 50
225.0
 51
302.005383
  0
LINE
  5
53F
100
AcDbEntity
  8
002
 62
     3
100
AcDbLine
 10
312.006053
 20
291.348254
 30
0.0
 11
312.006053
 21
295.943254
 31
0.0
  0
LINE
  5
540
100
AcDbEntity
  8
002
 62
     3
100
AcDbLine
 10
311.443553
 20
296.505754
 30
0.0
 11
308.530053
 21
298.645754
 31
0.0
  0
LINE
  5
541
100
AcDbEntity
  8
002
 62
     3
100
AcDbLine
 10
313.530053
 20
290.395754
 30
0.0
 11
312.680653
 21
290.926654
 31
0.0
  0
LINE
  5
542
100
AcDbEntity
  8
002
 62
     3
100
AcDbLine
 10
308.530053
 20
288.645754
 30
0.0
 11
311.443553
 21
290.785754
 31
0.0
  0
ARC
  5
543
100
AcDbEntity
  8
002
 62
     3
100
AcDbCircle
 10
312.150653
 20
290.078654
 30
0.0
 40
0.99999
100
AcDbArc
 50
57.994617
 51
135.0
  0
ARC
  5
544
100
AcDbEntity
  8
002
 62
     3
100
AcDbCircle
 10
305.905053
 20
291.145754
 30
0.0
 40
3.625
100
AcDbArc
 50
316.397181
 51
43.602819
  0
ARC
  5
545
100
AcDbEntity
  8
002
 62
     3
100
AcDbCircle
 10
305.905053
 20
296.145754
 30
0.0
 40
3.625
100
AcDbArc
 50
316.397181
 51
43.602819
  0
LINE
  5
546
100
AcDbEntity
  8
002
 62
     3
100
AcDbLine
 10
308.530053
 20
298.645754
 30
0.0
 11
305.530053
 21
298.645754
 31
0.0
  0
ARC
  5
547
100
AcDbEntity
  8
002
 62
     3
100
AcDbCircle
 10
308.155053
 20
296.145754
 30
0.0
 40
3.625
100
AcDbArc
 50
136.397181
 51
223.602819
  0
LINE
  5
548
100
AcDbEntity
  8
002
 62
     3
100
AcDbLine
 10
305.530053
 20
298.645754
 30
0.0
 11
304.530053
 21
297.645754
 31
0.0
  0
LINE
  5
549
100
AcDbEntity
  8
002
 62
     3
100
AcDbLine
 10
304.530053
 20
297.645754
 30
0.0
 11
304.530053
 21
289.645754
 31
0.0
  0
ARC
  5
54A
100
AcDbEntity
  8
002
 62
     3
100
AcDbCircle
 10
308.155053
 20
291.145754
 30
0.0
 40
3.625
100
AcDbArc
 50
136.397181
 51
223.602819
  0
LINE
  5
54B
100
AcDbEntity
  8
002
 62
     3
100
AcDbLine
 10
304.530053
 20
289.645754
 30
0.0
 11
305.530053
 21
288.645754
 31
0.0
  0
LINE
  5
54C
100
AcDbEntity
  8
002
 62
     3
100
AcDbLine
 10
305.530053
 20
288.645754
 30
0.0
 11
308.530053
 21
288.645754
 31
0.0
  0
LINE
  5
54D
100
AcDbEntity
  8
002
 62
     3
100
AcDbLine
 10
308.530053
 20
293.645754
 30
0.0
 11
305.530053
 21
293.645754
 31
0.0
  0
LINE
  5
54E
100
AcDbEntity
  8
002
 62
     3
100
AcDbLine
 10
304.530053
 20
297.507254
 30
0.0
 11
303.530053
 21
297.507254
 31
0.0
  0
LINE
  5
54F
100
AcDbEntity
  8
002
 62
     3
100
AcDbLine
 10
303.530053
 20
289.784254
 30
0.0
 11
304.530053
 21
289.784254
 31
0.0
  0
LINE
  5
550
100
AcDbEntity
  8
002
  6
CENTER
 62
     9
100
AcDbLine
 10
301.432514
 20
293.645754
 30
0.0
 11
317.815161
 21
293.645754
 31
0.0
  0
LINE
  5
551
100
AcDbEntity
  8
002
 62
     3
100
AcDbLine
 10
189.530353
 20
222.645754
 30
0.0
 11
189.530353
 21
209.645754
 31
0.0
  0
LINE
  5
552
100
AcDbEntity
  8
002
 62
     3
100
AcDbLine
 10
189.530353
 20
209.645754
 30
0.0
 11
190.530353
 21
208.645754
 31
0.0
  0
LINE
  5
553
100
AcDbEntity
  8
002
 62
     3
100
AcDbLine
 10
190.530353
 20
208.645754
 30
0.0
 11
222.530353
 21
208.645754
 31
0.0
  0
LINE
  5
554
100
AcDbEntity
  8
002
 62
     3
100
AcDbLine
 10
222.530353
 20
224.645754
 30
0.0
 11
222.530353
 21
207.645754
 31
0.0
  0
LINE
  5
555
100
AcDbEntity
  8
002
 62
     3
100
AcDbLine
 10
222.530353
 20
223.645754
 30
0.0
 11
190.530353
 21
223.645754
 31
0.0
  0
LINE
  5
556
100
AcDbEntity
  8
002
 62
     3
100
AcDbLine
 10
190.530353
 20
223.645754
 30
0.0
 11
189.530353
 21
222.645754
 31
0.0
  0
LINE
  5
557
100
AcDbEntity
  8
002
 62
     3
100
AcDbLine
 10
190.530353
 20
223.645754
 30
0.0
 11
190.530353
 21
218.645754
 31
0.0
  0
LINE
  5
558
100
AcDbEntity
  8
002
 62
     3
100
AcDbLine
 10
189.530353
 20
218.645754
 30
0.0
 11
217.030353
 21
218.645754
 31
0.0
  0
LINE
  5
559
100
AcDbEntity
  8
002
 62
     3
100
AcDbLine
 10
217.030353
 20
213.645754
 30
0.0
 11
189.530353
 21
213.645754
 31
0.0
  0
LINE
  5
55A
100
AcDbEntity
  8
002
 62
     3
100
AcDbLine
 10
190.530353
 20
213.645754
 30
0.0
 11
190.530353
 21
208.645754
 31
0.0
  0
LINE
  5
55B
100
AcDbEntity
  8
002
 62
     3
100
AcDbLine
 10
211.530353
 20
213.645754
 30
0.0
 11
211.530353
 21
218.645754
 31
0.0
  0
ARC
  5
55C
100
AcDbEntity
  8
002
 62
     3
100
AcDbCircle
 10
217.030353
 20
216.145754
 30
0.0
 40
2.5
100
AcDbArc
 50
270.0
 51
90.0
  0
LINE
  5
55D
100
AcDbEntity
  8
002
 62
     3
100
AcDbLine
 10
222.530353
 20
224.645754
 30
0.0
 11
224.530353
 21
224.645754
 31
0.0
  0
LINE
  5
55E
100
AcDbEntity
  8
002
 62
     3
100
AcDbLine
 10
222.530353
 20
207.645754
 30
0.0
 11
224.530353
 21
207.645754
 31
0.0
  0
LINE
  5
55F
100
AcDbEntity
  8
002
 62
     3
100
AcDbLine
 10
359.529753
 20
222.645754
 30
0.0
 11
359.529753
 21
209.645754
 31
0.0
  0
LINE
  5
560
100
AcDbEntity
  8
002
 62
     3
100
AcDbLine
 10
359.529753
 20
209.645754
 30
0.0
 11
358.529753
 21
208.645754
 31
0.0
  0
LINE
  5
561
100
AcDbEntity
  8
002
 62
     3
100
AcDbLine
 10
358.529753
 20
208.645754
 30
0.0
 11
326.529753
 21
208.645754
 31
0.0
  0
LINE
  5
562
100
AcDbEntity
  8
002
 62
     3
100
AcDbLine
 10
326.529753
 20
224.645754
 30
0.0
 11
326.529753
 21
207.645754
 31
0.0
  0
LINE
  5
563
100
AcDbEntity
  8
002
 62
     3
100
AcDbLine
 10
326.529753
 20
223.645754
 30
0.0
 11
358.529753
 21
223.645754
 31
0.0
  0
LINE
  5
564
100
AcDbEntity
  8
002
 62
     3
100
AcDbLine
 10
358.529753
 20
223.645754
 30
0.0
 11
359.529753
 21
222.645754
 31
0.0
  0
LINE
  5
565
100
AcDbEntity
  8
002
 62
     3
100
AcDbLine
 10
358.529753
 20
223.645754
 30
0.0
 11
358.529753
 21
218.645754
 31
0.0
  0
LINE
  5
566
100
AcDbEntity
  8
002
 62
     3
100
AcDbLine
 10
359.529753
 20
218.645754
 30
0.0
 11
332.029753
 21
218.645754
 31
0.0
  0
LINE
  5
567
100
AcDbEntity
  8
002
 62
     3
100
AcDbLine
 10
332.029753
 20
213.645754
 30
0.0
 11
359.529753
 21
213.645754
 31
0.0
  0
LINE
  5
568
100
AcDbEntity
  8
002
 62
     3
100
AcDbLine
 10
358.529753
 20
213.645754
 30
0.0
 11
358.529753
 21
208.645754
 31
0.0
  0
LINE
  5
569
100
AcDbEntity
  8
002
 62
     3
100
AcDbLine
 10
337.529753
 20
213.645754
 30
0.0
 11
337.529753
 21
218.645754
 31
0.0
  0
ARC
  5
56A
100
AcDbEntity
  8
002
 62
     3
100
AcDbCircle
 10
332.029753
 20
216.145754
 30
0.0
 40
2.5
100
AcDbArc
 50
90.0
 51
270.0
  0
LINE
  5
56B
100
AcDbEntity
  8
002
 62
     3
100
AcDbLine
 10
326.529753
 20
224.645754
 30
0.0
 11
324.529753
 21
224.645754
 31
0.0
  0
LINE
  5
56C
100
AcDbEntity
  8
002
 62
     3
100
AcDbLine
 10
326.529753
 20
207.645754
 30
0.0
 11
324.529753
 21
207.645754
 31
0.0
  0
LINE
  5
56D
100
AcDbEntity
  8
003
  6
CENTER
 62
     9
100
AcDbLine
 10
179.529153
 20
216.145754
 30
0.0
 11
368.603662
 21
216.145754
 31
0.0
  0
LINE
  5
56E
100
AcDbEntity
  8
002
 62
     3
100
AcDbLine
 10
262.870153
 20
172.145754
 30
0.0
 11
262.870153
 21
167.145754
 31
0.0
  0
LINE
  5
56F
100
AcDbEntity
  8
002
 62
     3
100
AcDbLine
 10
254.370153
 20
167.145754
 30
0.0
 11
254.370153
 21
172.145754
 31
0.0
  0
LINE
  5
570
100
AcDbEntity
  8
002
 62
     3
100
AcDbLine
 10
253.976653
 20
169.189354
 30
0.0
 11
254.530053
 21
131.145754
 31
0.0
  0
LINE
  5
571
100
AcDbEntity
  8
002
 62
     3
100
AcDbLine
 10
254.530053
 20
131.145754
 30
0.0
 11
294.530053
 21
131.145754
 31
0.0
  0
LINE
  5
572
100
AcDbEntity
  8
002
 62
     3
100
AcDbLine
 10
294.530053
 20
131.145754
 30
0.0
 11
295.083353
 21
169.189354
 31
0.0
  0
LINE
  5
573
100
AcDbEntity
  8
002
 62
     3
100
AcDbLine
 10
286.189953
 20
167.145754
 30
0.0
 11
286.189953
 21
172.145754
 31
0.0
  0
LINE
  5
574
100
AcDbEntity
  8
002
 62
     3
100
AcDbLine
 10
247.030053
 20
176.145754
 30
0.0
 11
247.030053
 21
172.145754
 31
0.0
  0
LINE
  5
575
100
AcDbEntity
  8
002
 62
     3
100
AcDbLine
 10
247.030053
 20
172.145754
 30
0.0
 11
302.030053
 21
172.145754
 31
0.0
  0
LINE
  5
576
100
AcDbEntity
  8
002
 62
     3
100
AcDbLine
 10
302.030053
 20
172.145754
 30
0.0
 11
302.030053
 21
176.145754
 31
0.0
  0
ARC
  5
577
100
AcDbEntity
  8
002
 62
     3
100
AcDbCircle
 10
298.083053
 20
169.145754
 30
0.0
 40
3.000017
100
AcDbArc
 50
90.0
 51
179.167277
  0
LINE
  5
578
100
AcDbEntity
  8
002
 62
     3
100
AcDbLine
 10
294.689953
 20
167.145754
 30
0.0
 11
294.689953
 21
172.145754
 31
0.0
  0
LINE
  5
579
100
AcDbEntity
  8
002
 62
     3
100
AcDbLine
 10
294.689953
 20
167.145754
 30
0.0
 11
286.189953
 21
167.145754
 31
0.0
  0
LINE
  5
57A
100
AcDbEntity
  8
002
 62
     3
100
AcDbLine
 10
262.870153
 20
167.145754
 30
0.0
 11
254.370153
 21
167.145754
 31
0.0
  0
ARC
  5
57B
100
AcDbEntity
  8
002
 62
     3
100
AcDbCircle
 10
250.976953
 20
169.145754
 30
0.0
 40
3.0
100
AcDbArc
 50
0.832723
 51
90.0
  0
LINE
  5
57C
100
AcDbEntity
  8
002
  6
CENTER
 62
     9
100
AcDbLine
 10
258.620153
 20
178.145754
 30
0.0
 11
258.620153
 21
164.424154
 31
0.0
  0
LINE
  5
57D
100
AcDbEntity
  8
002
  6
CENTER
 62
     9
100
AcDbLine
 10
290.439953
 20
164.424154
 30
0.0
 11
290.439953
 21
178.145754
 31
0.0
  0
LINE
  5
57E
100
AcDbEntity
  8
002
 62
     3
100
AcDbLine
 10
256.530053
 20
76.145754
 30
0.0
 11
292.530053
 21
76.145754
 31
0.0
  0
LINE
  5
57F
100
AcDbEntity
  8
002
 62
     3
100
AcDbLine
 10
292.530053
 20
76.145754
 30
0.0
 11
292.530053
 21
59.145754
 31
0.0
  0
LINE
  5
580
100
AcDbEntity
  8
002
 62
     3
100
AcDbLine
 10
289.530053
 20
56.145754
 30
0.0
 11
259.530053
 21
56.145754
 31
0.0
  0
LINE
  5
581
100
AcDbEntity
  8
002
 62
     3
100
AcDbLine
 10
256.530053
 20
59.145754
 30
0.0
 11
256.530053
 21
76.145754
 31
0.0
  0
ARC
  5
582
100
AcDbEntity
  8
002
 62
     3
100
AcDbCircle
 10
259.530053
 20
59.145754
 30
0.0
 40
3.0
100
AcDbArc
 50
180.0
 51
270.0
  0
ARC
  5
583
100
AcDbEntity
  8
002
 62
     3
100
AcDbCircle
 10
289.530053
 20
59.145754
 30
0.0
 40
3.0
100
AcDbArc
 50
270.0
 51
0.0
  0
LINE
  5
584
100
AcDbEntity
  8
002
 62
     3
100
AcDbLine
 10
258.530053
 20
131.145754
 30
0.0
 11
258.530053
 21
76.145754
 31
0.0
  0
LINE
  5
585
100
AcDbEntity
  8
002
 62
     3
100
AcDbLine
 10
290.530053
 20
76.145754
 30
0.0
 11
290.530053
 21
131.145754
 31
0.0
  0
ENDSEC
  0
SECTION
  2
OBJECTS
  0
DICTIONARY
  5
19
100
AcDbDictionary
280
     0
281
     1
  3
ACAD_GROUP
350
1A
  3
ACAD_MLINESTYLE
350
1B
  3
ACAD_LAYOUT
350
1E
  3
ACAD_PLOTSETTINGS
350
22
  3
ACAD_PLOTSTYLENAME
350
1F
  3
ACAD_WIPEOUT_VARS
350
23
  0
DICTIONARY
  5
1A
102
{ACAD_REACTORS
330
19
102
}
100
AcDbDictionary
280
     0
281
     1
  0
DICTIONARY
  5
1B
102
{ACAD_REACTORS
330
19
102
}
100
AcDbDictionary
280
     0
281
     1
  3
Standard
350
1C
  0
MLINESTYLE
  5
1C
102
{ACAD_REACTORS
330
1B
102
}
100
AcDbMlineStyle
  2
Standard
 70
     0
  3

 62
     0
 51
90.0
 52
90.0
 71
     2
 49
0.5
 62
   256
  6
BYLAYER
 49
-0.5
 62
   256
  6
BYLAYER
  0
ACDBDICTIONARYWDFLT
  5
1F
102
{ACAD_REACTORS
330
19
102
}
100
AcDbDictionary
281
     1
  3
Normal
350
1D
100
AcDbDictionaryWithDefault
340
1D
  0
ACDBPLACEHOLDER
  5
1D
102
{ACAD_REACTORS
330
1F
102
}
  0
LAYOUT
  5
20
102
{ACAD_REACTORS
330
1E
102
}
100
AcDbPlotSettings
  1

  2

  4

  6

 40
0.0
 41
0.0
 42
0.0
 43
0.0
 44
0.0
 45
0.0
 46
0.0
 47
0.0
 48
0.0
 49
0.0
140
0.0
141
0.0
142
1.0
143
1.0
 70
  1024
 72
     0
 73
     0
 74
     0
  7

 75
     0
147
1.0
148
0.0
149
0.0
100
AcDbLayout
  1
Model
 70
     0
 71
     0
 10
0.0
 20
0.0
 11
0.0
 21
0.0
 12
0.0
 22
0.0
 32
0.0
 14
0.0
 24
0.0
 34
0.0
 15
0.0
 25
0.0
 35
0.0
146
0.0
 13
0.0
 23
0.0
 33
0.0
 16
0.0
 26
0.0
 36
0.0
 17
0.0
 27
0.0
 37
0.0
 76
     0
330
A
331
0
345
0
346
0
  0
LAYOUT
  5
21
102
{ACAD_REACTORS
330
1E
102
}
100
AcDbPlotSettings
  1

  2

  4

  6

 40
0.0
 41
0.0
 42
0.0
 43
0.0
 44
0.0
 45
0.0
 46
0.0
 47
0.0
 48
0.0
 49
0.0
140
0.0
141
0.0
142
1.0
143
1.0
 70
     0
 72
     0
 73
     0
 74
     0
  7

 75
     0
147
1.0
148
0.0
149
0.0
100
AcDbLayout
  1
Layout1
 70
     0
 71
     0
 10
0.0
 20
0.0
 11
0.0
 21
0.0
 12
0.0
 22
0.0
 32
0.0
 14
0.0
 24
0.0
 34
0.0
 15
0.0
 25
0.0
 35
0.0
146
0.0
 13
0.0
 23
0.0
 33
0.0
 16
0.0
 26
0.0
 36
0.0
 17
0.0
 27
0.0
 37
0.0
 76
     0
330
B
331
0
345
0
346
0
  0
DICTIONARY
  5
1E
102
{ACAD_REACTORS
330
19
102
}
100
AcDbDictionary
280
     0
281
     1
  3
Layout1
350
21
  3
Model
350
20
  0
DICTIONARY
  5
22
102
{ACAD_REACTORS
330
19
102
}
100
AcDbDictionary
280
     0
281
     1
  0
WIPEOUTVARIABLES
  5
23
100
AcDbWipeoutVariables
 70
     1
  0
ENDSEC
  0
EOF
