  0
SECTION
  2
HEADER
  9
$ACADVER
  1
AC1015
  9
$ACADMAINTVER
 70
     6
  9
$DWGCODEPAGE
  3
DOS932
  9
$INSBASE
 10
0.0
 20
0.0
 30
0.0
  9
$EXTMIN
 10
163.25946
 20
6.120789
 30
1.000000E+20
  9
$EXTMAX
 10
956.267883
 20
902.949158
 30
-1.000000E+20
  9
$LIMMIN
 10
0.0
 20
0.0
  9
$LIMMAX
 10
12.0
 20
9.0
  9
$ORTHOMODE
 70
     0
  9
$REGENMODE
 70
     1
  9
$FILLMODE
 70
     1
  9
$QTEXTMODE
 70
     0
  9
$MIRRTEXT
 70
     1
  9
$LTSCALE
 40
14.947139
  9
$ATTMODE
 70
     1
  9
$TEXTSIZE
 40
3.2
  9
$TRACEWID
 40
0.05
  9
$TEXTSTYLE
  7
STANDARD
  9
$CLAYER
  8
0
  9
$CELTYPE
  6
Continuous
  9
$CECOLOR
 62
   256
  9
$CELTSCALE
 40
1.0
  9
$DISPSILH
 70
     0
  9
$DIMSCALE
 40
1.0
  9
$DIMASZ
 40
0.18
  9
$DIMEXO
 40
0.0625
  9
$DIMDLI
 40
0.38
  9
$DIMRND
 40
0.0
  9
$DIMDLE
 40
0.0
  9
$DIMEXE
 40
0.18
  9
$DIMTP
 40
0.0
  9
$DIMTM
 40
0.0
  9
$DIMTXT
 40
0.18
  9
$DIMCEN
 40
0.09
  9
$DIMTSZ
 40
0.0
  9
$DIMTOL
 70
     0
  9
$DIMLIM
 70
     0
  9
$DIMTIH
 70
     1
  9
$DIMTOH
 70
     1
  9
$DIMSE1
 70
     0
  9
$DIMSE2
 70
     0
  9
$DIMTAD
 70
     0
  9
$DIMZIN
 70
     0
  9
$DIMBLK
  1

  9
$DIMASO
 70
     1
  9
$DIMSHO
 70
     1
  9
$DIMPOST
  1

  9
$DIMAPOST
  1

  9
$DIMALT
 70
     0
  9
$DIMALTD
 70
     2
  9
$DIMALTF
 40
25.4
  9
$DIMLFAC
 40
1.0
  9
$DIMTOFL
 70
     0
  9
$DIMTVP
 40
0.0
  9
$DIMTIX
 70
     0
  9
$DIMSOXD
 70
     0
  9
$DIMSAH
 70
     0
  9
$DIMBLK1
  1

  9
$DIMBLK2
  1

  9
$DIMSTYLE
  2
Standard
  9
$DIMCLRD
 70
     0
  9
$DIMCLRE
 70
     0
  9
$DIMCLRT
 70
     0
  9
$DIMTFAC
 40
1.0
  9
$DIMGAP
 40
0.09
  9
$DIMJUST
 70
     0
  9
$DIMSD1
 70
     0
  9
$DIMSD2
 70
     0
  9
$DIMTOLJ
 70
     1
  9
$DIMTZIN
 70
     0
  9
$DIMALTZ
 70
     0
  9
$DIMALTTZ
 70
     0
  9
$DIMUPT
 70
     0
  9
$DIMDEC
 70
     4
  9
$DIMTDEC
 70
     4
  9
$DIMALTU
 70
     2
  9
$DIMALTTD
 70
     2
  9
$DIMTXSTY
  7
STANDARD
  9
$DIMAUNIT
 70
     0
  9
$DIMADEC
 70
     0
  9
$DIMALTRND
 40
0.0
  9
$DIMAZIN
 70
     0
  9
$DIMDSEP
 70
     0
  9
$DIMATFIT
 70
     3
  9
$DIMFRAC
 70
     0
  9
$DIMLDRBLK
  1

  9
$DIMLUNIT
 70
     2
  9
$DIMLWD
 70
     0
  9
$DIMLWE
 70
     0
  9
$DIMTMOVE
 70
     0
  9
$LUNITS
 70
     2
  9
$LUPREC
 70
     4
  9
$SKETCHINC
 40
0.1
  9
$FILLETRAD
 40
0.0
  9
$AUNITS
 70
     0
  9
$AUPREC
 70
     0
  9
$MENU
  1
.
  9
$ELEVATION
 40
0.0
  9
$PELEVATION
 40
0.0
  9
$THICKNESS
 40
0.0
  9
$LIMCHECK
 70
     0
  9
$CHAMFERA
 40
0.0
  9
$CHAMFERB
 40
0.0
  9
$CHAMFERC
 40
0.0
  9
$CHAMFERD
 40
0.0
  9
$SKPOLY
 70
     0
  9
$TDCREATE
 40
0.000000000
  9
$TDUCREATE
 40
0.000000000
  9
$TDUPDATE
 40
0.000000000
  9
$TDUUPDATE
 40
0.000000000
  9
$TDINDWG
 40
0.0000000000
  9
$TDUSRTIMER
 40
0.0000000000
  9
$USRTIMER
 70
     1
  9
$ANGBASE
 50
0.0
  9
$ANGDIR
 70
     0
  9
$PDMODE
 70
     0
  9
$PDSIZE
 40
0.0
  9
$PLINEWID
 40
0.0
  9
$SPLFRAME
 70
     0
  9
$SPLINETYPE
 70
     6
  9
$SPLINESEGS
 70
     8
  9
$HANDSEED
  5
5BC
  9
$SURFTAB1
 70
     6
  9
$SURFTAB2
 70
     6
  9
$SURFTYPE
 70
     6
  9
$SURFU
 70
     6
  9
$SURFV
 70
     6
  9
$UCSBASE
  2

  9
$UCSNAME
  2

  9
$UCSORG
 10
0.0
 20
0.0
 30
0.0
  9
$UCSXDIR
 10
1.0
 20
0.0
 30
0.0
  9
$UCSYDIR
 10
0.0
 20
1.0
 30
0.0
  9
$UCSORTHOREF
  2

  9
$UCSORTHOVIEW
 70
     0
  9
$UCSORGTOP
 10
0.0
 20
0.0
 30
0.0
  9
$UCSORGBOTTOM
 10
0.0
 20
0.0
 30
0.0
  9
$UCSORGLEFT
 10
0.0
 20
0.0
 30
0.0
  9
$UCSORGRIGHT
 10
0.0
 20
0.0
 30
0.0
  9
$UCSORGFRONT
 10
0.0
 20
0.0
 30
0.0
  9
$UCSORGBACK
 10
0.0
 20
0.0
 30
0.0
  9
$PUCSBASE
  2

  9
$PUCSNAME
  2

  9
$PUCSORG
 10
0.0
 20
0.0
 30
0.0
  9
$PUCSXDIR
 10
1.0
 20
0.0
 30
0.0
  9
$PUCSYDIR
 10
0.0
 20
1.0
 30
0.0
  9
$PUCSORTHOREF
  2

  9
$PUCSORTHOVIEW
 70
     0
  9
$PUCSORGTOP
 10
0.0
 20
0.0
 30
0.0
  9
$PUCSORGBOTTOM
 10
0.0
 20
0.0
 30
0.0
  9
$PUCSORGLEFT
 10
0.0
 20
0.0
 30
0.0
  9
$PUCSORGRIGHT
 10
0.0
 20
0.0
 30
0.0
  9
$PUCSORGFRONT
 10
0.0
 20
0.0
 30
0.0
  9
$PUCSORGBACK
 10
0.0
 20
0.0
 30
0.0
  9
$USERI1
 70
     0
  9
$USERI2
 70
     0
  9
$USERI3
 70
     0
  9
$USERI4
 70
     0
  9
$USERI5
 70
     0
  9
$USERR1
 40
0.0
  9
$USERR2
 40
0.0
  9
$USERR3
 40
0.0
  9
$USERR4
 40
0.0
  9
$USERR5
 40
0.0
  9
$WORLDVIEW
 70
     1
  9
$SHADEDGE
 70
     3
  9
$SHADEDIF
 70
    70
  9
$TILEMODE
 70
     1
  9
$MAXACTVP
 70
    16
  9
$PINSBASE
 10
0.0
 20
0.0
 30
0.0
  9
$PLIMCHECK
 70
     0
  9
$PEXTMIN
 10
1.000000E+20
 20
1.000000E+20
 30
1.000000E+20
  9
$PEXTMAX
 10
-1.000000E+20
 20
-1.000000E+20
 30
-1.000000E+20
  9
$PLIMMIN
 10
0.0
 20
0.0
  9
$PLIMMAX
 10
12.0
 20
9.0
  9
$UNITMODE
 70
     0
  9
$VISRETAIN
 70
     0
  9
$PLINEGEN
 70
     0
  9
$PSLTSCALE
 70
     1
  9
$TREEDEPTH
 70
  3020
  9
$CMLSTYLE
  2
Standard
  9
$CMLJUST
 70
     0
  9
$CMLSCALE
 40
1.0
  9
$PROXYGRAPHICS
 70
     0
  9
$MEASUREMENT
 70
     0
  9
$CELWEIGHT
370
     0
  9
$ENDCAPS
280
     0
  9
$JOINSTYLE
280
     0
  9
$LWDISPLAY
290
     0
  9
$INSUNITS
 70
     0
  9
$HYPERLINKBASE
  1

  9
$XEDIT
290
     1
  9
$CEPSNTYPE
380
     0
  9
$PSTYLEMODE
290
     1
  9
$FINGERPRINTGUID
  2

  9
$VERSIONGUID
  2

  9
$EXTNAMES
290
     1
  9
$PSVPSCALE
 40
0.0
  0
ENDSEC
  0
SECTION
  2
CLASSES
  0
CLASS
  1
LWPOLYLINE
  2
AcDbPolyline
  3
AutoCAD 2000
 90
    32768
280
     0
281
     1
  0
CLASS
  1
IMAGE
  2
AcDbRasterImage
  3
ISM
 90
    32895
280
     0
281
     1
  0
CLASS
  1
OLE2FRAME
  2
AcDbOle2Frame
  3
AutoCAD 2000
 90
    32768
280
     0
281
     1
  0
CLASS
  1
HATCH
  2
AcDbHatch
  3
AutoCAD 2000
 90
    32768
280
     0
281
     1
  0
CLASS
  1
DICTIONARYVAR
  2
AcDbDictionaryVar
  3
AutoCAD 2000
 90
    32768
280
     0
281
     0
  0
CLASS
  1
RASTERVARIABLES
  2
AcDbRasterVariables
  3
ISM
 90
    32768
280
     0
281
     0
  0
CLASS
  1
IMAGEDEF
  2
AcDbRasterImageDef
  3
ISM
 90
    32768
280
     0
281
     0
  0
CLASS
  1
IMAGEDEF_REACTOR
  2
AcDbRasterImageDefReactor
  3
ISM
 90
    32769
280
     0
281
     0
  0
CLASS
  1
IDBUFFER
  2
AcDbIdBuffer
  3
AutoCAD 2000
 90
    32768
280
     0
281
     0
  0
CLASS
  1
SPATIAL_FILTER
  2
AcDbSpatialFilter
  3
AutoCAD 2000
 90
    32768
280
     0
281
     0
  0
CLASS
  1
XRECORD
  2
AcDbXrecord
  3
AutoCAD 2000
 90
    32768
280
     0
281
     0
  0
CLASS
  1
SORTENTSTABLE
  2
AcDbSortentsTable
  3
AutoCAD 2000
 90
    32768
280
     0
281
     0
  0
CLASS
  1
LAYER_INDEX
  2
AcDbLayerIndex
  3
AutoCAD 2000
 90
    32768
280
     0
281
     0
  0
CLASS
  1
SPATIAL_INDEX
  2
AcDbSpatialIndex
  3
AutoCAD 2000
 90
    32768
280
     0
281
     0
  0
CLASS
  1
OBJECT_PTR
  2
CAseDLPNTableRecord
  3
"ASE-LPNTableRecord"
 90
    32769
280
     0
281
     0
  0
CLASS
  1
LAYOUT
  2
AcDbLayout
  3
AutoCAD 2000
 90
        0
280
     0
281
     0
  0
CLASS
  1
PLOTSETTINGS
  2
AcDbPlotSettings
  3
AutoCAD 2000
 90
    32768
280
     0
281
     0
  0
CLASS
  1
ACDBDICTIONARYWDFLT
  2
AcDbDictionaryWithDefault
  3
AutoCAD 2000
 90
        0
280
     0
281
     0
  0
CLASS
  1
ACDBPLACEHOLDER
  2
AcDbPlaceHolder
  3
AutoCAD 2000
 90
        0
280
     0
281
     0
  0
CLASS
  1
VBA_PROJECT
  2
AcDbVbaProject
  3
acadvba
 90
    32768
280
     0
281
     0
  0
CLASS
  1
WIPEOUT
  2
AcDbWipeout
  3
WipeOut|AutoCAD Express Tool|expresstools@autodesk.com
 90
    32895
280
     0
281
     1
  0
CLASS
  1
WIPEOUTVARIABLES
  2
AcDbWipeoutVariables
  3
WipeOut|AutoCAD Express Tool|expresstools@autodesk.com
 90
        0
280
     0
281
     0
  0
CLASS
  1
RTEXT
  2
RText
  3
RText|AutoCAD Express Tool|expresstools@autodesk.com
 90
    32768
280
     0
281
     1
  0
CLASS
  1
ARCALIGNEDTEXT
  2
AcDbArcAlignedText
  3
ATEXT|AutoCAD Express Tool|expresstools@autodesk.com
 90
    32768
280
     0
281
     1
  0
ENDSEC
  0
SECTION
  2
TABLES
  0
TABLE
  2
VPORT
  5
7
100
AcDbSymbolTable
 70
     1
  0
VPORT
  5
15
100
AcDbSymbolTableRecord
100
AcDbViewportTableRecord
  2
*ACTIVE
 70
     0
 10
0.0
 20
0.0
 11
1.0
 21
1.0
 12
559.763672
 22
454.534973
 13
0.0
 23
0.0
 14
1.0
 24
1.0
 15
0.0
 25
0.0
 16
0.0
 26
0.0
 36
1.0
 17
0.0
 27
0.0
 37
0.0
 40
905.796653
 41
1.691288
 42
50.0
 43
0.0
 44
0.0
 50
0.0
 51
0.0
 71
     0
 72
   100
 73
     1
 74
     1
 75
     0
 76
     0
 77
     0
 78
     0
281
     0
 65
     0
110
0.0
120
0.0
130
0.0
111
1.0
121
0.0
131
0.0
112
0.0
122
1.0
132
0.0
345
0
346
0
 79
     0
146
0.0
  0
ENDTAB
  0
TABLE
  2
LTYPE
  5
4
100
AcDbSymbolTable
 70
     7
  0
LTYPE
  5
11
100
AcDbSymbolTableRecord
100
AcDbLinetypeTableRecord
  2
ByBlock
 70
    64
  3

 72
    65
 73
     0
 40
0.0
  0
LTYPE
  5
12
100
AcDbSymbolTableRecord
100
AcDbLinetypeTableRecord
  2
ByLayer
 70
    64
  3

 72
    65
 73
     0
 40
0.0
  0
LTYPE
  5
13
100
AcDbSymbolTableRecord
100
AcDbLinetypeTableRecord
  2
Continuous
 70
    64
  3
Solid line
 72
    65
 73
     0
 40
0.0
  0
LTYPE
  5
24
100
AcDbSymbolTableRecord
100
AcDbLinetypeTableRecord
  2
DASHED
 70
    64
  3
DASHED
 72
    65
 73
     2
 40
0.75
 49
0.5
 74
     0
 49
-0.25
 74
     0
  0
LTYPE
  5
25
100
AcDbSymbolTableRecord
100
AcDbLinetypeTableRecord
  2
HIDDEN
 70
    64
  3
HIDDEN
 72
    65
 73
     2
 40
0.375
 49
0.25
 74
     0
 49
-0.125
 74
     0
  0
LTYPE
  5
26
100
AcDbSymbolTableRecord
100
AcDbLinetypeTableRecord
  2
CENTER
 70
    64
  3
CENTER
 72
    65
 73
     4
 40
2.0
 49
1.25
 74
     0
 49
-0.25
 74
     0
 49
0.25
 74
     0
 49
-0.25
 74
     0
  0
LTYPE
  5
27
100
AcDbSymbolTableRecord
100
AcDbLinetypeTableRecord
  2
PHANTOM
 70
    64
  3
PHANTOM
 72
    65
 73
     6
 40
2.5
 49
1.25
 74
     0
 49
-0.25
 74
     0
 49
0.25
 74
     0
 49
-0.25
 74
     0
 49
0.25
 74
     0
 49
-0.25
 74
     0
  0
ENDTAB
  0
TABLE
  2
LAYER
  5
2
100
AcDbSymbolTable
 70
     3
  0
LAYER
  5
14
100
AcDbSymbolTableRecord
100
AcDbLayerTableRecord
  2
0
 70
     0
 62
     7
  6
Continuous
290
     1
370
    -3
390
1D
  0
LAYER
  5
28
100
AcDbSymbolTableRecord
100
AcDbLayerTableRecord
  2
002
 70
     0
 62
     7
  6
Continuous
290
     1
370
    -3
390
1F
  0
LAYER
  5
29
100
AcDbSymbolTableRecord
100
AcDbLayerTableRecord
  2
003
 70
     0
 62
     7
  6
Continuous
290
     1
370
    -3
390
1F
  0
ENDTAB
  0
TABLE
  2
STYLE
  5
3
100
AcDbSymbolTable
 70
     2
  0
STYLE
  5
17
100
AcDbSymbolTableRecord
100
AcDbTextStyleTableRecord
  2
STANDARD
 70
     0
 40
0.0
 41
1.0
 50
0.0
 71
     0
 42
0.2
  3
TXT
  4
BIGFONT
  0
STYLE
  5
2A
100
AcDbSymbolTableRecord
100
AcDbTextStyleTableRecord
  2
TATEGAKI
 70
     4
 40
1.0
 41
1.0
 50
0.0
 71
     0
 42
0.2
  3
TXT
  4
BIGFONT
  0
ENDTAB
  0
TABLE
  2
VIEW
  5
5
100
AcDbSymbolTable
 70
     0
  0
ENDTAB
  0
TABLE
  2
UCS
  5
6
100
AcDbSymbolTable
 70
     0
  0
ENDTAB
  0
TABLE
  2
APPID
  5
8
100
AcDbSymbolTable
 70
     1
  0
APPID
  5
16
100
AcDbSymbolTableRecord
100
AcDbRegAppTableRecord
  2
ACAD
 70
     0
  0
ENDTAB
  0
TABLE
  2
DIMSTYLE
  5
9
100
AcDbSymbolTable
 70
     1
100
AcDbDimStyleTable
 71
     0
  0
DIMSTYLE
105
18
100
AcDbSymbolTableRecord
100
AcDbDimStyleTableRecord
  2
Standard
 70
     0
  3

  4

 40
1.0
 41
0.18
 42
0.0625
 43
0.38
 44
0.18
 45
0.0
 46
0.0
 47
0.0
 48
0.0
 71
     0
 72
     0
 73
     1
 74
     1
 75
     0
 76
     0
 77
     0
 78
     0
 79
     0
140
0.18
141
0.09
142
0.0
143
25.4
144
1.0
145
0.0
146
1.0
147
0.09
148
0.0
170
     0
171
     2
172
     0
173
     0
174
     0
175
     0
176
     0
177
     0
178
     0
179
     0
271
     4
272
     4
273
     2
274
     2
275
     0
276
     0
277
     2
278
    46
279
     0
280
     0
281
     0
282
     0
283
     1
284
     0
285
     0
286
     0
288
     0
340
17
341
0
342
0
343
0
344
0
371
    -2
372
    -2
  0
ENDTAB
  0
TABLE
  2
BLOCK_RECORD
  5
1
100
AcDbSymbolTable
 70
     0
  0
BLOCK_RECORD
  5
A
100
AcDbSymbolTableRecord
100
AcDbBlockTableRecord
  2
*MODEL_SPACE
340
20
  0
BLOCK_RECORD
  5
B
100
AcDbSymbolTableRecord
100
AcDbBlockTableRecord
  2
*PAPER_SPACE
340
21
  0
ENDTAB
  0
ENDSEC
  0
SECTION
  2
BLOCKS
  0
BLOCK
  5
D
100
AcDbEntity
  8
0
100
AcDbBlockBegin
  2
*MODEL_SPACE
 70
     0
 10
0.0
 20
0.0
 30
0.0
  3
*MODEL_SPACE
  1

  0
ENDBLK
  5
E
100
AcDbEntity
  8
0
100
AcDbBlockEnd
  0
BLOCK
  5
F
100
AcDbEntity
 67
     1
  8
0
100
AcDbBlockBegin
  2
*PAPER_SPACE
 70
     0
 10
0.0
 20
0.0
 30
0.0
  3
*PAPER_SPACE
  1

  0
ENDBLK
  5
10
100
AcDbEntity
 67
     1
  8
0
100
AcDbBlockEnd
  0
ENDSEC
  0
SECTION
  2
ENTITIES
  0
LINE
  5
2B
100
AcDbEntity
  8
002
 62
     3
100
AcDbLine
 10
246.533561
 20
611.197968
 30
0.0
 11
242.033561
 21
611.197968
 31
0.0
  0
LINE
  5
2C
100
AcDbEntity
  8
002
 62
     3
100
AcDbLine
 10
242.033561
 20
611.197968
 30
0.0
 11
241.783561
 21
610.947968
 31
0.0
  0
LINE
  5
2D
100
AcDbEntity
  8
002
 62
     3
100
AcDbLine
 10
241.783561
 20
610.947968
 30
0.0
 11
241.783561
 21
606.447968
 31
0.0
  0
LINE
  5
2E
100
AcDbEntity
  8
002
 62
     3
100
AcDbLine
 10
241.783561
 20
606.447968
 30
0.0
 11
242.033561
 21
606.197968
 31
0.0
  0
LINE
  5
2F
100
AcDbEntity
  8
002
 62
     3
100
AcDbLine
 10
242.033561
 20
606.197968
 30
0.0
 11
246.533561
 21
606.197968
 31
0.0
  0
LINE
  5
30
100
AcDbEntity
  8
002
 62
     3
100
AcDbLine
 10
246.533561
 20
606.197968
 30
0.0
 11
246.783561
 21
606.447968
 31
0.0
  0
LINE
  5
31
100
AcDbEntity
  8
002
 62
     3
100
AcDbLine
 10
246.783561
 20
606.447968
 30
0.0
 11
246.783561
 21
610.947968
 31
0.0
  0
LINE
  5
32
100
AcDbEntity
  8
002
 62
     3
100
AcDbLine
 10
246.783561
 20
610.947968
 30
0.0
 11
246.533561
 21
611.197968
 31
0.0
  0
ARC
  5
33
100
AcDbEntity
  8
002
 62
     3
100
AcDbCircle
 10
246.583561
 20
606.397968
 30
0.0
 40
0.2
100
AcDbArc
 50
270.0
 51
0.0
  0
ARC
  5
34
100
AcDbEntity
  8
002
 62
     3
100
AcDbCircle
 10
241.983561
 20
606.397968
 30
0.0
 40
0.2
100
AcDbArc
 50
180.0
 51
270.0
  0
ARC
  5
35
100
AcDbEntity
  8
002
 62
     3
100
AcDbCircle
 10
244.283561
 20
601.697968
 30
0.0
 40
7.499936
100
AcDbArc
 50
109.471393
 51
70.528607
  0
LINE
  5
36
100
AcDbEntity
  8
002
  6
CENTER
 62
     9
100
AcDbLine
 10
233.484661
 20
601.697968
 30
0.0
 11
256.017861
 21
601.697968
 31
0.0
  0
LINE
  5
37
100
AcDbEntity
  8
002
  6
CENTER
 62
     9
100
AcDbLine
 10
244.283561
 20
613.509968
 30
0.0
 11
244.283561
 21
591.574968
 31
0.0
  0
LINE
  5
38
100
AcDbEntity
  8
002
 62
     3
100
AcDbLine
 10
713.789868
 20
94.26453
 30
0.0
 11
713.789868
 21
106.26433
 31
0.0
  0
LINE
  5
39
100
AcDbEntity
  8
002
 62
     3
100
AcDbLine
 10
713.789868
 20
106.26433
 30
0.0
 11
780.789868
 21
106.26433
 31
0.0
  0
LINE
  5
3A
100
AcDbEntity
  8
002
 62
     3
100
AcDbLine
 10
780.789868
 20
106.26453
 30
0.0
 11
780.789868
 21
94.26453
 31
0.0
  0
LINE
  5
3B
100
AcDbEntity
  8
002
 62
     3
100
AcDbLine
 10
780.789868
 20
94.26453
 30
0.0
 11
713.789868
 21
94.26453
 31
0.0
  0
LINE
  5
3C
100
AcDbEntity
  8
002
 62
     3
100
AcDbLine
 10
725.289868
 20
106.26453
 30
0.0
 11
725.289868
 21
151.26413
 31
0.0
  0
LINE
  5
3D
100
AcDbEntity
  8
002
 62
     3
100
AcDbLine
 10
725.289868
 20
151.26413
 30
0.0
 11
726.289868
 21
152.26433
 31
0.0
  0
LINE
  5
3E
100
AcDbEntity
  8
002
 62
     3
100
AcDbLine
 10
726.289868
 20
152.26413
 30
0.0
 11
768.289868
 21
152.26413
 31
0.0
  0
LINE
  5
3F
100
AcDbEntity
  8
002
 62
     3
100
AcDbLine
 10
768.288868
 20
152.26473
 30
0.0
 11
769.289868
 21
151.26413
 31
0.0
  0
LINE
  5
40
100
AcDbEntity
  8
002
 62
     3
100
AcDbLine
 10
769.289868
 20
151.26413
 30
0.0
 11
769.289868
 21
106.26453
 31
0.0
  0
LINE
  5
41
100
AcDbEntity
  8
002
 62
     3
100
AcDbLine
 10
764.007868
 20
116.26413
 30
0.0
 11
730.570868
 21
116.26413
 31
0.0
  0
LINE
  5
42
100
AcDbEntity
  8
002
 62
     3
100
AcDbLine
 10
730.570868
 20
116.26423
 30
0.0
 11
730.570868
 21
151.26423
 31
0.0
  0
LINE
  5
43
100
AcDbEntity
  8
002
 62
     3
100
AcDbLine
 10
730.570868
 20
151.26413
 30
0.0
 11
725.289868
 21
151.26413
 31
0.0
  0
LINE
  5
44
100
AcDbEntity
  8
002
 62
     3
100
AcDbLine
 10
730.570868
 20
151.26463
 30
0.0
 11
731.570868
 21
152.26463
 31
0.0
  0
LINE
  5
45
100
AcDbEntity
  8
002
 62
     3
100
AcDbLine
 10
737.289868
 20
152.26413
 30
0.0
 11
737.289868
 21
232.26493
 31
0.0
  0
LINE
  5
46
100
AcDbEntity
  8
002
 62
     3
100
AcDbLine
 10
733.289868
 20
232.26493
 30
0.0
 11
733.289868
 21
239.26493
 31
0.0
  0
ARC
  5
47
100
AcDbEntity
  8
002
 62
     3
100
AcDbCircle
 10
737.289868
 20
239.26493
 30
0.0
 40
4.0
100
AcDbArc
 50
90.0
 51
180.0
  0
LINE
  5
48
100
AcDbEntity
  8
002
 62
     3
100
AcDbLine
 10
737.289868
 20
243.26493
 30
0.0
 11
740.655868
 21
243.26493
 31
0.0
  0
LINE
  5
49
100
AcDbEntity
  8
002
 62
     3
100
AcDbLine
 10
740.655868
 20
243.26493
 30
0.0
 11
740.655868
 21
242.26493
 31
0.0
  0
LINE
  5
4A
100
AcDbEntity
  8
002
 62
     3
100
AcDbLine
 10
740.655868
 20
242.26493
 30
0.0
 11
753.922868
 21
242.26493
 31
0.0
  0
LINE
  5
4B
100
AcDbEntity
  8
002
 62
     3
100
AcDbLine
 10
753.922868
 20
242.26493
 30
0.0
 11
753.922868
 21
243.26493
 31
0.0
  0
LINE
  5
4C
100
AcDbEntity
  8
002
 62
     3
100
AcDbLine
 10
753.922868
 20
243.26493
 30
0.0
 11
757.289868
 21
243.26493
 31
0.0
  0
ARC
  5
4D
100
AcDbEntity
  8
002
 62
     3
100
AcDbCircle
 10
757.289868
 20
239.26493
 30
0.0
 40
4.0
100
AcDbArc
 50
0.0
 51
90.0
  0
LINE
  5
4E
100
AcDbEntity
  8
002
 62
     3
100
AcDbLine
 10
761.289868
 20
239.26493
 30
0.0
 11
761.289868
 21
232.26493
 31
0.0
  0
LINE
  5
4F
100
AcDbEntity
  8
002
 62
     3
100
AcDbLine
 10
757.289868
 20
232.26493
 30
0.0
 11
757.289868
 21
152.26413
 31
0.0
  0
LINE
  5
50
100
AcDbEntity
  8
002
 62
     3
100
AcDbLine
 10
763.007868
 20
152.26473
 30
0.0
 11
764.007868
 21
151.26473
 31
0.0
  0
LINE
  5
51
100
AcDbEntity
  8
002
 62
     3
100
AcDbLine
 10
764.007868
 20
151.26423
 30
0.0
 11
764.007868
 21
116.26423
 31
0.0
  0
ARC
  5
52
100
AcDbEntity
  8
002
 62
     3
100
AcDbCircle
 10
743.289868
 20
122.26423
 30
0.0
 40
1.0
100
AcDbArc
 50
180.0
 51
270.0
  0
LINE
  5
53
100
AcDbEntity
  8
002
 62
     3
100
AcDbLine
 10
743.289868
 20
121.26423
 30
0.0
 11
751.289868
 21
121.26423
 31
0.0
  0
ARC
  5
54
100
AcDbEntity
  8
002
 62
     3
100
AcDbCircle
 10
751.289868
 20
122.26423
 30
0.0
 40
1.0
100
AcDbArc
 50
270.0
 51
0.0
  0
LINE
  5
55
100
AcDbEntity
  8
002
 62
     3
100
AcDbLine
 10
752.289868
 20
122.26423
 30
0.0
 11
752.289868
 21
146.26423
 31
0.0
  0
ARC
  5
56
100
AcDbEntity
  8
002
 62
     3
100
AcDbCircle
 10
751.289868
 20
146.26423
 30
0.0
 40
1.0
100
AcDbArc
 50
0.0
 51
90.0
  0
LINE
  5
57
100
AcDbEntity
  8
002
 62
     3
100
AcDbLine
 10
751.289868
 20
147.26423
 30
0.0
 11
743.289868
 21
147.26423
 31
0.0
  0
ARC
  5
58
100
AcDbEntity
  8
002
 62
     3
100
AcDbCircle
 10
743.289868
 20
146.26423
 30
0.0
 40
1.0
100
AcDbArc
 50
90.0
 51
180.0
  0
LINE
  5
59
100
AcDbEntity
  8
002
 62
     3
100
AcDbLine
 10
742.289868
 20
146.26423
 30
0.0
 11
742.289868
 21
122.26423
 31
0.0
  0
LINE
  5
5A
100
AcDbEntity
  8
002
 62
     3
100
AcDbLine
 10
745.539868
 20
123.86423
 30
0.0
 11
745.539868
 21
124.66423
 31
0.0
  0
LINE
  5
5B
100
AcDbEntity
  8
002
 62
     3
100
AcDbLine
 10
745.539868
 20
124.66423
 30
0.0
 11
746.239868
 21
124.66423
 31
0.0
  0
LINE
  5
5C
100
AcDbEntity
  8
002
 62
     3
100
AcDbLine
 10
746.239868
 20
124.66423
 30
0.0
 11
746.651868
 21
124.90213
 31
0.0
  0
LINE
  5
5D
100
AcDbEntity
  8
002
 62
     3
100
AcDbLine
 10
746.651868
 20
124.90213
 30
0.0
 11
746.889868
 21
125.31423
 31
0.0
  0
LINE
  5
5E
100
AcDbEntity
  8
002
 62
     3
100
AcDbLine
 10
746.889868
 20
125.31423
 30
0.0
 11
746.889868
 21
126.01423
 31
0.0
  0
LINE
  5
5F
100
AcDbEntity
  8
002
 62
     3
100
AcDbLine
 10
746.889868
 20
126.01423
 30
0.0
 11
747.689868
 21
126.01423
 31
0.0
  0
LINE
  5
60
100
AcDbEntity
  8
002
 62
     3
100
AcDbLine
 10
747.689868
 20
126.01423
 30
0.0
 11
747.689868
 21
125.31423
 31
0.0
  0
LINE
  5
61
100
AcDbEntity
  8
002
 62
     3
100
AcDbLine
 10
747.689868
 20
125.31423
 30
0.0
 11
747.927868
 21
124.90213
 31
0.0
  0
LINE
  5
62
100
AcDbEntity
  8
002
 62
     3
100
AcDbLine
 10
747.927868
 20
124.90213
 30
0.0
 11
748.339868
 21
124.66423
 31
0.0
  0
LINE
  5
63
100
AcDbEntity
  8
002
 62
     3
100
AcDbLine
 10
748.339868
 20
124.66423
 30
0.0
 11
749.039868
 21
124.66423
 31
0.0
  0
LINE
  5
64
100
AcDbEntity
  8
002
 62
     3
100
AcDbLine
 10
749.039868
 20
124.66423
 30
0.0
 11
749.039868
 21
123.86423
 31
0.0
  0
LINE
  5
65
100
AcDbEntity
  8
002
 62
     3
100
AcDbLine
 10
749.039868
 20
123.86423
 30
0.0
 11
748.339868
 21
123.86423
 31
0.0
  0
LINE
  5
66
100
AcDbEntity
  8
002
 62
     3
100
AcDbLine
 10
748.339868
 20
123.86423
 30
0.0
 11
747.927868
 21
123.62633
 31
0.0
  0
LINE
  5
67
100
AcDbEntity
  8
002
 62
     3
100
AcDbLine
 10
747.927868
 20
123.62633
 30
0.0
 11
747.689868
 21
123.21423
 31
0.0
  0
LINE
  5
68
100
AcDbEntity
  8
002
 62
     3
100
AcDbLine
 10
747.689868
 20
123.21423
 30
0.0
 11
747.689868
 21
122.51423
 31
0.0
  0
LINE
  5
69
100
AcDbEntity
  8
002
 62
     3
100
AcDbLine
 10
747.689868
 20
122.51423
 30
0.0
 11
746.889868
 21
122.51423
 31
0.0
  0
LINE
  5
6A
100
AcDbEntity
  8
002
 62
     3
100
AcDbLine
 10
746.889868
 20
122.51423
 30
0.0
 11
746.889868
 21
123.21423
 31
0.0
  0
LINE
  5
6B
100
AcDbEntity
  8
002
 62
     3
100
AcDbLine
 10
746.889868
 20
123.21423
 30
0.0
 11
746.651868
 21
123.62633
 31
0.0
  0
LINE
  5
6C
100
AcDbEntity
  8
002
 62
     3
100
AcDbLine
 10
746.651868
 20
123.62633
 30
0.0
 11
746.239868
 21
123.86423
 31
0.0
  0
LINE
  5
6D
100
AcDbEntity
  8
002
 62
     3
100
AcDbLine
 10
746.239868
 20
123.86423
 30
0.0
 11
745.539868
 21
123.86423
 31
0.0
  0
CIRCLE
  5
6E
100
AcDbEntity
  8
002
 62
     3
100
AcDbCircle
 10
747.289868
 20
124.26423
 30
0.0
 40
2.749998
  0
LINE
  5
6F
100
AcDbEntity
  8
002
 62
     3
100
AcDbLine
 10
752.289868
 20
124.64713
 30
0.0
 11
742.289868
 21
134.48423
 31
0.0
  0
LINE
  5
70
100
AcDbEntity
  8
002
 62
     3
100
AcDbLine
 10
742.289868
 20
135.60553
 30
0.0
 11
736.227868
 21
141.56973
 31
0.0
  0
LINE
  5
71
100
AcDbEntity
  8
002
 62
     3
100
AcDbLine
 10
739.803868
 20
145.20543
 30
0.0
 11
742.289868
 21
142.75943
 31
0.0
  0
LINE
  5
72
100
AcDbEntity
  8
002
 62
     3
100
AcDbLine
 10
742.289868
 20
143.88133
 30
0.0
 11
752.289868
 21
134.04423
 31
0.0
  0
LINE
  5
73
100
AcDbEntity
  8
002
 62
     3
100
AcDbLine
 10
752.289868
 20
132.92283
 30
0.0
 11
758.352868
 21
126.95863
 31
0.0
  0
LINE
  5
74
100
AcDbEntity
  8
002
 62
     3
100
AcDbLine
 10
754.776868
 20
123.32303
 30
0.0
 11
752.289868
 21
125.76903
 31
0.0
  0
ARC
  5
75
100
AcDbEntity
  8
002
 62
     3
100
AcDbCircle
 10
756.564868
 20
125.14073
 30
0.0
 40
2.549844
100
AcDbArc
 50
224.656839
 51
45.475084
  0
LINE
  5
76
100
AcDbEntity
  8
002
 62
     3
100
AcDbLine
 10
747.689868
 20
142.51423
 30
0.0
 11
747.689868
 21
143.21423
 31
0.0
  0
LINE
  5
77
100
AcDbEntity
  8
002
 62
     3
100
AcDbLine
 10
747.689868
 20
143.21423
 30
0.0
 11
747.927868
 21
143.62633
 31
0.0
  0
LINE
  5
78
100
AcDbEntity
  8
002
 62
     3
100
AcDbLine
 10
747.927868
 20
143.62633
 30
0.0
 11
748.339868
 21
143.86423
 31
0.0
  0
LINE
  5
79
100
AcDbEntity
  8
002
 62
     3
100
AcDbLine
 10
748.339868
 20
143.86423
 30
0.0
 11
749.039868
 21
143.86423
 31
0.0
  0
LINE
  5
7A
100
AcDbEntity
  8
002
 62
     3
100
AcDbLine
 10
749.039868
 20
143.86423
 30
0.0
 11
749.039868
 21
144.66423
 31
0.0
  0
LINE
  5
7B
100
AcDbEntity
  8
002
 62
     3
100
AcDbLine
 10
749.039868
 20
144.66423
 30
0.0
 11
748.339868
 21
144.66423
 31
0.0
  0
LINE
  5
7C
100
AcDbEntity
  8
002
 62
     3
100
AcDbLine
 10
748.339868
 20
144.66423
 30
0.0
 11
747.927868
 21
144.90213
 31
0.0
  0
LINE
  5
7D
100
AcDbEntity
  8
002
 62
     3
100
AcDbLine
 10
747.927868
 20
144.90213
 30
0.0
 11
747.689868
 21
145.31423
 31
0.0
  0
LINE
  5
7E
100
AcDbEntity
  8
002
 62
     3
100
AcDbLine
 10
747.689868
 20
145.31423
 30
0.0
 11
747.689868
 21
146.01423
 31
0.0
  0
LINE
  5
7F
100
AcDbEntity
  8
002
 62
     3
100
AcDbLine
 10
747.689868
 20
146.01423
 30
0.0
 11
746.889868
 21
146.01423
 31
0.0
  0
LINE
  5
80
100
AcDbEntity
  8
002
 62
     3
100
AcDbLine
 10
746.889868
 20
146.01423
 30
0.0
 11
746.889868
 21
145.31423
 31
0.0
  0
LINE
  5
81
100
AcDbEntity
  8
002
 62
     3
100
AcDbLine
 10
746.889868
 20
145.31423
 30
0.0
 11
746.651868
 21
144.90213
 31
0.0
  0
LINE
  5
82
100
AcDbEntity
  8
002
 62
     3
100
AcDbLine
 10
746.651868
 20
144.90213
 30
0.0
 11
746.239868
 21
144.66423
 31
0.0
  0
LINE
  5
83
100
AcDbEntity
  8
002
 62
     3
100
AcDbLine
 10
746.239868
 20
144.66423
 30
0.0
 11
745.539868
 21
144.66423
 31
0.0
  0
LINE
  5
84
100
AcDbEntity
  8
002
 62
     3
100
AcDbLine
 10
745.539868
 20
144.66423
 30
0.0
 11
745.539868
 21
143.86423
 31
0.0
  0
LINE
  5
85
100
AcDbEntity
  8
002
 62
     3
100
AcDbLine
 10
745.539868
 20
143.86423
 30
0.0
 11
746.239868
 21
143.86423
 31
0.0
  0
LINE
  5
86
100
AcDbEntity
  8
002
 62
     3
100
AcDbLine
 10
746.239868
 20
143.86423
 30
0.0
 11
746.651868
 21
143.62633
 31
0.0
  0
LINE
  5
87
100
AcDbEntity
  8
002
 62
     3
100
AcDbLine
 10
746.651868
 20
143.62633
 30
0.0
 11
746.889868
 21
143.21423
 31
0.0
  0
LINE
  5
88
100
AcDbEntity
  8
002
 62
     3
100
AcDbLine
 10
746.889868
 20
143.21423
 30
0.0
 11
746.889868
 21
142.51423
 31
0.0
  0
LINE
  5
89
100
AcDbEntity
  8
002
 62
     3
100
AcDbLine
 10
746.889868
 20
142.51423
 30
0.0
 11
747.689868
 21
142.51423
 31
0.0
  0
CIRCLE
  5
8A
100
AcDbEntity
  8
002
 62
     3
100
AcDbCircle
 10
747.289868
 20
144.26423
 30
0.0
 40
2.749998
  0
ARC
  5
8B
100
AcDbEntity
  8
002
 62
     3
100
AcDbCircle
 10
738.015868
 20
143.38773
 30
0.0
 40
2.549844
100
AcDbArc
 50
44.656839
 51
225.475084
  0
LINE
  5
8C
100
AcDbEntity
  8
002
 62
     3
100
AcDbLine
 10
764.007868
 20
151.26413
 30
0.0
 11
769.289868
 21
151.26413
 31
0.0
  0
LINE
  5
8D
100
AcDbEntity
  8
002
 62
     3
100
AcDbLine
 10
757.289868
 20
94.26453
 30
0.0
 11
757.289868
 21
32.26493
 31
0.0
  0
LINE
  5
8E
100
AcDbEntity
  8
002
 62
     3
100
AcDbLine
 10
757.289868
 20
32.26493
 30
0.0
 11
737.289868
 21
32.26493
 31
0.0
  0
LINE
  5
8F
100
AcDbEntity
  8
002
 62
     3
100
AcDbLine
 10
737.289868
 20
32.26493
 30
0.0
 11
737.289868
 21
94.26453
 31
0.0
  0
LINE
  5
90
100
AcDbEntity
  8
002
 62
     3
100
AcDbLine
 10
741.289868
 20
32.26493
 30
0.0
 11
741.289868
 21
12.26493
 31
0.0
  0
LINE
  5
91
100
AcDbEntity
  8
002
 62
     3
100
AcDbLine
 10
753.289868
 20
12.26493
 30
0.0
 11
753.289868
 21
32.26493
 31
0.0
  0
LINE
  5
92
100
AcDbEntity
  8
002
 62
     3
100
AcDbLine
 10
772.289868
 20
232.26493
 30
0.0
 11
772.289868
 21
243.26493
 31
0.0
  0
ARC
  5
93
100
AcDbEntity
  8
002
 62
     3
100
AcDbCircle
 10
763.521868
 20
246.71993
 30
0.0
 40
2.999873
100
AcDbArc
 50
280.292547
 51
0.0
  0
LINE
  5
94
100
AcDbEntity
  8
002
 62
     3
100
AcDbLine
 10
764.057868
 20
243.76833
 30
0.0
 11
761.289868
 21
243.26493
 31
0.0
  0
ARC
  5
95
100
AcDbEntity
  8
002
 62
     3
100
AcDbCircle
 10
754.387868
 20
247.18083
 30
0.0
 40
3.0
100
AcDbArc
 50
270.0
 51
3.652101
  0
LINE
  5
96
100
AcDbEntity
  8
002
 62
     3
100
AcDbLine
 10
751.521868
 20
245.26493
 30
0.0
 11
712.789868
 21
245.26493
 31
0.0
  0
LINE
  5
97
100
AcDbEntity
  8
002
 62
     3
100
AcDbLine
 10
711.289868
 20
246.23363
 30
0.0
 11
711.289868
 21
286.29633
 31
0.0
  0
LINE
  5
98
100
AcDbEntity
  8
002
 62
     3
100
AcDbLine
 10
711.421868
 20
287.59493
 30
0.0
 11
719.551868
 21
283.43013
 31
0.0
  0
LINE
  5
99
100
AcDbEntity
  8
002
 62
     3
100
AcDbLine
 10
723.756868
 20
282.82293
 30
0.0
 11
745.450868
 21
286.91793
 31
0.0
  0
ARC
  5
9A
100
AcDbEntity
  8
002
 62
     3
100
AcDbCircle
 10
749.160868
 20
267.26493
 30
0.0
 40
20.0
100
AcDbArc
 50
90.0
 51
100.690224
  0
LINE
  5
9B
100
AcDbEntity
  8
002
 62
     3
100
AcDbLine
 10
756.085868
 20
287.26493
 30
0.0
 11
712.789868
 21
287.26493
 31
0.0
  0
ARC
  5
9C
100
AcDbEntity
  8
002
 62
     3
100
AcDbCircle
 10
712.789868
 20
290.26493
 30
0.0
 40
3.0
100
AcDbArc
 50
180.0
 51
270.0
  0
LINE
  5
9D
100
AcDbEntity
  8
002
 62
     3
100
AcDbLine
 10
709.789868
 20
290.26493
 30
0.0
 11
709.789868
 21
312.26493
 31
0.0
  0
LINE
  5
9E
100
AcDbEntity
  8
002
 62
     3
100
AcDbLine
 10
709.789868
 20
312.26493
 30
0.0
 11
784.789868
 21
312.26493
 31
0.0
  0
LINE
  5
9F
100
AcDbEntity
  8
002
 62
     3
100
AcDbLine
 10
784.789868
 20
312.26493
 30
0.0
 11
784.789868
 21
300.40113
 31
0.0
  0
LINE
  5
A0
100
AcDbEntity
  8
002
 62
     3
100
AcDbLine
 10
785.514868
 20
300.26493
 30
0.0
 11
803.289868
 21
300.26493
 31
0.0
  0
LINE
  5
A1
100
AcDbEntity
  8
002
 62
     3
100
AcDbLine
 10
803.289868
 20
300.26493
 30
0.0
 11
803.289868
 21
292.59293
 31
0.0
  0
LINE
  5
A2
100
AcDbEntity
  8
002
 62
     3
100
AcDbLine
 10
805.287868
 20
289.76493
 30
0.0
 11
805.287868
 21
254.76493
 31
0.0
  0
LINE
  5
A3
100
AcDbEntity
  8
002
 62
     3
100
AcDbLine
 10
805.287868
 20
254.76493
 30
0.0
 11
805.262868
 21
254.76493
 31
0.0
  0
ARC
  5
A4
100
AcDbEntity
  8
002
 62
     3
100
AcDbCircle
 10
795.253868
 20
256.30023
 30
0.0
 40
7.999973
100
AcDbArc
 50
273.655097
 51
356.347899
  0
LINE
  5
A5
100
AcDbEntity
  8
002
 62
     3
100
AcDbLine
 10
795.763868
 20
248.31653
 30
0.0
 11
789.470868
 21
247.91483
 31
0.0
  0
LINE
  5
A6
100
AcDbEntity
  8
002
 62
     3
100
AcDbLine
 10
792.594868
 20
249.61723
 30
0.0
 11
779.193868
 21
248.76193
 31
0.0
  0
LINE
  5
A7
100
AcDbEntity
  8
002
 62
     3
100
AcDbLine
 10
779.384868
 20
248.76193
 30
0.0
 11
765.984868
 21
249.61723
 31
0.0
  0
ARC
  5
A8
100
AcDbEntity
  8
002
 62
     3
100
AcDbCircle
 10
766.621868
 20
259.59693
 30
0.0
 40
10.000308
100
AcDbArc
 50
183.652101
 51
266.347789
  0
LINE
  5
A9
100
AcDbEntity
  8
002
 62
     3
100
AcDbLine
 10
756.511868
 20
250.58343
 30
0.0
 11
755.124868
 21
272.31823
 31
0.0
  0
LINE
  5
AA
100
AcDbEntity
  8
002
 62
     3
100
AcDbLine
 10
755.124868
 20
272.21163
 30
0.0
 11
756.128868
 21
287.95113
 31
0.0
  0
ARC
  5
AB
100
AcDbEntity
  8
002
 62
     3
100
AcDbCircle
 10
764.112868
 20
287.44153
 30
0.0
 40
8.000073
100
AcDbArc
 50
93.655051
 51
176.347899
  0
LINE
  5
AC
100
AcDbEntity
  8
002
 62
     3
100
AcDbLine
 10
763.602868
 20
295.42533
 30
0.0
 11
779.019868
 21
296.43133
 31
0.0
  0
LINE
  5
AD
100
AcDbEntity
  8
002
 62
     3
100
AcDbLine
 10
779.019868
 20
296.43133
 30
0.0
 11
780.801868
 21
296.60263
 31
0.0
  0
LINE
  5
AE
100
AcDbEntity
  8
002
 62
     3
100
AcDbLine
 10
779.384868
 20
295.76803
 30
0.0
 11
765.984868
 21
294.91263
 31
0.0
  0
ARC
  5
AF
100
AcDbEntity
  8
002
 62
     3
100
AcDbCircle
 10
766.621868
 20
284.93293
 30
0.0
 40
10.000009
100
AcDbArc
 50
93.652211
 51
176.347899
  0
LINE
  5
B0
100
AcDbEntity
  8
002
 62
     3
100
AcDbLine
 10
756.641868
 20
285.56993
 30
0.0
 11
755.786868
 21
272.16943
 31
0.0
  0
LINE
  5
B1
100
AcDbEntity
  8
002
 62
     3
100
AcDbLine
 10
755.786868
 20
272.36053
 30
0.0
 11
757.381868
 21
247.37193
 31
0.0
  0
ARC
  5
B2
100
AcDbEntity
  8
002
 62
     3
100
AcDbCircle
 10
751.521868
 20
250.26493
 30
0.0
 40
5.0
100
AcDbArc
 50
270.0
 51
3.652101
  0
ARC
  5
B3
100
AcDbEntity
  8
002
 62
     3
100
AcDbCircle
 10
747.289868
 20
181.48063
 30
0.0
 40
62.412795
100
AcDbArc
 50
81.862017
 51
98.138892
  0
LINE
  5
B4
100
AcDbEntity
  8
002
 62
     3
100
AcDbLine
 10
766.521868
 20
246.71993
 30
0.0
 11
766.521868
 21
246.97203
 31
0.0
  0
ARC
  5
B5
100
AcDbEntity
  8
002
 62
     3
100
AcDbCircle
 10
779.289868
 20
271.22053
 30
0.0
 40
15.66924
100
AcDbArc
 50
306.867411
 51
233.129664
  0
ARC
  5
B6
100
AcDbEntity
  8
002
 62
     3
100
AcDbCircle
 10
787.190868
 20
260.68473
 30
0.0
 40
2.499914
100
AcDbArc
 50
225.152339
 51
306.869898
  0
CIRCLE
  5
B7
100
AcDbEntity
  8
002
 62
     3
100
AcDbCircle
 10
783.664868
 20
257.13993
 30
0.0
 40
1.09375
  0
ARC
  5
B8
100
AcDbEntity
  8
002
 62
     3
100
AcDbCircle
 10
783.664868
 20
257.13993
 30
0.0
 40
2.499914
100
AcDbArc
 50
45.152339
 51
180.0
  0
LINE
  5
B9
100
AcDbEntity
  8
002
 62
     3
100
AcDbLine
 10
781.164868
 20
257.13993
 30
0.0
 11
781.164868
 21
254.89333
 31
0.0
  0
LINE
  5
BA
100
AcDbEntity
  8
002
 62
     3
100
AcDbLine
 10
777.414868
 20
254.89333
 30
0.0
 11
777.414868
 21
257.13993
 31
0.0
  0
CIRCLE
  5
BB
100
AcDbEntity
  8
002
 62
     3
100
AcDbCircle
 10
774.914868
 20
257.13993
 30
0.0
 40
1.09375
  0
ARC
  5
BC
100
AcDbEntity
  8
002
 62
     3
100
AcDbCircle
 10
774.914868
 20
257.13993
 30
0.0
 40
2.5
100
AcDbArc
 50
0.0
 51
134.847661
  0
ARC
  5
BD
100
AcDbEntity
  8
002
 62
     3
100
AcDbCircle
 10
771.387868
 20
260.68473
 30
0.0
 40
2.5
100
AcDbArc
 50
233.130102
 51
314.863906
  0
CIRCLE
  5
BE
100
AcDbEntity
  8
002
 62
     3
100
AcDbCircle
 10
779.289868
 20
272.26493
 30
0.0
 40
17.5
  0
LINE
  5
BF
100
AcDbEntity
  8
002
 62
     3
100
AcDbLine
 10
776.789868
 20
277.01493
 30
0.0
 11
777.039868
 21
276.76493
 31
0.0
  0
LINE
  5
C0
100
AcDbEntity
  8
002
 62
     3
100
AcDbLine
 10
777.039868
 20
276.76493
 30
0.0
 11
781.539868
 21
276.76493
 31
0.0
  0
LINE
  5
C1
100
AcDbEntity
  8
002
 62
     3
100
AcDbLine
 10
781.539868
 20
276.76493
 30
0.0
 11
781.789868
 21
277.01493
 31
0.0
  0
LINE
  5
C2
100
AcDbEntity
  8
002
 62
     3
100
AcDbLine
 10
781.789868
 20
277.01493
 30
0.0
 11
781.789868
 21
281.51493
 31
0.0
  0
LINE
  5
C3
100
AcDbEntity
  8
002
 62
     3
100
AcDbLine
 10
781.789868
 20
281.51493
 30
0.0
 11
781.539868
 21
281.76493
 31
0.0
  0
LINE
  5
C4
100
AcDbEntity
  8
002
 62
     3
100
AcDbLine
 10
781.539868
 20
281.76493
 30
0.0
 11
777.039868
 21
281.76493
 31
0.0
  0
LINE
  5
C5
100
AcDbEntity
  8
002
 62
     3
100
AcDbLine
 10
777.039868
 20
281.76493
 30
0.0
 11
776.789868
 21
281.51493
 31
0.0
  0
LINE
  5
C6
100
AcDbEntity
  8
002
 62
     3
100
AcDbLine
 10
776.789868
 20
281.51493
 30
0.0
 11
776.789868
 21
277.01493
 31
0.0
  0
ARC
  5
C7
100
AcDbEntity
  8
002
 62
     3
100
AcDbCircle
 10
776.989868
 20
276.96493
 30
0.0
 40
0.2
100
AcDbArc
 50
180.0
 51
270.0
  0
ARC
  5
C8
100
AcDbEntity
  8
002
 62
     3
100
AcDbCircle
 10
781.589868
 20
276.96493
 30
0.0
 40
0.2
100
AcDbArc
 50
270.0
 51
0.0
  0
ARC
  5
C9
100
AcDbEntity
  8
002
 62
     3
100
AcDbCircle
 10
779.289868
 20
272.26493
 30
0.0
 40
7.50003
100
AcDbArc
 50
109.471139
 51
70.528861
  0
ARC
  5
CA
100
AcDbEntity
  8
002
 62
     3
100
AcDbCircle
 10
779.289868
 20
272.26493
 30
0.0
 40
8.500059
100
AcDbArc
 50
107.104513
 51
72.895487
  0
LINE
  5
CB
100
AcDbEntity
  8
002
 62
     3
100
AcDbLine
 10
779.193868
 20
295.76803
 30
0.0
 11
792.594868
 21
294.91263
 31
0.0
  0
ARC
  5
CC
100
AcDbEntity
  8
002
 62
     3
100
AcDbCircle
 10
791.957868
 20
284.93293
 30
0.0
 40
9.99931
100
AcDbArc
 50
3.652466
 51
86.347789
  0
LINE
  5
CD
100
AcDbEntity
  8
002
 62
     3
100
AcDbLine
 10
801.936868
 20
285.56993
 30
0.0
 11
802.792868
 21
272.16943
 31
0.0
  0
LINE
  5
CE
100
AcDbEntity
  8
002
 62
     3
100
AcDbLine
 10
802.792868
 20
272.36053
 30
0.0
 11
801.936868
 21
258.95993
 31
0.0
  0
ARC
  5
CF
100
AcDbEntity
  8
002
 62
     3
100
AcDbCircle
 10
791.957868
 20
259.59693
 30
0.0
 40
10.000009
100
AcDbArc
 50
273.652211
 51
356.347534
  0
ARC
  5
D0
100
AcDbEntity
  8
002
 62
     3
100
AcDbCircle
 10
805.275868
 20
251.76503
 30
0.0
 40
2.999924
100
AcDbArc
 50
89.77081
 51
155.651204
  0
LINE
  5
D1
100
AcDbEntity
  8
002
 62
     3
100
AcDbLine
 10
803.237868
 20
255.79063
 30
0.0
 11
804.289868
 21
272.26493
 31
0.0
  0
LINE
  5
D2
100
AcDbEntity
  8
002
 62
     3
100
AcDbLine
 10
804.289868
 20
272.26493
 30
0.0
 11
803.237868
 21
288.73923
 31
0.0
  0
ARC
  5
D3
100
AcDbEntity
  8
002
 62
     3
100
AcDbCircle
 10
806.289868
 20
292.59293
 30
0.0
 40
3.0
100
AcDbArc
 50
180.0
 51
250.490051
  0
ARC
  5
D4
100
AcDbEntity
  8
002
 62
     3
100
AcDbCircle
 10
795.253868
 20
288.22963
 30
0.0
 40
8.000247
100
AcDbArc
 50
3.652101
 51
86.344949
  0
LINE
  5
D5
100
AcDbEntity
  8
002
 62
     3
100
AcDbLine
 10
795.763868
 20
296.21343
 30
0.0
 11
786.355868
 21
296.71273
 31
0.0
  0
ARC
  5
D6
100
AcDbEntity
  8
002
 62
     3
100
AcDbCircle
 10
786.514868
 20
299.70853
 30
0.0
 40
2.999657
100
AcDbArc
 50
194.959101
 51
266.961917
  0
ARC
  5
D7
100
AcDbEntity
  8
002
 62
     3
100
AcDbCircle
 10
780.514868
 20
299.58883
 30
0.0
 40
2.99996
100
AcDbArc
 50
275.489765
 51
347.987687
  0
ARC
  5
D8
100
AcDbEntity
  8
002
 62
     3
100
AcDbCircle
 10
785.514868
 20
302.26493
 30
0.0
 40
2.0
100
AcDbArc
 50
180.0
 51
270.0
  0
LINE
  5
D9
100
AcDbEntity
  8
002
 62
     3
100
AcDbLine
 10
784.789868
 20
302.26493
 30
0.0
 11
709.789868
 21
302.26493
 31
0.0
  0
LINE
  5
DA
100
AcDbEntity
  8
002
 62
     3
100
AcDbLine
 10
717.540868
 20
312.26493
 30
0.0
 11
717.540868
 21
318.26493
 31
0.0
  0
LINE
  5
DB
100
AcDbEntity
  8
002
 62
     3
100
AcDbLine
 10
727.540868
 20
318.26493
 30
0.0
 11
717.540868
 21
318.26493
 31
0.0
  0
LINE
  5
DC
100
AcDbEntity
  8
002
 62
     3
100
AcDbLine
 10
727.129868
 20
318.26493
 30
0.0
 11
727.129868
 21
321.26493
 31
0.0
  0
LINE
  5
DD
100
AcDbEntity
  8
002
 62
     3
100
AcDbLine
 10
735.629868
 20
321.26493
 30
0.0
 11
735.629868
 21
316.26493
 31
0.0
  0
LINE
  5
DE
100
AcDbEntity
  8
002
 62
     3
100
AcDbLine
 10
735.629868
 20
321.26493
 30
0.0
 11
727.129868
 21
321.26493
 31
0.0
  0
LINE
  5
DF
100
AcDbEntity
  8
002
 62
     3
100
AcDbLine
 10
727.540868
 20
318.26493
 30
0.0
 11
727.540868
 21
312.26493
 31
0.0
  0
LINE
  5
E0
100
AcDbEntity
  8
002
 62
     3
100
AcDbLine
 10
727.540868
 20
316.26493
 30
0.0
 11
767.037868
 21
316.26493
 31
0.0
  0
LINE
  5
E1
100
AcDbEntity
  8
002
 62
     3
100
AcDbLine
 10
777.037868
 20
318.26493
 30
0.0
 11
767.037868
 21
318.26493
 31
0.0
  0
LINE
  5
E2
100
AcDbEntity
  8
002
 62
     3
100
AcDbLine
 10
767.037868
 20
318.26493
 30
0.0
 11
767.037868
 21
312.26493
 31
0.0
  0
LINE
  5
E3
100
AcDbEntity
  8
002
 62
     3
100
AcDbLine
 10
767.449868
 20
318.26493
 30
0.0
 11
767.449868
 21
321.26493
 31
0.0
  0
LINE
  5
E4
100
AcDbEntity
  8
002
 62
     3
100
AcDbLine
 10
758.949868
 20
321.26493
 30
0.0
 11
767.449868
 21
321.26493
 31
0.0
  0
LINE
  5
E5
100
AcDbEntity
  8
002
 62
     3
100
AcDbLine
 10
764.289868
 20
321.26493
 30
0.0
 11
764.289868
 21
342.26493
 31
0.0
  0
LINE
  5
E6
100
AcDbEntity
  8
002
 62
     3
100
AcDbLine
 10
764.289868
 20
342.26493
 30
0.0
 11
730.289868
 21
342.26493
 31
0.0
  0
LINE
  5
E7
100
AcDbEntity
  8
002
 62
     3
100
AcDbLine
 10
730.289868
 20
342.26493
 30
0.0
 11
730.289868
 21
321.26493
 31
0.0
  0
LINE
  5
E8
100
AcDbEntity
  8
002
 62
     3
100
AcDbLine
 10
758.949868
 20
321.26493
 30
0.0
 11
758.949868
 21
316.26493
 31
0.0
  0
LINE
  5
E9
100
AcDbEntity
  8
002
 62
     3
100
AcDbLine
 10
777.037868
 20
318.26493
 30
0.0
 11
777.037868
 21
312.26493
 31
0.0
  0
LINE
  5
EA
100
AcDbEntity
  8
002
 62
     3
100
AcDbLine
 10
790.039868
 20
310.26493
 30
0.0
 11
790.789868
 21
313.26493
 31
0.0
  0
LINE
  5
EB
100
AcDbEntity
  8
002
 62
     3
100
AcDbLine
 10
790.789868
 20
313.26493
 30
0.0
 11
795.789868
 21
313.26493
 31
0.0
  0
LINE
  5
EC
100
AcDbEntity
  8
002
 62
     3
100
AcDbLine
 10
795.789868
 20
313.26493
 30
0.0
 11
796.539868
 21
310.26493
 31
0.0
  0
LINE
  5
ED
100
AcDbEntity
  8
002
 62
     3
100
AcDbLine
 10
796.539868
 20
310.26493
 30
0.0
 11
796.008868
 21
309.41553
 31
0.0
  0
LINE
  5
EE
100
AcDbEntity
  8
002
 62
     3
100
AcDbLine
 10
795.586868
 20
308.74093
 30
0.0
 11
790.991868
 21
308.74093
 31
0.0
  0
LINE
  5
EF
100
AcDbEntity
  8
002
 62
     3
100
AcDbLine
 10
790.570868
 20
309.41553
 30
0.0
 11
790.039868
 21
310.26493
 31
0.0
  0
LINE
  5
F0
100
AcDbEntity
  8
002
 62
     3
100
AcDbLine
 10
790.789868
 20
310.26493
 30
0.0
 11
795.789868
 21
310.26493
 31
0.0
  0
ARC
  5
F1
100
AcDbEntity
  8
002
 62
     3
100
AcDbCircle
 10
796.856868
 20
308.88553
 30
0.0
 40
1.000002
100
AcDbArc
 50
147.994617
 51
225.004052
  0
LINE
  5
F2
100
AcDbEntity
  8
002
 62
     3
100
AcDbLine
 10
796.149868
 20
308.17843
 30
0.0
 11
798.289868
 21
305.26493
 31
0.0
  0
LINE
  5
F3
100
AcDbEntity
  8
002
 62
     3
100
AcDbLine
 10
798.289868
 20
305.26493
 30
0.0
 11
798.289868
 21
302.26493
 31
0.0
  0
LINE
  5
F4
100
AcDbEntity
  8
002
 62
     3
100
AcDbLine
 10
798.289868
 20
302.26493
 30
0.0
 11
797.289868
 21
301.26493
 31
0.0
  0
LINE
  5
F5
100
AcDbEntity
  8
002
 62
     3
100
AcDbLine
 10
797.289868
 20
301.26493
 30
0.0
 11
789.289868
 21
301.26493
 31
0.0
  0
LINE
  5
F6
100
AcDbEntity
  8
002
 62
     3
100
AcDbLine
 10
789.289868
 20
301.26493
 30
0.0
 11
788.289868
 21
302.26493
 31
0.0
  0
LINE
  5
F7
100
AcDbEntity
  8
002
 62
     3
100
AcDbLine
 10
788.289868
 20
302.26493
 30
0.0
 11
788.289868
 21
305.26493
 31
0.0
  0
LINE
  5
F8
100
AcDbEntity
  8
002
 62
     3
100
AcDbLine
 10
788.289868
 20
305.26493
 30
0.0
 11
790.429868
 21
308.17843
 31
0.0
  0
ARC
  5
F9
100
AcDbEntity
  8
002
 62
     3
100
AcDbCircle
 10
789.722868
 20
308.88553
 30
0.0
 40
0.99992
100
AcDbArc
 50
314.995948
 51
32.005383
  0
ARC
  5
FA
100
AcDbEntity
  8
002
 62
     3
100
AcDbCircle
 10
790.789868
 20
302.63993
 30
0.0
 40
3.625
100
AcDbArc
 50
46.397181
 51
133.602819
  0
LINE
  5
FB
100
AcDbEntity
  8
002
 62
     3
100
AcDbLine
 10
793.289868
 20
305.26493
 30
0.0
 11
793.289868
 21
302.26493
 31
0.0
  0
ARC
  5
FC
100
AcDbEntity
  8
002
 62
     3
100
AcDbCircle
 10
790.789868
 20
304.88993
 30
0.0
 40
3.625
100
AcDbArc
 50
226.397181
 51
313.602819
  0
LINE
  5
FD
100
AcDbEntity
  8
002
 62
     3
100
AcDbLine
 10
789.427868
 20
301.26493
 30
0.0
 11
789.427868
 21
300.26493
 31
0.0
  0
ARC
  5
FE
100
AcDbEntity
  8
002
 62
     3
100
AcDbCircle
 10
795.789868
 20
302.63993
 30
0.0
 40
3.625
100
AcDbArc
 50
46.397181
 51
133.602819
  0
ARC
  5
FF
100
AcDbEntity
  8
002
 62
     3
100
AcDbCircle
 10
795.789868
 20
304.88993
 30
0.0
 40
3.625
100
AcDbArc
 50
226.397181
 51
313.602819
  0
LINE
  5
100
100
AcDbEntity
  8
002
 62
     3
100
AcDbLine
 10
797.150868
 20
301.26493
 30
0.0
 11
797.150868
 21
300.26493
 31
0.0
  0
ARC
  5
101
100
AcDbEntity
  8
002
 62
     3
100
AcDbCircle
 10
793.289868
 20
312.60353
 30
0.0
 40
0.999975
100
AcDbArc
 50
41.407997
 51
138.592003
  0
LINE
  5
102
100
AcDbEntity
  8
002
 62
     3
100
AcDbLine
 10
784.789868
 20
242.92503
 30
0.0
 11
784.789868
 21
232.26493
 31
0.0
  0
LINE
  5
103
100
AcDbEntity
  8
002
 62
     3
100
AcDbLine
 10
784.789868
 20
232.26493
 30
0.0
 11
709.789868
 21
232.26493
 31
0.0
  0
LINE
  5
104
100
AcDbEntity
  8
002
 62
     3
100
AcDbLine
 10
709.789868
 20
232.26493
 30
0.0
 11
709.789868
 21
242.26493
 31
0.0
  0
ARC
  5
105
100
AcDbEntity
  8
002
 62
     3
100
AcDbCircle
 10
712.789868
 20
242.26493
 30
0.0
 40
3.0
100
AcDbArc
 50
90.0
 51
180.0
  0
ARC
  5
106
100
AcDbEntity
  8
002
 62
     3
100
AcDbCircle
 10
708.289868
 20
246.23363
 30
0.0
 40
3.000057
100
AcDbArc
 50
318.589139
 51
0.0
  0
LINE
  5
107
100
AcDbEntity
  8
002
 62
     3
100
AcDbLine
 10
722.289868
 20
243.26493
 30
0.0
 11
722.289868
 21
232.26493
 31
0.0
  0
LINE
  5
108
100
AcDbEntity
  8
002
 62
     3
100
AcDbLine
 10
722.289868
 20
245.26493
 30
0.0
 11
733.289868
 21
243.26493
 31
0.0
  0
ARC
  5
109
100
AcDbEntity
  8
002
 62
     3
100
AcDbCircle
 10
722.540868
 20
289.26493
 30
0.0
 40
6.555838
100
AcDbArc
 50
242.875244
 51
280.68945
  0
ARC
  5
10A
100
AcDbEntity
  8
002
 62
     3
100
AcDbCircle
 10
708.289868
 20
286.29633
 30
0.0
 40
3.0
100
AcDbArc
 50
0.0
 51
41.409429
  0
ARC
  5
10B
100
AcDbEntity
  8
002
 62
     3
100
AcDbCircle
 10
789.789868
 20
242.92503
 30
0.0
 40
4.999987
100
AcDbArc
 50
93.657965
 51
180.0
  0
LINE
  5
10C
100
AcDbEntity
  8
002
  6
CENTER
 62
     9
100
AcDbLine
 10
731.379868
 20
322.76493
 30
0.0
 11
731.379868
 21
310.26493
 31
0.0
  0
LINE
  5
10D
100
AcDbEntity
  8
002
  6
CENTER
 62
     9
100
AcDbLine
 10
722.540868
 20
322.76493
 30
0.0
 11
722.540868
 21
296.43133
 31
0.0
  0
LINE
  5
10E
100
AcDbEntity
  8
002
  6
CENTER
 62
     9
100
AcDbLine
 10
702.173868
 20
272.26493
 30
0.0
 11
814.220868
 21
272.26493
 31
0.0
  0
LINE
  5
10F
100
AcDbEntity
  8
002
  6
CENTER
 62
     9
100
AcDbLine
 10
793.289868
 20
297.52333
 30
0.0
 11
793.289868
 21
315.86893
 31
0.0
  0
LINE
  5
110
100
AcDbEntity
  8
002
  6
CENTER
 62
     9
100
AcDbLine
 10
779.289868
 20
320.82553
 30
0.0
 11
779.289868
 21
224.22183
 31
0.0
  0
LINE
  5
111
100
AcDbEntity
  8
002
 62
     9
100
AcDbLine
 10
756.059868
 20
232.26493
 30
0.0
 11
756.059868
 21
152.26413
 31
0.0
  0
LINE
  5
112
100
AcDbEntity
  8
002
  6
CENTER
 62
     9
100
AcDbLine
 10
734.302868
 20
147.04033
 30
0.0
 11
742.289868
 21
139.18263
 31
0.0
  0
LINE
  5
113
100
AcDbEntity
  8
002
  6
CENTER
 62
     9
100
AcDbLine
 10
752.289868
 20
129.34583
 30
0.0
 11
759.576868
 21
122.17733
 31
0.0
  0
LINE
  5
114
100
AcDbEntity
  8
002
  6
CENTER
 62
     9
100
AcDbLine
 10
719.789868
 20
109.26453
 30
0.0
 11
719.789868
 21
91.26503
 31
0.0
  0
LINE
  5
115
100
AcDbEntity
  8
002
 62
     9
100
AcDbLine
 10
738.519868
 20
94.26453
 30
0.0
 11
738.519868
 21
32.26493
 31
0.0
  0
LINE
  5
116
100
AcDbEntity
  8
002
 62
     9
100
AcDbLine
 10
756.059868
 20
32.26493
 30
0.0
 11
756.059868
 21
94.26453
 31
0.0
  0
LINE
  5
117
100
AcDbEntity
  8
002
  6
CENTER
 62
     9
100
AcDbLine
 10
774.789868
 20
91.26503
 30
0.0
 11
774.789868
 21
109.26453
 31
0.0
  0
LINE
  5
118
100
AcDbEntity
  8
002
 62
     9
100
AcDbLine
 10
738.519868
 20
152.26413
 30
0.0
 11
738.519868
 21
232.26493
 31
0.0
  0
LINE
  5
119
100
AcDbEntity
  8
002
  6
CENTER
 62
     9
100
AcDbLine
 10
772.037868
 20
296.43133
 30
0.0
 11
772.037868
 21
322.76493
 31
0.0
  0
LINE
  5
11A
100
AcDbEntity
  8
002
  6
CENTER
 62
     9
100
AcDbLine
 10
763.199868
 20
322.76493
 30
0.0
 11
763.199868
 21
310.26493
 31
0.0
  0
LINE
  5
11B
100
AcDbEntity
  8
002
  6
HIDDEN
 62
     9
100
AcDbLine
 10
752.789868
 20
242.26493
 30
0.0
 11
752.789868
 21
232.26493
 31
0.0
  0
LINE
  5
11C
100
AcDbEntity
  8
002
  6
HIDDEN
 62
     9
100
AcDbLine
 10
741.789868
 20
232.26493
 30
0.0
 11
741.789868
 21
242.26493
 31
0.0
  0
LINE
  5
11D
100
AcDbEntity
  8
002
  6
HIDDEN
 62
     9
100
AcDbLine
 10
740.655868
 20
242.26493
 30
0.0
 11
735.289868
 21
242.26493
 31
0.0
  0
LINE
  5
11E
100
AcDbEntity
  8
002
  6
HIDDEN
 62
     9
100
AcDbLine
 10
753.922868
 20
242.26493
 30
0.0
 11
759.289868
 21
242.26493
 31
0.0
  0
LINE
  5
11F
100
AcDbEntity
  8
002
  6
HIDDEN
 62
     9
100
AcDbLine
 10
759.289868
 20
242.26493
 30
0.0
 11
759.289868
 21
242.72903
 31
0.0
  0
LINE
  5
120
100
AcDbEntity
  8
002
  6
HIDDEN
 62
     9
100
AcDbLine
 10
735.289868
 20
242.26493
 30
0.0
 11
735.289868
 21
242.72903
 31
0.0
  0
LINE
  5
121
100
AcDbEntity
  8
002
  6
CENTER
 62
     9
100
AcDbLine
 10
747.289868
 20
6.30833
 30
0.0
 11
747.289868
 21
351.36933
 31
0.0
  0
LINE
  5
122
100
AcDbEntity
  8
002
 62
     3
100
AcDbLine
 10
741.289868
 20
12.26493
 30
0.0
 11
753.289868
 21
12.26493
 31
0.0
  0
LINE
  5
123
100
AcDbEntity
  8
002
 62
     3
100
AcDbLine
 10
237.401868
 20
721.273452
 30
0.0
 11
250.401868
 21
721.273452
 31
0.0
  0
LINE
  5
124
100
AcDbEntity
  8
002
 62
     3
100
AcDbLine
 10
250.401868
 20
721.273452
 30
0.0
 11
251.401868
 21
722.273452
 31
0.0
  0
LINE
  5
125
100
AcDbEntity
  8
002
 62
     3
100
AcDbLine
 10
251.401868
 20
722.273452
 30
0.0
 11
251.401868
 21
754.273452
 31
0.0
  0
LINE
  5
126
100
AcDbEntity
  8
002
 62
     3
100
AcDbLine
 10
235.401868
 20
754.273452
 30
0.0
 11
252.401868
 21
754.273452
 31
0.0
  0
LINE
  5
127
100
AcDbEntity
  8
002
 62
     3
100
AcDbLine
 10
236.401868
 20
754.273452
 30
0.0
 11
236.401868
 21
722.273452
 31
0.0
  0
LINE
  5
128
100
AcDbEntity
  8
002
 62
     3
100
AcDbLine
 10
236.401868
 20
722.273452
 30
0.0
 11
237.401868
 21
721.273452
 31
0.0
  0
LINE
  5
129
100
AcDbEntity
  8
002
 62
     3
100
AcDbLine
 10
236.401868
 20
722.273452
 30
0.0
 11
241.401868
 21
722.273452
 31
0.0
  0
LINE
  5
12A
100
AcDbEntity
  8
002
 62
     3
100
AcDbLine
 10
241.401868
 20
721.273452
 30
0.0
 11
241.401868
 21
748.773452
 31
0.0
  0
LINE
  5
12B
100
AcDbEntity
  8
002
 62
     3
100
AcDbLine
 10
246.401868
 20
748.773452
 30
0.0
 11
246.401868
 21
721.273452
 31
0.0
  0
LINE
  5
12C
100
AcDbEntity
  8
002
 62
     3
100
AcDbLine
 10
246.401868
 20
722.273452
 30
0.0
 11
251.401868
 21
722.273452
 31
0.0
  0
LINE
  5
12D
100
AcDbEntity
  8
002
 62
     3
100
AcDbLine
 10
246.401868
 20
743.273452
 30
0.0
 11
241.401868
 21
743.273452
 31
0.0
  0
ARC
  5
12E
100
AcDbEntity
  8
002
 62
     3
100
AcDbCircle
 10
243.901868
 20
748.773452
 30
0.0
 40
2.5
100
AcDbArc
 50
0.0
 51
180.0
  0
LINE
  5
12F
100
AcDbEntity
  8
002
 62
     3
100
AcDbLine
 10
235.401868
 20
754.273452
 30
0.0
 11
235.401868
 21
756.273452
 31
0.0
  0
LINE
  5
130
100
AcDbEntity
  8
002
 62
     3
100
AcDbLine
 10
252.401868
 20
754.273452
 30
0.0
 11
252.401868
 21
756.273452
 31
0.0
  0
LINE
  5
131
100
AcDbEntity
  8
002
 62
     3
100
AcDbLine
 10
267.401868
 20
756.273452
 30
0.0
 11
268.901868
 21
806.273152
 31
0.0
  0
LINE
  5
132
100
AcDbEntity
  8
002
 62
     3
100
AcDbLine
 10
268.901868
 20
806.273152
 30
0.0
 11
267.401868
 21
856.273152
 31
0.0
  0
LINE
  5
133
100
AcDbEntity
  8
002
 62
     3
100
AcDbLine
 10
267.401868
 20
856.273152
 30
0.0
 11
220.401868
 21
856.273152
 31
0.0
  0
LINE
  5
134
100
AcDbEntity
  8
002
 62
     3
100
AcDbLine
 10
220.401868
 20
856.273152
 30
0.0
 11
220.008668
 21
848.409152
 31
0.0
  0
CIRCLE
  5
135
100
AcDbEntity
  8
002
 62
     3
100
AcDbCircle
 10
236.650668
 20
831.022152
 30
0.0
 40
5.0
  0
LINE
  5
136
100
AcDbEntity
  8
002
 62
     3
100
AcDbLine
 10
238.093968
 20
833.522152
 30
0.0
 11
239.537368
 21
831.022152
 31
0.0
  0
LINE
  5
137
100
AcDbEntity
  8
002
 62
     3
100
AcDbLine
 10
239.537368
 20
831.022152
 30
0.0
 11
238.093968
 21
828.522152
 31
0.0
  0
LINE
  5
138
100
AcDbEntity
  8
002
 62
     3
100
AcDbLine
 10
238.093968
 20
828.522152
 30
0.0
 11
235.207268
 21
828.522152
 31
0.0
  0
LINE
  5
139
100
AcDbEntity
  8
002
 62
     3
100
AcDbLine
 10
235.207268
 20
828.522152
 30
0.0
 11
233.763868
 21
831.022152
 31
0.0
  0
LINE
  5
13A
100
AcDbEntity
  8
002
 62
     3
100
AcDbLine
 10
233.763868
 20
831.022152
 30
0.0
 11
235.207268
 21
833.522152
 31
0.0
  0
LINE
  5
13B
100
AcDbEntity
  8
002
 62
     3
100
AcDbLine
 10
235.207268
 20
833.522152
 30
0.0
 11
238.093968
 21
833.522152
 31
0.0
  0
LINE
  5
13C
100
AcDbEntity
  8
002
 62
     3
100
AcDbLine
 10
244.298268
 20
834.786152
 30
0.0
 11
248.624668
 21
813.869152
 31
0.0
  0
LINE
  5
13D
100
AcDbEntity
  8
002
 62
     3
100
AcDbLine
 10
252.198968
 20
816.273152
 30
0.0
 11
257.901868
 21
816.273152
 31
0.0
  0
LINE
  5
13E
100
AcDbEntity
  8
002
 62
     3
100
AcDbLine
 10
257.901868
 20
812.047152
 30
0.0
 11
262.901868
 21
809.160152
 31
0.0
  0
LINE
  5
13F
100
AcDbEntity
  8
002
 62
     3
100
AcDbLine
 10
262.901868
 20
809.160152
 30
0.0
 11
262.901868
 21
803.386652
 31
0.0
  0
LINE
  5
140
100
AcDbEntity
  8
002
 62
     3
100
AcDbLine
 10
262.901868
 20
803.386652
 30
0.0
 11
257.901868
 21
800.499952
 31
0.0
  0
LINE
  5
141
100
AcDbEntity
  8
002
 62
     3
100
AcDbLine
 10
257.901868
 20
800.499952
 30
0.0
 11
252.901868
 21
803.386652
 31
0.0
  0
LINE
  5
142
100
AcDbEntity
  8
002
 62
     3
100
AcDbLine
 10
252.901868
 20
803.386652
 30
0.0
 11
252.901868
 21
809.160152
 31
0.0
  0
LINE
  5
143
100
AcDbEntity
  8
002
 62
     3
100
AcDbLine
 10
252.901868
 20
809.160152
 30
0.0
 11
257.901868
 21
812.047152
 31
0.0
  0
CIRCLE
  5
144
100
AcDbEntity
  8
002
 62
     3
100
AcDbCircle
 10
257.901868
 20
806.273152
 30
0.0
 40
5.0
  0
CIRCLE
  5
145
100
AcDbEntity
  8
002
 62
     3
100
AcDbCircle
 10
257.901868
 20
806.273152
 30
0.0
 40
3.25
  0
CIRCLE
  5
146
100
AcDbEntity
  8
002
 62
     3
100
AcDbCircle
 10
257.901868
 20
806.273152
 30
0.0
 40
2.5
  0
CIRCLE
  5
147
100
AcDbEntity
  8
002
 62
     3
100
AcDbCircle
 10
257.901868
 20
806.273152
 30
0.0
 40
0.75
  0
ARC
  5
148
100
AcDbEntity
  8
002
 62
     3
100
AcDbCircle
 10
257.901868
 20
806.273152
 30
0.0
 40
10.0
100
AcDbArc
 50
270.0
 51
90.0
  0
ARC
  5
149
100
AcDbEntity
  8
002
 62
     3
100
AcDbCircle
 10
252.198968
 20
821.273152
 30
0.0
 40
5.0
100
AcDbArc
 50
191.677606
 51
270.0
  0
LINE
  5
14A
100
AcDbEntity
  8
002
 62
     3
100
AcDbLine
 10
248.624668
 20
798.677952
 30
0.0
 11
244.298268
 21
777.760652
 31
0.0
  0
LINE
  5
14B
100
AcDbEntity
  8
002
 62
     3
100
AcDbLine
 10
240.414668
 20
773.877052
 30
0.0
 11
219.497368
 21
769.550652
 31
0.0
  0
ARC
  5
14C
100
AcDbEntity
  8
002
 62
     3
100
AcDbCircle
 10
215.014968
 20
763.887552
 30
0.0
 40
5.000036
100
AcDbArc
 50
2.862577
 51
94.201223
  0
LINE
  5
14D
100
AcDbEntity
  8
002
 62
     3
100
AcDbLine
 10
220.008668
 20
764.137252
 30
0.0
 11
220.401868
 21
756.273452
 31
0.0
  0
LINE
  5
14E
100
AcDbEntity
  8
002
 62
     3
100
AcDbLine
 10
220.401868
 20
756.273452
 30
0.0
 11
267.401868
 21
756.273452
 31
0.0
  0
LINE
  5
14F
100
AcDbEntity
  8
002
 62
     3
100
AcDbLine
 10
268.077768
 20
778.803352
 30
0.0
 11
269.077368
 21
778.773452
 31
0.0
  0
LINE
  5
150
100
AcDbEntity
  8
002
 62
     3
100
AcDbLine
 10
269.077368
 20
778.773452
 30
0.0
 11
269.901468
 21
806.243152
 31
0.0
  0
LINE
  5
151
100
AcDbEntity
  8
002
 62
     3
100
AcDbLine
 10
269.901468
 20
806.303152
 30
0.0
 11
269.077368
 21
833.773152
 31
0.0
  0
LINE
  5
152
100
AcDbEntity
  8
002
 62
     3
100
AcDbLine
 10
269.077368
 20
833.773152
 30
0.0
 11
268.077768
 21
833.743152
 31
0.0
  0
ARC
  5
153
100
AcDbEntity
  8
002
 62
     3
100
AcDbCircle
 10
239.401868
 20
833.773152
 30
0.0
 40
5.000637
100
AcDbArc
 50
11.688827
 51
78.314809
  0
LINE
  5
154
100
AcDbEntity
  8
002
 62
     3
100
AcDbLine
 10
189.653468
 20
829.579152
 30
0.0
 11
189.653468
 21
832.465152
 31
0.0
  0
LINE
  5
155
100
AcDbEntity
  8
002
 62
     3
100
AcDbLine
 10
189.653468
 20
832.465152
 30
0.0
 11
187.153468
 21
833.909152
 31
0.0
  0
LINE
  5
156
100
AcDbEntity
  8
002
 62
     3
100
AcDbLine
 10
187.153468
 20
833.909152
 30
0.0
 11
184.653468
 21
832.465152
 31
0.0
  0
LINE
  5
157
100
AcDbEntity
  8
002
 62
     3
100
AcDbLine
 10
184.653468
 20
832.465152
 30
0.0
 11
184.653468
 21
829.579152
 31
0.0
  0
LINE
  5
158
100
AcDbEntity
  8
002
 62
     3
100
AcDbLine
 10
184.653468
 20
829.579152
 30
0.0
 11
187.153468
 21
828.135152
 31
0.0
  0
LINE
  5
159
100
AcDbEntity
  8
002
 62
     3
100
AcDbLine
 10
187.153468
 20
828.135152
 30
0.0
 11
189.653468
 21
829.579152
 31
0.0
  0
CIRCLE
  5
15A
100
AcDbEntity
  8
002
 62
     3
100
AcDbCircle
 10
187.153468
 20
831.022152
 30
0.0
 40
5.0
  0
LINE
  5
15B
100
AcDbEntity
  8
002
 62
     3
100
AcDbLine
 10
188.332468
 20
839.692152
 30
0.0
 11
196.338768
 21
870.298152
 31
0.0
  0
ARC
  5
15C
100
AcDbEntity
  8
002
 62
     3
100
AcDbCircle
 10
204.078368
 20
868.273152
 30
0.0
 40
8.000127
100
AcDbArc
 50
90.0
 51
165.337727
  0
LINE
  5
15D
100
AcDbEntity
  8
002
 62
     3
100
AcDbLine
 10
204.078368
 20
876.273152
 30
0.0
 11
219.725468
 21
876.273152
 31
0.0
  0
CIRCLE
  5
15E
100
AcDbEntity
  8
002
 62
     3
100
AcDbCircle
 10
211.901868
 20
866.273152
 30
0.0
 40
5.5
  0
ARC
  5
15F
100
AcDbEntity
  8
002
 62
     3
100
AcDbCircle
 10
211.901868
 20
866.273152
 30
0.0
 40
12.000028
100
AcDbArc
 50
123.557112
 51
56.44249
  0
ARC
  5
160
100
AcDbEntity
  8
002
 62
     3
100
AcDbCircle
 10
219.725468
 20
868.273152
 30
0.0
 40
8.0
100
AcDbArc
 50
14.662273
 51
90.0
  0
LINE
  5
161
100
AcDbEntity
  8
002
 62
     3
100
AcDbLine
 10
227.465068
 20
870.298152
 30
0.0
 11
231.133868
 21
856.273152
 31
0.0
  0
LINE
  5
162
100
AcDbEntity
  8
002
 62
     3
100
AcDbLine
 10
235.401868
 20
858.273152
 30
0.0
 11
235.401868
 21
856.273152
 31
0.0
  0
LINE
  5
163
100
AcDbEntity
  8
002
 62
     3
100
AcDbLine
 10
252.401868
 20
858.273152
 30
0.0
 11
252.401868
 21
856.273152
 31
0.0
  0
LINE
  5
164
100
AcDbEntity
  8
002
 62
     3
100
AcDbLine
 10
235.401868
 20
858.273152
 30
0.0
 11
252.401868
 21
858.273152
 31
0.0
  0
LINE
  5
165
100
AcDbEntity
  8
002
 62
     3
100
AcDbLine
 10
236.401868
 20
858.273152
 30
0.0
 11
236.401868
 21
890.273152
 31
0.0
  0
LINE
  5
166
100
AcDbEntity
  8
002
 62
     3
100
AcDbLine
 10
236.401868
 20
890.273152
 30
0.0
 11
237.401868
 21
891.273152
 31
0.0
  0
LINE
  5
167
100
AcDbEntity
  8
002
 62
     3
100
AcDbLine
 10
237.401868
 20
891.273152
 30
0.0
 11
250.401868
 21
891.273152
 31
0.0
  0
LINE
  5
168
100
AcDbEntity
  8
002
 62
     3
100
AcDbLine
 10
250.401868
 20
891.273152
 30
0.0
 11
251.401868
 21
890.273152
 31
0.0
  0
LINE
  5
169
100
AcDbEntity
  8
002
 62
     3
100
AcDbLine
 10
251.401868
 20
890.273152
 30
0.0
 11
251.401868
 21
858.273152
 31
0.0
  0
LINE
  5
16A
100
AcDbEntity
  8
002
 62
     3
100
AcDbLine
 10
246.401868
 20
863.773152
 30
0.0
 11
246.401868
 21
891.273152
 31
0.0
  0
LINE
  5
16B
100
AcDbEntity
  8
002
 62
     3
100
AcDbLine
 10
246.401868
 20
890.273152
 30
0.0
 11
251.401868
 21
890.273152
 31
0.0
  0
LINE
  5
16C
100
AcDbEntity
  8
002
 62
     3
100
AcDbLine
 10
241.401868
 20
890.273152
 30
0.0
 11
236.401868
 21
890.273152
 31
0.0
  0
LINE
  5
16D
100
AcDbEntity
  8
002
 62
     3
100
AcDbLine
 10
241.401868
 20
891.273152
 30
0.0
 11
241.401868
 21
863.773152
 31
0.0
  0
ARC
  5
16E
100
AcDbEntity
  8
002
 62
     3
100
AcDbCircle
 10
243.901868
 20
863.773152
 30
0.0
 40
2.5
100
AcDbArc
 50
180.0
 51
0.0
  0
LINE
  5
16F
100
AcDbEntity
  8
002
 62
     3
100
AcDbLine
 10
246.401868
 20
869.273152
 30
0.0
 11
241.401868
 21
869.273152
 31
0.0
  0
ARC
  5
170
100
AcDbEntity
  8
002
 62
     3
100
AcDbCircle
 10
184.401468
 20
833.773152
 30
0.0
 40
5.0
100
AcDbArc
 50
90.0
 51
180.0
  0
LINE
  5
171
100
AcDbEntity
  8
002
 62
     3
100
AcDbLine
 10
179.505468
 20
834.786152
 30
0.0
 11
175.179468
 21
813.869152
 31
0.0
  0
ARC
  5
172
100
AcDbEntity
  8
002
 62
     3
100
AcDbCircle
 10
211.901868
 20
806.273152
 30
0.0
 40
37.499623
100
AcDbArc
 50
164.766885
 51
191.685572
  0
LINE
  5
173
100
AcDbEntity
  8
002
 62
     3
100
AcDbLine
 10
175.179468
 20
798.677952
 30
0.0
 11
179.505468
 21
777.760652
 31
0.0
  0
ARC
  5
174
100
AcDbEntity
  8
002
 62
     3
100
AcDbCircle
 10
184.401468
 20
778.773452
 30
0.0
 40
4.999888
100
AcDbArc
 50
191.687512
 51
258.322394
  0
LINE
  5
175
100
AcDbEntity
  8
002
 62
     3
100
AcDbLine
 10
183.389468
 20
773.877052
 30
0.0
 11
204.306468
 21
769.550652
 31
0.0
  0
CIRCLE
  5
176
100
AcDbEntity
  8
002
 62
     3
100
AcDbCircle
 10
236.650668
 20
781.524652
 30
0.0
 40
5.0
  0
LINE
  5
177
100
AcDbEntity
  8
002
 62
     3
100
AcDbLine
 10
236.650668
 20
784.411452
 30
0.0
 11
234.150668
 21
782.968052
 31
0.0
  0
LINE
  5
178
100
AcDbEntity
  8
002
 62
     3
100
AcDbLine
 10
234.150668
 20
782.968052
 30
0.0
 11
234.150668
 21
780.081352
 31
0.0
  0
LINE
  5
179
100
AcDbEntity
  8
002
 62
     3
100
AcDbLine
 10
234.150668
 20
780.081352
 30
0.0
 11
236.650668
 21
778.637952
 31
0.0
  0
LINE
  5
17A
100
AcDbEntity
  8
002
 62
     3
100
AcDbLine
 10
236.650668
 20
778.637952
 30
0.0
 11
239.150668
 21
780.081352
 31
0.0
  0
LINE
  5
17B
100
AcDbEntity
  8
002
 62
     3
100
AcDbLine
 10
239.150668
 20
780.081352
 30
0.0
 11
239.150668
 21
782.968052
 31
0.0
  0
LINE
  5
17C
100
AcDbEntity
  8
002
 62
     3
100
AcDbLine
 10
239.150668
 20
782.968052
 30
0.0
 11
236.650668
 21
784.411452
 31
0.0
  0
ARC
  5
17D
100
AcDbEntity
  8
002
 62
     3
100
AcDbCircle
 10
239.401868
 20
778.773452
 30
0.0
 40
5.00005
100
AcDbArc
 50
281.686583
 51
348.313417
  0
LINE
  5
17E
100
AcDbEntity
  8
002
 62
     3
100
AcDbLine
 10
252.198968
 20
796.273452
 30
0.0
 11
257.901868
 21
796.273452
 31
0.0
  0
ARC
  5
17F
100
AcDbEntity
  8
002
 62
     3
100
AcDbCircle
 10
252.198968
 20
791.273452
 30
0.0
 40
5.000029
100
AcDbArc
 50
90.0
 51
168.314539
  0
ARC
  5
180
100
AcDbEntity
  8
002
 62
     3
100
AcDbCircle
 10
211.901868
 20
806.273152
 30
0.0
 40
37.500177
100
AcDbArc
 50
348.314552
 51
11.686645
  0
ARC
  5
181
100
AcDbEntity
  8
002
 62
     3
100
AcDbCircle
 10
215.014968
 20
848.659152
 30
0.0
 40
4.999954
100
AcDbArc
 50
265.798274
 51
357.13399
  0
LINE
  5
182
100
AcDbEntity
  8
002
 62
     3
100
AcDbLine
 10
188.596468
 20
784.024652
 30
0.0
 11
190.039468
 21
781.524652
 31
0.0
  0
LINE
  5
183
100
AcDbEntity
  8
002
 62
     3
100
AcDbLine
 10
190.039468
 20
781.524652
 30
0.0
 11
188.596468
 21
779.024652
 31
0.0
  0
LINE
  5
184
100
AcDbEntity
  8
002
 62
     3
100
AcDbLine
 10
188.596468
 20
779.024652
 30
0.0
 11
185.709468
 21
779.024652
 31
0.0
  0
LINE
  5
185
100
AcDbEntity
  8
002
 62
     3
100
AcDbLine
 10
185.709468
 20
779.024652
 30
0.0
 11
184.266468
 21
781.524652
 31
0.0
  0
LINE
  5
186
100
AcDbEntity
  8
002
 62
     3
100
AcDbLine
 10
184.266468
 20
781.524652
 30
0.0
 11
185.709468
 21
784.024652
 31
0.0
  0
LINE
  5
187
100
AcDbEntity
  8
002
 62
     3
100
AcDbLine
 10
185.709468
 20
784.024652
 30
0.0
 11
188.596468
 21
784.024652
 31
0.0
  0
CIRCLE
  5
188
100
AcDbEntity
  8
002
 62
     3
100
AcDbCircle
 10
187.153468
 20
781.524652
 30
0.0
 40
5.0
  0
LINE
  5
189
100
AcDbEntity
  8
002
 62
     3
100
AcDbLine
 10
188.332468
 20
772.854652
 30
0.0
 11
196.338768
 21
742.248752
 31
0.0
  0
ARC
  5
18A
100
AcDbEntity
  8
002
 62
     3
100
AcDbCircle
 10
204.078368
 20
744.273452
 30
0.0
 40
8.0
100
AcDbArc
 50
194.660194
 51
270.0
  0
LINE
  5
18B
100
AcDbEntity
  8
002
 62
     3
100
AcDbLine
 10
204.078368
 20
736.273452
 30
0.0
 11
219.725468
 21
736.273452
 31
0.0
  0
ARC
  5
18C
100
AcDbEntity
  8
002
 62
     3
100
AcDbCircle
 10
219.725468
 20
744.273452
 30
0.0
 40
8.000051
100
AcDbArc
 50
270.0
 51
345.339806
  0
LINE
  5
18D
100
AcDbEntity
  8
002
 62
     3
100
AcDbLine
 10
227.465068
 20
742.248752
 30
0.0
 11
231.133868
 21
756.273452
 31
0.0
  0
CIRCLE
  5
18E
100
AcDbEntity
  8
002
 62
     3
100
AcDbCircle
 10
211.901868
 20
746.273452
 30
0.0
 40
5.5
  0
ARC
  5
18F
100
AcDbEntity
  8
002
 62
     3
100
AcDbCircle
 10
211.901868
 20
746.273452
 30
0.0
 40
11.999973
100
AcDbArc
 50
303.55751
 51
236.442888
  0
LINE
  5
190
100
AcDbEntity
  8
002
  6
CENTER
 62
     9
100
AcDbLine
 10
243.901868
 20
902.949152
 30
0.0
 11
243.901868
 21
714.007952
 31
0.0
  0
LINE
  5
191
100
AcDbEntity
  8
002
  6
CENTER
 62
     9
100
AcDbLine
 10
163.259468
 20
806.273152
 30
0.0
 11
277.016468
 21
806.273152
 31
0.0
  0
LINE
  5
192
100
AcDbEntity
  8
002
  6
CENTER
 62
     9
100
AcDbLine
 10
229.651268
 20
866.273152
 30
0.0
 11
193.621368
 21
866.273152
 31
0.0
  0
LINE
  5
193
100
AcDbEntity
  8
002
  6
CENTER
 62
     9
100
AcDbLine
 10
211.901868
 20
726.985152
 30
0.0
 11
211.901868
 21
887.298152
 31
0.0
  0
CIRCLE
  5
194
100
AcDbEntity
  8
002
  6
CENTER
 62
     9
100
AcDbCircle
 10
211.901868
 20
806.273152
 30
0.0
 40
35.0
  0
LINE
  5
195
100
AcDbEntity
  8
002
  6
CENTER
 62
     9
100
AcDbLine
 10
233.459468
 20
827.831152
 30
0.0
 11
239.569968
 21
833.941152
 31
0.0
  0
LINE
  5
196
100
AcDbEntity
  8
002
  6
CENTER
 62
     9
100
AcDbLine
 10
190.344468
 20
827.831152
 30
0.0
 11
184.233468
 21
833.941152
 31
0.0
  0
LINE
  5
197
100
AcDbEntity
  8
002
  6
CENTER
 62
     9
100
AcDbLine
 10
184.233468
 20
778.605352
 30
0.0
 11
190.344468
 21
784.715852
 31
0.0
  0
LINE
  5
198
100
AcDbEntity
  8
002
  6
CENTER
 62
     9
100
AcDbLine
 10
233.459468
 20
784.715852
 30
0.0
 11
239.569968
 21
778.605352
 31
0.0
  0
LINE
  5
199
100
AcDbEntity
  8
002
  6
CENTER
 62
     9
100
AcDbLine
 10
257.901868
 20
797.873152
 30
0.0
 11
257.901868
 21
815.046152
 31
0.0
  0
LINE
  5
19A
100
AcDbEntity
  8
002
  6
CENTER
 62
     9
100
AcDbLine
 10
229.651268
 20
746.273452
 30
0.0
 11
193.621368
 21
746.273452
 31
0.0
  0
LINE
  5
19B
100
AcDbEntity
  8
002
  6
HIDDEN
 62
     9
100
AcDbLine
 10
235.471468
 20
839.692152
 30
0.0
 11
231.133868
 21
856.273152
 31
0.0
  0
LINE
  5
19C
100
AcDbEntity
  8
002
  6
HIDDEN
 62
     9
100
AcDbLine
 10
235.471468
 20
772.854652
 30
0.0
 11
231.133868
 21
756.273452
 31
0.0
  0
LINE
  5
19D
100
AcDbEntity
  8
002
 62
     3
100
AcDbLine
 10
240.414668
 20
838.669252
 30
0.0
 11
219.497368
 21
842.995652
 31
0.0
  0
LINE
  5
19E
100
AcDbEntity
  8
002
 62
     3
100
AcDbLine
 10
183.389468
 20
838.669252
 30
0.0
 11
204.306468
 21
842.995652
 31
0.0
  0
CIRCLE
  5
19F
100
AcDbEntity
  8
002
 62
     3
100
AcDbCircle
 10
211.901868
 20
806.273152
 30
0.0
 40
29.0
  0
CIRCLE
  5
1A0
100
AcDbEntity
  8
002
 62
     3
100
AcDbCircle
 10
211.901868
 20
806.273152
 30
0.0
 40
10.0
  0
ARC
  5
1A1
100
AcDbEntity
  8
002
 62
     3
100
AcDbCircle
 10
211.901868
 20
806.273152
 30
0.0
 40
37.50017
100
AcDbArc
 50
93.959418
 51
101.685087
  0
ARC
  5
1A2
100
AcDbEntity
  8
002
 62
     3
100
AcDbCircle
 10
211.901868
 20
806.273152
 30
0.0
 40
37.50017
100
AcDbArc
 50
78.313417
 51
86.040564
  0
ARC
  5
1A3
100
AcDbEntity
  8
002
 62
     3
100
AcDbCircle
 10
211.901868
 20
806.273152
 30
0.0
 40
37.500373
100
AcDbArc
 50
258.314913
 51
266.040671
  0
ARC
  5
1A4
100
AcDbEntity
  8
002
 62
     3
100
AcDbCircle
 10
211.901868
 20
806.273152
 30
0.0
 40
37.500373
100
AcDbArc
 50
273.959347
 51
281.686583
  0
LINE
  5
1A5
100
AcDbEntity
  8
002
 62
     3
100
AcDbLine
 10
267.901868
 20
110.200808
 30
0.0
 11
250.127268
 21
110.200808
 31
0.0
  0
LINE
  5
1A6
100
AcDbEntity
  8
002
 62
     3
100
AcDbLine
 10
249.401868
 20
110.336908
 30
0.0
 11
249.401868
 21
122.200808
 31
0.0
  0
LINE
  5
1A7
100
AcDbEntity
  8
002
 62
     3
100
AcDbLine
 10
249.401868
 20
122.200808
 30
0.0
 11
174.401868
 21
122.200808
 31
0.0
  0
LINE
  5
1A8
100
AcDbEntity
  8
002
 62
     3
100
AcDbLine
 10
174.401868
 20
122.200808
 30
0.0
 11
174.401868
 21
100.200808
 31
0.0
  0
ARC
  5
1A9
100
AcDbEntity
  8
002
 62
     3
100
AcDbCircle
 10
177.401868
 20
100.200808
 30
0.0
 40
3.0
100
AcDbArc
 50
180.0
 51
270.0
  0
LINE
  5
1AA
100
AcDbEntity
  8
002
 62
     3
100
AcDbLine
 10
177.401868
 20
97.200808
 30
0.0
 11
220.697768
 21
97.200808
 31
0.0
  0
LINE
  5
1AB
100
AcDbEntity
  8
002
 62
     3
100
AcDbLine
 10
220.741568
 20
97.886908
 30
0.0
 11
219.736868
 21
82.147508
 31
0.0
  0
LINE
  5
1AC
100
AcDbEntity
  8
002
 62
     3
100
AcDbLine
 10
219.736868
 20
82.254008
 30
0.0
 11
221.124268
 21
60.519308
 31
0.0
  0
LINE
  5
1AD
100
AcDbEntity
  8
002
 62
     3
100
AcDbLine
 10
221.993868
 20
57.307808
 30
0.0
 11
220.398868
 21
82.296308
 31
0.0
  0
LINE
  5
1AE
100
AcDbEntity
  8
002
 62
     3
100
AcDbLine
 10
220.398868
 20
82.105208
 30
0.0
 11
221.254168
 21
95.505808
 31
0.0
  0
ARC
  5
1AF
100
AcDbEntity
  8
002
 62
     3
100
AcDbCircle
 10
213.772968
 20
77.200808
 30
0.0
 40
19.999959
100
AcDbArc
 50
90.0
 51
100.689433
  0
LINE
  5
1B0
100
AcDbEntity
  8
002
 62
     3
100
AcDbLine
 10
210.063268
 20
96.853708
 30
0.0
 11
188.369168
 21
92.758708
 31
0.0
  0
LINE
  5
1B1
100
AcDbEntity
  8
002
 62
     3
100
AcDbLine
 10
184.164168
 20
93.366008
 30
0.0
 11
176.034068
 21
97.530708
 31
0.0
  0
LINE
  5
1B2
100
AcDbEntity
  8
002
 62
     3
100
AcDbLine
 10
175.901868
 20
96.232108
 30
0.0
 11
175.901868
 21
56.169408
 31
0.0
  0
LINE
  5
1B3
100
AcDbEntity
  8
002
 62
     3
100
AcDbLine
 10
177.401868
 20
55.200808
 30
0.0
 11
216.134368
 21
55.200808
 31
0.0
  0
ARC
  5
1B4
100
AcDbEntity
  8
002
 62
     3
100
AcDbCircle
 10
216.134368
 20
60.200808
 30
0.0
 40
5.000054
100
AcDbArc
 50
270.0
 51
3.652174
  0
ARC
  5
1B5
100
AcDbEntity
  8
002
 62
     3
100
AcDbCircle
 10
218.999968
 20
57.116708
 30
0.0
 40
2.999993
100
AcDbArc
 50
270.0
 51
3.652223
  0
LINE
  5
1B6
100
AcDbEntity
  8
002
 62
     3
100
AcDbLine
 10
221.901868
 20
53.200808
 30
0.0
 11
218.535168
 21
53.200808
 31
0.0
  0
LINE
  5
1B7
100
AcDbEntity
  8
002
 62
     3
100
AcDbLine
 10
218.535168
 20
53.200808
 30
0.0
 11
218.535168
 21
52.200808
 31
0.0
  0
LINE
  5
1B8
100
AcDbEntity
  8
002
 62
     3
100
AcDbLine
 10
218.535168
 20
52.200808
 30
0.0
 11
205.268668
 21
52.200808
 31
0.0
  0
LINE
  5
1B9
100
AcDbEntity
  8
002
 62
     3
100
AcDbLine
 10
205.268668
 20
52.200808
 30
0.0
 11
205.268668
 21
53.200808
 31
0.0
  0
LINE
  5
1BA
100
AcDbEntity
  8
002
 62
     3
100
AcDbLine
 10
205.268668
 20
53.200808
 30
0.0
 11
201.901868
 21
53.200808
 31
0.0
  0
ARC
  5
1BB
100
AcDbEntity
  8
002
 62
     3
100
AcDbCircle
 10
201.901868
 20
49.200808
 30
0.0
 40
4.0
100
AcDbArc
 50
90.0
 51
180.0
  0
LINE
  5
1BC
100
AcDbEntity
  8
002
 62
     3
100
AcDbLine
 10
197.901868
 20
49.200808
 30
0.0
 11
197.901868
 21
42.200808
 31
0.0
  0
LINE
  5
1BD
100
AcDbEntity
  8
002
 62
     3
100
AcDbLine
 10
200.241968
 20
38.200808
 30
0.0
 11
200.241968
 21
33.200808
 31
0.0
  0
LINE
  5
1BE
100
AcDbEntity
  8
002
 62
     3
100
AcDbLine
 10
191.741968
 20
33.200808
 30
0.0
 11
191.741968
 21
38.200808
 31
0.0
  0
LINE
  5
1BF
100
AcDbEntity
  8
002
 62
     3
100
AcDbLine
 10
191.741968
 20
33.200808
 30
0.0
 11
200.241968
 21
33.200808
 31
0.0
  0
LINE
  5
1C0
100
AcDbEntity
  8
002
 62
     3
100
AcDbLine
 10
194.901868
 20
33.200808
 30
0.0
 11
194.901868
 21
12.200808
 31
0.0
  0
LINE
  5
1C1
100
AcDbEntity
  8
002
 62
     3
100
AcDbLine
 10
194.901868
 20
12.200808
 30
0.0
 11
228.901868
 21
12.200808
 31
0.0
  0
LINE
  5
1C2
100
AcDbEntity
  8
002
 62
     3
100
AcDbLine
 10
228.901868
 20
12.200808
 30
0.0
 11
228.901868
 21
33.200808
 31
0.0
  0
LINE
  5
1C3
100
AcDbEntity
  8
002
 62
     3
100
AcDbLine
 10
232.061768
 20
33.200808
 30
0.0
 11
223.561768
 21
33.200808
 31
0.0
  0
LINE
  5
1C4
100
AcDbEntity
  8
002
 62
     3
100
AcDbLine
 10
223.561768
 20
33.200808
 30
0.0
 11
223.561768
 21
38.200808
 31
0.0
  0
LINE
  5
1C5
100
AcDbEntity
  8
002
 62
     3
100
AcDbLine
 10
225.901868
 20
42.200808
 30
0.0
 11
225.901868
 21
49.200808
 31
0.0
  0
ARC
  5
1C6
100
AcDbEntity
  8
002
 62
     3
100
AcDbCircle
 10
221.901868
 20
49.200808
 30
0.0
 40
4.0
100
AcDbArc
 50
0.0
 51
90.0
  0
ARC
  5
1C7
100
AcDbEntity
  8
002
 62
     3
100
AcDbCircle
 10
211.901868
 20
-8.583592
 30
0.0
 40
62.412965
100
AcDbArc
 50
81.861485
 51
98.138424
  0
LINE
  5
1C8
100
AcDbEntity
  8
002
 62
     3
100
AcDbLine
 10
197.901868
 20
53.200808
 30
0.0
 11
186.901868
 21
55.200808
 31
0.0
  0
LINE
  5
1C9
100
AcDbEntity
  8
002
 62
     3
100
AcDbLine
 10
186.901868
 20
53.200808
 30
0.0
 11
186.901868
 21
42.200808
 31
0.0
  0
LINE
  5
1CA
100
AcDbEntity
  8
002
 62
     3
100
AcDbLine
 10
184.401868
 20
42.200808
 30
0.0
 11
184.401868
 21
38.200808
 31
0.0
  0
LINE
  5
1CB
100
AcDbEntity
  8
002
 62
     3
100
AcDbLine
 10
184.401868
 20
38.200808
 30
0.0
 11
239.401868
 21
38.200808
 31
0.0
  0
LINE
  5
1CC
100
AcDbEntity
  8
002
 62
     3
100
AcDbLine
 10
239.401868
 20
38.200808
 30
0.0
 11
239.401868
 21
42.200808
 31
0.0
  0
LINE
  5
1CD
100
AcDbEntity
  8
002
 62
     3
100
AcDbLine
 10
236.901868
 20
42.200808
 30
0.0
 11
236.901868
 21
53.200808
 31
0.0
  0
LINE
  5
1CE
100
AcDbEntity
  8
002
 62
     3
100
AcDbLine
 10
231.133868
 20
56.655708
 30
0.0
 11
231.133868
 21
56.907808
 31
0.0
  0
LINE
  5
1CF
100
AcDbEntity
  8
002
 62
     3
100
AcDbLine
 10
230.596868
 20
59.553108
 30
0.0
 11
243.997468
 21
58.697708
 31
0.0
  0
LINE
  5
1D0
100
AcDbEntity
  8
002
 62
     3
100
AcDbLine
 10
243.806368
 20
58.697708
 30
0.0
 11
257.206868
 21
59.553108
 31
0.0
  0
ARC
  5
1D1
100
AcDbEntity
  8
002
 62
     3
100
AcDbCircle
 10
256.569868
 20
69.532708
 30
0.0
 40
10.000009
100
AcDbArc
 50
273.652247
 51
356.347789
  0
LINE
  5
1D2
100
AcDbEntity
  8
002
 62
     3
100
AcDbLine
 10
266.549568
 20
68.895708
 30
0.0
 11
267.404968
 21
82.296308
 31
0.0
  0
LINE
  5
1D3
100
AcDbEntity
  8
002
 62
     3
100
AcDbLine
 10
267.404968
 20
82.105208
 30
0.0
 11
266.549568
 21
95.505808
 31
0.0
  0
ARC
  5
1D4
100
AcDbEntity
  8
002
 62
     3
100
AcDbCircle
 10
256.569868
 20
94.868808
 30
0.0
 40
9.999909
100
AcDbArc
 50
3.652211
 51
86.347753
  0
LINE
  5
1D5
100
AcDbEntity
  8
002
 62
     3
100
AcDbLine
 10
257.206868
 20
104.848408
 30
0.0
 11
243.806368
 21
105.703808
 31
0.0
  0
LINE
  5
1D6
100
AcDbEntity
  8
002
 62
     3
100
AcDbLine
 10
243.997468
 20
105.703808
 30
0.0
 11
230.596868
 21
104.848408
 31
0.0
  0
ARC
  5
1D7
100
AcDbEntity
  8
002
 62
     3
100
AcDbCircle
 10
231.233868
 20
94.868808
 30
0.0
 40
10.000009
100
AcDbArc
 50
93.652247
 51
176.347789
  0
LINE
  5
1D8
100
AcDbEntity
  8
002
 62
     3
100
AcDbLine
 10
228.215668
 20
105.361108
 30
0.0
 11
243.632668
 21
106.367108
 31
0.0
  0
LINE
  5
1D9
100
AcDbEntity
  8
002
 62
     3
100
AcDbLine
 10
243.632668
 20
106.367108
 30
0.0
 11
245.414468
 21
106.538408
 31
0.0
  0
ARC
  5
1DA
100
AcDbEntity
  8
002
 62
     3
100
AcDbCircle
 10
245.127268
 20
109.524708
 30
0.0
 40
2.999999
100
AcDbArc
 50
275.493385
 51
347.987011
  0
ARC
  5
1DB
100
AcDbEntity
  8
002
 62
     3
100
AcDbCircle
 10
251.127268
 20
109.644308
 30
0.0
 40
2.999917
100
AcDbArc
 50
194.955777
 51
266.961816
  0
LINE
  5
1DC
100
AcDbEntity
  8
002
 62
     3
100
AcDbLine
 10
250.968268
 20
106.648608
 30
0.0
 11
260.376168
 21
106.149208
 31
0.0
  0
LINE
  5
1DD
100
AcDbEntity
  8
002
 62
     3
100
AcDbLine
 10
261.763368
 20
110.200808
 30
0.0
 11
261.763368
 21
111.200808
 31
0.0
  0
LINE
  5
1DE
100
AcDbEntity
  8
002
 62
     3
100
AcDbLine
 10
261.901868
 20
111.200808
 30
0.0
 11
262.901868
 21
112.200808
 31
0.0
  0
LINE
  5
1DF
100
AcDbEntity
  8
002
 62
     3
100
AcDbLine
 10
262.901868
 20
112.200808
 30
0.0
 11
262.901868
 21
115.200808
 31
0.0
  0
LINE
  5
1E0
100
AcDbEntity
  8
002
 62
     3
100
AcDbLine
 10
262.901868
 20
115.200808
 30
0.0
 11
260.761868
 21
118.114208
 31
0.0
  0
LINE
  5
1E1
100
AcDbEntity
  8
002
 62
     3
100
AcDbLine
 10
260.199368
 20
118.676808
 30
0.0
 11
255.604368
 21
118.676808
 31
0.0
  0
LINE
  5
1E2
100
AcDbEntity
  8
002
 62
     3
100
AcDbLine
 10
255.182768
 20
119.351308
 30
0.0
 11
254.651868
 21
120.200808
 31
0.0
  0
LINE
  5
1E3
100
AcDbEntity
  8
002
 62
     3
100
AcDbLine
 10
254.651868
 20
120.200808
 30
0.0
 11
255.401868
 21
123.200808
 31
0.0
  0
LINE
  5
1E4
100
AcDbEntity
  8
002
 62
     3
100
AcDbLine
 10
255.401868
 20
123.200808
 30
0.0
 11
260.401868
 21
123.200808
 31
0.0
  0
LINE
  5
1E5
100
AcDbEntity
  8
002
 62
     3
100
AcDbLine
 10
260.401868
 20
123.200808
 30
0.0
 11
261.151868
 21
120.200808
 31
0.0
  0
LINE
  5
1E6
100
AcDbEntity
  8
002
 62
     3
100
AcDbLine
 10
261.151868
 20
120.200808
 30
0.0
 11
260.620968
 21
119.351308
 31
0.0
  0
ARC
  5
1E7
100
AcDbEntity
  8
002
 62
     3
100
AcDbCircle
 10
261.468968
 20
118.821308
 30
0.0
 40
0.99999
100
AcDbArc
 50
147.994617
 51
225.0
  0
LINE
  5
1E8
100
AcDbEntity
  8
002
 62
     3
100
AcDbLine
 10
260.401868
 20
120.200808
 30
0.0
 11
255.401868
 21
120.200808
 31
0.0
  0
ARC
  5
1E9
100
AcDbEntity
  8
002
 62
     3
100
AcDbCircle
 10
254.334768
 20
118.821308
 30
0.0
 40
1.000002
100
AcDbArc
 50
315.0
 51
32.005383
  0
LINE
  5
1EA
100
AcDbEntity
  8
002
 62
     3
100
AcDbLine
 10
255.041868
 20
118.114208
 30
0.0
 11
252.901868
 21
115.200808
 31
0.0
  0
LINE
  5
1EB
100
AcDbEntity
  8
002
 62
     3
100
AcDbLine
 10
252.901868
 20
115.200808
 30
0.0
 11
252.901868
 21
112.200808
 31
0.0
  0
LINE
  5
1EC
100
AcDbEntity
  8
002
 62
     3
100
AcDbLine
 10
252.901868
 20
112.200808
 30
0.0
 11
253.901868
 21
111.200808
 31
0.0
  0
LINE
  5
1ED
100
AcDbEntity
  8
002
 62
     3
100
AcDbLine
 10
253.901868
 20
111.200808
 30
0.0
 11
261.901868
 21
111.200808
 31
0.0
  0
ARC
  5
1EE
100
AcDbEntity
  8
002
 62
     3
100
AcDbCircle
 10
260.401868
 20
112.575808
 30
0.0
 40
3.625
100
AcDbArc
 50
46.397181
 51
133.602819
  0
LINE
  5
1EF
100
AcDbEntity
  8
002
 62
     3
100
AcDbLine
 10
257.901868
 20
115.200808
 30
0.0
 11
257.901868
 21
112.200808
 31
0.0
  0
ARC
  5
1F0
100
AcDbEntity
  8
002
 62
     3
100
AcDbCircle
 10
260.401868
 20
114.825808
 30
0.0
 40
3.625
100
AcDbArc
 50
226.397181
 51
313.602819
  0
LINE
  5
1F1
100
AcDbEntity
  8
002
 62
     3
100
AcDbLine
 10
267.901868
 20
110.200808
 30
0.0
 11
267.901868
 21
102.528708
 31
0.0
  0
ARC
  5
1F2
100
AcDbEntity
  8
002
 62
     3
100
AcDbCircle
 10
270.901868
 20
102.528708
 30
0.0
 40
2.999903
100
AcDbArc
 50
180.0
 51
250.503815
  0
LINE
  5
1F3
100
AcDbEntity
  8
002
 62
     3
100
AcDbLine
 10
269.900668
 20
99.700808
 30
0.0
 11
269.900668
 21
64.700808
 31
0.0
  0
LINE
  5
1F4
100
AcDbEntity
  8
002
 62
     3
100
AcDbLine
 10
269.900668
 20
64.700808
 30
0.0
 11
269.875568
 21
64.700808
 31
0.0
  0
ARC
  5
1F5
100
AcDbEntity
  8
002
 62
     3
100
AcDbCircle
 10
269.888168
 20
61.700808
 30
0.0
 40
3.000051
100
AcDbArc
 50
89.761269
 51
155.651038
  0
LINE
  5
1F6
100
AcDbEntity
  8
002
 62
     3
100
AcDbLine
 10
267.850368
 20
65.726508
 30
0.0
 11
268.901868
 21
82.200808
 31
0.0
  0
LINE
  5
1F7
100
AcDbEntity
  8
002
 62
     3
100
AcDbLine
 10
268.901868
 20
82.200808
 30
0.0
 11
267.850368
 21
98.675008
 31
0.0
  0
ARC
  5
1F8
100
AcDbEntity
  8
002
 62
     3
100
AcDbCircle
 10
259.866568
 20
98.165408
 30
0.0
 40
8.000047
100
AcDbArc
 50
3.652192
 51
86.347808
  0
LINE
  5
1F9
100
AcDbEntity
  8
002
 62
     3
100
AcDbLine
 10
254.040368
 20
110.200808
 30
0.0
 11
254.040368
 21
111.200808
 31
0.0
  0
ARC
  5
1FA
100
AcDbEntity
  8
002
 62
     3
100
AcDbCircle
 10
255.401868
 20
114.825808
 30
0.0
 40
3.625
100
AcDbArc
 50
226.397181
 51
313.602819
  0
ARC
  5
1FB
100
AcDbEntity
  8
002
 62
     3
100
AcDbCircle
 10
255.401868
 20
112.575808
 30
0.0
 40
3.625
100
AcDbArc
 50
46.397181
 51
133.602819
  0
LINE
  5
1FC
100
AcDbEntity
  8
002
 62
     3
100
AcDbLine
 10
249.401868
 20
112.200808
 30
0.0
 11
174.401868
 21
112.200808
 31
0.0
  0
LINE
  5
1FD
100
AcDbEntity
  8
002
 62
     3
100
AcDbLine
 10
182.153168
 20
122.200808
 30
0.0
 11
182.153168
 21
128.200808
 31
0.0
  0
LINE
  5
1FE
100
AcDbEntity
  8
002
 62
     3
100
AcDbLine
 10
192.153168
 20
128.200808
 30
0.0
 11
192.153168
 21
122.200808
 31
0.0
  0
LINE
  5
1FF
100
AcDbEntity
  8
002
 62
     3
100
AcDbLine
 10
192.153168
 20
128.200808
 30
0.0
 11
182.153168
 21
128.200808
 31
0.0
  0
LINE
  5
200
100
AcDbEntity
  8
002
 62
     3
100
AcDbLine
 10
201.902168
 20
122.200808
 30
0.0
 11
201.902168
 21
222.200808
 31
0.0
  0
LINE
  5
201
100
AcDbEntity
  8
002
 62
     3
100
AcDbLine
 10
189.902168
 20
234.200808
 30
0.0
 11
189.902168
 21
279.200408
 31
0.0
  0
LINE
  5
202
100
AcDbEntity
  8
002
 62
     3
100
AcDbLine
 10
189.902168
 20
279.200408
 30
0.0
 11
190.901768
 21
280.200508
 31
0.0
  0
LINE
  5
203
100
AcDbEntity
  8
002
 62
     3
100
AcDbLine
 10
190.901968
 20
280.200408
 30
0.0
 11
232.902168
 21
280.200408
 31
0.0
  0
LINE
  5
204
100
AcDbEntity
  8
002
 62
     3
100
AcDbLine
 10
232.901568
 20
280.200908
 30
0.0
 11
233.902168
 21
279.200408
 31
0.0
  0
LINE
  5
205
100
AcDbEntity
  8
002
 62
     3
100
AcDbLine
 10
233.902168
 20
279.200408
 30
0.0
 11
233.902168
 21
234.200808
 31
0.0
  0
LINE
  5
206
100
AcDbEntity
  8
002
 62
     3
100
AcDbLine
 10
228.620368
 20
244.200408
 30
0.0
 11
195.183268
 21
244.200408
 31
0.0
  0
LINE
  5
207
100
AcDbEntity
  8
002
 62
     3
100
AcDbLine
 10
195.183368
 20
244.200408
 30
0.0
 11
195.183368
 21
279.200408
 31
0.0
  0
LINE
  5
208
100
AcDbEntity
  8
002
 62
     3
100
AcDbLine
 10
195.183368
 20
279.200408
 30
0.0
 11
189.902168
 21
279.200408
 31
0.0
  0
LINE
  5
209
100
AcDbEntity
  8
002
 62
     3
100
AcDbLine
 10
195.183368
 20
279.200808
 30
0.0
 11
196.183368
 21
280.200808
 31
0.0
  0
LINE
  5
20A
100
AcDbEntity
  8
002
 62
     3
100
AcDbLine
 10
201.902268
 20
280.200408
 30
0.0
 11
201.902268
 21
322.200808
 31
0.0
  0
LINE
  5
20B
100
AcDbEntity
  8
002
 62
     3
100
AcDbLine
 10
201.902268
 20
322.200808
 30
0.0
 11
221.902168
 21
322.200808
 31
0.0
  0
LINE
  5
20C
100
AcDbEntity
  8
002
 62
     3
100
AcDbLine
 10
221.902168
 20
322.200808
 30
0.0
 11
221.902168
 21
280.200408
 31
0.0
  0
LINE
  5
20D
100
AcDbEntity
  8
002
 62
     3
100
AcDbLine
 10
227.619768
 20
280.200908
 30
0.0
 11
228.619868
 21
279.200908
 31
0.0
  0
LINE
  5
20E
100
AcDbEntity
  8
002
 62
     3
100
AcDbLine
 10
228.620468
 20
279.200408
 30
0.0
 11
228.620468
 21
244.200408
 31
0.0
  0
LINE
  5
20F
100
AcDbEntity
  8
002
 62
     3
100
AcDbLine
 10
219.388268
 20
251.259208
 30
0.0
 11
216.901768
 21
253.705308
 31
0.0
  0
LINE
  5
210
100
AcDbEntity
  8
002
 62
     3
100
AcDbLine
 10
216.901768
 20
252.583308
 30
0.0
 11
206.901868
 21
262.420408
 31
0.0
  0
LINE
  5
211
100
AcDbEntity
  8
002
 62
     3
100
AcDbLine
 10
206.901968
 20
263.541808
 30
0.0
 11
200.839068
 21
269.506008
 31
0.0
  0
LINE
  5
212
100
AcDbEntity
  8
002
 62
     3
100
AcDbLine
 10
204.415468
 20
273.141608
 30
0.0
 11
206.901968
 21
270.695608
 31
0.0
  0
LINE
  5
213
100
AcDbEntity
  8
002
 62
     3
100
AcDbLine
 10
206.901968
 20
271.817508
 30
0.0
 11
216.901868
 21
261.980408
 31
0.0
  0
LINE
  5
214
100
AcDbEntity
  8
002
 62
     3
100
AcDbLine
 10
216.901768
 20
260.859108
 30
0.0
 11
222.964768
 21
254.894908
 31
0.0
  0
ARC
  5
215
100
AcDbEntity
  8
002
 62
     3
100
AcDbCircle
 10
221.176368
 20
253.076908
 30
0.0
 40
2.550054
100
AcDbArc
 50
224.661577
 51
45.470278
  0
LINE
  5
216
100
AcDbEntity
  8
002
 62
     3
100
AcDbLine
 10
216.901768
 20
250.200408
 30
0.0
 11
216.901768
 21
274.200408
 31
0.0
  0
ARC
  5
217
100
AcDbEntity
  8
002
 62
     3
100
AcDbCircle
 10
215.901868
 20
274.200408
 30
0.0
 40
1.0
100
AcDbArc
 50
0.0
 51
90.0
  0
LINE
  5
218
100
AcDbEntity
  8
002
 62
     3
100
AcDbLine
 10
215.901868
 20
275.200408
 30
0.0
 11
207.901968
 21
275.200408
 31
0.0
  0
ARC
  5
219
100
AcDbEntity
  8
002
 62
     3
100
AcDbCircle
 10
207.901968
 20
274.200408
 30
0.0
 40
1.0
100
AcDbArc
 50
90.0
 51
180.0
  0
LINE
  5
21A
100
AcDbEntity
  8
002
 62
     3
100
AcDbLine
 10
206.901968
 20
274.200408
 30
0.0
 11
206.901968
 21
250.200408
 31
0.0
  0
ARC
  5
21B
100
AcDbEntity
  8
002
 62
     3
100
AcDbCircle
 10
207.901868
 20
250.200408
 30
0.0
 40
1.0
100
AcDbArc
 50
180.0
 51
270.0
  0
LINE
  5
21C
100
AcDbEntity
  8
002
 62
     3
100
AcDbLine
 10
207.901868
 20
249.200408
 30
0.0
 11
215.901868
 21
249.200408
 31
0.0
  0
ARC
  5
21D
100
AcDbEntity
  8
002
 62
     3
100
AcDbCircle
 10
215.901868
 20
250.200408
 30
0.0
 40
1.0
100
AcDbArc
 50
270.0
 51
0.0
  0
CIRCLE
  5
21E
100
AcDbEntity
  8
002
 62
     3
100
AcDbCircle
 10
211.901868
 20
252.200408
 30
0.0
 40
2.749998
  0
LINE
  5
21F
100
AcDbEntity
  8
002
 62
     3
100
AcDbLine
 10
213.651868
 20
251.800408
 30
0.0
 11
213.651868
 21
252.600408
 31
0.0
  0
LINE
  5
220
100
AcDbEntity
  8
002
 62
     3
100
AcDbLine
 10
213.651868
 20
252.600408
 30
0.0
 11
212.951868
 21
252.600408
 31
0.0
  0
LINE
  5
221
100
AcDbEntity
  8
002
 62
     3
100
AcDbLine
 10
212.951868
 20
252.600408
 30
0.0
 11
212.539768
 21
252.838308
 31
0.0
  0
LINE
  5
222
100
AcDbEntity
  8
002
 62
     3
100
AcDbLine
 10
212.539768
 20
252.838308
 30
0.0
 11
212.301868
 21
253.250408
 31
0.0
  0
LINE
  5
223
100
AcDbEntity
  8
002
 62
     3
100
AcDbLine
 10
212.301868
 20
253.250408
 30
0.0
 11
212.301868
 21
253.950408
 31
0.0
  0
LINE
  5
224
100
AcDbEntity
  8
002
 62
     3
100
AcDbLine
 10
212.301868
 20
253.950408
 30
0.0
 11
211.501868
 21
253.950408
 31
0.0
  0
LINE
  5
225
100
AcDbEntity
  8
002
 62
     3
100
AcDbLine
 10
211.501868
 20
253.950408
 30
0.0
 11
211.501868
 21
253.250408
 31
0.0
  0
LINE
  5
226
100
AcDbEntity
  8
002
 62
     3
100
AcDbLine
 10
211.501868
 20
253.250408
 30
0.0
 11
211.263968
 21
252.838308
 31
0.0
  0
LINE
  5
227
100
AcDbEntity
  8
002
 62
     3
100
AcDbLine
 10
211.263968
 20
252.838308
 30
0.0
 11
210.851868
 21
252.600408
 31
0.0
  0
LINE
  5
228
100
AcDbEntity
  8
002
 62
     3
100
AcDbLine
 10
210.851868
 20
252.600408
 30
0.0
 11
210.151868
 21
252.600408
 31
0.0
  0
LINE
  5
229
100
AcDbEntity
  8
002
 62
     3
100
AcDbLine
 10
210.151868
 20
252.600408
 30
0.0
 11
210.151868
 21
251.800408
 31
0.0
  0
LINE
  5
22A
100
AcDbEntity
  8
002
 62
     3
100
AcDbLine
 10
210.151868
 20
251.800408
 30
0.0
 11
210.851868
 21
251.800408
 31
0.0
  0
LINE
  5
22B
100
AcDbEntity
  8
002
 62
     3
100
AcDbLine
 10
210.851868
 20
251.800408
 30
0.0
 11
211.263968
 21
251.562508
 31
0.0
  0
LINE
  5
22C
100
AcDbEntity
  8
002
 62
     3
100
AcDbLine
 10
211.263968
 20
251.562508
 30
0.0
 11
211.501868
 21
251.150408
 31
0.0
  0
LINE
  5
22D
100
AcDbEntity
  8
002
 62
     3
100
AcDbLine
 10
211.501868
 20
251.150408
 30
0.0
 11
211.501868
 21
250.450408
 31
0.0
  0
LINE
  5
22E
100
AcDbEntity
  8
002
 62
     3
100
AcDbLine
 10
211.501868
 20
250.450408
 30
0.0
 11
212.301868
 21
250.450408
 31
0.0
  0
LINE
  5
22F
100
AcDbEntity
  8
002
 62
     3
100
AcDbLine
 10
212.301868
 20
250.450408
 30
0.0
 11
212.301868
 21
251.150408
 31
0.0
  0
LINE
  5
230
100
AcDbEntity
  8
002
 62
     3
100
AcDbLine
 10
212.301868
 20
251.150408
 30
0.0
 11
212.539768
 21
251.562508
 31
0.0
  0
LINE
  5
231
100
AcDbEntity
  8
002
 62
     3
100
AcDbLine
 10
212.539768
 20
251.562508
 30
0.0
 11
212.951868
 21
251.800408
 31
0.0
  0
LINE
  5
232
100
AcDbEntity
  8
002
 62
     3
100
AcDbLine
 10
212.951868
 20
251.800408
 30
0.0
 11
213.651868
 21
251.800408
 31
0.0
  0
LINE
  5
233
100
AcDbEntity
  8
002
 62
     3
100
AcDbLine
 10
212.301868
 20
270.450408
 30
0.0
 11
212.301868
 21
271.150408
 31
0.0
  0
LINE
  5
234
100
AcDbEntity
  8
002
 62
     3
100
AcDbLine
 10
212.301868
 20
271.150408
 30
0.0
 11
212.539768
 21
271.562508
 31
0.0
  0
LINE
  5
235
100
AcDbEntity
  8
002
 62
     3
100
AcDbLine
 10
212.539768
 20
271.562508
 30
0.0
 11
212.951868
 21
271.800408
 31
0.0
  0
LINE
  5
236
100
AcDbEntity
  8
002
 62
     3
100
AcDbLine
 10
212.951868
 20
271.800408
 30
0.0
 11
213.651868
 21
271.800408
 31
0.0
  0
LINE
  5
237
100
AcDbEntity
  8
002
 62
     3
100
AcDbLine
 10
213.651868
 20
271.800408
 30
0.0
 11
213.651868
 21
272.600408
 31
0.0
  0
LINE
  5
238
100
AcDbEntity
  8
002
 62
     3
100
AcDbLine
 10
213.651868
 20
272.600408
 30
0.0
 11
212.951868
 21
272.600408
 31
0.0
  0
LINE
  5
239
100
AcDbEntity
  8
002
 62
     3
100
AcDbLine
 10
212.951868
 20
272.600408
 30
0.0
 11
212.539768
 21
272.838308
 31
0.0
  0
LINE
  5
23A
100
AcDbEntity
  8
002
 62
     3
100
AcDbLine
 10
212.539768
 20
272.838308
 30
0.0
 11
212.301868
 21
273.250408
 31
0.0
  0
LINE
  5
23B
100
AcDbEntity
  8
002
 62
     3
100
AcDbLine
 10
212.301868
 20
273.250408
 30
0.0
 11
212.301868
 21
273.950408
 31
0.0
  0
LINE
  5
23C
100
AcDbEntity
  8
002
 62
     3
100
AcDbLine
 10
212.301868
 20
273.950408
 30
0.0
 11
211.501868
 21
273.950408
 31
0.0
  0
LINE
  5
23D
100
AcDbEntity
  8
002
 62
     3
100
AcDbLine
 10
211.501868
 20
273.950408
 30
0.0
 11
211.501868
 21
273.250408
 31
0.0
  0
LINE
  5
23E
100
AcDbEntity
  8
002
 62
     3
100
AcDbLine
 10
211.501868
 20
273.250408
 30
0.0
 11
211.263968
 21
272.838308
 31
0.0
  0
LINE
  5
23F
100
AcDbEntity
  8
002
 62
     3
100
AcDbLine
 10
211.263968
 20
272.838308
 30
0.0
 11
210.851868
 21
272.600408
 31
0.0
  0
LINE
  5
240
100
AcDbEntity
  8
002
 62
     3
100
AcDbLine
 10
210.851868
 20
272.600408
 30
0.0
 11
210.151868
 21
272.600408
 31
0.0
  0
LINE
  5
241
100
AcDbEntity
  8
002
 62
     3
100
AcDbLine
 10
210.151868
 20
272.600408
 30
0.0
 11
210.151868
 21
271.800408
 31
0.0
  0
LINE
  5
242
100
AcDbEntity
  8
002
 62
     3
100
AcDbLine
 10
210.151868
 20
271.800408
 30
0.0
 11
210.851868
 21
271.800408
 31
0.0
  0
LINE
  5
243
100
AcDbEntity
  8
002
 62
     3
100
AcDbLine
 10
210.851868
 20
271.800408
 30
0.0
 11
211.263968
 21
271.562508
 31
0.0
  0
LINE
  5
244
100
AcDbEntity
  8
002
 62
     3
100
AcDbLine
 10
211.263968
 20
271.562508
 30
0.0
 11
211.501868
 21
271.150408
 31
0.0
  0
LINE
  5
245
100
AcDbEntity
  8
002
 62
     3
100
AcDbLine
 10
211.501868
 20
271.150408
 30
0.0
 11
211.501868
 21
270.450408
 31
0.0
  0
LINE
  5
246
100
AcDbEntity
  8
002
 62
     3
100
AcDbLine
 10
211.501868
 20
270.450408
 30
0.0
 11
212.301868
 21
270.450408
 31
0.0
  0
CIRCLE
  5
247
100
AcDbEntity
  8
002
 62
     3
100
AcDbCircle
 10
211.901868
 20
272.200408
 30
0.0
 40
2.749998
  0
ARC
  5
248
100
AcDbEntity
  8
002
 62
     3
100
AcDbCircle
 10
202.627368
 20
271.323908
 30
0.0
 40
2.549984
100
AcDbArc
 50
44.659998
 51
225.47188
  0
LINE
  5
249
100
AcDbEntity
  8
002
 62
     3
100
AcDbLine
 10
228.620468
 20
279.200408
 30
0.0
 11
233.902168
 21
279.200408
 31
0.0
  0
LINE
  5
24A
100
AcDbEntity
  8
002
 62
     3
100
AcDbLine
 10
245.401868
 20
234.200808
 30
0.0
 11
245.401868
 21
222.200808
 31
0.0
  0
LINE
  5
24B
100
AcDbEntity
  8
002
 62
     3
100
AcDbLine
 10
178.401868
 20
222.200808
 30
0.0
 11
178.401868
 21
234.200508
 31
0.0
  0
LINE
  5
24C
100
AcDbEntity
  8
002
 62
     3
100
AcDbLine
 10
178.401868
 20
234.200508
 30
0.0
 11
245.401868
 21
234.200508
 31
0.0
  0
LINE
  5
24D
100
AcDbEntity
  8
002
 62
     3
100
AcDbLine
 10
245.401868
 20
222.200808
 30
0.0
 11
178.401868
 21
222.200808
 31
0.0
  0
LINE
  5
24E
100
AcDbEntity
  8
002
 62
     3
100
AcDbLine
 10
221.902168
 20
222.200808
 30
0.0
 11
221.902168
 21
122.200808
 31
0.0
  0
LINE
  5
24F
100
AcDbEntity
  8
002
 62
     3
100
AcDbLine
 10
231.650668
 20
122.200808
 30
0.0
 11
231.650668
 21
128.200808
 31
0.0
  0
LINE
  5
250
100
AcDbEntity
  8
002
 62
     3
100
AcDbLine
 10
241.650668
 20
128.200808
 30
0.0
 11
241.650668
 21
122.200808
 31
0.0
  0
LINE
  5
251
100
AcDbEntity
  8
002
 62
     3
100
AcDbLine
 10
241.650668
 20
128.200808
 30
0.0
 11
231.650668
 21
128.200808
 31
0.0
  0
ARC
  5
252
100
AcDbEntity
  8
002
 62
     3
100
AcDbCircle
 10
250.127268
 20
112.200808
 30
0.0
 40
2.0
100
AcDbArc
 50
180.0
 51
270.0
  0
ARC
  5
253
100
AcDbEntity
  8
002
 62
     3
100
AcDbCircle
 10
257.901868
 20
122.539308
 30
0.0
 40
1.000041
100
AcDbArc
 50
41.412294
 51
138.587706
  0
CIRCLE
  5
254
100
AcDbEntity
  8
002
 62
     3
100
AcDbCircle
 10
243.901868
 20
82.200808
 30
0.0
 40
17.5
  0
LINE
  5
255
100
AcDbEntity
  8
002
 62
     3
100
AcDbLine
 10
246.401868
 20
86.950808
 30
0.0
 11
246.151868
 21
86.700808
 31
0.0
  0
LINE
  5
256
100
AcDbEntity
  8
002
 62
     3
100
AcDbLine
 10
246.151868
 20
86.700808
 30
0.0
 11
241.651868
 21
86.700808
 31
0.0
  0
LINE
  5
257
100
AcDbEntity
  8
002
 62
     3
100
AcDbLine
 10
241.651868
 20
86.700808
 30
0.0
 11
241.401868
 21
86.950808
 31
0.0
  0
LINE
  5
258
100
AcDbEntity
  8
002
 62
     3
100
AcDbLine
 10
241.401868
 20
86.950808
 30
0.0
 11
241.401868
 21
91.450808
 31
0.0
  0
LINE
  5
259
100
AcDbEntity
  8
002
 62
     3
100
AcDbLine
 10
241.401868
 20
91.450808
 30
0.0
 11
241.651868
 21
91.700808
 31
0.0
  0
LINE
  5
25A
100
AcDbEntity
  8
002
 62
     3
100
AcDbLine
 10
241.651868
 20
91.700808
 30
0.0
 11
246.151868
 21
91.700808
 31
0.0
  0
LINE
  5
25B
100
AcDbEntity
  8
002
 62
     3
100
AcDbLine
 10
246.151868
 20
91.700808
 30
0.0
 11
246.401868
 21
91.450808
 31
0.0
  0
LINE
  5
25C
100
AcDbEntity
  8
002
 62
     3
100
AcDbLine
 10
246.401868
 20
91.450808
 30
0.0
 11
246.401868
 21
86.950808
 31
0.0
  0
ARC
  5
25D
100
AcDbEntity
  8
002
 62
     3
100
AcDbCircle
 10
246.201868
 20
86.900808
 30
0.0
 40
0.2
100
AcDbArc
 50
270.0
 51
0.0
  0
ARC
  5
25E
100
AcDbEntity
  8
002
 62
     3
100
AcDbCircle
 10
241.601868
 20
86.900808
 30
0.0
 40
0.2
100
AcDbArc
 50
180.0
 51
270.0
  0
ARC
  5
25F
100
AcDbEntity
  8
002
 62
     3
100
AcDbCircle
 10
243.901868
 20
82.200808
 30
0.0
 40
7.499936
100
AcDbArc
 50
109.471393
 51
70.528607
  0
ARC
  5
260
100
AcDbEntity
  8
002
 62
     3
100
AcDbCircle
 10
243.901868
 20
82.200808
 30
0.0
 40
8.499963
100
AcDbArc
 50
107.104711
 51
72.895289
  0
ARC
  5
261
100
AcDbEntity
  8
002
 62
     3
100
AcDbCircle
 10
248.276868
 20
67.075808
 30
0.0
 40
2.5
100
AcDbArc
 50
45.150714
 51
180.0
  0
LINE
  5
262
100
AcDbEntity
  8
002
 62
     3
100
AcDbLine
 10
245.776868
 20
67.075808
 30
0.0
 11
245.776868
 21
64.829208
 31
0.0
  0
LINE
  5
263
100
AcDbEntity
  8
002
 62
     3
100
AcDbLine
 10
242.026868
 20
64.829208
 30
0.0
 11
242.026868
 21
67.075808
 31
0.0
  0
ARC
  5
264
100
AcDbEntity
  8
002
 62
     3
100
AcDbCircle
 10
239.526868
 20
67.075808
 30
0.0
 40
2.499985
100
AcDbArc
 50
0.0
 51
134.849286
  0
ARC
  5
265
100
AcDbEntity
  8
002
 62
     3
100
AcDbCircle
 10
236.000668
 20
70.620608
 30
0.0
 40
2.499985
100
AcDbArc
 50
233.133311
 51
314.849286
  0
CIRCLE
  5
266
100
AcDbEntity
  8
002
 62
     3
100
AcDbCircle
 10
239.526868
 20
67.075808
 30
0.0
 40
1.09375
  0
CIRCLE
  5
267
100
AcDbEntity
  8
002
 62
     3
100
AcDbCircle
 10
248.276868
 20
67.075808
 30
0.0
 40
1.09375
  0
ARC
  5
268
100
AcDbEntity
  8
002
 62
     3
100
AcDbCircle
 10
251.803068
 20
70.620608
 30
0.0
 40
2.50008
100
AcDbArc
 50
225.150714
 51
306.868523
  0
ARC
  5
269
100
AcDbEntity
  8
002
 62
     3
100
AcDbCircle
 10
243.901868
 20
81.156408
 30
0.0
 40
15.66938
100
AcDbArc
 50
306.867777
 51
233.132516
  0
ARC
  5
26A
100
AcDbEntity
  8
002
 62
     3
100
AcDbCircle
 10
231.233868
 20
69.532708
 30
0.0
 40
9.999909
100
AcDbArc
 50
183.652211
 51
266.347753
  0
ARC
  5
26B
100
AcDbEntity
  8
002
 62
     3
100
AcDbCircle
 10
228.133868
 20
56.655708
 30
0.0
 40
3.0
100
AcDbArc
 50
280.303822
 51
0.0
  0
LINE
  5
26C
100
AcDbEntity
  8
002
 62
     3
100
AcDbLine
 10
228.670468
 20
53.704108
 30
0.0
 11
225.901868
 21
53.200808
 31
0.0
  0
LINE
  5
26D
100
AcDbEntity
  8
002
 62
     3
100
AcDbLine
 10
232.061768
 20
38.200808
 30
0.0
 11
232.061768
 21
33.200808
 31
0.0
  0
LINE
  5
26E
100
AcDbEntity
  8
002
 62
     3
100
AcDbLine
 10
249.401868
 20
42.200808
 30
0.0
 11
249.401868
 21
52.860808
 31
0.0
  0
LINE
  5
26F
100
AcDbEntity
  8
002
 62
     3
100
AcDbLine
 10
254.083368
 20
57.850608
 30
0.0
 11
260.376168
 21
58.252308
 31
0.0
  0
ARC
  5
270
100
AcDbEntity
  8
002
 62
     3
100
AcDbCircle
 10
259.866568
 20
66.236108
 30
0.0
 40
8.000047
100
AcDbArc
 50
273.652192
 51
356.347808
  0
ARC
  5
271
100
AcDbEntity
  8
002
 62
     3
100
AcDbCircle
 10
254.401868
 20
52.860808
 30
0.0
 40
5.0
100
AcDbArc
 50
93.652247
 51
180.0
  0
LINE
  5
272
100
AcDbEntity
  8
002
 62
     3
100
AcDbLine
 10
249.401868
 20
42.200808
 30
0.0
 11
174.401868
 21
42.200808
 31
0.0
  0
LINE
  5
273
100
AcDbEntity
  8
002
 62
     3
100
AcDbLine
 10
174.401868
 20
42.200808
 30
0.0
 11
174.401868
 21
52.200808
 31
0.0
  0
ARC
  5
274
100
AcDbEntity
  8
002
 62
     3
100
AcDbCircle
 10
172.901868
 20
56.169408
 30
0.0
 40
3.0
100
AcDbArc
 50
318.590571
 51
0.0
  0
ARC
  5
275
100
AcDbEntity
  8
002
 62
     3
100
AcDbCircle
 10
177.401868
 20
52.200808
 30
0.0
 40
3.0
100
AcDbArc
 50
90.0
 51
180.0
  0
ARC
  5
276
100
AcDbEntity
  8
002
 62
     3
100
AcDbCircle
 10
187.153168
 20
99.200808
 30
0.0
 40
6.555861
100
AcDbArc
 50
242.875244
 51
280.689287
  0
ARC
  5
277
100
AcDbEntity
  8
002
 62
     3
100
AcDbCircle
 10
172.901868
 20
96.232108
 30
0.0
 40
2.999991
100
AcDbArc
 50
0.0
 51
41.409429
  0
ARC
  5
278
100
AcDbEntity
  8
002
 62
     3
100
AcDbCircle
 10
228.725268
 20
97.377308
 30
0.0
 40
7.999947
100
AcDbArc
 50
93.652192
 51
176.347762
  0
LINE
  5
279
100
AcDbEntity
  8
002
 62
     3
100
AcDbLine
 10
217.901868
 20
322.200808
 30
0.0
 11
217.901868
 21
342.200808
 31
0.0
  0
LINE
  5
27A
100
AcDbEntity
  8
002
 62
     3
100
AcDbLine
 10
217.901868
 20
342.200808
 30
0.0
 11
205.901868
 21
342.200808
 31
0.0
  0
LINE
  5
27B
100
AcDbEntity
  8
002
 62
     3
100
AcDbLine
 10
205.901868
 20
342.200808
 30
0.0
 11
205.901868
 21
322.200808
 31
0.0
  0
CIRCLE
  5
27C
100
AcDbEntity
  8
002
 62
     3
100
AcDbCircle
 10
188.086268
 20
453.387152
 30
0.0
 40
2.749999
  0
CIRCLE
  5
27D
100
AcDbEntity
  8
002
 62
     3
100
AcDbCircle
 10
211.901868
 20
467.137152
 30
0.0
 40
9.999999
  0
CIRCLE
  5
27E
100
AcDbEntity
  8
002
 62
     3
100
AcDbCircle
 10
211.901868
 20
467.138152
 30
0.0
 40
33.49999
  0
CIRCLE
  5
27F
100
AcDbEntity
  8
002
 62
     3
100
AcDbCircle
 10
235.717468
 20
453.387152
 30
0.0
 40
2.749999
  0
CIRCLE
  5
280
100
AcDbEntity
  8
002
 62
     3
100
AcDbCircle
 10
211.901868
 20
439.638052
 30
0.0
 40
2.749999
  0
CIRCLE
  5
281
100
AcDbEntity
  8
002
 62
     3
100
AcDbCircle
 10
188.086268
 20
480.888152
 30
0.0
 40
2.749999
  0
CIRCLE
  5
282
100
AcDbEntity
  8
002
 62
     3
100
AcDbCircle
 10
211.901868
 20
494.637152
 30
0.0
 40
2.749999
  0
CIRCLE
  5
283
100
AcDbEntity
  8
002
 62
     3
100
AcDbCircle
 10
235.717468
 20
480.888152
 30
0.0
 40
2.749999
  0
LINE
  5
284
100
AcDbEntity
  8
002
  6
CENTER
 62
     9
100
AcDbLine
 10
211.901868
 20
7.902129
 30
0.0
 11
211.901868
 21
346.651152
 31
0.0
  0
LINE
  5
285
100
AcDbEntity
  8
002
 62
     9
100
AcDbLine
 10
220.672168
 20
322.200808
 30
0.0
 11
220.672168
 21
280.200408
 31
0.0
  0
LINE
  5
286
100
AcDbEntity
  8
002
 62
     9
100
AcDbLine
 10
203.132168
 20
280.200408
 30
0.0
 11
203.132168
 21
322.200808
 31
0.0
  0
LINE
  5
287
100
AcDbEntity
  8
002
  6
CENTER
 62
     9
100
AcDbLine
 10
198.914268
 20
274.976508
 30
0.0
 11
206.901968
 21
267.118808
 31
0.0
  0
LINE
  5
288
100
AcDbEntity
  8
002
  6
CENTER
 62
     9
100
AcDbLine
 10
216.901768
 20
257.282008
 30
0.0
 11
224.188868
 21
250.113608
 31
0.0
  0
LINE
  5
289
100
AcDbEntity
  8
002
  6
CENTER
 62
     9
100
AcDbLine
 10
239.401868
 20
237.200808
 30
0.0
 11
239.401868
 21
219.201208
 31
0.0
  0
LINE
  5
28A
100
AcDbEntity
  8
002
 62
     9
100
AcDbLine
 10
220.672168
 20
222.200808
 30
0.0
 11
220.672168
 21
122.200808
 31
0.0
  0
LINE
  5
28B
100
AcDbEntity
  8
002
 62
     9
100
AcDbLine
 10
203.132168
 20
122.200808
 30
0.0
 11
203.132168
 21
222.200808
 31
0.0
  0
LINE
  5
28C
100
AcDbEntity
  8
002
  6
CENTER
 62
     9
100
AcDbLine
 10
184.401868
 20
219.201208
 30
0.0
 11
184.401868
 21
237.200808
 31
0.0
  0
LINE
  5
28D
100
AcDbEntity
  8
002
  6
CENTER
 62
     9
100
AcDbLine
 10
187.153168
 20
132.700808
 30
0.0
 11
187.153168
 21
106.367108
 31
0.0
  0
LINE
  5
28E
100
AcDbEntity
  8
002
  6
CENTER
 62
     9
100
AcDbLine
 10
166.786468
 20
82.200808
 30
0.0
 11
278.833668
 21
82.200808
 31
0.0
  0
LINE
  5
28F
100
AcDbEntity
  8
002
  6
CENTER
 62
     9
100
AcDbLine
 10
257.901868
 20
107.459108
 30
0.0
 11
257.901868
 21
125.804708
 31
0.0
  0
LINE
  5
290
100
AcDbEntity
  8
002
  6
CENTER
 62
     9
100
AcDbLine
 10
243.901868
 20
130.761308
 30
0.0
 11
243.901868
 21
34.157608
 31
0.0
  0
LINE
  5
291
100
AcDbEntity
  8
002
  6
CENTER
 62
     9
100
AcDbLine
 10
227.811768
 20
31.700808
 30
0.0
 11
227.811768
 21
44.200808
 31
0.0
  0
LINE
  5
292
100
AcDbEntity
  8
002
  6
CENTER
 62
     9
100
AcDbLine
 10
195.991968
 20
44.200808
 30
0.0
 11
195.991968
 21
31.700808
 31
0.0
  0
LINE
  5
293
100
AcDbEntity
  8
002
  6
CENTER
 62
     9
100
AcDbLine
 10
236.650668
 20
106.367108
 30
0.0
 11
236.650668
 21
132.700808
 31
0.0
  0
LINE
  5
294
100
AcDbEntity
  8
002
  6
CENTER
 62
     9
100
AcDbLine
 10
181.619468
 20
484.621152
 30
0.0
 11
194.385868
 21
477.251152
 31
0.0
  0
LINE
  5
295
100
AcDbEntity
  8
002
  6
CENTER
 62
     9
100
AcDbLine
 10
175.903968
 20
467.137152
 30
0.0
 11
251.056868
 21
467.137152
 31
0.0
  0
CIRCLE
  5
296
100
AcDbEntity
  8
002
  6
CENTER
 62
     9
100
AcDbCircle
 10
211.901868
 20
467.138152
 30
0.0
 40
27.49998
  0
LINE
  5
297
100
AcDbEntity
  8
002
  6
CENTER
 62
     9
100
AcDbLine
 10
242.184368
 20
449.654152
 30
0.0
 11
229.417868
 21
457.024152
 31
0.0
  0
CIRCLE
  5
298
100
AcDbEntity
  8
002
 62
     9
100
AcDbCircle
 10
211.901868
 20
467.138152
 30
0.0
 40
8.769753
  0
LINE
  5
299
100
AcDbEntity
  8
002
  6
CENTER
 62
     9
100
AcDbLine
 10
229.417868
 20
477.251152
 30
0.0
 11
242.184268
 21
484.621152
 31
0.0
  0
LINE
  5
29A
100
AcDbEntity
  8
002
  6
CENTER
 62
     9
100
AcDbLine
 10
211.901868
 20
506.985152
 30
0.0
 11
211.901868
 21
426.651152
 31
0.0
  0
LINE
  5
29B
100
AcDbEntity
  8
002
  6
CENTER
 62
     9
100
AcDbLine
 10
194.385968
 20
457.024152
 30
0.0
 11
181.619468
 21
449.653152
 31
0.0
  0
CIRCLE
  5
29C
100
AcDbEntity
  8
002
 62
     3
100
AcDbCircle
 10
211.901868
 20
467.137152
 30
0.0
 40
21.99998
  0
ARC
  5
29D
100
AcDbEntity
  8
002
 62
     3
100
AcDbCircle
 10
211.901868
 20
467.137152
 30
0.0
 40
20.999479
100
AcDbArc
 50
317.084293
 51
222.915707
  0
LINE
  5
29E
100
AcDbEntity
  8
002
 62
     3
100
AcDbLine
 10
216.901868
 20
446.938152
 30
0.0
 11
216.901868
 21
452.838152
 31
0.0
  0
LINE
  5
29F
100
AcDbEntity
  8
002
 62
     3
100
AcDbLine
 10
206.901868
 20
446.938152
 30
0.0
 11
216.901868
 21
446.938152
 31
0.0
  0
LINE
  5
2A0
100
AcDbEntity
  8
002
 62
     3
100
AcDbLine
 10
206.901868
 20
452.838152
 30
0.0
 11
206.901868
 21
446.938152
 31
0.0
  0
LINE
  5
2A1
100
AcDbEntity
  8
002
 62
     3
100
AcDbLine
 10
216.901868
 20
452.038152
 30
0.0
 11
206.901868
 21
452.038152
 31
0.0
  0
LINE
  5
2A2
100
AcDbEntity
  8
002
 62
     3
100
AcDbLine
 10
214.851868
 20
451.338152
 30
0.0
 11
214.851868
 21
452.038152
 31
0.0
  0
LINE
  5
2A3
100
AcDbEntity
  8
002
 62
     3
100
AcDbLine
 10
214.851868
 20
451.338152
 30
0.0
 11
208.951868
 21
451.338152
 31
0.0
  0
LINE
  5
2A4
100
AcDbEntity
  8
002
 62
     3
100
AcDbLine
 10
208.951868
 20
451.338152
 30
0.0
 11
208.951868
 21
452.038152
 31
0.0
  0
LINE
  5
2A5
100
AcDbEntity
  8
002
 62
     3
100
AcDbLine
 10
211.901868
 20
452.038152
 30
0.0
 11
212.306068
 21
451.338152
 31
0.0
  0
LINE
  5
2A6
100
AcDbEntity
  8
002
 62
     3
100
AcDbLine
 10
211.901868
 20
451.338152
 30
0.0
 11
211.497768
 21
452.038152
 31
0.0
  0
LINE
  5
2A7
100
AcDbEntity
  8
002
 62
     3
100
AcDbLine
 10
209.151968
 20
451.338152
 30
0.0
 11
209.226068
 21
450.491152
 31
0.0
  0
ARC
  5
2A8
100
AcDbEntity
  8
002
 62
     3
100
AcDbCircle
 10
210.222268
 20
450.578152
 30
0.0
 40
0.999972
100
AcDbArc
 50
185.048158
 51
253.745296
  0
ARC
  5
2A9
100
AcDbEntity
  8
002
 62
     3
100
AcDbCircle
 10
211.901868
 20
456.338152
 30
0.0
 40
7.000126
100
AcDbArc
 50
253.743724
 51
264.771558
  0
LINE
  5
2AA
100
AcDbEntity
  8
002
 62
     3
100
AcDbLine
 10
211.264068
 20
449.367152
 30
0.0
 11
211.501968
 21
449.417152
 31
0.0
  0
LINE
  5
2AB
100
AcDbEntity
  8
002
 62
     3
100
AcDbLine
 10
211.501868
 20
449.417152
 30
0.0
 11
211.501868
 21
449.560152
 31
0.0
  0
LINE
  5
2AC
100
AcDbEntity
  8
002
 62
     3
100
AcDbLine
 10
211.501868
 20
449.560152
 30
0.0
 11
212.301868
 21
449.560152
 31
0.0
  0
LINE
  5
2AD
100
AcDbEntity
  8
002
 62
     3
100
AcDbLine
 10
212.301868
 20
449.417152
 30
0.0
 11
212.539768
 21
449.367152
 31
0.0
  0
ARC
  5
2AE
100
AcDbEntity
  8
002
 62
     3
100
AcDbCircle
 10
211.901868
 20
456.338152
 30
0.0
 40
6.999888
100
AcDbArc
 50
275.228442
 51
286.257062
  0
ARC
  5
2AF
100
AcDbEntity
  8
002
 62
     3
100
AcDbCircle
 10
213.581568
 20
450.578152
 30
0.0
 40
1.000079
100
AcDbArc
 50
286.254704
 51
354.951842
  0
LINE
  5
2B0
100
AcDbEntity
  8
002
 62
     3
100
AcDbLine
 10
214.577768
 20
450.491152
 30
0.0
 11
214.651868
 21
451.338152
 31
0.0
  0
LINE
  5
2B1
100
AcDbEntity
  8
002
 62
     3
100
AcDbLine
 10
212.301868
 20
449.560152
 30
0.0
 11
212.301868
 21
449.417152
 31
0.0
  0
LINE
  5
2B2
100
AcDbEntity
  8
002
 62
     3
100
AcDbLine
 10
216.900668
 20
447.846152
 30
0.0
 11
217.809168
 21
448.082152
 31
0.0
  0
LINE
  5
2B3
100
AcDbEntity
  8
002
 62
     3
100
AcDbLine
 10
217.809168
 20
448.082152
 30
0.0
 11
218.465568
 21
448.342152
 31
0.0
  0
LINE
  5
2B4
100
AcDbEntity
  8
002
 62
     3
100
AcDbLine
 10
218.465568
 20
448.342152
 30
0.0
 11
219.090368
 21
448.665152
 31
0.0
  0
LINE
  5
2B5
100
AcDbEntity
  8
002
 62
     3
100
AcDbLine
 10
219.090368
 20
448.665152
 30
0.0
 11
219.681268
 21
449.047152
 31
0.0
  0
LINE
  5
2B6
100
AcDbEntity
  8
002
 62
     3
100
AcDbLine
 10
219.681268
 20
449.047152
 30
0.0
 11
220.234468
 21
449.481152
 31
0.0
  0
LINE
  5
2B7
100
AcDbEntity
  8
002
 62
     3
100
AcDbLine
 10
220.234468
 20
449.481152
 30
0.0
 11
220.748468
 21
449.962152
 31
0.0
  0
LINE
  5
2B8
100
AcDbEntity
  8
002
 62
     3
100
AcDbLine
 10
220.748468
 20
449.962152
 30
0.0
 11
221.222668
 21
450.487152
 31
0.0
  0
LINE
  5
2B9
100
AcDbEntity
  8
002
 62
     3
100
AcDbLine
 10
221.222668
 20
450.487152
 30
0.0
 11
221.655468
 21
451.048152
 31
0.0
  0
LINE
  5
2BA
100
AcDbEntity
  8
002
 62
     3
100
AcDbLine
 10
221.655468
 20
451.048152
 30
0.0
 11
222.071568
 21
451.689152
 31
0.0
  0
LINE
  5
2BB
100
AcDbEntity
  8
002
 62
     3
100
AcDbLine
 10
222.071568
 20
451.689152
 30
0.0
 11
222.540968
 21
452.551152
 31
0.0
  0
LINE
  5
2BC
100
AcDbEntity
  8
002
 62
     3
100
AcDbLine
 10
222.540968
 20
452.551152
 30
0.0
 11
222.674468
 21
452.838152
 31
0.0
  0
LINE
  5
2BD
100
AcDbEntity
  8
002
 62
     3
100
AcDbLine
 10
205.338168
 20
448.342152
 30
0.0
 11
205.994568
 21
448.082152
 31
0.0
  0
LINE
  5
2BE
100
AcDbEntity
  8
002
 62
     3
100
AcDbLine
 10
205.994568
 20
448.082152
 30
0.0
 11
206.903068
 21
447.846152
 31
0.0
  0
LINE
  5
2BF
100
AcDbEntity
  8
002
 62
     3
100
AcDbLine
 10
204.122468
 20
449.047152
 30
0.0
 11
204.713368
 21
448.665152
 31
0.0
  0
LINE
  5
2C0
100
AcDbEntity
  8
002
 62
     3
100
AcDbLine
 10
204.713368
 20
448.665152
 30
0.0
 11
205.338168
 21
448.342152
 31
0.0
  0
LINE
  5
2C1
100
AcDbEntity
  8
002
 62
     3
100
AcDbLine
 10
203.055368
 20
449.962152
 30
0.0
 11
203.569268
 21
449.481152
 31
0.0
  0
LINE
  5
2C2
100
AcDbEntity
  8
002
 62
     3
100
AcDbLine
 10
203.569268
 20
449.481152
 30
0.0
 11
204.122468
 21
449.047152
 31
0.0
  0
LINE
  5
2C3
100
AcDbEntity
  8
002
 62
     3
100
AcDbLine
 10
202.581068
 20
450.487152
 30
0.0
 11
203.055368
 21
449.962152
 31
0.0
  0
LINE
  5
2C4
100
AcDbEntity
  8
002
 62
     3
100
AcDbLine
 10
202.148368
 20
451.048152
 30
0.0
 11
202.581068
 21
450.487152
 31
0.0
  0
LINE
  5
2C5
100
AcDbEntity
  8
002
 62
     3
100
AcDbLine
 10
201.732168
 20
451.689152
 30
0.0
 11
202.148368
 21
451.048152
 31
0.0
  0
LINE
  5
2C6
100
AcDbEntity
  8
002
 62
     3
100
AcDbLine
 10
201.262768
 20
452.551152
 30
0.0
 11
201.732168
 21
451.689152
 31
0.0
  0
LINE
  5
2C7
100
AcDbEntity
  8
002
 62
     3
100
AcDbLine
 10
195.183168
 20
452.838152
 30
0.0
 11
228.620568
 21
452.838152
 31
0.0
  0
LINE
  5
2C8
100
AcDbEntity
  8
002
 62
     3
100
AcDbLine
 10
201.129268
 20
452.838152
 30
0.0
 11
201.262768
 21
452.551152
 31
0.0
  0
LINE
  5
2C9
100
AcDbEntity
  8
002
  6
HIDDEN
 62
     9
100
AcDbLine
 10
223.901868
 20
52.200808
 30
0.0
 11
223.901868
 21
52.664908
 31
0.0
  0
LINE
  5
2CA
100
AcDbEntity
  8
002
  6
HIDDEN
 62
     9
100
AcDbLine
 10
199.901868
 20
52.200808
 30
0.0
 11
199.901868
 21
52.664908
 31
0.0
  0
CIRCLE
  5
2CB
100
AcDbEntity
  8
002
  6
HIDDEN
 62
     9
100
AcDbCircle
 10
211.901868
 20
494.637152
 30
0.0
 40
4.749999
  0
CIRCLE
  5
2CC
100
AcDbEntity
  8
002
 62
     3
100
AcDbCircle
 10
211.901868
 20
467.137152
 30
0.0
 40
6.0
  0
LINE
  5
2CD
100
AcDbEntity
  8
002
  6
HIDDEN
 62
     9
100
AcDbLine
 10
205.268668
 20
52.200808
 30
0.0
 11
199.901868
 21
52.200808
 31
0.0
  0
LINE
  5
2CE
100
AcDbEntity
  8
002
  6
HIDDEN
 62
     9
100
AcDbLine
 10
206.401868
 20
42.200808
 30
0.0
 11
206.401868
 21
52.200808
 31
0.0
  0
LINE
  5
2CF
100
AcDbEntity
  8
002
  6
HIDDEN
 62
     9
100
AcDbLine
 10
217.401868
 20
52.200808
 30
0.0
 11
217.401868
 21
42.200808
 31
0.0
  0
LINE
  5
2D0
100
AcDbEntity
  8
002
  6
HIDDEN
 62
     9
100
AcDbLine
 10
223.901868
 20
52.200808
 30
0.0
 11
218.535168
 21
52.200808
 31
0.0
  0
CIRCLE
  5
2D1
100
AcDbEntity
  8
002
  6
HIDDEN
 62
     9
100
AcDbCircle
 10
235.717468
 20
480.888152
 30
0.0
 40
4.749999
  0
CIRCLE
  5
2D2
100
AcDbEntity
  8
002
  6
HIDDEN
 62
     9
100
AcDbCircle
 10
235.717468
 20
453.387152
 30
0.0
 40
4.749999
  0
CIRCLE
  5
2D3
100
AcDbEntity
  8
002
  6
HIDDEN
 62
     9
100
AcDbCircle
 10
188.086268
 20
453.387152
 30
0.0
 40
4.749999
  0
CIRCLE
  5
2D4
100
AcDbEntity
  8
002
  6
HIDDEN
 62
     9
100
AcDbCircle
 10
188.086268
 20
480.888152
 30
0.0
 40
4.749999
  0
CIRCLE
  5
2D5
100
AcDbEntity
  8
002
  6
HIDDEN
 62
     9
100
AcDbCircle
 10
211.901868
 20
439.638052
 30
0.0
 40
4.749999
  0
LINE
  5
2D6
100
AcDbEntity
  8
002
  6
HIDDEN
 62
     9
100
AcDbLine
 10
189.151868
 20
227.700808
 30
0.0
 11
179.651868
 21
227.700808
 31
0.0
  0
LINE
  5
2D7
100
AcDbEntity
  8
002
  6
HIDDEN
 62
     9
100
AcDbLine
 10
181.651868
 20
227.700808
 30
0.0
 11
181.651868
 21
234.200508
 31
0.0
  0
LINE
  5
2D8
100
AcDbEntity
  8
002
  6
HIDDEN
 62
     9
100
AcDbLine
 10
187.151868
 20
227.700808
 30
0.0
 11
187.151868
 21
234.200508
 31
0.0
  0
LINE
  5
2D9
100
AcDbEntity
  8
002
  6
HIDDEN
 62
     9
100
AcDbLine
 10
179.651868
 20
227.700808
 30
0.0
 11
179.651868
 21
222.200808
 31
0.0
  0
LINE
  5
2DA
100
AcDbEntity
  8
002
  6
HIDDEN
 62
     9
100
AcDbLine
 10
189.151868
 20
227.700808
 30
0.0
 11
189.151868
 21
222.200808
 31
0.0
  0
LINE
  5
2DB
100
AcDbEntity
  8
002
  6
HIDDEN
 62
     9
100
AcDbLine
 10
234.651868
 20
227.700808
 30
0.0
 11
244.151868
 21
227.700808
 31
0.0
  0
LINE
  5
2DC
100
AcDbEntity
  8
002
  6
HIDDEN
 62
     9
100
AcDbLine
 10
242.151868
 20
227.700808
 30
0.0
 11
242.151868
 21
234.200508
 31
0.0
  0
LINE
  5
2DD
100
AcDbEntity
  8
002
  6
HIDDEN
 62
     9
100
AcDbLine
 10
236.651868
 20
227.700808
 30
0.0
 11
236.651868
 21
234.200508
 31
0.0
  0
LINE
  5
2DE
100
AcDbEntity
  8
002
  6
HIDDEN
 62
     9
100
AcDbLine
 10
244.151868
 20
227.700808
 30
0.0
 11
244.151868
 21
222.200808
 31
0.0
  0
LINE
  5
2DF
100
AcDbEntity
  8
002
  6
HIDDEN
 62
     9
100
AcDbLine
 10
234.651868
 20
227.700808
 30
0.0
 11
234.651868
 21
222.200808
 31
0.0
  0
LINE
  5
2E0
100
AcDbEntity
  8
002
  6
HIDDEN
 62
     9
100
AcDbLine
 10
724.539868
 20
99.76453
 30
0.0
 11
715.039868
 21
99.76453
 31
0.0
  0
LINE
  5
2E1
100
AcDbEntity
  8
002
  6
HIDDEN
 62
     9
100
AcDbLine
 10
717.039868
 20
99.76453
 30
0.0
 11
717.039868
 21
106.26423
 31
0.0
  0
LINE
  5
2E2
100
AcDbEntity
  8
002
  6
HIDDEN
 62
     9
100
AcDbLine
 10
722.539868
 20
99.76453
 30
0.0
 11
722.539868
 21
106.26423
 31
0.0
  0
LINE
  5
2E3
100
AcDbEntity
  8
002
  6
HIDDEN
 62
     9
100
AcDbLine
 10
715.039868
 20
99.76453
 30
0.0
 11
715.039868
 21
94.26453
 31
0.0
  0
LINE
  5
2E4
100
AcDbEntity
  8
002
  6
HIDDEN
 62
     9
100
AcDbLine
 10
724.539868
 20
99.76453
 30
0.0
 11
724.539868
 21
94.26453
 31
0.0
  0
LINE
  5
2E5
100
AcDbEntity
  8
002
  6
HIDDEN
 62
     9
100
AcDbLine
 10
770.039868
 20
99.76453
 30
0.0
 11
779.539868
 21
99.76453
 31
0.0
  0
LINE
  5
2E6
100
AcDbEntity
  8
002
  6
HIDDEN
 62
     9
100
AcDbLine
 10
777.539868
 20
99.76453
 30
0.0
 11
777.539868
 21
106.26423
 31
0.0
  0
LINE
  5
2E7
100
AcDbEntity
  8
002
  6
HIDDEN
 62
     9
100
AcDbLine
 10
772.039868
 20
99.76453
 30
0.0
 11
772.039868
 21
106.26423
 31
0.0
  0
LINE
  5
2E8
100
AcDbEntity
  8
002
  6
HIDDEN
 62
     9
100
AcDbLine
 10
779.539868
 20
99.76453
 30
0.0
 11
779.539868
 21
94.26453
 31
0.0
  0
LINE
  5
2E9
100
AcDbEntity
  8
002
  6
HIDDEN
 62
     9
100
AcDbLine
 10
770.039868
 20
99.76453
 30
0.0
 11
770.039868
 21
94.26453
 31
0.0
  0
ARC
  5
2EA
100
AcDbEntity
  8
002
 62
     3
100
AcDbCircle
 10
211.901868
 20
806.273152
 30
0.0
 40
37.499623
100
AcDbArc
 50
266.040671
 51
273.863122
  0
ARC
  5
2EB
100
AcDbEntity
  8
002
 62
     3
100
AcDbCircle
 10
211.901868
 20
806.273152
 30
0.0
 40
37.499623
100
AcDbArc
 50
86.136878
 51
93.959329
  0
CIRCLE
  5
2EC
100
AcDbEntity
  8
002
 62
     9
100
AcDbCircle
 10
211.901868
 20
806.274152
 30
0.0
 40
8.769753
  0
LINE
  5
2ED
100
AcDbEntity
  8
002
 62
     3
100
AcDbLine
 10
353.834568
 20
105.700808
 30
0.0
 11
353.834568
 21
58.700808
 31
0.0
  0
LINE
  5
2EE
100
AcDbEntity
  8
002
 62
     3
100
AcDbLine
 10
353.834568
 20
58.700808
 30
0.0
 11
403.834568
 21
57.200808
 31
0.0
  0
LINE
  5
2EF
100
AcDbEntity
  8
002
 62
     3
100
AcDbLine
 10
403.834568
 20
57.200808
 30
0.0
 11
453.834568
 21
58.700808
 31
0.0
  0
LINE
  5
2F0
100
AcDbEntity
  8
002
 62
     3
100
AcDbLine
 10
453.834568
 20
58.700808
 30
0.0
 11
453.834568
 21
105.700808
 31
0.0
  0
LINE
  5
2F1
100
AcDbEntity
  8
002
 62
     3
100
AcDbLine
 10
453.834568
 20
105.700808
 30
0.0
 11
416.744568
 21
106.813508
 31
0.0
  0
LINE
  5
2F2
100
AcDbEntity
  8
002
 62
     3
100
AcDbLine
 10
413.834568
 20
109.812108
 30
0.0
 11
413.834568
 21
110.200808
 31
0.0
  0
LINE
  5
2F3
100
AcDbEntity
  8
002
 62
     3
100
AcDbLine
 10
413.834568
 20
110.200808
 30
0.0
 11
393.834568
 21
110.200808
 31
0.0
  0
LINE
  5
2F4
100
AcDbEntity
  8
002
 62
     3
100
AcDbLine
 10
393.834568
 20
110.200808
 30
0.0
 11
393.834568
 21
109.812108
 31
0.0
  0
ARC
  5
2F5
100
AcDbEntity
  8
002
 62
     3
100
AcDbCircle
 10
403.834568
 20
116.151108
 30
0.0
 40
13.622336
100
AcDbArc
 50
222.769752
 51
317.230248
  0
ARC
  5
2F6
100
AcDbEntity
  8
002
 62
     3
100
AcDbCircle
 10
416.834568
 20
109.812108
 30
0.0
 40
2.99995
100
AcDbArc
 50
180.0
 51
268.28084
  0
LINE
  5
2F7
100
AcDbEntity
  8
002
 62
     3
100
AcDbLine
 10
409.608568
 20
112.200808
 30
0.0
 11
409.608568
 21
115.200808
 31
0.0
  0
LINE
  5
2F8
100
AcDbEntity
  8
002
 62
     3
100
AcDbLine
 10
409.608568
 20
115.200808
 30
0.0
 11
406.694568
 21
118.114308
 31
0.0
  0
LINE
  5
2F9
100
AcDbEntity
  8
002
 62
     3
100
AcDbLine
 10
406.132568
 20
118.676808
 30
0.0
 11
401.537568
 21
118.676808
 31
0.0
  0
LINE
  5
2FA
100
AcDbEntity
  8
002
 62
     3
100
AcDbLine
 10
401.115568
 20
119.351408
 30
0.0
 11
400.584568
 21
120.200808
 31
0.0
  0
LINE
  5
2FB
100
AcDbEntity
  8
002
 62
     3
100
AcDbLine
 10
400.584568
 20
120.200808
 30
0.0
 11
401.334568
 21
123.200808
 31
0.0
  0
LINE
  5
2FC
100
AcDbEntity
  8
002
 62
     3
100
AcDbLine
 10
401.334568
 20
123.200808
 30
0.0
 11
406.334568
 21
123.200808
 31
0.0
  0
LINE
  5
2FD
100
AcDbEntity
  8
002
 62
     3
100
AcDbLine
 10
406.334568
 20
123.200808
 30
0.0
 11
407.084568
 21
120.200808
 31
0.0
  0
LINE
  5
2FE
100
AcDbEntity
  8
002
 62
     3
100
AcDbLine
 10
407.084568
 20
120.200808
 30
0.0
 11
406.553568
 21
119.351408
 31
0.0
  0
ARC
  5
2FF
100
AcDbEntity
  8
002
 62
     3
100
AcDbCircle
 10
407.401568
 20
118.821408
 30
0.0
 40
0.99992
100
AcDbArc
 50
147.994617
 51
225.004052
  0
LINE
  5
300
100
AcDbEntity
  8
002
 62
     3
100
AcDbLine
 10
406.334568
 20
120.200808
 30
0.0
 11
401.334568
 21
120.200808
 31
0.0
  0
LINE
  5
301
100
AcDbEntity
  8
002
 62
     3
100
AcDbLine
 10
366.334568
 20
122.200808
 30
0.0
 11
366.334568
 21
106.075808
 31
0.0
  0
LINE
  5
302
100
AcDbEntity
  8
002
 62
     3
100
AcDbLine
 10
366.334568
 20
112.200808
 30
0.0
 11
398.061568
 21
112.200808
 31
0.0
  0
LINE
  5
303
100
AcDbEntity
  8
002
 62
     3
100
AcDbLine
 10
398.061568
 20
112.200808
 30
0.0
 11
398.963568
 21
111.298108
 31
0.0
  0
ARC
  5
304
100
AcDbEntity
  8
002
 62
     3
100
AcDbCircle
 10
399.504568
 20
112.741508
 30
0.0
 40
1.540975
100
AcDbArc
 50
249.453526
 51
339.458751
  0
LINE
  5
305
100
AcDbEntity
  8
002
 62
     3
100
AcDbLine
 10
400.947568
 20
112.200808
 30
0.0
 11
400.947568
 21
115.200808
 31
0.0
  0
ARC
  5
306
100
AcDbEntity
  8
002
 62
     3
100
AcDbCircle
 10
399.504568
 20
114.660108
 30
0.0
 40
1.541455
100
AcDbArc
 50
20.541249
 51
110.546474
  0
LINE
  5
307
100
AcDbEntity
  8
002
 62
     3
100
AcDbLine
 10
398.061568
 20
115.200808
 30
0.0
 11
400.974568
 21
118.114308
 31
0.0
  0
ARC
  5
308
100
AcDbEntity
  8
002
 62
     3
100
AcDbCircle
 10
400.267568
 20
118.821408
 30
0.0
 40
1.000002
100
AcDbArc
 50
314.995948
 51
32.005383
  0
LINE
  5
309
100
AcDbEntity
  8
002
 62
     3
100
AcDbLine
 10
398.061568
 20
115.200808
 30
0.0
 11
398.061568
 21
112.200808
 31
0.0
  0
LINE
  5
30A
100
AcDbEntity
  8
002
 62
     3
100
AcDbLine
 10
399.548568
 20
111.200808
 30
0.0
 11
408.120568
 21
111.200808
 31
0.0
  0
LINE
  5
30B
100
AcDbEntity
  8
002
 62
     3
100
AcDbLine
 10
407.696568
 20
111.200808
 30
0.0
 11
407.696568
 21
110.200808
 31
0.0
  0
LINE
  5
30C
100
AcDbEntity
  8
002
 62
     3
100
AcDbLine
 10
408.705568
 20
111.298108
 30
0.0
 11
409.608568
 21
112.200808
 31
0.0
  0
LINE
  5
30D
100
AcDbEntity
  8
002
 62
     3
100
AcDbLine
 10
409.608568
 20
112.200808
 30
0.0
 11
441.334568
 21
112.200808
 31
0.0
  0
LINE
  5
30E
100
AcDbEntity
  8
002
 62
     3
100
AcDbLine
 10
441.334568
 20
106.075808
 30
0.0
 11
441.334568
 21
122.200808
 31
0.0
  0
ARC
  5
30F
100
AcDbEntity
  8
002
 62
     3
100
AcDbCircle
 10
403.834568
 20
122.539308
 30
0.0
 40
1.000041
100
AcDbArc
 50
41.412294
 51
138.587706
  0
LINE
  5
310
100
AcDbEntity
  8
002
 62
     3
100
AcDbLine
 10
406.721568
 20
115.200808
 30
0.0
 11
406.721568
 21
112.200808
 31
0.0
  0
ARC
  5
311
100
AcDbEntity
  8
002
 62
     3
100
AcDbCircle
 10
408.164568
 20
112.741508
 30
0.0
 40
1.541455
100
AcDbArc
 50
200.541249
 51
290.546474
  0
ARC
  5
312
100
AcDbEntity
  8
002
 62
     3
100
AcDbCircle
 10
403.834568
 20
111.534108
 30
0.0
 40
4.666847
100
AcDbArc
 50
51.784644
 51
128.215356
  0
ARC
  5
313
100
AcDbEntity
  8
002
 62
     3
100
AcDbCircle
 10
403.834568
 20
115.867408
 30
0.0
 40
4.666768
100
AcDbArc
 50
231.783884
 51
308.216116
  0
ARC
  5
314
100
AcDbEntity
  8
002
 62
     3
100
AcDbCircle
 10
408.164568
 20
114.660108
 30
0.0
 40
1.540975
100
AcDbArc
 50
69.453526
 51
159.458751
  0
LINE
  5
315
100
AcDbEntity
  8
002
 62
     3
100
AcDbLine
 10
399.973568
 20
111.200808
 30
0.0
 11
399.973568
 21
110.200808
 31
0.0
  0
LINE
  5
316
100
AcDbEntity
  8
002
 62
     3
100
AcDbLine
 10
390.924568
 20
106.813508
 30
0.0
 11
353.834568
 21
105.700808
 31
0.0
  0
LINE
  5
317
100
AcDbEntity
  8
002
 62
     3
100
AcDbLine
 10
376.334568
 20
99.700808
 30
0.0
 11
431.334568
 21
99.700808
 31
0.0
  0
LINE
  5
318
100
AcDbEntity
  8
002
 62
     3
100
AcDbLine
 10
431.334568
 20
99.700808
 30
0.0
 11
431.334568
 21
64.700808
 31
0.0
  0
LINE
  5
319
100
AcDbEntity
  8
002
 62
     3
100
AcDbLine
 10
431.334568
 20
64.700808
 30
0.0
 11
376.334568
 21
64.700808
 31
0.0
  0
LINE
  5
31A
100
AcDbEntity
  8
002
 62
     3
100
AcDbLine
 10
376.334568
 20
64.700808
 30
0.0
 11
376.334568
 21
99.700808
 31
0.0
  0
ARC
  5
31B
100
AcDbEntity
  8
002
 62
     3
100
AcDbCircle
 10
390.834568
 20
109.812108
 30
0.0
 40
3.0
100
AcDbArc
 50
271.71916
 51
0.0
  0
ARC
  5
31C
100
AcDbEntity
  8
002
 62
     3
100
AcDbCircle
 10
337.834568
 20
49.313408
 30
0.0
 40
4.0
100
AcDbArc
 50
91.633141
 51
180.0
  0
LINE
  5
31D
100
AcDbEntity
  8
002
 62
     3
100
AcDbLine
 10
333.834568
 20
49.313408
 30
0.0
 11
333.834568
 21
42.200808
 31
0.0
  0
LINE
  5
31E
100
AcDbEntity
  8
002
 62
     3
100
AcDbLine
 10
333.834568
 20
42.200808
 30
0.0
 11
473.834568
 21
42.200808
 31
0.0
  0
LINE
  5
31F
100
AcDbEntity
  8
002
 62
     3
100
AcDbLine
 10
473.834568
 20
42.200808
 30
0.0
 11
473.834568
 21
49.313408
 31
0.0
  0
ARC
  5
320
100
AcDbEntity
  8
002
 62
     3
100
AcDbCircle
 10
469.834568
 20
49.313408
 30
0.0
 40
4.000025
100
AcDbArc
 50
0.0
 51
88.366859
  0
LINE
  5
321
100
AcDbEntity
  8
002
 62
     3
100
AcDbLine
 10
469.948568
 20
53.311808
 30
0.0
 11
403.834568
 21
55.200808
 31
0.0
  0
LINE
  5
322
100
AcDbEntity
  8
002
 62
     3
100
AcDbLine
 10
403.834568
 20
55.200808
 30
0.0
 11
337.720568
 21
53.311808
 31
0.0
  0
ARC
  5
323
100
AcDbEntity
  8
002
 62
     3
100
AcDbCircle
 10
365.834568
 20
56.115908
 30
0.0
 40
2.0
100
AcDbArc
 50
271.633141
 51
0.0
  0
ARC
  5
324
100
AcDbEntity
  8
002
 62
     3
100
AcDbCircle
 10
365.834568
 20
56.339908
 30
0.0
 40
2.0
100
AcDbArc
 50
0.0
 51
88.280869
  0
ARC
  5
325
100
AcDbEntity
  8
002
 62
     3
100
AcDbCircle
 10
382.649568
 20
50.593808
 30
0.0
 40
4.0
100
AcDbArc
 50
139.328795
 51
180.0
  0
LINE
  5
326
100
AcDbEntity
  8
002
 62
     3
100
AcDbLine
 10
378.649568
 20
50.365308
 30
0.0
 11
378.649568
 21
42.200808
 31
0.0
  0
LINE
  5
327
100
AcDbEntity
  8
002
 62
     3
100
AcDbLine
 10
429.020568
 20
42.200808
 30
0.0
 11
429.020568
 21
50.365308
 31
0.0
  0
ARC
  5
328
100
AcDbEntity
  8
002
 62
     3
100
AcDbCircle
 10
425.020568
 20
50.593808
 30
0.0
 40
3.999442
100
AcDbArc
 50
0.0
 51
40.680542
  0
ARC
  5
329
100
AcDbEntity
  8
002
 62
     3
100
AcDbCircle
 10
433.020568
 20
50.365308
 30
0.0
 40
4.0
100
AcDbArc
 50
134.86328
 51
180.0
  0
ARC
  5
32A
100
AcDbEntity
  8
002
 62
     3
100
AcDbCircle
 10
441.834568
 20
56.115908
 30
0.0
 40
2.000012
100
AcDbArc
 50
180.0
 51
268.366859
  0
ARC
  5
32B
100
AcDbEntity
  8
002
 62
     3
100
AcDbCircle
 10
441.834568
 20
56.339908
 30
0.0
 40
2.0
100
AcDbArc
 50
91.719131
 51
180.0
  0
ARC
  5
32C
100
AcDbEntity
  8
002
 62
     3
100
AcDbCircle
 10
374.649568
 20
50.365308
 30
0.0
 40
3.999763
100
AcDbArc
 50
0.0
 51
45.146873
  0
LINE
  5
32D
100
AcDbEntity
  8
003
  6
CENTER
 62
     9
100
AcDbLine
 10
463.834568
 20
58.399108
 30
0.0
 11
463.834568
 21
38.008908
 31
0.0
  0
LINE
  5
32E
100
AcDbEntity
  8
003
  6
HIDDEN
 62
     9
100
AcDbLine
 10
469.334568
 20
42.200808
 30
0.0
 11
469.334568
 21
52.200808
 31
0.0
  0
LINE
  5
32F
100
AcDbEntity
  8
003
  6
HIDDEN
 62
     9
100
AcDbLine
 10
472.602568
 20
52.200808
 30
0.0
 11
451.834568
 21
52.200808
 31
0.0
  0
LINE
  5
330
100
AcDbEntity
  8
003
  6
HIDDEN
 62
     9
100
AcDbLine
 10
451.834568
 20
52.200808
 30
0.0
 11
451.834568
 21
53.829308
 31
0.0
  0
LINE
  5
331
100
AcDbEntity
  8
003
  6
HIDDEN
 62
     9
100
AcDbLine
 10
458.334568
 20
52.200808
 30
0.0
 11
458.334568
 21
42.200808
 31
0.0
  0
LINE
  5
332
100
AcDbEntity
  8
003
  6
HIDDEN
 62
     9
100
AcDbLine
 10
355.834568
 20
52.200808
 30
0.0
 11
335.066568
 21
52.200808
 31
0.0
  0
LINE
  5
333
100
AcDbEntity
  8
003
  6
HIDDEN
 62
     9
100
AcDbLine
 10
338.334568
 20
52.200808
 30
0.0
 11
338.334568
 21
42.200808
 31
0.0
  0
LINE
  5
334
100
AcDbEntity
  8
003
  6
CENTER
 62
     9
100
AcDbLine
 10
343.834568
 20
38.008908
 30
0.0
 11
343.834568
 21
58.399108
 31
0.0
  0
LINE
  5
335
100
AcDbEntity
  8
003
  6
HIDDEN
 62
     9
100
AcDbLine
 10
349.334568
 20
52.200808
 30
0.0
 11
349.334568
 21
42.200808
 31
0.0
  0
LINE
  5
336
100
AcDbEntity
  8
003
  6
HIDDEN
 62
     9
100
AcDbLine
 10
355.834568
 20
52.200808
 30
0.0
 11
355.834568
 21
53.829308
 31
0.0
  0
LINE
  5
337
100
AcDbEntity
  8
002
 62
     3
100
AcDbLine
 10
433.583268
 20
128.200808
 30
0.0
 11
423.583268
 21
128.200808
 31
0.0
  0
LINE
  5
338
100
AcDbEntity
  8
002
 62
     3
100
AcDbLine
 10
433.583268
 20
128.200808
 30
0.0
 11
433.583268
 21
122.200808
 31
0.0
  0
LINE
  5
339
100
AcDbEntity
  8
002
 62
     3
100
AcDbLine
 10
423.583268
 20
128.200808
 30
0.0
 11
423.583268
 21
122.200808
 31
0.0
  0
LINE
  5
33A
100
AcDbEntity
  8
002
 62
     3
100
AcDbLine
 10
441.334568
 20
122.200808
 30
0.0
 11
366.334568
 21
122.200808
 31
0.0
  0
LINE
  5
33B
100
AcDbEntity
  8
002
 62
     3
100
AcDbLine
 10
374.085768
 20
122.200808
 30
0.0
 11
374.085768
 21
128.200808
 31
0.0
  0
LINE
  5
33C
100
AcDbEntity
  8
002
 62
     3
100
AcDbLine
 10
374.085768
 20
128.200808
 30
0.0
 11
384.085768
 21
128.200808
 31
0.0
  0
LINE
  5
33D
100
AcDbEntity
  8
002
 62
     3
100
AcDbLine
 10
384.085768
 20
128.200808
 30
0.0
 11
384.085768
 21
122.200808
 31
0.0
  0
LINE
  5
33E
100
AcDbEntity
  8
002
  6
CENTER
 62
     9
100
AcDbLine
 10
379.085768
 20
132.700808
 30
0.0
 11
379.085768
 21
106.367108
 31
0.0
  0
LINE
  5
33F
100
AcDbEntity
  8
002
  6
CENTER
 62
     9
100
AcDbLine
 10
428.583268
 20
106.367108
 30
0.0
 11
428.583268
 21
132.700808
 31
0.0
  0
LINE
  5
340
100
AcDbEntity
  8
002
 62
     3
100
AcDbLine
 10
318.834868
 20
88.700808
 30
0.0
 11
318.834868
 21
75.700808
 31
0.0
  0
LINE
  5
341
100
AcDbEntity
  8
002
 62
     3
100
AcDbLine
 10
318.834868
 20
75.700808
 30
0.0
 11
319.834868
 21
74.700808
 31
0.0
  0
LINE
  5
342
100
AcDbEntity
  8
002
 62
     3
100
AcDbLine
 10
319.834868
 20
74.700808
 30
0.0
 11
351.834868
 21
74.700808
 31
0.0
  0
LINE
  5
343
100
AcDbEntity
  8
002
 62
     3
100
AcDbLine
 10
351.834868
 20
90.700808
 30
0.0
 11
351.834868
 21
73.700808
 31
0.0
  0
LINE
  5
344
100
AcDbEntity
  8
002
 62
     3
100
AcDbLine
 10
351.834868
 20
89.700808
 30
0.0
 11
319.834868
 21
89.700808
 31
0.0
  0
LINE
  5
345
100
AcDbEntity
  8
002
 62
     3
100
AcDbLine
 10
319.834868
 20
89.700808
 30
0.0
 11
318.834868
 21
88.700808
 31
0.0
  0
LINE
  5
346
100
AcDbEntity
  8
002
 62
     3
100
AcDbLine
 10
319.834868
 20
89.700808
 30
0.0
 11
319.834868
 21
84.700808
 31
0.0
  0
LINE
  5
347
100
AcDbEntity
  8
002
 62
     3
100
AcDbLine
 10
318.834868
 20
84.700808
 30
0.0
 11
346.334868
 21
84.700808
 31
0.0
  0
LINE
  5
348
100
AcDbEntity
  8
002
 62
     3
100
AcDbLine
 10
346.334868
 20
79.700808
 30
0.0
 11
318.834868
 21
79.700808
 31
0.0
  0
LINE
  5
349
100
AcDbEntity
  8
002
 62
     3
100
AcDbLine
 10
319.834868
 20
79.700808
 30
0.0
 11
319.834868
 21
74.700808
 31
0.0
  0
LINE
  5
34A
100
AcDbEntity
  8
002
 62
     3
100
AcDbLine
 10
340.834868
 20
79.700808
 30
0.0
 11
340.834868
 21
84.700808
 31
0.0
  0
ARC
  5
34B
100
AcDbEntity
  8
002
 62
     3
100
AcDbCircle
 10
346.334868
 20
82.200808
 30
0.0
 40
2.5
100
AcDbArc
 50
270.0
 51
90.0
  0
LINE
  5
34C
100
AcDbEntity
  8
002
 62
     3
100
AcDbLine
 10
351.834868
 20
90.700808
 30
0.0
 11
353.834868
 21
90.700808
 31
0.0
  0
LINE
  5
34D
100
AcDbEntity
  8
002
 62
     3
100
AcDbLine
 10
351.834868
 20
73.700808
 30
0.0
 11
353.834868
 21
73.700808
 31
0.0
  0
LINE
  5
34E
100
AcDbEntity
  8
002
 62
     3
100
AcDbLine
 10
488.834268
 20
88.700808
 30
0.0
 11
488.834268
 21
75.700808
 31
0.0
  0
LINE
  5
34F
100
AcDbEntity
  8
002
 62
     3
100
AcDbLine
 10
488.834268
 20
75.700808
 30
0.0
 11
487.834268
 21
74.700808
 31
0.0
  0
LINE
  5
350
100
AcDbEntity
  8
002
 62
     3
100
AcDbLine
 10
487.834268
 20
74.700808
 30
0.0
 11
455.834268
 21
74.700808
 31
0.0
  0
LINE
  5
351
100
AcDbEntity
  8
002
 62
     3
100
AcDbLine
 10
455.834268
 20
90.700808
 30
0.0
 11
455.834268
 21
73.700808
 31
0.0
  0
LINE
  5
352
100
AcDbEntity
  8
002
 62
     3
100
AcDbLine
 10
455.834268
 20
89.700808
 30
0.0
 11
487.834268
 21
89.700808
 31
0.0
  0
LINE
  5
353
100
AcDbEntity
  8
002
 62
     3
100
AcDbLine
 10
487.834268
 20
89.700808
 30
0.0
 11
488.834268
 21
88.700808
 31
0.0
  0
LINE
  5
354
100
AcDbEntity
  8
002
 62
     3
100
AcDbLine
 10
487.834268
 20
89.700808
 30
0.0
 11
487.834268
 21
84.700808
 31
0.0
  0
LINE
  5
355
100
AcDbEntity
  8
002
 62
     3
100
AcDbLine
 10
488.834268
 20
84.700808
 30
0.0
 11
461.334268
 21
84.700808
 31
0.0
  0
LINE
  5
356
100
AcDbEntity
  8
002
 62
     3
100
AcDbLine
 10
461.334268
 20
79.700808
 30
0.0
 11
488.834268
 21
79.700808
 31
0.0
  0
LINE
  5
357
100
AcDbEntity
  8
002
 62
     3
100
AcDbLine
 10
487.834268
 20
79.700808
 30
0.0
 11
487.834268
 21
74.700808
 31
0.0
  0
LINE
  5
358
100
AcDbEntity
  8
002
 62
     3
100
AcDbLine
 10
466.834268
 20
79.700808
 30
0.0
 11
466.834268
 21
84.700808
 31
0.0
  0
ARC
  5
359
100
AcDbEntity
  8
002
 62
     3
100
AcDbCircle
 10
461.334268
 20
82.200808
 30
0.0
 40
2.5
100
AcDbArc
 50
90.0
 51
270.0
  0
LINE
  5
35A
100
AcDbEntity
  8
002
 62
     3
100
AcDbLine
 10
455.834268
 20
90.700808
 30
0.0
 11
453.834268
 21
90.700808
 31
0.0
  0
LINE
  5
35B
100
AcDbEntity
  8
002
 62
     3
100
AcDbLine
 10
455.834268
 20
73.700808
 30
0.0
 11
453.834268
 21
73.700808
 31
0.0
  0
LINE
  5
35C
100
AcDbEntity
  8
003
  6
CENTER
 62
     9
100
AcDbLine
 10
308.833668
 20
82.200808
 30
0.0
 11
497.908177
 21
82.200808
 31
0.0
  0
LINE
  5
35D
100
AcDbEntity
  8
002
 62
     3
100
AcDbLine
 10
392.174668
 20
38.200808
 30
0.0
 11
392.174668
 21
33.200808
 31
0.0
  0
LINE
  5
35E
100
AcDbEntity
  8
002
 62
     3
100
AcDbLine
 10
383.674668
 20
33.200808
 30
0.0
 11
383.674668
 21
38.200808
 31
0.0
  0
LINE
  5
35F
100
AcDbEntity
  8
002
 62
     3
100
AcDbLine
 10
383.674668
 20
33.200808
 30
0.0
 11
392.174668
 21
33.200808
 31
0.0
  0
LINE
  5
360
100
AcDbEntity
  8
002
 62
     3
100
AcDbLine
 10
386.834568
 20
33.200808
 30
0.0
 11
386.834568
 21
12.200808
 31
0.0
  0
LINE
  5
361
100
AcDbEntity
  8
002
 62
     3
100
AcDbLine
 10
386.834568
 20
12.200808
 30
0.0
 11
420.834568
 21
12.200808
 31
0.0
  0
LINE
  5
362
100
AcDbEntity
  8
002
 62
     3
100
AcDbLine
 10
420.834568
 20
12.200808
 30
0.0
 11
420.834568
 21
33.200808
 31
0.0
  0
LINE
  5
363
100
AcDbEntity
  8
002
 62
     3
100
AcDbLine
 10
423.994468
 20
33.200808
 30
0.0
 11
415.494468
 21
33.200808
 31
0.0
  0
LINE
  5
364
100
AcDbEntity
  8
002
 62
     3
100
AcDbLine
 10
415.494468
 20
33.200808
 30
0.0
 11
415.494468
 21
38.200808
 31
0.0
  0
LINE
  5
365
100
AcDbEntity
  8
002
 62
     3
100
AcDbLine
 10
376.334568
 20
42.200808
 30
0.0
 11
376.334568
 21
38.200808
 31
0.0
  0
LINE
  5
366
100
AcDbEntity
  8
002
 62
     3
100
AcDbLine
 10
376.334568
 20
38.200808
 30
0.0
 11
431.334568
 21
38.200808
 31
0.0
  0
LINE
  5
367
100
AcDbEntity
  8
002
 62
     3
100
AcDbLine
 10
431.334568
 20
38.200808
 30
0.0
 11
431.334568
 21
42.200808
 31
0.0
  0
LINE
  5
368
100
AcDbEntity
  8
002
 62
     3
100
AcDbLine
 10
423.994468
 20
38.200808
 30
0.0
 11
423.994468
 21
33.200808
 31
0.0
  0
LINE
  5
369
100
AcDbEntity
  8
002
  6
CENTER
 62
     9
100
AcDbLine
 10
419.744468
 20
31.700808
 30
0.0
 11
419.744468
 21
44.200808
 31
0.0
  0
LINE
  5
36A
100
AcDbEntity
  8
002
  6
CENTER
 62
     9
100
AcDbLine
 10
387.924668
 20
44.200808
 30
0.0
 11
387.924668
 21
31.700808
 31
0.0
  0
LINE
  5
36B
100
AcDbEntity
  8
003
  6
CENTER
 62
     9
100
AcDbLine
 10
403.834568
 20
6.120788
 30
0.0
 11
403.834568
 21
318.000908
 31
0.0
  0
LINE
  5
36C
100
AcDbEntity
  8
002
  6
HIDDEN
 62
     9
100
AcDbLine
 10
381.084568
 20
227.700808
 30
0.0
 11
371.584568
 21
227.700808
 31
0.0
  0
LINE
  5
36D
100
AcDbEntity
  8
002
  6
HIDDEN
 62
     9
100
AcDbLine
 10
373.584568
 20
227.700808
 30
0.0
 11
373.584568
 21
234.200508
 31
0.0
  0
LINE
  5
36E
100
AcDbEntity
  8
002
  6
HIDDEN
 62
     9
100
AcDbLine
 10
379.084568
 20
227.700808
 30
0.0
 11
379.084568
 21
234.200508
 31
0.0
  0
LINE
  5
36F
100
AcDbEntity
  8
002
  6
HIDDEN
 62
     9
100
AcDbLine
 10
371.584568
 20
227.700808
 30
0.0
 11
371.584568
 21
222.200808
 31
0.0
  0
LINE
  5
370
100
AcDbEntity
  8
002
  6
HIDDEN
 62
     9
100
AcDbLine
 10
381.084568
 20
227.700808
 30
0.0
 11
381.084568
 21
222.200808
 31
0.0
  0
LINE
  5
371
100
AcDbEntity
  8
002
  6
HIDDEN
 62
     9
100
AcDbLine
 10
426.584568
 20
227.700808
 30
0.0
 11
436.084568
 21
227.700808
 31
0.0
  0
LINE
  5
372
100
AcDbEntity
  8
002
  6
HIDDEN
 62
     9
100
AcDbLine
 10
434.084568
 20
227.700808
 30
0.0
 11
434.084568
 21
234.200508
 31
0.0
  0
LINE
  5
373
100
AcDbEntity
  8
002
  6
HIDDEN
 62
     9
100
AcDbLine
 10
428.584568
 20
227.700808
 30
0.0
 11
428.584568
 21
234.200508
 31
0.0
  0
LINE
  5
374
100
AcDbEntity
  8
002
  6
HIDDEN
 62
     9
100
AcDbLine
 10
436.084568
 20
227.700808
 30
0.0
 11
436.084568
 21
222.200808
 31
0.0
  0
LINE
  5
375
100
AcDbEntity
  8
002
  6
HIDDEN
 62
     9
100
AcDbLine
 10
426.584568
 20
227.700808
 30
0.0
 11
426.584568
 21
222.200808
 31
0.0
  0
LINE
  5
376
100
AcDbEntity
  8
002
 62
     3
100
AcDbLine
 10
393.834868
 20
122.200808
 30
0.0
 11
393.834868
 21
222.200808
 31
0.0
  0
LINE
  5
377
100
AcDbEntity
  8
002
 62
     3
100
AcDbLine
 10
381.834868
 20
234.200808
 30
0.0
 11
381.834868
 21
279.200408
 31
0.0
  0
LINE
  5
378
100
AcDbEntity
  8
002
 62
     3
100
AcDbLine
 10
381.834868
 20
279.200408
 30
0.0
 11
382.834468
 21
280.200508
 31
0.0
  0
LINE
  5
379
100
AcDbEntity
  8
002
 62
     3
100
AcDbLine
 10
382.834668
 20
280.200408
 30
0.0
 11
424.834868
 21
280.200408
 31
0.0
  0
LINE
  5
37A
100
AcDbEntity
  8
002
 62
     3
100
AcDbLine
 10
424.834268
 20
280.200908
 30
0.0
 11
425.834868
 21
279.200408
 31
0.0
  0
LINE
  5
37B
100
AcDbEntity
  8
002
 62
     3
100
AcDbLine
 10
425.834868
 20
279.200408
 30
0.0
 11
425.834868
 21
234.200808
 31
0.0
  0
LINE
  5
37C
100
AcDbEntity
  8
002
 62
     3
100
AcDbLine
 10
420.553068
 20
244.200408
 30
0.0
 11
387.115968
 21
244.200408
 31
0.0
  0
LINE
  5
37D
100
AcDbEntity
  8
002
 62
     3
100
AcDbLine
 10
387.116068
 20
244.200408
 30
0.0
 11
387.116068
 21
279.200408
 31
0.0
  0
LINE
  5
37E
100
AcDbEntity
  8
002
 62
     3
100
AcDbLine
 10
387.116068
 20
279.200408
 30
0.0
 11
381.834868
 21
279.200408
 31
0.0
  0
LINE
  5
37F
100
AcDbEntity
  8
002
 62
     3
100
AcDbLine
 10
387.116068
 20
279.200808
 30
0.0
 11
388.116068
 21
280.200808
 31
0.0
  0
LINE
  5
380
100
AcDbEntity
  8
002
 62
     3
100
AcDbLine
 10
393.834968
 20
280.200408
 30
0.0
 11
393.834968
 21
322.200808
 31
0.0
  0
LINE
  5
381
100
AcDbEntity
  8
002
 62
     3
100
AcDbLine
 10
393.834968
 20
322.200808
 30
0.0
 11
413.834868
 21
322.200808
 31
0.0
  0
LINE
  5
382
100
AcDbEntity
  8
002
 62
     3
100
AcDbLine
 10
413.834868
 20
322.200808
 30
0.0
 11
413.834868
 21
280.200408
 31
0.0
  0
LINE
  5
383
100
AcDbEntity
  8
002
 62
     3
100
AcDbLine
 10
419.552468
 20
280.200908
 30
0.0
 11
420.552568
 21
279.200908
 31
0.0
  0
LINE
  5
384
100
AcDbEntity
  8
002
 62
     3
100
AcDbLine
 10
420.553168
 20
279.200408
 30
0.0
 11
420.553168
 21
244.200408
 31
0.0
  0
LINE
  5
385
100
AcDbEntity
  8
002
 62
     3
100
AcDbLine
 10
411.320968
 20
251.259208
 30
0.0
 11
408.834468
 21
253.705308
 31
0.0
  0
LINE
  5
386
100
AcDbEntity
  8
002
 62
     3
100
AcDbLine
 10
408.834468
 20
252.583308
 30
0.0
 11
398.834568
 21
262.420408
 31
0.0
  0
LINE
  5
387
100
AcDbEntity
  8
002
 62
     3
100
AcDbLine
 10
398.834668
 20
263.541808
 30
0.0
 11
392.771768
 21
269.506008
 31
0.0
  0
LINE
  5
388
100
AcDbEntity
  8
002
 62
     3
100
AcDbLine
 10
396.348168
 20
273.141608
 30
0.0
 11
398.834668
 21
270.695608
 31
0.0
  0
LINE
  5
389
100
AcDbEntity
  8
002
 62
     3
100
AcDbLine
 10
398.834668
 20
271.817508
 30
0.0
 11
408.834568
 21
261.980408
 31
0.0
  0
LINE
  5
38A
100
AcDbEntity
  8
002
 62
     3
100
AcDbLine
 10
408.834468
 20
260.859108
 30
0.0
 11
414.897468
 21
254.894908
 31
0.0
  0
ARC
  5
38B
100
AcDbEntity
  8
002
 62
     3
100
AcDbCircle
 10
413.109068
 20
253.076908
 30
0.0
 40
2.550054
100
AcDbArc
 50
224.661577
 51
45.470278
  0
LINE
  5
38C
100
AcDbEntity
  8
002
 62
     3
100
AcDbLine
 10
408.834468
 20
250.200408
 30
0.0
 11
408.834468
 21
274.200408
 31
0.0
  0
ARC
  5
38D
100
AcDbEntity
  8
002
 62
     3
100
AcDbCircle
 10
407.834568
 20
274.200408
 30
0.0
 40
1.0
100
AcDbArc
 50
0.0
 51
90.0
  0
LINE
  5
38E
100
AcDbEntity
  8
002
 62
     3
100
AcDbLine
 10
407.834568
 20
275.200408
 30
0.0
 11
399.834668
 21
275.200408
 31
0.0
  0
ARC
  5
38F
100
AcDbEntity
  8
002
 62
     3
100
AcDbCircle
 10
399.834668
 20
274.200408
 30
0.0
 40
1.0
100
AcDbArc
 50
90.0
 51
180.0
  0
LINE
  5
390
100
AcDbEntity
  8
002
 62
     3
100
AcDbLine
 10
398.834668
 20
274.200408
 30
0.0
 11
398.834668
 21
250.200408
 31
0.0
  0
ARC
  5
391
100
AcDbEntity
  8
002
 62
     3
100
AcDbCircle
 10
399.834568
 20
250.200408
 30
0.0
 40
1.0
100
AcDbArc
 50
180.0
 51
270.0
  0
LINE
  5
392
100
AcDbEntity
  8
002
 62
     3
100
AcDbLine
 10
399.834568
 20
249.200408
 30
0.0
 11
407.834568
 21
249.200408
 31
0.0
  0
ARC
  5
393
100
AcDbEntity
  8
002
 62
     3
100
AcDbCircle
 10
407.834568
 20
250.200408
 30
0.0
 40
1.0
100
AcDbArc
 50
270.0
 51
0.0
  0
CIRCLE
  5
394
100
AcDbEntity
  8
002
 62
     3
100
AcDbCircle
 10
403.834568
 20
252.200408
 30
0.0
 40
2.749998
  0
LINE
  5
395
100
AcDbEntity
  8
002
 62
     3
100
AcDbLine
 10
405.584568
 20
251.800408
 30
0.0
 11
405.584568
 21
252.600408
 31
0.0
  0
LINE
  5
396
100
AcDbEntity
  8
002
 62
     3
100
AcDbLine
 10
405.584568
 20
252.600408
 30
0.0
 11
404.884568
 21
252.600408
 31
0.0
  0
LINE
  5
397
100
AcDbEntity
  8
002
 62
     3
100
AcDbLine
 10
404.884568
 20
252.600408
 30
0.0
 11
404.472468
 21
252.838308
 31
0.0
  0
LINE
  5
398
100
AcDbEntity
  8
002
 62
     3
100
AcDbLine
 10
404.472468
 20
252.838308
 30
0.0
 11
404.234568
 21
253.250408
 31
0.0
  0
LINE
  5
399
100
AcDbEntity
  8
002
 62
     3
100
AcDbLine
 10
404.234568
 20
253.250408
 30
0.0
 11
404.234568
 21
253.950408
 31
0.0
  0
LINE
  5
39A
100
AcDbEntity
  8
002
 62
     3
100
AcDbLine
 10
404.234568
 20
253.950408
 30
0.0
 11
403.434568
 21
253.950408
 31
0.0
  0
LINE
  5
39B
100
AcDbEntity
  8
002
 62
     3
100
AcDbLine
 10
403.434568
 20
253.950408
 30
0.0
 11
403.434568
 21
253.250408
 31
0.0
  0
LINE
  5
39C
100
AcDbEntity
  8
002
 62
     3
100
AcDbLine
 10
403.434568
 20
253.250408
 30
0.0
 11
403.196668
 21
252.838308
 31
0.0
  0
LINE
  5
39D
100
AcDbEntity
  8
002
 62
     3
100
AcDbLine
 10
403.196668
 20
252.838308
 30
0.0
 11
402.784568
 21
252.600408
 31
0.0
  0
LINE
  5
39E
100
AcDbEntity
  8
002
 62
     3
100
AcDbLine
 10
402.784568
 20
252.600408
 30
0.0
 11
402.084568
 21
252.600408
 31
0.0
  0
LINE
  5
39F
100
AcDbEntity
  8
002
 62
     3
100
AcDbLine
 10
402.084568
 20
252.600408
 30
0.0
 11
402.084568
 21
251.800408
 31
0.0
  0
LINE
  5
3A0
100
AcDbEntity
  8
002
 62
     3
100
AcDbLine
 10
402.084568
 20
251.800408
 30
0.0
 11
402.784568
 21
251.800408
 31
0.0
  0
LINE
  5
3A1
100
AcDbEntity
  8
002
 62
     3
100
AcDbLine
 10
402.784568
 20
251.800408
 30
0.0
 11
403.196668
 21
251.562508
 31
0.0
  0
LINE
  5
3A2
100
AcDbEntity
  8
002
 62
     3
100
AcDbLine
 10
403.196668
 20
251.562508
 30
0.0
 11
403.434568
 21
251.150408
 31
0.0
  0
LINE
  5
3A3
100
AcDbEntity
  8
002
 62
     3
100
AcDbLine
 10
403.434568
 20
251.150408
 30
0.0
 11
403.434568
 21
250.450408
 31
0.0
  0
LINE
  5
3A4
100
AcDbEntity
  8
002
 62
     3
100
AcDbLine
 10
403.434568
 20
250.450408
 30
0.0
 11
404.234568
 21
250.450408
 31
0.0
  0
LINE
  5
3A5
100
AcDbEntity
  8
002
 62
     3
100
AcDbLine
 10
404.234568
 20
250.450408
 30
0.0
 11
404.234568
 21
251.150408
 31
0.0
  0
LINE
  5
3A6
100
AcDbEntity
  8
002
 62
     3
100
AcDbLine
 10
404.234568
 20
251.150408
 30
0.0
 11
404.472468
 21
251.562508
 31
0.0
  0
LINE
  5
3A7
100
AcDbEntity
  8
002
 62
     3
100
AcDbLine
 10
404.472468
 20
251.562508
 30
0.0
 11
404.884568
 21
251.800408
 31
0.0
  0
LINE
  5
3A8
100
AcDbEntity
  8
002
 62
     3
100
AcDbLine
 10
404.884568
 20
251.800408
 30
0.0
 11
405.584568
 21
251.800408
 31
0.0
  0
LINE
  5
3A9
100
AcDbEntity
  8
002
 62
     3
100
AcDbLine
 10
404.234568
 20
270.450408
 30
0.0
 11
404.234568
 21
271.150408
 31
0.0
  0
LINE
  5
3AA
100
AcDbEntity
  8
002
 62
     3
100
AcDbLine
 10
404.234568
 20
271.150408
 30
0.0
 11
404.472468
 21
271.562508
 31
0.0
  0
LINE
  5
3AB
100
AcDbEntity
  8
002
 62
     3
100
AcDbLine
 10
404.472468
 20
271.562508
 30
0.0
 11
404.884568
 21
271.800408
 31
0.0
  0
LINE
  5
3AC
100
AcDbEntity
  8
002
 62
     3
100
AcDbLine
 10
404.884568
 20
271.800408
 30
0.0
 11
405.584568
 21
271.800408
 31
0.0
  0
LINE
  5
3AD
100
AcDbEntity
  8
002
 62
     3
100
AcDbLine
 10
405.584568
 20
271.800408
 30
0.0
 11
405.584568
 21
272.600408
 31
0.0
  0
LINE
  5
3AE
100
AcDbEntity
  8
002
 62
     3
100
AcDbLine
 10
405.584568
 20
272.600408
 30
0.0
 11
404.884568
 21
272.600408
 31
0.0
  0
LINE
  5
3AF
100
AcDbEntity
  8
002
 62
     3
100
AcDbLine
 10
404.884568
 20
272.600408
 30
0.0
 11
404.472468
 21
272.838308
 31
0.0
  0
LINE
  5
3B0
100
AcDbEntity
  8
002
 62
     3
100
AcDbLine
 10
404.472468
 20
272.838308
 30
0.0
 11
404.234568
 21
273.250408
 31
0.0
  0
LINE
  5
3B1
100
AcDbEntity
  8
002
 62
     3
100
AcDbLine
 10
404.234568
 20
273.250408
 30
0.0
 11
404.234568
 21
273.950408
 31
0.0
  0
LINE
  5
3B2
100
AcDbEntity
  8
002
 62
     3
100
AcDbLine
 10
404.234568
 20
273.950408
 30
0.0
 11
403.434568
 21
273.950408
 31
0.0
  0
LINE
  5
3B3
100
AcDbEntity
  8
002
 62
     3
100
AcDbLine
 10
403.434568
 20
273.950408
 30
0.0
 11
403.434568
 21
273.250408
 31
0.0
  0
LINE
  5
3B4
100
AcDbEntity
  8
002
 62
     3
100
AcDbLine
 10
403.434568
 20
273.250408
 30
0.0
 11
403.196668
 21
272.838308
 31
0.0
  0
LINE
  5
3B5
100
AcDbEntity
  8
002
 62
     3
100
AcDbLine
 10
403.196668
 20
272.838308
 30
0.0
 11
402.784568
 21
272.600408
 31
0.0
  0
LINE
  5
3B6
100
AcDbEntity
  8
002
 62
     3
100
AcDbLine
 10
402.784568
 20
272.600408
 30
0.0
 11
402.084568
 21
272.600408
 31
0.0
  0
LINE
  5
3B7
100
AcDbEntity
  8
002
 62
     3
100
AcDbLine
 10
402.084568
 20
272.600408
 30
0.0
 11
402.084568
 21
271.800408
 31
0.0
  0
LINE
  5
3B8
100
AcDbEntity
  8
002
 62
     3
100
AcDbLine
 10
402.084568
 20
271.800408
 30
0.0
 11
402.784568
 21
271.800408
 31
0.0
  0
LINE
  5
3B9
100
AcDbEntity
  8
002
 62
     3
100
AcDbLine
 10
402.784568
 20
271.800408
 30
0.0
 11
403.196668
 21
271.562508
 31
0.0
  0
LINE
  5
3BA
100
AcDbEntity
  8
002
 62
     3
100
AcDbLine
 10
403.196668
 20
271.562508
 30
0.0
 11
403.434568
 21
271.150408
 31
0.0
  0
LINE
  5
3BB
100
AcDbEntity
  8
002
 62
     3
100
AcDbLine
 10
403.434568
 20
271.150408
 30
0.0
 11
403.434568
 21
270.450408
 31
0.0
  0
LINE
  5
3BC
100
AcDbEntity
  8
002
 62
     3
100
AcDbLine
 10
403.434568
 20
270.450408
 30
0.0
 11
404.234568
 21
270.450408
 31
0.0
  0
CIRCLE
  5
3BD
100
AcDbEntity
  8
002
 62
     3
100
AcDbCircle
 10
403.834568
 20
272.200408
 30
0.0
 40
2.749998
  0
ARC
  5
3BE
100
AcDbEntity
  8
002
 62
     3
100
AcDbCircle
 10
394.560068
 20
271.323908
 30
0.0
 40
2.549984
100
AcDbArc
 50
44.659998
 51
225.47188
  0
LINE
  5
3BF
100
AcDbEntity
  8
002
 62
     3
100
AcDbLine
 10
420.553168
 20
279.200408
 30
0.0
 11
425.834868
 21
279.200408
 31
0.0
  0
LINE
  5
3C0
100
AcDbEntity
  8
002
 62
     3
100
AcDbLine
 10
437.334568
 20
234.200808
 30
0.0
 11
437.334568
 21
222.200808
 31
0.0
  0
LINE
  5
3C1
100
AcDbEntity
  8
002
 62
     3
100
AcDbLine
 10
370.334568
 20
222.200808
 30
0.0
 11
370.334568
 21
234.200508
 31
0.0
  0
LINE
  5
3C2
100
AcDbEntity
  8
002
 62
     3
100
AcDbLine
 10
370.334568
 20
234.200508
 30
0.0
 11
437.334568
 21
234.200508
 31
0.0
  0
LINE
  5
3C3
100
AcDbEntity
  8
002
 62
     3
100
AcDbLine
 10
437.334568
 20
222.200808
 30
0.0
 11
370.334568
 21
222.200808
 31
0.0
  0
LINE
  5
3C4
100
AcDbEntity
  8
002
 62
     3
100
AcDbLine
 10
413.834868
 20
222.200808
 30
0.0
 11
413.834868
 21
122.200808
 31
0.0
  0
LINE
  5
3C5
100
AcDbEntity
  8
002
 62
     3
100
AcDbLine
 10
409.834568
 20
322.200808
 30
0.0
 11
409.834568
 21
342.200808
 31
0.0
  0
LINE
  5
3C6
100
AcDbEntity
  8
002
 62
     3
100
AcDbLine
 10
409.834568
 20
342.200808
 30
0.0
 11
397.834568
 21
342.200808
 31
0.0
  0
LINE
  5
3C7
100
AcDbEntity
  8
002
 62
     3
100
AcDbLine
 10
397.834568
 20
342.200808
 30
0.0
 11
397.834568
 21
322.200808
 31
0.0
  0
LINE
  5
3C8
100
AcDbEntity
  8
002
 62
     9
100
AcDbLine
 10
412.604868
 20
322.200808
 30
0.0
 11
412.604868
 21
280.200408
 31
0.0
  0
LINE
  5
3C9
100
AcDbEntity
  8
002
 62
     9
100
AcDbLine
 10
395.064868
 20
280.200408
 30
0.0
 11
395.064868
 21
322.200808
 31
0.0
  0
LINE
  5
3CA
100
AcDbEntity
  8
002
  6
CENTER
 62
     9
100
AcDbLine
 10
390.846968
 20
274.976508
 30
0.0
 11
398.834668
 21
267.118808
 31
0.0
  0
LINE
  5
3CB
100
AcDbEntity
  8
002
  6
CENTER
 62
     9
100
AcDbLine
 10
408.834468
 20
257.282008
 30
0.0
 11
416.121568
 21
250.113608
 31
0.0
  0
LINE
  5
3CC
100
AcDbEntity
  8
002
  6
CENTER
 62
     9
100
AcDbLine
 10
431.334568
 20
237.200808
 30
0.0
 11
431.334568
 21
219.201208
 31
0.0
  0
LINE
  5
3CD
100
AcDbEntity
  8
002
 62
     9
100
AcDbLine
 10
412.604868
 20
222.200808
 30
0.0
 11
412.604868
 21
122.200808
 31
0.0
  0
LINE
  5
3CE
100
AcDbEntity
  8
002
 62
     9
100
AcDbLine
 10
395.064868
 20
122.200808
 30
0.0
 11
395.064868
 21
222.200808
 31
0.0
  0
LINE
  5
3CF
100
AcDbEntity
  8
002
  6
CENTER
 62
     9
100
AcDbLine
 10
376.334568
 20
219.201208
 30
0.0
 11
376.334568
 21
237.200808
 31
0.0
  0
LINE
  5
3D0
100
AcDbEntity
  8
002
  6
HIDDEN
 62
     9
100
AcDbLine
 10
615.773577
 20
274.700408
 30
0.0
 11
625.273577
 21
274.700408
 31
0.0
  0
LINE
  5
3D1
100
AcDbEntity
  8
002
  6
HIDDEN
 62
     9
100
AcDbLine
 10
623.273577
 20
274.700408
 30
0.0
 11
623.273577
 21
268.200708
 31
0.0
  0
LINE
  5
3D2
100
AcDbEntity
  8
002
  6
HIDDEN
 62
     9
100
AcDbLine
 10
617.773577
 20
274.700408
 30
0.0
 11
617.773577
 21
268.200708
 31
0.0
  0
LINE
  5
3D3
100
AcDbEntity
  8
002
  6
HIDDEN
 62
     9
100
AcDbLine
 10
625.273577
 20
274.700408
 30
0.0
 11
625.273577
 21
280.200408
 31
0.0
  0
LINE
  5
3D4
100
AcDbEntity
  8
002
  6
HIDDEN
 62
     9
100
AcDbLine
 10
615.773577
 20
274.700408
 30
0.0
 11
615.773577
 21
280.200408
 31
0.0
  0
LINE
  5
3D5
100
AcDbEntity
  8
002
  6
HIDDEN
 62
     9
100
AcDbLine
 10
570.273577
 20
274.700408
 30
0.0
 11
560.773577
 21
274.700408
 31
0.0
  0
LINE
  5
3D6
100
AcDbEntity
  8
002
  6
HIDDEN
 62
     9
100
AcDbLine
 10
562.773577
 20
274.700408
 30
0.0
 11
562.773577
 21
268.200708
 31
0.0
  0
LINE
  5
3D7
100
AcDbEntity
  8
002
  6
HIDDEN
 62
     9
100
AcDbLine
 10
568.273577
 20
274.700408
 30
0.0
 11
568.273577
 21
268.200708
 31
0.0
  0
LINE
  5
3D8
100
AcDbEntity
  8
002
  6
HIDDEN
 62
     9
100
AcDbLine
 10
560.773577
 20
274.700408
 30
0.0
 11
560.773577
 21
280.200408
 31
0.0
  0
LINE
  5
3D9
100
AcDbEntity
  8
002
  6
HIDDEN
 62
     9
100
AcDbLine
 10
570.273577
 20
274.700408
 30
0.0
 11
570.273577
 21
280.200408
 31
0.0
  0
LINE
  5
3DA
100
AcDbEntity
  8
002
 62
     3
100
AcDbLine
 10
649.023577
 20
110.200808
 30
0.0
 11
631.248977
 21
110.200808
 31
0.0
  0
LINE
  5
3DB
100
AcDbEntity
  8
002
 62
     3
100
AcDbLine
 10
630.523577
 20
110.336908
 30
0.0
 11
630.523577
 21
122.200808
 31
0.0
  0
LINE
  5
3DC
100
AcDbEntity
  8
002
 62
     3
100
AcDbLine
 10
630.523577
 20
122.200808
 30
0.0
 11
555.523577
 21
122.200808
 31
0.0
  0
LINE
  5
3DD
100
AcDbEntity
  8
002
 62
     3
100
AcDbLine
 10
555.523577
 20
122.200808
 30
0.0
 11
555.523577
 21
100.200808
 31
0.0
  0
ARC
  5
3DE
100
AcDbEntity
  8
002
 62
     3
100
AcDbCircle
 10
558.523577
 20
100.200808
 30
0.0
 40
3.0
100
AcDbArc
 50
180.0
 51
270.0
  0
LINE
  5
3DF
100
AcDbEntity
  8
002
 62
     3
100
AcDbLine
 10
558.523577
 20
97.200808
 30
0.0
 11
601.819477
 21
97.200808
 31
0.0
  0
LINE
  5
3E0
100
AcDbEntity
  8
002
 62
     3
100
AcDbLine
 10
601.863277
 20
97.886908
 30
0.0
 11
600.858577
 21
82.147508
 31
0.0
  0
LINE
  5
3E1
100
AcDbEntity
  8
002
 62
     3
100
AcDbLine
 10
600.858577
 20
82.254008
 30
0.0
 11
602.245977
 21
60.519308
 31
0.0
  0
LINE
  5
3E2
100
AcDbEntity
  8
002
 62
     3
100
AcDbLine
 10
603.115577
 20
57.307808
 30
0.0
 11
601.520577
 21
82.296308
 31
0.0
  0
LINE
  5
3E3
100
AcDbEntity
  8
002
 62
     3
100
AcDbLine
 10
601.520577
 20
82.105208
 30
0.0
 11
602.375877
 21
95.505808
 31
0.0
  0
ARC
  5
3E4
100
AcDbEntity
  8
002
 62
     3
100
AcDbCircle
 10
594.894677
 20
77.200808
 30
0.0
 40
19.999959
100
AcDbArc
 50
90.0
 51
100.689433
  0
LINE
  5
3E5
100
AcDbEntity
  8
002
 62
     3
100
AcDbLine
 10
591.184977
 20
96.853708
 30
0.0
 11
569.490877
 21
92.758708
 31
0.0
  0
LINE
  5
3E6
100
AcDbEntity
  8
002
 62
     3
100
AcDbLine
 10
565.285877
 20
93.366008
 30
0.0
 11
557.155777
 21
97.530708
 31
0.0
  0
LINE
  5
3E7
100
AcDbEntity
  8
002
 62
     3
100
AcDbLine
 10
557.023577
 20
96.232108
 30
0.0
 11
557.023577
 21
56.169408
 31
0.0
  0
LINE
  5
3E8
100
AcDbEntity
  8
002
 62
     3
100
AcDbLine
 10
558.523577
 20
55.200808
 30
0.0
 11
597.256077
 21
55.200808
 31
0.0
  0
ARC
  5
3E9
100
AcDbEntity
  8
002
 62
     3
100
AcDbCircle
 10
597.256077
 20
60.200808
 30
0.0
 40
5.000054
100
AcDbArc
 50
270.0
 51
3.652174
  0
ARC
  5
3EA
100
AcDbEntity
  8
002
 62
     3
100
AcDbCircle
 10
600.121677
 20
57.116708
 30
0.0
 40
2.999993
100
AcDbArc
 50
270.0
 51
3.652223
  0
LINE
  5
3EB
100
AcDbEntity
  8
002
 62
     3
100
AcDbLine
 10
603.023577
 20
53.200808
 30
0.0
 11
599.656877
 21
53.200808
 31
0.0
  0
LINE
  5
3EC
100
AcDbEntity
  8
002
 62
     3
100
AcDbLine
 10
599.656877
 20
53.200808
 30
0.0
 11
599.656877
 21
52.200808
 31
0.0
  0
LINE
  5
3ED
100
AcDbEntity
  8
002
 62
     3
100
AcDbLine
 10
599.656877
 20
52.200808
 30
0.0
 11
586.390377
 21
52.200808
 31
0.0
  0
LINE
  5
3EE
100
AcDbEntity
  8
002
 62
     3
100
AcDbLine
 10
586.390377
 20
52.200808
 30
0.0
 11
586.390377
 21
53.200808
 31
0.0
  0
LINE
  5
3EF
100
AcDbEntity
  8
002
 62
     3
100
AcDbLine
 10
586.390377
 20
53.200808
 30
0.0
 11
583.023577
 21
53.200808
 31
0.0
  0
ARC
  5
3F0
100
AcDbEntity
  8
002
 62
     3
100
AcDbCircle
 10
583.023577
 20
49.200808
 30
0.0
 40
4.0
100
AcDbArc
 50
90.0
 51
180.0
  0
LINE
  5
3F1
100
AcDbEntity
  8
002
 62
     3
100
AcDbLine
 10
579.023577
 20
49.200808
 30
0.0
 11
579.023577
 21
42.200808
 31
0.0
  0
LINE
  5
3F2
100
AcDbEntity
  8
002
 62
     3
100
AcDbLine
 10
581.363677
 20
38.200808
 30
0.0
 11
581.363677
 21
33.200808
 31
0.0
  0
LINE
  5
3F3
100
AcDbEntity
  8
002
 62
     3
100
AcDbLine
 10
572.863677
 20
33.200808
 30
0.0
 11
572.863677
 21
38.200808
 31
0.0
  0
LINE
  5
3F4
100
AcDbEntity
  8
002
 62
     3
100
AcDbLine
 10
572.863677
 20
33.200808
 30
0.0
 11
581.363677
 21
33.200808
 31
0.0
  0
LINE
  5
3F5
100
AcDbEntity
  8
002
 62
     3
100
AcDbLine
 10
576.023577
 20
33.200808
 30
0.0
 11
576.023577
 21
12.200808
 31
0.0
  0
LINE
  5
3F6
100
AcDbEntity
  8
002
 62
     3
100
AcDbLine
 10
576.023577
 20
12.200808
 30
0.0
 11
610.023577
 21
12.200808
 31
0.0
  0
LINE
  5
3F7
100
AcDbEntity
  8
002
 62
     3
100
AcDbLine
 10
610.023577
 20
12.200808
 30
0.0
 11
610.023577
 21
33.200808
 31
0.0
  0
LINE
  5
3F8
100
AcDbEntity
  8
002
 62
     3
100
AcDbLine
 10
613.183477
 20
33.200808
 30
0.0
 11
604.683477
 21
33.200808
 31
0.0
  0
LINE
  5
3F9
100
AcDbEntity
  8
002
 62
     3
100
AcDbLine
 10
604.683477
 20
33.200808
 30
0.0
 11
604.683477
 21
38.200808
 31
0.0
  0
LINE
  5
3FA
100
AcDbEntity
  8
002
 62
     3
100
AcDbLine
 10
607.023577
 20
42.200808
 30
0.0
 11
607.023577
 21
49.200808
 31
0.0
  0
ARC
  5
3FB
100
AcDbEntity
  8
002
 62
     3
100
AcDbCircle
 10
603.023577
 20
49.200808
 30
0.0
 40
4.0
100
AcDbArc
 50
0.0
 51
90.0
  0
ARC
  5
3FC
100
AcDbEntity
  8
002
 62
     3
100
AcDbCircle
 10
593.023577
 20
-8.583592
 30
0.0
 40
62.412965
100
AcDbArc
 50
81.861485
 51
98.138424
  0
LINE
  5
3FD
100
AcDbEntity
  8
002
 62
     3
100
AcDbLine
 10
579.023577
 20
53.200808
 30
0.0
 11
568.023577
 21
55.200808
 31
0.0
  0
LINE
  5
3FE
100
AcDbEntity
  8
002
 62
     3
100
AcDbLine
 10
568.023577
 20
53.200808
 30
0.0
 11
568.023577
 21
42.200808
 31
0.0
  0
LINE
  5
3FF
100
AcDbEntity
  8
002
 62
     3
100
AcDbLine
 10
565.523577
 20
42.200808
 30
0.0
 11
565.523577
 21
38.200808
 31
0.0
  0
LINE
  5
400
100
AcDbEntity
  8
002
 62
     3
100
AcDbLine
 10
565.523577
 20
38.200808
 30
0.0
 11
620.523577
 21
38.200808
 31
0.0
  0
LINE
  5
401
100
AcDbEntity
  8
002
 62
     3
100
AcDbLine
 10
620.523577
 20
38.200808
 30
0.0
 11
620.523577
 21
42.200808
 31
0.0
  0
LINE
  5
402
100
AcDbEntity
  8
002
 62
     3
100
AcDbLine
 10
618.023577
 20
42.200808
 30
0.0
 11
618.023577
 21
53.200808
 31
0.0
  0
LINE
  5
403
100
AcDbEntity
  8
002
 62
     3
100
AcDbLine
 10
612.255577
 20
56.655708
 30
0.0
 11
612.255577
 21
56.907808
 31
0.0
  0
LINE
  5
404
100
AcDbEntity
  8
002
 62
     3
100
AcDbLine
 10
611.718577
 20
59.553108
 30
0.0
 11
625.119177
 21
58.697708
 31
0.0
  0
LINE
  5
405
100
AcDbEntity
  8
002
 62
     3
100
AcDbLine
 10
624.928077
 20
58.697708
 30
0.0
 11
638.328577
 21
59.553108
 31
0.0
  0
ARC
  5
406
100
AcDbEntity
  8
002
 62
     3
100
AcDbCircle
 10
637.691577
 20
69.532708
 30
0.0
 40
10.000009
100
AcDbArc
 50
273.652247
 51
356.347789
  0
LINE
  5
407
100
AcDbEntity
  8
002
 62
     3
100
AcDbLine
 10
647.671277
 20
68.895708
 30
0.0
 11
648.526677
 21
82.296308
 31
0.0
  0
LINE
  5
408
100
AcDbEntity
  8
002
 62
     3
100
AcDbLine
 10
648.526677
 20
82.105208
 30
0.0
 11
647.671277
 21
95.505808
 31
0.0
  0
ARC
  5
409
100
AcDbEntity
  8
002
 62
     3
100
AcDbCircle
 10
637.691577
 20
94.868808
 30
0.0
 40
9.999909
100
AcDbArc
 50
3.652211
 51
86.347753
  0
LINE
  5
40A
100
AcDbEntity
  8
002
 62
     3
100
AcDbLine
 10
638.328577
 20
104.848408
 30
0.0
 11
624.928077
 21
105.703808
 31
0.0
  0
LINE
  5
40B
100
AcDbEntity
  8
002
 62
     3
100
AcDbLine
 10
625.119177
 20
105.703808
 30
0.0
 11
611.718577
 21
104.848408
 31
0.0
  0
ARC
  5
40C
100
AcDbEntity
  8
002
 62
     3
100
AcDbCircle
 10
612.355577
 20
94.868808
 30
0.0
 40
10.000009
100
AcDbArc
 50
93.652247
 51
176.347789
  0
LINE
  5
40D
100
AcDbEntity
  8
002
 62
     3
100
AcDbLine
 10
609.337377
 20
105.361108
 30
0.0
 11
624.754377
 21
106.367108
 31
0.0
  0
LINE
  5
40E
100
AcDbEntity
  8
002
 62
     3
100
AcDbLine
 10
624.754377
 20
106.367108
 30
0.0
 11
626.536177
 21
106.538408
 31
0.0
  0
ARC
  5
40F
100
AcDbEntity
  8
002
 62
     3
100
AcDbCircle
 10
626.248977
 20
109.524708
 30
0.0
 40
2.999999
100
AcDbArc
 50
275.493385
 51
347.987011
  0
ARC
  5
410
100
AcDbEntity
  8
002
 62
     3
100
AcDbCircle
 10
632.248977
 20
109.644308
 30
0.0
 40
2.999917
100
AcDbArc
 50
194.955777
 51
266.961816
  0
LINE
  5
411
100
AcDbEntity
  8
002
 62
     3
100
AcDbLine
 10
632.089977
 20
106.648608
 30
0.0
 11
641.497877
 21
106.149208
 31
0.0
  0
LINE
  5
412
100
AcDbEntity
  8
002
 62
     3
100
AcDbLine
 10
642.885077
 20
110.200808
 30
0.0
 11
642.885077
 21
111.200808
 31
0.0
  0
LINE
  5
413
100
AcDbEntity
  8
002
 62
     3
100
AcDbLine
 10
643.023577
 20
111.200808
 30
0.0
 11
644.023577
 21
112.200808
 31
0.0
  0
LINE
  5
414
100
AcDbEntity
  8
002
 62
     3
100
AcDbLine
 10
644.023577
 20
112.200808
 30
0.0
 11
644.023577
 21
115.200808
 31
0.0
  0
LINE
  5
415
100
AcDbEntity
  8
002
 62
     3
100
AcDbLine
 10
644.023577
 20
115.200808
 30
0.0
 11
641.883577
 21
118.114208
 31
0.0
  0
LINE
  5
416
100
AcDbEntity
  8
002
 62
     3
100
AcDbLine
 10
641.321077
 20
118.676808
 30
0.0
 11
636.726077
 21
118.676808
 31
0.0
  0
LINE
  5
417
100
AcDbEntity
  8
002
 62
     3
100
AcDbLine
 10
636.304477
 20
119.351308
 30
0.0
 11
635.773577
 21
120.200808
 31
0.0
  0
LINE
  5
418
100
AcDbEntity
  8
002
 62
     3
100
AcDbLine
 10
635.773577
 20
120.200808
 30
0.0
 11
636.523577
 21
123.200808
 31
0.0
  0
LINE
  5
419
100
AcDbEntity
  8
002
 62
     3
100
AcDbLine
 10
636.523577
 20
123.200808
 30
0.0
 11
641.523577
 21
123.200808
 31
0.0
  0
LINE
  5
41A
100
AcDbEntity
  8
002
 62
     3
100
AcDbLine
 10
641.523577
 20
123.200808
 30
0.0
 11
642.273577
 21
120.200808
 31
0.0
  0
LINE
  5
41B
100
AcDbEntity
  8
002
 62
     3
100
AcDbLine
 10
642.273577
 20
120.200808
 30
0.0
 11
641.742677
 21
119.351308
 31
0.0
  0
ARC
  5
41C
100
AcDbEntity
  8
002
 62
     3
100
AcDbCircle
 10
642.590677
 20
118.821308
 30
0.0
 40
0.99999
100
AcDbArc
 50
147.994617
 51
225.0
  0
LINE
  5
41D
100
AcDbEntity
  8
002
 62
     3
100
AcDbLine
 10
641.523577
 20
120.200808
 30
0.0
 11
636.523577
 21
120.200808
 31
0.0
  0
ARC
  5
41E
100
AcDbEntity
  8
002
 62
     3
100
AcDbCircle
 10
635.456477
 20
118.821308
 30
0.0
 40
1.000002
100
AcDbArc
 50
315.0
 51
32.005383
  0
LINE
  5
41F
100
AcDbEntity
  8
002
 62
     3
100
AcDbLine
 10
636.163577
 20
118.114208
 30
0.0
 11
634.023577
 21
115.200808
 31
0.0
  0
LINE
  5
420
100
AcDbEntity
  8
002
 62
     3
100
AcDbLine
 10
634.023577
 20
115.200808
 30
0.0
 11
634.023577
 21
112.200808
 31
0.0
  0
LINE
  5
421
100
AcDbEntity
  8
002
 62
     3
100
AcDbLine
 10
634.023577
 20
112.200808
 30
0.0
 11
635.023577
 21
111.200808
 31
0.0
  0
LINE
  5
422
100
AcDbEntity
  8
002
 62
     3
100
AcDbLine
 10
635.023577
 20
111.200808
 30
0.0
 11
643.023577
 21
111.200808
 31
0.0
  0
ARC
  5
423
100
AcDbEntity
  8
002
 62
     3
100
AcDbCircle
 10
641.523577
 20
112.575808
 30
0.0
 40
3.625
100
AcDbArc
 50
46.397181
 51
133.602819
  0
LINE
  5
424
100
AcDbEntity
  8
002
 62
     3
100
AcDbLine
 10
639.023577
 20
115.200808
 30
0.0
 11
639.023577
 21
112.200808
 31
0.0
  0
ARC
  5
425
100
AcDbEntity
  8
002
 62
     3
100
AcDbCircle
 10
641.523577
 20
114.825808
 30
0.0
 40
3.625
100
AcDbArc
 50
226.397181
 51
313.602819
  0
LINE
  5
426
100
AcDbEntity
  8
002
 62
     3
100
AcDbLine
 10
649.023577
 20
110.200808
 30
0.0
 11
649.023577
 21
102.528708
 31
0.0
  0
ARC
  5
427
100
AcDbEntity
  8
002
 62
     3
100
AcDbCircle
 10
652.023577
 20
102.528708
 30
0.0
 40
2.999903
100
AcDbArc
 50
180.0
 51
250.503815
  0
LINE
  5
428
100
AcDbEntity
  8
002
 62
     3
100
AcDbLine
 10
651.022377
 20
99.700808
 30
0.0
 11
651.022377
 21
64.700808
 31
0.0
  0
LINE
  5
429
100
AcDbEntity
  8
002
 62
     3
100
AcDbLine
 10
651.022377
 20
64.700808
 30
0.0
 11
650.997277
 21
64.700808
 31
0.0
  0
ARC
  5
42A
100
AcDbEntity
  8
002
 62
     3
100
AcDbCircle
 10
651.009877
 20
61.700808
 30
0.0
 40
3.000051
100
AcDbArc
 50
89.761269
 51
155.651038
  0
LINE
  5
42B
100
AcDbEntity
  8
002
 62
     3
100
AcDbLine
 10
648.972077
 20
65.726508
 30
0.0
 11
650.023577
 21
82.200808
 31
0.0
  0
LINE
  5
42C
100
AcDbEntity
  8
002
 62
     3
100
AcDbLine
 10
650.023577
 20
82.200808
 30
0.0
 11
648.972077
 21
98.675008
 31
0.0
  0
ARC
  5
42D
100
AcDbEntity
  8
002
 62
     3
100
AcDbCircle
 10
640.988277
 20
98.165408
 30
0.0
 40
8.000047
100
AcDbArc
 50
3.652192
 51
86.347808
  0
LINE
  5
42E
100
AcDbEntity
  8
002
 62
     3
100
AcDbLine
 10
635.162077
 20
110.200808
 30
0.0
 11
635.162077
 21
111.200808
 31
0.0
  0
ARC
  5
42F
100
AcDbEntity
  8
002
 62
     3
100
AcDbCircle
 10
636.523577
 20
114.825808
 30
0.0
 40
3.625
100
AcDbArc
 50
226.397181
 51
313.602819
  0
ARC
  5
430
100
AcDbEntity
  8
002
 62
     3
100
AcDbCircle
 10
636.523577
 20
112.575808
 30
0.0
 40
3.625
100
AcDbArc
 50
46.397181
 51
133.602819
  0
LINE
  5
431
100
AcDbEntity
  8
002
 62
     3
100
AcDbLine
 10
630.523577
 20
112.200808
 30
0.0
 11
555.523577
 21
112.200808
 31
0.0
  0
LINE
  5
432
100
AcDbEntity
  8
002
 62
     3
100
AcDbLine
 10
563.274877
 20
122.200808
 30
0.0
 11
563.274877
 21
128.200808
 31
0.0
  0
LINE
  5
433
100
AcDbEntity
  8
002
 62
     3
100
AcDbLine
 10
573.274877
 20
128.200808
 30
0.0
 11
573.274877
 21
122.200808
 31
0.0
  0
LINE
  5
434
100
AcDbEntity
  8
002
 62
     3
100
AcDbLine
 10
573.274877
 20
128.200808
 30
0.0
 11
563.274877
 21
128.200808
 31
0.0
  0
LINE
  5
435
100
AcDbEntity
  8
002
 62
     3
100
AcDbLine
 10
583.023877
 20
122.200808
 30
0.0
 11
583.023877
 21
222.200808
 31
0.0
  0
LINE
  5
436
100
AcDbEntity
  8
002
 62
     3
100
AcDbLine
 10
615.023277
 20
268.200408
 30
0.0
 11
615.023277
 21
223.200808
 31
0.0
  0
LINE
  5
437
100
AcDbEntity
  8
002
 62
     3
100
AcDbLine
 10
615.023277
 20
223.200808
 30
0.0
 11
614.023677
 21
222.200708
 31
0.0
  0
LINE
  5
438
100
AcDbEntity
  8
002
 62
     3
100
AcDbLine
 10
614.023477
 20
222.200808
 30
0.0
 11
572.023277
 21
222.200808
 31
0.0
  0
LINE
  5
439
100
AcDbEntity
  8
002
 62
     3
100
AcDbLine
 10
572.023877
 20
222.200308
 30
0.0
 11
571.023277
 21
223.200808
 31
0.0
  0
LINE
  5
43A
100
AcDbEntity
  8
002
 62
     3
100
AcDbLine
 10
571.023277
 20
223.200808
 30
0.0
 11
571.023277
 21
268.200408
 31
0.0
  0
LINE
  5
43B
100
AcDbEntity
  8
002
 62
     3
100
AcDbLine
 10
576.305077
 20
258.200808
 30
0.0
 11
609.742177
 21
258.200808
 31
0.0
  0
LINE
  5
43C
100
AcDbEntity
  8
002
 62
     3
100
AcDbLine
 10
609.742077
 20
258.200808
 30
0.0
 11
609.742077
 21
223.200808
 31
0.0
  0
LINE
  5
43D
100
AcDbEntity
  8
002
 62
     3
100
AcDbLine
 10
609.742077
 20
223.200808
 30
0.0
 11
615.023277
 21
223.200808
 31
0.0
  0
LINE
  5
43E
100
AcDbEntity
  8
002
 62
     3
100
AcDbLine
 10
609.742077
 20
223.200408
 30
0.0
 11
608.742077
 21
222.200408
 31
0.0
  0
LINE
  5
43F
100
AcDbEntity
  8
002
 62
     3
100
AcDbLine
 10
583.023977
 20
280.200408
 30
0.0
 11
583.023977
 21
322.200808
 31
0.0
  0
LINE
  5
440
100
AcDbEntity
  8
002
 62
     3
100
AcDbLine
 10
583.023977
 20
322.200808
 30
0.0
 11
603.023877
 21
322.200808
 31
0.0
  0
LINE
  5
441
100
AcDbEntity
  8
002
 62
     3
100
AcDbLine
 10
603.023877
 20
322.200808
 30
0.0
 11
603.023877
 21
280.200408
 31
0.0
  0
LINE
  5
442
100
AcDbEntity
  8
002
 62
     3
100
AcDbLine
 10
577.305677
 20
222.200308
 30
0.0
 11
576.305577
 21
223.200308
 31
0.0
  0
LINE
  5
443
100
AcDbEntity
  8
002
 62
     3
100
AcDbLine
 10
576.304977
 20
223.200808
 30
0.0
 11
576.304977
 21
258.200808
 31
0.0
  0
LINE
  5
444
100
AcDbEntity
  8
002
 62
     3
100
AcDbLine
 10
585.537177
 20
251.142008
 30
0.0
 11
588.023677
 21
248.695908
 31
0.0
  0
LINE
  5
445
100
AcDbEntity
  8
002
 62
     3
100
AcDbLine
 10
588.023677
 20
249.817908
 30
0.0
 11
598.023577
 21
239.980808
 31
0.0
  0
LINE
  5
446
100
AcDbEntity
  8
002
 62
     3
100
AcDbLine
 10
598.023477
 20
238.859408
 30
0.0
 11
604.086377
 21
232.895208
 31
0.0
  0
LINE
  5
447
100
AcDbEntity
  8
002
 62
     3
100
AcDbLine
 10
600.509977
 20
229.259608
 30
0.0
 11
598.023477
 21
231.705608
 31
0.0
  0
LINE
  5
448
100
AcDbEntity
  8
002
 62
     3
100
AcDbLine
 10
598.023477
 20
230.583708
 30
0.0
 11
588.023577
 21
240.420808
 31
0.0
  0
LINE
  5
449
100
AcDbEntity
  8
002
 62
     3
100
AcDbLine
 10
588.023677
 20
241.542108
 30
0.0
 11
581.960677
 21
247.506308
 31
0.0
  0
ARC
  5
44A
100
AcDbEntity
  8
002
 62
     3
100
AcDbCircle
 10
583.749077
 20
249.324308
 30
0.0
 40
2.550054
100
AcDbArc
 50
44.661577
 51
225.470278
  0
LINE
  5
44B
100
AcDbEntity
  8
002
 62
     3
100
AcDbLine
 10
588.023677
 20
252.200808
 30
0.0
 11
588.023677
 21
228.200808
 31
0.0
  0
ARC
  5
44C
100
AcDbEntity
  8
002
 62
     3
100
AcDbCircle
 10
589.023577
 20
228.200808
 30
0.0
 40
1.0
100
AcDbArc
 50
180.0
 51
270.0
  0
LINE
  5
44D
100
AcDbEntity
  8
002
 62
     3
100
AcDbLine
 10
589.023577
 20
227.200808
 30
0.0
 11
597.023477
 21
227.200808
 31
0.0
  0
ARC
  5
44E
100
AcDbEntity
  8
002
 62
     3
100
AcDbCircle
 10
597.023477
 20
228.200808
 30
0.0
 40
1.0
100
AcDbArc
 50
270.0
 51
0.0
  0
LINE
  5
44F
100
AcDbEntity
  8
002
 62
     3
100
AcDbLine
 10
598.023477
 20
228.200808
 30
0.0
 11
598.023477
 21
252.200808
 31
0.0
  0
ARC
  5
450
100
AcDbEntity
  8
002
 62
     3
100
AcDbCircle
 10
597.023577
 20
252.200808
 30
0.0
 40
1.0
100
AcDbArc
 50
0.0
 51
90.0
  0
LINE
  5
451
100
AcDbEntity
  8
002
 62
     3
100
AcDbLine
 10
597.023577
 20
253.200808
 30
0.0
 11
589.023577
 21
253.200808
 31
0.0
  0
ARC
  5
452
100
AcDbEntity
  8
002
 62
     3
100
AcDbCircle
 10
589.023577
 20
252.200808
 30
0.0
 40
1.0
100
AcDbArc
 50
90.0
 51
180.0
  0
CIRCLE
  5
453
100
AcDbEntity
  8
002
 62
     3
100
AcDbCircle
 10
593.023577
 20
250.200808
 30
0.0
 40
2.749998
  0
LINE
  5
454
100
AcDbEntity
  8
002
 62
     3
100
AcDbLine
 10
591.273577
 20
250.600808
 30
0.0
 11
591.273577
 21
249.800808
 31
0.0
  0
LINE
  5
455
100
AcDbEntity
  8
002
 62
     3
100
AcDbLine
 10
591.273577
 20
249.800808
 30
0.0
 11
591.973577
 21
249.800808
 31
0.0
  0
LINE
  5
456
100
AcDbEntity
  8
002
 62
     3
100
AcDbLine
 10
591.973577
 20
249.800808
 30
0.0
 11
592.385677
 21
249.562908
 31
0.0
  0
LINE
  5
457
100
AcDbEntity
  8
002
 62
     3
100
AcDbLine
 10
592.385677
 20
249.562908
 30
0.0
 11
592.623577
 21
249.150808
 31
0.0
  0
LINE
  5
458
100
AcDbEntity
  8
002
 62
     3
100
AcDbLine
 10
592.623577
 20
249.150808
 30
0.0
 11
592.623577
 21
248.450808
 31
0.0
  0
LINE
  5
459
100
AcDbEntity
  8
002
 62
     3
100
AcDbLine
 10
592.623577
 20
248.450808
 30
0.0
 11
593.423577
 21
248.450808
 31
0.0
  0
LINE
  5
45A
100
AcDbEntity
  8
002
 62
     3
100
AcDbLine
 10
593.423577
 20
248.450808
 30
0.0
 11
593.423577
 21
249.150808
 31
0.0
  0
LINE
  5
45B
100
AcDbEntity
  8
002
 62
     3
100
AcDbLine
 10
593.423577
 20
249.150808
 30
0.0
 11
593.661477
 21
249.562908
 31
0.0
  0
LINE
  5
45C
100
AcDbEntity
  8
002
 62
     3
100
AcDbLine
 10
593.661477
 20
249.562908
 30
0.0
 11
594.073577
 21
249.800808
 31
0.0
  0
LINE
  5
45D
100
AcDbEntity
  8
002
 62
     3
100
AcDbLine
 10
594.073577
 20
249.800808
 30
0.0
 11
594.773577
 21
249.800808
 31
0.0
  0
LINE
  5
45E
100
AcDbEntity
  8
002
 62
     3
100
AcDbLine
 10
594.773577
 20
249.800808
 30
0.0
 11
594.773577
 21
250.600808
 31
0.0
  0
LINE
  5
45F
100
AcDbEntity
  8
002
 62
     3
100
AcDbLine
 10
594.773577
 20
250.600808
 30
0.0
 11
594.073577
 21
250.600808
 31
0.0
  0
LINE
  5
460
100
AcDbEntity
  8
002
 62
     3
100
AcDbLine
 10
594.073577
 20
250.600808
 30
0.0
 11
593.661477
 21
250.838708
 31
0.0
  0
LINE
  5
461
100
AcDbEntity
  8
002
 62
     3
100
AcDbLine
 10
593.661477
 20
250.838708
 30
0.0
 11
593.423577
 21
251.250808
 31
0.0
  0
LINE
  5
462
100
AcDbEntity
  8
002
 62
     3
100
AcDbLine
 10
593.423577
 20
251.250808
 30
0.0
 11
593.423577
 21
251.950808
 31
0.0
  0
LINE
  5
463
100
AcDbEntity
  8
002
 62
     3
100
AcDbLine
 10
593.423577
 20
251.950808
 30
0.0
 11
592.623577
 21
251.950808
 31
0.0
  0
LINE
  5
464
100
AcDbEntity
  8
002
 62
     3
100
AcDbLine
 10
592.623577
 20
251.950808
 30
0.0
 11
592.623577
 21
251.250808
 31
0.0
  0
LINE
  5
465
100
AcDbEntity
  8
002
 62
     3
100
AcDbLine
 10
592.623577
 20
251.250808
 30
0.0
 11
592.385677
 21
250.838708
 31
0.0
  0
LINE
  5
466
100
AcDbEntity
  8
002
 62
     3
100
AcDbLine
 10
592.385677
 20
250.838708
 30
0.0
 11
591.973577
 21
250.600808
 31
0.0
  0
LINE
  5
467
100
AcDbEntity
  8
002
 62
     3
100
AcDbLine
 10
591.973577
 20
250.600808
 30
0.0
 11
591.273577
 21
250.600808
 31
0.0
  0
LINE
  5
468
100
AcDbEntity
  8
002
 62
     3
100
AcDbLine
 10
592.623577
 20
231.950808
 30
0.0
 11
592.623577
 21
231.250808
 31
0.0
  0
LINE
  5
469
100
AcDbEntity
  8
002
 62
     3
100
AcDbLine
 10
592.623577
 20
231.250808
 30
0.0
 11
592.385677
 21
230.838708
 31
0.0
  0
LINE
  5
46A
100
AcDbEntity
  8
002
 62
     3
100
AcDbLine
 10
592.385677
 20
230.838708
 30
0.0
 11
591.973577
 21
230.600808
 31
0.0
  0
LINE
  5
46B
100
AcDbEntity
  8
002
 62
     3
100
AcDbLine
 10
591.973577
 20
230.600808
 30
0.0
 11
591.273577
 21
230.600808
 31
0.0
  0
LINE
  5
46C
100
AcDbEntity
  8
002
 62
     3
100
AcDbLine
 10
591.273577
 20
230.600808
 30
0.0
 11
591.273577
 21
229.800808
 31
0.0
  0
LINE
  5
46D
100
AcDbEntity
  8
002
 62
     3
100
AcDbLine
 10
591.273577
 20
229.800808
 30
0.0
 11
591.973577
 21
229.800808
 31
0.0
  0
LINE
  5
46E
100
AcDbEntity
  8
002
 62
     3
100
AcDbLine
 10
591.973577
 20
229.800808
 30
0.0
 11
592.385677
 21
229.562908
 31
0.0
  0
LINE
  5
46F
100
AcDbEntity
  8
002
 62
     3
100
AcDbLine
 10
592.385677
 20
229.562908
 30
0.0
 11
592.623577
 21
229.150808
 31
0.0
  0
LINE
  5
470
100
AcDbEntity
  8
002
 62
     3
100
AcDbLine
 10
592.623577
 20
229.150808
 30
0.0
 11
592.623577
 21
228.450808
 31
0.0
  0
LINE
  5
471
100
AcDbEntity
  8
002
 62
     3
100
AcDbLine
 10
592.623577
 20
228.450808
 30
0.0
 11
593.423577
 21
228.450808
 31
0.0
  0
LINE
  5
472
100
AcDbEntity
  8
002
 62
     3
100
AcDbLine
 10
593.423577
 20
228.450808
 30
0.0
 11
593.423577
 21
229.150808
 31
0.0
  0
LINE
  5
473
100
AcDbEntity
  8
002
 62
     3
100
AcDbLine
 10
593.423577
 20
229.150808
 30
0.0
 11
593.661477
 21
229.562908
 31
0.0
  0
LINE
  5
474
100
AcDbEntity
  8
002
 62
     3
100
AcDbLine
 10
593.661477
 20
229.562908
 30
0.0
 11
594.073577
 21
229.800808
 31
0.0
  0
LINE
  5
475
100
AcDbEntity
  8
002
 62
     3
100
AcDbLine
 10
594.073577
 20
229.800808
 30
0.0
 11
594.773577
 21
229.800808
 31
0.0
  0
LINE
  5
476
100
AcDbEntity
  8
002
 62
     3
100
AcDbLine
 10
594.773577
 20
229.800808
 30
0.0
 11
594.773577
 21
230.600808
 31
0.0
  0
LINE
  5
477
100
AcDbEntity
  8
002
 62
     3
100
AcDbLine
 10
594.773577
 20
230.600808
 30
0.0
 11
594.073577
 21
230.600808
 31
0.0
  0
LINE
  5
478
100
AcDbEntity
  8
002
 62
     3
100
AcDbLine
 10
594.073577
 20
230.600808
 30
0.0
 11
593.661477
 21
230.838708
 31
0.0
  0
LINE
  5
479
100
AcDbEntity
  8
002
 62
     3
100
AcDbLine
 10
593.661477
 20
230.838708
 30
0.0
 11
593.423577
 21
231.250808
 31
0.0
  0
LINE
  5
47A
100
AcDbEntity
  8
002
 62
     3
100
AcDbLine
 10
593.423577
 20
231.250808
 30
0.0
 11
593.423577
 21
231.950808
 31
0.0
  0
LINE
  5
47B
100
AcDbEntity
  8
002
 62
     3
100
AcDbLine
 10
593.423577
 20
231.950808
 30
0.0
 11
592.623577
 21
231.950808
 31
0.0
  0
CIRCLE
  5
47C
100
AcDbEntity
  8
002
 62
     3
100
AcDbCircle
 10
593.023577
 20
230.200808
 30
0.0
 40
2.749998
  0
ARC
  5
47D
100
AcDbEntity
  8
002
 62
     3
100
AcDbCircle
 10
602.298077
 20
231.077308
 30
0.0
 40
2.549984
100
AcDbArc
 50
224.659998
 51
45.47188
  0
LINE
  5
47E
100
AcDbEntity
  8
002
 62
     3
100
AcDbLine
 10
576.304977
 20
223.200808
 30
0.0
 11
571.023277
 21
223.200808
 31
0.0
  0
LINE
  5
47F
100
AcDbEntity
  8
002
 62
     3
100
AcDbLine
 10
559.523577
 20
268.200408
 30
0.0
 11
559.523577
 21
280.200408
 31
0.0
  0
LINE
  5
480
100
AcDbEntity
  8
002
 62
     3
100
AcDbLine
 10
626.523577
 20
280.200408
 30
0.0
 11
626.523577
 21
268.200708
 31
0.0
  0
LINE
  5
481
100
AcDbEntity
  8
002
 62
     3
100
AcDbLine
 10
626.523577
 20
268.200708
 30
0.0
 11
559.523577
 21
268.200708
 31
0.0
  0
LINE
  5
482
100
AcDbEntity
  8
002
 62
     3
100
AcDbLine
 10
559.523577
 20
280.200408
 30
0.0
 11
626.523577
 21
280.200408
 31
0.0
  0
LINE
  5
483
100
AcDbEntity
  8
002
 62
     3
100
AcDbLine
 10
603.023877
 20
222.200808
 30
0.0
 11
603.023877
 21
122.200808
 31
0.0
  0
LINE
  5
484
100
AcDbEntity
  8
002
 62
     3
100
AcDbLine
 10
612.772377
 20
122.200808
 30
0.0
 11
612.772377
 21
128.200808
 31
0.0
  0
LINE
  5
485
100
AcDbEntity
  8
002
 62
     3
100
AcDbLine
 10
622.772377
 20
128.200808
 30
0.0
 11
622.772377
 21
122.200808
 31
0.0
  0
LINE
  5
486
100
AcDbEntity
  8
002
 62
     3
100
AcDbLine
 10
622.772377
 20
128.200808
 30
0.0
 11
612.772377
 21
128.200808
 31
0.0
  0
ARC
  5
487
100
AcDbEntity
  8
002
 62
     3
100
AcDbCircle
 10
631.248977
 20
112.200808
 30
0.0
 40
2.0
100
AcDbArc
 50
180.0
 51
270.0
  0
ARC
  5
488
100
AcDbEntity
  8
002
 62
     3
100
AcDbCircle
 10
639.023577
 20
122.539308
 30
0.0
 40
1.000041
100
AcDbArc
 50
41.412294
 51
138.587706
  0
CIRCLE
  5
489
100
AcDbEntity
  8
002
 62
     3
100
AcDbCircle
 10
625.023577
 20
82.200808
 30
0.0
 40
17.5
  0
LINE
  5
48A
100
AcDbEntity
  8
002
 62
     3
100
AcDbLine
 10
627.523577
 20
86.950808
 30
0.0
 11
627.273577
 21
86.700808
 31
0.0
  0
LINE
  5
48B
100
AcDbEntity
  8
002
 62
     3
100
AcDbLine
 10
627.273577
 20
86.700808
 30
0.0
 11
622.773577
 21
86.700808
 31
0.0
  0
LINE
  5
48C
100
AcDbEntity
  8
002
 62
     3
100
AcDbLine
 10
622.773577
 20
86.700808
 30
0.0
 11
622.523577
 21
86.950808
 31
0.0
  0
LINE
  5
48D
100
AcDbEntity
  8
002
 62
     3
100
AcDbLine
 10
622.523577
 20
86.950808
 30
0.0
 11
622.523577
 21
91.450808
 31
0.0
  0
LINE
  5
48E
100
AcDbEntity
  8
002
 62
     3
100
AcDbLine
 10
622.523577
 20
91.450808
 30
0.0
 11
622.773577
 21
91.700808
 31
0.0
  0
LINE
  5
48F
100
AcDbEntity
  8
002
 62
     3
100
AcDbLine
 10
622.773577
 20
91.700808
 30
0.0
 11
627.273577
 21
91.700808
 31
0.0
  0
LINE
  5
490
100
AcDbEntity
  8
002
 62
     3
100
AcDbLine
 10
627.273577
 20
91.700808
 30
0.0
 11
627.523577
 21
91.450808
 31
0.0
  0
LINE
  5
491
100
AcDbEntity
  8
002
 62
     3
100
AcDbLine
 10
627.523577
 20
91.450808
 30
0.0
 11
627.523577
 21
86.950808
 31
0.0
  0
ARC
  5
492
100
AcDbEntity
  8
002
 62
     3
100
AcDbCircle
 10
627.323577
 20
86.900808
 30
0.0
 40
0.2
100
AcDbArc
 50
270.0
 51
0.0
  0
ARC
  5
493
100
AcDbEntity
  8
002
 62
     3
100
AcDbCircle
 10
622.723577
 20
86.900808
 30
0.0
 40
0.2
100
AcDbArc
 50
180.0
 51
270.0
  0
ARC
  5
494
100
AcDbEntity
  8
002
 62
     3
100
AcDbCircle
 10
625.023577
 20
82.200808
 30
0.0
 40
7.499936
100
AcDbArc
 50
109.471393
 51
70.528607
  0
ARC
  5
495
100
AcDbEntity
  8
002
 62
     3
100
AcDbCircle
 10
625.023577
 20
82.200808
 30
0.0
 40
8.499963
100
AcDbArc
 50
107.104711
 51
72.895289
  0
ARC
  5
496
100
AcDbEntity
  8
002
 62
     3
100
AcDbCircle
 10
629.398577
 20
67.075808
 30
0.0
 40
2.5
100
AcDbArc
 50
45.150714
 51
180.0
  0
LINE
  5
497
100
AcDbEntity
  8
002
 62
     3
100
AcDbLine
 10
626.898577
 20
67.075808
 30
0.0
 11
626.898577
 21
64.829208
 31
0.0
  0
LINE
  5
498
100
AcDbEntity
  8
002
 62
     3
100
AcDbLine
 10
623.148577
 20
64.829208
 30
0.0
 11
623.148577
 21
67.075808
 31
0.0
  0
ARC
  5
499
100
AcDbEntity
  8
002
 62
     3
100
AcDbCircle
 10
620.648577
 20
67.075808
 30
0.0
 40
2.499985
100
AcDbArc
 50
0.0
 51
134.849286
  0
ARC
  5
49A
100
AcDbEntity
  8
002
 62
     3
100
AcDbCircle
 10
617.122377
 20
70.620608
 30
0.0
 40
2.499985
100
AcDbArc
 50
233.133311
 51
314.849286
  0
CIRCLE
  5
49B
100
AcDbEntity
  8
002
 62
     3
100
AcDbCircle
 10
620.648577
 20
67.075808
 30
0.0
 40
1.09375
  0
CIRCLE
  5
49C
100
AcDbEntity
  8
002
 62
     3
100
AcDbCircle
 10
629.398577
 20
67.075808
 30
0.0
 40
1.09375
  0
ARC
  5
49D
100
AcDbEntity
  8
002
 62
     3
100
AcDbCircle
 10
632.924777
 20
70.620608
 30
0.0
 40
2.50008
100
AcDbArc
 50
225.150714
 51
306.868523
  0
ARC
  5
49E
100
AcDbEntity
  8
002
 62
     3
100
AcDbCircle
 10
625.023577
 20
81.156408
 30
0.0
 40
15.66938
100
AcDbArc
 50
306.867777
 51
233.132516
  0
ARC
  5
49F
100
AcDbEntity
  8
002
 62
     3
100
AcDbCircle
 10
612.355577
 20
69.532708
 30
0.0
 40
9.999909
100
AcDbArc
 50
183.652211
 51
266.347753
  0
ARC
  5
4A0
100
AcDbEntity
  8
002
 62
     3
100
AcDbCircle
 10
609.255577
 20
56.655708
 30
0.0
 40
3.0
100
AcDbArc
 50
280.303822
 51
0.0
  0
LINE
  5
4A1
100
AcDbEntity
  8
002
 62
     3
100
AcDbLine
 10
609.792177
 20
53.704108
 30
0.0
 11
607.023577
 21
53.200808
 31
0.0
  0
LINE
  5
4A2
100
AcDbEntity
  8
002
 62
     3
100
AcDbLine
 10
613.183477
 20
38.200808
 30
0.0
 11
613.183477
 21
33.200808
 31
0.0
  0
LINE
  5
4A3
100
AcDbEntity
  8
002
 62
     3
100
AcDbLine
 10
630.523577
 20
42.200808
 30
0.0
 11
630.523577
 21
52.860808
 31
0.0
  0
LINE
  5
4A4
100
AcDbEntity
  8
002
 62
     3
100
AcDbLine
 10
635.205077
 20
57.850608
 30
0.0
 11
641.497877
 21
58.252308
 31
0.0
  0
ARC
  5
4A5
100
AcDbEntity
  8
002
 62
     3
100
AcDbCircle
 10
640.988277
 20
66.236108
 30
0.0
 40
8.000047
100
AcDbArc
 50
273.652192
 51
356.347808
  0
ARC
  5
4A6
100
AcDbEntity
  8
002
 62
     3
100
AcDbCircle
 10
635.523577
 20
52.860808
 30
0.0
 40
5.0
100
AcDbArc
 50
93.652247
 51
180.0
  0
LINE
  5
4A7
100
AcDbEntity
  8
002
 62
     3
100
AcDbLine
 10
630.523577
 20
42.200808
 30
0.0
 11
555.523577
 21
42.200808
 31
0.0
  0
LINE
  5
4A8
100
AcDbEntity
  8
002
 62
     3
100
AcDbLine
 10
555.523577
 20
42.200808
 30
0.0
 11
555.523577
 21
52.200808
 31
0.0
  0
ARC
  5
4A9
100
AcDbEntity
  8
002
 62
     3
100
AcDbCircle
 10
554.023577
 20
56.169408
 30
0.0
 40
3.0
100
AcDbArc
 50
318.590571
 51
0.0
  0
ARC
  5
4AA
100
AcDbEntity
  8
002
 62
     3
100
AcDbCircle
 10
558.523577
 20
52.200808
 30
0.0
 40
3.0
100
AcDbArc
 50
90.0
 51
180.0
  0
ARC
  5
4AB
100
AcDbEntity
  8
002
 62
     3
100
AcDbCircle
 10
568.274877
 20
99.200808
 30
0.0
 40
6.555861
100
AcDbArc
 50
242.875244
 51
280.689287
  0
ARC
  5
4AC
100
AcDbEntity
  8
002
 62
     3
100
AcDbCircle
 10
554.023577
 20
96.232108
 30
0.0
 40
2.999991
100
AcDbArc
 50
0.0
 51
41.409429
  0
ARC
  5
4AD
100
AcDbEntity
  8
002
 62
     3
100
AcDbCircle
 10
609.846977
 20
97.377308
 30
0.0
 40
7.999947
100
AcDbArc
 50
93.652192
 51
176.347762
  0
LINE
  5
4AE
100
AcDbEntity
  8
002
 62
     3
100
AcDbLine
 10
599.023577
 20
322.200808
 30
0.0
 11
599.023577
 21
342.200808
 31
0.0
  0
LINE
  5
4AF
100
AcDbEntity
  8
002
 62
     3
100
AcDbLine
 10
599.023577
 20
342.200808
 30
0.0
 11
587.023577
 21
342.200808
 31
0.0
  0
LINE
  5
4B0
100
AcDbEntity
  8
002
 62
     3
100
AcDbLine
 10
587.023577
 20
342.200808
 30
0.0
 11
587.023577
 21
322.200808
 31
0.0
  0
LINE
  5
4B1
100
AcDbEntity
  8
002
  6
CENTER
 62
     9
100
AcDbLine
 10
593.023577
 20
7.902129
 30
0.0
 11
593.023577
 21
346.651152
 31
0.0
  0
LINE
  5
4B2
100
AcDbEntity
  8
002
 62
     9
100
AcDbLine
 10
601.793877
 20
322.200808
 30
0.0
 11
601.793877
 21
280.200408
 31
0.0
  0
LINE
  5
4B3
100
AcDbEntity
  8
002
 62
     9
100
AcDbLine
 10
584.253877
 20
280.200408
 30
0.0
 11
584.253877
 21
322.200808
 31
0.0
  0
LINE
  5
4B4
100
AcDbEntity
  8
002
  6
CENTER
 62
     9
100
AcDbLine
 10
606.011177
 20
227.424708
 30
0.0
 11
598.023477
 21
235.282408
 31
0.0
  0
LINE
  5
4B5
100
AcDbEntity
  8
002
  6
CENTER
 62
     9
100
AcDbLine
 10
588.023677
 20
245.119208
 30
0.0
 11
580.736577
 21
252.287608
 31
0.0
  0
LINE
  5
4B6
100
AcDbEntity
  8
002
  6
CENTER
 62
     9
100
AcDbLine
 10
565.523577
 20
265.200408
 30
0.0
 11
565.523577
 21
283.200008
 31
0.0
  0
LINE
  5
4B7
100
AcDbEntity
  8
002
 62
     9
100
AcDbLine
 10
601.793877
 20
222.200808
 30
0.0
 11
601.793877
 21
122.200808
 31
0.0
  0
LINE
  5
4B8
100
AcDbEntity
  8
002
 62
     9
100
AcDbLine
 10
584.253877
 20
122.200808
 30
0.0
 11
584.253877
 21
222.200808
 31
0.0
  0
LINE
  5
4B9
100
AcDbEntity
  8
002
  6
CENTER
 62
     9
100
AcDbLine
 10
620.523577
 20
283.200008
 30
0.0
 11
620.523577
 21
265.200408
 31
0.0
  0
LINE
  5
4BA
100
AcDbEntity
  8
002
  6
CENTER
 62
     9
100
AcDbLine
 10
568.274877
 20
132.700808
 30
0.0
 11
568.274877
 21
106.367108
 31
0.0
  0
LINE
  5
4BB
100
AcDbEntity
  8
002
  6
CENTER
 62
     9
100
AcDbLine
 10
547.908177
 20
82.200808
 30
0.0
 11
659.955377
 21
82.200808
 31
0.0
  0
LINE
  5
4BC
100
AcDbEntity
  8
002
  6
CENTER
 62
     9
100
AcDbLine
 10
639.023577
 20
107.459108
 30
0.0
 11
639.023577
 21
125.804708
 31
0.0
  0
LINE
  5
4BD
100
AcDbEntity
  8
002
  6
CENTER
 62
     9
100
AcDbLine
 10
625.023577
 20
130.761308
 30
0.0
 11
625.023577
 21
34.157608
 31
0.0
  0
LINE
  5
4BE
100
AcDbEntity
  8
002
  6
CENTER
 62
     9
100
AcDbLine
 10
608.933477
 20
31.700808
 30
0.0
 11
608.933477
 21
44.200808
 31
0.0
  0
LINE
  5
4BF
100
AcDbEntity
  8
002
  6
CENTER
 62
     9
100
AcDbLine
 10
577.113677
 20
44.200808
 30
0.0
 11
577.113677
 21
31.700808
 31
0.0
  0
LINE
  5
4C0
100
AcDbEntity
  8
002
  6
CENTER
 62
     9
100
AcDbLine
 10
617.772377
 20
106.367108
 30
0.0
 11
617.772377
 21
132.700808
 31
0.0
  0
LINE
  5
4C1
100
AcDbEntity
  8
002
  6
HIDDEN
 62
     9
100
AcDbLine
 10
605.023577
 20
52.200808
 30
0.0
 11
605.023577
 21
52.664908
 31
0.0
  0
LINE
  5
4C2
100
AcDbEntity
  8
002
  6
HIDDEN
 62
     9
100
AcDbLine
 10
581.023577
 20
52.200808
 30
0.0
 11
581.023577
 21
52.664908
 31
0.0
  0
LINE
  5
4C3
100
AcDbEntity
  8
002
  6
HIDDEN
 62
     9
100
AcDbLine
 10
586.390377
 20
52.200808
 30
0.0
 11
581.023577
 21
52.200808
 31
0.0
  0
LINE
  5
4C4
100
AcDbEntity
  8
002
  6
HIDDEN
 62
     9
100
AcDbLine
 10
587.523577
 20
42.200808
 30
0.0
 11
587.523577
 21
52.200808
 31
0.0
  0
LINE
  5
4C5
100
AcDbEntity
  8
002
  6
HIDDEN
 62
     9
100
AcDbLine
 10
598.523577
 20
52.200808
 30
0.0
 11
598.523577
 21
42.200808
 31
0.0
  0
LINE
  5
4C6
100
AcDbEntity
  8
002
  6
HIDDEN
 62
     9
100
AcDbLine
 10
605.023577
 20
52.200808
 30
0.0
 11
599.656877
 21
52.200808
 31
0.0
  0
LINE
  5
4C7
100
AcDbEntity
  8
002
  6
HIDDEN
 62
     9
100
AcDbLine
 10
912.086868
 20
146.76413
 30
0.0
 11
921.586868
 21
146.76413
 31
0.0
  0
LINE
  5
4C8
100
AcDbEntity
  8
002
  6
HIDDEN
 62
     9
100
AcDbLine
 10
919.586868
 20
146.76413
 30
0.0
 11
919.586868
 21
140.26443
 31
0.0
  0
LINE
  5
4C9
100
AcDbEntity
  8
002
  6
HIDDEN
 62
     9
100
AcDbLine
 10
914.086868
 20
146.76413
 30
0.0
 11
914.086868
 21
140.26443
 31
0.0
  0
LINE
  5
4CA
100
AcDbEntity
  8
002
  6
HIDDEN
 62
     9
100
AcDbLine
 10
921.586868
 20
146.76413
 30
0.0
 11
921.586868
 21
152.26413
 31
0.0
  0
LINE
  5
4CB
100
AcDbEntity
  8
002
  6
HIDDEN
 62
     9
100
AcDbLine
 10
912.086868
 20
146.76413
 30
0.0
 11
912.086868
 21
152.26413
 31
0.0
  0
LINE
  5
4CC
100
AcDbEntity
  8
002
  6
HIDDEN
 62
     9
100
AcDbLine
 10
866.586868
 20
146.76413
 30
0.0
 11
857.086868
 21
146.76413
 31
0.0
  0
LINE
  5
4CD
100
AcDbEntity
  8
002
  6
HIDDEN
 62
     9
100
AcDbLine
 10
859.086868
 20
146.76413
 30
0.0
 11
859.086868
 21
140.26443
 31
0.0
  0
LINE
  5
4CE
100
AcDbEntity
  8
002
  6
HIDDEN
 62
     9
100
AcDbLine
 10
864.586868
 20
146.76413
 30
0.0
 11
864.586868
 21
140.26443
 31
0.0
  0
LINE
  5
4CF
100
AcDbEntity
  8
002
  6
HIDDEN
 62
     9
100
AcDbLine
 10
857.086868
 20
146.76413
 30
0.0
 11
857.086868
 21
152.26413
 31
0.0
  0
LINE
  5
4D0
100
AcDbEntity
  8
002
  6
HIDDEN
 62
     9
100
AcDbLine
 10
866.586868
 20
146.76413
 30
0.0
 11
866.586868
 21
152.26413
 31
0.0
  0
LINE
  5
4D1
100
AcDbEntity
  8
002
 62
     3
100
AcDbLine
 10
922.836868
 20
152.26413
 30
0.0
 11
922.836868
 21
140.26433
 31
0.0
  0
LINE
  5
4D2
100
AcDbEntity
  8
002
 62
     3
100
AcDbLine
 10
922.836868
 20
140.26433
 30
0.0
 11
855.836868
 21
140.26433
 31
0.0
  0
LINE
  5
4D3
100
AcDbEntity
  8
002
 62
     3
100
AcDbLine
 10
855.836868
 20
140.26413
 30
0.0
 11
855.836868
 21
152.26413
 31
0.0
  0
LINE
  5
4D4
100
AcDbEntity
  8
002
 62
     3
100
AcDbLine
 10
855.836868
 20
152.26413
 30
0.0
 11
922.836868
 21
152.26413
 31
0.0
  0
LINE
  5
4D5
100
AcDbEntity
  8
002
 62
     3
100
AcDbLine
 10
911.336868
 20
140.26413
 30
0.0
 11
911.336868
 21
95.26453
 31
0.0
  0
LINE
  5
4D6
100
AcDbEntity
  8
002
 62
     3
100
AcDbLine
 10
911.336868
 20
95.26453
 30
0.0
 11
910.336868
 21
94.26433
 31
0.0
  0
LINE
  5
4D7
100
AcDbEntity
  8
002
 62
     3
100
AcDbLine
 10
910.336868
 20
94.26453
 30
0.0
 11
868.336868
 21
94.26453
 31
0.0
  0
LINE
  5
4D8
100
AcDbEntity
  8
002
 62
     3
100
AcDbLine
 10
868.337868
 20
94.26393
 30
0.0
 11
867.336868
 21
95.26453
 31
0.0
  0
LINE
  5
4D9
100
AcDbEntity
  8
002
 62
     3
100
AcDbLine
 10
867.336868
 20
95.26453
 30
0.0
 11
867.336868
 21
140.26413
 31
0.0
  0
LINE
  5
4DA
100
AcDbEntity
  8
002
 62
     3
100
AcDbLine
 10
872.618868
 20
130.26453
 30
0.0
 11
906.055868
 21
130.26453
 31
0.0
  0
LINE
  5
4DB
100
AcDbEntity
  8
002
 62
     3
100
AcDbLine
 10
906.055868
 20
130.26443
 30
0.0
 11
906.055868
 21
95.26443
 31
0.0
  0
LINE
  5
4DC
100
AcDbEntity
  8
002
 62
     3
100
AcDbLine
 10
906.055868
 20
95.26453
 30
0.0
 11
911.336868
 21
95.26453
 31
0.0
  0
LINE
  5
4DD
100
AcDbEntity
  8
002
 62
     3
100
AcDbLine
 10
906.055868
 20
95.26403
 30
0.0
 11
905.055868
 21
94.26403
 31
0.0
  0
LINE
  5
4DE
100
AcDbEntity
  8
002
 62
     3
100
AcDbLine
 10
879.336868
 20
152.26413
 30
0.0
 11
879.336868
 21
232.26493
 31
0.0
  0
LINE
  5
4DF
100
AcDbEntity
  8
002
 62
     3
100
AcDbLine
 10
875.336868
 20
232.26493
 30
0.0
 11
875.336868
 21
239.26493
 31
0.0
  0
ARC
  5
4E0
100
AcDbEntity
  8
002
 62
     3
100
AcDbCircle
 10
879.336868
 20
239.26493
 30
0.0
 40
4.0
100
AcDbArc
 50
90.0
 51
180.0
  0
LINE
  5
4E1
100
AcDbEntity
  8
002
 62
     3
100
AcDbLine
 10
879.336868
 20
243.26493
 30
0.0
 11
882.702868
 21
243.26493
 31
0.0
  0
LINE
  5
4E2
100
AcDbEntity
  8
002
 62
     3
100
AcDbLine
 10
882.702868
 20
243.26493
 30
0.0
 11
882.702868
 21
242.26493
 31
0.0
  0
LINE
  5
4E3
100
AcDbEntity
  8
002
 62
     3
100
AcDbLine
 10
882.702868
 20
242.26493
 30
0.0
 11
895.969868
 21
242.26493
 31
0.0
  0
LINE
  5
4E4
100
AcDbEntity
  8
002
 62
     3
100
AcDbLine
 10
895.969868
 20
242.26493
 30
0.0
 11
895.969868
 21
243.26493
 31
0.0
  0
LINE
  5
4E5
100
AcDbEntity
  8
002
 62
     3
100
AcDbLine
 10
895.969868
 20
243.26493
 30
0.0
 11
899.336868
 21
243.26493
 31
0.0
  0
ARC
  5
4E6
100
AcDbEntity
  8
002
 62
     3
100
AcDbCircle
 10
899.336868
 20
239.26493
 30
0.0
 40
4.0
100
AcDbArc
 50
0.0
 51
90.0
  0
LINE
  5
4E7
100
AcDbEntity
  8
002
 62
     3
100
AcDbLine
 10
903.336868
 20
239.26493
 30
0.0
 11
903.336868
 21
232.26493
 31
0.0
  0
LINE
  5
4E8
100
AcDbEntity
  8
002
 62
     3
100
AcDbLine
 10
899.336868
 20
232.26493
 30
0.0
 11
899.336868
 21
152.26413
 31
0.0
  0
LINE
  5
4E9
100
AcDbEntity
  8
002
 62
     3
100
AcDbLine
 10
873.618868
 20
94.26393
 30
0.0
 11
872.618868
 21
95.26393
 31
0.0
  0
LINE
  5
4EA
100
AcDbEntity
  8
002
 62
     3
100
AcDbLine
 10
872.618868
 20
95.26443
 30
0.0
 11
872.618868
 21
130.26443
 31
0.0
  0
ARC
  5
4EB
100
AcDbEntity
  8
002
 62
     3
100
AcDbCircle
 10
893.336868
 20
124.26443
 30
0.0
 40
1.0
100
AcDbArc
 50
0.0
 51
90.0
  0
LINE
  5
4EC
100
AcDbEntity
  8
002
 62
     3
100
AcDbLine
 10
893.336868
 20
125.26443
 30
0.0
 11
885.336868
 21
125.26443
 31
0.0
  0
ARC
  5
4ED
100
AcDbEntity
  8
002
 62
     3
100
AcDbCircle
 10
885.336868
 20
124.26443
 30
0.0
 40
1.0
100
AcDbArc
 50
90.0
 51
180.0
  0
LINE
  5
4EE
100
AcDbEntity
  8
002
 62
     3
100
AcDbLine
 10
884.336868
 20
124.26443
 30
0.0
 11
884.336868
 21
100.26443
 31
0.0
  0
ARC
  5
4EF
100
AcDbEntity
  8
002
 62
     3
100
AcDbCircle
 10
885.336868
 20
100.26443
 30
0.0
 40
1.0
100
AcDbArc
 50
180.0
 51
270.0
  0
LINE
  5
4F0
100
AcDbEntity
  8
002
 62
     3
100
AcDbLine
 10
885.336868
 20
99.26443
 30
0.0
 11
893.336868
 21
99.26443
 31
0.0
  0
ARC
  5
4F1
100
AcDbEntity
  8
002
 62
     3
100
AcDbCircle
 10
893.336868
 20
100.26443
 30
0.0
 40
1.0
100
AcDbArc
 50
270.0
 51
0.0
  0
LINE
  5
4F2
100
AcDbEntity
  8
002
 62
     3
100
AcDbLine
 10
894.336868
 20
100.26443
 30
0.0
 11
894.336868
 21
124.26443
 31
0.0
  0
LINE
  5
4F3
100
AcDbEntity
  8
002
 62
     3
100
AcDbLine
 10
891.086868
 20
122.66443
 30
0.0
 11
891.086868
 21
121.86443
 31
0.0
  0
LINE
  5
4F4
100
AcDbEntity
  8
002
 62
     3
100
AcDbLine
 10
891.086868
 20
121.86443
 30
0.0
 11
890.386868
 21
121.86443
 31
0.0
  0
LINE
  5
4F5
100
AcDbEntity
  8
002
 62
     3
100
AcDbLine
 10
890.386868
 20
121.86443
 30
0.0
 11
889.974868
 21
121.62653
 31
0.0
  0
LINE
  5
4F6
100
AcDbEntity
  8
002
 62
     3
100
AcDbLine
 10
889.974868
 20
121.62653
 30
0.0
 11
889.736868
 21
121.21443
 31
0.0
  0
LINE
  5
4F7
100
AcDbEntity
  8
002
 62
     3
100
AcDbLine
 10
889.736868
 20
121.21443
 30
0.0
 11
889.736868
 21
120.51443
 31
0.0
  0
LINE
  5
4F8
100
AcDbEntity
  8
002
 62
     3
100
AcDbLine
 10
889.736868
 20
120.51443
 30
0.0
 11
888.936868
 21
120.51443
 31
0.0
  0
LINE
  5
4F9
100
AcDbEntity
  8
002
 62
     3
100
AcDbLine
 10
888.936868
 20
120.51443
 30
0.0
 11
888.936868
 21
121.21443
 31
0.0
  0
LINE
  5
4FA
100
AcDbEntity
  8
002
 62
     3
100
AcDbLine
 10
888.936868
 20
121.21443
 30
0.0
 11
888.698868
 21
121.62653
 31
0.0
  0
LINE
  5
4FB
100
AcDbEntity
  8
002
 62
     3
100
AcDbLine
 10
888.698868
 20
121.62653
 30
0.0
 11
888.286868
 21
121.86443
 31
0.0
  0
LINE
  5
4FC
100
AcDbEntity
  8
002
 62
     3
100
AcDbLine
 10
888.286868
 20
121.86443
 30
0.0
 11
887.586868
 21
121.86443
 31
0.0
  0
LINE
  5
4FD
100
AcDbEntity
  8
002
 62
     3
100
AcDbLine
 10
887.586868
 20
121.86443
 30
0.0
 11
887.586868
 21
122.66443
 31
0.0
  0
LINE
  5
4FE
100
AcDbEntity
  8
002
 62
     3
100
AcDbLine
 10
887.586868
 20
122.66443
 30
0.0
 11
888.286868
 21
122.66443
 31
0.0
  0
LINE
  5
4FF
100
AcDbEntity
  8
002
 62
     3
100
AcDbLine
 10
888.286868
 20
122.66443
 30
0.0
 11
888.698868
 21
122.90233
 31
0.0
  0
LINE
  5
500
100
AcDbEntity
  8
002
 62
     3
100
AcDbLine
 10
888.698868
 20
122.90233
 30
0.0
 11
888.936868
 21
123.31443
 31
0.0
  0
LINE
  5
501
100
AcDbEntity
  8
002
 62
     3
100
AcDbLine
 10
888.936868
 20
123.31443
 30
0.0
 11
888.936868
 21
124.01443
 31
0.0
  0
LINE
  5
502
100
AcDbEntity
  8
002
 62
     3
100
AcDbLine
 10
888.936868
 20
124.01443
 30
0.0
 11
889.736868
 21
124.01443
 31
0.0
  0
LINE
  5
503
100
AcDbEntity
  8
002
 62
     3
100
AcDbLine
 10
889.736868
 20
124.01443
 30
0.0
 11
889.736868
 21
123.31443
 31
0.0
  0
LINE
  5
504
100
AcDbEntity
  8
002
 62
     3
100
AcDbLine
 10
889.736868
 20
123.31443
 30
0.0
 11
889.974868
 21
122.90233
 31
0.0
  0
LINE
  5
505
100
AcDbEntity
  8
002
 62
     3
100
AcDbLine
 10
889.974868
 20
122.90233
 30
0.0
 11
890.386868
 21
122.66443
 31
0.0
  0
LINE
  5
506
100
AcDbEntity
  8
002
 62
     3
100
AcDbLine
 10
890.386868
 20
122.66443
 30
0.0
 11
891.086868
 21
122.66443
 31
0.0
  0
CIRCLE
  5
507
100
AcDbEntity
  8
002
 62
     3
100
AcDbCircle
 10
889.336868
 20
122.26443
 30
0.0
 40
2.749998
  0
LINE
  5
508
100
AcDbEntity
  8
002
 62
     3
100
AcDbLine
 10
884.336868
 20
121.88153
 30
0.0
 11
894.336868
 21
112.04443
 31
0.0
  0
LINE
  5
509
100
AcDbEntity
  8
002
 62
     3
100
AcDbLine
 10
894.336868
 20
110.92313
 30
0.0
 11
900.398868
 21
104.95893
 31
0.0
  0
LINE
  5
50A
100
AcDbEntity
  8
002
 62
     3
100
AcDbLine
 10
896.822868
 20
101.32323
 30
0.0
 11
894.336868
 21
103.76923
 31
0.0
  0
LINE
  5
50B
100
AcDbEntity
  8
002
 62
     3
100
AcDbLine
 10
894.336868
 20
102.64733
 30
0.0
 11
884.336868
 21
112.48443
 31
0.0
  0
LINE
  5
50C
100
AcDbEntity
  8
002
 62
     3
100
AcDbLine
 10
884.336868
 20
113.60583
 30
0.0
 11
878.273868
 21
119.57003
 31
0.0
  0
LINE
  5
50D
100
AcDbEntity
  8
002
 62
     3
100
AcDbLine
 10
881.849868
 20
123.20563
 30
0.0
 11
884.336868
 21
120.75963
 31
0.0
  0
ARC
  5
50E
100
AcDbEntity
  8
002
 62
     3
100
AcDbCircle
 10
880.061868
 20
121.38793
 30
0.0
 40
2.549844
100
AcDbArc
 50
44.656839
 51
225.475084
  0
LINE
  5
50F
100
AcDbEntity
  8
002
 62
     3
100
AcDbLine
 10
888.936868
 20
104.01443
 30
0.0
 11
888.936868
 21
103.31443
 31
0.0
  0
LINE
  5
510
100
AcDbEntity
  8
002
 62
     3
100
AcDbLine
 10
888.936868
 20
103.31443
 30
0.0
 11
888.698868
 21
102.90233
 31
0.0
  0
LINE
  5
511
100
AcDbEntity
  8
002
 62
     3
100
AcDbLine
 10
888.698868
 20
102.90233
 30
0.0
 11
888.286868
 21
102.66443
 31
0.0
  0
LINE
  5
512
100
AcDbEntity
  8
002
 62
     3
100
AcDbLine
 10
888.286868
 20
102.66443
 30
0.0
 11
887.586868
 21
102.66443
 31
0.0
  0
LINE
  5
513
100
AcDbEntity
  8
002
 62
     3
100
AcDbLine
 10
887.586868
 20
102.66443
 30
0.0
 11
887.586868
 21
101.86443
 31
0.0
  0
LINE
  5
514
100
AcDbEntity
  8
002
 62
     3
100
AcDbLine
 10
887.586868
 20
101.86443
 30
0.0
 11
888.286868
 21
101.86443
 31
0.0
  0
LINE
  5
515
100
AcDbEntity
  8
002
 62
     3
100
AcDbLine
 10
888.286868
 20
101.86443
 30
0.0
 11
888.698868
 21
101.62653
 31
0.0
  0
LINE
  5
516
100
AcDbEntity
  8
002
 62
     3
100
AcDbLine
 10
888.698868
 20
101.62653
 30
0.0
 11
888.936868
 21
101.21443
 31
0.0
  0
LINE
  5
517
100
AcDbEntity
  8
002
 62
     3
100
AcDbLine
 10
888.936868
 20
101.21443
 30
0.0
 11
888.936868
 21
100.51443
 31
0.0
  0
LINE
  5
518
100
AcDbEntity
  8
002
 62
     3
100
AcDbLine
 10
888.936868
 20
100.51443
 30
0.0
 11
889.736868
 21
100.51443
 31
0.0
  0
LINE
  5
519
100
AcDbEntity
  8
002
 62
     3
100
AcDbLine
 10
889.736868
 20
100.51443
 30
0.0
 11
889.736868
 21
101.21443
 31
0.0
  0
LINE
  5
51A
100
AcDbEntity
  8
002
 62
     3
100
AcDbLine
 10
889.736868
 20
101.21443
 30
0.0
 11
889.974868
 21
101.62653
 31
0.0
  0
LINE
  5
51B
100
AcDbEntity
  8
002
 62
     3
100
AcDbLine
 10
889.974868
 20
101.62653
 30
0.0
 11
890.386868
 21
101.86443
 31
0.0
  0
LINE
  5
51C
100
AcDbEntity
  8
002
 62
     3
100
AcDbLine
 10
890.386868
 20
101.86443
 30
0.0
 11
891.086868
 21
101.86443
 31
0.0
  0
LINE
  5
51D
100
AcDbEntity
  8
002
 62
     3
100
AcDbLine
 10
891.086868
 20
101.86443
 30
0.0
 11
891.086868
 21
102.66443
 31
0.0
  0
LINE
  5
51E
100
AcDbEntity
  8
002
 62
     3
100
AcDbLine
 10
891.086868
 20
102.66443
 30
0.0
 11
890.386868
 21
102.66443
 31
0.0
  0
LINE
  5
51F
100
AcDbEntity
  8
002
 62
     3
100
AcDbLine
 10
890.386868
 20
102.66443
 30
0.0
 11
889.974868
 21
102.90233
 31
0.0
  0
LINE
  5
520
100
AcDbEntity
  8
002
 62
     3
100
AcDbLine
 10
889.974868
 20
102.90233
 30
0.0
 11
889.736868
 21
103.31443
 31
0.0
  0
LINE
  5
521
100
AcDbEntity
  8
002
 62
     3
100
AcDbLine
 10
889.736868
 20
103.31443
 30
0.0
 11
889.736868
 21
104.01443
 31
0.0
  0
LINE
  5
522
100
AcDbEntity
  8
002
 62
     3
100
AcDbLine
 10
889.736868
 20
104.01443
 30
0.0
 11
888.936868
 21
104.01443
 31
0.0
  0
CIRCLE
  5
523
100
AcDbEntity
  8
002
 62
     3
100
AcDbCircle
 10
889.336868
 20
102.26443
 30
0.0
 40
2.749998
  0
ARC
  5
524
100
AcDbEntity
  8
002
 62
     3
100
AcDbCircle
 10
898.610868
 20
103.14093
 30
0.0
 40
2.549844
100
AcDbArc
 50
224.656839
 51
45.475084
  0
LINE
  5
525
100
AcDbEntity
  8
002
 62
     3
100
AcDbLine
 10
872.618868
 20
95.26453
 30
0.0
 11
867.336868
 21
95.26453
 31
0.0
  0
LINE
  5
526
100
AcDbEntity
  8
002
 62
     3
100
AcDbLine
 10
899.336868
 20
94.26453
 30
0.0
 11
899.336868
 21
32.26493
 31
0.0
  0
LINE
  5
527
100
AcDbEntity
  8
002
 62
     3
100
AcDbLine
 10
899.336868
 20
32.26493
 30
0.0
 11
879.336868
 21
32.26493
 31
0.0
  0
LINE
  5
528
100
AcDbEntity
  8
002
 62
     3
100
AcDbLine
 10
879.336868
 20
32.26493
 30
0.0
 11
879.336868
 21
94.26453
 31
0.0
  0
LINE
  5
529
100
AcDbEntity
  8
002
 62
     3
100
AcDbLine
 10
883.336868
 20
32.26493
 30
0.0
 11
883.336868
 21
12.26493
 31
0.0
  0
LINE
  5
52A
100
AcDbEntity
  8
002
 62
     3
100
AcDbLine
 10
895.336868
 20
12.26493
 30
0.0
 11
895.336868
 21
32.26493
 31
0.0
  0
LINE
  5
52B
100
AcDbEntity
  8
002
 62
     3
100
AcDbLine
 10
914.336868
 20
232.26493
 30
0.0
 11
914.336868
 21
243.26493
 31
0.0
  0
ARC
  5
52C
100
AcDbEntity
  8
002
 62
     3
100
AcDbCircle
 10
905.568868
 20
246.71993
 30
0.0
 40
2.999873
100
AcDbArc
 50
280.292547
 51
0.0
  0
LINE
  5
52D
100
AcDbEntity
  8
002
 62
     3
100
AcDbLine
 10
906.104868
 20
243.76833
 30
0.0
 11
903.336868
 21
243.26493
 31
0.0
  0
ARC
  5
52E
100
AcDbEntity
  8
002
 62
     3
100
AcDbCircle
 10
896.434868
 20
247.18083
 30
0.0
 40
3.0
100
AcDbArc
 50
270.0
 51
3.652101
  0
LINE
  5
52F
100
AcDbEntity
  8
002
 62
     3
100
AcDbLine
 10
893.568868
 20
245.26493
 30
0.0
 11
854.836868
 21
245.26493
 31
0.0
  0
LINE
  5
530
100
AcDbEntity
  8
002
 62
     3
100
AcDbLine
 10
853.336868
 20
246.23363
 30
0.0
 11
853.336868
 21
286.29633
 31
0.0
  0
LINE
  5
531
100
AcDbEntity
  8
002
 62
     3
100
AcDbLine
 10
853.468868
 20
287.59493
 30
0.0
 11
861.598868
 21
283.43013
 31
0.0
  0
LINE
  5
532
100
AcDbEntity
  8
002
 62
     3
100
AcDbLine
 10
865.803868
 20
282.82293
 30
0.0
 11
887.497868
 21
286.91793
 31
0.0
  0
ARC
  5
533
100
AcDbEntity
  8
002
 62
     3
100
AcDbCircle
 10
891.207868
 20
267.26493
 30
0.0
 40
20.0
100
AcDbArc
 50
90.0
 51
100.690224
  0
LINE
  5
534
100
AcDbEntity
  8
002
 62
     3
100
AcDbLine
 10
898.132868
 20
287.26493
 30
0.0
 11
854.836868
 21
287.26493
 31
0.0
  0
ARC
  5
535
100
AcDbEntity
  8
002
 62
     3
100
AcDbCircle
 10
854.836868
 20
290.26493
 30
0.0
 40
3.0
100
AcDbArc
 50
180.0
 51
270.0
  0
LINE
  5
536
100
AcDbEntity
  8
002
 62
     3
100
AcDbLine
 10
851.836868
 20
290.26493
 30
0.0
 11
851.836868
 21
312.26493
 31
0.0
  0
LINE
  5
537
100
AcDbEntity
  8
002
 62
     3
100
AcDbLine
 10
851.836868
 20
312.26493
 30
0.0
 11
926.836868
 21
312.26493
 31
0.0
  0
LINE
  5
538
100
AcDbEntity
  8
002
 62
     3
100
AcDbLine
 10
926.836868
 20
312.26493
 30
0.0
 11
926.836868
 21
300.40113
 31
0.0
  0
LINE
  5
539
100
AcDbEntity
  8
002
 62
     3
100
AcDbLine
 10
927.561868
 20
300.26493
 30
0.0
 11
945.336868
 21
300.26493
 31
0.0
  0
LINE
  5
53A
100
AcDbEntity
  8
002
 62
     3
100
AcDbLine
 10
945.336868
 20
300.26493
 30
0.0
 11
945.336868
 21
292.59293
 31
0.0
  0
LINE
  5
53B
100
AcDbEntity
  8
002
 62
     3
100
AcDbLine
 10
947.334868
 20
289.76493
 30
0.0
 11
947.334868
 21
254.76493
 31
0.0
  0
LINE
  5
53C
100
AcDbEntity
  8
002
 62
     3
100
AcDbLine
 10
947.334868
 20
254.76493
 30
0.0
 11
947.309868
 21
254.76493
 31
0.0
  0
ARC
  5
53D
100
AcDbEntity
  8
002
 62
     3
100
AcDbCircle
 10
937.300868
 20
256.30023
 30
0.0
 40
7.999973
100
AcDbArc
 50
273.655097
 51
356.347899
  0
LINE
  5
53E
100
AcDbEntity
  8
002
 62
     3
100
AcDbLine
 10
937.810868
 20
248.31653
 30
0.0
 11
931.517868
 21
247.91483
 31
0.0
  0
LINE
  5
53F
100
AcDbEntity
  8
002
 62
     3
100
AcDbLine
 10
934.641868
 20
249.61723
 30
0.0
 11
921.240868
 21
248.76193
 31
0.0
  0
LINE
  5
540
100
AcDbEntity
  8
002
 62
     3
100
AcDbLine
 10
921.431868
 20
248.76193
 30
0.0
 11
908.031868
 21
249.61723
 31
0.0
  0
ARC
  5
541
100
AcDbEntity
  8
002
 62
     3
100
AcDbCircle
 10
908.668868
 20
259.59693
 30
0.0
 40
10.000308
100
AcDbArc
 50
183.652101
 51
266.347789
  0
LINE
  5
542
100
AcDbEntity
  8
002
 62
     3
100
AcDbLine
 10
898.558868
 20
250.58343
 30
0.0
 11
897.171868
 21
272.31823
 31
0.0
  0
LINE
  5
543
100
AcDbEntity
  8
002
 62
     3
100
AcDbLine
 10
897.171868
 20
272.21163
 30
0.0
 11
898.175868
 21
287.95113
 31
0.0
  0
ARC
  5
544
100
AcDbEntity
  8
002
 62
     3
100
AcDbCircle
 10
906.159868
 20
287.44153
 30
0.0
 40
8.000073
100
AcDbArc
 50
93.655051
 51
176.347899
  0
LINE
  5
545
100
AcDbEntity
  8
002
 62
     3
100
AcDbLine
 10
905.649868
 20
295.42533
 30
0.0
 11
921.066868
 21
296.43133
 31
0.0
  0
LINE
  5
546
100
AcDbEntity
  8
002
 62
     3
100
AcDbLine
 10
921.066868
 20
296.43133
 30
0.0
 11
922.848868
 21
296.60263
 31
0.0
  0
LINE
  5
547
100
AcDbEntity
  8
002
 62
     3
100
AcDbLine
 10
921.431868
 20
295.76803
 30
0.0
 11
908.031868
 21
294.91263
 31
0.0
  0
ARC
  5
548
100
AcDbEntity
  8
002
 62
     3
100
AcDbCircle
 10
908.668868
 20
284.93293
 30
0.0
 40
10.000009
100
AcDbArc
 50
93.652211
 51
176.347899
  0
LINE
  5
549
100
AcDbEntity
  8
002
 62
     3
100
AcDbLine
 10
898.688868
 20
285.56993
 30
0.0
 11
897.833868
 21
272.16943
 31
0.0
  0
LINE
  5
54A
100
AcDbEntity
  8
002
 62
     3
100
AcDbLine
 10
897.833868
 20
272.36053
 30
0.0
 11
899.428868
 21
247.37193
 31
0.0
  0
ARC
  5
54B
100
AcDbEntity
  8
002
 62
     3
100
AcDbCircle
 10
893.568868
 20
250.26493
 30
0.0
 40
5.0
100
AcDbArc
 50
270.0
 51
3.652101
  0
ARC
  5
54C
100
AcDbEntity
  8
002
 62
     3
100
AcDbCircle
 10
889.336868
 20
181.48063
 30
0.0
 40
62.412795
100
AcDbArc
 50
81.862017
 51
98.138892
  0
LINE
  5
54D
100
AcDbEntity
  8
002
 62
     3
100
AcDbLine
 10
908.568868
 20
246.71993
 30
0.0
 11
908.568868
 21
246.97203
 31
0.0
  0
ARC
  5
54E
100
AcDbEntity
  8
002
 62
     3
100
AcDbCircle
 10
921.336868
 20
271.22053
 30
0.0
 40
15.66924
100
AcDbArc
 50
306.867411
 51
233.129664
  0
ARC
  5
54F
100
AcDbEntity
  8
002
 62
     3
100
AcDbCircle
 10
929.237868
 20
260.68473
 30
0.0
 40
2.499914
100
AcDbArc
 50
225.152339
 51
306.869898
  0
CIRCLE
  5
550
100
AcDbEntity
  8
002
 62
     3
100
AcDbCircle
 10
925.711868
 20
257.13993
 30
0.0
 40
1.09375
  0
ARC
  5
551
100
AcDbEntity
  8
002
 62
     3
100
AcDbCircle
 10
925.711868
 20
257.13993
 30
0.0
 40
2.499914
100
AcDbArc
 50
45.152339
 51
180.0
  0
LINE
  5
552
100
AcDbEntity
  8
002
 62
     3
100
AcDbLine
 10
923.211868
 20
257.13993
 30
0.0
 11
923.211868
 21
254.89333
 31
0.0
  0
LINE
  5
553
100
AcDbEntity
  8
002
 62
     3
100
AcDbLine
 10
919.461868
 20
254.89333
 30
0.0
 11
919.461868
 21
257.13993
 31
0.0
  0
CIRCLE
  5
554
100
AcDbEntity
  8
002
 62
     3
100
AcDbCircle
 10
916.961868
 20
257.13993
 30
0.0
 40
1.09375
  0
ARC
  5
555
100
AcDbEntity
  8
002
 62
     3
100
AcDbCircle
 10
916.961868
 20
257.13993
 30
0.0
 40
2.5
100
AcDbArc
 50
0.0
 51
134.847661
  0
ARC
  5
556
100
AcDbEntity
  8
002
 62
     3
100
AcDbCircle
 10
913.434868
 20
260.68473
 30
0.0
 40
2.5
100
AcDbArc
 50
233.130102
 51
314.863906
  0
CIRCLE
  5
557
100
AcDbEntity
  8
002
 62
     3
100
AcDbCircle
 10
921.336868
 20
272.26493
 30
0.0
 40
17.5
  0
LINE
  5
558
100
AcDbEntity
  8
002
 62
     3
100
AcDbLine
 10
918.836868
 20
277.01493
 30
0.0
 11
919.086868
 21
276.76493
 31
0.0
  0
LINE
  5
559
100
AcDbEntity
  8
002
 62
     3
100
AcDbLine
 10
919.086868
 20
276.76493
 30
0.0
 11
923.586868
 21
276.76493
 31
0.0
  0
LINE
  5
55A
100
AcDbEntity
  8
002
 62
     3
100
AcDbLine
 10
923.586868
 20
276.76493
 30
0.0
 11
923.836868
 21
277.01493
 31
0.0
  0
LINE
  5
55B
100
AcDbEntity
  8
002
 62
     3
100
AcDbLine
 10
923.836868
 20
277.01493
 30
0.0
 11
923.836868
 21
281.51493
 31
0.0
  0
LINE
  5
55C
100
AcDbEntity
  8
002
 62
     3
100
AcDbLine
 10
923.836868
 20
281.51493
 30
0.0
 11
923.586868
 21
281.76493
 31
0.0
  0
LINE
  5
55D
100
AcDbEntity
  8
002
 62
     3
100
AcDbLine
 10
923.586868
 20
281.76493
 30
0.0
 11
919.086868
 21
281.76493
 31
0.0
  0
LINE
  5
55E
100
AcDbEntity
  8
002
 62
     3
100
AcDbLine
 10
919.086868
 20
281.76493
 30
0.0
 11
918.836868
 21
281.51493
 31
0.0
  0
LINE
  5
55F
100
AcDbEntity
  8
002
 62
     3
100
AcDbLine
 10
918.836868
 20
281.51493
 30
0.0
 11
918.836868
 21
277.01493
 31
0.0
  0
ARC
  5
560
100
AcDbEntity
  8
002
 62
     3
100
AcDbCircle
 10
919.036868
 20
276.96493
 30
0.0
 40
0.2
100
AcDbArc
 50
180.0
 51
270.0
  0
ARC
  5
561
100
AcDbEntity
  8
002
 62
     3
100
AcDbCircle
 10
923.636868
 20
276.96493
 30
0.0
 40
0.2
100
AcDbArc
 50
270.0
 51
0.0
  0
ARC
  5
562
100
AcDbEntity
  8
002
 62
     3
100
AcDbCircle
 10
921.336868
 20
272.26493
 30
0.0
 40
7.50003
100
AcDbArc
 50
109.471139
 51
70.528861
  0
ARC
  5
563
100
AcDbEntity
  8
002
 62
     3
100
AcDbCircle
 10
921.336868
 20
272.26493
 30
0.0
 40
8.500059
100
AcDbArc
 50
107.104513
 51
72.895487
  0
LINE
  5
564
100
AcDbEntity
  8
002
 62
     3
100
AcDbLine
 10
921.240868
 20
295.76803
 30
0.0
 11
934.641868
 21
294.91263
 31
0.0
  0
ARC
  5
565
100
AcDbEntity
  8
002
 62
     3
100
AcDbCircle
 10
934.004868
 20
284.93293
 30
0.0
 40
9.99931
100
AcDbArc
 50
3.652466
 51
86.347789
  0
LINE
  5
566
100
AcDbEntity
  8
002
 62
     3
100
AcDbLine
 10
943.983868
 20
285.56993
 30
0.0
 11
944.839868
 21
272.16943
 31
0.0
  0
LINE
  5
567
100
AcDbEntity
  8
002
 62
     3
100
AcDbLine
 10
944.839868
 20
272.36053
 30
0.0
 11
943.983868
 21
258.95993
 31
0.0
  0
ARC
  5
568
100
AcDbEntity
  8
002
 62
     3
100
AcDbCircle
 10
934.004868
 20
259.59693
 30
0.0
 40
10.000009
100
AcDbArc
 50
273.652211
 51
356.347534
  0
ARC
  5
569
100
AcDbEntity
  8
002
 62
     3
100
AcDbCircle
 10
947.322868
 20
251.76503
 30
0.0
 40
2.999924
100
AcDbArc
 50
89.77081
 51
155.651204
  0
LINE
  5
56A
100
AcDbEntity
  8
002
 62
     3
100
AcDbLine
 10
945.284868
 20
255.79063
 30
0.0
 11
946.336868
 21
272.26493
 31
0.0
  0
LINE
  5
56B
100
AcDbEntity
  8
002
 62
     3
100
AcDbLine
 10
946.336868
 20
272.26493
 30
0.0
 11
945.284868
 21
288.73923
 31
0.0
  0
ARC
  5
56C
100
AcDbEntity
  8
002
 62
     3
100
AcDbCircle
 10
948.336868
 20
292.59293
 30
0.0
 40
3.0
100
AcDbArc
 50
180.0
 51
250.490051
  0
ARC
  5
56D
100
AcDbEntity
  8
002
 62
     3
100
AcDbCircle
 10
937.300868
 20
288.22963
 30
0.0
 40
8.000247
100
AcDbArc
 50
3.652101
 51
86.344949
  0
LINE
  5
56E
100
AcDbEntity
  8
002
 62
     3
100
AcDbLine
 10
937.810868
 20
296.21343
 30
0.0
 11
928.402868
 21
296.71273
 31
0.0
  0
ARC
  5
56F
100
AcDbEntity
  8
002
 62
     3
100
AcDbCircle
 10
928.561868
 20
299.70853
 30
0.0
 40
2.999657
100
AcDbArc
 50
194.959101
 51
266.961917
  0
ARC
  5
570
100
AcDbEntity
  8
002
 62
     3
100
AcDbCircle
 10
922.561868
 20
299.58883
 30
0.0
 40
2.99996
100
AcDbArc
 50
275.489765
 51
347.987687
  0
ARC
  5
571
100
AcDbEntity
  8
002
 62
     3
100
AcDbCircle
 10
927.561868
 20
302.26493
 30
0.0
 40
2.0
100
AcDbArc
 50
180.0
 51
270.0
  0
LINE
  5
572
100
AcDbEntity
  8
002
 62
     3
100
AcDbLine
 10
926.836868
 20
302.26493
 30
0.0
 11
851.836868
 21
302.26493
 31
0.0
  0
LINE
  5
573
100
AcDbEntity
  8
002
 62
     3
100
AcDbLine
 10
859.587868
 20
312.26493
 30
0.0
 11
859.587868
 21
318.26493
 31
0.0
  0
LINE
  5
574
100
AcDbEntity
  8
002
 62
     3
100
AcDbLine
 10
869.587868
 20
318.26493
 30
0.0
 11
859.587868
 21
318.26493
 31
0.0
  0
LINE
  5
575
100
AcDbEntity
  8
002
 62
     3
100
AcDbLine
 10
869.176868
 20
318.26493
 30
0.0
 11
869.176868
 21
321.26493
 31
0.0
  0
LINE
  5
576
100
AcDbEntity
  8
002
 62
     3
100
AcDbLine
 10
877.676868
 20
321.26493
 30
0.0
 11
877.676868
 21
316.26493
 31
0.0
  0
LINE
  5
577
100
AcDbEntity
  8
002
 62
     3
100
AcDbLine
 10
877.676868
 20
321.26493
 30
0.0
 11
869.176868
 21
321.26493
 31
0.0
  0
LINE
  5
578
100
AcDbEntity
  8
002
 62
     3
100
AcDbLine
 10
869.587868
 20
318.26493
 30
0.0
 11
869.587868
 21
312.26493
 31
0.0
  0
LINE
  5
579
100
AcDbEntity
  8
002
 62
     3
100
AcDbLine
 10
869.587868
 20
316.26493
 30
0.0
 11
909.084868
 21
316.26493
 31
0.0
  0
LINE
  5
57A
100
AcDbEntity
  8
002
 62
     3
100
AcDbLine
 10
919.084868
 20
318.26493
 30
0.0
 11
909.084868
 21
318.26493
 31
0.0
  0
LINE
  5
57B
100
AcDbEntity
  8
002
 62
     3
100
AcDbLine
 10
909.084868
 20
318.26493
 30
0.0
 11
909.084868
 21
312.26493
 31
0.0
  0
LINE
  5
57C
100
AcDbEntity
  8
002
 62
     3
100
AcDbLine
 10
909.496868
 20
318.26493
 30
0.0
 11
909.496868
 21
321.26493
 31
0.0
  0
LINE
  5
57D
100
AcDbEntity
  8
002
 62
     3
100
AcDbLine
 10
900.996868
 20
321.26493
 30
0.0
 11
909.496868
 21
321.26493
 31
0.0
  0
LINE
  5
57E
100
AcDbEntity
  8
002
 62
     3
100
AcDbLine
 10
906.336868
 20
321.26493
 30
0.0
 11
906.336868
 21
342.26493
 31
0.0
  0
LINE
  5
57F
100
AcDbEntity
  8
002
 62
     3
100
AcDbLine
 10
906.336868
 20
342.26493
 30
0.0
 11
872.336868
 21
342.26493
 31
0.0
  0
LINE
  5
580
100
AcDbEntity
  8
002
 62
     3
100
AcDbLine
 10
872.336868
 20
342.26493
 30
0.0
 11
872.336868
 21
321.26493
 31
0.0
  0
LINE
  5
581
100
AcDbEntity
  8
002
 62
     3
100
AcDbLine
 10
900.996868
 20
321.26493
 30
0.0
 11
900.996868
 21
316.26493
 31
0.0
  0
LINE
  5
582
100
AcDbEntity
  8
002
 62
     3
100
AcDbLine
 10
919.084868
 20
318.26493
 30
0.0
 11
919.084868
 21
312.26493
 31
0.0
  0
LINE
  5
583
100
AcDbEntity
  8
002
 62
     3
100
AcDbLine
 10
932.086868
 20
310.26493
 30
0.0
 11
932.836868
 21
313.26493
 31
0.0
  0
LINE
  5
584
100
AcDbEntity
  8
002
 62
     3
100
AcDbLine
 10
932.836868
 20
313.26493
 30
0.0
 11
937.836868
 21
313.26493
 31
0.0
  0
LINE
  5
585
100
AcDbEntity
  8
002
 62
     3
100
AcDbLine
 10
937.836868
 20
313.26493
 30
0.0
 11
938.586868
 21
310.26493
 31
0.0
  0
LINE
  5
586
100
AcDbEntity
  8
002
 62
     3
100
AcDbLine
 10
938.586868
 20
310.26493
 30
0.0
 11
938.055868
 21
309.41553
 31
0.0
  0
LINE
  5
587
100
AcDbEntity
  8
002
 62
     3
100
AcDbLine
 10
937.633868
 20
308.74093
 30
0.0
 11
933.038868
 21
308.74093
 31
0.0
  0
LINE
  5
588
100
AcDbEntity
  8
002
 62
     3
100
AcDbLine
 10
932.617868
 20
309.41553
 30
0.0
 11
932.086868
 21
310.26493
 31
0.0
  0
LINE
  5
589
100
AcDbEntity
  8
002
 62
     3
100
AcDbLine
 10
932.836868
 20
310.26493
 30
0.0
 11
937.836868
 21
310.26493
 31
0.0
  0
ARC
  5
58A
100
AcDbEntity
  8
002
 62
     3
100
AcDbCircle
 10
938.903868
 20
308.88553
 30
0.0
 40
1.000002
100
AcDbArc
 50
147.994617
 51
225.004052
  0
LINE
  5
58B
100
AcDbEntity
  8
002
 62
     3
100
AcDbLine
 10
938.196868
 20
308.17843
 30
0.0
 11
940.336868
 21
305.26493
 31
0.0
  0
LINE
  5
58C
100
AcDbEntity
  8
002
 62
     3
100
AcDbLine
 10
940.336868
 20
305.26493
 30
0.0
 11
940.336868
 21
302.26493
 31
0.0
  0
LINE
  5
58D
100
AcDbEntity
  8
002
 62
     3
100
AcDbLine
 10
940.336868
 20
302.26493
 30
0.0
 11
939.336868
 21
301.26493
 31
0.0
  0
LINE
  5
58E
100
AcDbEntity
  8
002
 62
     3
100
AcDbLine
 10
939.336868
 20
301.26493
 30
0.0
 11
931.336868
 21
301.26493
 31
0.0
  0
LINE
  5
58F
100
AcDbEntity
  8
002
 62
     3
100
AcDbLine
 10
931.336868
 20
301.26493
 30
0.0
 11
930.336868
 21
302.26493
 31
0.0
  0
LINE
  5
590
100
AcDbEntity
  8
002
 62
     3
100
AcDbLine
 10
930.336868
 20
302.26493
 30
0.0
 11
930.336868
 21
305.26493
 31
0.0
  0
LINE
  5
591
100
AcDbEntity
  8
002
 62
     3
100
AcDbLine
 10
930.336868
 20
305.26493
 30
0.0
 11
932.476868
 21
308.17843
 31
0.0
  0
ARC
  5
592
100
AcDbEntity
  8
002
 62
     3
100
AcDbCircle
 10
931.769868
 20
308.88553
 30
0.0
 40
0.99992
100
AcDbArc
 50
314.995948
 51
32.005383
  0
ARC
  5
593
100
AcDbEntity
  8
002
 62
     3
100
AcDbCircle
 10
932.836868
 20
302.63993
 30
0.0
 40
3.625
100
AcDbArc
 50
46.397181
 51
133.602819
  0
LINE
  5
594
100
AcDbEntity
  8
002
 62
     3
100
AcDbLine
 10
935.336868
 20
305.26493
 30
0.0
 11
935.336868
 21
302.26493
 31
0.0
  0
ARC
  5
595
100
AcDbEntity
  8
002
 62
     3
100
AcDbCircle
 10
932.836868
 20
304.88993
 30
0.0
 40
3.625
100
AcDbArc
 50
226.397181
 51
313.602819
  0
LINE
  5
596
100
AcDbEntity
  8
002
 62
     3
100
AcDbLine
 10
931.474868
 20
301.26493
 30
0.0
 11
931.474868
 21
300.26493
 31
0.0
  0
ARC
  5
597
100
AcDbEntity
  8
002
 62
     3
100
AcDbCircle
 10
937.836868
 20
302.63993
 30
0.0
 40
3.625
100
AcDbArc
 50
46.397181
 51
133.602819
  0
ARC
  5
598
100
AcDbEntity
  8
002
 62
     3
100
AcDbCircle
 10
937.836868
 20
304.88993
 30
0.0
 40
3.625
100
AcDbArc
 50
226.397181
 51
313.602819
  0
LINE
  5
599
100
AcDbEntity
  8
002
 62
     3
100
AcDbLine
 10
939.197868
 20
301.26493
 30
0.0
 11
939.197868
 21
300.26493
 31
0.0
  0
ARC
  5
59A
100
AcDbEntity
  8
002
 62
     3
100
AcDbCircle
 10
935.336868
 20
312.60353
 30
0.0
 40
0.999975
100
AcDbArc
 50
41.407997
 51
138.592003
  0
LINE
  5
59B
100
AcDbEntity
  8
002
 62
     3
100
AcDbLine
 10
926.836868
 20
242.92503
 30
0.0
 11
926.836868
 21
232.26493
 31
0.0
  0
LINE
  5
59C
100
AcDbEntity
  8
002
 62
     3
100
AcDbLine
 10
926.836868
 20
232.26493
 30
0.0
 11
851.836868
 21
232.26493
 31
0.0
  0
LINE
  5
59D
100
AcDbEntity
  8
002
 62
     3
100
AcDbLine
 10
851.836868
 20
232.26493
 30
0.0
 11
851.836868
 21
242.26493
 31
0.0
  0
ARC
  5
59E
100
AcDbEntity
  8
002
 62
     3
100
AcDbCircle
 10
854.836868
 20
242.26493
 30
0.0
 40
3.0
100
AcDbArc
 50
90.0
 51
180.0
  0
ARC
  5
59F
100
AcDbEntity
  8
002
 62
     3
100
AcDbCircle
 10
850.336868
 20
246.23363
 30
0.0
 40
3.000057
100
AcDbArc
 50
318.589139
 51
0.0
  0
LINE
  5
5A0
100
AcDbEntity
  8
002
 62
     3
100
AcDbLine
 10
864.336868
 20
243.26493
 30
0.0
 11
864.336868
 21
232.26493
 31
0.0
  0
LINE
  5
5A1
100
AcDbEntity
  8
002
 62
     3
100
AcDbLine
 10
864.336868
 20
245.26493
 30
0.0
 11
875.336868
 21
243.26493
 31
0.0
  0
ARC
  5
5A2
100
AcDbEntity
  8
002
 62
     3
100
AcDbCircle
 10
864.587868
 20
289.26493
 30
0.0
 40
6.555838
100
AcDbArc
 50
242.875244
 51
280.68945
  0
ARC
  5
5A3
100
AcDbEntity
  8
002
 62
     3
100
AcDbCircle
 10
850.336868
 20
286.29633
 30
0.0
 40
3.0
100
AcDbArc
 50
0.0
 51
41.409429
  0
ARC
  5
5A4
100
AcDbEntity
  8
002
 62
     3
100
AcDbCircle
 10
931.836868
 20
242.92503
 30
0.0
 40
4.999987
100
AcDbArc
 50
93.657965
 51
180.0
  0
LINE
  5
5A5
100
AcDbEntity
  8
002
  6
CENTER
 62
     9
100
AcDbLine
 10
873.426868
 20
322.76493
 30
0.0
 11
873.426868
 21
310.26493
 31
0.0
  0
LINE
  5
5A6
100
AcDbEntity
  8
002
  6
CENTER
 62
     9
100
AcDbLine
 10
864.587868
 20
322.76493
 30
0.0
 11
864.587868
 21
296.43133
 31
0.0
  0
LINE
  5
5A7
100
AcDbEntity
  8
002
  6
CENTER
 62
     9
100
AcDbLine
 10
844.220868
 20
272.26493
 30
0.0
 11
956.267868
 21
272.26493
 31
0.0
  0
LINE
  5
5A8
100
AcDbEntity
  8
002
  6
CENTER
 62
     9
100
AcDbLine
 10
935.336868
 20
297.52333
 30
0.0
 11
935.336868
 21
315.86893
 31
0.0
  0
LINE
  5
5A9
100
AcDbEntity
  8
002
  6
CENTER
 62
     9
100
AcDbLine
 10
921.336868
 20
320.82553
 30
0.0
 11
921.336868
 21
224.22183
 31
0.0
  0
LINE
  5
5AA
100
AcDbEntity
  8
002
 62
     9
100
AcDbLine
 10
898.106868
 20
232.26493
 30
0.0
 11
898.106868
 21
152.26413
 31
0.0
  0
LINE
  5
5AB
100
AcDbEntity
  8
002
  6
CENTER
 62
     9
100
AcDbLine
 10
902.323868
 20
99.48833
 30
0.0
 11
894.336868
 21
107.34603
 31
0.0
  0
LINE
  5
5AC
100
AcDbEntity
  8
002
  6
CENTER
 62
     9
100
AcDbLine
 10
884.336868
 20
117.18283
 30
0.0
 11
877.049868
 21
124.35133
 31
0.0
  0
LINE
  5
5AD
100
AcDbEntity
  8
002
  6
CENTER
 62
     9
100
AcDbLine
 10
916.836868
 20
137.26413
 30
0.0
 11
916.836868
 21
155.26363
 31
0.0
  0
LINE
  5
5AE
100
AcDbEntity
  8
002
 62
     9
100
AcDbLine
 10
880.566868
 20
94.26453
 30
0.0
 11
880.566868
 21
32.26493
 31
0.0
  0
LINE
  5
5AF
100
AcDbEntity
  8
002
 62
     9
100
AcDbLine
 10
898.106868
 20
32.26493
 30
0.0
 11
898.106868
 21
94.26453
 31
0.0
  0
LINE
  5
5B0
100
AcDbEntity
  8
002
  6
CENTER
 62
     9
100
AcDbLine
 10
861.836868
 20
155.26363
 30
0.0
 11
861.836868
 21
137.26413
 31
0.0
  0
LINE
  5
5B1
100
AcDbEntity
  8
002
 62
     9
100
AcDbLine
 10
880.566868
 20
152.26413
 30
0.0
 11
880.566868
 21
232.26493
 31
0.0
  0
LINE
  5
5B2
100
AcDbEntity
  8
002
  6
CENTER
 62
     9
100
AcDbLine
 10
914.084868
 20
296.43133
 30
0.0
 11
914.084868
 21
322.76493
 31
0.0
  0
LINE
  5
5B3
100
AcDbEntity
  8
002
  6
CENTER
 62
     9
100
AcDbLine
 10
905.246868
 20
322.76493
 30
0.0
 11
905.246868
 21
310.26493
 31
0.0
  0
LINE
  5
5B4
100
AcDbEntity
  8
002
  6
HIDDEN
 62
     9
100
AcDbLine
 10
894.836868
 20
242.26493
 30
0.0
 11
894.836868
 21
232.26493
 31
0.0
  0
LINE
  5
5B5
100
AcDbEntity
  8
002
  6
HIDDEN
 62
     9
100
AcDbLine
 10
883.836868
 20
232.26493
 30
0.0
 11
883.836868
 21
242.26493
 31
0.0
  0
LINE
  5
5B6
100
AcDbEntity
  8
002
  6
HIDDEN
 62
     9
100
AcDbLine
 10
882.702868
 20
242.26493
 30
0.0
 11
877.336868
 21
242.26493
 31
0.0
  0
LINE
  5
5B7
100
AcDbEntity
  8
002
  6
HIDDEN
 62
     9
100
AcDbLine
 10
895.969868
 20
242.26493
 30
0.0
 11
901.336868
 21
242.26493
 31
0.0
  0
LINE
  5
5B8
100
AcDbEntity
  8
002
  6
HIDDEN
 62
     9
100
AcDbLine
 10
901.336868
 20
242.26493
 30
0.0
 11
901.336868
 21
242.72903
 31
0.0
  0
LINE
  5
5B9
100
AcDbEntity
  8
002
  6
HIDDEN
 62
     9
100
AcDbLine
 10
877.336868
 20
242.26493
 30
0.0
 11
877.336868
 21
242.72903
 31
0.0
  0
LINE
  5
5BA
100
AcDbEntity
  8
002
  6
CENTER
 62
     9
100
AcDbLine
 10
889.336868
 20
6.30833
 30
0.0
 11
889.336868
 21
351.36933
 31
0.0
  0
LINE
  5
5BB
100
AcDbEntity
  8
002
 62
     3
100
AcDbLine
 10
883.336868
 20
12.26493
 30
0.0
 11
895.336868
 21
12.26493
 31
0.0
  0
ENDSEC
  0
SECTION
  2
OBJECTS
  0
DICTIONARY
  5
19
100
AcDbDictionary
280
     0
281
     1
  3
ACAD_GROUP
350
1A
  3
ACAD_MLINESTYLE
350
1B
  3
ACAD_LAYOUT
350
1E
  3
ACAD_PLOTSETTINGS
350
22
  3
ACAD_PLOTSTYLENAME
350
1F
  3
ACAD_WIPEOUT_VARS
350
23
  0
DICTIONARY
  5
1A
102
{ACAD_REACTORS
330
19
102
}
100
AcDbDictionary
280
     0
281
     1
  0
DICTIONARY
  5
1B
102
{ACAD_REACTORS
330
19
102
}
100
AcDbDictionary
280
     0
281
     1
  3
Standard
350
1C
  0
MLINESTYLE
  5
1C
102
{ACAD_REACTORS
330
1B
102
}
100
AcDbMlineStyle
  2
Standard
 70
     0
  3

 62
     0
 51
90.0
 52
90.0
 71
     2
 49
0.5
 62
   256
  6
BYLAYER
 49
-0.5
 62
   256
  6
BYLAYER
  0
ACDBDICTIONARYWDFLT
  5
1F
102
{ACAD_REACTORS
330
19
102
}
100
AcDbDictionary
281
     1
  3
Normal
350
1D
100
AcDbDictionaryWithDefault
340
1D
  0
ACDBPLACEHOLDER
  5
1D
102
{ACAD_REACTORS
330
1F
102
}
  0
LAYOUT
  5
20
102
{ACAD_REACTORS
330
1E
102
}
100
AcDbPlotSettings
  1

  2

  4

  6

 40
0.0
 41
0.0
 42
0.0
 43
0.0
 44
0.0
 45
0.0
 46
0.0
 47
0.0
 48
0.0
 49
0.0
140
0.0
141
0.0
142
1.0
143
1.0
 70
  1024
 72
     0
 73
     0
 74
     0
  7

 75
     0
147
1.0
148
0.0
149
0.0
100
AcDbLayout
  1
Model
 70
     0
 71
     0
 10
0.0
 20
0.0
 11
0.0
 21
0.0
 12
0.0
 22
0.0
 32
0.0
 14
0.0
 24
0.0
 34
0.0
 15
0.0
 25
0.0
 35
0.0
146
0.0
 13
0.0
 23
0.0
 33
0.0
 16
0.0
 26
0.0
 36
0.0
 17
0.0
 27
0.0
 37
0.0
 76
     0
330
A
331
0
345
0
346
0
  0
LAYOUT
  5
21
102
{ACAD_REACTORS
330
1E
102
}
100
AcDbPlotSettings
  1

  2

  4

  6

 40
0.0
 41
0.0
 42
0.0
 43
0.0
 44
0.0
 45
0.0
 46
0.0
 47
0.0
 48
0.0
 49
0.0
140
0.0
141
0.0
142
1.0
143
1.0
 70
     0
 72
     0
 73
     0
 74
     0
  7

 75
     0
147
1.0
148
0.0
149
0.0
100
AcDbLayout
  1
Layout1
 70
     0
 71
     0
 10
0.0
 20
0.0
 11
0.0
 21
0.0
 12
0.0
 22
0.0
 32
0.0
 14
0.0
 24
0.0
 34
0.0
 15
0.0
 25
0.0
 35
0.0
146
0.0
 13
0.0
 23
0.0
 33
0.0
 16
0.0
 26
0.0
 36
0.0
 17
0.0
 27
0.0
 37
0.0
 76
     0
330
B
331
0
345
0
346
0
  0
DICTIONARY
  5
1E
102
{ACAD_REACTORS
330
19
102
}
100
AcDbDictionary
280
     0
281
     1
  3
Layout1
350
21
  3
Model
350
20
  0
DICTIONARY
  5
22
102
{ACAD_REACTORS
330
19
102
}
100
AcDbDictionary
280
     0
281
     1
  0
WIPEOUTVARIABLES
  5
23
100
AcDbWipeoutVariables
 70
     1
  0
ENDSEC
  0
EOF
