  0
SECTION
  2
HEADER
  9
$ACADVER
  1
AC1015
  9
$ACADMAINTVER
 70
     6
  9
$DWGCODEPAGE
  3
DOS932
  9
$INSBASE
 10
0.0
 20
0.0
 30
0.0
  9
$EXTMIN
 10
102.474731
 20
65.547302
 30
1.000000E+20
  9
$EXTMAX
 10
1210.987427
 20
1018.972351
 30
-1.000000E+20
  9
$LIMMIN
 10
0.0
 20
0.0
  9
$LIMMAX
 10
12.0
 20
9.0
  9
$ORTHOMODE
 70
     0
  9
$REGENMODE
 70
     1
  9
$FILLMODE
 70
     1
  9
$QTEXTMODE
 70
     0
  9
$MIRRTEXT
 70
     1
  9
$LTSCALE
 40
18.475212
  9
$ATTMODE
 70
     1
  9
$TEXTSIZE
 40
3.2
  9
$TRACEWID
 40
0.05
  9
$TEXTSTYLE
  7
STANDARD
  9
$CLAYER
  8
0
  9
$CELTYPE
  6
Continuous
  9
$CECOLOR
 62
   256
  9
$CELTSCALE
 40
1.0
  9
$DISPSILH
 70
     0
  9
$DIMSCALE
 40
1.0
  9
$DIMASZ
 40
0.18
  9
$DIMEXO
 40
0.0625
  9
$DIMDLI
 40
0.38
  9
$DIMRND
 40
0.0
  9
$DIMDLE
 40
0.0
  9
$DIMEXE
 40
0.18
  9
$DIMTP
 40
0.0
  9
$DIMTM
 40
0.0
  9
$DIMTXT
 40
0.18
  9
$DIMCEN
 40
0.09
  9
$DIMTSZ
 40
0.0
  9
$DIMTOL
 70
     0
  9
$DIMLIM
 70
     0
  9
$DIMTIH
 70
     1
  9
$DIMTOH
 70
     1
  9
$DIMSE1
 70
     0
  9
$DIMSE2
 70
     0
  9
$DIMTAD
 70
     0
  9
$DIMZIN
 70
     0
  9
$DIMBLK
  1

  9
$DIMASO
 70
     1
  9
$DIMSHO
 70
     1
  9
$DIMPOST
  1

  9
$DIMAPOST
  1

  9
$DIMALT
 70
     0
  9
$DIMALTD
 70
     2
  9
$DIMALTF
 40
25.4
  9
$DIMLFAC
 40
1.0
  9
$DIMTOFL
 70
     0
  9
$DIMTVP
 40
0.0
  9
$DIMTIX
 70
     0
  9
$DIMSOXD
 70
     0
  9
$DIMSAH
 70
     0
  9
$DIMBLK1
  1

  9
$DIMBLK2
  1

  9
$DIMSTYLE
  2
Standard
  9
$DIMCLRD
 70
     0
  9
$DIMCLRE
 70
     0
  9
$DIMCLRT
 70
     0
  9
$DIMTFAC
 40
1.0
  9
$DIMGAP
 40
0.09
  9
$DIMJUST
 70
     0
  9
$DIMSD1
 70
     0
  9
$DIMSD2
 70
     0
  9
$DIMTOLJ
 70
     1
  9
$DIMTZIN
 70
     0
  9
$DIMALTZ
 70
     0
  9
$DIMALTTZ
 70
     0
  9
$DIMUPT
 70
     0
  9
$DIMDEC
 70
     4
  9
$DIMTDEC
 70
     4
  9
$DIMALTU
 70
     2
  9
$DIMALTTD
 70
     2
  9
$DIMTXSTY
  7
STANDARD
  9
$DIMAUNIT
 70
     0
  9
$DIMADEC
 70
     0
  9
$DIMALTRND
 40
0.0
  9
$DIMAZIN
 70
     0
  9
$DIMDSEP
 70
     0
  9
$DIMATFIT
 70
     3
  9
$DIMFRAC
 70
     0
  9
$DIMLDRBLK
  1

  9
$DIMLUNIT
 70
     2
  9
$DIMLWD
 70
     0
  9
$DIMLWE
 70
     0
  9
$DIMTMOVE
 70
     0
  9
$LUNITS
 70
     2
  9
$LUPREC
 70
     4
  9
$SKETCHINC
 40
0.1
  9
$FILLETRAD
 40
0.0
  9
$AUNITS
 70
     0
  9
$AUPREC
 70
     0
  9
$MENU
  1
.
  9
$ELEVATION
 40
0.0
  9
$PELEVATION
 40
0.0
  9
$THICKNESS
 40
0.0
  9
$LIMCHECK
 70
     0
  9
$CHAMFERA
 40
0.0
  9
$CHAMFERB
 40
0.0
  9
$CHAMFERC
 40
0.0
  9
$CHAMFERD
 40
0.0
  9
$SKPOLY
 70
     0
  9
$TDCREATE
 40
0.000000000
  9
$TDUCREATE
 40
0.000000000
  9
$TDUPDATE
 40
0.000000000
  9
$TDUUPDATE
 40
0.000000000
  9
$TDINDWG
 40
0.0000000000
  9
$TDUSRTIMER
 40
0.0000000000
  9
$USRTIMER
 70
     1
  9
$ANGBASE
 50
0.0
  9
$ANGDIR
 70
     0
  9
$PDMODE
 70
     0
  9
$PDSIZE
 40
0.0
  9
$PLINEWID
 40
0.0
  9
$SPLFRAME
 70
     0
  9
$SPLINETYPE
 70
     6
  9
$SPLINESEGS
 70
     8
  9
$HANDSEED
  5
5EC
  9
$SURFTAB1
 70
     6
  9
$SURFTAB2
 70
     6
  9
$SURFTYPE
 70
     6
  9
$SURFU
 70
     6
  9
$SURFV
 70
     6
  9
$UCSBASE
  2

  9
$UCSNAME
  2

  9
$UCSORG
 10
0.0
 20
0.0
 30
0.0
  9
$UCSXDIR
 10
1.0
 20
0.0
 30
0.0
  9
$UCSYDIR
 10
0.0
 20
1.0
 30
0.0
  9
$UCSORTHOREF
  2

  9
$UCSORTHOVIEW
 70
     0
  9
$UCSORGTOP
 10
0.0
 20
0.0
 30
0.0
  9
$UCSORGBOTTOM
 10
0.0
 20
0.0
 30
0.0
  9
$UCSORGLEFT
 10
0.0
 20
0.0
 30
0.0
  9
$UCSORGRIGHT
 10
0.0
 20
0.0
 30
0.0
  9
$UCSORGFRONT
 10
0.0
 20
0.0
 30
0.0
  9
$UCSORGBACK
 10
0.0
 20
0.0
 30
0.0
  9
$PUCSBASE
  2

  9
$PUCSNAME
  2

  9
$PUCSORG
 10
0.0
 20
0.0
 30
0.0
  9
$PUCSXDIR
 10
1.0
 20
0.0
 30
0.0
  9
$PUCSYDIR
 10
0.0
 20
1.0
 30
0.0
  9
$PUCSORTHOREF
  2

  9
$PUCSORTHOVIEW
 70
     0
  9
$PUCSORGTOP
 10
0.0
 20
0.0
 30
0.0
  9
$PUCSORGBOTTOM
 10
0.0
 20
0.0
 30
0.0
  9
$PUCSORGLEFT
 10
0.0
 20
0.0
 30
0.0
  9
$PUCSORGRIGHT
 10
0.0
 20
0.0
 30
0.0
  9
$PUCSORGFRONT
 10
0.0
 20
0.0
 30
0.0
  9
$PUCSORGBACK
 10
0.0
 20
0.0
 30
0.0
  9
$USERI1
 70
     0
  9
$USERI2
 70
     0
  9
$USERI3
 70
     0
  9
$USERI4
 70
     0
  9
$USERI5
 70
     0
  9
$USERR1
 40
0.0
  9
$USERR2
 40
0.0
  9
$USERR3
 40
0.0
  9
$USERR4
 40
0.0
  9
$USERR5
 40
0.0
  9
$WORLDVIEW
 70
     1
  9
$SHADEDGE
 70
     3
  9
$SHADEDIF
 70
    70
  9
$TILEMODE
 70
     1
  9
$MAXACTVP
 70
    16
  9
$PINSBASE
 10
0.0
 20
0.0
 30
0.0
  9
$PLIMCHECK
 70
     0
  9
$PEXTMIN
 10
1.000000E+20
 20
1.000000E+20
 30
1.000000E+20
  9
$PEXTMAX
 10
-1.000000E+20
 20
-1.000000E+20
 30
-1.000000E+20
  9
$PLIMMIN
 10
0.0
 20
0.0
  9
$PLIMMAX
 10
12.0
 20
9.0
  9
$UNITMODE
 70
     0
  9
$VISRETAIN
 70
     0
  9
$PLINEGEN
 70
     0
  9
$PSLTSCALE
 70
     1
  9
$TREEDEPTH
 70
  3020
  9
$CMLSTYLE
  2
Standard
  9
$CMLJUST
 70
     0
  9
$CMLSCALE
 40
1.0
  9
$PROXYGRAPHICS
 70
     0
  9
$MEASUREMENT
 70
     0
  9
$CELWEIGHT
370
     0
  9
$ENDCAPS
280
     0
  9
$JOINSTYLE
280
     0
  9
$LWDISPLAY
290
     0
  9
$INSUNITS
 70
     0
  9
$HYPERLINKBASE
  1

  9
$XEDIT
290
     1
  9
$CEPSNTYPE
380
     0
  9
$PSTYLEMODE
290
     1
  9
$FINGERPRINTGUID
  2

  9
$VERSIONGUID
  2

  9
$EXTNAMES
290
     1
  9
$PSVPSCALE
 40
0.0
  0
ENDSEC
  0
SECTION
  2
CLASSES
  0
CLASS
  1
LWPOLYLINE
  2
AcDbPolyline
  3
AutoCAD 2000
 90
    32768
280
     0
281
     1
  0
CLASS
  1
IMAGE
  2
AcDbRasterImage
  3
ISM
 90
    32895
280
     0
281
     1
  0
CLASS
  1
OLE2FRAME
  2
AcDbOle2Frame
  3
AutoCAD 2000
 90
    32768
280
     0
281
     1
  0
CLASS
  1
HATCH
  2
AcDbHatch
  3
AutoCAD 2000
 90
    32768
280
     0
281
     1
  0
CLASS
  1
DICTIONARYVAR
  2
AcDbDictionaryVar
  3
AutoCAD 2000
 90
    32768
280
     0
281
     0
  0
CLASS
  1
RASTERVARIABLES
  2
AcDbRasterVariables
  3
ISM
 90
    32768
280
     0
281
     0
  0
CLASS
  1
IMAGEDEF
  2
AcDbRasterImageDef
  3
ISM
 90
    32768
280
     0
281
     0
  0
CLASS
  1
IMAGEDEF_REACTOR
  2
AcDbRasterImageDefReactor
  3
ISM
 90
    32769
280
     0
281
     0
  0
CLASS
  1
IDBUFFER
  2
AcDbIdBuffer
  3
AutoCAD 2000
 90
    32768
280
     0
281
     0
  0
CLASS
  1
SPATIAL_FILTER
  2
AcDbSpatialFilter
  3
AutoCAD 2000
 90
    32768
280
     0
281
     0
  0
CLASS
  1
XRECORD
  2
AcDbXrecord
  3
AutoCAD 2000
 90
    32768
280
     0
281
     0
  0
CLASS
  1
SORTENTSTABLE
  2
AcDbSortentsTable
  3
AutoCAD 2000
 90
    32768
280
     0
281
     0
  0
CLASS
  1
LAYER_INDEX
  2
AcDbLayerIndex
  3
AutoCAD 2000
 90
    32768
280
     0
281
     0
  0
CLASS
  1
SPATIAL_INDEX
  2
AcDbSpatialIndex
  3
AutoCAD 2000
 90
    32768
280
     0
281
     0
  0
CLASS
  1
OBJECT_PTR
  2
CAseDLPNTableRecord
  3
"ASE-LPNTableRecord"
 90
    32769
280
     0
281
     0
  0
CLASS
  1
LAYOUT
  2
AcDbLayout
  3
AutoCAD 2000
 90
        0
280
     0
281
     0
  0
CLASS
  1
PLOTSETTINGS
  2
AcDbPlotSettings
  3
AutoCAD 2000
 90
    32768
280
     0
281
     0
  0
CLASS
  1
ACDBDICTIONARYWDFLT
  2
AcDbDictionaryWithDefault
  3
AutoCAD 2000
 90
        0
280
     0
281
     0
  0
CLASS
  1
ACDBPLACEHOLDER
  2
AcDbPlaceHolder
  3
AutoCAD 2000
 90
        0
280
     0
281
     0
  0
CLASS
  1
VBA_PROJECT
  2
AcDbVbaProject
  3
acadvba
 90
    32768
280
     0
281
     0
  0
CLASS
  1
WIPEOUT
  2
AcDbWipeout
  3
WipeOut|AutoCAD Express Tool|expresstools@autodesk.com
 90
    32895
280
     0
281
     1
  0
CLASS
  1
WIPEOUTVARIABLES
  2
AcDbWipeoutVariables
  3
WipeOut|AutoCAD Express Tool|expresstools@autodesk.com
 90
        0
280
     0
281
     0
  0
CLASS
  1
RTEXT
  2
RText
  3
RText|AutoCAD Express Tool|expresstools@autodesk.com
 90
    32768
280
     0
281
     1
  0
CLASS
  1
ARCALIGNEDTEXT
  2
AcDbArcAlignedText
  3
ATEXT|AutoCAD Express Tool|expresstools@autodesk.com
 90
    32768
280
     0
281
     1
  0
ENDSEC
  0
SECTION
  2
TABLES
  0
TABLE
  2
VPORT
  5
7
100
AcDbSymbolTable
 70
     1
  0
VPORT
  5
15
100
AcDbSymbolTableRecord
100
AcDbViewportTableRecord
  2
*ACTIVE
 70
     0
 10
0.0
 20
0.0
 11
1.0
 21
1.0
 12
656.731079
 22
542.259827
 13
0.0
 23
0.0
 14
1.0
 24
1.0
 15
0.0
 25
0.0
 16
0.0
 26
0.0
 36
1.0
 17
0.0
 27
0.0
 37
0.0
 40
962.959299
 41
1.691288
 42
50.0
 43
0.0
 44
0.0
 50
0.0
 51
0.0
 71
     0
 72
   100
 73
     1
 74
     1
 75
     0
 76
     0
 77
     0
 78
     0
281
     0
 65
     0
110
0.0
120
0.0
130
0.0
111
1.0
121
0.0
131
0.0
112
0.0
122
1.0
132
0.0
345
0
346
0
 79
     0
146
0.0
  0
ENDTAB
  0
TABLE
  2
LTYPE
  5
4
100
AcDbSymbolTable
 70
     7
  0
LTYPE
  5
11
100
AcDbSymbolTableRecord
100
AcDbLinetypeTableRecord
  2
ByBlock
 70
    64
  3

 72
    65
 73
     0
 40
0.0
  0
LTYPE
  5
12
100
AcDbSymbolTableRecord
100
AcDbLinetypeTableRecord
  2
ByLayer
 70
    64
  3

 72
    65
 73
     0
 40
0.0
  0
LTYPE
  5
13
100
AcDbSymbolTableRecord
100
AcDbLinetypeTableRecord
  2
Continuous
 70
    64
  3
Solid line
 72
    65
 73
     0
 40
0.0
  0
LTYPE
  5
24
100
AcDbSymbolTableRecord
100
AcDbLinetypeTableRecord
  2
DASHED
 70
    64
  3
DASHED
 72
    65
 73
     2
 40
0.75
 49
0.5
 74
     0
 49
-0.25
 74
     0
  0
LTYPE
  5
25
100
AcDbSymbolTableRecord
100
AcDbLinetypeTableRecord
  2
HIDDEN
 70
    64
  3
HIDDEN
 72
    65
 73
     2
 40
0.375
 49
0.25
 74
     0
 49
-0.125
 74
     0
  0
LTYPE
  5
26
100
AcDbSymbolTableRecord
100
AcDbLinetypeTableRecord
  2
CENTER
 70
    64
  3
CENTER
 72
    65
 73
     4
 40
2.0
 49
1.25
 74
     0
 49
-0.25
 74
     0
 49
0.25
 74
     0
 49
-0.25
 74
     0
  0
LTYPE
  5
27
100
AcDbSymbolTableRecord
100
AcDbLinetypeTableRecord
  2
PHANTOM
 70
    64
  3
PHANTOM
 72
    65
 73
     6
 40
2.5
 49
1.25
 74
     0
 49
-0.25
 74
     0
 49
0.25
 74
     0
 49
-0.25
 74
     0
 49
0.25
 74
     0
 49
-0.25
 74
     0
  0
ENDTAB
  0
TABLE
  2
LAYER
  5
2
100
AcDbSymbolTable
 70
     4
  0
LAYER
  5
14
100
AcDbSymbolTableRecord
100
AcDbLayerTableRecord
  2
0
 70
     0
 62
     7
  6
Continuous
290
     1
370
    -3
390
1D
  0
LAYER
  5
28
100
AcDbSymbolTableRecord
100
AcDbLayerTableRecord
  2
002
 70
     0
 62
     7
  6
Continuous
290
     1
370
    -3
390
1F
  0
LAYER
  5
29
100
AcDbSymbolTableRecord
100
AcDbLayerTableRecord
  2
003
 70
     0
 62
     7
  6
Continuous
290
     1
370
    -3
390
1F
  0
LAYER
  5
2A
100
AcDbSymbolTableRecord
100
AcDbLayerTableRecord
  2
007
 70
     0
 62
     7
  6
Continuous
290
     1
370
    -3
390
1F
  0
ENDTAB
  0
TABLE
  2
STYLE
  5
3
100
AcDbSymbolTable
 70
     2
  0
STYLE
  5
17
100
AcDbSymbolTableRecord
100
AcDbTextStyleTableRecord
  2
STANDARD
 70
     0
 40
0.0
 41
1.0
 50
0.0
 71
     0
 42
0.2
  3
TXT
  4
BIGFONT
  0
STYLE
  5
2B
100
AcDbSymbolTableRecord
100
AcDbTextStyleTableRecord
  2
TATEGAKI
 70
     4
 40
1.0
 41
1.0
 50
0.0
 71
     0
 42
0.2
  3
TXT
  4
BIGFONT
  0
ENDTAB
  0
TABLE
  2
VIEW
  5
5
100
AcDbSymbolTable
 70
     0
  0
ENDTAB
  0
TABLE
  2
UCS
  5
6
100
AcDbSymbolTable
 70
     0
  0
ENDTAB
  0
TABLE
  2
APPID
  5
8
100
AcDbSymbolTable
 70
     1
  0
APPID
  5
16
100
AcDbSymbolTableRecord
100
AcDbRegAppTableRecord
  2
ACAD
 70
     0
  0
ENDTAB
  0
TABLE
  2
DIMSTYLE
  5
9
100
AcDbSymbolTable
 70
     1
100
AcDbDimStyleTable
 71
     0
  0
DIMSTYLE
105
18
100
AcDbSymbolTableRecord
100
AcDbDimStyleTableRecord
  2
Standard
 70
     0
  3

  4

 40
1.0
 41
0.18
 42
0.0625
 43
0.38
 44
0.18
 45
0.0
 46
0.0
 47
0.0
 48
0.0
 71
     0
 72
     0
 73
     1
 74
     1
 75
     0
 76
     0
 77
     0
 78
     0
 79
     0
140
0.18
141
0.09
142
0.0
143
25.4
144
1.0
145
0.0
146
1.0
147
0.09
148
0.0
170
     0
171
     2
172
     0
173
     0
174
     0
175
     0
176
     0
177
     0
178
     0
179
     0
271
     4
272
     4
273
     2
274
     2
275
     0
276
     0
277
     2
278
    46
279
     0
280
     0
281
     0
282
     0
283
     1
284
     0
285
     0
286
     0
288
     0
340
17
341
0
342
0
343
0
344
0
371
    -2
372
    -2
  0
ENDTAB
  0
TABLE
  2
BLOCK_RECORD
  5
1
100
AcDbSymbolTable
 70
     0
  0
BLOCK_RECORD
  5
A
100
AcDbSymbolTableRecord
100
AcDbBlockTableRecord
  2
*MODEL_SPACE
340
20
  0
BLOCK_RECORD
  5
B
100
AcDbSymbolTableRecord
100
AcDbBlockTableRecord
  2
*PAPER_SPACE
340
21
  0
ENDTAB
  0
ENDSEC
  0
SECTION
  2
BLOCKS
  0
BLOCK
  5
D
100
AcDbEntity
  8
0
100
AcDbBlockBegin
  2
*MODEL_SPACE
 70
     0
 10
0.0
 20
0.0
 30
0.0
  3
*MODEL_SPACE
  1

  0
ENDBLK
  5
E
100
AcDbEntity
  8
0
100
AcDbBlockEnd
  0
BLOCK
  5
F
100
AcDbEntity
 67
     1
  8
0
100
AcDbBlockBegin
  2
*PAPER_SPACE
 70
     0
 10
0.0
 20
0.0
 30
0.0
  3
*PAPER_SPACE
  1

  0
ENDBLK
  5
10
100
AcDbEntity
 67
     1
  8
0
100
AcDbBlockEnd
  0
ENDSEC
  0
SECTION
  2
ENTITIES
  0
LINE
  5
2C
100
AcDbEntity
  8
002
 62
     3
100
AcDbLine
 10
226.74671
 20
651.122371
 30
0.0
 11
222.24671
 21
651.122371
 31
0.0
  0
LINE
  5
2D
100
AcDbEntity
  8
002
 62
     3
100
AcDbLine
 10
222.24671
 20
651.122371
 30
0.0
 11
221.99671
 21
650.872371
 31
0.0
  0
LINE
  5
2E
100
AcDbEntity
  8
002
 62
     3
100
AcDbLine
 10
221.99671
 20
650.872371
 30
0.0
 11
221.99671
 21
646.372371
 31
0.0
  0
LINE
  5
2F
100
AcDbEntity
  8
002
 62
     3
100
AcDbLine
 10
221.99671
 20
646.372371
 30
0.0
 11
222.24671
 21
646.122371
 31
0.0
  0
LINE
  5
30
100
AcDbEntity
  8
002
 62
     3
100
AcDbLine
 10
222.24671
 20
646.122371
 30
0.0
 11
226.74671
 21
646.122371
 31
0.0
  0
LINE
  5
31
100
AcDbEntity
  8
002
 62
     3
100
AcDbLine
 10
226.74671
 20
646.122371
 30
0.0
 11
226.99671
 21
646.372371
 31
0.0
  0
LINE
  5
32
100
AcDbEntity
  8
002
 62
     3
100
AcDbLine
 10
226.99671
 20
646.372371
 30
0.0
 11
226.99671
 21
650.872371
 31
0.0
  0
LINE
  5
33
100
AcDbEntity
  8
002
 62
     3
100
AcDbLine
 10
226.99671
 20
650.872371
 30
0.0
 11
226.74671
 21
651.122371
 31
0.0
  0
ARC
  5
34
100
AcDbEntity
  8
002
 62
     3
100
AcDbCircle
 10
226.79671
 20
646.322371
 30
0.0
 40
0.2
100
AcDbArc
 50
270.0
 51
0.0
  0
ARC
  5
35
100
AcDbEntity
  8
002
 62
     3
100
AcDbCircle
 10
222.19671
 20
646.322371
 30
0.0
 40
0.2
100
AcDbArc
 50
180.0
 51
270.0
  0
ARC
  5
36
100
AcDbEntity
  8
002
 62
     3
100
AcDbCircle
 10
224.49671
 20
641.622371
 30
0.0
 40
7.499936
100
AcDbArc
 50
109.471393
 51
70.528607
  0
LINE
  5
37
100
AcDbEntity
  8
002
  6
CENTER
 62
     9
100
AcDbLine
 10
224.49671
 20
653.434371
 30
0.0
 11
224.49671
 21
631.499371
 31
0.0
  0
LINE
  5
38
100
AcDbEntity
  8
002
  6
CENTER
 62
     9
100
AcDbLine
 10
213.69781
 20
641.622371
 30
0.0
 11
236.23101
 21
641.622371
 31
0.0
  0
LINE
  5
39
100
AcDbEntity
  8
002
 62
     3
100
AcDbLine
 10
491.563492
 20
709.236723
 30
0.0
 11
491.563492
 21
774.236723
 31
0.0
  0
LINE
  5
3A
100
AcDbEntity
  8
002
 62
     3
100
AcDbLine
 10
491.563492
 20
774.236723
 30
0.0
 11
488.563492
 21
777.236723
 31
0.0
  0
LINE
  5
3B
100
AcDbEntity
  8
002
 62
     3
100
AcDbLine
 10
488.563492
 20
777.236723
 30
0.0
 11
454.563492
 21
777.236723
 31
0.0
  0
LINE
  5
3C
100
AcDbEntity
  8
002
 62
     3
100
AcDbLine
 10
454.563492
 20
777.236723
 30
0.0
 11
451.563492
 21
774.236723
 31
0.0
  0
LINE
  5
3D
100
AcDbEntity
  8
002
 62
     3
100
AcDbLine
 10
451.563492
 20
774.236723
 30
0.0
 11
451.563492
 21
709.236723
 31
0.0
  0
LINE
  5
3E
100
AcDbEntity
  8
002
 62
     3
100
AcDbLine
 10
487.175992
 20
737.236723
 30
0.0
 11
487.175992
 21
774.236723
 31
0.0
  0
LINE
  5
3F
100
AcDbEntity
  8
002
 62
     3
100
AcDbLine
 10
487.175992
 20
774.236723
 30
0.0
 11
483.085192
 21
777.236723
 31
0.0
  0
LINE
  5
40
100
AcDbEntity
  8
002
 62
     3
100
AcDbLine
 10
487.175992
 20
774.236723
 30
0.0
 11
491.563492
 21
774.236723
 31
0.0
  0
CIRCLE
  5
41
100
AcDbEntity
  8
002
 62
     3
100
AcDbCircle
 10
471.563492
 20
757.236723
 30
0.0
 40
10.0
  0
LINE
  5
42
100
AcDbEntity
  8
002
 62
     3
100
AcDbLine
 10
455.950992
 20
737.236723
 30
0.0
 11
455.950992
 21
774.236723
 31
0.0
  0
LINE
  5
43
100
AcDbEntity
  8
002
 62
     3
100
AcDbLine
 10
455.950992
 20
774.236723
 30
0.0
 11
451.563492
 21
774.236723
 31
0.0
  0
LINE
  5
44
100
AcDbEntity
  8
002
 62
     3
100
AcDbLine
 10
455.950992
 20
774.236723
 30
0.0
 11
460.041692
 21
777.236723
 31
0.0
  0
LINE
  5
45
100
AcDbEntity
  8
002
  6
CENTER
 62
     9
100
AcDbLine
 10
439.865092
 20
757.236723
 30
0.0
 11
502.122492
 21
757.236723
 31
0.0
  0
ARC
  5
46
100
AcDbEntity
  8
002
 62
     3
100
AcDbCircle
 10
471.563492
 20
864.736723
 30
0.0
 40
16.999987
100
AcDbArc
 50
312.667651
 51
47.332121
  0
LINE
  5
47
100
AcDbEntity
  8
002
 62
     3
100
AcDbLine
 10
487.175992
 20
877.236723
 30
0.0
 11
455.950992
 21
877.236723
 31
0.0
  0
ARC
  5
48
100
AcDbEntity
  8
002
 62
     3
100
AcDbCircle
 10
471.563492
 20
864.736723
 30
0.0
 40
17.000129
100
AcDbArc
 50
132.668127
 51
227.332101
  0
LINE
  5
49
100
AcDbEntity
  8
002
 62
     3
100
AcDbLine
 10
455.950992
 20
852.236623
 30
0.0
 11
487.175992
 21
852.236623
 31
0.0
  0
CIRCLE
  5
4A
100
AcDbEntity
  8
002
 62
     3
100
AcDbCircle
 10
471.563492
 20
864.736723
 30
0.0
 40
20.0
  0
LINE
  5
4B
100
AcDbEntity
  8
002
 62
     3
100
AcDbLine
 10
451.563492
 20
709.236723
 30
0.0
 11
453.563492
 21
707.236723
 31
0.0
  0
LINE
  5
4C
100
AcDbEntity
  8
002
 62
     3
100
AcDbLine
 10
489.563492
 20
707.236723
 30
0.0
 11
491.563492
 21
709.236723
 31
0.0
  0
LINE
  5
4D
100
AcDbEntity
  8
002
 62
     3
100
AcDbLine
 10
491.563492
 20
709.236723
 30
0.0
 11
451.563492
 21
709.236723
 31
0.0
  0
LINE
  5
4E
100
AcDbEntity
  8
002
 62
     3
100
AcDbLine
 10
460.950992
 20
732.236723
 30
0.0
 11
482.175992
 21
732.236723
 31
0.0
  0
ARC
  5
4F
100
AcDbEntity
  8
002
 62
     3
100
AcDbCircle
 10
482.175992
 20
737.236723
 30
0.0
 40
5.0
100
AcDbArc
 50
270.0
 51
0.0
  0
LINE
  5
50
100
AcDbEntity
  8
002
 62
     3
100
AcDbLine
 10
487.175992
 20
737.236723
 30
0.0
 11
455.950992
 21
737.236723
 31
0.0
  0
ARC
  5
51
100
AcDbEntity
  8
002
 62
     3
100
AcDbCircle
 10
460.950992
 20
737.236723
 30
0.0
 40
5.0
100
AcDbArc
 50
180.0
 51
270.0
  0
LINE
  5
52
100
AcDbEntity
  8
002
 62
     3
100
AcDbLine
 10
489.563492
 20
707.236723
 30
0.0
 11
453.563492
 21
707.236723
 31
0.0
  0
LINE
  5
53
100
AcDbEntity
  8
002
  6
HIDDEN
 62
     9
100
AcDbLine
 10
461.563492
 20
877.236723
 30
0.0
 11
461.563492
 21
852.236623
 31
0.0
  0
LINE
  5
54
100
AcDbEntity
  8
002
  6
HIDDEN
 62
     9
100
AcDbLine
 10
481.563492
 20
877.236723
 30
0.0
 11
481.563492
 21
852.236623
 31
0.0
  0
LINE
  5
55
100
AcDbEntity
  8
002
  6
CENTER
 62
     9
100
AcDbLine
 10
471.563492
 20
899.736723
 30
0.0
 11
471.563492
 21
829.736723
 31
0.0
  0
LINE
  5
56
100
AcDbEntity
  8
002
  6
CENTER
 62
     9
100
AcDbLine
 10
680.051992
 20
715.231723
 30
0.0
 11
680.051992
 21
738.521223
 31
0.0
  0
LINE
  5
57
100
AcDbEntity
  8
002
  6
CENTER
 62
     9
100
AcDbLine
 10
756.051992
 20
715.231723
 30
0.0
 11
756.051992
 21
738.521223
 31
0.0
  0
LINE
  5
58
100
AcDbEntity
  8
002
 62
     3
100
AcDbLine
 10
771.051992
 20
721.236723
 30
0.0
 11
772.051992
 21
722.236723
 31
0.0
  0
LINE
  5
59
100
AcDbEntity
  8
002
 62
     3
100
AcDbLine
 10
665.051992
 20
721.236723
 30
0.0
 11
771.051992
 21
721.236723
 31
0.0
  0
LINE
  5
5A
100
AcDbEntity
  8
002
 62
     3
100
AcDbLine
 10
772.051992
 20
722.236723
 30
0.0
 11
772.051992
 21
731.236723
 31
0.0
  0
LINE
  5
5B
100
AcDbEntity
  8
002
 62
     3
100
AcDbLine
 10
772.051992
 20
731.236723
 30
0.0
 11
771.051992
 21
732.236723
 31
0.0
  0
LINE
  5
5C
100
AcDbEntity
  8
002
 62
     3
100
AcDbLine
 10
771.051992
 20
732.236723
 30
0.0
 11
665.051992
 21
732.236723
 31
0.0
  0
LINE
  5
5D
100
AcDbEntity
  8
002
 62
     3
100
AcDbLine
 10
737.051992
 20
708.236723
 30
0.0
 11
737.051992
 21
720.236723
 31
0.0
  0
ARC
  5
5E
100
AcDbEntity
  8
002
 62
     3
100
AcDbCircle
 10
738.051992
 20
720.236723
 30
0.0
 40
1.0
100
AcDbArc
 50
90.0
 51
180.0
  0
LINE
  5
5F
100
AcDbEntity
  8
002
 62
     3
100
AcDbLine
 10
737.051992
 20
708.236723
 30
0.0
 11
736.051992
 21
707.236723
 31
0.0
  0
LINE
  5
60
100
AcDbEntity
  8
002
 62
     3
100
AcDbLine
 10
700.051992
 20
707.236723
 30
0.0
 11
699.051992
 21
708.236723
 31
0.0
  0
LINE
  5
61
100
AcDbEntity
  8
002
 62
     3
100
AcDbLine
 10
699.051992
 20
720.236723
 30
0.0
 11
699.051992
 21
708.236723
 31
0.0
  0
ARC
  5
62
100
AcDbEntity
  8
002
 62
     3
100
AcDbCircle
 10
698.051992
 20
720.236723
 30
0.0
 40
1.0
100
AcDbArc
 50
0.0
 51
90.0
  0
LINE
  5
63
100
AcDbEntity
  8
002
 62
     3
100
AcDbLine
 10
664.051992
 20
722.236723
 30
0.0
 11
665.051992
 21
721.236723
 31
0.0
  0
LINE
  5
64
100
AcDbEntity
  8
002
 62
     3
100
AcDbLine
 10
664.051992
 20
731.236723
 30
0.0
 11
664.051992
 21
722.236723
 31
0.0
  0
LINE
  5
65
100
AcDbEntity
  8
002
 62
     3
100
AcDbLine
 10
665.051992
 20
732.236723
 30
0.0
 11
664.051992
 21
731.236723
 31
0.0
  0
LINE
  5
66
100
AcDbEntity
  8
002
 62
     3
100
AcDbLine
 10
736.051992
 20
707.236723
 30
0.0
 11
700.051992
 21
707.236723
 31
0.0
  0
LINE
  5
67
100
AcDbEntity
  8
002
  6
CENTER
 62
     9
100
AcDbLine
 10
718.051992
 20
803.801076
 30
0.0
 11
718.051992
 21
926.447823
 31
0.0
  0
CIRCLE
  5
68
100
AcDbEntity
  8
002
  6
CENTER
 62
     9
100
AcDbCircle
 10
718.051992
 20
864.736723
 30
0.0
 40
38.0
  0
LINE
  5
69
100
AcDbEntity
  8
002
  6
CENTER
 62
     9
100
AcDbLine
 10
653.919492
 20
864.736723
 30
0.0
 11
779.062992
 21
864.736723
 31
0.0
  0
CIRCLE
  5
6A
100
AcDbEntity
  8
002
 62
     9
100
AcDbCircle
 10
718.051992
 20
864.736723
 30
0.0
 40
9.0
  0
CIRCLE
  5
6B
100
AcDbEntity
  8
002
 62
     3
100
AcDbCircle
 10
718.051992
 20
864.736723
 30
0.0
 40
54.0
  0
CIRCLE
  5
6C
100
AcDbEntity
  8
002
 62
     3
100
AcDbCircle
 10
718.051992
 20
826.736723
 30
0.0
 40
5.5
  0
CIRCLE
  5
6D
100
AcDbEntity
  8
002
 62
     3
100
AcDbCircle
 10
756.051992
 20
864.736723
 30
0.0
 40
5.5
  0
CIRCLE
  5
6E
100
AcDbEntity
  8
002
 62
     3
100
AcDbCircle
 10
718.051992
 20
864.736723
 30
0.0
 40
8.188
  0
CIRCLE
  5
6F
100
AcDbEntity
  8
002
 62
     3
100
AcDbCircle
 10
718.051992
 20
902.736823
 30
0.0
 40
5.5
  0
CIRCLE
  5
70
100
AcDbEntity
  8
002
 62
     3
100
AcDbCircle
 10
680.051992
 20
864.736723
 30
0.0
 40
5.5
  0
LINE
  5
71
100
AcDbEntity
  8
002
  6
CENTER
 62
     9
100
AcDbLine
 10
471.563492
 20
792.236723
 30
0.0
 11
471.563492
 21
673.560191
 31
0.0
  0
LINE
  5
72
100
AcDbEntity
  8
002
  6
HIDDEN
 62
     9
100
AcDbLine
 10
462.560588
 20
707.236723
 30
0.0
 11
462.560588
 21
729.236723
 31
0.0
  0
LINE
  5
73
100
AcDbEntity
  8
002
  6
HIDDEN
 62
     9
100
AcDbLine
 10
480.560588
 20
729.236723
 30
0.0
 11
480.560588
 21
707.236723
 31
0.0
  0
LINE
  5
74
100
AcDbEntity
  8
002
  6
HIDDEN
 62
     9
100
AcDbLine
 10
463.372588
 20
707.236723
 30
0.0
 11
463.372588
 21
729.236723
 31
0.0
  0
LINE
  5
75
100
AcDbEntity
  8
002
  6
HIDDEN
 62
     9
100
AcDbLine
 10
479.748588
 20
729.236723
 30
0.0
 11
479.748588
 21
707.236723
 31
0.0
  0
LINE
  5
76
100
AcDbEntity
  8
007
  6
HIDDEN
 62
     9
100
AcDbLine
 10
480.560588
 20
729.236723
 30
0.0
 11
462.560588
 21
729.236723
 31
0.0
  0
LINE
  5
77
100
AcDbEntity
  8
002
  6
CENTER
 62
     9
100
AcDbLine
 10
445.871737
 20
864.736723
 30
0.0
 11
497.494215
 21
864.736723
 31
0.0
  0
LINE
  5
78
100
AcDbEntity
  8
002
  6
HIDDEN
 62
     9
100
AcDbLine
 10
709.049087
 20
707.236723
 30
0.0
 11
709.049087
 21
729.236723
 31
0.0
  0
LINE
  5
79
100
AcDbEntity
  8
002
  6
HIDDEN
 62
     9
100
AcDbLine
 10
727.049087
 20
729.236723
 30
0.0
 11
727.049087
 21
707.236723
 31
0.0
  0
LINE
  5
7A
100
AcDbEntity
  8
002
  6
HIDDEN
 62
     9
100
AcDbLine
 10
709.861087
 20
707.236723
 30
0.0
 11
709.861087
 21
729.236723
 31
0.0
  0
LINE
  5
7B
100
AcDbEntity
  8
002
  6
HIDDEN
 62
     9
100
AcDbLine
 10
726.237087
 20
729.236723
 30
0.0
 11
726.237087
 21
707.236723
 31
0.0
  0
LINE
  5
7C
100
AcDbEntity
  8
007
  6
HIDDEN
 62
     9
100
AcDbLine
 10
727.049087
 20
729.236723
 30
0.0
 11
709.049087
 21
729.236723
 31
0.0
  0
LINE
  5
7D
100
AcDbEntity
  8
002
  6
CENTER
 62
     9
100
AcDbLine
 10
718.051992
 20
747.236723
 30
0.0
 11
718.051992
 21
673.560191
 31
0.0
  0
LINE
  5
7E
100
AcDbEntity
  8
002
 62
     3
100
AcDbLine
 10
177.15801
 20
376.547309
 30
0.0
 11
182.93151
 21
376.547309
 31
0.0
  0
LINE
  5
7F
100
AcDbEntity
  8
002
 62
     3
100
AcDbLine
 10
182.93151
 20
376.547309
 30
0.0
 11
185.81821
 21
371.547309
 31
0.0
  0
LINE
  5
80
100
AcDbEntity
  8
002
 62
     3
100
AcDbLine
 10
185.81821
 20
371.547309
 30
0.0
 11
182.93151
 21
366.547309
 31
0.0
  0
LINE
  5
81
100
AcDbEntity
  8
002
 62
     3
100
AcDbLine
 10
182.93151
 20
366.547309
 30
0.0
 11
177.15801
 21
366.547309
 31
0.0
  0
LINE
  5
82
100
AcDbEntity
  8
002
 62
     3
100
AcDbLine
 10
177.15801
 20
366.547309
 30
0.0
 11
174.27121
 21
371.547309
 31
0.0
  0
LINE
  5
83
100
AcDbEntity
  8
002
 62
     3
100
AcDbLine
 10
174.27121
 20
371.547309
 30
0.0
 11
177.15801
 21
376.547309
 31
0.0
  0
CIRCLE
  5
84
100
AcDbEntity
  8
002
 62
     3
100
AcDbCircle
 10
180.04471
 20
371.547309
 30
0.0
 40
0.75
  0
CIRCLE
  5
85
100
AcDbEntity
  8
002
 62
     3
100
AcDbCircle
 10
180.04471
 20
371.547309
 30
0.0
 40
2.5
  0
CIRCLE
  5
86
100
AcDbEntity
  8
002
 62
     3
100
AcDbCircle
 10
180.04471
 20
371.547309
 30
0.0
 40
3.25
  0
CIRCLE
  5
87
100
AcDbEntity
  8
002
 62
     3
100
AcDbCircle
 10
180.04471
 20
371.547309
 30
0.0
 40
5.0
  0
LINE
  5
88
100
AcDbEntity
  8
002
 62
     3
100
AcDbLine
 10
142.04471
 20
391.547309
 30
0.0
 11
142.04471
 21
327.340609
 31
0.0
  0
LINE
  5
89
100
AcDbEntity
  8
002
 62
     3
100
AcDbLine
 10
141.94441
 20
333.547309
 30
0.0
 11
141.94441
 21
325.547309
 31
0.0
  0
LINE
  5
8A
100
AcDbEntity
  8
002
 62
     3
100
AcDbLine
 10
141.94441
 20
327.340609
 30
0.0
 11
173.54471
 21
327.340609
 31
0.0
  0
LINE
  5
8B
100
AcDbEntity
  8
002
 62
     3
100
AcDbLine
 10
173.54471
 20
325.547309
 30
0.0
 11
173.54471
 21
333.547309
 31
0.0
  0
LINE
  5
8C
100
AcDbEntity
  8
002
 62
     3
100
AcDbLine
 10
173.54471
 20
333.547309
 30
0.0
 11
186.54471
 21
333.547309
 31
0.0
  0
LINE
  5
8D
100
AcDbEntity
  8
002
 62
     3
100
AcDbLine
 10
186.54471
 20
333.547309
 30
0.0
 11
186.54471
 21
325.547309
 31
0.0
  0
LINE
  5
8E
100
AcDbEntity
  8
002
 62
     3
100
AcDbLine
 10
186.54471
 20
327.340609
 30
0.0
 11
218.14501
 21
327.340609
 31
0.0
  0
LINE
  5
8F
100
AcDbEntity
  8
002
 62
     3
100
AcDbLine
 10
218.14501
 20
325.547309
 30
0.0
 11
218.14501
 21
333.547309
 31
0.0
  0
LINE
  5
90
100
AcDbEntity
  8
002
 62
     3
100
AcDbLine
 10
231.14501
 20
333.547309
 30
0.0
 11
231.14501
 21
325.547309
 31
0.0
  0
LINE
  5
91
100
AcDbEntity
  8
002
 62
     3
100
AcDbLine
 10
231.14501
 20
333.547309
 30
0.0
 11
218.14501
 21
333.547309
 31
0.0
  0
LINE
  5
92
100
AcDbEntity
  8
002
 62
     3
100
AcDbLine
 10
218.04471
 20
327.340609
 30
0.0
 11
218.04471
 21
391.547309
 31
0.0
  0
LINE
  5
93
100
AcDbEntity
  8
002
 62
     3
100
AcDbLine
 10
218.04471
 20
391.547309
 30
0.0
 11
142.04471
 21
391.547309
 31
0.0
  0
LINE
  5
94
100
AcDbEntity
  8
002
 62
     3
100
AcDbLine
 10
128.94441
 20
333.547309
 30
0.0
 11
141.94441
 21
333.547309
 31
0.0
  0
LINE
  5
95
100
AcDbEntity
  8
002
 62
     3
100
AcDbLine
 10
128.94441
 20
333.547309
 30
0.0
 11
128.94441
 21
325.547309
 31
0.0
  0
LINE
  5
96
100
AcDbEntity
  8
002
 62
     3
100
AcDbLine
 10
120.04471
 20
325.547309
 30
0.0
 11
240.04471
 21
325.547309
 31
0.0
  0
LINE
  5
97
100
AcDbEntity
  8
002
 62
     3
100
AcDbLine
 10
240.04471
 20
325.547309
 30
0.0
 11
240.04471
 21
310.547309
 31
0.0
  0
LINE
  5
98
100
AcDbEntity
  8
002
 62
     3
100
AcDbLine
 10
240.04471
 20
315.547309
 30
0.0
 11
120.04471
 21
315.547309
 31
0.0
  0
LINE
  5
99
100
AcDbEntity
  8
002
 62
     3
100
AcDbLine
 10
120.04471
 20
325.547309
 30
0.0
 11
120.04471
 21
301.240109
 31
0.0
  0
ARC
  5
9A
100
AcDbEntity
  8
002
 62
     3
100
AcDbCircle
 10
125.04471
 20
301.240109
 30
0.0
 40
4.999996
100
AcDbArc
 50
180.0
 51
252.897608
  0
LINE
  5
9B
100
AcDbEntity
  8
002
 62
     3
100
AcDbLine
 10
123.57431
 20
296.461209
 30
0.0
 11
130.92701
 21
294.198909
 31
0.0
  0
LINE
  5
9C
100
AcDbEntity
  8
002
 62
     3
100
AcDbLine
 10
133.04471
 20
293.547309
 30
0.0
 11
169.04471
 21
293.547309
 31
0.0
  0
LINE
  5
9D
100
AcDbEntity
  8
002
 62
     3
100
AcDbLine
 10
169.04471
 20
294.470309
 30
0.0
 11
168.93131
 21
294.470309
 31
0.0
  0
ARC
  5
9E
100
AcDbEntity
  8
002
 62
     3
100
AcDbCircle
 10
169.04471
 20
291.470309
 30
0.0
 40
3.0
100
AcDbArc
 50
0.0
 51
90.0
  0
LINE
  5
9F
100
AcDbEntity
  8
002
 62
     3
100
AcDbLine
 10
172.04471
 20
291.470309
 30
0.0
 11
172.04471
 21
280.547309
 31
0.0
  0
ARC
  5
A0
100
AcDbEntity
  8
002
 62
     3
100
AcDbCircle
 10
180.04471
 20
280.547309
 30
0.0
 40
8.0
100
AcDbArc
 50
180.0
 51
0.0
  0
LINE
  5
A1
100
AcDbEntity
  8
002
 62
     3
100
AcDbLine
 10
188.04471
 20
280.547309
 30
0.0
 11
188.04471
 21
291.470309
 31
0.0
  0
LINE
  5
A2
100
AcDbEntity
  8
002
 62
     3
100
AcDbLine
 10
191.04471
 20
293.547309
 30
0.0
 11
194.49671
 21
293.547309
 31
0.0
  0
ARC
  5
A3
100
AcDbEntity
  8
002
 62
     3
100
AcDbCircle
 10
191.04471
 20
290.547309
 30
0.0
 40
3.0
100
AcDbArc
 50
90.0
 51
180.0
  0
LINE
  5
A4
100
AcDbEntity
  8
002
 62
     3
100
AcDbLine
 10
191.04471
 20
294.470309
 30
0.0
 11
191.15811
 21
294.470309
 31
0.0
  0
ARC
  5
A5
100
AcDbEntity
  8
002
 62
     3
100
AcDbCircle
 10
191.04471
 20
291.470309
 30
0.0
 40
3.0
100
AcDbArc
 50
90.0
 51
180.0
  0
LINE
  5
A6
100
AcDbEntity
  8
002
 62
     3
100
AcDbLine
 10
185.04471
 20
283.434009
 30
0.0
 11
185.04471
 21
277.660509
 31
0.0
  0
LINE
  5
A7
100
AcDbEntity
  8
002
 62
     3
100
AcDbLine
 10
185.04471
 20
277.660509
 30
0.0
 11
180.04471
 21
274.773809
 31
0.0
  0
LINE
  5
A8
100
AcDbEntity
  8
002
 62
     3
100
AcDbLine
 10
180.04471
 20
274.773809
 30
0.0
 11
175.04471
 21
277.660509
 31
0.0
  0
LINE
  5
A9
100
AcDbEntity
  8
002
 62
     3
100
AcDbLine
 10
175.04471
 20
277.660509
 30
0.0
 11
175.04471
 21
283.434009
 31
0.0
  0
LINE
  5
AA
100
AcDbEntity
  8
002
 62
     3
100
AcDbLine
 10
175.04471
 20
283.434009
 30
0.0
 11
180.04471
 21
286.320809
 31
0.0
  0
LINE
  5
AB
100
AcDbEntity
  8
002
 62
     3
100
AcDbLine
 10
180.04471
 20
286.320809
 30
0.0
 11
185.04471
 21
283.434009
 31
0.0
  0
CIRCLE
  5
AC
100
AcDbEntity
  8
002
 62
     3
100
AcDbCircle
 10
180.04471
 20
280.547309
 30
0.0
 40
5.0
  0
CIRCLE
  5
AD
100
AcDbEntity
  8
002
 62
     3
100
AcDbCircle
 10
180.04471
 20
280.547309
 30
0.0
 40
3.25
  0
CIRCLE
  5
AE
100
AcDbEntity
  8
002
 62
     3
100
AcDbCircle
 10
180.04471
 20
280.547309
 30
0.0
 40
2.5
  0
CIRCLE
  5
AF
100
AcDbEntity
  8
002
 62
     3
100
AcDbCircle
 10
180.04471
 20
280.547309
 30
0.0
 40
0.75
  0
ARC
  5
B0
100
AcDbEntity
  8
002
 62
     3
100
AcDbCircle
 10
169.04471
 20
290.547309
 30
0.0
 40
3.0
100
AcDbArc
 50
0.0
 51
90.0
  0
LINE
  5
B1
100
AcDbEntity
  8
002
 62
     3
100
AcDbLine
 10
194.49671
 20
297.547309
 30
0.0
 11
123.49671
 21
297.547309
 31
0.0
  0
LINE
  5
B2
100
AcDbEntity
  8
002
 62
     3
100
AcDbLine
 10
125.04471
 20
293.823909
 30
0.0
 11
125.04471
 21
265.547309
 31
0.0
  0
LINE
  5
B3
100
AcDbEntity
  8
002
 62
     3
100
AcDbLine
 10
125.04471
 20
265.547309
 30
0.0
 11
129.33881
 21
264.396709
 31
0.0
  0
ARC
  5
B4
100
AcDbEntity
  8
002
 62
     3
100
AcDbCircle
 10
128.04471
 20
259.567009
 30
0.0
 40
5.00007
100
AcDbArc
 50
0.0
 51
75.000157
  0
LINE
  5
B5
100
AcDbEntity
  8
002
 62
     3
100
AcDbLine
 10
125.04471
 20
270.319809
 30
0.0
 11
117.04471
 21
270.069809
 31
0.0
  0
LINE
  5
B6
100
AcDbEntity
  8
002
 62
     3
100
AcDbLine
 10
117.04471
 20
270.069809
 30
0.0
 11
117.04471
 21
291.024809
 31
0.0
  0
LINE
  5
B7
100
AcDbEntity
  8
002
 62
     3
100
AcDbLine
 10
117.04471
 20
291.024809
 30
0.0
 11
125.04471
 21
290.774809
 31
0.0
  0
ARC
  5
B8
100
AcDbEntity
  8
002
 62
     3
100
AcDbCircle
 10
122.04471
 20
293.823909
 30
0.0
 40
3.000024
100
AcDbArc
 50
0.0
 51
67.97587
  0
LINE
  5
B9
100
AcDbEntity
  8
002
 62
     3
100
AcDbLine
 10
117.04471
 20
287.547309
 30
0.0
 11
107.04471
 21
287.047309
 31
0.0
  0
LINE
  5
BA
100
AcDbEntity
  8
002
 62
     3
100
AcDbLine
 10
107.04471
 20
287.047309
 30
0.0
 11
107.04471
 21
274.047309
 31
0.0
  0
LINE
  5
BB
100
AcDbEntity
  8
002
 62
     3
100
AcDbLine
 10
107.04471
 20
274.047309
 30
0.0
 11
117.04471
 21
273.547309
 31
0.0
  0
LINE
  5
BC
100
AcDbEntity
  8
002
 62
     3
100
AcDbLine
 10
133.04471
 20
291.331509
 30
0.0
 11
133.04471
 21
248.547309
 31
0.0
  0
LINE
  5
BD
100
AcDbEntity
  8
002
 62
     3
100
AcDbLine
 10
121.49671
 20
248.547309
 30
0.0
 11
275.49671
 21
248.547309
 31
0.0
  0
LINE
  5
BE
100
AcDbEntity
  8
002
 62
     3
100
AcDbLine
 10
276.01341
 20
248.502409
 30
0.0
 11
254.18401
 21
307.287809
 31
0.0
  0
LINE
  5
BF
100
AcDbEntity
  8
002
 62
     3
100
AcDbLine
 10
254.49671
 20
305.547309
 30
0.0
 11
254.49671
 21
255.547309
 31
0.0
  0
LINE
  5
C0
100
AcDbEntity
  8
002
 62
     3
100
AcDbLine
 10
251.49671
 20
255.547309
 30
0.0
 11
251.49671
 21
305.547309
 31
0.0
  0
ARC
  5
C1
100
AcDbEntity
  8
002
 62
     3
100
AcDbCircle
 10
246.49671
 20
305.547309
 30
0.0
 40
5.0
100
AcDbArc
 50
0.0
 51
90.0
  0
LINE
  5
C2
100
AcDbEntity
  8
002
 62
     3
100
AcDbLine
 10
246.49671
 20
307.547309
 30
0.0
 11
202.49671
 21
307.547309
 31
0.0
  0
ARC
  5
C3
100
AcDbEntity
  8
002
 62
     3
100
AcDbCircle
 10
202.49671
 20
302.547309
 30
0.0
 40
5.0
100
AcDbArc
 50
90.0
 51
180.0
  0
LINE
  5
C4
100
AcDbEntity
  8
002
 62
     3
100
AcDbLine
 10
197.49671
 20
302.547309
 30
0.0
 11
197.49671
 21
258.547309
 31
0.0
  0
ARC
  5
C5
100
AcDbEntity
  8
002
 62
     3
100
AcDbCircle
 10
202.49671
 20
258.547309
 30
0.0
 40
5.0
100
AcDbArc
 50
180.0
 51
270.0
  0
LINE
  5
C6
100
AcDbEntity
  8
002
 62
     3
100
AcDbLine
 10
202.49671
 20
253.547309
 30
0.0
 11
246.49671
 21
253.547309
 31
0.0
  0
ARC
  5
C7
100
AcDbEntity
  8
002
 62
     3
100
AcDbCircle
 10
246.49671
 20
258.547309
 30
0.0
 40
5.0
100
AcDbArc
 50
270.0
 51
0.0
  0
CIRCLE
  5
C8
100
AcDbEntity
  8
002
 62
     3
100
AcDbCircle
 10
244.29571
 20
260.748309
 30
0.0
 40
4.25
  0
LINE
  5
C9
100
AcDbEntity
  8
002
 62
     3
100
AcDbLine
 10
246.52641
 20
260.150609
 30
0.0
 11
245.92871
 21
262.381309
 31
0.0
  0
LINE
  5
CA
100
AcDbEntity
  8
002
 62
     3
100
AcDbLine
 10
245.92871
 20
262.381309
 30
0.0
 11
243.69801
 21
262.979009
 31
0.0
  0
LINE
  5
CB
100
AcDbEntity
  8
002
 62
     3
100
AcDbLine
 10
243.69801
 20
262.979009
 30
0.0
 11
242.06501
 21
261.346009
 31
0.0
  0
LINE
  5
CC
100
AcDbEntity
  8
002
 62
     3
100
AcDbLine
 10
242.06501
 20
261.346009
 30
0.0
 11
242.66271
 21
259.115309
 31
0.0
  0
LINE
  5
CD
100
AcDbEntity
  8
002
 62
     3
100
AcDbLine
 10
242.66271
 20
259.115309
 30
0.0
 11
244.89341
 21
258.517609
 31
0.0
  0
LINE
  5
CE
100
AcDbEntity
  8
002
 62
     3
100
AcDbLine
 10
244.89341
 20
258.517609
 30
0.0
 11
246.52641
 21
260.150609
 31
0.0
  0
ARC
  5
CF
100
AcDbEntity
  8
002
 62
     3
100
AcDbCircle
 10
246.49671
 20
255.547309
 30
0.0
 40
5.0
100
AcDbArc
 50
270.0
 51
0.0
  0
LINE
  5
D0
100
AcDbEntity
  8
002
 62
     3
100
AcDbLine
 10
249.49671
 20
250.547309
 30
0.0
 11
199.49671
 21
250.547309
 31
0.0
  0
LINE
  5
D1
100
AcDbEntity
  8
002
 62
     3
100
AcDbLine
 10
194.49671
 20
255.547309
 30
0.0
 11
194.49671
 21
305.547309
 31
0.0
  0
LINE
  5
D2
100
AcDbEntity
  8
002
 62
     3
100
AcDbLine
 10
199.49671
 20
310.547309
 30
0.0
 11
249.49671
 21
310.547309
 31
0.0
  0
ARC
  5
D3
100
AcDbEntity
  8
002
 62
     3
100
AcDbCircle
 10
249.49671
 20
305.547309
 30
0.0
 40
5.0
100
AcDbArc
 50
0.0
 51
90.0
  0
ARC
  5
D4
100
AcDbEntity
  8
002
 62
     3
100
AcDbCircle
 10
246.49671
 20
302.547309
 30
0.0
 40
5.0
100
AcDbArc
 50
0.0
 51
90.0
  0
LINE
  5
D5
100
AcDbEntity
  8
002
 62
     3
100
AcDbLine
 10
244.89341
 20
302.577009
 30
0.0
 11
246.52641
 21
300.944009
 31
0.0
  0
LINE
  5
D6
100
AcDbEntity
  8
002
 62
     3
100
AcDbLine
 10
246.52641
 20
300.944009
 30
0.0
 11
245.92871
 21
298.713309
 31
0.0
  0
LINE
  5
D7
100
AcDbEntity
  8
002
 62
     3
100
AcDbLine
 10
245.92871
 20
298.713309
 30
0.0
 11
243.69801
 21
298.115609
 31
0.0
  0
LINE
  5
D8
100
AcDbEntity
  8
002
 62
     3
100
AcDbLine
 10
243.69801
 20
298.115609
 30
0.0
 11
242.06501
 21
299.748509
 31
0.0
  0
LINE
  5
D9
100
AcDbEntity
  8
002
 62
     3
100
AcDbLine
 10
242.06501
 20
299.748509
 30
0.0
 11
242.66271
 21
301.979309
 31
0.0
  0
LINE
  5
DA
100
AcDbEntity
  8
002
 62
     3
100
AcDbLine
 10
242.66271
 20
301.979309
 30
0.0
 11
244.89341
 21
302.577009
 31
0.0
  0
CIRCLE
  5
DB
100
AcDbEntity
  8
002
 62
     3
100
AcDbCircle
 10
244.29571
 20
300.346309
 30
0.0
 40
4.25
  0
LINE
  5
DC
100
AcDbEntity
  8
002
 62
     3
100
AcDbLine
 10
257.84781
 20
297.421409
 30
0.0
 11
258.78521
 21
297.769509
 31
0.0
  0
LINE
  5
DD
100
AcDbEntity
  8
002
 62
     3
100
AcDbLine
 10
258.78521
 20
297.769509
 30
0.0
 11
271.31731
 21
264.021209
 31
0.0
  0
LINE
  5
DE
100
AcDbEntity
  8
002
 62
     3
100
AcDbLine
 10
271.31731
 20
264.021209
 30
0.0
 11
270.37991
 21
263.673109
 31
0.0
  0
LINE
  5
DF
100
AcDbEntity
  8
002
 62
     3
100
AcDbLine
 10
278.49671
 20
245.547309
 30
0.0
 11
278.49671
 21
235.547309
 31
0.0
  0
LINE
  5
E0
100
AcDbEntity
  8
002
 62
     3
100
AcDbLine
 10
278.49671
 20
235.547309
 30
0.0
 11
118.49671
 21
235.547309
 31
0.0
  0
LINE
  5
E1
100
AcDbEntity
  8
002
 62
     3
100
AcDbLine
 10
118.49671
 20
235.547309
 30
0.0
 11
118.49671
 21
245.547309
 31
0.0
  0
ARC
  5
E2
100
AcDbEntity
  8
002
 62
     3
100
AcDbCircle
 10
121.49671
 20
245.547309
 30
0.0
 40
3.0
100
AcDbArc
 50
90.0
 51
180.0
  0
LINE
  5
E3
100
AcDbEntity
  8
002
 62
     3
100
AcDbLine
 10
142.54471
 20
235.547309
 30
0.0
 11
142.54471
 21
231.547309
 31
0.0
  0
LINE
  5
E4
100
AcDbEntity
  8
002
 62
     3
100
AcDbLine
 10
142.54471
 20
231.547309
 30
0.0
 11
217.54471
 21
231.547309
 31
0.0
  0
LINE
  5
E5
100
AcDbEntity
  8
002
 62
     3
100
AcDbLine
 10
217.54471
 20
231.547309
 30
0.0
 11
217.54471
 21
235.547309
 31
0.0
  0
LINE
  5
E6
100
AcDbEntity
  8
002
 62
     3
100
AcDbLine
 10
214.29471
 20
231.547309
 30
0.0
 11
214.29471
 21
226.547309
 31
0.0
  0
LINE
  5
E7
100
AcDbEntity
  8
002
 62
     3
100
AcDbLine
 10
205.79471
 20
226.547309
 30
0.0
 11
205.79471
 21
231.547309
 31
0.0
  0
ARC
  5
E8
100
AcDbEntity
  8
002
 62
     3
100
AcDbCircle
 10
206.92261
 20
228.547309
 30
0.0
 40
2.999933
100
AcDbArc
 50
90.0
 51
178.168092
  0
LINE
  5
E9
100
AcDbEntity
  8
002
 62
     3
100
AcDbLine
 10
203.92421
 20
228.643209
 30
0.0
 11
202.54471
 21
185.547309
 31
0.0
  0
LINE
  5
EA
100
AcDbEntity
  8
002
 62
     3
100
AcDbLine
 10
202.54471
 20
185.547309
 30
0.0
 11
157.54471
 21
185.547309
 31
0.0
  0
LINE
  5
EB
100
AcDbEntity
  8
002
 62
     3
100
AcDbLine
 10
157.54471
 20
185.547309
 30
0.0
 11
156.16531
 21
228.643209
 31
0.0
  0
ARC
  5
EC
100
AcDbEntity
  8
002
 62
     3
100
AcDbCircle
 10
153.16681
 20
228.547309
 30
0.0
 40
3.0
100
AcDbArc
 50
1.831847
 51
90.0
  0
LINE
  5
ED
100
AcDbEntity
  8
002
 62
     3
100
AcDbLine
 10
154.29471
 20
231.547309
 30
0.0
 11
154.29471
 21
226.547309
 31
0.0
  0
LINE
  5
EE
100
AcDbEntity
  8
002
 62
     3
100
AcDbLine
 10
154.29471
 20
226.547309
 30
0.0
 11
145.79471
 21
226.547309
 31
0.0
  0
LINE
  5
EF
100
AcDbEntity
  8
002
 62
     3
100
AcDbLine
 10
145.79471
 20
226.547309
 30
0.0
 11
145.79471
 21
231.547309
 31
0.0
  0
LINE
  5
F0
100
AcDbEntity
  8
002
 62
     3
100
AcDbLine
 10
175.79471
 20
231.547309
 30
0.0
 11
175.79471
 21
226.547309
 31
0.0
  0
LINE
  5
F1
100
AcDbEntity
  8
002
 62
     3
100
AcDbLine
 10
184.29471
 20
226.547309
 30
0.0
 11
175.79471
 21
226.547309
 31
0.0
  0
LINE
  5
F2
100
AcDbEntity
  8
002
 62
     3
100
AcDbLine
 10
184.29471
 20
226.547309
 30
0.0
 11
184.29471
 21
231.547309
 31
0.0
  0
LINE
  5
F3
100
AcDbEntity
  8
002
 62
     3
100
AcDbLine
 10
205.79471
 20
226.547309
 30
0.0
 11
214.29471
 21
226.547309
 31
0.0
  0
LINE
  5
F4
100
AcDbEntity
  8
002
 62
     3
100
AcDbLine
 10
206.33071
 20
259.115309
 30
0.0
 11
206.92841
 21
261.346009
 31
0.0
  0
LINE
  5
F5
100
AcDbEntity
  8
002
 62
     3
100
AcDbLine
 10
206.92841
 20
261.346009
 30
0.0
 11
205.29541
 21
262.979009
 31
0.0
  0
LINE
  5
F6
100
AcDbEntity
  8
002
 62
     3
100
AcDbLine
 10
205.29541
 20
262.979009
 30
0.0
 11
203.06471
 21
262.381309
 31
0.0
  0
LINE
  5
F7
100
AcDbEntity
  8
002
 62
     3
100
AcDbLine
 10
203.06471
 20
262.381309
 30
0.0
 11
202.46701
 21
260.150609
 31
0.0
  0
LINE
  5
F8
100
AcDbEntity
  8
002
 62
     3
100
AcDbLine
 10
202.46701
 20
260.150609
 30
0.0
 11
204.10001
 21
258.517609
 31
0.0
  0
LINE
  5
F9
100
AcDbEntity
  8
002
 62
     3
100
AcDbLine
 10
204.10001
 20
258.517609
 30
0.0
 11
206.33071
 21
259.115309
 31
0.0
  0
CIRCLE
  5
FA
100
AcDbEntity
  8
002
 62
     3
100
AcDbCircle
 10
204.69771
 20
260.748309
 30
0.0
 40
4.25
  0
ARC
  5
FB
100
AcDbEntity
  8
002
 62
     3
100
AcDbCircle
 10
199.49671
 20
255.547309
 30
0.0
 40
5.0
100
AcDbArc
 50
180.0
 51
270.0
  0
LINE
  5
FC
100
AcDbEntity
  8
002
 62
     3
100
AcDbLine
 10
222.39671
 20
285.047309
 30
0.0
 11
226.59671
 21
285.047309
 31
0.0
  0
LINE
  5
FD
100
AcDbEntity
  8
002
 62
     3
100
AcDbLine
 10
226.59671
 20
285.047309
 30
0.0
 11
226.99671
 21
285.447309
 31
0.0
  0
LINE
  5
FE
100
AcDbEntity
  8
002
 62
     3
100
AcDbLine
 10
226.99671
 20
285.447309
 30
0.0
 11
226.99671
 21
289.647309
 31
0.0
  0
LINE
  5
FF
100
AcDbEntity
  8
002
 62
     3
100
AcDbLine
 10
226.99671
 20
289.647309
 30
0.0
 11
226.59671
 21
290.047309
 31
0.0
  0
LINE
  5
100
100
AcDbEntity
  8
002
 62
     3
100
AcDbLine
 10
226.59671
 20
290.047309
 30
0.0
 11
222.39671
 21
290.047309
 31
0.0
  0
LINE
  5
101
100
AcDbEntity
  8
002
 62
     3
100
AcDbLine
 10
222.39671
 20
290.047309
 30
0.0
 11
221.99671
 21
289.647309
 31
0.0
  0
LINE
  5
102
100
AcDbEntity
  8
002
 62
     3
100
AcDbLine
 10
221.99671
 20
289.647309
 30
0.0
 11
221.99671
 21
285.447309
 31
0.0
  0
LINE
  5
103
100
AcDbEntity
  8
002
 62
     3
100
AcDbLine
 10
221.99671
 20
285.447309
 30
0.0
 11
222.39671
 21
285.047309
 31
0.0
  0
ARC
  5
104
100
AcDbEntity
  8
002
 62
     3
100
AcDbCircle
 10
222.39671
 20
285.447309
 30
0.0
 40
0.4
100
AcDbArc
 50
180.0
 51
270.0
  0
ARC
  5
105
100
AcDbEntity
  8
002
 62
     3
100
AcDbCircle
 10
224.49671
 20
280.547309
 30
0.0
 40
7.499936
100
AcDbArc
 50
109.471393
 51
70.528607
  0
ARC
  5
106
100
AcDbEntity
  8
002
 62
     3
100
AcDbCircle
 10
226.59671
 20
285.447309
 30
0.0
 40
0.4
100
AcDbArc
 50
270.0
 51
0.0
  0
ARC
  5
107
100
AcDbEntity
  8
002
 62
     3
100
AcDbCircle
 10
224.49671
 20
280.547309
 30
0.0
 40
7.99996
100
AcDbArc
 50
108.210051
 51
71.789949
  0
CIRCLE
  5
108
100
AcDbEntity
  8
002
 62
     3
100
AcDbCircle
 10
224.49671
 20
280.547309
 30
0.0
 40
13.0
  0
CIRCLE
  5
109
100
AcDbEntity
  8
002
 62
     3
100
AcDbCircle
 10
224.49671
 20
280.547309
 30
0.0
 40
21.0
  0
ARC
  5
10A
100
AcDbEntity
  8
002
 62
     3
100
AcDbCircle
 10
249.49671
 20
255.547309
 30
0.0
 40
5.0
100
AcDbArc
 50
270.0
 51
0.0
  0
ARC
  5
10B
100
AcDbEntity
  8
002
 62
     3
100
AcDbCircle
 10
275.49671
 20
245.547309
 30
0.0
 40
3.0
100
AcDbArc
 50
0.0
 51
90.0
  0
CIRCLE
  5
10C
100
AcDbEntity
  8
002
 62
     3
100
AcDbCircle
 10
204.69771
 20
300.346309
 30
0.0
 40
4.25
  0
LINE
  5
10D
100
AcDbEntity
  8
002
 62
     3
100
AcDbLine
 10
206.92841
 20
299.748509
 30
0.0
 11
206.33071
 21
301.979309
 31
0.0
  0
LINE
  5
10E
100
AcDbEntity
  8
002
 62
     3
100
AcDbLine
 10
206.33071
 20
301.979309
 30
0.0
 11
204.10001
 21
302.577009
 31
0.0
  0
LINE
  5
10F
100
AcDbEntity
  8
002
 62
     3
100
AcDbLine
 10
204.10001
 20
302.577009
 30
0.0
 11
202.46701
 21
300.944009
 31
0.0
  0
LINE
  5
110
100
AcDbEntity
  8
002
 62
     3
100
AcDbLine
 10
202.46701
 20
300.944009
 30
0.0
 11
203.06471
 21
298.713309
 31
0.0
  0
LINE
  5
111
100
AcDbEntity
  8
002
 62
     3
100
AcDbLine
 10
203.06471
 20
298.713309
 30
0.0
 11
205.29541
 21
298.115609
 31
0.0
  0
LINE
  5
112
100
AcDbEntity
  8
002
 62
     3
100
AcDbLine
 10
205.29541
 20
298.115609
 30
0.0
 11
206.92841
 21
299.748509
 31
0.0
  0
ARC
  5
113
100
AcDbEntity
  8
002
 62
     3
100
AcDbCircle
 10
199.49671
 20
305.547309
 30
0.0
 40
5.0
100
AcDbArc
 50
90.0
 51
180.0
  0
ARC
  5
114
100
AcDbEntity
  8
002
 62
     3
100
AcDbCircle
 10
130.04471
 20
291.331509
 30
0.0
 40
3.000073
100
AcDbArc
 50
0.0
 51
72.89685
  0
LINE
  5
115
100
AcDbEntity
  8
002
  6
CENTER
 62
     9
100
AcDbLine
 10
180.04471
 20
535.52299
 30
0.0
 11
180.04471
 21
73.16537
 31
0.0
  0
LINE
  5
116
100
AcDbEntity
  8
002
  6
CENTER
 62
     9
100
AcDbLine
 10
171.64441
 20
371.547309
 30
0.0
 11
188.81781
 21
371.547309
 31
0.0
  0
LINE
  5
117
100
AcDbEntity
  8
002
  6
CENTER
 62
     9
100
AcDbLine
 10
135.44441
 20
309.158709
 30
0.0
 11
135.44441
 21
335.558709
 31
0.0
  0
LINE
  5
118
100
AcDbEntity
  8
002
  6
CENTER
 62
     9
100
AcDbLine
 10
224.64501
 20
335.558709
 30
0.0
 11
224.64501
 21
315.547309
 31
0.0
  0
CIRCLE
  5
119
100
AcDbEntity
  8
002
  6
CENTER
 62
     9
100
AcDbCircle
 10
224.49671
 20
280.547309
 30
0.0
 40
28.0
  0
LINE
  5
11A
100
AcDbEntity
  8
002
  6
CENTER
 62
     9
100
AcDbLine
 10
201.35171
 20
257.402309
 30
0.0
 11
208.13161
 21
264.182209
 31
0.0
  0
LINE
  5
11B
100
AcDbEntity
  8
002
  6
CENTER
 62
     9
100
AcDbLine
 10
261.93721
 20
280.547309
 30
0.0
 11
104.08571
 21
280.547309
 31
0.0
  0
LINE
  5
11C
100
AcDbEntity
  8
002
  6
CENTER
 62
     9
100
AcDbLine
 10
224.49671
 20
312.296109
 30
0.0
 11
224.49671
 21
243.605009
 31
0.0
  0
LINE
  5
11D
100
AcDbEntity
  8
002
  6
CENTER
 62
     9
100
AcDbLine
 10
208.13161
 20
296.912409
 30
0.0
 11
201.35171
 21
303.692309
 31
0.0
  0
LINE
  5
11E
100
AcDbEntity
  8
002
  6
CENTER
 62
     9
100
AcDbLine
 10
240.86181
 20
296.912409
 30
0.0
 11
247.64171
 21
303.692309
 31
0.0
  0
LINE
  5
11F
100
AcDbEntity
  8
002
  6
CENTER
 62
     9
100
AcDbLine
 10
247.64171
 20
257.402309
 30
0.0
 11
240.86181
 21
264.182209
 31
0.0
  0
LINE
  5
120
100
AcDbEntity
  8
002
  6
CENTER
 62
     9
100
AcDbLine
 10
264.49671
 20
228.146809
 30
0.0
 11
264.49671
 21
256.075509
 31
0.0
  0
LINE
  5
121
100
AcDbEntity
  8
002
 62
     9
100
AcDbLine
 10
117.04471
 20
271.231809
 30
0.0
 11
125.04471
 21
271.481809
 31
0.0
  0
LINE
  5
122
100
AcDbEntity
  8
002
 62
     9
100
AcDbLine
 10
117.04471
 20
289.862809
 30
0.0
 11
125.04471
 21
289.612809
 31
0.0
  0
LINE
  5
123
100
AcDbEntity
  8
002
 62
     9
100
AcDbLine
 10
107.04471
 20
287.047309
 30
0.0
 11
117.04471
 21
273.547309
 31
0.0
  0
LINE
  5
124
100
AcDbEntity
  8
002
 62
     9
100
AcDbLine
 10
107.04471
 20
274.047309
 30
0.0
 11
117.04471
 21
287.547309
 31
0.0
  0
LINE
  5
125
100
AcDbEntity
  8
002
  6
CENTER
 62
     9
100
AcDbLine
 10
132.49671
 20
256.075509
 30
0.0
 11
132.49671
 21
228.146809
 31
0.0
  0
LINE
  5
126
100
AcDbEntity
  8
002
  6
CENTER
 62
     9
100
AcDbLine
 10
150.04471
 20
237.672109
 30
0.0
 11
150.04471
 21
225.393209
 31
0.0
  0
LINE
  5
127
100
AcDbEntity
  8
002
  6
CENTER
 62
     9
100
AcDbLine
 10
210.04471
 20
237.672109
 30
0.0
 11
210.04471
 21
225.393209
 31
0.0
  0
LINE
  5
128
100
AcDbEntity
  8
002
  6
HIDDEN
 62
     9
100
AcDbLine
 10
258.99671
 20
248.547309
 30
0.0
 11
258.99671
 21
235.547309
 31
0.0
  0
LINE
  5
129
100
AcDbEntity
  8
002
  6
HIDDEN
 62
     9
100
AcDbLine
 10
269.99671
 20
248.547309
 30
0.0
 11
269.99671
 21
235.547309
 31
0.0
  0
LINE
  5
12A
100
AcDbEntity
  8
002
  6
HIDDEN
 62
     9
100
AcDbLine
 10
126.99671
 20
235.547309
 30
0.0
 11
126.99671
 21
248.547309
 31
0.0
  0
LINE
  5
12B
100
AcDbEntity
  8
002
  6
HIDDEN
 62
     9
100
AcDbLine
 10
137.99671
 20
248.547309
 30
0.0
 11
137.99671
 21
235.547309
 31
0.0
  0
LINE
  5
12C
100
AcDbEntity
  8
002
 62
     3
100
AcDbLine
 10
189.04401
 20
530.547309
 30
0.0
 11
171.04401
 21
530.547309
 31
0.0
  0
LINE
  5
12D
100
AcDbEntity
  8
002
 62
     3
100
AcDbLine
 10
171.04401
 20
530.547309
 30
0.0
 11
171.04401
 21
511.547309
 31
0.0
  0
LINE
  5
12E
100
AcDbEntity
  8
002
 62
     3
100
AcDbLine
 10
171.04401
 20
511.547309
 30
0.0
 11
189.04401
 21
511.547309
 31
0.0
  0
LINE
  5
12F
100
AcDbEntity
  8
002
 62
     3
100
AcDbLine
 10
189.04401
 20
511.547309
 30
0.0
 11
189.04401
 21
530.547309
 31
0.0
  0
LINE
  5
130
100
AcDbEntity
  8
002
 62
     3
100
AcDbLine
 10
187.89401
 20
511.547309
 30
0.0
 11
187.89401
 21
508.547309
 31
0.0
  0
LINE
  5
131
100
AcDbEntity
  8
002
 62
     3
100
AcDbLine
 10
192.54471
 20
508.547309
 30
0.0
 11
167.54471
 21
508.547309
 31
0.0
  0
LINE
  5
132
100
AcDbEntity
  8
002
 62
     3
100
AcDbLine
 10
167.54471
 20
508.547309
 30
0.0
 11
167.54471
 21
391.547309
 31
0.0
  0
LINE
  5
133
100
AcDbEntity
  8
002
 62
     3
100
AcDbLine
 10
192.54471
 20
391.547309
 30
0.0
 11
192.54471
 21
508.547309
 31
0.0
  0
LINE
  5
134
100
AcDbEntity
  8
002
 62
     3
100
AcDbLine
 10
172.19401
 20
508.547309
 30
0.0
 11
172.19401
 21
511.547309
 31
0.0
  0
LINE
  5
135
100
AcDbEntity
  8
002
 62
     9
100
AcDbLine
 10
169.34061
 20
508.547309
 30
0.0
 11
169.34061
 21
391.547309
 31
0.0
  0
LINE
  5
136
100
AcDbEntity
  8
002
 62
     9
100
AcDbLine
 10
190.74861
 20
391.547309
 30
0.0
 11
190.74861
 21
508.547309
 31
0.0
  0
LINE
  5
137
100
AcDbEntity
  8
002
 62
     9
100
AcDbLine
 10
172.09401
 20
530.547309
 30
0.0
 11
172.09401
 21
511.547309
 31
0.0
  0
LINE
  5
138
100
AcDbEntity
  8
002
 62
     9
100
AcDbLine
 10
187.99401
 20
511.547309
 30
0.0
 11
187.99401
 21
530.547309
 31
0.0
  0
LINE
  5
139
100
AcDbEntity
  8
002
 62
     3
100
AcDbLine
 10
161.04471
 20
185.547309
 30
0.0
 11
161.04471
 21
100.547309
 31
0.0
  0
LINE
  5
13A
100
AcDbEntity
  8
002
 62
     3
100
AcDbLine
 10
158.04471
 20
100.547309
 30
0.0
 11
158.04471
 21
83.547309
 31
0.0
  0
ARC
  5
13B
100
AcDbEntity
  8
002
 62
     3
100
AcDbCircle
 10
161.04471
 20
83.547309
 30
0.0
 40
3.0
100
AcDbArc
 50
180.0
 51
270.0
  0
LINE
  5
13C
100
AcDbEntity
  8
002
 62
     3
100
AcDbLine
 10
161.04471
 20
80.547309
 30
0.0
 11
199.04471
 21
80.547309
 31
0.0
  0
ARC
  5
13D
100
AcDbEntity
  8
002
 62
     3
100
AcDbCircle
 10
199.04471
 20
83.547309
 30
0.0
 40
3.0
100
AcDbArc
 50
270.0
 51
0.0
  0
LINE
  5
13E
100
AcDbEntity
  8
002
 62
     3
100
AcDbLine
 10
202.04471
 20
83.547309
 30
0.0
 11
202.04471
 21
100.547309
 31
0.0
  0
LINE
  5
13F
100
AcDbEntity
  8
002
 62
     3
100
AcDbLine
 10
202.04471
 20
100.547309
 30
0.0
 11
158.04471
 21
100.547309
 31
0.0
  0
LINE
  5
140
100
AcDbEntity
  8
002
 62
     3
100
AcDbLine
 10
199.04471
 20
100.547309
 30
0.0
 11
199.04471
 21
185.547309
 31
0.0
  0
LINE
  5
141
100
AcDbEntity
  8
002
 62
     3
100
AcDbLine
 10
145.49671
 20
248.547309
 30
0.0
 11
145.49671
 21
235.547309
 31
0.0
  0
LINE
  5
142
100
AcDbEntity
  8
002
 62
     3
100
AcDbLine
 10
251.49671
 20
235.547309
 30
0.0
 11
251.49671
 21
248.547309
 31
0.0
  0
LINE
  5
143
100
AcDbEntity
  8
002
 62
     3
100
AcDbLine
 10
689.995569
 20
376.547309
 30
0.0
 11
695.769069
 21
376.547309
 31
0.0
  0
LINE
  5
144
100
AcDbEntity
  8
002
 62
     3
100
AcDbLine
 10
695.769069
 20
376.547309
 30
0.0
 11
698.655769
 21
371.547309
 31
0.0
  0
LINE
  5
145
100
AcDbEntity
  8
002
 62
     3
100
AcDbLine
 10
698.655769
 20
371.547309
 30
0.0
 11
695.769069
 21
366.547309
 31
0.0
  0
LINE
  5
146
100
AcDbEntity
  8
002
 62
     3
100
AcDbLine
 10
695.769069
 20
366.547309
 30
0.0
 11
689.995569
 21
366.547309
 31
0.0
  0
LINE
  5
147
100
AcDbEntity
  8
002
 62
     3
100
AcDbLine
 10
689.995569
 20
366.547309
 30
0.0
 11
687.108769
 21
371.547309
 31
0.0
  0
LINE
  5
148
100
AcDbEntity
  8
002
 62
     3
100
AcDbLine
 10
687.108769
 20
371.547309
 30
0.0
 11
689.995569
 21
376.547309
 31
0.0
  0
CIRCLE
  5
149
100
AcDbEntity
  8
002
 62
     3
100
AcDbCircle
 10
692.882269
 20
371.547309
 30
0.0
 40
0.75
  0
CIRCLE
  5
14A
100
AcDbEntity
  8
002
 62
     3
100
AcDbCircle
 10
692.882269
 20
371.547309
 30
0.0
 40
2.5
  0
CIRCLE
  5
14B
100
AcDbEntity
  8
002
 62
     3
100
AcDbCircle
 10
692.882269
 20
371.547309
 30
0.0
 40
3.25
  0
CIRCLE
  5
14C
100
AcDbEntity
  8
002
 62
     3
100
AcDbCircle
 10
692.882269
 20
371.547309
 30
0.0
 40
5.0
  0
LINE
  5
14D
100
AcDbEntity
  8
002
 62
     3
100
AcDbLine
 10
654.882269
 20
391.547309
 30
0.0
 11
654.882269
 21
327.340609
 31
0.0
  0
LINE
  5
14E
100
AcDbEntity
  8
002
 62
     3
100
AcDbLine
 10
654.781969
 20
333.547309
 30
0.0
 11
654.781969
 21
325.547309
 31
0.0
  0
LINE
  5
14F
100
AcDbEntity
  8
002
 62
     3
100
AcDbLine
 10
654.781969
 20
327.340609
 30
0.0
 11
686.382269
 21
327.340609
 31
0.0
  0
LINE
  5
150
100
AcDbEntity
  8
002
 62
     3
100
AcDbLine
 10
686.382269
 20
325.547309
 30
0.0
 11
686.382269
 21
333.547309
 31
0.0
  0
LINE
  5
151
100
AcDbEntity
  8
002
 62
     3
100
AcDbLine
 10
686.382269
 20
333.547309
 30
0.0
 11
699.382269
 21
333.547309
 31
0.0
  0
LINE
  5
152
100
AcDbEntity
  8
002
 62
     3
100
AcDbLine
 10
699.382269
 20
333.547309
 30
0.0
 11
699.382269
 21
325.547309
 31
0.0
  0
LINE
  5
153
100
AcDbEntity
  8
002
 62
     3
100
AcDbLine
 10
699.382269
 20
327.340609
 30
0.0
 11
730.982569
 21
327.340609
 31
0.0
  0
LINE
  5
154
100
AcDbEntity
  8
002
 62
     3
100
AcDbLine
 10
730.982569
 20
325.547309
 30
0.0
 11
730.982569
 21
333.547309
 31
0.0
  0
LINE
  5
155
100
AcDbEntity
  8
002
 62
     3
100
AcDbLine
 10
743.982569
 20
333.547309
 30
0.0
 11
743.982569
 21
325.547309
 31
0.0
  0
LINE
  5
156
100
AcDbEntity
  8
002
 62
     3
100
AcDbLine
 10
743.982569
 20
333.547309
 30
0.0
 11
730.982569
 21
333.547309
 31
0.0
  0
LINE
  5
157
100
AcDbEntity
  8
002
 62
     3
100
AcDbLine
 10
730.882269
 20
327.340609
 30
0.0
 11
730.882269
 21
391.547309
 31
0.0
  0
LINE
  5
158
100
AcDbEntity
  8
002
 62
     3
100
AcDbLine
 10
730.882269
 20
391.547309
 30
0.0
 11
654.882269
 21
391.547309
 31
0.0
  0
LINE
  5
159
100
AcDbEntity
  8
002
 62
     3
100
AcDbLine
 10
641.781969
 20
333.547309
 30
0.0
 11
654.781969
 21
333.547309
 31
0.0
  0
LINE
  5
15A
100
AcDbEntity
  8
002
 62
     3
100
AcDbLine
 10
641.781969
 20
333.547309
 30
0.0
 11
641.781969
 21
325.547309
 31
0.0
  0
LINE
  5
15B
100
AcDbEntity
  8
002
 62
     3
100
AcDbLine
 10
632.882269
 20
325.547309
 30
0.0
 11
752.882269
 21
325.547309
 31
0.0
  0
LINE
  5
15C
100
AcDbEntity
  8
002
 62
     3
100
AcDbLine
 10
752.882269
 20
325.547309
 30
0.0
 11
752.882269
 21
310.547309
 31
0.0
  0
LINE
  5
15D
100
AcDbEntity
  8
002
 62
     3
100
AcDbLine
 10
752.882269
 20
315.547309
 30
0.0
 11
632.882269
 21
315.547309
 31
0.0
  0
LINE
  5
15E
100
AcDbEntity
  8
002
 62
     3
100
AcDbLine
 10
632.882269
 20
325.547309
 30
0.0
 11
632.882269
 21
301.240109
 31
0.0
  0
ARC
  5
15F
100
AcDbEntity
  8
002
 62
     3
100
AcDbCircle
 10
637.882269
 20
301.240109
 30
0.0
 40
4.999996
100
AcDbArc
 50
180.0
 51
252.897608
  0
LINE
  5
160
100
AcDbEntity
  8
002
 62
     3
100
AcDbLine
 10
636.411869
 20
296.461209
 30
0.0
 11
643.764569
 21
294.198909
 31
0.0
  0
LINE
  5
161
100
AcDbEntity
  8
002
 62
     3
100
AcDbLine
 10
645.882269
 20
293.547309
 30
0.0
 11
681.882269
 21
293.547309
 31
0.0
  0
LINE
  5
162
100
AcDbEntity
  8
002
 62
     3
100
AcDbLine
 10
681.882269
 20
294.470309
 30
0.0
 11
681.768869
 21
294.470309
 31
0.0
  0
ARC
  5
163
100
AcDbEntity
  8
002
 62
     3
100
AcDbCircle
 10
681.882269
 20
291.470309
 30
0.0
 40
3.0
100
AcDbArc
 50
0.0
 51
90.0
  0
LINE
  5
164
100
AcDbEntity
  8
002
 62
     3
100
AcDbLine
 10
684.882269
 20
291.470309
 30
0.0
 11
684.882269
 21
280.547309
 31
0.0
  0
ARC
  5
165
100
AcDbEntity
  8
002
 62
     3
100
AcDbCircle
 10
692.882269
 20
280.547309
 30
0.0
 40
8.0
100
AcDbArc
 50
180.0
 51
0.0
  0
LINE
  5
166
100
AcDbEntity
  8
002
 62
     3
100
AcDbLine
 10
700.882269
 20
280.547309
 30
0.0
 11
700.882269
 21
291.470309
 31
0.0
  0
LINE
  5
167
100
AcDbEntity
  8
002
 62
     3
100
AcDbLine
 10
703.882269
 20
293.547309
 30
0.0
 11
707.334269
 21
293.547309
 31
0.0
  0
ARC
  5
168
100
AcDbEntity
  8
002
 62
     3
100
AcDbCircle
 10
703.882269
 20
290.547309
 30
0.0
 40
3.0
100
AcDbArc
 50
90.0
 51
180.0
  0
LINE
  5
169
100
AcDbEntity
  8
002
 62
     3
100
AcDbLine
 10
703.882269
 20
294.470309
 30
0.0
 11
703.995669
 21
294.470309
 31
0.0
  0
ARC
  5
16A
100
AcDbEntity
  8
002
 62
     3
100
AcDbCircle
 10
703.882269
 20
291.470309
 30
0.0
 40
3.0
100
AcDbArc
 50
90.0
 51
180.0
  0
LINE
  5
16B
100
AcDbEntity
  8
002
 62
     3
100
AcDbLine
 10
697.882269
 20
283.434009
 30
0.0
 11
697.882269
 21
277.660509
 31
0.0
  0
LINE
  5
16C
100
AcDbEntity
  8
002
 62
     3
100
AcDbLine
 10
697.882269
 20
277.660509
 30
0.0
 11
692.882269
 21
274.773809
 31
0.0
  0
LINE
  5
16D
100
AcDbEntity
  8
002
 62
     3
100
AcDbLine
 10
692.882269
 20
274.773809
 30
0.0
 11
687.882269
 21
277.660509
 31
0.0
  0
LINE
  5
16E
100
AcDbEntity
  8
002
 62
     3
100
AcDbLine
 10
687.882269
 20
277.660509
 30
0.0
 11
687.882269
 21
283.434009
 31
0.0
  0
LINE
  5
16F
100
AcDbEntity
  8
002
 62
     3
100
AcDbLine
 10
687.882269
 20
283.434009
 30
0.0
 11
692.882269
 21
286.320809
 31
0.0
  0
LINE
  5
170
100
AcDbEntity
  8
002
 62
     3
100
AcDbLine
 10
692.882269
 20
286.320809
 30
0.0
 11
697.882269
 21
283.434009
 31
0.0
  0
CIRCLE
  5
171
100
AcDbEntity
  8
002
 62
     3
100
AcDbCircle
 10
692.882269
 20
280.547309
 30
0.0
 40
5.0
  0
CIRCLE
  5
172
100
AcDbEntity
  8
002
 62
     3
100
AcDbCircle
 10
692.882269
 20
280.547309
 30
0.0
 40
3.25
  0
CIRCLE
  5
173
100
AcDbEntity
  8
002
 62
     3
100
AcDbCircle
 10
692.882269
 20
280.547309
 30
0.0
 40
2.5
  0
CIRCLE
  5
174
100
AcDbEntity
  8
002
 62
     3
100
AcDbCircle
 10
692.882269
 20
280.547309
 30
0.0
 40
0.75
  0
ARC
  5
175
100
AcDbEntity
  8
002
 62
     3
100
AcDbCircle
 10
681.882269
 20
290.547309
 30
0.0
 40
3.0
100
AcDbArc
 50
0.0
 51
90.0
  0
LINE
  5
176
100
AcDbEntity
  8
002
 62
     3
100
AcDbLine
 10
707.334269
 20
297.547309
 30
0.0
 11
636.334269
 21
297.547309
 31
0.0
  0
LINE
  5
177
100
AcDbEntity
  8
002
 62
     3
100
AcDbLine
 10
637.882269
 20
293.823909
 30
0.0
 11
637.882269
 21
265.547309
 31
0.0
  0
LINE
  5
178
100
AcDbEntity
  8
002
 62
     3
100
AcDbLine
 10
637.882269
 20
265.547309
 30
0.0
 11
642.176369
 21
264.396709
 31
0.0
  0
ARC
  5
179
100
AcDbEntity
  8
002
 62
     3
100
AcDbCircle
 10
640.882269
 20
259.567009
 30
0.0
 40
5.00007
100
AcDbArc
 50
0.0
 51
75.000157
  0
LINE
  5
17A
100
AcDbEntity
  8
002
 62
     3
100
AcDbLine
 10
637.882269
 20
270.319809
 30
0.0
 11
629.882269
 21
270.069809
 31
0.0
  0
LINE
  5
17B
100
AcDbEntity
  8
002
 62
     3
100
AcDbLine
 10
629.882269
 20
270.069809
 30
0.0
 11
629.882269
 21
291.024809
 31
0.0
  0
LINE
  5
17C
100
AcDbEntity
  8
002
 62
     3
100
AcDbLine
 10
629.882269
 20
291.024809
 30
0.0
 11
637.882269
 21
290.774809
 31
0.0
  0
ARC
  5
17D
100
AcDbEntity
  8
002
 62
     3
100
AcDbCircle
 10
634.882269
 20
293.823909
 30
0.0
 40
3.000024
100
AcDbArc
 50
0.0
 51
67.97587
  0
LINE
  5
17E
100
AcDbEntity
  8
002
 62
     3
100
AcDbLine
 10
629.882269
 20
287.547309
 30
0.0
 11
619.882269
 21
287.047309
 31
0.0
  0
LINE
  5
17F
100
AcDbEntity
  8
002
 62
     3
100
AcDbLine
 10
619.882269
 20
287.047309
 30
0.0
 11
619.882269
 21
274.047309
 31
0.0
  0
LINE
  5
180
100
AcDbEntity
  8
002
 62
     3
100
AcDbLine
 10
619.882269
 20
274.047309
 30
0.0
 11
629.882269
 21
273.547309
 31
0.0
  0
LINE
  5
181
100
AcDbEntity
  8
002
 62
     3
100
AcDbLine
 10
645.882269
 20
291.331509
 30
0.0
 11
645.882269
 21
248.547309
 31
0.0
  0
LINE
  5
182
100
AcDbEntity
  8
002
 62
     3
100
AcDbLine
 10
634.334269
 20
248.547309
 30
0.0
 11
788.334269
 21
248.547309
 31
0.0
  0
LINE
  5
183
100
AcDbEntity
  8
002
 62
     3
100
AcDbLine
 10
788.850969
 20
248.502409
 30
0.0
 11
767.021569
 21
307.287809
 31
0.0
  0
LINE
  5
184
100
AcDbEntity
  8
002
 62
     3
100
AcDbLine
 10
767.334269
 20
305.547309
 30
0.0
 11
767.334269
 21
255.547309
 31
0.0
  0
LINE
  5
185
100
AcDbEntity
  8
002
 62
     3
100
AcDbLine
 10
764.334269
 20
255.547309
 30
0.0
 11
764.334269
 21
305.547309
 31
0.0
  0
ARC
  5
186
100
AcDbEntity
  8
002
 62
     3
100
AcDbCircle
 10
759.334269
 20
305.547309
 30
0.0
 40
5.0
100
AcDbArc
 50
0.0
 51
90.0
  0
LINE
  5
187
100
AcDbEntity
  8
002
 62
     3
100
AcDbLine
 10
759.334269
 20
307.547309
 30
0.0
 11
715.334269
 21
307.547309
 31
0.0
  0
ARC
  5
188
100
AcDbEntity
  8
002
 62
     3
100
AcDbCircle
 10
715.334269
 20
302.547309
 30
0.0
 40
5.0
100
AcDbArc
 50
90.0
 51
180.0
  0
LINE
  5
189
100
AcDbEntity
  8
002
 62
     3
100
AcDbLine
 10
710.334269
 20
302.547309
 30
0.0
 11
710.334269
 21
258.547309
 31
0.0
  0
ARC
  5
18A
100
AcDbEntity
  8
002
 62
     3
100
AcDbCircle
 10
715.334269
 20
258.547309
 30
0.0
 40
5.0
100
AcDbArc
 50
180.0
 51
270.0
  0
LINE
  5
18B
100
AcDbEntity
  8
002
 62
     3
100
AcDbLine
 10
715.334269
 20
253.547309
 30
0.0
 11
759.334269
 21
253.547309
 31
0.0
  0
ARC
  5
18C
100
AcDbEntity
  8
002
 62
     3
100
AcDbCircle
 10
759.334269
 20
258.547309
 30
0.0
 40
5.0
100
AcDbArc
 50
270.0
 51
0.0
  0
CIRCLE
  5
18D
100
AcDbEntity
  8
002
 62
     3
100
AcDbCircle
 10
757.133269
 20
260.748309
 30
0.0
 40
4.25
  0
LINE
  5
18E
100
AcDbEntity
  8
002
 62
     3
100
AcDbLine
 10
759.363969
 20
260.150609
 30
0.0
 11
758.766269
 21
262.381309
 31
0.0
  0
LINE
  5
18F
100
AcDbEntity
  8
002
 62
     3
100
AcDbLine
 10
758.766269
 20
262.381309
 30
0.0
 11
756.535569
 21
262.979009
 31
0.0
  0
LINE
  5
190
100
AcDbEntity
  8
002
 62
     3
100
AcDbLine
 10
756.535569
 20
262.979009
 30
0.0
 11
754.902569
 21
261.346009
 31
0.0
  0
LINE
  5
191
100
AcDbEntity
  8
002
 62
     3
100
AcDbLine
 10
754.902569
 20
261.346009
 30
0.0
 11
755.500269
 21
259.115309
 31
0.0
  0
LINE
  5
192
100
AcDbEntity
  8
002
 62
     3
100
AcDbLine
 10
755.500269
 20
259.115309
 30
0.0
 11
757.730969
 21
258.517609
 31
0.0
  0
LINE
  5
193
100
AcDbEntity
  8
002
 62
     3
100
AcDbLine
 10
757.730969
 20
258.517609
 30
0.0
 11
759.363969
 21
260.150609
 31
0.0
  0
ARC
  5
194
100
AcDbEntity
  8
002
 62
     3
100
AcDbCircle
 10
759.334269
 20
255.547309
 30
0.0
 40
5.0
100
AcDbArc
 50
270.0
 51
0.0
  0
LINE
  5
195
100
AcDbEntity
  8
002
 62
     3
100
AcDbLine
 10
762.334269
 20
250.547309
 30
0.0
 11
712.334269
 21
250.547309
 31
0.0
  0
LINE
  5
196
100
AcDbEntity
  8
002
 62
     3
100
AcDbLine
 10
707.334269
 20
255.547309
 30
0.0
 11
707.334269
 21
305.547309
 31
0.0
  0
LINE
  5
197
100
AcDbEntity
  8
002
 62
     3
100
AcDbLine
 10
712.334269
 20
310.547309
 30
0.0
 11
762.334269
 21
310.547309
 31
0.0
  0
ARC
  5
198
100
AcDbEntity
  8
002
 62
     3
100
AcDbCircle
 10
762.334269
 20
305.547309
 30
0.0
 40
5.0
100
AcDbArc
 50
0.0
 51
90.0
  0
ARC
  5
199
100
AcDbEntity
  8
002
 62
     3
100
AcDbCircle
 10
759.334269
 20
302.547309
 30
0.0
 40
5.0
100
AcDbArc
 50
0.0
 51
90.0
  0
LINE
  5
19A
100
AcDbEntity
  8
002
 62
     3
100
AcDbLine
 10
757.730969
 20
302.577009
 30
0.0
 11
759.363969
 21
300.944009
 31
0.0
  0
LINE
  5
19B
100
AcDbEntity
  8
002
 62
     3
100
AcDbLine
 10
759.363969
 20
300.944009
 30
0.0
 11
758.766269
 21
298.713309
 31
0.0
  0
LINE
  5
19C
100
AcDbEntity
  8
002
 62
     3
100
AcDbLine
 10
758.766269
 20
298.713309
 30
0.0
 11
756.535569
 21
298.115609
 31
0.0
  0
LINE
  5
19D
100
AcDbEntity
  8
002
 62
     3
100
AcDbLine
 10
756.535569
 20
298.115609
 30
0.0
 11
754.902569
 21
299.748509
 31
0.0
  0
LINE
  5
19E
100
AcDbEntity
  8
002
 62
     3
100
AcDbLine
 10
754.902569
 20
299.748509
 30
0.0
 11
755.500269
 21
301.979309
 31
0.0
  0
LINE
  5
19F
100
AcDbEntity
  8
002
 62
     3
100
AcDbLine
 10
755.500269
 20
301.979309
 30
0.0
 11
757.730969
 21
302.577009
 31
0.0
  0
CIRCLE
  5
1A0
100
AcDbEntity
  8
002
 62
     3
100
AcDbCircle
 10
757.133269
 20
300.346309
 30
0.0
 40
4.25
  0
LINE
  5
1A1
100
AcDbEntity
  8
002
 62
     3
100
AcDbLine
 10
770.685369
 20
297.421409
 30
0.0
 11
771.622769
 21
297.769509
 31
0.0
  0
LINE
  5
1A2
100
AcDbEntity
  8
002
 62
     3
100
AcDbLine
 10
771.622769
 20
297.769509
 30
0.0
 11
784.154869
 21
264.021209
 31
0.0
  0
LINE
  5
1A3
100
AcDbEntity
  8
002
 62
     3
100
AcDbLine
 10
784.154869
 20
264.021209
 30
0.0
 11
783.217469
 21
263.673109
 31
0.0
  0
LINE
  5
1A4
100
AcDbEntity
  8
002
 62
     3
100
AcDbLine
 10
791.334269
 20
245.547309
 30
0.0
 11
791.334269
 21
235.547309
 31
0.0
  0
LINE
  5
1A5
100
AcDbEntity
  8
002
 62
     3
100
AcDbLine
 10
791.334269
 20
235.547309
 30
0.0
 11
631.334269
 21
235.547309
 31
0.0
  0
LINE
  5
1A6
100
AcDbEntity
  8
002
 62
     3
100
AcDbLine
 10
631.334269
 20
235.547309
 30
0.0
 11
631.334269
 21
245.547309
 31
0.0
  0
ARC
  5
1A7
100
AcDbEntity
  8
002
 62
     3
100
AcDbCircle
 10
634.334269
 20
245.547309
 30
0.0
 40
3.0
100
AcDbArc
 50
90.0
 51
180.0
  0
LINE
  5
1A8
100
AcDbEntity
  8
002
 62
     3
100
AcDbLine
 10
655.382269
 20
235.547309
 30
0.0
 11
655.382269
 21
231.547309
 31
0.0
  0
LINE
  5
1A9
100
AcDbEntity
  8
002
 62
     3
100
AcDbLine
 10
655.382269
 20
231.547309
 30
0.0
 11
730.382269
 21
231.547309
 31
0.0
  0
LINE
  5
1AA
100
AcDbEntity
  8
002
 62
     3
100
AcDbLine
 10
730.382269
 20
231.547309
 30
0.0
 11
730.382269
 21
235.547309
 31
0.0
  0
LINE
  5
1AB
100
AcDbEntity
  8
002
 62
     3
100
AcDbLine
 10
727.132269
 20
231.547309
 30
0.0
 11
727.132269
 21
226.547309
 31
0.0
  0
LINE
  5
1AC
100
AcDbEntity
  8
002
 62
     3
100
AcDbLine
 10
718.632269
 20
226.547309
 30
0.0
 11
718.632269
 21
231.547309
 31
0.0
  0
ARC
  5
1AD
100
AcDbEntity
  8
002
 62
     3
100
AcDbCircle
 10
719.760169
 20
228.547309
 30
0.0
 40
2.999933
100
AcDbArc
 50
90.0
 51
178.168092
  0
LINE
  5
1AE
100
AcDbEntity
  8
002
 62
     3
100
AcDbLine
 10
716.761769
 20
228.643209
 30
0.0
 11
715.382269
 21
185.547309
 31
0.0
  0
LINE
  5
1AF
100
AcDbEntity
  8
002
 62
     3
100
AcDbLine
 10
715.382269
 20
185.547309
 30
0.0
 11
670.382269
 21
185.547309
 31
0.0
  0
LINE
  5
1B0
100
AcDbEntity
  8
002
 62
     3
100
AcDbLine
 10
670.382269
 20
185.547309
 30
0.0
 11
669.002869
 21
228.643209
 31
0.0
  0
ARC
  5
1B1
100
AcDbEntity
  8
002
 62
     3
100
AcDbCircle
 10
666.004369
 20
228.547309
 30
0.0
 40
3.0
100
AcDbArc
 50
1.831847
 51
90.0
  0
LINE
  5
1B2
100
AcDbEntity
  8
002
 62
     3
100
AcDbLine
 10
667.132269
 20
231.547309
 30
0.0
 11
667.132269
 21
226.547309
 31
0.0
  0
LINE
  5
1B3
100
AcDbEntity
  8
002
 62
     3
100
AcDbLine
 10
667.132269
 20
226.547309
 30
0.0
 11
658.632269
 21
226.547309
 31
0.0
  0
LINE
  5
1B4
100
AcDbEntity
  8
002
 62
     3
100
AcDbLine
 10
658.632269
 20
226.547309
 30
0.0
 11
658.632269
 21
231.547309
 31
0.0
  0
LINE
  5
1B5
100
AcDbEntity
  8
002
 62
     3
100
AcDbLine
 10
688.632269
 20
231.547309
 30
0.0
 11
688.632269
 21
226.547309
 31
0.0
  0
LINE
  5
1B6
100
AcDbEntity
  8
002
 62
     3
100
AcDbLine
 10
697.132269
 20
226.547309
 30
0.0
 11
688.632269
 21
226.547309
 31
0.0
  0
LINE
  5
1B7
100
AcDbEntity
  8
002
 62
     3
100
AcDbLine
 10
697.132269
 20
226.547309
 30
0.0
 11
697.132269
 21
231.547309
 31
0.0
  0
LINE
  5
1B8
100
AcDbEntity
  8
002
 62
     3
100
AcDbLine
 10
718.632269
 20
226.547309
 30
0.0
 11
727.132269
 21
226.547309
 31
0.0
  0
LINE
  5
1B9
100
AcDbEntity
  8
002
 62
     3
100
AcDbLine
 10
719.168269
 20
259.115309
 30
0.0
 11
719.765969
 21
261.346009
 31
0.0
  0
LINE
  5
1BA
100
AcDbEntity
  8
002
 62
     3
100
AcDbLine
 10
719.765969
 20
261.346009
 30
0.0
 11
718.132969
 21
262.979009
 31
0.0
  0
LINE
  5
1BB
100
AcDbEntity
  8
002
 62
     3
100
AcDbLine
 10
718.132969
 20
262.979009
 30
0.0
 11
715.902269
 21
262.381309
 31
0.0
  0
LINE
  5
1BC
100
AcDbEntity
  8
002
 62
     3
100
AcDbLine
 10
715.902269
 20
262.381309
 30
0.0
 11
715.304569
 21
260.150609
 31
0.0
  0
LINE
  5
1BD
100
AcDbEntity
  8
002
 62
     3
100
AcDbLine
 10
715.304569
 20
260.150609
 30
0.0
 11
716.937569
 21
258.517609
 31
0.0
  0
LINE
  5
1BE
100
AcDbEntity
  8
002
 62
     3
100
AcDbLine
 10
716.937569
 20
258.517609
 30
0.0
 11
719.168269
 21
259.115309
 31
0.0
  0
CIRCLE
  5
1BF
100
AcDbEntity
  8
002
 62
     3
100
AcDbCircle
 10
717.535269
 20
260.748309
 30
0.0
 40
4.25
  0
ARC
  5
1C0
100
AcDbEntity
  8
002
 62
     3
100
AcDbCircle
 10
712.334269
 20
255.547309
 30
0.0
 40
5.0
100
AcDbArc
 50
180.0
 51
270.0
  0
LINE
  5
1C1
100
AcDbEntity
  8
002
 62
     3
100
AcDbLine
 10
735.234269
 20
285.047309
 30
0.0
 11
739.434269
 21
285.047309
 31
0.0
  0
LINE
  5
1C2
100
AcDbEntity
  8
002
 62
     3
100
AcDbLine
 10
739.434269
 20
285.047309
 30
0.0
 11
739.834269
 21
285.447309
 31
0.0
  0
LINE
  5
1C3
100
AcDbEntity
  8
002
 62
     3
100
AcDbLine
 10
739.834269
 20
285.447309
 30
0.0
 11
739.834269
 21
289.647309
 31
0.0
  0
LINE
  5
1C4
100
AcDbEntity
  8
002
 62
     3
100
AcDbLine
 10
739.834269
 20
289.647309
 30
0.0
 11
739.434269
 21
290.047309
 31
0.0
  0
LINE
  5
1C5
100
AcDbEntity
  8
002
 62
     3
100
AcDbLine
 10
739.434269
 20
290.047309
 30
0.0
 11
735.234269
 21
290.047309
 31
0.0
  0
LINE
  5
1C6
100
AcDbEntity
  8
002
 62
     3
100
AcDbLine
 10
735.234269
 20
290.047309
 30
0.0
 11
734.834269
 21
289.647309
 31
0.0
  0
LINE
  5
1C7
100
AcDbEntity
  8
002
 62
     3
100
AcDbLine
 10
734.834269
 20
289.647309
 30
0.0
 11
734.834269
 21
285.447309
 31
0.0
  0
LINE
  5
1C8
100
AcDbEntity
  8
002
 62
     3
100
AcDbLine
 10
734.834269
 20
285.447309
 30
0.0
 11
735.234269
 21
285.047309
 31
0.0
  0
ARC
  5
1C9
100
AcDbEntity
  8
002
 62
     3
100
AcDbCircle
 10
735.234269
 20
285.447309
 30
0.0
 40
0.4
100
AcDbArc
 50
180.0
 51
270.0
  0
ARC
  5
1CA
100
AcDbEntity
  8
002
 62
     3
100
AcDbCircle
 10
737.334269
 20
280.547309
 30
0.0
 40
7.499936
100
AcDbArc
 50
109.471393
 51
70.528607
  0
ARC
  5
1CB
100
AcDbEntity
  8
002
 62
     3
100
AcDbCircle
 10
739.434269
 20
285.447309
 30
0.0
 40
0.4
100
AcDbArc
 50
270.0
 51
0.0
  0
ARC
  5
1CC
100
AcDbEntity
  8
002
 62
     3
100
AcDbCircle
 10
737.334269
 20
280.547309
 30
0.0
 40
7.99996
100
AcDbArc
 50
108.210051
 51
71.789949
  0
CIRCLE
  5
1CD
100
AcDbEntity
  8
002
 62
     3
100
AcDbCircle
 10
737.334269
 20
280.547309
 30
0.0
 40
13.0
  0
CIRCLE
  5
1CE
100
AcDbEntity
  8
002
 62
     3
100
AcDbCircle
 10
737.334269
 20
280.547309
 30
0.0
 40
21.0
  0
ARC
  5
1CF
100
AcDbEntity
  8
002
 62
     3
100
AcDbCircle
 10
762.334269
 20
255.547309
 30
0.0
 40
5.0
100
AcDbArc
 50
270.0
 51
0.0
  0
ARC
  5
1D0
100
AcDbEntity
  8
002
 62
     3
100
AcDbCircle
 10
788.334269
 20
245.547309
 30
0.0
 40
3.0
100
AcDbArc
 50
0.0
 51
90.0
  0
CIRCLE
  5
1D1
100
AcDbEntity
  8
002
 62
     3
100
AcDbCircle
 10
717.535269
 20
300.346309
 30
0.0
 40
4.25
  0
LINE
  5
1D2
100
AcDbEntity
  8
002
 62
     3
100
AcDbLine
 10
719.765969
 20
299.748509
 30
0.0
 11
719.168269
 21
301.979309
 31
0.0
  0
LINE
  5
1D3
100
AcDbEntity
  8
002
 62
     3
100
AcDbLine
 10
719.168269
 20
301.979309
 30
0.0
 11
716.937569
 21
302.577009
 31
0.0
  0
LINE
  5
1D4
100
AcDbEntity
  8
002
 62
     3
100
AcDbLine
 10
716.937569
 20
302.577009
 30
0.0
 11
715.304569
 21
300.944009
 31
0.0
  0
LINE
  5
1D5
100
AcDbEntity
  8
002
 62
     3
100
AcDbLine
 10
715.304569
 20
300.944009
 30
0.0
 11
715.902269
 21
298.713309
 31
0.0
  0
LINE
  5
1D6
100
AcDbEntity
  8
002
 62
     3
100
AcDbLine
 10
715.902269
 20
298.713309
 30
0.0
 11
718.132969
 21
298.115609
 31
0.0
  0
LINE
  5
1D7
100
AcDbEntity
  8
002
 62
     3
100
AcDbLine
 10
718.132969
 20
298.115609
 30
0.0
 11
719.765969
 21
299.748509
 31
0.0
  0
ARC
  5
1D8
100
AcDbEntity
  8
002
 62
     3
100
AcDbCircle
 10
712.334269
 20
305.547309
 30
0.0
 40
5.0
100
AcDbArc
 50
90.0
 51
180.0
  0
ARC
  5
1D9
100
AcDbEntity
  8
002
 62
     3
100
AcDbCircle
 10
642.882269
 20
291.331509
 30
0.0
 40
3.000073
100
AcDbArc
 50
0.0
 51
72.89685
  0
LINE
  5
1DA
100
AcDbEntity
  8
002
 62
     3
100
AcDbLine
 10
730.382269
 20
391.547309
 30
0.0
 11
730.382269
 21
393.847309
 31
0.0
  0
LINE
  5
1DB
100
AcDbEntity
  8
002
 62
     3
100
AcDbLine
 10
730.382269
 20
393.847309
 30
0.0
 11
655.382269
 21
393.847309
 31
0.0
  0
LINE
  5
1DC
100
AcDbEntity
  8
002
 62
     3
100
AcDbLine
 10
655.382269
 20
393.847309
 30
0.0
 11
655.382269
 21
391.547309
 31
0.0
  0
LINE
  5
1DD
100
AcDbEntity
  8
002
 62
     3
100
AcDbLine
 10
658.632269
 20
393.847309
 30
0.0
 11
658.632269
 21
398.847309
 31
0.0
  0
LINE
  5
1DE
100
AcDbEntity
  8
002
 62
     3
100
AcDbLine
 10
658.632269
 20
398.847309
 30
0.0
 11
667.132269
 21
398.847309
 31
0.0
  0
LINE
  5
1DF
100
AcDbEntity
  8
002
 62
     3
100
AcDbLine
 10
666.382269
 20
398.847309
 30
0.0
 11
666.382269
 21
408.847309
 31
0.0
  0
LINE
  5
1E0
100
AcDbEntity
  8
002
 62
     3
100
AcDbLine
 10
666.382269
 20
408.847309
 30
0.0
 11
727.382269
 21
408.847309
 31
0.0
  0
LINE
  5
1E1
100
AcDbEntity
  8
002
 62
     3
100
AcDbLine
 10
728.528469
 20
412.852609
 30
0.0
 11
720.236069
 21
411.841909
 31
0.0
  0
ARC
  5
1E2
100
AcDbEntity
  8
002
 62
     3
100
AcDbCircle
 10
720.382269
 20
409.847309
 30
0.0
 40
2.0
100
AcDbArc
 50
94.192164
 51
180.0
  0
LINE
  5
1E3
100
AcDbEntity
  8
002
 62
     3
100
AcDbLine
 10
718.382269
 20
409.847309
 30
0.0
 11
718.382269
 21
408.847309
 31
0.0
  0
LINE
  5
1E4
100
AcDbEntity
  8
002
 62
     3
100
AcDbLine
 10
719.382269
 20
408.847309
 30
0.0
 11
719.382269
 21
398.847309
 31
0.0
  0
LINE
  5
1E5
100
AcDbEntity
  8
002
 62
     3
100
AcDbLine
 10
718.632269
 20
398.847309
 30
0.0
 11
727.132269
 21
398.847309
 31
0.0
  0
LINE
  5
1E6
100
AcDbEntity
  8
002
 62
     3
100
AcDbLine
 10
718.632269
 20
398.847309
 30
0.0
 11
718.632269
 21
393.847309
 31
0.0
  0
LINE
  5
1E7
100
AcDbEntity
  8
002
 62
     3
100
AcDbLine
 10
697.132269
 20
393.847309
 30
0.0
 11
697.132269
 21
398.847309
 31
0.0
  0
LINE
  5
1E8
100
AcDbEntity
  8
002
 62
     3
100
AcDbLine
 10
688.632269
 20
398.847309
 30
0.0
 11
697.132269
 21
398.847309
 31
0.0
  0
LINE
  5
1E9
100
AcDbEntity
  8
002
 62
     3
100
AcDbLine
 10
697.132269
 20
395.847309
 30
0.0
 11
718.632269
 21
395.847309
 31
0.0
  0
LINE
  5
1EA
100
AcDbEntity
  8
002
 62
     3
100
AcDbLine
 10
727.132269
 20
393.847309
 30
0.0
 11
727.132269
 21
398.847309
 31
0.0
  0
LINE
  5
1EB
100
AcDbEntity
  8
002
 62
     3
100
AcDbLine
 10
727.132269
 20
395.847309
 30
0.0
 11
727.382269
 21
395.847309
 31
0.0
  0
ARC
  5
1EC
100
AcDbEntity
  8
002
 62
     3
100
AcDbCircle
 10
727.382269
 20
398.847309
 30
0.0
 40
3.0
100
AcDbArc
 50
270.0
 51
0.0
  0
LINE
  5
1ED
100
AcDbEntity
  8
002
 62
     3
100
AcDbLine
 10
730.382269
 20
398.847309
 30
0.0
 11
730.382269
 21
405.847309
 31
0.0
  0
ARC
  5
1EE
100
AcDbEntity
  8
002
 62
     3
100
AcDbCircle
 10
727.382269
 20
405.847309
 30
0.0
 40
3.0
100
AcDbArc
 50
0.0
 51
90.0
  0
ARC
  5
1EF
100
AcDbEntity
  8
002
 62
     3
100
AcDbCircle
 10
728.382269
 20
414.847309
 30
0.0
 40
1.999951
100
AcDbArc
 50
274.191954
 51
85.807836
  0
LINE
  5
1F0
100
AcDbEntity
  8
002
 62
     3
100
AcDbLine
 10
728.528469
 20
416.841909
 30
0.0
 11
714.736069
 21
417.852609
 31
0.0
  0
ARC
  5
1F1
100
AcDbEntity
  8
002
 62
     3
100
AcDbCircle
 10
714.882269
 20
419.847309
 30
0.0
 40
2.000051
100
AcDbArc
 50
94.192164
 51
265.808046
  0
LINE
  5
1F2
100
AcDbEntity
  8
002
 62
     3
100
AcDbLine
 10
714.736069
 20
421.841909
 30
0.0
 11
728.528469
 21
422.852609
 31
0.0
  0
ARC
  5
1F3
100
AcDbEntity
  8
002
 62
     3
100
AcDbCircle
 10
728.382269
 20
424.847309
 30
0.0
 40
1.999951
100
AcDbArc
 50
274.191954
 51
85.807836
  0
LINE
  5
1F4
100
AcDbEntity
  8
002
 62
     3
100
AcDbLine
 10
728.528469
 20
426.841909
 30
0.0
 11
714.736069
 21
427.852609
 31
0.0
  0
ARC
  5
1F5
100
AcDbEntity
  8
002
 62
     3
100
AcDbCircle
 10
714.882269
 20
429.847309
 30
0.0
 40
2.000051
100
AcDbArc
 50
180.0
 51
265.808046
  0
LINE
  5
1F6
100
AcDbEntity
  8
002
 62
     3
100
AcDbLine
 10
710.882269
 20
429.847309
 30
0.0
 11
674.882269
 21
429.847309
 31
0.0
  0
ARC
  5
1F7
100
AcDbEntity
  8
002
 62
     3
100
AcDbCircle
 10
670.882269
 20
429.847309
 30
0.0
 40
2.0
100
AcDbArc
 50
274.191954
 51
0.0
  0
LINE
  5
1F8
100
AcDbEntity
  8
002
 62
     3
100
AcDbLine
 10
671.028469
 20
427.852609
 30
0.0
 11
657.236069
 21
426.841909
 31
0.0
  0
ARC
  5
1F9
100
AcDbEntity
  8
002
 62
     3
100
AcDbCircle
 10
657.382269
 20
424.847309
 30
0.0
 40
2.000051
100
AcDbArc
 50
94.192164
 51
265.808046
  0
LINE
  5
1FA
100
AcDbEntity
  8
002
 62
     3
100
AcDbLine
 10
657.236069
 20
422.852609
 30
0.0
 11
671.028469
 21
421.841909
 31
0.0
  0
ARC
  5
1FB
100
AcDbEntity
  8
002
 62
     3
100
AcDbCircle
 10
670.882269
 20
419.847309
 30
0.0
 40
1.999951
100
AcDbArc
 50
274.191954
 51
85.807836
  0
LINE
  5
1FC
100
AcDbEntity
  8
002
 62
     3
100
AcDbLine
 10
671.028469
 20
417.852609
 30
0.0
 11
657.236069
 21
416.841909
 31
0.0
  0
ARC
  5
1FD
100
AcDbEntity
  8
002
 62
     3
100
AcDbCircle
 10
657.382269
 20
414.847309
 30
0.0
 40
2.000051
100
AcDbArc
 50
94.192164
 51
265.808046
  0
LINE
  5
1FE
100
AcDbEntity
  8
002
 62
     3
100
AcDbLine
 10
657.236069
 20
412.852609
 30
0.0
 11
665.528469
 21
411.841909
 31
0.0
  0
ARC
  5
1FF
100
AcDbEntity
  8
002
 62
     3
100
AcDbCircle
 10
665.382269
 20
409.847309
 30
0.0
 40
1.999951
100
AcDbArc
 50
0.0
 51
85.807836
  0
LINE
  5
200
100
AcDbEntity
  8
002
 62
     3
100
AcDbLine
 10
667.382269
 20
409.847309
 30
0.0
 11
667.382269
 21
408.847309
 31
0.0
  0
LINE
  5
201
100
AcDbEntity
  8
002
 62
     3
100
AcDbLine
 10
710.882269
 20
419.847309
 30
0.0
 11
674.882269
 21
419.847309
 31
0.0
  0
LINE
  5
202
100
AcDbEntity
  8
002
 62
     3
100
AcDbLine
 10
657.382269
 20
414.847309
 30
0.0
 11
728.382269
 21
414.847309
 31
0.0
  0
LINE
  5
203
100
AcDbEntity
  8
002
 62
     3
100
AcDbLine
 10
728.382269
 20
424.847309
 30
0.0
 11
657.382269
 21
424.847309
 31
0.0
  0
LINE
  5
204
100
AcDbEntity
  8
002
 62
     3
100
AcDbLine
 10
667.132269
 20
398.847309
 30
0.0
 11
667.132269
 21
393.847309
 31
0.0
  0
LINE
  5
205
100
AcDbEntity
  8
002
 62
     3
100
AcDbLine
 10
688.632269
 20
393.847309
 30
0.0
 11
688.632269
 21
398.847309
 31
0.0
  0
LINE
  5
206
100
AcDbEntity
  8
002
 62
     3
100
AcDbLine
 10
688.632269
 20
395.847309
 30
0.0
 11
667.132269
 21
395.847309
 31
0.0
  0
CIRCLE
  5
207
100
AcDbEntity
  8
002
 62
     3
100
AcDbCircle
 10
724.882269
 20
402.347309
 30
0.0
 40
1.0
  0
LINE
  5
208
100
AcDbEntity
  8
002
 62
     3
100
AcDbLine
 10
710.882269
 20
472.247309
 30
0.0
 11
674.882269
 21
472.247309
 31
0.0
  0
ARC
  5
209
100
AcDbEntity
  8
002
 62
     3
100
AcDbCircle
 10
670.882269
 20
472.247309
 30
0.0
 40
1.999951
100
AcDbArc
 50
0.0
 51
85.807836
  0
LINE
  5
20A
100
AcDbEntity
  8
002
 62
     3
100
AcDbLine
 10
671.028469
 20
474.241909
 30
0.0
 11
657.236069
 21
475.252609
 31
0.0
  0
LINE
  5
20B
100
AcDbEntity
  8
002
 62
     3
100
AcDbLine
 10
657.382269
 20
477.247309
 30
0.0
 11
728.382269
 21
477.247309
 31
0.0
  0
LINE
  5
20C
100
AcDbEntity
  8
002
 62
     3
100
AcDbLine
 10
728.528469
 20
479.241909
 30
0.0
 11
714.736069
 21
480.252609
 31
0.0
  0
ARC
  5
20D
100
AcDbEntity
  8
002
 62
     3
100
AcDbCircle
 10
714.882269
 20
482.247309
 30
0.0
 40
2.000051
100
AcDbArc
 50
94.192164
 51
265.808046
  0
LINE
  5
20E
100
AcDbEntity
  8
002
 62
     3
100
AcDbLine
 10
714.736069
 20
484.241909
 30
0.0
 11
728.528469
 21
485.252609
 31
0.0
  0
ARC
  5
20F
100
AcDbEntity
  8
002
 62
     3
100
AcDbCircle
 10
728.382269
 20
487.247309
 30
0.0
 40
1.999951
100
AcDbArc
 50
274.191954
 51
85.807836
  0
LINE
  5
210
100
AcDbEntity
  8
002
 62
     3
100
AcDbLine
 10
728.528469
 20
489.241909
 30
0.0
 11
708.236069
 21
490.252609
 31
0.0
  0
ARC
  5
211
100
AcDbEntity
  8
002
 62
     3
100
AcDbCircle
 10
708.382269
 20
492.247309
 30
0.0
 40
2.000051
100
AcDbArc
 50
180.0
 51
265.808046
  0
LINE
  5
212
100
AcDbEntity
  8
002
 62
     3
100
AcDbLine
 10
706.382269
 20
492.247309
 30
0.0
 11
706.382269
 21
493.247309
 31
0.0
  0
LINE
  5
213
100
AcDbEntity
  8
002
 62
     3
100
AcDbLine
 10
707.382269
 20
493.247309
 30
0.0
 11
707.382269
 21
506.247309
 31
0.0
  0
LINE
  5
214
100
AcDbEntity
  8
002
 62
     3
100
AcDbLine
 10
706.382269
 20
506.247309
 30
0.0
 11
706.382269
 21
508.247309
 31
0.0
  0
LINE
  5
215
100
AcDbEntity
  8
002
 62
     3
100
AcDbLine
 10
679.382269
 20
508.247309
 30
0.0
 11
679.382269
 21
506.247309
 31
0.0
  0
LINE
  5
216
100
AcDbEntity
  8
002
 62
     3
100
AcDbLine
 10
678.382269
 20
506.247309
 30
0.0
 11
715.382269
 21
506.247309
 31
0.0
  0
LINE
  5
217
100
AcDbEntity
  8
002
 62
     3
100
AcDbLine
 10
718.382269
 20
503.247309
 30
0.0
 11
718.382269
 21
496.247309
 31
0.0
  0
LINE
  5
218
100
AcDbEntity
  8
002
 62
     3
100
AcDbLine
 10
715.382269
 20
493.247309
 30
0.0
 11
678.382269
 21
493.247309
 31
0.0
  0
LINE
  5
219
100
AcDbEntity
  8
002
 62
     3
100
AcDbLine
 10
678.382269
 20
493.247309
 30
0.0
 11
678.382269
 21
506.247309
 31
0.0
  0
LINE
  5
21A
100
AcDbEntity
  8
002
 62
     3
100
AcDbLine
 10
679.382269
 20
508.247309
 30
0.0
 11
706.382269
 21
508.247309
 31
0.0
  0
LINE
  5
21B
100
AcDbEntity
  8
002
 62
     3
100
AcDbLine
 10
700.731569
 20
508.247309
 30
0.0
 11
700.731569
 21
511.247309
 31
0.0
  0
LINE
  5
21C
100
AcDbEntity
  8
002
 62
     3
100
AcDbLine
 10
701.881569
 20
511.247309
 30
0.0
 11
701.881569
 21
530.247309
 31
0.0
  0
LINE
  5
21D
100
AcDbEntity
  8
002
 62
     3
100
AcDbLine
 10
701.881569
 20
530.247309
 30
0.0
 11
683.881469
 21
530.247309
 31
0.0
  0
LINE
  5
21E
100
AcDbEntity
  8
002
 62
     3
100
AcDbLine
 10
683.881469
 20
530.247309
 30
0.0
 11
683.881469
 21
511.247309
 31
0.0
  0
LINE
  5
21F
100
AcDbEntity
  8
002
 62
     3
100
AcDbLine
 10
683.881469
 20
511.247309
 30
0.0
 11
701.881569
 21
511.247309
 31
0.0
  0
CIRCLE
  5
220
100
AcDbEntity
  8
002
 62
     3
100
AcDbCircle
 10
712.882269
 20
499.747309
 30
0.0
 40
1.0
  0
ARC
  5
221
100
AcDbEntity
  8
002
 62
     3
100
AcDbCircle
 10
715.382269
 20
503.247309
 30
0.0
 40
3.0
100
AcDbArc
 50
0.0
 51
90.0
  0
ARC
  5
222
100
AcDbEntity
  8
002
 62
     3
100
AcDbCircle
 10
715.382269
 20
496.247309
 30
0.0
 40
3.0
100
AcDbArc
 50
270.0
 51
0.0
  0
LINE
  5
223
100
AcDbEntity
  8
002
 62
     3
100
AcDbLine
 10
728.382269
 20
487.247309
 30
0.0
 11
657.382269
 21
487.247309
 31
0.0
  0
LINE
  5
224
100
AcDbEntity
  8
002
 62
     3
100
AcDbLine
 10
657.236069
 20
485.252609
 30
0.0
 11
671.028469
 21
484.241909
 31
0.0
  0
LINE
  5
225
100
AcDbEntity
  8
002
 62
     3
100
AcDbLine
 10
671.028469
 20
480.252609
 30
0.0
 11
657.236069
 21
479.241909
 31
0.0
  0
ARC
  5
226
100
AcDbEntity
  8
002
 62
     3
100
AcDbCircle
 10
657.382269
 20
477.247309
 30
0.0
 40
2.000051
100
AcDbArc
 50
94.192164
 51
265.808046
  0
ARC
  5
227
100
AcDbEntity
  8
002
 62
     3
100
AcDbCircle
 10
657.382269
 20
487.247309
 30
0.0
 40
2.000051
100
AcDbArc
 50
94.192164
 51
265.808046
  0
LINE
  5
228
100
AcDbEntity
  8
002
 62
     3
100
AcDbLine
 10
657.236069
 20
489.241909
 30
0.0
 11
677.528469
 21
490.252609
 31
0.0
  0
ARC
  5
229
100
AcDbEntity
  8
002
 62
     3
100
AcDbCircle
 10
677.382269
 20
492.247309
 30
0.0
 40
2.0
100
AcDbArc
 50
274.191954
 51
0.0
  0
LINE
  5
22A
100
AcDbEntity
  8
002
 62
     3
100
AcDbLine
 10
679.382269
 20
492.247309
 30
0.0
 11
679.382269
 21
493.247309
 31
0.0
  0
LINE
  5
22B
100
AcDbEntity
  8
002
 62
     3
100
AcDbLine
 10
674.882269
 20
482.247309
 30
0.0
 11
710.882269
 21
482.247309
 31
0.0
  0
LINE
  5
22C
100
AcDbEntity
  8
002
 62
     3
100
AcDbLine
 10
714.736069
 20
474.241909
 30
0.0
 11
728.528469
 21
475.252609
 31
0.0
  0
ARC
  5
22D
100
AcDbEntity
  8
002
 62
     3
100
AcDbCircle
 10
728.382269
 20
477.247309
 30
0.0
 40
1.999951
100
AcDbArc
 50
274.191954
 51
85.807836
  0
ARC
  5
22E
100
AcDbEntity
  8
002
 62
     3
100
AcDbCircle
 10
714.882269
 20
472.247309
 30
0.0
 40
2.0
100
AcDbArc
 50
94.192164
 51
180.0
  0
ARC
  5
22F
100
AcDbEntity
  8
002
 62
     3
100
AcDbCircle
 10
670.882269
 20
482.247309
 30
0.0
 40
1.999951
100
AcDbArc
 50
274.191954
 51
85.807836
  0
LINE
  5
230
100
AcDbEntity
  8
002
 62
     3
100
AcDbLine
 10
685.031569
 20
508.247309
 30
0.0
 11
685.031569
 21
511.247309
 31
0.0
  0
LINE
  5
231
100
AcDbEntity
  8
002
 62
     9
100
AcDbLine
 10
684.931569
 20
530.247309
 30
0.0
 11
684.931569
 21
511.247309
 31
0.0
  0
LINE
  5
232
100
AcDbEntity
  8
002
 62
     9
100
AcDbLine
 10
700.831569
 20
511.247309
 30
0.0
 11
700.831569
 21
530.247309
 31
0.0
  0
LINE
  5
233
100
AcDbEntity
  8
002
  6
CENTER
 62
     9
100
AcDbLine
 10
710.626469
 20
499.747309
 30
0.0
 11
715.227169
 21
499.747309
 31
0.0
  0
LINE
  5
234
100
AcDbEntity
  8
002
  6
CENTER
 62
     9
100
AcDbLine
 10
712.882269
 20
501.618209
 30
0.0
 11
712.882269
 21
497.647109
 31
0.0
  0
LINE
  5
235
100
AcDbEntity
  8
002
  6
CENTER
 62
     9
100
AcDbLine
 10
722.882269
 20
380.303009
 30
0.0
 11
722.882269
 21
400.274909
 31
0.0
  0
LINE
  5
236
100
AcDbEntity
  8
002
  6
CENTER
 62
     9
100
AcDbLine
 10
724.882269
 20
400.247109
 30
0.0
 11
724.882269
 21
404.218209
 31
0.0
  0
LINE
  5
237
100
AcDbEntity
  8
002
  6
CENTER
 62
     9
100
AcDbLine
 10
722.626469
 20
402.347309
 30
0.0
 11
727.227169
 21
402.347309
 31
0.0
  0
LINE
  5
238
100
AcDbEntity
  8
002
  6
CENTER
 62
     9
100
AcDbLine
 10
662.882269
 20
400.274909
 30
0.0
 11
662.882269
 21
380.303009
 31
0.0
  0
LINE
  5
239
100
AcDbEntity
  8
002
  6
CENTER
 62
     9
100
AcDbLine
 10
684.481969
 20
371.547309
 30
0.0
 11
701.655369
 21
371.547309
 31
0.0
  0
LINE
  5
23A
100
AcDbEntity
  8
002
  6
CENTER
 62
     9
100
AcDbLine
 10
648.281969
 20
309.158709
 30
0.0
 11
648.281969
 21
335.558709
 31
0.0
  0
LINE
  5
23B
100
AcDbEntity
  8
002
  6
CENTER
 62
     9
100
AcDbLine
 10
737.482569
 20
335.558709
 30
0.0
 11
737.482569
 21
315.547309
 31
0.0
  0
LINE
  5
23C
100
AcDbEntity
  8
002
  6
CENTER
 62
     9
100
AcDbLine
 10
737.334269
 20
312.296109
 30
0.0
 11
737.334269
 21
243.605009
 31
0.0
  0
CIRCLE
  5
23D
100
AcDbEntity
  8
002
  6
CENTER
 62
     9
100
AcDbCircle
 10
737.334269
 20
280.547309
 30
0.0
 40
28.0
  0
LINE
  5
23E
100
AcDbEntity
  8
002
  6
CENTER
 62
     9
100
AcDbLine
 10
720.969169
 20
296.912409
 30
0.0
 11
714.189269
 21
303.692309
 31
0.0
  0
LINE
  5
23F
100
AcDbEntity
  8
002
  6
CENTER
 62
     9
100
AcDbLine
 10
753.699369
 20
296.912409
 30
0.0
 11
760.479269
 21
303.692309
 31
0.0
  0
LINE
  5
240
100
AcDbEntity
  8
002
  6
CENTER
 62
     9
100
AcDbLine
 10
714.189269
 20
257.402309
 30
0.0
 11
720.969169
 21
264.182209
 31
0.0
  0
LINE
  5
241
100
AcDbEntity
  8
002
  6
CENTER
 62
     9
100
AcDbLine
 10
760.479269
 20
257.402309
 30
0.0
 11
753.699369
 21
264.182209
 31
0.0
  0
LINE
  5
242
100
AcDbEntity
  8
002
  6
CENTER
 62
     9
100
AcDbLine
 10
774.774769
 20
280.547309
 30
0.0
 11
616.923269
 21
280.547309
 31
0.0
  0
LINE
  5
243
100
AcDbEntity
  8
002
 62
     9
100
AcDbLine
 10
629.882269
 20
271.231809
 30
0.0
 11
637.882269
 21
271.481809
 31
0.0
  0
LINE
  5
244
100
AcDbEntity
  8
002
 62
     9
100
AcDbLine
 10
629.882269
 20
289.862809
 30
0.0
 11
637.882269
 21
289.612809
 31
0.0
  0
LINE
  5
245
100
AcDbEntity
  8
002
 62
     9
100
AcDbLine
 10
619.882269
 20
287.047309
 30
0.0
 11
629.882269
 21
273.547309
 31
0.0
  0
LINE
  5
246
100
AcDbEntity
  8
002
 62
     9
100
AcDbLine
 10
619.882269
 20
274.047309
 30
0.0
 11
629.882269
 21
287.547309
 31
0.0
  0
LINE
  5
247
100
AcDbEntity
  8
002
  6
CENTER
 62
     9
100
AcDbLine
 10
645.334269
 20
256.075509
 30
0.0
 11
645.334269
 21
228.146809
 31
0.0
  0
LINE
  5
248
100
AcDbEntity
  8
002
  6
CENTER
 62
     9
100
AcDbLine
 10
662.882269
 20
237.672109
 30
0.0
 11
662.882269
 21
225.393209
 31
0.0
  0
LINE
  5
249
100
AcDbEntity
  8
002
  6
CENTER
 62
     9
100
AcDbLine
 10
722.882269
 20
237.672109
 30
0.0
 11
722.882269
 21
225.393209
 31
0.0
  0
LINE
  5
24A
100
AcDbEntity
  8
002
  6
CENTER
 62
     9
100
AcDbLine
 10
777.334269
 20
228.146809
 30
0.0
 11
777.334269
 21
256.075509
 31
0.0
  0
LINE
  5
24B
100
AcDbEntity
  8
002
  6
PHANTOM
 62
     9
100
AcDbLine
 10
655.382269
 20
424.847309
 30
0.0
 11
655.382269
 21
477.247309
 31
0.0
  0
LINE
  5
24C
100
AcDbEntity
  8
002
  6
PHANTOM
 62
     9
100
AcDbLine
 10
672.882269
 20
472.247309
 30
0.0
 11
672.882269
 21
429.847309
 31
0.0
  0
LINE
  5
24D
100
AcDbEntity
  8
002
  6
PHANTOM
 62
     9
100
AcDbLine
 10
712.882269
 20
472.247309
 30
0.0
 11
712.882269
 21
429.847309
 31
0.0
  0
LINE
  5
24E
100
AcDbEntity
  8
002
  6
PHANTOM
 62
     9
100
AcDbLine
 10
730.382269
 20
424.847309
 30
0.0
 11
730.382269
 21
477.247309
 31
0.0
  0
LINE
  5
24F
100
AcDbEntity
  8
002
  6
HIDDEN
 62
     9
100
AcDbLine
 10
639.834269
 20
235.547309
 30
0.0
 11
639.834269
 21
248.547309
 31
0.0
  0
LINE
  5
250
100
AcDbEntity
  8
002
  6
HIDDEN
 62
     9
100
AcDbLine
 10
650.834269
 20
248.547309
 30
0.0
 11
650.834269
 21
235.547309
 31
0.0
  0
LINE
  5
251
100
AcDbEntity
  8
002
  6
HIDDEN
 62
     9
100
AcDbLine
 10
771.834269
 20
248.547309
 30
0.0
 11
771.834269
 21
235.547309
 31
0.0
  0
LINE
  5
252
100
AcDbEntity
  8
002
  6
HIDDEN
 62
     9
100
AcDbLine
 10
782.834269
 20
248.547309
 30
0.0
 11
782.834269
 21
235.547309
 31
0.0
  0
LINE
  5
253
100
AcDbEntity
  8
002
 62
     3
100
AcDbLine
 10
673.882269
 20
185.547309
 30
0.0
 11
673.882269
 21
100.547309
 31
0.0
  0
LINE
  5
254
100
AcDbEntity
  8
002
 62
     3
100
AcDbLine
 10
670.882269
 20
100.547309
 30
0.0
 11
670.882269
 21
83.547309
 31
0.0
  0
ARC
  5
255
100
AcDbEntity
  8
002
 62
     3
100
AcDbCircle
 10
673.882269
 20
83.547309
 30
0.0
 40
3.0
100
AcDbArc
 50
180.0
 51
270.0
  0
LINE
  5
256
100
AcDbEntity
  8
002
 62
     3
100
AcDbLine
 10
673.882269
 20
80.547309
 30
0.0
 11
711.882269
 21
80.547309
 31
0.0
  0
ARC
  5
257
100
AcDbEntity
  8
002
 62
     3
100
AcDbCircle
 10
711.882269
 20
83.547309
 30
0.0
 40
3.0
100
AcDbArc
 50
270.0
 51
0.0
  0
LINE
  5
258
100
AcDbEntity
  8
002
 62
     3
100
AcDbLine
 10
714.882269
 20
83.547309
 30
0.0
 11
714.882269
 21
100.547309
 31
0.0
  0
LINE
  5
259
100
AcDbEntity
  8
002
 62
     3
100
AcDbLine
 10
714.882269
 20
100.547309
 30
0.0
 11
670.882269
 21
100.547309
 31
0.0
  0
LINE
  5
25A
100
AcDbEntity
  8
002
 62
     3
100
AcDbLine
 10
711.882269
 20
100.547309
 30
0.0
 11
711.882269
 21
185.547309
 31
0.0
  0
LINE
  5
25B
100
AcDbEntity
  8
002
 62
     3
100
AcDbLine
 10
658.334269
 20
248.547309
 30
0.0
 11
658.334269
 21
235.547309
 31
0.0
  0
LINE
  5
25C
100
AcDbEntity
  8
002
 62
     3
100
AcDbLine
 10
764.334269
 20
235.547309
 30
0.0
 11
764.334269
 21
248.547309
 31
0.0
  0
LINE
  5
25D
100
AcDbEntity
  8
002
  6
CENTER
 62
     9
100
AcDbLine
 10
692.882269
 20
545.247309
 30
0.0
 11
692.882269
 21
65.547309
 31
0.0
  0
LINE
  5
25E
100
AcDbEntity
  8
002
 62
     3
100
AcDbLine
 10
927.215417
 20
441.547309
 30
0.0
 11
882.215417
 21
441.547309
 31
0.0
  0
LINE
  5
25F
100
AcDbEntity
  8
002
 62
     3
100
AcDbLine
 10
882.215417
 20
441.547309
 30
0.0
 11
880.836417
 21
398.451309
 31
0.0
  0
ARC
  5
260
100
AcDbEntity
  8
002
 62
     3
100
AcDbCircle
 10
877.837417
 20
398.547309
 30
0.0
 40
3.0
100
AcDbArc
 50
270.0
 51
358.16655
  0
LINE
  5
261
100
AcDbEntity
  8
002
 62
     3
100
AcDbLine
 10
878.965417
 20
395.767409
 30
0.0
 11
878.965417
 21
400.547309
 31
0.0
  0
LINE
  5
262
100
AcDbEntity
  8
002
 62
     3
100
AcDbLine
 10
870.465417
 20
400.547309
 30
0.0
 11
870.465417
 21
395.547309
 31
0.0
  0
LINE
  5
263
100
AcDbEntity
  8
002
 62
     3
100
AcDbLine
 10
867.215417
 20
395.547309
 30
0.0
 11
942.215417
 21
395.547309
 31
0.0
  0
LINE
  5
264
100
AcDbEntity
  8
002
 62
     3
100
AcDbLine
 10
942.215417
 20
395.547309
 30
0.0
 11
942.215417
 21
391.547309
 31
0.0
  0
LINE
  5
265
100
AcDbEntity
  8
002
 62
     3
100
AcDbLine
 10
942.715417
 20
391.547309
 30
0.0
 11
942.715417
 21
327.340609
 31
0.0
  0
LINE
  5
266
100
AcDbEntity
  8
002
 62
     3
100
AcDbLine
 10
942.816417
 20
333.547309
 30
0.0
 11
942.816417
 21
325.547309
 31
0.0
  0
LINE
  5
267
100
AcDbEntity
  8
002
 62
     3
100
AcDbLine
 10
942.816417
 20
327.340609
 30
0.0
 11
911.215417
 21
327.340609
 31
0.0
  0
LINE
  5
268
100
AcDbEntity
  8
002
 62
     3
100
AcDbLine
 10
911.215417
 20
325.547309
 30
0.0
 11
911.215417
 21
333.547309
 31
0.0
  0
LINE
  5
269
100
AcDbEntity
  8
002
 62
     3
100
AcDbLine
 10
898.215417
 20
333.547309
 30
0.0
 11
898.215417
 21
325.547309
 31
0.0
  0
LINE
  5
26A
100
AcDbEntity
  8
002
 62
     3
100
AcDbLine
 10
898.215417
 20
327.340609
 30
0.0
 11
866.615417
 21
327.340609
 31
0.0
  0
LINE
  5
26B
100
AcDbEntity
  8
002
 62
     3
100
AcDbLine
 10
866.615417
 20
325.547309
 30
0.0
 11
866.615417
 21
333.547309
 31
0.0
  0
LINE
  5
26C
100
AcDbEntity
  8
002
 62
     3
100
AcDbLine
 10
853.615417
 20
333.547309
 30
0.0
 11
866.615417
 21
333.547309
 31
0.0
  0
LINE
  5
26D
100
AcDbEntity
  8
002
 62
     3
100
AcDbLine
 10
866.715417
 20
327.340609
 30
0.0
 11
866.715417
 21
391.547309
 31
0.0
  0
LINE
  5
26E
100
AcDbEntity
  8
002
 62
     3
100
AcDbLine
 10
866.715417
 20
391.547309
 30
0.0
 11
942.715417
 21
391.547309
 31
0.0
  0
LINE
  5
26F
100
AcDbEntity
  8
002
 62
     3
100
AcDbLine
 10
938.965417
 20
395.547309
 30
0.0
 11
938.965417
 21
400.547309
 31
0.0
  0
LINE
  5
270
100
AcDbEntity
  8
002
 62
     3
100
AcDbLine
 10
938.965417
 20
400.547309
 30
0.0
 11
930.465417
 21
400.547309
 31
0.0
  0
LINE
  5
271
100
AcDbEntity
  8
002
 62
     3
100
AcDbLine
 10
930.465417
 20
400.547309
 30
0.0
 11
930.465417
 21
395.767409
 31
0.0
  0
ARC
  5
272
100
AcDbEntity
  8
002
 62
     3
100
AcDbCircle
 10
931.593417
 20
398.547309
 30
0.0
 40
2.999537
100
AcDbArc
 50
181.834061
 51
270.0
  0
LINE
  5
273
100
AcDbEntity
  8
002
 62
     3
100
AcDbLine
 10
928.595417
 20
398.451309
 30
0.0
 11
927.215417
 21
441.547309
 31
0.0
  0
LINE
  5
274
100
AcDbEntity
  8
002
 62
     3
100
AcDbLine
 10
878.965417
 20
400.547309
 30
0.0
 11
870.465417
 21
400.547309
 31
0.0
  0
LINE
  5
275
100
AcDbEntity
  8
002
 62
     3
100
AcDbLine
 10
867.215417
 20
395.547309
 30
0.0
 11
867.215417
 21
391.547309
 31
0.0
  0
LINE
  5
276
100
AcDbEntity
  8
002
 62
     3
100
AcDbLine
 10
900.465417
 20
395.547309
 30
0.0
 11
900.465417
 21
400.547309
 31
0.0
  0
LINE
  5
277
100
AcDbEntity
  8
002
 62
     3
100
AcDbLine
 10
900.465417
 20
400.547309
 30
0.0
 11
908.965417
 21
400.547309
 31
0.0
  0
LINE
  5
278
100
AcDbEntity
  8
002
 62
     3
100
AcDbLine
 10
908.965417
 20
400.547309
 30
0.0
 11
908.965417
 21
395.547309
 31
0.0
  0
LINE
  5
279
100
AcDbEntity
  8
002
 62
     3
100
AcDbLine
 10
907.602417
 20
376.547309
 30
0.0
 11
910.489417
 21
371.547309
 31
0.0
  0
LINE
  5
27A
100
AcDbEntity
  8
002
 62
     3
100
AcDbLine
 10
910.489417
 20
371.547309
 30
0.0
 11
907.602417
 21
366.547309
 31
0.0
  0
LINE
  5
27B
100
AcDbEntity
  8
002
 62
     3
100
AcDbLine
 10
907.602417
 20
366.547309
 30
0.0
 11
901.829417
 21
366.547309
 31
0.0
  0
LINE
  5
27C
100
AcDbEntity
  8
002
 62
     3
100
AcDbLine
 10
901.829417
 20
366.547309
 30
0.0
 11
898.942417
 21
371.547309
 31
0.0
  0
LINE
  5
27D
100
AcDbEntity
  8
002
 62
     3
100
AcDbLine
 10
898.942417
 20
371.547309
 30
0.0
 11
901.829417
 21
376.547309
 31
0.0
  0
LINE
  5
27E
100
AcDbEntity
  8
002
 62
     3
100
AcDbLine
 10
901.829417
 20
376.547309
 30
0.0
 11
907.602417
 21
376.547309
 31
0.0
  0
CIRCLE
  5
27F
100
AcDbEntity
  8
002
 62
     3
100
AcDbCircle
 10
904.715417
 20
371.547309
 30
0.0
 40
0.75
  0
CIRCLE
  5
280
100
AcDbEntity
  8
002
 62
     3
100
AcDbCircle
 10
904.715417
 20
371.547309
 30
0.0
 40
2.5
  0
CIRCLE
  5
281
100
AcDbEntity
  8
002
 62
     3
100
AcDbCircle
 10
904.715417
 20
371.547309
 30
0.0
 40
3.25
  0
CIRCLE
  5
282
100
AcDbEntity
  8
002
 62
     3
100
AcDbCircle
 10
904.715417
 20
371.547309
 30
0.0
 40
5.0
  0
LINE
  5
283
100
AcDbEntity
  8
002
 62
     3
100
AcDbLine
 10
898.215417
 20
333.547309
 30
0.0
 11
911.215417
 21
333.547309
 31
0.0
  0
LINE
  5
284
100
AcDbEntity
  8
002
 62
     3
100
AcDbLine
 10
924.167417
 20
310.547309
 30
0.0
 11
974.167417
 21
310.547309
 31
0.0
  0
ARC
  5
285
100
AcDbEntity
  8
002
 62
     3
100
AcDbCircle
 10
974.167417
 20
305.547309
 30
0.0
 40
5.0
100
AcDbArc
 50
0.0
 51
90.0
  0
LINE
  5
286
100
AcDbEntity
  8
002
 62
     3
100
AcDbLine
 10
979.167417
 20
305.547309
 30
0.0
 11
979.167417
 21
255.547309
 31
0.0
  0
ARC
  5
287
100
AcDbEntity
  8
002
 62
     3
100
AcDbCircle
 10
974.167417
 20
255.547309
 30
0.0
 40
5.0
100
AcDbArc
 50
270.0
 51
0.0
  0
LINE
  5
288
100
AcDbEntity
  8
002
 62
     3
100
AcDbLine
 10
974.167417
 20
250.547309
 30
0.0
 11
924.167417
 21
250.547309
 31
0.0
  0
ARC
  5
289
100
AcDbEntity
  8
002
 62
     3
100
AcDbCircle
 10
924.167417
 20
255.547309
 30
0.0
 40
5.0
100
AcDbArc
 50
180.0
 51
270.0
  0
LINE
  5
28A
100
AcDbEntity
  8
002
 62
     3
100
AcDbLine
 10
919.167417
 20
255.547309
 30
0.0
 11
919.167417
 21
305.547309
 31
0.0
  0
ARC
  5
28B
100
AcDbEntity
  8
002
 62
     3
100
AcDbCircle
 10
924.167417
 20
305.547309
 30
0.0
 40
5.0
100
AcDbArc
 50
90.0
 51
180.0
  0
LINE
  5
28C
100
AcDbEntity
  8
002
 62
     3
100
AcDbLine
 10
927.167417
 20
307.547309
 30
0.0
 11
971.167417
 21
307.547309
 31
0.0
  0
ARC
  5
28D
100
AcDbEntity
  8
002
 62
     3
100
AcDbCircle
 10
971.167417
 20
302.547309
 30
0.0
 40
5.0
100
AcDbArc
 50
0.0
 51
90.0
  0
LINE
  5
28E
100
AcDbEntity
  8
002
 62
     3
100
AcDbLine
 10
976.167417
 20
305.547309
 30
0.0
 11
976.167417
 21
255.547309
 31
0.0
  0
ARC
  5
28F
100
AcDbEntity
  8
002
 62
     3
100
AcDbCircle
 10
971.167417
 20
255.547309
 30
0.0
 40
5.0
100
AcDbArc
 50
270.0
 51
0.0
  0
LINE
  5
290
100
AcDbEntity
  8
002
 62
     3
100
AcDbLine
 10
971.167417
 20
253.547309
 30
0.0
 11
927.167417
 21
253.547309
 31
0.0
  0
ARC
  5
291
100
AcDbEntity
  8
002
 62
     3
100
AcDbCircle
 10
927.167417
 20
258.547309
 30
0.0
 40
5.0
100
AcDbArc
 50
180.0
 51
270.0
  0
LINE
  5
292
100
AcDbEntity
  8
002
 62
     3
100
AcDbLine
 10
922.167417
 20
258.547309
 30
0.0
 11
922.167417
 21
302.547309
 31
0.0
  0
ARC
  5
293
100
AcDbEntity
  8
002
 62
     3
100
AcDbCircle
 10
927.167417
 20
302.547309
 30
0.0
 40
5.0
100
AcDbArc
 50
90.0
 51
180.0
  0
LINE
  5
294
100
AcDbEntity
  8
002
 62
     3
100
AcDbLine
 10
928.771417
 20
302.577009
 30
0.0
 11
927.138417
 21
300.944009
 31
0.0
  0
LINE
  5
295
100
AcDbEntity
  8
002
 62
     3
100
AcDbLine
 10
927.138417
 20
300.944009
 30
0.0
 11
927.735417
 21
298.713309
 31
0.0
  0
LINE
  5
296
100
AcDbEntity
  8
002
 62
     3
100
AcDbLine
 10
927.735417
 20
298.713309
 30
0.0
 11
929.966417
 21
298.115609
 31
0.0
  0
LINE
  5
297
100
AcDbEntity
  8
002
 62
     3
100
AcDbLine
 10
929.966417
 20
298.115609
 30
0.0
 11
931.599417
 21
299.748509
 31
0.0
  0
LINE
  5
298
100
AcDbEntity
  8
002
 62
     3
100
AcDbLine
 10
931.599417
 20
299.748509
 30
0.0
 11
931.001417
 21
301.979309
 31
0.0
  0
LINE
  5
299
100
AcDbEntity
  8
002
 62
     3
100
AcDbLine
 10
931.001417
 20
301.979309
 30
0.0
 11
928.771417
 21
302.577009
 31
0.0
  0
CIRCLE
  5
29A
100
AcDbEntity
  8
002
 62
     3
100
AcDbCircle
 10
929.368417
 20
300.346309
 30
0.0
 40
4.25
  0
LINE
  5
29B
100
AcDbEntity
  8
002
 62
     3
100
AcDbLine
 10
919.167417
 20
297.547309
 30
0.0
 11
848.167417
 21
297.547309
 31
0.0
  0
ARC
  5
29C
100
AcDbEntity
  8
002
 62
     3
100
AcDbCircle
 10
846.715417
 20
293.823909
 30
0.0
 40
3.0
100
AcDbArc
 50
0.0
 51
67.97587
  0
LINE
  5
29D
100
AcDbEntity
  8
002
 62
     3
100
AcDbLine
 10
849.715417
 20
293.823909
 30
0.0
 11
849.715417
 21
265.547309
 31
0.0
  0
LINE
  5
29E
100
AcDbEntity
  8
002
 62
     3
100
AcDbLine
 10
849.715417
 20
265.547309
 30
0.0
 11
854.009417
 21
264.396709
 31
0.0
  0
ARC
  5
29F
100
AcDbEntity
  8
002
 62
     3
100
AcDbCircle
 10
852.715417
 20
259.567009
 30
0.0
 40
5.0
100
AcDbArc
 50
0.0
 51
75.001264
  0
LINE
  5
2A0
100
AcDbEntity
  8
002
 62
     3
100
AcDbLine
 10
857.715417
 20
248.547309
 30
0.0
 11
857.715417
 21
291.331509
 31
0.0
  0
LINE
  5
2A1
100
AcDbEntity
  8
002
 62
     3
100
AcDbLine
 10
857.715417
 20
293.547309
 30
0.0
 11
893.715417
 21
293.547309
 31
0.0
  0
ARC
  5
2A2
100
AcDbEntity
  8
002
 62
     3
100
AcDbCircle
 10
893.715417
 20
290.547309
 30
0.0
 40
3.0
100
AcDbArc
 50
0.0
 51
90.0
  0
LINE
  5
2A3
100
AcDbEntity
  8
002
 62
     3
100
AcDbLine
 10
896.715417
 20
291.470309
 30
0.0
 11
896.715417
 21
280.547309
 31
0.0
  0
CIRCLE
  5
2A4
100
AcDbEntity
  8
002
 62
     3
100
AcDbCircle
 10
904.715417
 20
280.547309
 30
0.0
 40
5.0
  0
CIRCLE
  5
2A5
100
AcDbEntity
  8
002
 62
     3
100
AcDbCircle
 10
904.715417
 20
280.547309
 30
0.0
 40
3.25
  0
CIRCLE
  5
2A6
100
AcDbEntity
  8
002
 62
     3
100
AcDbCircle
 10
904.715417
 20
280.547309
 30
0.0
 40
2.5
  0
CIRCLE
  5
2A7
100
AcDbEntity
  8
002
 62
     3
100
AcDbCircle
 10
904.715417
 20
280.547309
 30
0.0
 40
0.75
  0
LINE
  5
2A8
100
AcDbEntity
  8
002
 62
     3
100
AcDbLine
 10
899.715417
 20
283.434009
 30
0.0
 11
904.715417
 21
286.320809
 31
0.0
  0
LINE
  5
2A9
100
AcDbEntity
  8
002
 62
     3
100
AcDbLine
 10
904.715417
 20
286.320809
 30
0.0
 11
909.715417
 21
283.434009
 31
0.0
  0
LINE
  5
2AA
100
AcDbEntity
  8
002
 62
     3
100
AcDbLine
 10
909.715417
 20
283.434009
 30
0.0
 11
909.715417
 21
277.660509
 31
0.0
  0
LINE
  5
2AB
100
AcDbEntity
  8
002
 62
     3
100
AcDbLine
 10
909.715417
 20
277.660509
 30
0.0
 11
904.715417
 21
274.773809
 31
0.0
  0
LINE
  5
2AC
100
AcDbEntity
  8
002
 62
     3
100
AcDbLine
 10
904.715417
 20
274.773809
 30
0.0
 11
899.715417
 21
277.660509
 31
0.0
  0
LINE
  5
2AD
100
AcDbEntity
  8
002
 62
     3
100
AcDbLine
 10
899.715417
 20
277.660509
 30
0.0
 11
899.715417
 21
283.434009
 31
0.0
  0
LINE
  5
2AE
100
AcDbEntity
  8
002
 62
     3
100
AcDbLine
 10
893.715417
 20
294.470309
 30
0.0
 11
893.602417
 21
294.470309
 31
0.0
  0
ARC
  5
2AF
100
AcDbEntity
  8
002
 62
     3
100
AcDbCircle
 10
893.715417
 20
291.470309
 30
0.0
 40
3.0
100
AcDbArc
 50
0.0
 51
90.0
  0
LINE
  5
2B0
100
AcDbEntity
  8
002
 62
     3
100
AcDbLine
 10
912.715417
 20
291.470309
 30
0.0
 11
912.715417
 21
280.547309
 31
0.0
  0
ARC
  5
2B1
100
AcDbEntity
  8
002
 62
     3
100
AcDbCircle
 10
904.715417
 20
280.547309
 30
0.0
 40
8.0
100
AcDbArc
 50
180.0
 51
0.0
  0
ARC
  5
2B2
100
AcDbEntity
  8
002
 62
     3
100
AcDbCircle
 10
915.715417
 20
290.547309
 30
0.0
 40
3.0
100
AcDbArc
 50
90.0
 51
180.0
  0
LINE
  5
2B3
100
AcDbEntity
  8
002
 62
     3
100
AcDbLine
 10
915.715417
 20
293.547309
 30
0.0
 11
919.167417
 21
293.547309
 31
0.0
  0
LINE
  5
2B4
100
AcDbEntity
  8
002
 62
     3
100
AcDbLine
 10
915.829417
 20
294.470309
 30
0.0
 11
915.715417
 21
294.470309
 31
0.0
  0
ARC
  5
2B5
100
AcDbEntity
  8
002
 62
     3
100
AcDbCircle
 10
915.715417
 20
291.470309
 30
0.0
 40
3.0
100
AcDbArc
 50
90.0
 51
180.0
  0
CIRCLE
  5
2B6
100
AcDbEntity
  8
002
 62
     3
100
AcDbCircle
 10
949.167417
 20
280.547309
 30
0.0
 40
21.0
  0
CIRCLE
  5
2B7
100
AcDbEntity
  8
002
 62
     3
100
AcDbCircle
 10
949.167417
 20
280.547309
 30
0.0
 40
13.0
  0
LINE
  5
2B8
100
AcDbEntity
  8
002
 62
     3
100
AcDbLine
 10
946.667417
 20
285.447309
 30
0.0
 11
946.667417
 21
289.647309
 31
0.0
  0
LINE
  5
2B9
100
AcDbEntity
  8
002
 62
     3
100
AcDbLine
 10
946.667417
 20
289.647309
 30
0.0
 11
947.067417
 21
290.047309
 31
0.0
  0
LINE
  5
2BA
100
AcDbEntity
  8
002
 62
     3
100
AcDbLine
 10
947.067417
 20
290.047309
 30
0.0
 11
951.267417
 21
290.047309
 31
0.0
  0
LINE
  5
2BB
100
AcDbEntity
  8
002
 62
     3
100
AcDbLine
 10
951.267417
 20
290.047309
 30
0.0
 11
951.667417
 21
289.647309
 31
0.0
  0
LINE
  5
2BC
100
AcDbEntity
  8
002
 62
     3
100
AcDbLine
 10
951.667417
 20
289.647309
 30
0.0
 11
951.667417
 21
285.447309
 31
0.0
  0
LINE
  5
2BD
100
AcDbEntity
  8
002
 62
     3
100
AcDbLine
 10
951.667417
 20
285.447309
 30
0.0
 11
951.267417
 21
285.047309
 31
0.0
  0
LINE
  5
2BE
100
AcDbEntity
  8
002
 62
     3
100
AcDbLine
 10
951.267417
 20
285.047309
 30
0.0
 11
947.067417
 21
285.047309
 31
0.0
  0
LINE
  5
2BF
100
AcDbEntity
  8
002
 62
     3
100
AcDbLine
 10
947.067417
 20
285.047309
 30
0.0
 11
946.667417
 21
285.447309
 31
0.0
  0
ARC
  5
2C0
100
AcDbEntity
  8
002
 62
     3
100
AcDbCircle
 10
947.067417
 20
285.447309
 30
0.0
 40
0.4
100
AcDbArc
 50
180.0
 51
270.0
  0
ARC
  5
2C1
100
AcDbEntity
  8
002
 62
     3
100
AcDbCircle
 10
951.267417
 20
285.447309
 30
0.0
 40
0.4
100
AcDbArc
 50
270.0
 51
0.0
  0
ARC
  5
2C2
100
AcDbEntity
  8
002
 62
     3
100
AcDbCircle
 10
949.167417
 20
280.547309
 30
0.0
 40
7.499936
100
AcDbArc
 50
109.471393
 51
70.528607
  0
ARC
  5
2C3
100
AcDbEntity
  8
002
 62
     3
100
AcDbCircle
 10
949.167417
 20
280.547309
 30
0.0
 40
7.99996
100
AcDbArc
 50
108.210051
 51
71.789949
  0
CIRCLE
  5
2C4
100
AcDbEntity
  8
002
 62
     3
100
AcDbCircle
 10
968.966417
 20
300.346309
 30
0.0
 40
4.25
  0
LINE
  5
2C5
100
AcDbEntity
  8
002
 62
     3
100
AcDbLine
 10
966.736417
 20
299.748509
 30
0.0
 11
967.333417
 21
301.979309
 31
0.0
  0
LINE
  5
2C6
100
AcDbEntity
  8
002
 62
     3
100
AcDbLine
 10
967.333417
 20
301.979309
 30
0.0
 11
969.564417
 21
302.577009
 31
0.0
  0
LINE
  5
2C7
100
AcDbEntity
  8
002
 62
     3
100
AcDbLine
 10
969.564417
 20
302.577009
 30
0.0
 11
971.197417
 21
300.944009
 31
0.0
  0
LINE
  5
2C8
100
AcDbEntity
  8
002
 62
     3
100
AcDbLine
 10
971.197417
 20
300.944009
 30
0.0
 11
970.599417
 21
298.713309
 31
0.0
  0
LINE
  5
2C9
100
AcDbEntity
  8
002
 62
     3
100
AcDbLine
 10
970.599417
 20
298.713309
 30
0.0
 11
968.369417
 21
298.115609
 31
0.0
  0
LINE
  5
2CA
100
AcDbEntity
  8
002
 62
     3
100
AcDbLine
 10
968.369417
 20
298.115609
 30
0.0
 11
966.736417
 21
299.748509
 31
0.0
  0
LINE
  5
2CB
100
AcDbEntity
  8
002
 62
     3
100
AcDbLine
 10
964.715417
 20
310.547309
 30
0.0
 11
964.715417
 21
325.547309
 31
0.0
  0
LINE
  5
2CC
100
AcDbEntity
  8
002
 62
     3
100
AcDbLine
 10
964.715417
 20
325.547309
 30
0.0
 11
844.715417
 21
325.547309
 31
0.0
  0
LINE
  5
2CD
100
AcDbEntity
  8
002
 62
     3
100
AcDbLine
 10
844.715417
 20
325.547309
 30
0.0
 11
844.715417
 21
301.240109
 31
0.0
  0
ARC
  5
2CE
100
AcDbEntity
  8
002
 62
     3
100
AcDbCircle
 10
849.715417
 20
301.240109
 30
0.0
 40
5.0
100
AcDbArc
 50
180.0
 51
252.901989
  0
LINE
  5
2CF
100
AcDbEntity
  8
002
 62
     3
100
AcDbLine
 10
848.245417
 20
296.461209
 30
0.0
 11
855.598417
 21
294.198909
 31
0.0
  0
ARC
  5
2D0
100
AcDbEntity
  8
002
 62
     3
100
AcDbCircle
 10
854.715417
 20
291.331509
 30
0.0
 40
3.0
100
AcDbArc
 50
0.0
 51
72.884073
  0
LINE
  5
2D1
100
AcDbEntity
  8
002
 62
     3
100
AcDbLine
 10
849.715417
 20
290.774809
 30
0.0
 11
841.715417
 21
291.024809
 31
0.0
  0
LINE
  5
2D2
100
AcDbEntity
  8
002
 62
     3
100
AcDbLine
 10
841.715417
 20
291.024809
 30
0.0
 11
841.715417
 21
270.069809
 31
0.0
  0
LINE
  5
2D3
100
AcDbEntity
  8
002
 62
     3
100
AcDbLine
 10
841.715417
 20
270.069809
 30
0.0
 11
849.715417
 21
270.319809
 31
0.0
  0
LINE
  5
2D4
100
AcDbEntity
  8
002
 62
     3
100
AcDbLine
 10
841.715417
 20
273.547309
 30
0.0
 11
831.715417
 21
274.047309
 31
0.0
  0
LINE
  5
2D5
100
AcDbEntity
  8
002
 62
     3
100
AcDbLine
 10
831.715417
 20
274.047309
 30
0.0
 11
831.715417
 21
287.047309
 31
0.0
  0
LINE
  5
2D6
100
AcDbEntity
  8
002
 62
     3
100
AcDbLine
 10
831.715417
 20
287.047309
 30
0.0
 11
841.715417
 21
287.547309
 31
0.0
  0
LINE
  5
2D7
100
AcDbEntity
  8
002
 62
     3
100
AcDbLine
 10
844.715417
 20
315.547309
 30
0.0
 11
964.715417
 21
315.547309
 31
0.0
  0
ARC
  5
2D8
100
AcDbEntity
  8
002
 62
     3
100
AcDbCircle
 10
971.167417
 20
305.547309
 30
0.0
 40
5.0
100
AcDbArc
 50
0.0
 51
90.0
  0
LINE
  5
2D9
100
AcDbEntity
  8
002
 62
     3
100
AcDbLine
 10
978.855417
 20
307.287809
 30
0.0
 11
1000.684417
 21
248.502409
 31
0.0
  0
LINE
  5
2DA
100
AcDbEntity
  8
002
 62
     3
100
AcDbLine
 10
1000.167417
 20
248.547309
 30
0.0
 11
846.167417
 21
248.547309
 31
0.0
  0
LINE
  5
2DB
100
AcDbEntity
  8
002
 62
     3
100
AcDbLine
 10
843.167417
 20
245.547309
 30
0.0
 11
843.167417
 21
235.547309
 31
0.0
  0
LINE
  5
2DC
100
AcDbEntity
  8
002
 62
     3
100
AcDbLine
 10
843.167417
 20
235.547309
 30
0.0
 11
1003.167417
 21
235.547309
 31
0.0
  0
LINE
  5
2DD
100
AcDbEntity
  8
002
 62
     3
100
AcDbLine
 10
1003.167417
 20
235.547309
 30
0.0
 11
1003.167417
 21
245.547309
 31
0.0
  0
ARC
  5
2DE
100
AcDbEntity
  8
002
 62
     3
100
AcDbCircle
 10
1000.167417
 20
245.547309
 30
0.0
 40
3.0
100
AcDbArc
 50
0.0
 51
90.0
  0
LINE
  5
2DF
100
AcDbEntity
  8
002
 62
     3
100
AcDbLine
 10
995.988417
 20
264.021209
 30
0.0
 11
983.456417
 21
297.769509
 31
0.0
  0
LINE
  5
2E0
100
AcDbEntity
  8
002
 62
     3
100
AcDbLine
 10
983.456417
 20
297.769509
 30
0.0
 11
982.518417
 21
297.421409
 31
0.0
  0
LINE
  5
2E1
100
AcDbEntity
  8
002
 62
     3
100
AcDbLine
 10
995.051417
 20
263.673109
 30
0.0
 11
995.988417
 21
264.021209
 31
0.0
  0
ARC
  5
2E2
100
AcDbEntity
  8
002
 62
     3
100
AcDbCircle
 10
971.167417
 20
258.547309
 30
0.0
 40
5.0
100
AcDbArc
 50
270.0
 51
0.0
  0
LINE
  5
2E3
100
AcDbEntity
  8
002
 62
     3
100
AcDbLine
 10
969.564417
 20
258.517609
 30
0.0
 11
971.197417
 21
260.150609
 31
0.0
  0
LINE
  5
2E4
100
AcDbEntity
  8
002
 62
     3
100
AcDbLine
 10
971.197417
 20
260.150609
 30
0.0
 11
970.599417
 21
262.381309
 31
0.0
  0
LINE
  5
2E5
100
AcDbEntity
  8
002
 62
     3
100
AcDbLine
 10
970.599417
 20
262.381309
 30
0.0
 11
968.369417
 21
262.979009
 31
0.0
  0
LINE
  5
2E6
100
AcDbEntity
  8
002
 62
     3
100
AcDbLine
 10
968.369417
 20
262.979009
 30
0.0
 11
966.736417
 21
261.346009
 31
0.0
  0
LINE
  5
2E7
100
AcDbEntity
  8
002
 62
     3
100
AcDbLine
 10
966.736417
 20
261.346009
 30
0.0
 11
967.333417
 21
259.115309
 31
0.0
  0
LINE
  5
2E8
100
AcDbEntity
  8
002
 62
     3
100
AcDbLine
 10
967.333417
 20
259.115309
 30
0.0
 11
969.564417
 21
258.517609
 31
0.0
  0
CIRCLE
  5
2E9
100
AcDbEntity
  8
002
 62
     3
100
AcDbCircle
 10
968.966417
 20
260.748309
 30
0.0
 40
4.25
  0
LINE
  5
2EA
100
AcDbEntity
  8
002
 62
     3
100
AcDbLine
 10
931.599417
 20
261.346009
 30
0.0
 11
931.001417
 21
259.115309
 31
0.0
  0
LINE
  5
2EB
100
AcDbEntity
  8
002
 62
     3
100
AcDbLine
 10
931.001417
 20
259.115309
 30
0.0
 11
928.771417
 21
258.517609
 31
0.0
  0
LINE
  5
2EC
100
AcDbEntity
  8
002
 62
     3
100
AcDbLine
 10
928.771417
 20
258.517609
 30
0.0
 11
927.138417
 21
260.150609
 31
0.0
  0
LINE
  5
2ED
100
AcDbEntity
  8
002
 62
     3
100
AcDbLine
 10
927.138417
 20
260.150609
 30
0.0
 11
927.735417
 21
262.381309
 31
0.0
  0
LINE
  5
2EE
100
AcDbEntity
  8
002
 62
     3
100
AcDbLine
 10
927.735417
 20
262.381309
 30
0.0
 11
929.966417
 21
262.979009
 31
0.0
  0
LINE
  5
2EF
100
AcDbEntity
  8
002
 62
     3
100
AcDbLine
 10
929.966417
 20
262.979009
 30
0.0
 11
931.599417
 21
261.346009
 31
0.0
  0
CIRCLE
  5
2F0
100
AcDbEntity
  8
002
 62
     3
100
AcDbCircle
 10
929.368417
 20
260.748309
 30
0.0
 40
4.25
  0
LINE
  5
2F1
100
AcDbEntity
  8
002
 62
     3
100
AcDbLine
 10
917.215417
 20
235.547309
 30
0.0
 11
917.215417
 21
117.547309
 31
0.0
  0
LINE
  5
2F2
100
AcDbEntity
  8
002
 62
     3
100
AcDbLine
 10
917.215417
 20
117.547309
 30
0.0
 11
892.215417
 21
117.547309
 31
0.0
  0
LINE
  5
2F3
100
AcDbEntity
  8
002
 62
     3
100
AcDbLine
 10
892.215417
 20
117.547309
 30
0.0
 11
892.215417
 21
235.547309
 31
0.0
  0
ARC
  5
2F4
100
AcDbEntity
  8
002
 62
     3
100
AcDbCircle
 10
846.167417
 20
245.547309
 30
0.0
 40
3.0
100
AcDbArc
 50
90.0
 51
180.0
  0
LINE
  5
2F5
100
AcDbEntity
  8
002
 62
     3
100
AcDbLine
 10
853.615417
 20
325.547309
 30
0.0
 11
853.615417
 21
333.547309
 31
0.0
  0
LINE
  5
2F6
100
AcDbEntity
  8
002
 62
     3
100
AcDbLine
 10
942.816417
 20
333.547309
 30
0.0
 11
955.816417
 21
333.547309
 31
0.0
  0
LINE
  5
2F7
100
AcDbEntity
  8
002
 62
     3
100
AcDbLine
 10
955.816417
 20
333.547309
 30
0.0
 11
955.816417
 21
325.547309
 31
0.0
  0
LINE
  5
2F8
100
AcDbEntity
  8
002
 62
     3
100
AcDbLine
 10
912.565417
 20
117.547209
 30
0.0
 11
912.565417
 21
114.547209
 31
0.0
  0
LINE
  5
2F9
100
AcDbEntity
  8
002
 62
     3
100
AcDbLine
 10
913.715417
 20
114.547209
 30
0.0
 11
913.715417
 21
95.547309
 31
0.0
  0
LINE
  5
2FA
100
AcDbEntity
  8
002
 62
     3
100
AcDbLine
 10
913.715417
 20
95.547309
 30
0.0
 11
895.715417
 21
95.547309
 31
0.0
  0
LINE
  5
2FB
100
AcDbEntity
  8
002
 62
     3
100
AcDbLine
 10
895.715417
 20
95.547309
 30
0.0
 11
895.715417
 21
114.547209
 31
0.0
  0
LINE
  5
2FC
100
AcDbEntity
  8
002
 62
     3
100
AcDbLine
 10
895.715417
 20
114.547309
 30
0.0
 11
913.715417
 21
114.547309
 31
0.0
  0
LINE
  5
2FD
100
AcDbEntity
  8
002
 62
     3
100
AcDbLine
 10
896.865417
 20
114.547209
 30
0.0
 11
896.865417
 21
117.547209
 31
0.0
  0
LINE
  5
2FE
100
AcDbEntity
  8
002
 62
     9
100
AcDbLine
 10
912.665417
 20
114.547209
 30
0.0
 11
912.665417
 21
95.547309
 31
0.0
  0
LINE
  5
2FF
100
AcDbEntity
  8
002
 62
     9
100
AcDbLine
 10
896.765417
 20
95.547309
 30
0.0
 11
896.765417
 21
114.547209
 31
0.0
  0
LINE
  5
300
100
AcDbEntity
  8
002
  6
CENTER
 62
     9
100
AcDbLine
 10
904.715417
 20
551.232249
 30
0.0
 11
904.715417
 21
92.472621
 31
0.0
  0
LINE
  5
301
100
AcDbEntity
  8
002
 62
     9
100
AcDbLine
 10
894.011417
 20
117.547209
 30
0.0
 11
894.011417
 21
235.547309
 31
0.0
  0
LINE
  5
302
100
AcDbEntity
  8
002
 62
     9
100
AcDbLine
 10
915.419417
 20
235.547309
 30
0.0
 11
915.419417
 21
117.547209
 31
0.0
  0
LINE
  5
303
100
AcDbEntity
  8
002
  6
CENTER
 62
     9
100
AcDbLine
 10
857.167417
 20
256.075509
 30
0.0
 11
857.167417
 21
228.146809
 31
0.0
  0
LINE
  5
304
100
AcDbEntity
  8
002
  6
CENTER
 62
     9
100
AcDbLine
 10
989.167417
 20
228.146809
 30
0.0
 11
989.167417
 21
256.075509
 31
0.0
  0
CIRCLE
  5
305
100
AcDbEntity
  8
002
  6
CENTER
 62
     9
100
AcDbCircle
 10
949.167417
 20
280.547309
 30
0.0
 40
28.0
  0
LINE
  5
306
100
AcDbEntity
  8
002
  6
CENTER
 62
     9
100
AcDbLine
 10
972.312417
 20
257.402309
 30
0.0
 11
965.532417
 21
264.182209
 31
0.0
  0
LINE
  5
307
100
AcDbEntity
  8
002
  6
CENTER
 62
     9
100
AcDbLine
 10
932.802417
 20
264.182209
 30
0.0
 11
926.022417
 21
257.402309
 31
0.0
  0
LINE
  5
308
100
AcDbEntity
  8
002
  6
CENTER
 62
     9
100
AcDbLine
 10
986.608417
 20
280.547309
 30
0.0
 11
828.788417
 21
280.547309
 31
0.0
  0
LINE
  5
309
100
AcDbEntity
  8
002
  6
CENTER
 62
     9
100
AcDbLine
 10
949.167417
 20
248.547309
 30
0.0
 11
949.167417
 21
312.296109
 31
0.0
  0
LINE
  5
30A
100
AcDbEntity
  8
002
  6
CENTER
 62
     9
100
AcDbLine
 10
965.532417
 20
296.912409
 30
0.0
 11
972.312417
 21
303.692309
 31
0.0
  0
LINE
  5
30B
100
AcDbEntity
  8
002
  6
CENTER
 62
     9
100
AcDbLine
 10
932.802417
 20
296.912409
 30
0.0
 11
926.022417
 21
303.692309
 31
0.0
  0
LINE
  5
30C
100
AcDbEntity
  8
002
  6
CENTER
 62
     9
100
AcDbLine
 10
949.315417
 20
309.158709
 30
0.0
 11
949.315417
 21
335.558709
 31
0.0
  0
LINE
  5
30D
100
AcDbEntity
  8
002
  6
CENTER
 62
     9
100
AcDbLine
 10
860.115417
 20
309.158709
 30
0.0
 11
860.115417
 21
335.558709
 31
0.0
  0
LINE
  5
30E
100
AcDbEntity
  8
002
 62
     9
100
AcDbLine
 10
831.715417
 20
287.047309
 30
0.0
 11
841.715417
 21
273.547309
 31
0.0
  0
LINE
  5
30F
100
AcDbEntity
  8
002
 62
     9
100
AcDbLine
 10
831.715417
 20
274.047309
 30
0.0
 11
841.715417
 21
287.547309
 31
0.0
  0
LINE
  5
310
100
AcDbEntity
  8
002
 62
     9
100
AcDbLine
 10
841.715417
 20
271.231809
 30
0.0
 11
849.715417
 21
271.481809
 31
0.0
  0
LINE
  5
311
100
AcDbEntity
  8
002
 62
     9
100
AcDbLine
 10
841.715417
 20
289.862809
 30
0.0
 11
849.715417
 21
289.612809
 31
0.0
  0
LINE
  5
312
100
AcDbEntity
  8
002
  6
CENTER
 62
     9
100
AcDbLine
 10
895.942417
 20
371.547309
 30
0.0
 11
913.116417
 21
371.547309
 31
0.0
  0
LINE
  5
313
100
AcDbEntity
  8
002
  6
CENTER
 62
     9
100
AcDbLine
 10
874.715417
 20
382.003009
 30
0.0
 11
874.715417
 21
401.974909
 31
0.0
  0
LINE
  5
314
100
AcDbEntity
  8
002
  6
CENTER
 62
     9
100
AcDbLine
 10
934.715417
 20
382.003009
 30
0.0
 11
934.715417
 21
401.974909
 31
0.0
  0
LINE
  5
315
100
AcDbEntity
  8
002
  6
HIDDEN
 62
     9
100
AcDbLine
 10
851.667417
 20
235.547309
 30
0.0
 11
851.667417
 21
248.547309
 31
0.0
  0
LINE
  5
316
100
AcDbEntity
  8
002
  6
HIDDEN
 62
     9
100
AcDbLine
 10
862.667417
 20
248.547309
 30
0.0
 11
862.667417
 21
235.547309
 31
0.0
  0
LINE
  5
317
100
AcDbEntity
  8
002
  6
HIDDEN
 62
     9
100
AcDbLine
 10
983.667417
 20
248.547309
 30
0.0
 11
983.667417
 21
235.547309
 31
0.0
  0
LINE
  5
318
100
AcDbEntity
  8
002
  6
HIDDEN
 62
     9
100
AcDbLine
 10
994.667417
 20
235.547309
 30
0.0
 11
994.667417
 21
248.547309
 31
0.0
  0
LINE
  5
319
100
AcDbEntity
  8
002
 62
     3
100
AcDbLine
 10
926.715417
 20
542.547309
 30
0.0
 11
926.715417
 21
525.547309
 31
0.0
  0
LINE
  5
31A
100
AcDbEntity
  8
002
 62
     3
100
AcDbLine
 10
926.715417
 20
525.547309
 30
0.0
 11
882.715417
 21
525.547309
 31
0.0
  0
LINE
  5
31B
100
AcDbEntity
  8
002
 62
     3
100
AcDbLine
 10
882.715417
 20
525.547309
 30
0.0
 11
882.715417
 21
542.547309
 31
0.0
  0
ARC
  5
31C
100
AcDbEntity
  8
002
 62
     3
100
AcDbCircle
 10
885.715417
 20
542.547309
 30
0.0
 40
3.0
100
AcDbArc
 50
90.0
 51
180.0
  0
LINE
  5
31D
100
AcDbEntity
  8
002
 62
     3
100
AcDbLine
 10
885.715417
 20
545.547309
 30
0.0
 11
923.715417
 21
545.547309
 31
0.0
  0
ARC
  5
31E
100
AcDbEntity
  8
002
 62
     3
100
AcDbCircle
 10
923.715417
 20
542.547309
 30
0.0
 40
3.0
100
AcDbArc
 50
0.0
 51
90.0
  0
LINE
  5
31F
100
AcDbEntity
  8
002
 62
     3
100
AcDbLine
 10
923.715417
 20
525.547309
 30
0.0
 11
923.715417
 21
441.547309
 31
0.0
  0
LINE
  5
320
100
AcDbEntity
  8
002
 62
     3
100
AcDbLine
 10
885.715417
 20
441.547309
 30
0.0
 11
885.715417
 21
525.547309
 31
0.0
  0
LINE
  5
321
100
AcDbEntity
  8
002
 62
     3
100
AcDbLine
 10
870.167417
 20
248.547309
 30
0.0
 11
870.167417
 21
235.547309
 31
0.0
  0
LINE
  5
322
100
AcDbEntity
  8
002
 62
     3
100
AcDbLine
 10
976.167417
 20
235.547309
 30
0.0
 11
976.167417
 21
248.547309
 31
0.0
  0
ARC
  5
323
100
AcDbEntity
  8
002
 62
     3
100
AcDbCircle
 10
275.51321
 20
891.122371
 30
0.0
 40
3.0
100
AcDbArc
 50
0.0
 51
90.0
  0
LINE
  5
324
100
AcDbEntity
  8
002
 62
     3
100
AcDbLine
 10
275.51321
 20
894.122371
 30
0.0
 11
257.49621
 21
894.122371
 31
0.0
  0
ARC
  5
325
100
AcDbEntity
  8
002
 62
     3
100
AcDbCircle
 10
257.49621
 20
891.122371
 30
0.0
 40
3.0
100
AcDbArc
 50
90.0
 51
180.0
  0
LINE
  5
326
100
AcDbEntity
  8
002
 62
     3
100
AcDbLine
 10
254.49621
 20
891.122371
 30
0.0
 11
254.49621
 21
889.928371
 31
0.0
  0
ARC
  5
327
100
AcDbEntity
  8
002
 62
     3
100
AcDbCircle
 10
264.49621
 20
881.622371
 30
0.0
 40
13.0
100
AcDbArc
 50
140.286978
 51
180.0
  0
LINE
  5
328
100
AcDbEntity
  8
002
 62
     3
100
AcDbLine
 10
251.49621
 20
881.622371
 30
0.0
 11
251.49621
 21
865.622371
 31
0.0
  0
LINE
  5
329
100
AcDbEntity
  8
002
 62
     3
100
AcDbLine
 10
251.49621
 20
865.622371
 30
0.0
 11
201.58471
 21
865.622371
 31
0.0
  0
LINE
  5
32A
100
AcDbEntity
  8
002
 62
     3
100
AcDbLine
 10
200.44771
 20
865.197371
 30
0.0
 11
200.44771
 21
860.622371
 31
0.0
  0
LINE
  5
32B
100
AcDbEntity
  8
002
 62
     3
100
AcDbLine
 10
208.94771
 20
860.622371
 30
0.0
 11
200.44771
 21
860.622371
 31
0.0
  0
LINE
  5
32C
100
AcDbEntity
  8
002
 62
     3
100
AcDbLine
 10
204.69771
 20
860.622371
 30
0.0
 11
204.69771
 21
858.622371
 31
0.0
  0
LINE
  5
32D
100
AcDbEntity
  8
002
 62
     3
100
AcDbLine
 10
204.69771
 20
858.622371
 30
0.0
 11
244.29521
 21
858.622371
 31
0.0
  0
LINE
  5
32E
100
AcDbEntity
  8
002
 62
     3
100
AcDbLine
 10
244.29521
 20
858.622371
 30
0.0
 11
244.29521
 21
860.622371
 31
0.0
  0
LINE
  5
32F
100
AcDbEntity
  8
002
 62
     3
100
AcDbLine
 10
248.54521
 20
860.622371
 30
0.0
 11
240.04521
 21
860.622371
 31
0.0
  0
LINE
  5
330
100
AcDbEntity
  8
002
 62
     3
100
AcDbLine
 10
248.54521
 20
860.622371
 30
0.0
 11
248.54521
 21
865.622371
 31
0.0
  0
LINE
  5
331
100
AcDbEntity
  8
002
 62
     3
100
AcDbLine
 10
251.49621
 20
870.622371
 30
0.0
 11
211.65071
 21
870.622371
 31
0.0
  0
LINE
  5
332
100
AcDbEntity
  8
002
 62
     3
100
AcDbLine
 10
208.94771
 20
865.622371
 30
0.0
 11
208.94771
 21
860.622371
 31
0.0
  0
LINE
  5
333
100
AcDbEntity
  8
002
 62
     3
100
AcDbLine
 10
231.99621
 20
856.622371
 30
0.0
 11
231.99621
 21
832.622071
 31
0.0
  0
LINE
  5
334
100
AcDbEntity
  8
002
 62
     3
100
AcDbLine
 10
231.99621
 20
832.622071
 30
0.0
 11
226.99621
 21
832.622071
 31
0.0
  0
LINE
  5
335
100
AcDbEntity
  8
002
 62
     3
100
AcDbLine
 10
226.99621
 20
831.622071
 30
0.0
 11
226.99621
 21
853.122371
 31
0.0
  0
LINE
  5
336
100
AcDbEntity
  8
002
 62
     3
100
AcDbLine
 10
226.99621
 20
853.122371
 30
0.0
 11
221.99621
 21
853.122371
 31
0.0
  0
LINE
  5
337
100
AcDbEntity
  8
002
 62
     3
100
AcDbLine
 10
221.99621
 20
853.122371
 30
0.0
 11
221.99621
 21
831.622071
 31
0.0
  0
LINE
  5
338
100
AcDbEntity
  8
002
 62
     3
100
AcDbLine
 10
221.99621
 20
832.622071
 30
0.0
 11
216.99621
 21
832.622071
 31
0.0
  0
LINE
  5
339
100
AcDbEntity
  8
002
 62
     3
100
AcDbLine
 10
216.99621
 20
832.622071
 30
0.0
 11
217.99621
 21
831.622071
 31
0.0
  0
LINE
  5
33A
100
AcDbEntity
  8
002
 62
     3
100
AcDbLine
 10
217.99621
 20
831.622071
 30
0.0
 11
230.99621
 21
831.622071
 31
0.0
  0
LINE
  5
33B
100
AcDbEntity
  8
002
 62
     3
100
AcDbLine
 10
230.99621
 20
831.622071
 30
0.0
 11
231.99621
 21
832.622071
 31
0.0
  0
LINE
  5
33C
100
AcDbEntity
  8
002
 62
     3
100
AcDbLine
 10
216.99621
 20
832.622071
 30
0.0
 11
216.99621
 21
856.622371
 31
0.0
  0
ARC
  5
33D
100
AcDbEntity
  8
002
 62
     3
100
AcDbCircle
 10
224.49621
 20
853.122371
 30
0.0
 40
2.5
100
AcDbArc
 50
0.0
 51
180.0
  0
LINE
  5
33E
100
AcDbEntity
  8
002
 62
     3
100
AcDbLine
 10
240.04521
 20
860.622371
 30
0.0
 11
240.04521
 21
865.622371
 31
0.0
  0
LINE
  5
33F
100
AcDbEntity
  8
002
 62
     3
100
AcDbLine
 10
251.49621
 20
872.622371
 30
0.0
 11
253.94241
 21
872.622371
 31
0.0
  0
ARC
  5
340
100
AcDbEntity
  8
002
 62
     3
100
AcDbCircle
 10
253.94241
 20
869.622371
 30
0.0
 40
3.0
100
AcDbArc
 50
49.402641
 51
90.0
  0
ARC
  5
341
100
AcDbEntity
  8
002
 62
     3
100
AcDbCircle
 10
264.81131
 20
882.303371
 30
0.0
 40
13.701834
100
AcDbArc
 50
229.399522
 51
357.151147
  0
LINE
  5
342
100
AcDbEntity
  8
002
 62
     3
100
AcDbLine
 10
278.49621
 20
881.622371
 30
0.0
 11
278.49621
 21
961.622371
 31
0.0
  0
ARC
  5
343
100
AcDbEntity
  8
002
 62
     3
100
AcDbCircle
 10
264.81131
 20
960.940371
 30
0.0
 40
13.702152
100
AcDbArc
 50
2.853029
 51
130.597757
  0
LINE
  5
344
100
AcDbEntity
  8
002
 62
     3
100
AcDbLine
 10
253.94241
 20
970.622371
 30
0.0
 11
251.49621
 21
970.622371
 31
0.0
  0
LINE
  5
345
100
AcDbEntity
  8
002
 62
     3
100
AcDbLine
 10
251.49621
 20
972.622371
 30
0.0
 11
211.65071
 21
972.622371
 31
0.0
  0
LINE
  5
346
100
AcDbEntity
  8
002
 62
     3
100
AcDbLine
 10
208.94771
 20
977.622371
 30
0.0
 11
208.94771
 21
982.622371
 31
0.0
  0
LINE
  5
347
100
AcDbEntity
  8
002
 62
     3
100
AcDbLine
 10
200.44771
 20
982.622371
 30
0.0
 11
208.94771
 21
982.622371
 31
0.0
  0
LINE
  5
348
100
AcDbEntity
  8
002
 62
     3
100
AcDbLine
 10
204.69771
 20
982.622371
 30
0.0
 11
204.69771
 21
984.622371
 31
0.0
  0
LINE
  5
349
100
AcDbEntity
  8
002
 62
     3
100
AcDbLine
 10
204.69771
 20
984.622371
 30
0.0
 11
244.29521
 21
984.622371
 31
0.0
  0
LINE
  5
34A
100
AcDbEntity
  8
002
 62
     3
100
AcDbLine
 10
244.29521
 20
984.622371
 30
0.0
 11
244.29521
 21
982.622371
 31
0.0
  0
LINE
  5
34B
100
AcDbEntity
  8
002
 62
     3
100
AcDbLine
 10
248.54521
 20
982.622371
 30
0.0
 11
240.04521
 21
982.622371
 31
0.0
  0
LINE
  5
34C
100
AcDbEntity
  8
002
 62
     3
100
AcDbLine
 10
248.54521
 20
982.622371
 30
0.0
 11
248.54521
 21
977.622371
 31
0.0
  0
LINE
  5
34D
100
AcDbEntity
  8
002
 62
     3
100
AcDbLine
 10
251.49621
 20
977.622371
 30
0.0
 11
251.49621
 21
961.622371
 31
0.0
  0
ARC
  5
34E
100
AcDbEntity
  8
002
 62
     3
100
AcDbCircle
 10
264.49621
 20
961.622371
 30
0.0
 40
13.00024
100
AcDbArc
 50
180.0
 51
219.716412
  0
LINE
  5
34F
100
AcDbEntity
  8
002
 62
     3
100
AcDbLine
 10
254.49621
 20
953.315371
 30
0.0
 11
254.49621
 21
952.122371
 31
0.0
  0
ARC
  5
350
100
AcDbEntity
  8
002
 62
     3
100
AcDbCircle
 10
257.49621
 20
952.122371
 30
0.0
 40
3.0
100
AcDbArc
 50
180.0
 51
270.0
  0
LINE
  5
351
100
AcDbEntity
  8
002
 62
     3
100
AcDbLine
 10
257.49621
 20
949.122371
 30
0.0
 11
275.51321
 21
949.122371
 31
0.0
  0
ARC
  5
352
100
AcDbEntity
  8
002
 62
     3
100
AcDbCircle
 10
275.51321
 20
952.122371
 30
0.0
 40
3.0
100
AcDbArc
 50
270.0
 51
0.0
  0
LINE
  5
353
100
AcDbEntity
  8
002
 62
     3
100
AcDbLine
 10
275.99621
 20
948.122371
 30
0.0
 11
275.99621
 21
895.122371
 31
0.0
  0
LINE
  5
354
100
AcDbEntity
  8
002
 62
     3
100
AcDbLine
 10
271.31681
 20
898.122371
 30
0.0
 11
271.31681
 21
945.122371
 31
0.0
  0
ARC
  5
355
100
AcDbEntity
  8
002
 62
     3
100
AcDbCircle
 10
268.31681
 20
945.122371
 30
0.0
 40
3.0
100
AcDbArc
 50
0.0
 51
90.0
  0
LINE
  5
356
100
AcDbEntity
  8
002
 62
     3
100
AcDbLine
 10
268.31681
 20
948.122371
 30
0.0
 11
260.84731
 21
948.122371
 31
0.0
  0
ARC
  5
357
100
AcDbEntity
  8
002
 62
     3
100
AcDbCircle
 10
260.84731
 20
945.122371
 30
0.0
 40
3.0
100
AcDbArc
 50
90.0
 51
180.0
  0
LINE
  5
358
100
AcDbEntity
  8
002
 62
     3
100
AcDbLine
 10
257.84731
 20
945.122371
 30
0.0
 11
257.84731
 21
898.122371
 31
0.0
  0
ARC
  5
359
100
AcDbEntity
  8
002
 62
     3
100
AcDbCircle
 10
260.84731
 20
898.122371
 30
0.0
 40
3.0
100
AcDbArc
 50
180.0
 51
270.0
  0
LINE
  5
35A
100
AcDbEntity
  8
002
 62
     3
100
AcDbLine
 10
261.78471
 20
895.122371
 30
0.0
 11
268.31681
 21
895.122371
 31
0.0
  0
ARC
  5
35B
100
AcDbEntity
  8
002
 62
     3
100
AcDbCircle
 10
268.31681
 20
898.122371
 30
0.0
 40
3.0
100
AcDbArc
 50
270.0
 51
0.0
  0
CIRCLE
  5
35C
100
AcDbEntity
  8
002
 62
     3
100
AcDbCircle
 10
264.49621
 20
881.622371
 30
0.0
 40
11.0
  0
CIRCLE
  5
35D
100
AcDbEntity
  8
002
 62
     3
100
AcDbCircle
 10
264.49621
 20
881.622371
 30
0.0
 40
5.5
  0
LINE
  5
35E
100
AcDbEntity
  8
002
 62
     3
100
AcDbLine
 10
254.49621
 20
894.122371
 30
0.0
 11
254.49621
 21
949.122371
 31
0.0
  0
LINE
  5
35F
100
AcDbEntity
  8
002
 62
     3
100
AcDbLine
 10
258.78471
 20
945.122371
 30
0.0
 11
258.78471
 21
898.122371
 31
0.0
  0
ARC
  5
360
100
AcDbEntity
  8
002
 62
     3
100
AcDbCircle
 10
261.78471
 20
898.122371
 30
0.0
 40
3.0
100
AcDbArc
 50
180.0
 51
270.0
  0
LINE
  5
361
100
AcDbEntity
  8
002
 62
     3
100
AcDbLine
 10
227.64451
 20
894.140371
 30
0.0
 11
227.64451
 21
897.604371
 31
0.0
  0
LINE
  5
362
100
AcDbEntity
  8
002
 62
     3
100
AcDbLine
 10
227.64451
 20
897.604371
 30
0.0
 11
224.64451
 21
899.336371
 31
0.0
  0
LINE
  5
363
100
AcDbEntity
  8
002
 62
     3
100
AcDbLine
 10
224.64451
 20
899.336371
 30
0.0
 11
221.64451
 21
897.604371
 31
0.0
  0
LINE
  5
364
100
AcDbEntity
  8
002
 62
     3
100
AcDbLine
 10
221.64451
 20
897.604371
 30
0.0
 11
221.64451
 21
894.140371
 31
0.0
  0
LINE
  5
365
100
AcDbEntity
  8
002
 62
     3
100
AcDbLine
 10
221.64451
 20
894.140371
 30
0.0
 11
224.64451
 21
892.408371
 31
0.0
  0
LINE
  5
366
100
AcDbEntity
  8
002
 62
     3
100
AcDbLine
 10
224.64451
 20
892.408371
 30
0.0
 11
227.64451
 21
894.140371
 31
0.0
  0
CIRCLE
  5
367
100
AcDbEntity
  8
002
 62
     3
100
AcDbCircle
 10
224.64451
 20
895.872371
 30
0.0
 40
6.5
  0
ARC
  5
368
100
AcDbEntity
  8
002
 62
     3
100
AcDbCircle
 10
180.04471
 20
973.122371
 30
0.0
 40
6.5
100
AcDbArc
 50
321.662297
 51
216.267127
  0
CIRCLE
  5
369
100
AcDbEntity
  8
002
 62
     3
100
AcDbCircle
 10
180.04471
 20
921.622371
 30
0.0
 40
60.0
  0
LINE
  5
36A
100
AcDbEntity
  8
002
 62
     3
100
AcDbLine
 10
200.44771
 20
982.622371
 30
0.0
 11
200.44771
 21
978.046371
 31
0.0
  0
LINE
  5
36B
100
AcDbEntity
  8
002
 62
     3
100
AcDbLine
 10
201.58471
 20
977.622371
 30
0.0
 11
251.49621
 21
977.622371
 31
0.0
  0
LINE
  5
36C
100
AcDbEntity
  8
002
 62
     3
100
AcDbLine
 10
240.04521
 20
982.622371
 30
0.0
 11
240.04521
 21
977.622371
 31
0.0
  0
LINE
  5
36D
100
AcDbEntity
  8
002
 62
     3
100
AcDbLine
 10
232.49621
 20
984.622371
 30
0.0
 11
232.49621
 21
986.622371
 31
0.0
  0
LINE
  5
36E
100
AcDbEntity
  8
002
 62
     3
100
AcDbLine
 10
232.49621
 20
986.622371
 30
0.0
 11
216.49621
 21
986.622371
 31
0.0
  0
LINE
  5
36F
100
AcDbEntity
  8
002
 62
     3
100
AcDbLine
 10
216.99621
 20
986.622371
 30
0.0
 11
216.99621
 21
1010.622371
 31
0.0
  0
LINE
  5
370
100
AcDbEntity
  8
002
 62
     3
100
AcDbLine
 10
216.99621
 20
1010.622371
 30
0.0
 11
217.99621
 21
1011.622371
 31
0.0
  0
LINE
  5
371
100
AcDbEntity
  8
002
 62
     3
100
AcDbLine
 10
217.99621
 20
1011.622371
 30
0.0
 11
230.99621
 21
1011.622371
 31
0.0
  0
LINE
  5
372
100
AcDbEntity
  8
002
 62
     3
100
AcDbLine
 10
230.99621
 20
1011.622371
 30
0.0
 11
231.99621
 21
1010.622371
 31
0.0
  0
LINE
  5
373
100
AcDbEntity
  8
002
 62
     3
100
AcDbLine
 10
231.99621
 20
1010.622371
 30
0.0
 11
231.99621
 21
986.622371
 31
0.0
  0
LINE
  5
374
100
AcDbEntity
  8
002
 62
     3
100
AcDbLine
 10
216.49621
 20
986.622371
 30
0.0
 11
216.49621
 21
984.622371
 31
0.0
  0
LINE
  5
375
100
AcDbEntity
  8
002
 62
     3
100
AcDbLine
 10
221.99621
 20
990.122371
 30
0.0
 11
221.99621
 21
1011.622371
 31
0.0
  0
LINE
  5
376
100
AcDbEntity
  8
002
 62
     3
100
AcDbLine
 10
221.99621
 20
1010.622371
 30
0.0
 11
216.99621
 21
1010.622371
 31
0.0
  0
LINE
  5
377
100
AcDbEntity
  8
002
 62
     3
100
AcDbLine
 10
226.99621
 20
1010.622371
 30
0.0
 11
231.99621
 21
1010.622371
 31
0.0
  0
LINE
  5
378
100
AcDbEntity
  8
002
 62
     3
100
AcDbLine
 10
226.99621
 20
1011.622371
 30
0.0
 11
226.99621
 21
990.122371
 31
0.0
  0
LINE
  5
379
100
AcDbEntity
  8
002
 62
     3
100
AcDbLine
 10
226.99621
 20
990.122371
 30
0.0
 11
221.99621
 21
990.122371
 31
0.0
  0
ARC
  5
37A
100
AcDbEntity
  8
002
 62
     3
100
AcDbCircle
 10
224.49621
 20
990.122371
 30
0.0
 40
2.5
100
AcDbArc
 50
180.0
 51
0.0
  0
ARC
  5
37B
100
AcDbEntity
  8
002
 62
     3
100
AcDbCircle
 10
253.94241
 20
973.622371
 30
0.0
 40
3.000127
100
AcDbArc
 50
270.0
 51
310.597359
  0
CIRCLE
  5
37C
100
AcDbEntity
  8
002
 62
     3
100
AcDbCircle
 10
264.49621
 20
961.622371
 30
0.0
 40
11.0
  0
CIRCLE
  5
37D
100
AcDbEntity
  8
002
 62
     3
100
AcDbCircle
 10
264.49621
 20
961.622371
 30
0.0
 40
5.5
  0
ARC
  5
37E
100
AcDbEntity
  8
002
 62
     3
100
AcDbCircle
 10
261.78471
 20
945.122371
 30
0.0
 40
3.0
100
AcDbArc
 50
90.0
 51
180.0
  0
LINE
  5
37F
100
AcDbEntity
  8
002
 62
     3
100
AcDbLine
 10
227.64451
 20
945.640371
 30
0.0
 11
227.64451
 21
949.104371
 31
0.0
  0
LINE
  5
380
100
AcDbEntity
  8
002
 62
     3
100
AcDbLine
 10
227.64451
 20
949.104371
 30
0.0
 11
224.64451
 21
950.836371
 31
0.0
  0
LINE
  5
381
100
AcDbEntity
  8
002
 62
     3
100
AcDbLine
 10
224.64451
 20
950.836371
 30
0.0
 11
221.64451
 21
949.104371
 31
0.0
  0
LINE
  5
382
100
AcDbEntity
  8
002
 62
     3
100
AcDbLine
 10
221.64451
 20
949.104371
 30
0.0
 11
221.64451
 21
945.640371
 31
0.0
  0
LINE
  5
383
100
AcDbEntity
  8
002
 62
     3
100
AcDbLine
 10
221.64451
 20
945.640371
 30
0.0
 11
224.64451
 21
943.908371
 31
0.0
  0
LINE
  5
384
100
AcDbEntity
  8
002
 62
     3
100
AcDbLine
 10
224.64451
 20
943.908371
 30
0.0
 11
227.64451
 21
945.640371
 31
0.0
  0
CIRCLE
  5
385
100
AcDbEntity
  8
002
 62
     3
100
AcDbCircle
 10
224.64451
 20
947.372371
 30
0.0
 40
6.5
  0
LINE
  5
386
100
AcDbEntity
  8
002
 62
     3
100
AcDbLine
 10
145.41771
 20
872.622371
 30
0.0
 11
143.07971
 21
872.622371
 31
0.0
  0
ARC
  5
387
100
AcDbEntity
  8
002
 62
     3
100
AcDbCircle
 10
143.07971
 20
869.622371
 30
0.0
 40
3.000454
100
AcDbArc
 50
90.0
 51
131.419454
  0
ARC
  5
388
100
AcDbEntity
  8
002
 62
     3
100
AcDbCircle
 10
132.49671
 20
881.622371
 30
0.0
 40
5.499511
100
AcDbArc
 50
104.875053
 51
335.266335
  0
LINE
  5
389
100
AcDbEntity
  8
002
 62
     3
100
AcDbLine
 10
135.44371
 20
892.408371
 30
0.0
 11
138.44371
 21
894.140371
 31
0.0
  0
LINE
  5
38A
100
AcDbEntity
  8
002
 62
     3
100
AcDbLine
 10
138.44371
 20
894.140371
 30
0.0
 11
138.44371
 21
897.604371
 31
0.0
  0
LINE
  5
38B
100
AcDbEntity
  8
002
 62
     3
100
AcDbLine
 10
138.44371
 20
897.604371
 30
0.0
 11
135.44371
 21
899.336371
 31
0.0
  0
LINE
  5
38C
100
AcDbEntity
  8
002
 62
     3
100
AcDbLine
 10
135.44371
 20
899.336371
 30
0.0
 11
132.44371
 21
897.604371
 31
0.0
  0
LINE
  5
38D
100
AcDbEntity
  8
002
 62
     3
100
AcDbLine
 10
132.44371
 20
897.604371
 30
0.0
 11
132.44371
 21
894.140371
 31
0.0
  0
LINE
  5
38E
100
AcDbEntity
  8
002
 62
     3
100
AcDbLine
 10
132.44371
 20
894.140371
 30
0.0
 11
135.44371
 21
892.408371
 31
0.0
  0
ARC
  5
38F
100
AcDbEntity
  8
002
 62
     3
100
AcDbCircle
 10
132.49671
 20
881.622371
 30
0.0
 40
10.999706
100
AcDbArc
 50
113.857244
 51
326.288262
  0
CIRCLE
  5
390
100
AcDbEntity
  8
002
 62
     3
100
AcDbCircle
 10
135.44371
 20
947.372371
 30
0.0
 40
6.5
  0
LINE
  5
391
100
AcDbEntity
  8
002
 62
     3
100
AcDbLine
 10
135.44371
 20
950.836371
 30
0.0
 11
132.44371
 21
949.104371
 31
0.0
  0
LINE
  5
392
100
AcDbEntity
  8
002
 62
     3
100
AcDbLine
 10
132.44371
 20
949.104371
 30
0.0
 11
132.44371
 21
945.640371
 31
0.0
  0
LINE
  5
393
100
AcDbEntity
  8
002
 62
     3
100
AcDbLine
 10
132.44371
 20
945.640371
 30
0.0
 11
135.44371
 21
943.908371
 31
0.0
  0
LINE
  5
394
100
AcDbEntity
  8
002
 62
     3
100
AcDbLine
 10
135.44371
 20
943.908371
 30
0.0
 11
138.44371
 21
945.640371
 31
0.0
  0
LINE
  5
395
100
AcDbEntity
  8
002
 62
     3
100
AcDbLine
 10
138.44371
 20
945.640371
 30
0.0
 11
138.44371
 21
949.104371
 31
0.0
  0
LINE
  5
396
100
AcDbEntity
  8
002
 62
     3
100
AcDbLine
 10
138.44371
 20
949.104371
 30
0.0
 11
135.44371
 21
950.836371
 31
0.0
  0
ARC
  5
397
100
AcDbEntity
  8
002
 62
     3
100
AcDbCircle
 10
132.49671
 20
961.622371
 30
0.0
 40
5.500327
100
AcDbArc
 50
24.724201
 51
255.124947
  0
ARC
  5
398
100
AcDbEntity
  8
002
 62
     3
100
AcDbCircle
 10
132.49671
 20
961.622371
 30
0.0
 40
11.000787
100
AcDbArc
 50
33.707404
 51
246.144863
  0
LINE
  5
399
100
AcDbEntity
  8
002
 62
     3
100
AcDbLine
 10
120.966521
 20
932.099371
 30
0.0
 11
117.04471
 21
932.099371
 31
0.0
  0
LINE
  5
39A
100
AcDbEntity
  8
002
 62
     3
100
AcDbLine
 10
117.04471
 20
932.099371
 30
0.0
 11
117.04471
 21
911.144371
 31
0.0
  0
LINE
  5
39B
100
AcDbEntity
  8
002
 62
     3
100
AcDbLine
 10
117.04471
 20
911.144371
 30
0.0
 11
120.966698
 21
911.144371
 31
0.0
  0
LINE
  5
39C
100
AcDbEntity
  8
002
 62
     3
100
AcDbLine
 10
117.04471
 20
914.622371
 30
0.0
 11
107.04471
 21
914.622371
 31
0.0
  0
LINE
  5
39D
100
AcDbEntity
  8
002
 62
     3
100
AcDbLine
 10
107.04471
 20
914.622371
 30
0.0
 11
107.04471
 21
928.622371
 31
0.0
  0
LINE
  5
39E
100
AcDbEntity
  8
002
 62
     3
100
AcDbLine
 10
107.04471
 20
928.622371
 30
0.0
 11
117.04471
 21
928.622371
 31
0.0
  0
CIRCLE
  5
39F
100
AcDbEntity
  8
002
 62
     3
100
AcDbCircle
 10
135.44371
 20
895.872371
 30
0.0
 40
6.5
  0
LINE
  5
3A0
100
AcDbEntity
  8
002
 62
     3
100
AcDbLine
 10
145.41771
 20
970.622371
 30
0.0
 11
143.07971
 21
970.622371
 31
0.0
  0
ARC
  5
3A1
100
AcDbEntity
  8
002
 62
     3
100
AcDbCircle
 10
143.07971
 20
973.622371
 30
0.0
 40
3.0
100
AcDbArc
 50
228.580546
 51
270.0
  0
ARC
  5
3A2
100
AcDbEntity
  8
002
 62
     3
100
AcDbCircle
 10
132.20071
 20
960.923371
 30
0.0
 40
13.721815
100
AcDbArc
 50
49.596172
 51
177.080044
  0
ARC
  5
3A3
100
AcDbEntity
  8
002
 62
     3
100
AcDbCircle
 10
132.20071
 20
882.321371
 30
0.0
 40
13.721692
100
AcDbArc
 50
182.919956
 51
310.403828
  0
CIRCLE
  5
3A4
100
AcDbEntity
  8
002
 62
     3
100
AcDbCircle
 10
180.04471
 20
921.622371
 30
0.0
 40
38.0
  0
CIRCLE
  5
3A5
100
AcDbEntity
  8
002
 62
     3
100
AcDbCircle
 10
180.04471
 20
921.622371
 30
0.0
 40
12.5
  0
CIRCLE
  5
3A6
100
AcDbEntity
  8
002
 62
     3
100
AcDbCircle
 10
180.04471
 20
921.622371
 30
0.0
 40
9.0
  0
LINE
  5
3A7
100
AcDbEntity
  8
002
  6
CENTER
 62
     9
100
AcDbLine
 10
285.278383
 20
921.622371
 30
0.0
 11
102.47471
 21
921.622371
 31
0.0
  0
LINE
  5
3A8
100
AcDbEntity
  8
002
  6
CENTER
 62
     9
100
AcDbLine
 10
180.04471
 20
990.123371
 30
0.0
 11
180.04471
 21
855.86663
 31
0.0
  0
CIRCLE
  5
3A9
100
AcDbEntity
  8
002
 62
     9
100
AcDbCircle
 10
180.04471
 20
921.622371
 30
0.0
 40
8.25
  0
LINE
  5
3AA
100
AcDbEntity
  8
002
  6
CENTER
 62
     9
100
AcDbLine
 10
216.85031
 20
900.372371
 30
0.0
 11
232.00581
 21
891.622371
 31
0.0
  0
CIRCLE
  5
3AB
100
AcDbEntity
  8
002
  6
CENTER
 62
     9
100
AcDbCircle
 10
180.04471
 20
921.622371
 30
0.0
 40
51.5
  0
LINE
  5
3AC
100
AcDbEntity
  8
002
  6
CENTER
 62
     9
100
AcDbLine
 10
216.85031
 20
942.872371
 30
0.0
 11
232.00581
 21
951.622371
 31
0.0
  0
LINE
  5
3AD
100
AcDbEntity
  8
002
  6
CENTER
 62
     9
100
AcDbLine
 10
143.23771
 20
942.872371
 30
0.0
 11
128.08271
 21
951.622371
 31
0.0
  0
LINE
  5
3AE
100
AcDbEntity
  8
002
  6
CENTER
 62
     9
100
AcDbLine
 10
142.25371
 20
881.622371
 30
0.0
 11
118.49671
 21
881.622371
 31
0.0
  0
LINE
  5
3AF
100
AcDbEntity
  8
002
  6
CENTER
 62
     9
100
AcDbLine
 10
132.49671
 20
891.519371
 30
0.0
 11
132.49671
 21
867.448371
 31
0.0
  0
LINE
  5
3B0
100
AcDbEntity
  8
002
  6
CENTER
 62
     9
100
AcDbLine
 10
128.08271
 20
891.622371
 30
0.0
 11
143.23771
 21
900.372371
 31
0.0
  0
LINE
  5
3B1
100
AcDbEntity
  8
002
  6
CENTER
 62
     9
100
AcDbLine
 10
132.49671
 20
951.724371
 30
0.0
 11
132.49671
 21
975.796371
 31
0.0
  0
LINE
  5
3B2
100
AcDbEntity
  8
002
  6
CENTER
 62
     9
100
AcDbLine
 10
142.25371
 20
961.622371
 30
0.0
 11
118.49671
 21
961.622371
 31
0.0
  0
LINE
  5
3B3
100
AcDbEntity
  8
002
 62
     9
100
AcDbLine
 10
107.04471
 20
928.622371
 30
0.0
 11
117.04471
 21
914.622371
 31
0.0
  0
LINE
  5
3B4
100
AcDbEntity
  8
002
 62
     9
100
AcDbLine
 10
107.04471
 20
914.622371
 30
0.0
 11
117.04471
 21
928.622371
 31
0.0
  0
LINE
  5
3B5
100
AcDbEntity
  8
002
 62
     9
100
AcDbLine
 10
117.04471
 20
912.306371
 30
0.0
 11
120.772355
 21
912.306371
 31
0.0
  0
LINE
  5
3B6
100
AcDbEntity
  8
002
 62
     9
100
AcDbLine
 10
117.04471
 20
930.937371
 30
0.0
 11
120.772197
 21
930.937371
 31
0.0
  0
LINE
  5
3B7
100
AcDbEntity
  8
002
  6
CENTER
 62
     9
100
AcDbLine
 10
224.49621
 20
824.236371
 30
0.0
 11
224.49621
 21
1018.972371
 31
0.0
  0
LINE
  5
3B8
100
AcDbEntity
  8
002
  6
CENTER
 62
     9
100
AcDbLine
 10
264.49621
 20
894.122371
 30
0.0
 11
264.49621
 21
866.941371
 31
0.0
  0
LINE
  5
3B9
100
AcDbEntity
  8
002
  6
CENTER
 62
     9
100
AcDbLine
 10
250.45221
 20
881.622371
 30
0.0
 11
280.52311
 21
881.622371
 31
0.0
  0
LINE
  5
3BA
100
AcDbEntity
  8
002
  6
CENTER
 62
     9
100
AcDbLine
 10
264.49621
 20
948.122371
 30
0.0
 11
264.49621
 21
975.861371
 31
0.0
  0
LINE
  5
3BB
100
AcDbEntity
  8
002
  6
CENTER
 62
     9
100
AcDbLine
 10
249.31561
 20
961.622371
 30
0.0
 11
280.47901
 21
961.622371
 31
0.0
  0
LINE
  5
3BC
100
AcDbEntity
  8
002
 62
     3
100
AcDbLine
 10
183.90621
 20
959.425662
 30
0.0
 11
183.90621
 21
960.622371
 31
0.0
  0
LINE
  5
3BD
100
AcDbEntity
  8
002
 62
     3
100
AcDbLine
 10
184.04471
 20
960.622371
 30
0.0
 11
185.04471
 21
961.622371
 31
0.0
  0
LINE
  5
3BE
100
AcDbEntity
  8
002
 62
     3
100
AcDbLine
 10
185.04471
 20
961.622371
 30
0.0
 11
185.04471
 21
964.622371
 31
0.0
  0
LINE
  5
3BF
100
AcDbEntity
  8
002
 62
     3
100
AcDbLine
 10
185.04471
 20
964.622371
 30
0.0
 11
182.90471
 21
967.535871
 31
0.0
  0
LINE
  5
3C0
100
AcDbEntity
  8
002
 62
     3
100
AcDbLine
 10
182.34221
 20
968.098371
 30
0.0
 11
177.74721
 21
968.098371
 31
0.0
  0
LINE
  5
3C1
100
AcDbEntity
  8
002
 62
     3
100
AcDbLine
 10
177.32561
 20
968.772971
 30
0.0
 11
176.79471
 21
969.622371
 31
0.0
  0
LINE
  5
3C2
100
AcDbEntity
  8
002
 62
     3
100
AcDbLine
 10
176.79471
 20
969.622371
 30
0.0
 11
177.54471
 21
972.622371
 31
0.0
  0
LINE
  5
3C3
100
AcDbEntity
  8
002
 62
     3
100
AcDbLine
 10
177.54471
 20
972.622371
 30
0.0
 11
182.54471
 21
972.622371
 31
0.0
  0
LINE
  5
3C4
100
AcDbEntity
  8
002
 62
     3
100
AcDbLine
 10
182.54471
 20
972.622371
 30
0.0
 11
183.29471
 21
969.622371
 31
0.0
  0
LINE
  5
3C5
100
AcDbEntity
  8
002
 62
     3
100
AcDbLine
 10
183.29471
 20
969.622371
 30
0.0
 11
182.76381
 21
968.772971
 31
0.0
  0
ARC
  5
3C6
100
AcDbEntity
  8
002
 62
     3
100
AcDbCircle
 10
183.61181
 20
968.242971
 30
0.0
 40
0.99999
100
AcDbArc
 50
147.994617
 51
225.0
  0
LINE
  5
3C7
100
AcDbEntity
  8
002
 62
     3
100
AcDbLine
 10
182.54471
 20
969.622371
 30
0.0
 11
177.54471
 21
969.622371
 31
0.0
  0
ARC
  5
3C8
100
AcDbEntity
  8
002
 62
     3
100
AcDbCircle
 10
176.47761
 20
968.242971
 30
0.0
 40
1.000002
100
AcDbArc
 50
315.0
 51
32.005383
  0
LINE
  5
3C9
100
AcDbEntity
  8
002
 62
     3
100
AcDbLine
 10
177.18471
 20
967.535871
 30
0.0
 11
175.04471
 21
964.622371
 31
0.0
  0
LINE
  5
3CA
100
AcDbEntity
  8
002
 62
     3
100
AcDbLine
 10
175.04471
 20
964.622371
 30
0.0
 11
175.04471
 21
961.622371
 31
0.0
  0
LINE
  5
3CB
100
AcDbEntity
  8
002
 62
     3
100
AcDbLine
 10
175.04471
 20
961.622371
 30
0.0
 11
176.04471
 21
960.622371
 31
0.0
  0
LINE
  5
3CC
100
AcDbEntity
  8
002
 62
     3
100
AcDbLine
 10
176.04471
 20
960.622371
 30
0.0
 11
184.04471
 21
960.622371
 31
0.0
  0
ARC
  5
3CD
100
AcDbEntity
  8
002
 62
     3
100
AcDbCircle
 10
182.54471
 20
961.997371
 30
0.0
 40
3.625
100
AcDbArc
 50
46.397181
 51
133.602819
  0
LINE
  5
3CE
100
AcDbEntity
  8
002
 62
     3
100
AcDbLine
 10
180.04471
 20
964.622371
 30
0.0
 11
180.04471
 21
961.622371
 31
0.0
  0
ARC
  5
3CF
100
AcDbEntity
  8
002
 62
     3
100
AcDbCircle
 10
182.54471
 20
964.247371
 30
0.0
 40
3.625
100
AcDbArc
 50
226.397181
 51
313.602819
  0
ARC
  5
3D0
100
AcDbEntity
  8
002
 62
     3
100
AcDbCircle
 10
177.54471
 20
961.997371
 30
0.0
 40
3.625
100
AcDbArc
 50
46.397181
 51
133.602819
  0
ARC
  5
3D1
100
AcDbEntity
  8
002
 62
     3
100
AcDbCircle
 10
177.54471
 20
964.247371
 30
0.0
 40
3.625
100
AcDbArc
 50
226.397181
 51
313.602819
  0
LINE
  5
3D2
100
AcDbEntity
  8
002
 62
     3
100
AcDbLine
 10
176.18321
 20
960.622371
 30
0.0
 11
176.18321
 21
959.425662
 31
0.0
  0
ARC
  5
3D3
100
AcDbEntity
  8
002
 62
     3
100
AcDbCircle
 10
180.04471
 20
971.960871
 30
0.0
 40
1.000041
100
AcDbArc
 50
41.412294
 51
138.587706
  0
LINE
  5
3D4
100
AcDbEntity
  8
002
 62
     3
100
AcDbLine
 10
183.90621
 20
883.81908
 30
0.0
 11
183.90621
 21
882.622371
 31
0.0
  0
LINE
  5
3D5
100
AcDbEntity
  8
002
 62
     3
100
AcDbLine
 10
176.04471
 20
882.622371
 30
0.0
 11
184.04471
 21
882.622371
 31
0.0
  0
LINE
  5
3D6
100
AcDbEntity
  8
002
 62
     3
100
AcDbLine
 10
184.04471
 20
882.622371
 30
0.0
 11
185.04471
 21
881.622371
 31
0.0
  0
ARC
  5
3D7
100
AcDbEntity
  8
002
 62
     3
100
AcDbCircle
 10
182.54471
 20
878.997371
 30
0.0
 40
3.625
100
AcDbArc
 50
46.397181
 51
133.602819
  0
LINE
  5
3D8
100
AcDbEntity
  8
002
 62
     3
100
AcDbLine
 10
176.18321
 20
882.622371
 30
0.0
 11
176.18321
 21
883.81908
 31
0.0
  0
LINE
  5
3D9
100
AcDbEntity
  8
002
 62
     3
100
AcDbLine
 10
175.04471
 20
881.622371
 30
0.0
 11
176.04471
 21
882.622371
 31
0.0
  0
ARC
  5
3DA
100
AcDbEntity
  8
002
 62
     3
100
AcDbCircle
 10
177.54471
 20
878.997371
 30
0.0
 40
3.625
100
AcDbArc
 50
46.397181
 51
133.602819
  0
LINE
  5
3DB
100
AcDbEntity
  8
002
 62
     3
100
AcDbLine
 10
175.04471
 20
878.622371
 30
0.0
 11
175.04471
 21
881.622371
 31
0.0
  0
ARC
  5
3DC
100
AcDbEntity
  8
002
 62
     3
100
AcDbCircle
 10
177.54471
 20
881.247371
 30
0.0
 40
3.625
100
AcDbArc
 50
226.397181
 51
313.602819
  0
LINE
  5
3DD
100
AcDbEntity
  8
002
 62
     3
100
AcDbLine
 10
180.04471
 20
878.622371
 30
0.0
 11
180.04471
 21
881.622371
 31
0.0
  0
ARC
  5
3DE
100
AcDbEntity
  8
002
 62
     3
100
AcDbCircle
 10
182.54471
 20
881.247371
 30
0.0
 40
3.625
100
AcDbArc
 50
226.397181
 51
313.602819
  0
LINE
  5
3DF
100
AcDbEntity
  8
002
 62
     3
100
AcDbLine
 10
185.04471
 20
881.622371
 30
0.0
 11
185.04471
 21
878.622371
 31
0.0
  0
LINE
  5
3E0
100
AcDbEntity
  8
002
 62
     3
100
AcDbLine
 10
185.04471
 20
878.622371
 30
0.0
 11
182.90471
 21
875.708871
 31
0.0
  0
LINE
  5
3E1
100
AcDbEntity
  8
002
 62
     3
100
AcDbLine
 10
177.18471
 20
875.708871
 30
0.0
 11
175.04471
 21
878.622371
 31
0.0
  0
ARC
  5
3E2
100
AcDbEntity
  8
002
 62
     3
100
AcDbCircle
 10
183.61181
 20
875.001771
 30
0.0
 40
0.99999
100
AcDbArc
 50
135.0
 51
212.005383
  0
LINE
  5
3E3
100
AcDbEntity
  8
002
 62
     3
100
AcDbLine
 10
183.29471
 20
873.622371
 30
0.0
 11
182.76381
 21
874.471771
 31
0.0
  0
LINE
  5
3E4
100
AcDbEntity
  8
002
 62
     3
100
AcDbLine
 10
182.54471
 20
870.622371
 30
0.0
 11
183.29471
 21
873.622371
 31
0.0
  0
LINE
  5
3E5
100
AcDbEntity
  8
002
 62
     3
100
AcDbLine
 10
177.54471
 20
870.622371
 30
0.0
 11
182.54471
 21
870.622371
 31
0.0
  0
ARC
  5
3E6
100
AcDbEntity
  8
002
 62
     3
100
AcDbCircle
 10
180.04471
 20
871.283871
 30
0.0
 40
1.000041
100
AcDbArc
 50
221.412294
 51
318.587706
  0
LINE
  5
3E7
100
AcDbEntity
  8
002
 62
     3
100
AcDbLine
 10
176.79471
 20
873.622371
 30
0.0
 11
177.54471
 21
870.622371
 31
0.0
  0
LINE
  5
3E8
100
AcDbEntity
  8
002
 62
     3
100
AcDbLine
 10
177.32561
 20
874.471771
 30
0.0
 11
176.79471
 21
873.622371
 31
0.0
  0
ARC
  5
3E9
100
AcDbEntity
  8
002
 62
     3
100
AcDbCircle
 10
176.47761
 20
875.001771
 30
0.0
 40
1.000002
100
AcDbArc
 50
327.994617
 51
45.0
  0
LINE
  5
3EA
100
AcDbEntity
  8
002
 62
     3
100
AcDbLine
 10
182.34221
 20
875.146371
 30
0.0
 11
177.74721
 21
875.146371
 31
0.0
  0
LINE
  5
3EB
100
AcDbEntity
  8
002
 62
     3
100
AcDbLine
 10
182.54471
 20
873.622371
 30
0.0
 11
177.54471
 21
873.622371
 31
0.0
  0
ARC
  5
3EC
100
AcDbEntity
  8
002
 62
     3
100
AcDbCircle
 10
180.04471
 20
921.622371
 30
0.0
 40
42.5
100
AcDbArc
 50
96.756327
 51
263.243673
  0
ARC
  5
3ED
100
AcDbEntity
  8
002
 62
     3
100
AcDbCircle
 10
180.04471
 20
921.622371
 30
0.0
 40
42.5
100
AcDbArc
 50
276.756327
 51
83.243673
  0
LINE
  5
3EE
100
AcDbEntity
  8
002
 62
     3
100
AcDbLine
 10
118.49671
 20
881.622371
 30
0.0
 11
118.49671
 21
911.144371
 31
0.0
  0
LINE
  5
3EF
100
AcDbEntity
  8
002
 62
     3
100
AcDbLine
 10
118.49671
 20
932.099371
 30
0.0
 11
118.49671
 21
961.622371
 31
0.0
  0
ARC
  5
3F0
100
AcDbEntity
  8
002
 62
     3
100
AcDbCircle
 10
180.04471
 20
870.122371
 30
0.0
 40
6.5
100
AcDbArc
 50
143.999218
 51
36.624657
  0
LINE
  5
3F1
100
AcDbEntity
  8
002
 62
     3
100
AcDbLine
 10
232.49621
 20
856.622371
 30
0.0
 11
216.49621
 21
856.622371
 31
0.0
  0
LINE
  5
3F2
100
AcDbEntity
  8
002
 62
     3
100
AcDbLine
 10
232.49621
 20
858.622371
 30
0.0
 11
232.49621
 21
856.622371
 31
0.0
  0
LINE
  5
3F3
100
AcDbEntity
  8
002
 62
     3
100
AcDbLine
 10
216.49621
 20
856.622371
 30
0.0
 11
216.49621
 21
858.622371
 31
0.0
  0
LINE
  5
3F4
100
AcDbEntity
  8
002
 62
     3
100
AcDbLine
 10
484.063492
 20
673.560191
 30
0.0
 11
484.063492
 21
707.236723
 31
0.0
  0
LINE
  5
3F5
100
AcDbEntity
  8
002
 62
     9
100
AcDbLine
 10
482.267392
 20
673.560191
 30
0.0
 11
482.267392
 21
707.236723
 31
0.0
  0
LINE
  5
3F6
100
AcDbEntity
  8
002
 62
     3
100
AcDbLine
 10
459.063492
 20
707.236723
 30
0.0
 11
459.063492
 21
673.560191
 31
0.0
  0
LINE
  5
3F7
100
AcDbEntity
  8
002
 62
     9
100
AcDbLine
 10
460.859392
 20
707.236723
 30
0.0
 11
460.859392
 21
673.560191
 31
0.0
  0
LINE
  5
3F8
100
AcDbEntity
  8
002
 62
     3
100
AcDbLine
 10
730.551992
 20
673.560191
 30
0.0
 11
730.551992
 21
707.236723
 31
0.0
  0
LINE
  5
3F9
100
AcDbEntity
  8
002
 62
     9
100
AcDbLine
 10
728.755892
 20
673.560191
 30
0.0
 11
728.755892
 21
707.236723
 31
0.0
  0
LINE
  5
3FA
100
AcDbEntity
  8
002
 62
     3
100
AcDbLine
 10
705.551992
 20
707.236723
 30
0.0
 11
705.551992
 21
673.560191
 31
0.0
  0
LINE
  5
3FB
100
AcDbEntity
  8
002
 62
     9
100
AcDbLine
 10
707.347892
 20
707.236723
 30
0.0
 11
707.347892
 21
673.560191
 31
0.0
  0
LINE
  5
3FC
100
AcDbEntity
  8
002
 62
     3
100
AcDbLine
 10
355.31171
 20
307.547309
 30
0.0
 11
355.31171
 21
253.547309
 31
0.0
  0
LINE
  5
3FD
100
AcDbEntity
  8
002
 62
     3
100
AcDbLine
 10
355.31171
 20
253.547309
 30
0.0
 11
360.31171
 21
253.547309
 31
0.0
  0
LINE
  5
3FE
100
AcDbEntity
  8
002
 62
     3
100
AcDbLine
 10
360.31171
 20
253.547309
 30
0.0
 11
360.31171
 21
307.547309
 31
0.0
  0
LINE
  5
3FF
100
AcDbEntity
  8
002
 62
     3
100
AcDbLine
 10
351.31171
 20
307.547309
 30
0.0
 11
351.31171
 21
325.547309
 31
0.0
  0
LINE
  5
400
100
AcDbEntity
  8
002
 62
     3
100
AcDbLine
 10
471.31171
 20
325.547309
 30
0.0
 11
471.31171
 21
307.547309
 31
0.0
  0
LINE
  5
401
100
AcDbEntity
  8
002
 62
     3
100
AcDbLine
 10
471.31171
 20
307.547309
 30
0.0
 11
351.31171
 21
307.547309
 31
0.0
  0
LINE
  5
402
100
AcDbEntity
  8
002
 62
     3
100
AcDbLine
 10
351.31171
 20
315.547309
 30
0.0
 11
471.31171
 21
315.547309
 31
0.0
  0
LINE
  5
403
100
AcDbEntity
  8
002
 62
     3
100
AcDbLine
 10
467.31171
 20
307.547309
 30
0.0
 11
467.31171
 21
253.547309
 31
0.0
  0
LINE
  5
404
100
AcDbEntity
  8
002
 62
     3
100
AcDbLine
 10
467.31171
 20
253.547309
 30
0.0
 11
462.31171
 21
253.547309
 31
0.0
  0
ARC
  5
405
100
AcDbEntity
  8
002
 62
     3
100
AcDbCircle
 10
462.31171
 20
251.547309
 30
0.0
 40
2.0
100
AcDbArc
 50
90.0
 51
180.0
  0
ARC
  5
406
100
AcDbEntity
  8
002
 62
     3
100
AcDbCircle
 10
463.31171
 20
251.547309
 30
0.0
 40
3.0
100
AcDbArc
 50
180.0
 51
270.0
  0
LINE
  5
407
100
AcDbEntity
  8
002
 62
     3
100
AcDbLine
 10
464.33171
 20
248.547309
 30
0.0
 11
358.29071
 21
248.547309
 31
0.0
  0
LINE
  5
408
100
AcDbEntity
  8
002
 62
     3
100
AcDbLine
 10
358.29071
 20
248.547309
 30
0.0
 11
358.29071
 21
235.547309
 31
0.0
  0
LINE
  5
409
100
AcDbEntity
  8
002
 62
     3
100
AcDbLine
 10
358.29071
 20
235.547309
 30
0.0
 11
464.33171
 21
235.547309
 31
0.0
  0
LINE
  5
40A
100
AcDbEntity
  8
002
 62
     3
100
AcDbLine
 10
464.33171
 20
235.547309
 30
0.0
 11
464.33171
 21
248.547309
 31
0.0
  0
LINE
  5
40B
100
AcDbEntity
  8
002
 62
     3
100
AcDbLine
 10
462.31171
 20
253.547309
 30
0.0
 11
462.31171
 21
307.547309
 31
0.0
  0
ARC
  5
40C
100
AcDbEntity
  8
002
 62
     3
100
AcDbCircle
 10
446.00471
 20
304.547309
 30
0.0
 40
3.0
100
AcDbArc
 50
90.0
 51
180.0
  0
LINE
  5
40D
100
AcDbEntity
  8
002
 62
     3
100
AcDbLine
 10
443.00471
 20
304.547309
 30
0.0
 11
443.00471
 21
251.547309
 31
0.0
  0
ARC
  5
40E
100
AcDbEntity
  8
002
 62
     3
100
AcDbCircle
 10
446.00471
 20
251.547309
 30
0.0
 40
3.0
100
AcDbArc
 50
180.0
 51
270.0
  0
LINE
  5
40F
100
AcDbEntity
  8
002
 62
     3
100
AcDbLine
 10
438.81171
 20
251.547309
 30
0.0
 11
438.81171
 21
304.547309
 31
0.0
  0
ARC
  5
410
100
AcDbEntity
  8
002
 62
     3
100
AcDbCircle
 10
441.81171
 20
304.547309
 30
0.0
 40
3.0
100
AcDbArc
 50
90.0
 51
180.0
  0
LINE
  5
411
100
AcDbEntity
  8
002
 62
     3
100
AcDbLine
 10
434.81171
 20
297.769509
 30
0.0
 11
387.81171
 21
297.769509
 31
0.0
  0
ARC
  5
412
100
AcDbEntity
  8
002
 62
     3
100
AcDbCircle
 10
387.81171
 20
294.769509
 30
0.0
 40
3.0
100
AcDbArc
 50
90.0
 51
180.0
  0
LINE
  5
413
100
AcDbEntity
  8
002
 62
     3
100
AcDbLine
 10
384.81171
 20
294.769509
 30
0.0
 11
384.81171
 21
267.021209
 31
0.0
  0
ARC
  5
414
100
AcDbEntity
  8
002
 62
     3
100
AcDbCircle
 10
387.81171
 20
267.021209
 30
0.0
 40
3.0
100
AcDbArc
 50
180.0
 51
270.0
  0
LINE
  5
415
100
AcDbEntity
  8
002
 62
     3
100
AcDbLine
 10
387.81171
 20
264.021209
 30
0.0
 11
434.81171
 21
264.021209
 31
0.0
  0
ARC
  5
416
100
AcDbEntity
  8
002
 62
     3
100
AcDbCircle
 10
434.81171
 20
267.021209
 30
0.0
 40
3.0
100
AcDbArc
 50
270.0
 51
0.0
  0
LINE
  5
417
100
AcDbEntity
  8
002
 62
     3
100
AcDbLine
 10
437.81171
 20
267.021209
 30
0.0
 11
437.81171
 21
294.769509
 31
0.0
  0
ARC
  5
418
100
AcDbEntity
  8
002
 62
     3
100
AcDbCircle
 10
434.81171
 20
294.769509
 30
0.0
 40
3.0
100
AcDbArc
 50
0.0
 51
90.0
  0
LINE
  5
419
100
AcDbEntity
  8
002
 62
     3
100
AcDbLine
 10
379.61771
 20
304.547309
 30
0.0
 11
379.61771
 21
251.547309
 31
0.0
  0
ARC
  5
41A
100
AcDbEntity
  8
002
 62
     3
100
AcDbCircle
 10
380.81171
 20
251.547309
 30
0.0
 40
3.0
100
AcDbArc
 50
270.0
 51
0.0
  0
LINE
  5
41B
100
AcDbEntity
  8
002
 62
     3
100
AcDbLine
 10
383.81171
 20
251.547309
 30
0.0
 11
383.81171
 21
304.547309
 31
0.0
  0
ARC
  5
41C
100
AcDbEntity
  8
002
 62
     3
100
AcDbCircle
 10
380.81171
 20
304.547309
 30
0.0
 40
3.0
100
AcDbArc
 50
0.0
 51
90.0
  0
ARC
  5
41D
100
AcDbEntity
  8
002
 62
     3
100
AcDbCircle
 10
376.61771
 20
304.547309
 30
0.0
 40
3.0
100
AcDbArc
 50
0.0
 51
90.0
  0
ARC
  5
41E
100
AcDbEntity
  8
002
 62
     3
100
AcDbCircle
 10
359.31171
 20
251.547309
 30
0.0
 40
3.0
100
AcDbArc
 50
270.0
 51
0.0
  0
ARC
  5
41F
100
AcDbEntity
  8
002
 62
     3
100
AcDbCircle
 10
360.31171
 20
251.547309
 30
0.0
 40
2.0
100
AcDbArc
 50
0.0
 51
90.0
  0
ARC
  5
420
100
AcDbEntity
  8
002
 62
     3
100
AcDbCircle
 10
376.61771
 20
251.547309
 30
0.0
 40
3.0
100
AcDbArc
 50
270.0
 51
0.0
  0
ARC
  5
421
100
AcDbEntity
  8
002
 62
     3
100
AcDbCircle
 10
441.81171
 20
251.547309
 30
0.0
 40
3.0
100
AcDbArc
 50
180.0
 51
270.0
  0
LINE
  5
422
100
AcDbEntity
  8
003
  6
CENTER
 62
     9
100
AcDbLine
 10
411.31171
 20
86.633209
 30
0.0
 11
411.31171
 21
546.285809
 31
0.0
  0
LINE
  5
423
100
AcDbEntity
  8
003
  6
CENTER
 62
     9
100
AcDbLine
 10
507.00471
 20
280.547309
 30
0.0
 11
311.93721
 21
280.547309
 31
0.0
  0
LINE
  5
424
100
AcDbEntity
  8
003
  6
HIDDEN
 62
     9
100
AcDbLine
 10
462.31171
 20
248.547309
 30
0.0
 11
462.31171
 21
247.547309
 31
0.0
  0
LINE
  5
425
100
AcDbEntity
  8
003
  6
HIDDEN
 62
     9
100
AcDbLine
 10
462.31171
 20
247.547309
 30
0.0
 11
440.31171
 21
247.547309
 31
0.0
  0
LINE
  5
426
100
AcDbEntity
  8
003
  6
HIDDEN
 62
     9
100
AcDbLine
 10
440.31171
 20
247.547309
 30
0.0
 11
440.31171
 21
248.547309
 31
0.0
  0
LINE
  5
427
100
AcDbEntity
  8
003
  6
HIDDEN
 62
     9
100
AcDbLine
 10
445.81171
 20
247.547309
 30
0.0
 11
445.81171
 21
235.547309
 31
0.0
  0
LINE
  5
428
100
AcDbEntity
  8
003
  6
CENTER
 62
     9
100
AcDbLine
 10
451.31171
 20
228.146809
 30
0.0
 11
451.31171
 21
256.075509
 31
0.0
  0
LINE
  5
429
100
AcDbEntity
  8
003
  6
HIDDEN
 62
     9
100
AcDbLine
 10
456.81171
 20
247.547309
 30
0.0
 11
456.81171
 21
235.547309
 31
0.0
  0
LINE
  5
42A
100
AcDbEntity
  8
003
  6
HIDDEN
 62
     9
100
AcDbLine
 10
376.81171
 20
235.547309
 30
0.0
 11
376.81171
 21
247.547309
 31
0.0
  0
LINE
  5
42B
100
AcDbEntity
  8
003
  6
HIDDEN
 62
     9
100
AcDbLine
 10
382.31171
 20
247.547309
 30
0.0
 11
360.31171
 21
247.547309
 31
0.0
  0
LINE
  5
42C
100
AcDbEntity
  8
003
  6
HIDDEN
 62
     9
100
AcDbLine
 10
360.31171
 20
247.547309
 30
0.0
 11
360.31171
 21
248.547309
 31
0.0
  0
LINE
  5
42D
100
AcDbEntity
  8
003
  6
HIDDEN
 62
     9
100
AcDbLine
 10
365.81171
 20
247.547309
 30
0.0
 11
365.81171
 21
235.547309
 31
0.0
  0
LINE
  5
42E
100
AcDbEntity
  8
003
  6
CENTER
 62
     9
100
AcDbLine
 10
371.31171
 20
228.146809
 30
0.0
 11
371.31171
 21
256.075509
 31
0.0
  0
LINE
  5
42F
100
AcDbEntity
  8
003
  6
HIDDEN
 62
     9
100
AcDbLine
 10
382.31171
 20
248.547309
 30
0.0
 11
382.31171
 21
247.547309
 31
0.0
  0
LINE
  5
430
100
AcDbEntity
  8
002
 62
     3
100
AcDbLine
 10
373.31171
 20
391.547309
 30
0.0
 11
373.31171
 21
327.340609
 31
0.0
  0
LINE
  5
431
100
AcDbEntity
  8
002
 62
     3
100
AcDbLine
 10
366.31171
 20
333.547309
 30
0.0
 11
366.31171
 21
325.547309
 31
0.0
  0
LINE
  5
432
100
AcDbEntity
  8
002
 62
     3
100
AcDbLine
 10
449.31171
 20
327.340609
 30
0.0
 11
449.31171
 21
391.547309
 31
0.0
  0
LINE
  5
433
100
AcDbEntity
  8
002
 62
     3
100
AcDbLine
 10
449.31171
 20
391.547309
 30
0.0
 11
373.31171
 21
391.547309
 31
0.0
  0
LINE
  5
434
100
AcDbEntity
  8
002
 62
     3
100
AcDbLine
 10
353.31171
 20
333.547309
 30
0.0
 11
366.31171
 21
333.547309
 31
0.0
  0
LINE
  5
435
100
AcDbEntity
  8
002
 62
     3
100
AcDbLine
 10
353.31171
 20
333.547309
 30
0.0
 11
353.31171
 21
325.547309
 31
0.0
  0
LINE
  5
436
100
AcDbEntity
  8
002
 62
     3
100
AcDbLine
 10
351.31171
 20
325.547309
 30
0.0
 11
471.31171
 21
325.547309
 31
0.0
  0
LINE
  5
437
100
AcDbEntity
  8
002
 62
     3
100
AcDbLine
 10
373.81171
 20
235.547309
 30
0.0
 11
373.81171
 21
231.547309
 31
0.0
  0
LINE
  5
438
100
AcDbEntity
  8
002
 62
     3
100
AcDbLine
 10
373.81171
 20
231.547309
 30
0.0
 11
448.81171
 21
231.547309
 31
0.0
  0
LINE
  5
439
100
AcDbEntity
  8
002
 62
     3
100
AcDbLine
 10
448.81171
 20
231.547309
 30
0.0
 11
448.81171
 21
235.547309
 31
0.0
  0
LINE
  5
43A
100
AcDbEntity
  8
002
 62
     3
100
AcDbLine
 10
445.56171
 20
231.547309
 30
0.0
 11
445.56171
 21
226.547309
 31
0.0
  0
LINE
  5
43B
100
AcDbEntity
  8
002
 62
     3
100
AcDbLine
 10
437.06171
 20
226.547309
 30
0.0
 11
437.06171
 21
231.547309
 31
0.0
  0
ARC
  5
43C
100
AcDbEntity
  8
002
 62
     3
100
AcDbCircle
 10
438.18961
 20
228.547309
 30
0.0
 40
2.999933
100
AcDbArc
 50
90.0
 51
178.168092
  0
LINE
  5
43D
100
AcDbEntity
  8
002
 62
     3
100
AcDbLine
 10
435.19121
 20
228.643209
 30
0.0
 11
433.81171
 21
185.547309
 31
0.0
  0
LINE
  5
43E
100
AcDbEntity
  8
002
 62
     3
100
AcDbLine
 10
433.81171
 20
185.547309
 30
0.0
 11
388.81171
 21
185.547309
 31
0.0
  0
LINE
  5
43F
100
AcDbEntity
  8
002
 62
     3
100
AcDbLine
 10
388.81171
 20
185.547309
 30
0.0
 11
387.43231
 21
228.643209
 31
0.0
  0
ARC
  5
440
100
AcDbEntity
  8
002
 62
     3
100
AcDbCircle
 10
384.43381
 20
228.547309
 30
0.0
 40
3.0
100
AcDbArc
 50
1.831847
 51
90.0
  0
LINE
  5
441
100
AcDbEntity
  8
002
 62
     3
100
AcDbLine
 10
385.56171
 20
231.547309
 30
0.0
 11
385.56171
 21
226.547309
 31
0.0
  0
LINE
  5
442
100
AcDbEntity
  8
002
 62
     3
100
AcDbLine
 10
385.56171
 20
226.547309
 30
0.0
 11
377.06171
 21
226.547309
 31
0.0
  0
LINE
  5
443
100
AcDbEntity
  8
002
 62
     3
100
AcDbLine
 10
377.06171
 20
226.547309
 30
0.0
 11
377.06171
 21
231.547309
 31
0.0
  0
LINE
  5
444
100
AcDbEntity
  8
002
 62
     3
100
AcDbLine
 10
407.06171
 20
231.547309
 30
0.0
 11
407.06171
 21
226.547309
 31
0.0
  0
LINE
  5
445
100
AcDbEntity
  8
002
 62
     3
100
AcDbLine
 10
415.56171
 20
226.547309
 30
0.0
 11
407.06171
 21
226.547309
 31
0.0
  0
LINE
  5
446
100
AcDbEntity
  8
002
 62
     3
100
AcDbLine
 10
415.56171
 20
226.547309
 30
0.0
 11
415.56171
 21
231.547309
 31
0.0
  0
LINE
  5
447
100
AcDbEntity
  8
002
 62
     3
100
AcDbLine
 10
437.06171
 20
226.547309
 30
0.0
 11
445.56171
 21
226.547309
 31
0.0
  0
LINE
  5
448
100
AcDbEntity
  8
002
  6
CENTER
 62
     9
100
AcDbLine
 10
359.81171
 20
309.158709
 30
0.0
 11
359.81171
 21
335.558709
 31
0.0
  0
LINE
  5
449
100
AcDbEntity
  8
002
  6
CENTER
 62
     9
100
AcDbLine
 10
381.31171
 20
237.672109
 30
0.0
 11
381.31171
 21
225.393209
 31
0.0
  0
LINE
  5
44A
100
AcDbEntity
  8
002
  6
CENTER
 62
     9
100
AcDbLine
 10
441.31171
 20
237.672109
 30
0.0
 11
441.31171
 21
225.393209
 31
0.0
  0
LINE
  5
44B
100
AcDbEntity
  8
002
 62
     3
100
AcDbLine
 10
420.31101
 20
530.547309
 30
0.0
 11
402.31101
 21
530.547309
 31
0.0
  0
LINE
  5
44C
100
AcDbEntity
  8
002
 62
     3
100
AcDbLine
 10
402.31101
 20
530.547309
 30
0.0
 11
402.31101
 21
511.547309
 31
0.0
  0
LINE
  5
44D
100
AcDbEntity
  8
002
 62
     3
100
AcDbLine
 10
402.31101
 20
511.547309
 30
0.0
 11
420.31101
 21
511.547309
 31
0.0
  0
LINE
  5
44E
100
AcDbEntity
  8
002
 62
     3
100
AcDbLine
 10
420.31101
 20
511.547309
 30
0.0
 11
420.31101
 21
530.547309
 31
0.0
  0
LINE
  5
44F
100
AcDbEntity
  8
002
 62
     3
100
AcDbLine
 10
419.16101
 20
511.547309
 30
0.0
 11
419.16101
 21
508.547309
 31
0.0
  0
LINE
  5
450
100
AcDbEntity
  8
002
 62
     3
100
AcDbLine
 10
423.81171
 20
508.547309
 30
0.0
 11
398.81171
 21
508.547309
 31
0.0
  0
LINE
  5
451
100
AcDbEntity
  8
002
 62
     3
100
AcDbLine
 10
398.81171
 20
508.547309
 30
0.0
 11
398.81171
 21
391.547309
 31
0.0
  0
LINE
  5
452
100
AcDbEntity
  8
002
 62
     3
100
AcDbLine
 10
423.81171
 20
391.547309
 30
0.0
 11
423.81171
 21
508.547309
 31
0.0
  0
LINE
  5
453
100
AcDbEntity
  8
002
 62
     3
100
AcDbLine
 10
403.46101
 20
508.547309
 30
0.0
 11
403.46101
 21
511.547309
 31
0.0
  0
LINE
  5
454
100
AcDbEntity
  8
002
 62
     9
100
AcDbLine
 10
400.60761
 20
508.547309
 30
0.0
 11
400.60761
 21
391.547309
 31
0.0
  0
LINE
  5
455
100
AcDbEntity
  8
002
 62
     9
100
AcDbLine
 10
422.01561
 20
391.547309
 30
0.0
 11
422.01561
 21
508.547309
 31
0.0
  0
LINE
  5
456
100
AcDbEntity
  8
002
 62
     9
100
AcDbLine
 10
403.36101
 20
530.547309
 30
0.0
 11
403.36101
 21
511.547309
 31
0.0
  0
LINE
  5
457
100
AcDbEntity
  8
002
 62
     9
100
AcDbLine
 10
419.26101
 20
511.547309
 30
0.0
 11
419.26101
 21
530.547309
 31
0.0
  0
LINE
  5
458
100
AcDbEntity
  8
002
 62
     3
100
AcDbLine
 10
392.31171
 20
185.547309
 30
0.0
 11
392.31171
 21
100.547309
 31
0.0
  0
LINE
  5
459
100
AcDbEntity
  8
002
 62
     3
100
AcDbLine
 10
389.31171
 20
100.547309
 30
0.0
 11
389.31171
 21
83.547309
 31
0.0
  0
ARC
  5
45A
100
AcDbEntity
  8
002
 62
     3
100
AcDbCircle
 10
392.31171
 20
83.547309
 30
0.0
 40
3.0
100
AcDbArc
 50
180.0
 51
270.0
  0
LINE
  5
45B
100
AcDbEntity
  8
002
 62
     3
100
AcDbLine
 10
392.31171
 20
80.547309
 30
0.0
 11
430.31171
 21
80.547309
 31
0.0
  0
ARC
  5
45C
100
AcDbEntity
  8
002
 62
     3
100
AcDbCircle
 10
430.31171
 20
83.547309
 30
0.0
 40
3.0
100
AcDbArc
 50
270.0
 51
0.0
  0
LINE
  5
45D
100
AcDbEntity
  8
002
 62
     3
100
AcDbLine
 10
433.31171
 20
83.547309
 30
0.0
 11
433.31171
 21
100.547309
 31
0.0
  0
LINE
  5
45E
100
AcDbEntity
  8
002
 62
     3
100
AcDbLine
 10
433.31171
 20
100.547309
 30
0.0
 11
389.31171
 21
100.547309
 31
0.0
  0
LINE
  5
45F
100
AcDbEntity
  8
002
 62
     3
100
AcDbLine
 10
430.31171
 20
100.547309
 30
0.0
 11
430.31171
 21
185.547309
 31
0.0
  0
LINE
  5
460
100
AcDbEntity
  8
002
 62
     3
100
AcDbLine
 10
392.061515
 20
333.547309
 30
0.0
 11
392.061515
 21
325.547309
 31
0.0
  0
LINE
  5
461
100
AcDbEntity
  8
002
 62
     3
100
AcDbLine
 10
379.061515
 20
333.547309
 30
0.0
 11
392.061515
 21
333.547309
 31
0.0
  0
LINE
  5
462
100
AcDbEntity
  8
002
 62
     3
100
AcDbLine
 10
379.061515
 20
333.547309
 30
0.0
 11
379.061515
 21
325.547309
 31
0.0
  0
LINE
  5
463
100
AcDbEntity
  8
002
  6
CENTER
 62
     9
100
AcDbLine
 10
385.561515
 20
309.158709
 30
0.0
 11
385.561515
 21
335.558709
 31
0.0
  0
LINE
  5
464
100
AcDbEntity
  8
002
 62
     3
100
AcDbLine
 10
456.31171
 20
333.547309
 30
0.0
 11
456.31171
 21
325.547309
 31
0.0
  0
LINE
  5
465
100
AcDbEntity
  8
002
 62
     3
100
AcDbLine
 10
469.31171
 20
333.547309
 30
0.0
 11
456.31171
 21
333.547309
 31
0.0
  0
LINE
  5
466
100
AcDbEntity
  8
002
 62
     3
100
AcDbLine
 10
469.31171
 20
333.547309
 30
0.0
 11
469.31171
 21
325.547309
 31
0.0
  0
LINE
  5
467
100
AcDbEntity
  8
002
  6
CENTER
 62
     9
100
AcDbLine
 10
462.81171
 20
309.158709
 30
0.0
 11
462.81171
 21
335.558709
 31
0.0
  0
LINE
  5
468
100
AcDbEntity
  8
002
 62
     3
100
AcDbLine
 10
430.561906
 20
333.547309
 30
0.0
 11
430.561906
 21
325.547309
 31
0.0
  0
LINE
  5
469
100
AcDbEntity
  8
002
 62
     3
100
AcDbLine
 10
443.561906
 20
333.547309
 30
0.0
 11
430.561906
 21
333.547309
 31
0.0
  0
LINE
  5
46A
100
AcDbEntity
  8
002
 62
     3
100
AcDbLine
 10
443.561906
 20
333.547309
 30
0.0
 11
443.561906
 21
325.547309
 31
0.0
  0
LINE
  5
46B
100
AcDbEntity
  8
002
  6
CENTER
 62
     9
100
AcDbLine
 10
437.061906
 20
309.158709
 30
0.0
 11
437.061906
 21
335.558709
 31
0.0
  0
LINE
  5
46C
100
AcDbEntity
  8
003
 62
     3
100
AcDbLine
 10
368.81171
 20
325.547309
 30
0.0
 11
368.81171
 21
327.340609
 31
0.0
  0
LINE
  5
46D
100
AcDbEntity
  8
003
 62
     3
100
AcDbLine
 10
453.81171
 20
325.547309
 30
0.0
 11
453.81171
 21
327.340609
 31
0.0
  0
LINE
  5
46E
100
AcDbEntity
  8
002
 62
     3
100
AcDbLine
 10
443.561906
 20
327.340609
 30
0.0
 11
453.81171
 21
327.340609
 31
0.0
  0
LINE
  5
46F
100
AcDbEntity
  8
002
 62
     3
100
AcDbLine
 10
368.81171
 20
327.340609
 30
0.0
 11
379.061515
 21
327.340609
 31
0.0
  0
LINE
  5
470
100
AcDbEntity
  8
002
 62
     3
100
AcDbLine
 10
392.061515
 20
327.340609
 30
0.0
 11
430.561906
 21
327.340609
 31
0.0
  0
LINE
  5
471
100
AcDbEntity
  8
002
 62
     3
100
AcDbLine
 10
350.31171
 20
296.095809
 30
0.0
 11
350.31171
 21
304.595809
 31
0.0
  0
LINE
  5
472
100
AcDbEntity
  8
002
 62
     3
100
AcDbLine
 10
350.31171
 20
300.345809
 30
0.0
 11
348.31171
 21
300.345809
 31
0.0
  0
LINE
  5
473
100
AcDbEntity
  8
002
 62
     3
100
AcDbLine
 10
348.31171
 20
300.345809
 30
0.0
 11
348.31171
 21
260.748309
 31
0.0
  0
LINE
  5
474
100
AcDbEntity
  8
002
 62
     3
100
AcDbLine
 10
348.31171
 20
260.748309
 30
0.0
 11
350.31171
 21
260.748309
 31
0.0
  0
LINE
  5
475
100
AcDbEntity
  8
002
 62
     3
100
AcDbLine
 10
350.31171
 20
256.498309
 30
0.0
 11
350.31171
 21
264.998309
 31
0.0
  0
LINE
  5
476
100
AcDbEntity
  8
002
 62
     3
100
AcDbLine
 10
350.31171
 20
256.498309
 30
0.0
 11
355.31171
 21
256.498309
 31
0.0
  0
LINE
  5
477
100
AcDbEntity
  8
002
 62
     3
100
AcDbLine
 10
355.31171
 20
296.095809
 30
0.0
 11
350.31171
 21
296.095809
 31
0.0
  0
LINE
  5
478
100
AcDbEntity
  8
002
 62
     3
100
AcDbLine
 10
346.31171
 20
273.047309
 30
0.0
 11
322.31141
 21
273.047309
 31
0.0
  0
LINE
  5
479
100
AcDbEntity
  8
002
 62
     3
100
AcDbLine
 10
322.31141
 20
273.047309
 30
0.0
 11
322.31141
 21
278.047309
 31
0.0
  0
LINE
  5
47A
100
AcDbEntity
  8
002
 62
     3
100
AcDbLine
 10
321.31141
 20
278.047309
 30
0.0
 11
342.81171
 21
278.047309
 31
0.0
  0
LINE
  5
47B
100
AcDbEntity
  8
002
 62
     3
100
AcDbLine
 10
342.81171
 20
278.047309
 30
0.0
 11
342.81171
 21
283.047309
 31
0.0
  0
LINE
  5
47C
100
AcDbEntity
  8
002
 62
     3
100
AcDbLine
 10
342.81171
 20
283.047309
 30
0.0
 11
321.31141
 21
283.047309
 31
0.0
  0
LINE
  5
47D
100
AcDbEntity
  8
002
 62
     3
100
AcDbLine
 10
322.31141
 20
283.047309
 30
0.0
 11
322.31141
 21
288.047309
 31
0.0
  0
LINE
  5
47E
100
AcDbEntity
  8
002
 62
     3
100
AcDbLine
 10
322.31141
 20
288.047309
 30
0.0
 11
321.31141
 21
287.047309
 31
0.0
  0
LINE
  5
47F
100
AcDbEntity
  8
002
 62
     3
100
AcDbLine
 10
321.31141
 20
287.047309
 30
0.0
 11
321.31141
 21
274.047309
 31
0.0
  0
LINE
  5
480
100
AcDbEntity
  8
002
 62
     3
100
AcDbLine
 10
321.31141
 20
274.047309
 30
0.0
 11
322.31141
 21
273.047309
 31
0.0
  0
LINE
  5
481
100
AcDbEntity
  8
002
 62
     3
100
AcDbLine
 10
322.31141
 20
288.047309
 30
0.0
 11
346.31171
 21
288.047309
 31
0.0
  0
ARC
  5
482
100
AcDbEntity
  8
002
 62
     3
100
AcDbCircle
 10
342.81171
 20
280.547309
 30
0.0
 40
2.5
100
AcDbArc
 50
270.0
 51
90.0
  0
LINE
  5
483
100
AcDbEntity
  8
002
 62
     3
100
AcDbLine
 10
350.31171
 20
264.998309
 30
0.0
 11
355.31171
 21
264.998309
 31
0.0
  0
LINE
  5
484
100
AcDbEntity
  8
002
 62
     3
100
AcDbLine
 10
346.31171
 20
272.547309
 30
0.0
 11
346.31171
 21
288.547309
 31
0.0
  0
LINE
  5
485
100
AcDbEntity
  8
002
 62
     3
100
AcDbLine
 10
348.31171
 20
272.547309
 30
0.0
 11
346.31171
 21
272.547309
 31
0.0
  0
LINE
  5
486
100
AcDbEntity
  8
002
 62
     3
100
AcDbLine
 10
346.31171
 20
288.547309
 30
0.0
 11
348.31171
 21
288.547309
 31
0.0
  0
LINE
  5
487
100
AcDbEntity
  8
002
 62
     3
100
AcDbLine
 10
355.31171
 20
304.595809
 30
0.0
 11
350.31171
 21
304.595809
 31
0.0
  0
LINE
  5
488
100
AcDbEntity
  8
002
 62
     3
100
AcDbLine
 10
472.31171
 20
296.095809
 30
0.0
 11
472.31171
 21
304.595809
 31
0.0
  0
LINE
  5
489
100
AcDbEntity
  8
002
 62
     3
100
AcDbLine
 10
472.31171
 20
300.345809
 30
0.0
 11
474.31171
 21
300.345809
 31
0.0
  0
LINE
  5
48A
100
AcDbEntity
  8
002
 62
     3
100
AcDbLine
 10
474.31171
 20
300.345809
 30
0.0
 11
474.31171
 21
260.748309
 31
0.0
  0
LINE
  5
48B
100
AcDbEntity
  8
002
 62
     3
100
AcDbLine
 10
474.31171
 20
260.748309
 30
0.0
 11
472.31171
 21
260.748309
 31
0.0
  0
LINE
  5
48C
100
AcDbEntity
  8
002
 62
     3
100
AcDbLine
 10
472.31171
 20
256.498309
 30
0.0
 11
472.31171
 21
264.998309
 31
0.0
  0
LINE
  5
48D
100
AcDbEntity
  8
002
 62
     3
100
AcDbLine
 10
472.31171
 20
256.498309
 30
0.0
 11
467.31171
 21
256.498309
 31
0.0
  0
LINE
  5
48E
100
AcDbEntity
  8
002
 62
     3
100
AcDbLine
 10
467.31171
 20
296.095809
 30
0.0
 11
472.31171
 21
296.095809
 31
0.0
  0
LINE
  5
48F
100
AcDbEntity
  8
002
 62
     3
100
AcDbLine
 10
476.31171
 20
273.047309
 30
0.0
 11
500.31201
 21
273.047309
 31
0.0
  0
LINE
  5
490
100
AcDbEntity
  8
002
 62
     3
100
AcDbLine
 10
500.31201
 20
273.047309
 30
0.0
 11
500.31201
 21
278.047309
 31
0.0
  0
LINE
  5
491
100
AcDbEntity
  8
002
 62
     3
100
AcDbLine
 10
501.31201
 20
278.047309
 30
0.0
 11
479.81171
 21
278.047309
 31
0.0
  0
LINE
  5
492
100
AcDbEntity
  8
002
 62
     3
100
AcDbLine
 10
479.81171
 20
278.047309
 30
0.0
 11
479.81171
 21
283.047309
 31
0.0
  0
LINE
  5
493
100
AcDbEntity
  8
002
 62
     3
100
AcDbLine
 10
479.81171
 20
283.047309
 30
0.0
 11
501.31201
 21
283.047309
 31
0.0
  0
LINE
  5
494
100
AcDbEntity
  8
002
 62
     3
100
AcDbLine
 10
500.31201
 20
283.047309
 30
0.0
 11
500.31201
 21
288.047309
 31
0.0
  0
LINE
  5
495
100
AcDbEntity
  8
002
 62
     3
100
AcDbLine
 10
500.31201
 20
288.047309
 30
0.0
 11
501.31201
 21
287.047309
 31
0.0
  0
LINE
  5
496
100
AcDbEntity
  8
002
 62
     3
100
AcDbLine
 10
501.31201
 20
287.047309
 30
0.0
 11
501.31201
 21
274.047309
 31
0.0
  0
LINE
  5
497
100
AcDbEntity
  8
002
 62
     3
100
AcDbLine
 10
501.31201
 20
274.047309
 30
0.0
 11
500.31201
 21
273.047309
 31
0.0
  0
LINE
  5
498
100
AcDbEntity
  8
002
 62
     3
100
AcDbLine
 10
500.31201
 20
288.047309
 30
0.0
 11
476.31171
 21
288.047309
 31
0.0
  0
ARC
  5
499
100
AcDbEntity
  8
002
 62
     3
100
AcDbCircle
 10
479.81171
 20
280.547309
 30
0.0
 40
2.5
100
AcDbArc
 50
90.0
 51
270.0
  0
LINE
  5
49A
100
AcDbEntity
  8
002
 62
     3
100
AcDbLine
 10
472.31171
 20
264.998309
 30
0.0
 11
467.31171
 21
264.998309
 31
0.0
  0
LINE
  5
49B
100
AcDbEntity
  8
002
 62
     3
100
AcDbLine
 10
476.31171
 20
272.547309
 30
0.0
 11
476.31171
 21
288.547309
 31
0.0
  0
LINE
  5
49C
100
AcDbEntity
  8
002
 62
     3
100
AcDbLine
 10
474.31171
 20
272.547309
 30
0.0
 11
476.31171
 21
272.547309
 31
0.0
  0
LINE
  5
49D
100
AcDbEntity
  8
002
 62
     3
100
AcDbLine
 10
476.31171
 20
288.547309
 30
0.0
 11
474.31171
 21
288.547309
 31
0.0
  0
LINE
  5
49E
100
AcDbEntity
  8
002
 62
     3
100
AcDbLine
 10
467.31171
 20
304.595809
 30
0.0
 11
472.31171
 21
304.595809
 31
0.0
  0
LINE
  5
49F
100
AcDbEntity
  8
002
 62
     3
100
AcDbLine
 10
372.31171
 20
375.547309
 30
0.0
 11
372.31171
 21
367.547309
 31
0.0
  0
LINE
  5
4A0
100
AcDbEntity
  8
002
 62
     3
100
AcDbLine
 10
372.31171
 20
367.547309
 30
0.0
 11
371.31171
 21
366.547309
 31
0.0
  0
ARC
  5
4A1
100
AcDbEntity
  8
002
 62
     3
100
AcDbCircle
 10
368.68671
 20
369.047309
 30
0.0
 40
3.625
100
AcDbArc
 50
316.397181
 51
43.602819
  0
LINE
  5
4A2
100
AcDbEntity
  8
002
 62
     3
100
AcDbLine
 10
371.31171
 20
376.547309
 30
0.0
 11
372.31171
 21
375.547309
 31
0.0
  0
ARC
  5
4A3
100
AcDbEntity
  8
002
 62
     3
100
AcDbCircle
 10
368.68671
 20
374.047309
 30
0.0
 40
3.625
100
AcDbArc
 50
316.397181
 51
43.602819
  0
LINE
  5
4A4
100
AcDbEntity
  8
002
 62
     3
100
AcDbLine
 10
368.31171
 20
376.547309
 30
0.0
 11
371.31171
 21
376.547309
 31
0.0
  0
ARC
  5
4A5
100
AcDbEntity
  8
002
 62
     3
100
AcDbCircle
 10
370.93671
 20
374.047309
 30
0.0
 40
3.625
100
AcDbArc
 50
136.397181
 51
223.602819
  0
LINE
  5
4A6
100
AcDbEntity
  8
002
 62
     3
100
AcDbLine
 10
368.31171
 20
371.547309
 30
0.0
 11
371.31171
 21
371.547309
 31
0.0
  0
ARC
  5
4A7
100
AcDbEntity
  8
002
 62
     3
100
AcDbCircle
 10
370.93671
 20
369.047309
 30
0.0
 40
3.625
100
AcDbArc
 50
136.397181
 51
223.602819
  0
LINE
  5
4A8
100
AcDbEntity
  8
002
 62
     3
100
AcDbLine
 10
371.31171
 20
366.547309
 30
0.0
 11
368.31171
 21
366.547309
 31
0.0
  0
LINE
  5
4A9
100
AcDbEntity
  8
002
 62
     3
100
AcDbLine
 10
368.31171
 20
366.547309
 30
0.0
 11
365.39821
 21
368.687309
 31
0.0
  0
LINE
  5
4AA
100
AcDbEntity
  8
002
 62
     3
100
AcDbLine
 10
365.39821
 20
374.407309
 30
0.0
 11
368.31171
 21
376.547309
 31
0.0
  0
ARC
  5
4AB
100
AcDbEntity
  8
002
 62
     3
100
AcDbCircle
 10
364.69111
 20
367.980209
 30
0.0
 40
0.99999
100
AcDbArc
 50
45.0
 51
122.005383
  0
LINE
  5
4AC
100
AcDbEntity
  8
002
 62
     3
100
AcDbLine
 10
363.31171
 20
368.297309
 30
0.0
 11
364.16111
 21
368.828209
 31
0.0
  0
LINE
  5
4AD
100
AcDbEntity
  8
002
 62
     3
100
AcDbLine
 10
360.31171
 20
369.047309
 30
0.0
 11
363.31171
 21
368.297309
 31
0.0
  0
LINE
  5
4AE
100
AcDbEntity
  8
002
 62
     3
100
AcDbLine
 10
360.31171
 20
374.047309
 30
0.0
 11
360.31171
 21
369.047309
 31
0.0
  0
ARC
  5
4AF
100
AcDbEntity
  8
002
 62
     3
100
AcDbCircle
 10
360.97321
 20
371.547309
 30
0.0
 40
1.000041
100
AcDbArc
 50
131.412294
 51
228.587706
  0
LINE
  5
4B0
100
AcDbEntity
  8
002
 62
     3
100
AcDbLine
 10
363.31171
 20
374.797309
 30
0.0
 11
360.31171
 21
374.047309
 31
0.0
  0
LINE
  5
4B1
100
AcDbEntity
  8
002
 62
     3
100
AcDbLine
 10
364.16111
 20
374.266409
 30
0.0
 11
363.31171
 21
374.797309
 31
0.0
  0
ARC
  5
4B2
100
AcDbEntity
  8
002
 62
     3
100
AcDbCircle
 10
364.69111
 20
375.114409
 30
0.0
 40
1.000002
100
AcDbArc
 50
237.994617
 51
315.0
  0
LINE
  5
4B3
100
AcDbEntity
  8
002
 62
     3
100
AcDbLine
 10
364.83571
 20
369.249809
 30
0.0
 11
364.83571
 21
373.844809
 31
0.0
  0
LINE
  5
4B4
100
AcDbEntity
  8
002
 62
     3
100
AcDbLine
 10
363.31171
 20
369.047309
 30
0.0
 11
363.31171
 21
374.047309
 31
0.0
  0
LINE
  5
4B5
100
AcDbEntity
  8
002
  6
CENTER
 62
     9
100
AcDbLine
 10
379.361478
 20
371.547309
 30
0.0
 11
357.633986
 21
371.547309
 31
0.0
  0
LINE
  5
4B6
100
AcDbEntity
  8
002
 62
     3
100
AcDbLine
 10
372.31171
 20
375.408809
 30
0.0
 11
373.31171
 21
375.408809
 31
0.0
  0
LINE
  5
4B7
100
AcDbEntity
  8
002
 62
     3
100
AcDbLine
 10
373.31171
 20
367.685809
 30
0.0
 11
372.31171
 21
367.685809
 31
0.0
  0
LINE
  5
4B8
100
AcDbEntity
  8
002
 62
     3
100
AcDbLine
 10
450.31171
 20
375.547309
 30
0.0
 11
450.31171
 21
367.547309
 31
0.0
  0
LINE
  5
4B9
100
AcDbEntity
  8
002
 62
     3
100
AcDbLine
 10
450.31171
 20
367.547309
 30
0.0
 11
451.31171
 21
366.547309
 31
0.0
  0
ARC
  5
4BA
100
AcDbEntity
  8
002
 62
     3
100
AcDbCircle
 10
453.93671
 20
369.047309
 30
0.0
 40
3.625
100
AcDbArc
 50
136.397181
 51
223.602819
  0
LINE
  5
4BB
100
AcDbEntity
  8
002
 62
     3
100
AcDbLine
 10
451.31171
 20
376.547309
 30
0.0
 11
450.31171
 21
375.547309
 31
0.0
  0
ARC
  5
4BC
100
AcDbEntity
  8
002
 62
     3
100
AcDbCircle
 10
453.93671
 20
374.047309
 30
0.0
 40
3.625
100
AcDbArc
 50
136.397181
 51
223.602819
  0
LINE
  5
4BD
100
AcDbEntity
  8
002
 62
     3
100
AcDbLine
 10
454.31171
 20
376.547309
 30
0.0
 11
451.31171
 21
376.547309
 31
0.0
  0
ARC
  5
4BE
100
AcDbEntity
  8
002
 62
     3
100
AcDbCircle
 10
451.68671
 20
374.047309
 30
0.0
 40
3.625
100
AcDbArc
 50
316.397181
 51
43.602819
  0
LINE
  5
4BF
100
AcDbEntity
  8
002
 62
     3
100
AcDbLine
 10
454.31171
 20
371.547309
 30
0.0
 11
451.31171
 21
371.547309
 31
0.0
  0
ARC
  5
4C0
100
AcDbEntity
  8
002
 62
     3
100
AcDbCircle
 10
451.68671
 20
369.047309
 30
0.0
 40
3.625
100
AcDbArc
 50
316.397181
 51
43.602819
  0
LINE
  5
4C1
100
AcDbEntity
  8
002
 62
     3
100
AcDbLine
 10
451.31171
 20
366.547309
 30
0.0
 11
454.31171
 21
366.547309
 31
0.0
  0
LINE
  5
4C2
100
AcDbEntity
  8
002
 62
     3
100
AcDbLine
 10
454.31171
 20
366.547309
 30
0.0
 11
457.22521
 21
368.687309
 31
0.0
  0
LINE
  5
4C3
100
AcDbEntity
  8
002
 62
     3
100
AcDbLine
 10
457.22521
 20
374.407309
 30
0.0
 11
454.31171
 21
376.547309
 31
0.0
  0
ARC
  5
4C4
100
AcDbEntity
  8
002
 62
     3
100
AcDbCircle
 10
457.93231
 20
367.980209
 30
0.0
 40
0.99999
100
AcDbArc
 50
57.994617
 51
135.0
  0
LINE
  5
4C5
100
AcDbEntity
  8
002
 62
     3
100
AcDbLine
 10
459.31171
 20
368.297309
 30
0.0
 11
458.46231
 21
368.828209
 31
0.0
  0
LINE
  5
4C6
100
AcDbEntity
  8
002
 62
     3
100
AcDbLine
 10
462.31171
 20
369.047309
 30
0.0
 11
459.31171
 21
368.297309
 31
0.0
  0
LINE
  5
4C7
100
AcDbEntity
  8
002
 62
     3
100
AcDbLine
 10
462.31171
 20
374.047309
 30
0.0
 11
462.31171
 21
369.047309
 31
0.0
  0
ARC
  5
4C8
100
AcDbEntity
  8
002
 62
     3
100
AcDbCircle
 10
461.65021
 20
371.547309
 30
0.0
 40
1.000041
100
AcDbArc
 50
311.412294
 51
48.587706
  0
LINE
  5
4C9
100
AcDbEntity
  8
002
 62
     3
100
AcDbLine
 10
459.31171
 20
374.797309
 30
0.0
 11
462.31171
 21
374.047309
 31
0.0
  0
LINE
  5
4CA
100
AcDbEntity
  8
002
 62
     3
100
AcDbLine
 10
458.46231
 20
374.266409
 30
0.0
 11
459.31171
 21
374.797309
 31
0.0
  0
ARC
  5
4CB
100
AcDbEntity
  8
002
 62
     3
100
AcDbCircle
 10
457.93231
 20
375.114409
 30
0.0
 40
1.000002
100
AcDbArc
 50
225.0
 51
302.005383
  0
LINE
  5
4CC
100
AcDbEntity
  8
002
 62
     3
100
AcDbLine
 10
457.78771
 20
369.249809
 30
0.0
 11
457.78771
 21
373.844809
 31
0.0
  0
LINE
  5
4CD
100
AcDbEntity
  8
002
 62
     3
100
AcDbLine
 10
459.31171
 20
369.047309
 30
0.0
 11
459.31171
 21
374.047309
 31
0.0
  0
LINE
  5
4CE
100
AcDbEntity
  8
002
  6
CENTER
 62
     9
100
AcDbLine
 10
443.261943
 20
371.547309
 30
0.0
 11
464.989435
 21
371.547309
 31
0.0
  0
LINE
  5
4CF
100
AcDbEntity
  8
002
 62
     3
100
AcDbLine
 10
450.31171
 20
375.408809
 30
0.0
 11
449.31171
 21
375.408809
 31
0.0
  0
LINE
  5
4D0
100
AcDbEntity
  8
002
 62
     3
100
AcDbLine
 10
449.31171
 20
367.685809
 30
0.0
 11
450.31171
 21
367.685809
 31
0.0
  0
LINE
  5
4D1
100
AcDbEntity
  8
002
 62
     3
100
AcDbLine
 10
1135.035417
 20
441.547309
 30
0.0
 11
1090.035417
 21
441.547309
 31
0.0
  0
LINE
  5
4D2
100
AcDbEntity
  8
002
 62
     3
100
AcDbLine
 10
1090.035417
 20
441.547309
 30
0.0
 11
1088.656417
 21
398.451309
 31
0.0
  0
ARC
  5
4D3
100
AcDbEntity
  8
002
 62
     3
100
AcDbCircle
 10
1085.657417
 20
398.547309
 30
0.0
 40
3.0
100
AcDbArc
 50
270.0
 51
358.16655
  0
LINE
  5
4D4
100
AcDbEntity
  8
002
 62
     3
100
AcDbLine
 10
1086.785417
 20
395.767409
 30
0.0
 11
1086.785417
 21
400.547309
 31
0.0
  0
LINE
  5
4D5
100
AcDbEntity
  8
002
 62
     3
100
AcDbLine
 10
1078.285417
 20
400.547309
 30
0.0
 11
1078.285417
 21
395.547309
 31
0.0
  0
LINE
  5
4D6
100
AcDbEntity
  8
002
 62
     3
100
AcDbLine
 10
1075.035417
 20
395.547309
 30
0.0
 11
1150.035417
 21
395.547309
 31
0.0
  0
LINE
  5
4D7
100
AcDbEntity
  8
002
 62
     3
100
AcDbLine
 10
1150.035417
 20
395.547309
 30
0.0
 11
1150.035417
 21
391.547309
 31
0.0
  0
LINE
  5
4D8
100
AcDbEntity
  8
002
 62
     3
100
AcDbLine
 10
1150.535417
 20
391.547309
 30
0.0
 11
1150.535417
 21
327.340609
 31
0.0
  0
LINE
  5
4D9
100
AcDbEntity
  8
002
 62
     3
100
AcDbLine
 10
1150.636417
 20
333.547309
 30
0.0
 11
1150.636417
 21
325.547309
 31
0.0
  0
LINE
  5
4DA
100
AcDbEntity
  8
002
 62
     3
100
AcDbLine
 10
1150.636417
 20
327.340609
 30
0.0
 11
1119.035417
 21
327.340609
 31
0.0
  0
LINE
  5
4DB
100
AcDbEntity
  8
002
 62
     3
100
AcDbLine
 10
1119.035417
 20
325.547309
 30
0.0
 11
1119.035417
 21
333.547309
 31
0.0
  0
LINE
  5
4DC
100
AcDbEntity
  8
002
 62
     3
100
AcDbLine
 10
1106.035417
 20
333.547309
 30
0.0
 11
1106.035417
 21
325.547309
 31
0.0
  0
LINE
  5
4DD
100
AcDbEntity
  8
002
 62
     3
100
AcDbLine
 10
1106.035417
 20
327.340609
 30
0.0
 11
1074.435417
 21
327.340609
 31
0.0
  0
LINE
  5
4DE
100
AcDbEntity
  8
002
 62
     3
100
AcDbLine
 10
1074.435417
 20
325.547309
 30
0.0
 11
1074.435417
 21
333.547309
 31
0.0
  0
LINE
  5
4DF
100
AcDbEntity
  8
002
 62
     3
100
AcDbLine
 10
1061.435417
 20
333.547309
 30
0.0
 11
1074.435417
 21
333.547309
 31
0.0
  0
LINE
  5
4E0
100
AcDbEntity
  8
002
 62
     3
100
AcDbLine
 10
1074.535417
 20
327.340609
 30
0.0
 11
1074.535417
 21
391.547309
 31
0.0
  0
LINE
  5
4E1
100
AcDbEntity
  8
002
 62
     3
100
AcDbLine
 10
1074.535417
 20
391.547309
 30
0.0
 11
1150.535417
 21
391.547309
 31
0.0
  0
LINE
  5
4E2
100
AcDbEntity
  8
002
 62
     3
100
AcDbLine
 10
1146.785417
 20
395.547309
 30
0.0
 11
1146.785417
 21
400.547309
 31
0.0
  0
LINE
  5
4E3
100
AcDbEntity
  8
002
 62
     3
100
AcDbLine
 10
1146.785417
 20
400.547309
 30
0.0
 11
1138.285417
 21
400.547309
 31
0.0
  0
LINE
  5
4E4
100
AcDbEntity
  8
002
 62
     3
100
AcDbLine
 10
1138.285417
 20
400.547309
 30
0.0
 11
1138.285417
 21
395.767409
 31
0.0
  0
ARC
  5
4E5
100
AcDbEntity
  8
002
 62
     3
100
AcDbCircle
 10
1139.413417
 20
398.547309
 30
0.0
 40
2.999537
100
AcDbArc
 50
181.834061
 51
270.0
  0
LINE
  5
4E6
100
AcDbEntity
  8
002
 62
     3
100
AcDbLine
 10
1136.415417
 20
398.451309
 30
0.0
 11
1135.035417
 21
441.547309
 31
0.0
  0
LINE
  5
4E7
100
AcDbEntity
  8
002
 62
     3
100
AcDbLine
 10
1086.785417
 20
400.547309
 30
0.0
 11
1078.285417
 21
400.547309
 31
0.0
  0
LINE
  5
4E8
100
AcDbEntity
  8
002
 62
     3
100
AcDbLine
 10
1075.035417
 20
395.547309
 30
0.0
 11
1075.035417
 21
391.547309
 31
0.0
  0
LINE
  5
4E9
100
AcDbEntity
  8
002
 62
     3
100
AcDbLine
 10
1108.285417
 20
395.547309
 30
0.0
 11
1108.285417
 21
400.547309
 31
0.0
  0
LINE
  5
4EA
100
AcDbEntity
  8
002
 62
     3
100
AcDbLine
 10
1108.285417
 20
400.547309
 30
0.0
 11
1116.785417
 21
400.547309
 31
0.0
  0
LINE
  5
4EB
100
AcDbEntity
  8
002
 62
     3
100
AcDbLine
 10
1116.785417
 20
400.547309
 30
0.0
 11
1116.785417
 21
395.547309
 31
0.0
  0
LINE
  5
4EC
100
AcDbEntity
  8
002
 62
     3
100
AcDbLine
 10
1115.422417
 20
376.547309
 30
0.0
 11
1118.309417
 21
371.547309
 31
0.0
  0
LINE
  5
4ED
100
AcDbEntity
  8
002
 62
     3
100
AcDbLine
 10
1118.309417
 20
371.547309
 30
0.0
 11
1115.422417
 21
366.547309
 31
0.0
  0
LINE
  5
4EE
100
AcDbEntity
  8
002
 62
     3
100
AcDbLine
 10
1115.422417
 20
366.547309
 30
0.0
 11
1109.649417
 21
366.547309
 31
0.0
  0
LINE
  5
4EF
100
AcDbEntity
  8
002
 62
     3
100
AcDbLine
 10
1109.649417
 20
366.547309
 30
0.0
 11
1106.762417
 21
371.547309
 31
0.0
  0
LINE
  5
4F0
100
AcDbEntity
  8
002
 62
     3
100
AcDbLine
 10
1106.762417
 20
371.547309
 30
0.0
 11
1109.649417
 21
376.547309
 31
0.0
  0
LINE
  5
4F1
100
AcDbEntity
  8
002
 62
     3
100
AcDbLine
 10
1109.649417
 20
376.547309
 30
0.0
 11
1115.422417
 21
376.547309
 31
0.0
  0
CIRCLE
  5
4F2
100
AcDbEntity
  8
002
 62
     3
100
AcDbCircle
 10
1112.535417
 20
371.547309
 30
0.0
 40
0.75
  0
CIRCLE
  5
4F3
100
AcDbEntity
  8
002
 62
     3
100
AcDbCircle
 10
1112.535417
 20
371.547309
 30
0.0
 40
2.5
  0
CIRCLE
  5
4F4
100
AcDbEntity
  8
002
 62
     3
100
AcDbCircle
 10
1112.535417
 20
371.547309
 30
0.0
 40
3.25
  0
CIRCLE
  5
4F5
100
AcDbEntity
  8
002
 62
     3
100
AcDbCircle
 10
1112.535417
 20
371.547309
 30
0.0
 40
5.0
  0
LINE
  5
4F6
100
AcDbEntity
  8
002
 62
     3
100
AcDbLine
 10
1106.035417
 20
333.547309
 30
0.0
 11
1119.035417
 21
333.547309
 31
0.0
  0
LINE
  5
4F7
100
AcDbEntity
  8
002
 62
     3
100
AcDbLine
 10
1131.987417
 20
310.547309
 30
0.0
 11
1181.987417
 21
310.547309
 31
0.0
  0
ARC
  5
4F8
100
AcDbEntity
  8
002
 62
     3
100
AcDbCircle
 10
1181.987417
 20
305.547309
 30
0.0
 40
5.0
100
AcDbArc
 50
0.0
 51
90.0
  0
LINE
  5
4F9
100
AcDbEntity
  8
002
 62
     3
100
AcDbLine
 10
1186.987417
 20
305.547309
 30
0.0
 11
1186.987417
 21
255.547309
 31
0.0
  0
ARC
  5
4FA
100
AcDbEntity
  8
002
 62
     3
100
AcDbCircle
 10
1181.987417
 20
255.547309
 30
0.0
 40
5.0
100
AcDbArc
 50
270.0
 51
0.0
  0
LINE
  5
4FB
100
AcDbEntity
  8
002
 62
     3
100
AcDbLine
 10
1181.987417
 20
250.547309
 30
0.0
 11
1131.987417
 21
250.547309
 31
0.0
  0
ARC
  5
4FC
100
AcDbEntity
  8
002
 62
     3
100
AcDbCircle
 10
1131.987417
 20
255.547309
 30
0.0
 40
5.0
100
AcDbArc
 50
180.0
 51
270.0
  0
LINE
  5
4FD
100
AcDbEntity
  8
002
 62
     3
100
AcDbLine
 10
1126.987417
 20
255.547309
 30
0.0
 11
1126.987417
 21
305.547309
 31
0.0
  0
ARC
  5
4FE
100
AcDbEntity
  8
002
 62
     3
100
AcDbCircle
 10
1131.987417
 20
305.547309
 30
0.0
 40
5.0
100
AcDbArc
 50
90.0
 51
180.0
  0
LINE
  5
4FF
100
AcDbEntity
  8
002
 62
     3
100
AcDbLine
 10
1134.987417
 20
307.547309
 30
0.0
 11
1178.987417
 21
307.547309
 31
0.0
  0
ARC
  5
500
100
AcDbEntity
  8
002
 62
     3
100
AcDbCircle
 10
1178.987417
 20
302.547309
 30
0.0
 40
5.0
100
AcDbArc
 50
0.0
 51
90.0
  0
LINE
  5
501
100
AcDbEntity
  8
002
 62
     3
100
AcDbLine
 10
1183.987417
 20
305.547309
 30
0.0
 11
1183.987417
 21
255.547309
 31
0.0
  0
ARC
  5
502
100
AcDbEntity
  8
002
 62
     3
100
AcDbCircle
 10
1178.987417
 20
255.547309
 30
0.0
 40
5.0
100
AcDbArc
 50
270.0
 51
0.0
  0
LINE
  5
503
100
AcDbEntity
  8
002
 62
     3
100
AcDbLine
 10
1178.987417
 20
253.547309
 30
0.0
 11
1134.987417
 21
253.547309
 31
0.0
  0
ARC
  5
504
100
AcDbEntity
  8
002
 62
     3
100
AcDbCircle
 10
1134.987417
 20
258.547309
 30
0.0
 40
5.0
100
AcDbArc
 50
180.0
 51
270.0
  0
LINE
  5
505
100
AcDbEntity
  8
002
 62
     3
100
AcDbLine
 10
1129.987417
 20
258.547309
 30
0.0
 11
1129.987417
 21
302.547309
 31
0.0
  0
ARC
  5
506
100
AcDbEntity
  8
002
 62
     3
100
AcDbCircle
 10
1134.987417
 20
302.547309
 30
0.0
 40
5.0
100
AcDbArc
 50
90.0
 51
180.0
  0
LINE
  5
507
100
AcDbEntity
  8
002
 62
     3
100
AcDbLine
 10
1136.591417
 20
302.577009
 30
0.0
 11
1134.958417
 21
300.944009
 31
0.0
  0
LINE
  5
508
100
AcDbEntity
  8
002
 62
     3
100
AcDbLine
 10
1134.958417
 20
300.944009
 30
0.0
 11
1135.555417
 21
298.713309
 31
0.0
  0
LINE
  5
509
100
AcDbEntity
  8
002
 62
     3
100
AcDbLine
 10
1135.555417
 20
298.713309
 30
0.0
 11
1137.786417
 21
298.115609
 31
0.0
  0
LINE
  5
50A
100
AcDbEntity
  8
002
 62
     3
100
AcDbLine
 10
1137.786417
 20
298.115609
 30
0.0
 11
1139.419417
 21
299.748509
 31
0.0
  0
LINE
  5
50B
100
AcDbEntity
  8
002
 62
     3
100
AcDbLine
 10
1139.419417
 20
299.748509
 30
0.0
 11
1138.821417
 21
301.979309
 31
0.0
  0
LINE
  5
50C
100
AcDbEntity
  8
002
 62
     3
100
AcDbLine
 10
1138.821417
 20
301.979309
 30
0.0
 11
1136.591417
 21
302.577009
 31
0.0
  0
CIRCLE
  5
50D
100
AcDbEntity
  8
002
 62
     3
100
AcDbCircle
 10
1137.188417
 20
300.346309
 30
0.0
 40
4.25
  0
LINE
  5
50E
100
AcDbEntity
  8
002
 62
     3
100
AcDbLine
 10
1126.987417
 20
297.547309
 30
0.0
 11
1055.987417
 21
297.547309
 31
0.0
  0
ARC
  5
50F
100
AcDbEntity
  8
002
 62
     3
100
AcDbCircle
 10
1054.535417
 20
293.823909
 30
0.0
 40
3.0
100
AcDbArc
 50
0.0
 51
67.97587
  0
LINE
  5
510
100
AcDbEntity
  8
002
 62
     3
100
AcDbLine
 10
1057.535417
 20
293.823909
 30
0.0
 11
1057.535417
 21
265.547309
 31
0.0
  0
LINE
  5
511
100
AcDbEntity
  8
002
 62
     3
100
AcDbLine
 10
1057.535417
 20
265.547309
 30
0.0
 11
1061.829417
 21
264.396709
 31
0.0
  0
ARC
  5
512
100
AcDbEntity
  8
002
 62
     3
100
AcDbCircle
 10
1060.535417
 20
259.567009
 30
0.0
 40
5.0
100
AcDbArc
 50
0.0
 51
75.001264
  0
LINE
  5
513
100
AcDbEntity
  8
002
 62
     3
100
AcDbLine
 10
1065.535417
 20
248.547309
 30
0.0
 11
1065.535417
 21
291.331509
 31
0.0
  0
LINE
  5
514
100
AcDbEntity
  8
002
 62
     3
100
AcDbLine
 10
1065.535417
 20
293.547309
 30
0.0
 11
1101.535417
 21
293.547309
 31
0.0
  0
ARC
  5
515
100
AcDbEntity
  8
002
 62
     3
100
AcDbCircle
 10
1101.535417
 20
290.547309
 30
0.0
 40
3.0
100
AcDbArc
 50
0.0
 51
90.0
  0
LINE
  5
516
100
AcDbEntity
  8
002
 62
     3
100
AcDbLine
 10
1104.535417
 20
291.470309
 30
0.0
 11
1104.535417
 21
280.547309
 31
0.0
  0
CIRCLE
  5
517
100
AcDbEntity
  8
002
 62
     3
100
AcDbCircle
 10
1112.535417
 20
280.547309
 30
0.0
 40
5.0
  0
CIRCLE
  5
518
100
AcDbEntity
  8
002
 62
     3
100
AcDbCircle
 10
1112.535417
 20
280.547309
 30
0.0
 40
3.25
  0
CIRCLE
  5
519
100
AcDbEntity
  8
002
 62
     3
100
AcDbCircle
 10
1112.535417
 20
280.547309
 30
0.0
 40
2.5
  0
CIRCLE
  5
51A
100
AcDbEntity
  8
002
 62
     3
100
AcDbCircle
 10
1112.535417
 20
280.547309
 30
0.0
 40
0.75
  0
LINE
  5
51B
100
AcDbEntity
  8
002
 62
     3
100
AcDbLine
 10
1107.535417
 20
283.434009
 30
0.0
 11
1112.535417
 21
286.320809
 31
0.0
  0
LINE
  5
51C
100
AcDbEntity
  8
002
 62
     3
100
AcDbLine
 10
1112.535417
 20
286.320809
 30
0.0
 11
1117.535417
 21
283.434009
 31
0.0
  0
LINE
  5
51D
100
AcDbEntity
  8
002
 62
     3
100
AcDbLine
 10
1117.535417
 20
283.434009
 30
0.0
 11
1117.535417
 21
277.660509
 31
0.0
  0
LINE
  5
51E
100
AcDbEntity
  8
002
 62
     3
100
AcDbLine
 10
1117.535417
 20
277.660509
 30
0.0
 11
1112.535417
 21
274.773809
 31
0.0
  0
LINE
  5
51F
100
AcDbEntity
  8
002
 62
     3
100
AcDbLine
 10
1112.535417
 20
274.773809
 30
0.0
 11
1107.535417
 21
277.660509
 31
0.0
  0
LINE
  5
520
100
AcDbEntity
  8
002
 62
     3
100
AcDbLine
 10
1107.535417
 20
277.660509
 30
0.0
 11
1107.535417
 21
283.434009
 31
0.0
  0
LINE
  5
521
100
AcDbEntity
  8
002
 62
     3
100
AcDbLine
 10
1101.535417
 20
294.470309
 30
0.0
 11
1101.422417
 21
294.470309
 31
0.0
  0
ARC
  5
522
100
AcDbEntity
  8
002
 62
     3
100
AcDbCircle
 10
1101.535417
 20
291.470309
 30
0.0
 40
3.0
100
AcDbArc
 50
0.0
 51
90.0
  0
LINE
  5
523
100
AcDbEntity
  8
002
 62
     3
100
AcDbLine
 10
1120.535417
 20
291.470309
 30
0.0
 11
1120.535417
 21
280.547309
 31
0.0
  0
ARC
  5
524
100
AcDbEntity
  8
002
 62
     3
100
AcDbCircle
 10
1112.535417
 20
280.547309
 30
0.0
 40
8.0
100
AcDbArc
 50
180.0
 51
0.0
  0
ARC
  5
525
100
AcDbEntity
  8
002
 62
     3
100
AcDbCircle
 10
1123.535417
 20
290.547309
 30
0.0
 40
3.0
100
AcDbArc
 50
90.0
 51
180.0
  0
LINE
  5
526
100
AcDbEntity
  8
002
 62
     3
100
AcDbLine
 10
1123.535417
 20
293.547309
 30
0.0
 11
1126.987417
 21
293.547309
 31
0.0
  0
LINE
  5
527
100
AcDbEntity
  8
002
 62
     3
100
AcDbLine
 10
1123.649417
 20
294.470309
 30
0.0
 11
1123.535417
 21
294.470309
 31
0.0
  0
ARC
  5
528
100
AcDbEntity
  8
002
 62
     3
100
AcDbCircle
 10
1123.535417
 20
291.470309
 30
0.0
 40
3.0
100
AcDbArc
 50
90.0
 51
180.0
  0
CIRCLE
  5
529
100
AcDbEntity
  8
002
 62
     3
100
AcDbCircle
 10
1156.987417
 20
280.547309
 30
0.0
 40
21.0
  0
CIRCLE
  5
52A
100
AcDbEntity
  8
002
 62
     3
100
AcDbCircle
 10
1156.987417
 20
280.547309
 30
0.0
 40
13.0
  0
LINE
  5
52B
100
AcDbEntity
  8
002
 62
     3
100
AcDbLine
 10
1154.487417
 20
285.447309
 30
0.0
 11
1154.487417
 21
289.647309
 31
0.0
  0
LINE
  5
52C
100
AcDbEntity
  8
002
 62
     3
100
AcDbLine
 10
1154.487417
 20
289.647309
 30
0.0
 11
1154.887417
 21
290.047309
 31
0.0
  0
LINE
  5
52D
100
AcDbEntity
  8
002
 62
     3
100
AcDbLine
 10
1154.887417
 20
290.047309
 30
0.0
 11
1159.087417
 21
290.047309
 31
0.0
  0
LINE
  5
52E
100
AcDbEntity
  8
002
 62
     3
100
AcDbLine
 10
1159.087417
 20
290.047309
 30
0.0
 11
1159.487417
 21
289.647309
 31
0.0
  0
LINE
  5
52F
100
AcDbEntity
  8
002
 62
     3
100
AcDbLine
 10
1159.487417
 20
289.647309
 30
0.0
 11
1159.487417
 21
285.447309
 31
0.0
  0
LINE
  5
530
100
AcDbEntity
  8
002
 62
     3
100
AcDbLine
 10
1159.487417
 20
285.447309
 30
0.0
 11
1159.087417
 21
285.047309
 31
0.0
  0
LINE
  5
531
100
AcDbEntity
  8
002
 62
     3
100
AcDbLine
 10
1159.087417
 20
285.047309
 30
0.0
 11
1154.887417
 21
285.047309
 31
0.0
  0
LINE
  5
532
100
AcDbEntity
  8
002
 62
     3
100
AcDbLine
 10
1154.887417
 20
285.047309
 30
0.0
 11
1154.487417
 21
285.447309
 31
0.0
  0
ARC
  5
533
100
AcDbEntity
  8
002
 62
     3
100
AcDbCircle
 10
1154.887417
 20
285.447309
 30
0.0
 40
0.4
100
AcDbArc
 50
180.0
 51
270.0
  0
ARC
  5
534
100
AcDbEntity
  8
002
 62
     3
100
AcDbCircle
 10
1159.087417
 20
285.447309
 30
0.0
 40
0.4
100
AcDbArc
 50
270.0
 51
0.0
  0
ARC
  5
535
100
AcDbEntity
  8
002
 62
     3
100
AcDbCircle
 10
1156.987417
 20
280.547309
 30
0.0
 40
7.499936
100
AcDbArc
 50
109.471393
 51
70.528607
  0
ARC
  5
536
100
AcDbEntity
  8
002
 62
     3
100
AcDbCircle
 10
1156.987417
 20
280.547309
 30
0.0
 40
7.99996
100
AcDbArc
 50
108.210051
 51
71.789949
  0
CIRCLE
  5
537
100
AcDbEntity
  8
002
 62
     3
100
AcDbCircle
 10
1176.786417
 20
300.346309
 30
0.0
 40
4.25
  0
LINE
  5
538
100
AcDbEntity
  8
002
 62
     3
100
AcDbLine
 10
1174.556417
 20
299.748509
 30
0.0
 11
1175.153417
 21
301.979309
 31
0.0
  0
LINE
  5
539
100
AcDbEntity
  8
002
 62
     3
100
AcDbLine
 10
1175.153417
 20
301.979309
 30
0.0
 11
1177.384417
 21
302.577009
 31
0.0
  0
LINE
  5
53A
100
AcDbEntity
  8
002
 62
     3
100
AcDbLine
 10
1177.384417
 20
302.577009
 30
0.0
 11
1179.017417
 21
300.944009
 31
0.0
  0
LINE
  5
53B
100
AcDbEntity
  8
002
 62
     3
100
AcDbLine
 10
1179.017417
 20
300.944009
 30
0.0
 11
1178.419417
 21
298.713309
 31
0.0
  0
LINE
  5
53C
100
AcDbEntity
  8
002
 62
     3
100
AcDbLine
 10
1178.419417
 20
298.713309
 30
0.0
 11
1176.189417
 21
298.115609
 31
0.0
  0
LINE
  5
53D
100
AcDbEntity
  8
002
 62
     3
100
AcDbLine
 10
1176.189417
 20
298.115609
 30
0.0
 11
1174.556417
 21
299.748509
 31
0.0
  0
LINE
  5
53E
100
AcDbEntity
  8
002
 62
     3
100
AcDbLine
 10
1172.535417
 20
310.547309
 30
0.0
 11
1172.535417
 21
325.547309
 31
0.0
  0
LINE
  5
53F
100
AcDbEntity
  8
002
 62
     3
100
AcDbLine
 10
1172.535417
 20
325.547309
 30
0.0
 11
1052.535417
 21
325.547309
 31
0.0
  0
LINE
  5
540
100
AcDbEntity
  8
002
 62
     3
100
AcDbLine
 10
1052.535417
 20
325.547309
 30
0.0
 11
1052.535417
 21
301.240109
 31
0.0
  0
ARC
  5
541
100
AcDbEntity
  8
002
 62
     3
100
AcDbCircle
 10
1057.535417
 20
301.240109
 30
0.0
 40
5.0
100
AcDbArc
 50
180.0
 51
252.901989
  0
LINE
  5
542
100
AcDbEntity
  8
002
 62
     3
100
AcDbLine
 10
1056.065417
 20
296.461209
 30
0.0
 11
1063.418417
 21
294.198909
 31
0.0
  0
ARC
  5
543
100
AcDbEntity
  8
002
 62
     3
100
AcDbCircle
 10
1062.535417
 20
291.331509
 30
0.0
 40
3.0
100
AcDbArc
 50
0.0
 51
72.884073
  0
LINE
  5
544
100
AcDbEntity
  8
002
 62
     3
100
AcDbLine
 10
1057.535417
 20
290.774809
 30
0.0
 11
1049.535417
 21
291.024809
 31
0.0
  0
LINE
  5
545
100
AcDbEntity
  8
002
 62
     3
100
AcDbLine
 10
1049.535417
 20
291.024809
 30
0.0
 11
1049.535417
 21
270.069809
 31
0.0
  0
LINE
  5
546
100
AcDbEntity
  8
002
 62
     3
100
AcDbLine
 10
1049.535417
 20
270.069809
 30
0.0
 11
1057.535417
 21
270.319809
 31
0.0
  0
LINE
  5
547
100
AcDbEntity
  8
002
 62
     3
100
AcDbLine
 10
1049.535417
 20
273.547309
 30
0.0
 11
1039.535417
 21
274.047309
 31
0.0
  0
LINE
  5
548
100
AcDbEntity
  8
002
 62
     3
100
AcDbLine
 10
1039.535417
 20
274.047309
 30
0.0
 11
1039.535417
 21
287.047309
 31
0.0
  0
LINE
  5
549
100
AcDbEntity
  8
002
 62
     3
100
AcDbLine
 10
1039.535417
 20
287.047309
 30
0.0
 11
1049.535417
 21
287.547309
 31
0.0
  0
LINE
  5
54A
100
AcDbEntity
  8
002
 62
     3
100
AcDbLine
 10
1052.535417
 20
315.547309
 30
0.0
 11
1172.535417
 21
315.547309
 31
0.0
  0
ARC
  5
54B
100
AcDbEntity
  8
002
 62
     3
100
AcDbCircle
 10
1178.987417
 20
305.547309
 30
0.0
 40
5.0
100
AcDbArc
 50
0.0
 51
90.0
  0
LINE
  5
54C
100
AcDbEntity
  8
002
 62
     3
100
AcDbLine
 10
1186.675417
 20
307.287809
 30
0.0
 11
1208.504417
 21
248.502409
 31
0.0
  0
LINE
  5
54D
100
AcDbEntity
  8
002
 62
     3
100
AcDbLine
 10
1207.987417
 20
248.547309
 30
0.0
 11
1053.987417
 21
248.547309
 31
0.0
  0
LINE
  5
54E
100
AcDbEntity
  8
002
 62
     3
100
AcDbLine
 10
1050.987417
 20
245.547309
 30
0.0
 11
1050.987417
 21
235.547309
 31
0.0
  0
LINE
  5
54F
100
AcDbEntity
  8
002
 62
     3
100
AcDbLine
 10
1050.987417
 20
235.547309
 30
0.0
 11
1210.987417
 21
235.547309
 31
0.0
  0
LINE
  5
550
100
AcDbEntity
  8
002
 62
     3
100
AcDbLine
 10
1210.987417
 20
235.547309
 30
0.0
 11
1210.987417
 21
245.547309
 31
0.0
  0
ARC
  5
551
100
AcDbEntity
  8
002
 62
     3
100
AcDbCircle
 10
1207.987417
 20
245.547309
 30
0.0
 40
3.0
100
AcDbArc
 50
0.0
 51
90.0
  0
LINE
  5
552
100
AcDbEntity
  8
002
 62
     3
100
AcDbLine
 10
1203.808417
 20
264.021209
 30
0.0
 11
1191.276417
 21
297.769509
 31
0.0
  0
LINE
  5
553
100
AcDbEntity
  8
002
 62
     3
100
AcDbLine
 10
1191.276417
 20
297.769509
 30
0.0
 11
1190.338417
 21
297.421409
 31
0.0
  0
LINE
  5
554
100
AcDbEntity
  8
002
 62
     3
100
AcDbLine
 10
1202.871417
 20
263.673109
 30
0.0
 11
1203.808417
 21
264.021209
 31
0.0
  0
ARC
  5
555
100
AcDbEntity
  8
002
 62
     3
100
AcDbCircle
 10
1178.987417
 20
258.547309
 30
0.0
 40
5.0
100
AcDbArc
 50
270.0
 51
0.0
  0
LINE
  5
556
100
AcDbEntity
  8
002
 62
     3
100
AcDbLine
 10
1177.384417
 20
258.517609
 30
0.0
 11
1179.017417
 21
260.150609
 31
0.0
  0
LINE
  5
557
100
AcDbEntity
  8
002
 62
     3
100
AcDbLine
 10
1179.017417
 20
260.150609
 30
0.0
 11
1178.419417
 21
262.381309
 31
0.0
  0
LINE
  5
558
100
AcDbEntity
  8
002
 62
     3
100
AcDbLine
 10
1178.419417
 20
262.381309
 30
0.0
 11
1176.189417
 21
262.979009
 31
0.0
  0
LINE
  5
559
100
AcDbEntity
  8
002
 62
     3
100
AcDbLine
 10
1176.189417
 20
262.979009
 30
0.0
 11
1174.556417
 21
261.346009
 31
0.0
  0
LINE
  5
55A
100
AcDbEntity
  8
002
 62
     3
100
AcDbLine
 10
1174.556417
 20
261.346009
 30
0.0
 11
1175.153417
 21
259.115309
 31
0.0
  0
LINE
  5
55B
100
AcDbEntity
  8
002
 62
     3
100
AcDbLine
 10
1175.153417
 20
259.115309
 30
0.0
 11
1177.384417
 21
258.517609
 31
0.0
  0
CIRCLE
  5
55C
100
AcDbEntity
  8
002
 62
     3
100
AcDbCircle
 10
1176.786417
 20
260.748309
 30
0.0
 40
4.25
  0
LINE
  5
55D
100
AcDbEntity
  8
002
 62
     3
100
AcDbLine
 10
1139.419417
 20
261.346009
 30
0.0
 11
1138.821417
 21
259.115309
 31
0.0
  0
LINE
  5
55E
100
AcDbEntity
  8
002
 62
     3
100
AcDbLine
 10
1138.821417
 20
259.115309
 30
0.0
 11
1136.591417
 21
258.517609
 31
0.0
  0
LINE
  5
55F
100
AcDbEntity
  8
002
 62
     3
100
AcDbLine
 10
1136.591417
 20
258.517609
 30
0.0
 11
1134.958417
 21
260.150609
 31
0.0
  0
LINE
  5
560
100
AcDbEntity
  8
002
 62
     3
100
AcDbLine
 10
1134.958417
 20
260.150609
 30
0.0
 11
1135.555417
 21
262.381309
 31
0.0
  0
LINE
  5
561
100
AcDbEntity
  8
002
 62
     3
100
AcDbLine
 10
1135.555417
 20
262.381309
 30
0.0
 11
1137.786417
 21
262.979009
 31
0.0
  0
LINE
  5
562
100
AcDbEntity
  8
002
 62
     3
100
AcDbLine
 10
1137.786417
 20
262.979009
 30
0.0
 11
1139.419417
 21
261.346009
 31
0.0
  0
CIRCLE
  5
563
100
AcDbEntity
  8
002
 62
     3
100
AcDbCircle
 10
1137.188417
 20
260.748309
 30
0.0
 40
4.25
  0
ARC
  5
564
100
AcDbEntity
  8
002
 62
     3
100
AcDbCircle
 10
1053.987417
 20
245.547309
 30
0.0
 40
3.0
100
AcDbArc
 50
90.0
 51
180.0
  0
LINE
  5
565
100
AcDbEntity
  8
002
 62
     3
100
AcDbLine
 10
1061.435417
 20
325.547309
 30
0.0
 11
1061.435417
 21
333.547309
 31
0.0
  0
LINE
  5
566
100
AcDbEntity
  8
002
 62
     3
100
AcDbLine
 10
1150.636417
 20
333.547309
 30
0.0
 11
1163.636417
 21
333.547309
 31
0.0
  0
LINE
  5
567
100
AcDbEntity
  8
002
 62
     3
100
AcDbLine
 10
1163.636417
 20
333.547309
 30
0.0
 11
1163.636417
 21
325.547309
 31
0.0
  0
LINE
  5
568
100
AcDbEntity
  8
002
  6
CENTER
 62
     9
100
AcDbLine
 10
1112.535417
 20
551.232249
 30
0.0
 11
1112.535417
 21
92.472621
 31
0.0
  0
LINE
  5
569
100
AcDbEntity
  8
002
  6
CENTER
 62
     9
100
AcDbLine
 10
1064.987417
 20
256.075509
 30
0.0
 11
1064.987417
 21
228.146809
 31
0.0
  0
LINE
  5
56A
100
AcDbEntity
  8
002
  6
CENTER
 62
     9
100
AcDbLine
 10
1196.987417
 20
228.146809
 30
0.0
 11
1196.987417
 21
256.075509
 31
0.0
  0
CIRCLE
  5
56B
100
AcDbEntity
  8
002
  6
CENTER
 62
     9
100
AcDbCircle
 10
1156.987417
 20
280.547309
 30
0.0
 40
28.0
  0
LINE
  5
56C
100
AcDbEntity
  8
002
  6
CENTER
 62
     9
100
AcDbLine
 10
1180.132417
 20
257.402309
 30
0.0
 11
1173.352417
 21
264.182209
 31
0.0
  0
LINE
  5
56D
100
AcDbEntity
  8
002
  6
CENTER
 62
     9
100
AcDbLine
 10
1140.622417
 20
264.182209
 30
0.0
 11
1133.842417
 21
257.402309
 31
0.0
  0
LINE
  5
56E
100
AcDbEntity
  8
002
  6
CENTER
 62
     9
100
AcDbLine
 10
1194.428417
 20
280.547309
 30
0.0
 11
1036.608417
 21
280.547309
 31
0.0
  0
LINE
  5
56F
100
AcDbEntity
  8
002
  6
CENTER
 62
     9
100
AcDbLine
 10
1156.987417
 20
248.547309
 30
0.0
 11
1156.987417
 21
312.296109
 31
0.0
  0
LINE
  5
570
100
AcDbEntity
  8
002
  6
CENTER
 62
     9
100
AcDbLine
 10
1173.352417
 20
296.912409
 30
0.0
 11
1180.132417
 21
303.692309
 31
0.0
  0
LINE
  5
571
100
AcDbEntity
  8
002
  6
CENTER
 62
     9
100
AcDbLine
 10
1140.622417
 20
296.912409
 30
0.0
 11
1133.842417
 21
303.692309
 31
0.0
  0
LINE
  5
572
100
AcDbEntity
  8
002
  6
CENTER
 62
     9
100
AcDbLine
 10
1157.135417
 20
309.158709
 30
0.0
 11
1157.135417
 21
335.558709
 31
0.0
  0
LINE
  5
573
100
AcDbEntity
  8
002
  6
CENTER
 62
     9
100
AcDbLine
 10
1067.935417
 20
309.158709
 30
0.0
 11
1067.935417
 21
335.558709
 31
0.0
  0
LINE
  5
574
100
AcDbEntity
  8
002
 62
     9
100
AcDbLine
 10
1039.535417
 20
287.047309
 30
0.0
 11
1049.535417
 21
273.547309
 31
0.0
  0
LINE
  5
575
100
AcDbEntity
  8
002
 62
     9
100
AcDbLine
 10
1039.535417
 20
274.047309
 30
0.0
 11
1049.535417
 21
287.547309
 31
0.0
  0
LINE
  5
576
100
AcDbEntity
  8
002
 62
     9
100
AcDbLine
 10
1049.535417
 20
271.231809
 30
0.0
 11
1057.535417
 21
271.481809
 31
0.0
  0
LINE
  5
577
100
AcDbEntity
  8
002
 62
     9
100
AcDbLine
 10
1049.535417
 20
289.862809
 30
0.0
 11
1057.535417
 21
289.612809
 31
0.0
  0
LINE
  5
578
100
AcDbEntity
  8
002
  6
CENTER
 62
     9
100
AcDbLine
 10
1103.762417
 20
371.547309
 30
0.0
 11
1120.936417
 21
371.547309
 31
0.0
  0
LINE
  5
579
100
AcDbEntity
  8
002
  6
CENTER
 62
     9
100
AcDbLine
 10
1082.535417
 20
382.003009
 30
0.0
 11
1082.535417
 21
401.974909
 31
0.0
  0
LINE
  5
57A
100
AcDbEntity
  8
002
  6
CENTER
 62
     9
100
AcDbLine
 10
1142.535417
 20
382.003009
 30
0.0
 11
1142.535417
 21
401.974909
 31
0.0
  0
LINE
  5
57B
100
AcDbEntity
  8
002
  6
HIDDEN
 62
     9
100
AcDbLine
 10
1059.487417
 20
235.547309
 30
0.0
 11
1059.487417
 21
248.547309
 31
0.0
  0
LINE
  5
57C
100
AcDbEntity
  8
002
  6
HIDDEN
 62
     9
100
AcDbLine
 10
1070.487417
 20
248.547309
 30
0.0
 11
1070.487417
 21
235.547309
 31
0.0
  0
LINE
  5
57D
100
AcDbEntity
  8
002
  6
HIDDEN
 62
     9
100
AcDbLine
 10
1191.487417
 20
248.547309
 30
0.0
 11
1191.487417
 21
235.547309
 31
0.0
  0
LINE
  5
57E
100
AcDbEntity
  8
002
  6
HIDDEN
 62
     9
100
AcDbLine
 10
1202.487417
 20
235.547309
 30
0.0
 11
1202.487417
 21
248.547309
 31
0.0
  0
LINE
  5
57F
100
AcDbEntity
  8
002
 62
     3
100
AcDbLine
 10
1134.535417
 20
542.547309
 30
0.0
 11
1134.535417
 21
525.547309
 31
0.0
  0
LINE
  5
580
100
AcDbEntity
  8
002
 62
     3
100
AcDbLine
 10
1134.535417
 20
525.547309
 30
0.0
 11
1090.535417
 21
525.547309
 31
0.0
  0
LINE
  5
581
100
AcDbEntity
  8
002
 62
     3
100
AcDbLine
 10
1090.535417
 20
525.547309
 30
0.0
 11
1090.535417
 21
542.547309
 31
0.0
  0
ARC
  5
582
100
AcDbEntity
  8
002
 62
     3
100
AcDbCircle
 10
1093.535417
 20
542.547309
 30
0.0
 40
3.0
100
AcDbArc
 50
90.0
 51
180.0
  0
LINE
  5
583
100
AcDbEntity
  8
002
 62
     3
100
AcDbLine
 10
1093.535417
 20
545.547309
 30
0.0
 11
1131.535417
 21
545.547309
 31
0.0
  0
ARC
  5
584
100
AcDbEntity
  8
002
 62
     3
100
AcDbCircle
 10
1131.535417
 20
542.547309
 30
0.0
 40
3.0
100
AcDbArc
 50
0.0
 51
90.0
  0
LINE
  5
585
100
AcDbEntity
  8
002
 62
     3
100
AcDbLine
 10
1131.535417
 20
525.547309
 30
0.0
 11
1131.535417
 21
441.547309
 31
0.0
  0
LINE
  5
586
100
AcDbEntity
  8
002
 62
     3
100
AcDbLine
 10
1093.535417
 20
441.547309
 30
0.0
 11
1093.535417
 21
525.547309
 31
0.0
  0
LINE
  5
587
100
AcDbEntity
  8
002
 62
     3
100
AcDbLine
 10
1077.987417
 20
248.547309
 30
0.0
 11
1077.987417
 21
235.547309
 31
0.0
  0
LINE
  5
588
100
AcDbEntity
  8
002
 62
     3
100
AcDbLine
 10
1183.987417
 20
235.547309
 30
0.0
 11
1183.987417
 21
248.547309
 31
0.0
  0
LINE
  5
589
100
AcDbEntity
  8
002
 62
     3
100
AcDbLine
 10
1150.035417
 20
235.547309
 30
0.0
 11
1150.035417
 21
233.247309
 31
0.0
  0
LINE
  5
58A
100
AcDbEntity
  8
002
 62
     3
100
AcDbLine
 10
1150.035417
 20
233.247309
 30
0.0
 11
1075.035417
 21
233.247309
 31
0.0
  0
LINE
  5
58B
100
AcDbEntity
  8
002
 62
     3
100
AcDbLine
 10
1075.035417
 20
233.247309
 30
0.0
 11
1075.035417
 21
235.547309
 31
0.0
  0
LINE
  5
58C
100
AcDbEntity
  8
002
 62
     3
100
AcDbLine
 10
1078.285417
 20
233.247309
 30
0.0
 11
1078.285417
 21
228.247309
 31
0.0
  0
LINE
  5
58D
100
AcDbEntity
  8
002
 62
     3
100
AcDbLine
 10
1078.285417
 20
228.247309
 30
0.0
 11
1086.785417
 21
228.247309
 31
0.0
  0
LINE
  5
58E
100
AcDbEntity
  8
002
 62
     3
100
AcDbLine
 10
1086.035417
 20
228.247309
 30
0.0
 11
1086.035417
 21
218.247309
 31
0.0
  0
LINE
  5
58F
100
AcDbEntity
  8
002
 62
     3
100
AcDbLine
 10
1086.035417
 20
218.247309
 30
0.0
 11
1147.035417
 21
218.247309
 31
0.0
  0
LINE
  5
590
100
AcDbEntity
  8
002
 62
     3
100
AcDbLine
 10
1148.181617
 20
214.242009
 30
0.0
 11
1139.889217
 21
215.252709
 31
0.0
  0
ARC
  5
591
100
AcDbEntity
  8
002
 62
     3
100
AcDbCircle
 10
1140.035417
 20
217.247309
 30
0.0
 40
2.0
100
AcDbArc
 50
180.0
 51
265.807836
  0
LINE
  5
592
100
AcDbEntity
  8
002
 62
     3
100
AcDbLine
 10
1138.035417
 20
217.247309
 30
0.0
 11
1138.035417
 21
218.247309
 31
0.0
  0
LINE
  5
593
100
AcDbEntity
  8
002
 62
     3
100
AcDbLine
 10
1139.035417
 20
218.247309
 30
0.0
 11
1139.035417
 21
228.247309
 31
0.0
  0
LINE
  5
594
100
AcDbEntity
  8
002
 62
     3
100
AcDbLine
 10
1138.285417
 20
228.247309
 30
0.0
 11
1146.785417
 21
228.247309
 31
0.0
  0
LINE
  5
595
100
AcDbEntity
  8
002
 62
     3
100
AcDbLine
 10
1138.285417
 20
228.247309
 30
0.0
 11
1138.285417
 21
233.247309
 31
0.0
  0
LINE
  5
596
100
AcDbEntity
  8
002
 62
     3
100
AcDbLine
 10
1116.785417
 20
233.247309
 30
0.0
 11
1116.785417
 21
228.247309
 31
0.0
  0
LINE
  5
597
100
AcDbEntity
  8
002
 62
     3
100
AcDbLine
 10
1108.285417
 20
228.247309
 30
0.0
 11
1116.785417
 21
228.247309
 31
0.0
  0
LINE
  5
598
100
AcDbEntity
  8
002
 62
     3
100
AcDbLine
 10
1116.785417
 20
231.247309
 30
0.0
 11
1138.285417
 21
231.247309
 31
0.0
  0
LINE
  5
599
100
AcDbEntity
  8
002
 62
     3
100
AcDbLine
 10
1146.785417
 20
233.247309
 30
0.0
 11
1146.785417
 21
228.247309
 31
0.0
  0
LINE
  5
59A
100
AcDbEntity
  8
002
 62
     3
100
AcDbLine
 10
1146.785417
 20
231.247309
 30
0.0
 11
1147.035417
 21
231.247309
 31
0.0
  0
ARC
  5
59B
100
AcDbEntity
  8
002
 62
     3
100
AcDbCircle
 10
1147.035417
 20
228.247309
 30
0.0
 40
3.0
100
AcDbArc
 50
0.0
 51
90.0
  0
LINE
  5
59C
100
AcDbEntity
  8
002
 62
     3
100
AcDbLine
 10
1150.035417
 20
228.247309
 30
0.0
 11
1150.035417
 21
221.247309
 31
0.0
  0
ARC
  5
59D
100
AcDbEntity
  8
002
 62
     3
100
AcDbCircle
 10
1147.035417
 20
221.247309
 30
0.0
 40
3.0
100
AcDbArc
 50
270.0
 51
0.0
  0
ARC
  5
59E
100
AcDbEntity
  8
002
 62
     3
100
AcDbCircle
 10
1148.035417
 20
212.247309
 30
0.0
 40
1.999951
100
AcDbArc
 50
274.192164
 51
85.808046
  0
LINE
  5
59F
100
AcDbEntity
  8
002
 62
     3
100
AcDbLine
 10
1148.181617
 20
210.252709
 30
0.0
 11
1134.389217
 21
209.242009
 31
0.0
  0
ARC
  5
5A0
100
AcDbEntity
  8
002
 62
     3
100
AcDbCircle
 10
1134.535417
 20
207.247309
 30
0.0
 40
2.000051
100
AcDbArc
 50
94.191954
 51
265.807836
  0
LINE
  5
5A1
100
AcDbEntity
  8
002
 62
     3
100
AcDbLine
 10
1134.389217
 20
205.252709
 30
0.0
 11
1148.181617
 21
204.242009
 31
0.0
  0
ARC
  5
5A2
100
AcDbEntity
  8
002
 62
     3
100
AcDbCircle
 10
1148.035417
 20
202.247309
 30
0.0
 40
1.999951
100
AcDbArc
 50
274.192164
 51
85.808046
  0
LINE
  5
5A3
100
AcDbEntity
  8
002
 62
     3
100
AcDbLine
 10
1148.181617
 20
200.252709
 30
0.0
 11
1134.389217
 21
199.242009
 31
0.0
  0
ARC
  5
5A4
100
AcDbEntity
  8
002
 62
     3
100
AcDbCircle
 10
1134.535417
 20
197.247309
 30
0.0
 40
2.000051
100
AcDbArc
 50
94.191954
 51
180.0
  0
LINE
  5
5A5
100
AcDbEntity
  8
002
 62
     3
100
AcDbLine
 10
1130.535417
 20
197.247309
 30
0.0
 11
1094.535417
 21
197.247309
 31
0.0
  0
ARC
  5
5A6
100
AcDbEntity
  8
002
 62
     3
100
AcDbCircle
 10
1090.535417
 20
197.247309
 30
0.0
 40
2.0
100
AcDbArc
 50
0.0
 51
85.808046
  0
LINE
  5
5A7
100
AcDbEntity
  8
002
 62
     3
100
AcDbLine
 10
1090.681617
 20
199.242009
 30
0.0
 11
1076.889217
 21
200.252709
 31
0.0
  0
ARC
  5
5A8
100
AcDbEntity
  8
002
 62
     3
100
AcDbCircle
 10
1077.035417
 20
202.247309
 30
0.0
 40
2.000051
100
AcDbArc
 50
94.191954
 51
265.807836
  0
LINE
  5
5A9
100
AcDbEntity
  8
002
 62
     3
100
AcDbLine
 10
1076.889217
 20
204.242009
 30
0.0
 11
1090.681617
 21
205.252709
 31
0.0
  0
ARC
  5
5AA
100
AcDbEntity
  8
002
 62
     3
100
AcDbCircle
 10
1090.535417
 20
207.247309
 30
0.0
 40
1.999951
100
AcDbArc
 50
274.192164
 51
85.808046
  0
LINE
  5
5AB
100
AcDbEntity
  8
002
 62
     3
100
AcDbLine
 10
1090.681617
 20
209.242009
 30
0.0
 11
1076.889217
 21
210.252709
 31
0.0
  0
ARC
  5
5AC
100
AcDbEntity
  8
002
 62
     3
100
AcDbCircle
 10
1077.035417
 20
212.247309
 30
0.0
 40
2.000051
100
AcDbArc
 50
94.191954
 51
265.807836
  0
LINE
  5
5AD
100
AcDbEntity
  8
002
 62
     3
100
AcDbLine
 10
1076.889217
 20
214.242009
 30
0.0
 11
1085.181617
 21
215.252709
 31
0.0
  0
ARC
  5
5AE
100
AcDbEntity
  8
002
 62
     3
100
AcDbCircle
 10
1085.035417
 20
217.247309
 30
0.0
 40
1.999951
100
AcDbArc
 50
274.192164
 51
0.0
  0
LINE
  5
5AF
100
AcDbEntity
  8
002
 62
     3
100
AcDbLine
 10
1087.035417
 20
217.247309
 30
0.0
 11
1087.035417
 21
218.247309
 31
0.0
  0
LINE
  5
5B0
100
AcDbEntity
  8
002
 62
     3
100
AcDbLine
 10
1130.535417
 20
207.247309
 30
0.0
 11
1094.535417
 21
207.247309
 31
0.0
  0
LINE
  5
5B1
100
AcDbEntity
  8
002
 62
     3
100
AcDbLine
 10
1077.035417
 20
212.247309
 30
0.0
 11
1148.035417
 21
212.247309
 31
0.0
  0
LINE
  5
5B2
100
AcDbEntity
  8
002
 62
     3
100
AcDbLine
 10
1148.035417
 20
202.247309
 30
0.0
 11
1077.035417
 21
202.247309
 31
0.0
  0
LINE
  5
5B3
100
AcDbEntity
  8
002
 62
     3
100
AcDbLine
 10
1086.785417
 20
228.247309
 30
0.0
 11
1086.785417
 21
233.247309
 31
0.0
  0
LINE
  5
5B4
100
AcDbEntity
  8
002
 62
     3
100
AcDbLine
 10
1108.285417
 20
233.247309
 30
0.0
 11
1108.285417
 21
228.247309
 31
0.0
  0
LINE
  5
5B5
100
AcDbEntity
  8
002
 62
     3
100
AcDbLine
 10
1108.285417
 20
231.247309
 30
0.0
 11
1086.785417
 21
231.247309
 31
0.0
  0
CIRCLE
  5
5B6
100
AcDbEntity
  8
002
 62
     3
100
AcDbCircle
 10
1144.535417
 20
224.747309
 30
0.0
 40
1.0
  0
LINE
  5
5B7
100
AcDbEntity
  8
002
 62
     3
100
AcDbLine
 10
1130.535417
 20
154.847309
 30
0.0
 11
1094.535417
 21
154.847309
 31
0.0
  0
ARC
  5
5B8
100
AcDbEntity
  8
002
 62
     3
100
AcDbCircle
 10
1090.535417
 20
154.847309
 30
0.0
 40
1.999951
100
AcDbArc
 50
274.192164
 51
0.0
  0
LINE
  5
5B9
100
AcDbEntity
  8
002
 62
     3
100
AcDbLine
 10
1090.681617
 20
152.852709
 30
0.0
 11
1076.889217
 21
151.842009
 31
0.0
  0
LINE
  5
5BA
100
AcDbEntity
  8
002
 62
     3
100
AcDbLine
 10
1077.035417
 20
149.847309
 30
0.0
 11
1148.035417
 21
149.847309
 31
0.0
  0
LINE
  5
5BB
100
AcDbEntity
  8
002
 62
     3
100
AcDbLine
 10
1148.181617
 20
147.852709
 30
0.0
 11
1134.389217
 21
146.842009
 31
0.0
  0
ARC
  5
5BC
100
AcDbEntity
  8
002
 62
     3
100
AcDbCircle
 10
1134.535417
 20
144.847309
 30
0.0
 40
2.000051
100
AcDbArc
 50
94.191954
 51
265.807836
  0
LINE
  5
5BD
100
AcDbEntity
  8
002
 62
     3
100
AcDbLine
 10
1134.389217
 20
142.852709
 30
0.0
 11
1148.181617
 21
141.842009
 31
0.0
  0
ARC
  5
5BE
100
AcDbEntity
  8
002
 62
     3
100
AcDbCircle
 10
1148.035417
 20
139.847309
 30
0.0
 40
1.999951
100
AcDbArc
 50
274.192164
 51
85.808046
  0
LINE
  5
5BF
100
AcDbEntity
  8
002
 62
     3
100
AcDbLine
 10
1148.181617
 20
137.852709
 30
0.0
 11
1127.889217
 21
136.842009
 31
0.0
  0
ARC
  5
5C0
100
AcDbEntity
  8
002
 62
     3
100
AcDbCircle
 10
1128.035417
 20
134.847309
 30
0.0
 40
2.000051
100
AcDbArc
 50
94.191954
 51
180.0
  0
LINE
  5
5C1
100
AcDbEntity
  8
002
 62
     3
100
AcDbLine
 10
1126.035417
 20
134.847309
 30
0.0
 11
1126.035417
 21
133.847309
 31
0.0
  0
LINE
  5
5C2
100
AcDbEntity
  8
002
 62
     3
100
AcDbLine
 10
1127.035417
 20
133.847309
 30
0.0
 11
1127.035417
 21
120.847309
 31
0.0
  0
LINE
  5
5C3
100
AcDbEntity
  8
002
 62
     3
100
AcDbLine
 10
1126.035417
 20
120.847309
 30
0.0
 11
1126.035417
 21
118.847309
 31
0.0
  0
LINE
  5
5C4
100
AcDbEntity
  8
002
 62
     3
100
AcDbLine
 10
1099.035417
 20
118.847309
 30
0.0
 11
1099.035417
 21
120.847309
 31
0.0
  0
LINE
  5
5C5
100
AcDbEntity
  8
002
 62
     3
100
AcDbLine
 10
1098.035417
 20
120.847309
 30
0.0
 11
1135.035417
 21
120.847309
 31
0.0
  0
LINE
  5
5C6
100
AcDbEntity
  8
002
 62
     3
100
AcDbLine
 10
1138.035417
 20
123.847309
 30
0.0
 11
1138.035417
 21
130.847309
 31
0.0
  0
LINE
  5
5C7
100
AcDbEntity
  8
002
 62
     3
100
AcDbLine
 10
1135.035417
 20
133.847309
 30
0.0
 11
1098.035417
 21
133.847309
 31
0.0
  0
LINE
  5
5C8
100
AcDbEntity
  8
002
 62
     3
100
AcDbLine
 10
1098.035417
 20
133.847309
 30
0.0
 11
1098.035417
 21
120.847309
 31
0.0
  0
LINE
  5
5C9
100
AcDbEntity
  8
002
 62
     3
100
AcDbLine
 10
1099.035417
 20
118.847309
 30
0.0
 11
1126.035417
 21
118.847309
 31
0.0
  0
LINE
  5
5CA
100
AcDbEntity
  8
002
 62
     3
100
AcDbLine
 10
1120.384717
 20
118.847309
 30
0.0
 11
1120.384717
 21
115.847309
 31
0.0
  0
LINE
  5
5CB
100
AcDbEntity
  8
002
 62
     3
100
AcDbLine
 10
1121.534717
 20
115.847309
 30
0.0
 11
1121.534717
 21
96.847309
 31
0.0
  0
LINE
  5
5CC
100
AcDbEntity
  8
002
 62
     3
100
AcDbLine
 10
1121.534717
 20
96.847309
 30
0.0
 11
1103.534617
 21
96.847309
 31
0.0
  0
LINE
  5
5CD
100
AcDbEntity
  8
002
 62
     3
100
AcDbLine
 10
1103.534617
 20
96.847309
 30
0.0
 11
1103.534617
 21
115.847309
 31
0.0
  0
LINE
  5
5CE
100
AcDbEntity
  8
002
 62
     3
100
AcDbLine
 10
1103.534617
 20
115.847309
 30
0.0
 11
1121.534717
 21
115.847309
 31
0.0
  0
CIRCLE
  5
5CF
100
AcDbEntity
  8
002
 62
     3
100
AcDbCircle
 10
1132.535417
 20
127.347309
 30
0.0
 40
1.0
  0
ARC
  5
5D0
100
AcDbEntity
  8
002
 62
     3
100
AcDbCircle
 10
1135.035417
 20
123.847309
 30
0.0
 40
3.0
100
AcDbArc
 50
270.0
 51
0.0
  0
ARC
  5
5D1
100
AcDbEntity
  8
002
 62
     3
100
AcDbCircle
 10
1135.035417
 20
130.847309
 30
0.0
 40
3.0
100
AcDbArc
 50
0.0
 51
90.0
  0
LINE
  5
5D2
100
AcDbEntity
  8
002
 62
     3
100
AcDbLine
 10
1148.035417
 20
139.847309
 30
0.0
 11
1077.035417
 21
139.847309
 31
0.0
  0
LINE
  5
5D3
100
AcDbEntity
  8
002
 62
     3
100
AcDbLine
 10
1076.889217
 20
141.842009
 30
0.0
 11
1090.681617
 21
142.852709
 31
0.0
  0
LINE
  5
5D4
100
AcDbEntity
  8
002
 62
     3
100
AcDbLine
 10
1090.681617
 20
146.842009
 30
0.0
 11
1076.889217
 21
147.852709
 31
0.0
  0
ARC
  5
5D5
100
AcDbEntity
  8
002
 62
     3
100
AcDbCircle
 10
1077.035417
 20
149.847309
 30
0.0
 40
2.000051
100
AcDbArc
 50
94.191954
 51
265.807836
  0
ARC
  5
5D6
100
AcDbEntity
  8
002
 62
     3
100
AcDbCircle
 10
1077.035417
 20
139.847309
 30
0.0
 40
2.000051
100
AcDbArc
 50
94.191954
 51
265.807836
  0
LINE
  5
5D7
100
AcDbEntity
  8
002
 62
     3
100
AcDbLine
 10
1076.889217
 20
137.852709
 30
0.0
 11
1097.181617
 21
136.842009
 31
0.0
  0
ARC
  5
5D8
100
AcDbEntity
  8
002
 62
     3
100
AcDbCircle
 10
1097.035417
 20
134.847309
 30
0.0
 40
2.0
100
AcDbArc
 50
0.0
 51
85.808046
  0
LINE
  5
5D9
100
AcDbEntity
  8
002
 62
     3
100
AcDbLine
 10
1099.035417
 20
134.847309
 30
0.0
 11
1099.035417
 21
133.847309
 31
0.0
  0
LINE
  5
5DA
100
AcDbEntity
  8
002
 62
     3
100
AcDbLine
 10
1094.535417
 20
144.847309
 30
0.0
 11
1130.535417
 21
144.847309
 31
0.0
  0
LINE
  5
5DB
100
AcDbEntity
  8
002
 62
     3
100
AcDbLine
 10
1134.389217
 20
152.852709
 30
0.0
 11
1148.181617
 21
151.842009
 31
0.0
  0
ARC
  5
5DC
100
AcDbEntity
  8
002
 62
     3
100
AcDbCircle
 10
1148.035417
 20
149.847309
 30
0.0
 40
1.999951
100
AcDbArc
 50
274.192164
 51
85.808046
  0
ARC
  5
5DD
100
AcDbEntity
  8
002
 62
     3
100
AcDbCircle
 10
1134.535417
 20
154.847309
 30
0.0
 40
2.0
100
AcDbArc
 50
180.0
 51
265.807836
  0
ARC
  5
5DE
100
AcDbEntity
  8
002
 62
     3
100
AcDbCircle
 10
1090.535417
 20
144.847309
 30
0.0
 40
1.999951
100
AcDbArc
 50
274.192164
 51
85.808046
  0
LINE
  5
5DF
100
AcDbEntity
  8
002
 62
     3
100
AcDbLine
 10
1104.684717
 20
118.847309
 30
0.0
 11
1104.684717
 21
115.847309
 31
0.0
  0
LINE
  5
5E0
100
AcDbEntity
  8
002
 62
     9
100
AcDbLine
 10
1104.584717
 20
96.847309
 30
0.0
 11
1104.584717
 21
115.847309
 31
0.0
  0
LINE
  5
5E1
100
AcDbEntity
  8
002
 62
     9
100
AcDbLine
 10
1120.484717
 20
115.847309
 30
0.0
 11
1120.484717
 21
96.847309
 31
0.0
  0
LINE
  5
5E2
100
AcDbEntity
  8
002
  6
CENTER
 62
     9
100
AcDbLine
 10
1130.279617
 20
127.347309
 30
0.0
 11
1134.880317
 21
127.347309
 31
0.0
  0
LINE
  5
5E3
100
AcDbEntity
  8
002
  6
CENTER
 62
     9
100
AcDbLine
 10
1132.535417
 20
125.476409
 30
0.0
 11
1132.535417
 21
129.447509
 31
0.0
  0
LINE
  5
5E4
100
AcDbEntity
  8
002
  6
CENTER
 62
     9
100
AcDbLine
 10
1142.535417
 20
246.791609
 30
0.0
 11
1142.535417
 21
226.819709
 31
0.0
  0
LINE
  5
5E5
100
AcDbEntity
  8
002
  6
CENTER
 62
     9
100
AcDbLine
 10
1144.535417
 20
226.847509
 30
0.0
 11
1144.535417
 21
222.876409
 31
0.0
  0
LINE
  5
5E6
100
AcDbEntity
  8
002
  6
CENTER
 62
     9
100
AcDbLine
 10
1142.279617
 20
224.747309
 30
0.0
 11
1146.880317
 21
224.747309
 31
0.0
  0
LINE
  5
5E7
100
AcDbEntity
  8
002
  6
CENTER
 62
     9
100
AcDbLine
 10
1082.535417
 20
226.819709
 30
0.0
 11
1082.535417
 21
246.791609
 31
0.0
  0
LINE
  5
5E8
100
AcDbEntity
  8
002
  6
PHANTOM
 62
     9
100
AcDbLine
 10
1075.035417
 20
202.247309
 30
0.0
 11
1075.035417
 21
149.847309
 31
0.0
  0
LINE
  5
5E9
100
AcDbEntity
  8
002
  6
PHANTOM
 62
     9
100
AcDbLine
 10
1092.535417
 20
154.847309
 30
0.0
 11
1092.535417
 21
197.247309
 31
0.0
  0
LINE
  5
5EA
100
AcDbEntity
  8
002
  6
PHANTOM
 62
     9
100
AcDbLine
 10
1132.535417
 20
154.847309
 30
0.0
 11
1132.535417
 21
197.247309
 31
0.0
  0
LINE
  5
5EB
100
AcDbEntity
  8
002
  6
PHANTOM
 62
     9
100
AcDbLine
 10
1150.035417
 20
202.247309
 30
0.0
 11
1150.035417
 21
149.847309
 31
0.0
  0
ENDSEC
  0
SECTION
  2
OBJECTS
  0
DICTIONARY
  5
19
100
AcDbDictionary
280
     0
281
     1
  3
ACAD_GROUP
350
1A
  3
ACAD_MLINESTYLE
350
1B
  3
ACAD_LAYOUT
350
1E
  3
ACAD_PLOTSETTINGS
350
22
  3
ACAD_PLOTSTYLENAME
350
1F
  3
ACAD_WIPEOUT_VARS
350
23
  0
DICTIONARY
  5
1A
102
{ACAD_REACTORS
330
19
102
}
100
AcDbDictionary
280
     0
281
     1
  0
DICTIONARY
  5
1B
102
{ACAD_REACTORS
330
19
102
}
100
AcDbDictionary
280
     0
281
     1
  3
Standard
350
1C
  0
MLINESTYLE
  5
1C
102
{ACAD_REACTORS
330
1B
102
}
100
AcDbMlineStyle
  2
Standard
 70
     0
  3

 62
     0
 51
90.0
 52
90.0
 71
     2
 49
0.5
 62
   256
  6
BYLAYER
 49
-0.5
 62
   256
  6
BYLAYER
  0
ACDBDICTIONARYWDFLT
  5
1F
102
{ACAD_REACTORS
330
19
102
}
100
AcDbDictionary
281
     1
  3
Normal
350
1D
100
AcDbDictionaryWithDefault
340
1D
  0
ACDBPLACEHOLDER
  5
1D
102
{ACAD_REACTORS
330
1F
102
}
  0
LAYOUT
  5
20
102
{ACAD_REACTORS
330
1E
102
}
100
AcDbPlotSettings
  1

  2

  4

  6

 40
0.0
 41
0.0
 42
0.0
 43
0.0
 44
0.0
 45
0.0
 46
0.0
 47
0.0
 48
0.0
 49
0.0
140
0.0
141
0.0
142
1.0
143
1.0
 70
  1024
 72
     0
 73
     0
 74
     0
  7

 75
     0
147
1.0
148
0.0
149
0.0
100
AcDbLayout
  1
Model
 70
     0
 71
     0
 10
0.0
 20
0.0
 11
0.0
 21
0.0
 12
0.0
 22
0.0
 32
0.0
 14
0.0
 24
0.0
 34
0.0
 15
0.0
 25
0.0
 35
0.0
146
0.0
 13
0.0
 23
0.0
 33
0.0
 16
0.0
 26
0.0
 36
0.0
 17
0.0
 27
0.0
 37
0.0
 76
     0
330
A
331
0
345
0
346
0
  0
LAYOUT
  5
21
102
{ACAD_REACTORS
330
1E
102
}
100
AcDbPlotSettings
  1

  2

  4

  6

 40
0.0
 41
0.0
 42
0.0
 43
0.0
 44
0.0
 45
0.0
 46
0.0
 47
0.0
 48
0.0
 49
0.0
140
0.0
141
0.0
142
1.0
143
1.0
 70
     0
 72
     0
 73
     0
 74
     0
  7

 75
     0
147
1.0
148
0.0
149
0.0
100
AcDbLayout
  1
Layout1
 70
     0
 71
     0
 10
0.0
 20
0.0
 11
0.0
 21
0.0
 12
0.0
 22
0.0
 32
0.0
 14
0.0
 24
0.0
 34
0.0
 15
0.0
 25
0.0
 35
0.0
146
0.0
 13
0.0
 23
0.0
 33
0.0
 16
0.0
 26
0.0
 36
0.0
 17
0.0
 27
0.0
 37
0.0
 76
     0
330
B
331
0
345
0
346
0
  0
DICTIONARY
  5
1E
102
{ACAD_REACTORS
330
19
102
}
100
AcDbDictionary
280
     0
281
     1
  3
Layout1
350
21
  3
Model
350
20
  0
DICTIONARY
  5
22
102
{ACAD_REACTORS
330
19
102
}
100
AcDbDictionary
280
     0
281
     1
  0
WIPEOUTVARIABLES
  5
23
100
AcDbWipeoutVariables
 70
     1
  0
ENDSEC
  0
EOF
