  0
SECTION
  2
HEADER
  9
$ACADVER
  1
AC1015
  9
$ACADMAINTVER
 70
     6
  9
$DWGCODEPAGE
  3
ANSI_932
  9
$INSBASE
 10
0.0
 20
0.0
 30
0.0
  9
$EXTMIN
 10
177.079346
 20
166.463013
 30
0.0
  9
$EXTMAX
 10
1473.847534
 20
1531.03064
 30
0.0
  9
$LIMMIN
 10
0.0
 20
0.0
  9
$LIMMAX
 10
12.0
 20
9.0
  9
$ORTHOMODE
 70
     0
  9
$REGENMODE
 70
     1
  9
$FILLMODE
 70
     1
  9
$QTEXTMODE
 70
     0
  9
$MIRRTEXT
 70
     1
  9
$LTSCALE
 40
18.824592
  9
$ATTMODE
 70
     1
  9
$TEXTSIZE
 40
3.2
  9
$TRACEWID
 40
1.0
  9
$TEXTSTYLE
  7
Standard
  9
$CLAYER
  8
0
  9
$CELTYPE
  6
ByLayer
  9
$CECOLOR
 62
   256
  9
$CELTSCALE
 40
1.0
  9
$DISPSILH
 70
     0
  9
$DIMSCALE
 40
1.0
  9
$DIMASZ
 40
2.5
  9
$DIMEXO
 40
0.625
  9
$DIMDLI
 40
3.75
  9
$DIMRND
 40
0.0
  9
$DIMDLE
 40
0.0
  9
$DIMEXE
 40
1.25
  9
$DIMTP
 40
0.0
  9
$DIMTM
 40
0.0
  9
$DIMTXT
 40
2.5
  9
$DIMCEN
 40
0.09
  9
$DIMTSZ
 40
0.0
  9
$DIMTOL
 70
     0
  9
$DIMLIM
 70
     0
  9
$DIMTIH
 70
     0
  9
$DIMTOH
 70
     0
  9
$DIMSE1
 70
     0
  9
$DIMSE2
 70
     0
  9
$DIMTAD
 70
     0
  9
$DIMZIN
 70
     8
  9
$DIMBLK
  1

  9
$DIMASO
 70
     1
  9
$DIMSHO
 70
     0
  9
$DIMPOST
  1

  9
$DIMAPOST
  1

  9
$DIMALT
 70
     0
  9
$DIMALTD
 70
     3
  9
$DIMALTF
 40
0.03937
  9
$DIMLFAC
 40
1.0
  9
$DIMTOFL
 70
     1
  9
$DIMTVP
 40
0.0
  9
$DIMTIX
 70
     0
  9
$DIMSOXD
 70
     0
  9
$DIMSAH
 70
     0
  9
$DIMBLK1
  1

  9
$DIMBLK2
  1

  9
$DIMSTYLE
  2
ISO-25
  9
$DIMCLRD
 70
     0
  9
$DIMCLRE
 70
     0
  9
$DIMCLRT
 70
     0
  9
$DIMTFAC
 40
1.0
  9
$DIMGAP
 40
0.625
  9
$DIMJUST
 70
     0
  9
$DIMSD1
 70
     0
  9
$DIMSD2
 70
     0
  9
$DIMTOLJ
 70
     0
  9
$DIMTZIN
 70
     8
  9
$DIMALTZ
 70
     0
  9
$DIMALTTZ
 70
     0
  9
$DIMUPT
 70
     0
  9
$DIMDEC
 70
     2
  9
$DIMTDEC
 70
     2
  9
$DIMALTU
 70
     2
  9
$DIMALTTD
 70
     3
  9
$DIMTXSTY
  7
Standard
  9
$DIMAUNIT
 70
     0
  9
$DIMADEC
 70
     0
  9
$DIMALTRND
 40
0.0
  9
$DIMAZIN
 70
     0
  9
$DIMDSEP
 70
    44
  9
$DIMATFIT
 70
     3
  9
$DIMFRAC
 70
     0
  9
$DIMLDRBLK
  1

  9
$DIMLUNIT
 70
     2
  9
$DIMLWD
 70
    -2
  9
$DIMLWE
 70
    -2
  9
$DIMTMOVE
 70
     0
  9
$LUNITS
 70
     2
  9
$LUPREC
 70
     4
  9
$SKETCHINC
 40
1.0
  9
$FILLETRAD
 40
0.0
  9
$AUNITS
 70
     0
  9
$AUPREC
 70
     0
  9
$MENU
  1
.
  9
$ELEVATION
 40
0.0
  9
$PELEVATION
 40
0.0
  9
$THICKNESS
 40
0.0
  9
$LIMCHECK
 70
     0
  9
$CHAMFERA
 40
10.0
  9
$CHAMFERB
 40
10.0
  9
$CHAMFERC
 40
20.0
  9
$CHAMFERD
 40
0.0
  9
$SKPOLY
 70
     0
  9
$TDCREATE
 40
2455649.657738889
  9
$TDUCREATE
 40
2455649.282738889
  9
$TDUPDATE
 40
2455649.6577389
  9
$TDUUPDATE
 40
2455649.2827389
  9
$TDINDWG
 40
0.0000000116
  9
$TDUSRTIMER
 40
0.0000000116
  9
$USRTIMER
 70
     1
  9
$ANGBASE
 50
0.0
  9
$ANGDIR
 70
     0
  9
$PDMODE
 70
     0
  9
$PDSIZE
 40
0.0
  9
$PLINEWID
 40
0.0
  9
$SPLFRAME
 70
     0
  9
$SPLINETYPE
 70
     6
  9
$SPLINESEGS
 70
     8
  9
$HANDSEED
  5
849
  9
$SURFTAB1
 70
     6
  9
$SURFTAB2
 70
     6
  9
$SURFTYPE
 70
     6
  9
$SURFU
 70
     6
  9
$SURFV
 70
     6
  9
$UCSBASE
  2

  9
$UCSNAME
  2

  9
$UCSORG
 10
0.0
 20
0.0
 30
0.0
  9
$UCSXDIR
 10
1.0
 20
0.0
 30
0.0
  9
$UCSYDIR
 10
0.0
 20
1.0
 30
0.0
  9
$UCSORTHOREF
  2

  9
$UCSORTHOVIEW
 70
     0
  9
$UCSORGTOP
 10
0.0
 20
0.0
 30
0.0
  9
$UCSORGBOTTOM
 10
0.0
 20
0.0
 30
0.0
  9
$UCSORGLEFT
 10
0.0
 20
0.0
 30
0.0
  9
$UCSORGRIGHT
 10
0.0
 20
0.0
 30
0.0
  9
$UCSORGFRONT
 10
0.0
 20
0.0
 30
0.0
  9
$UCSORGBACK
 10
0.0
 20
0.0
 30
0.0
  9
$PUCSBASE
  2

  9
$PUCSNAME
  2

  9
$PUCSORG
 10
0.0
 20
0.0
 30
0.0
  9
$PUCSXDIR
 10
1.0
 20
0.0
 30
0.0
  9
$PUCSYDIR
 10
0.0
 20
1.0
 30
0.0
  9
$PUCSORTHOREF
  2

  9
$PUCSORTHOVIEW
 70
     0
  9
$PUCSORGTOP
 10
0.0
 20
0.0
 30
0.0
  9
$PUCSORGBOTTOM
 10
0.0
 20
0.0
 30
0.0
  9
$PUCSORGLEFT
 10
0.0
 20
0.0
 30
0.0
  9
$PUCSORGRIGHT
 10
0.0
 20
0.0
 30
0.0
  9
$PUCSORGFRONT
 10
0.0
 20
0.0
 30
0.0
  9
$PUCSORGBACK
 10
0.0
 20
0.0
 30
0.0
  9
$USERI1
 70
     0
  9
$USERI2
 70
     0
  9
$USERI3
 70
     0
  9
$USERI4
 70
     0
  9
$USERI5
 70
     0
  9
$USERR1
 40
0.0
  9
$USERR2
 40
0.0
  9
$USERR3
 40
0.0
  9
$USERR4
 40
0.0
  9
$USERR5
 40
0.0
  9
$WORLDVIEW
 70
     1
  9
$SHADEDGE
 70
     3
  9
$SHADEDIF
 70
    70
  9
$TILEMODE
 70
     1
  9
$MAXACTVP
 70
    64
  9
$PINSBASE
 10
0.0
 20
0.0
 30
0.0
  9
$PLIMCHECK
 70
     0
  9
$PEXTMIN
 10
1.000000E+20
 20
1.000000E+20
 30
0.0
  9
$PEXTMAX
 10
-1.000000E+20
 20
-1.000000E+20
 30
0.0
  9
$PLIMMIN
 10
0.0
 20
0.0
  9
$PLIMMAX
 10
12.0
 20
9.0
  9
$UNITMODE
 70
     0
  9
$VISRETAIN
 70
     1
  9
$PLINEGEN
 70
     0
  9
$PSLTSCALE
 70
     1
  9
$TREEDEPTH
 70
  3020
  9
$CMLSTYLE
  2
Standard
  9
$CMLJUST
 70
     0
  9
$CMLSCALE
 40
20.0
  9
$PROXYGRAPHICS
 70
     1
  9
$MEASUREMENT
 70
     1
  9
$CELWEIGHT
370
    -1
  9
$ENDCAPS
280
     0
  9
$JOINSTYLE
280
     0
  9
$LWDISPLAY
290
     0
  9
$INSUNITS
 70
     4
  9
$HYPERLINKBASE
  1

  9
$STYLESHEET
  1

  9
$XEDIT
290
     1
  9
$CEPSNTYPE
380
     0
  9
$PSTYLEMODE
290
     1
  9
$FINGERPRINTGUID
  2
{E89B1603-4F34-499C-A5D6-A7E5C6E1EEBE}
  9
$VERSIONGUID
  2
{FAEB1C32-E019-11D5-929B-00C0DF256EC4}
  9
$EXTNAMES
290
     1
  9
$PSVPSCALE
 40
0.0
  9
$OLESTARTUP
290
     0
  0
ENDSEC
  0
SECTION
  2
CLASSES
  0
CLASS
  1
ACDBDICTIONARYWDFLT
  2
AcDbDictionaryWithDefault
  3
ObjectDBX Classes
 90
        0
280
     0
281
     0
  0
CLASS
  1
VISUALSTYLE
  2
AcDbVisualStyle
  3
ObjectDBX Classes
 90
     4095
280
     0
281
     0
  0
CLASS
  1
DICTIONARYVAR
  2
AcDbDictionaryVar
  3
ObjectDBX Classes
 90
        0
280
     0
281
     0
  0
CLASS
  1
ACDBPLACEHOLDER
  2
AcDbPlaceHolder
  3
ObjectDBX Classes
 90
        0
280
     0
281
     0
  0
CLASS
  1
LAYOUT
  2
AcDbLayout
  3
ObjectDBX Classes
 90
        0
280
     0
281
     0
  0
ENDSEC
  0
SECTION
  2
TABLES
  0
TABLE
  2
VPORT
  5
8
330
0
100
AcDbSymbolTable
 70
     1
  0
VPORT
  5
29
330
8
100
AcDbSymbolTableRecord
100
AcDbViewportTableRecord
  2
*Active
 70
     0
 10
0.0
 20
0.0
 11
1.0
 21
1.0
 12
825.46344
 22
848.746826
 13
0.0
 23
0.0
 14
1.0
 24
1.0
 15
0.0
 25
0.0
 16
0.0
 26
0.0
 36
1.0
 17
0.0
 27
0.0
 37
0.0
 40
1378.213303
 41
1.691288
 42
50.0
 43
0.0
 44
0.0
 50
0.0
 51
0.0
 71
     0
 72
   100
 73
     1
 74
     3
 75
     0
 76
     0
 77
     0
 78
     0
281
     0
 65
     1
110
0.0
120
0.0
130
0.0
111
1.0
121
0.0
131
0.0
112
0.0
122
1.0
132
0.0
 79
     0
146
0.0
  0
ENDTAB
  0
TABLE
  2
LTYPE
  5
5
330
0
100
AcDbSymbolTable
 70
     5
  0
LTYPE
  5
14
330
5
100
AcDbSymbolTableRecord
100
AcDbLinetypeTableRecord
  2
ByBlock
 70
     0
  3

 72
    65
 73
     0
 40
0.0
  0
LTYPE
  5
15
330
5
100
AcDbSymbolTableRecord
100
AcDbLinetypeTableRecord
  2
ByLayer
 70
     0
  3

 72
    65
 73
     0
 40
0.0
  0
LTYPE
  5
16
330
5
100
AcDbSymbolTableRecord
100
AcDbLinetypeTableRecord
  2
Continuous
 70
     0
  3
Solid line
 72
    65
 73
     0
 40
0.0
  0
LTYPE
  5
3B
330
5
100
AcDbSymbolTableRecord
100
AcDbLinetypeTableRecord
  2
DASHED
 70
     0
  3
DASHED
 72
    83
 73
     2
 40
0.75
 49
0.5
 74
     0
 49
-0.25
 74
     0
  0
LTYPE
  5
3C
330
5
100
AcDbSymbolTableRecord
100
AcDbLinetypeTableRecord
  2
HIDDEN
 70
     0
  3
HIDDEN
 72
    83
 73
     2
 40
0.375
 49
0.25
 74
     0
 49
-0.125
 74
     0
  0
LTYPE
  5
3D
330
5
100
AcDbSymbolTableRecord
100
AcDbLinetypeTableRecord
  2
CENTER
 70
     0
  3
CENTER
 72
    83
 73
     4
 40
2.0
 49
1.25
 74
     0
 49
-0.25
 74
     0
 49
0.25
 74
     0
 49
-0.25
 74
     0
  0
LTYPE
  5
3E
330
5
100
AcDbSymbolTableRecord
100
AcDbLinetypeTableRecord
  2
PHANTOM
 70
     0
  3
PHANTOM
 72
    83
 73
     6
 40
2.5
 49
1.25
 74
     0
 49
-0.25
 74
     0
 49
0.25
 74
     0
 49
-0.25
 74
     0
 49
0.25
 74
     0
 49
-0.25
 74
     0
  0
ENDTAB
  0
TABLE
  2
LAYER
  5
2
330
0
100
AcDbSymbolTable
 70
     3
  0
LAYER
  5
10
330
2
100
AcDbSymbolTableRecord
100
AcDbLayerTableRecord
  2
0
 70
     0
 62
     7
  6
Continuous
370
    -3
390
F
  0
LAYER
  5
3F
330
2
100
AcDbSymbolTableRecord
100
AcDbLayerTableRecord
  2
002
 70
     0
 62
     7
  6
Continuous
370
    -3
390
F
  0
LAYER
  5
40
330
2
100
AcDbSymbolTableRecord
100
AcDbLayerTableRecord
  2
003
 70
     0
 62
     7
  6
Continuous
370
    -3
390
F
  0
ENDTAB
  0
TABLE
  2
STYLE
  5
3
330
0
100
AcDbSymbolTable
 70
     2
  0
STYLE
  5
11
330
3
100
AcDbSymbolTableRecord
100
AcDbTextStyleTableRecord
  2
Standard
 70
     0
 40
0.0
 41
1.0
 50
0.0
 71
     0
 42
0.2
  3
TXT
  4
BIGFONT
  0
STYLE
  5
41
330
3
100
AcDbSymbolTableRecord
100
AcDbTextStyleTableRecord
  2
TATEGAKI
 70
     4
 40
1.0
 41
1.0
 50
0.0
 71
     0
 42
0.2
  3
TXT
  4
BIGFONT
  0
ENDTAB
  0
TABLE
  2
VIEW
  5
6
330
0
100
AcDbSymbolTable
 70
     0
  0
ENDTAB
  0
TABLE
  2
UCS
  5
7
330
0
100
AcDbSymbolTable
 70
     0
  0
ENDTAB
  0
TABLE
  2
APPID
  5
9
330
0
100
AcDbSymbolTable
 70
     1
  0
APPID
  5
12
330
9
100
AcDbSymbolTableRecord
100
AcDbRegAppTableRecord
  2
ACAD
 70
     0
  0
ENDTAB
  0
TABLE
  2
DIMSTYLE
  5
A
330
0
100
AcDbSymbolTable
 70
     2
100
AcDbDimStyleTable
  0
DIMSTYLE
105
27
330
A
100
AcDbSymbolTableRecord
100
AcDbDimStyleTableRecord
  2
ISO-25
 70
     0
 41
2.5
 42
0.625
 43
3.75
 44
1.25
 73
     0
 74
     0
 77
     1
 78
     8
140
2.5
141
2.5
143
0.03937
147
0.625
171
     3
172
     1
271
     2
272
     2
274
     3
278
    44
283
     0
284
     8
340
11
  0
DIMSTYLE
105
42
330
A
100
AcDbSymbolTableRecord
100
AcDbDimStyleTableRecord
  2
Standard
 70
     0
 41
3.0
 42
0.5
 44
0.7
 73
     0
 74
     0
 77
     1
 78
     8
 79
     2
140
4.0
146
0.65
147
1.0
172
     1
179
     3
271
     3
283
     2
340
11
  0
ENDTAB
  0
TABLE
  2
BLOCK_RECORD
  5
1
330
0
100
AcDbSymbolTable
 70
    25
  0
BLOCK_RECORD
  5
1F
330
1
100
AcDbSymbolTableRecord
100
AcDbBlockTableRecord
  2
*Model_Space
340
22
  0
BLOCK_RECORD
  5
1B
330
1
100
AcDbSymbolTableRecord
100
AcDbBlockTableRecord
  2
*Paper_Space
340
1E
  0
BLOCK_RECORD
  5
23
330
1
100
AcDbSymbolTableRecord
100
AcDbBlockTableRecord
  2
*Paper_Space0
340
26
  0
BLOCK_RECORD
  5
43
330
1
100
AcDbSymbolTableRecord
100
AcDbBlockTableRecord
  2
JZB-1
340
0
102
{BLKREFS
331
16B
102
}
  0
BLOCK_RECORD
  5
54
330
1
100
AcDbSymbolTableRecord
100
AcDbBlockTableRecord
  2
JZB-2
340
0
102
{BLKREFS
331
16C
102
}
  0
BLOCK_RECORD
  5
65
330
1
100
AcDbSymbolTableRecord
100
AcDbBlockTableRecord
  2
JZB-3
340
0
102
{BLKREFS
331
16D
102
}
  0
BLOCK_RECORD
  5
76
330
1
100
AcDbSymbolTableRecord
100
AcDbBlockTableRecord
  2
JZB-4
340
0
102
{BLKREFS
331
16E
102
}
  0
BLOCK_RECORD
  5
87
330
1
100
AcDbSymbolTableRecord
100
AcDbBlockTableRecord
  2
JZB-5
340
0
102
{BLKREFS
331
16F
102
}
  0
BLOCK_RECORD
  5
91
330
1
100
AcDbSymbolTableRecord
100
AcDbBlockTableRecord
  2
JZB-6
340
0
102
{BLKREFS
331
170
102
}
  0
BLOCK_RECORD
  5
9B
330
1
100
AcDbSymbolTableRecord
100
AcDbBlockTableRecord
  2
JZB-7
340
0
102
{BLKREFS
331
171
102
}
  0
BLOCK_RECORD
  5
A5
330
1
100
AcDbSymbolTableRecord
100
AcDbBlockTableRecord
  2
JZB-8
340
0
102
{BLKREFS
331
172
102
}
  0
BLOCK_RECORD
  5
AF
330
1
100
AcDbSymbolTableRecord
100
AcDbBlockTableRecord
  2
JZB-9
340
0
102
{BLKREFS
331
173
102
}
  0
BLOCK_RECORD
  5
B9
330
1
100
AcDbSymbolTableRecord
100
AcDbBlockTableRecord
  2
JZB-10
340
0
102
{BLKREFS
331
174
102
}
  0
BLOCK_RECORD
  5
C3
330
1
100
AcDbSymbolTableRecord
100
AcDbBlockTableRecord
  2
JZB-11
340
0
102
{BLKREFS
331
175
102
}
  0
BLOCK_RECORD
  5
CD
330
1
100
AcDbSymbolTableRecord
100
AcDbBlockTableRecord
  2
JZB-12
340
0
102
{BLKREFS
331
176
102
}
  0
BLOCK_RECORD
  5
D7
330
1
100
AcDbSymbolTableRecord
100
AcDbBlockTableRecord
  2
JZB-13
340
0
102
{BLKREFS
331
177
102
}
  0
BLOCK_RECORD
  5
E1
330
1
100
AcDbSymbolTableRecord
100
AcDbBlockTableRecord
  2
JZB-14
340
0
102
{BLKREFS
331
178
102
}
  0
BLOCK_RECORD
  5
EB
330
1
100
AcDbSymbolTableRecord
100
AcDbBlockTableRecord
  2
JZB-15
340
0
102
{BLKREFS
331
179
102
}
  0
BLOCK_RECORD
  5
F5
330
1
100
AcDbSymbolTableRecord
100
AcDbBlockTableRecord
  2
JZB-16
340
0
102
{BLKREFS
331
17A
102
}
  0
BLOCK_RECORD
  5
FF
330
1
100
AcDbSymbolTableRecord
100
AcDbBlockTableRecord
  2
JZB-17
340
0
102
{BLKREFS
331
17B
102
}
  0
BLOCK_RECORD
  5
109
330
1
100
AcDbSymbolTableRecord
100
AcDbBlockTableRecord
  2
JZB-18
340
0
102
{BLKREFS
331
17C
102
}
  0
BLOCK_RECORD
  5
113
330
1
100
AcDbSymbolTableRecord
100
AcDbBlockTableRecord
  2
JZB-19
340
0
102
{BLKREFS
331
17D
102
}
  0
BLOCK_RECORD
  5
11D
330
1
100
AcDbSymbolTableRecord
100
AcDbBlockTableRecord
  2
JZB-20
340
0
102
{BLKREFS
331
17E
102
}
  0
BLOCK_RECORD
  5
127
330
1
100
AcDbSymbolTableRecord
100
AcDbBlockTableRecord
  2
JZB-21
340
0
102
{BLKREFS
331
17F
102
}
  0
BLOCK_RECORD
  5
138
330
1
100
AcDbSymbolTableRecord
100
AcDbBlockTableRecord
  2
JZB-22
340
0
102
{BLKREFS
331
180
102
}
  0
BLOCK_RECORD
  5
149
330
1
100
AcDbSymbolTableRecord
100
AcDbBlockTableRecord
  2
JZB-23
340
0
102
{BLKREFS
331
181
102
}
  0
BLOCK_RECORD
  5
15A
330
1
100
AcDbSymbolTableRecord
100
AcDbBlockTableRecord
  2
JZB-24
340
0
102
{BLKREFS
331
182
102
}
  0
ENDTAB
  0
ENDSEC
  0
SECTION
  2
BLOCKS
  0
BLOCK
  5
20
330
1F
100
AcDbEntity
  8
0
100
AcDbBlockBegin
  2
*Model_Space
 70
     0
 10
0.0
 20
0.0
 30
0.0
  3
*Model_Space
  1

  0
ENDBLK
  5
21
330
1F
100
AcDbEntity
  8
0
100
AcDbBlockEnd
  0
BLOCK
  5
1C
330
1B
100
AcDbEntity
 67
     1
  8
0
100
AcDbBlockBegin
  2
*Paper_Space
 70
     0
 10
0.0
 20
0.0
 30
0.0
  3
*Paper_Space
  1

  0
ENDBLK
  5
1D
330
1B
100
AcDbEntity
 67
     1
  8
0
100
AcDbBlockEnd
  0
BLOCK
  5
24
330
23
100
AcDbEntity
  8
0
100
AcDbBlockBegin
  2
*Paper_Space0
 70
     0
 10
0.0
 20
0.0
 30
0.0
  3
*Paper_Space0
  1

  0
ENDBLK
  5
25
330
23
100
AcDbEntity
  8
0
100
AcDbBlockEnd
  0
BLOCK
  5
44
330
43
100
AcDbEntity
  8
0
100
AcDbBlockBegin
  2
JZB-1
 70
     0
 10
0.0
 20
0.0
 30
0.0
  3
JZB-1
  1

  0
LINE
  5
46
330
43
100
AcDbEntity
  8
003
 62
     3
370
    30
100
AcDbLine
 10
289.842309
 20
1324.968484
 30
0.0
 11
289.842309
 21
1329.775653
 31
0.0
  0
LINE
  5
47
330
43
100
AcDbEntity
  8
003
 62
     3
370
    30
100
AcDbLine
 10
291.042309
 20
1324.275664
 30
0.0
 11
303.642309
 21
1324.275664
 31
0.0
  0
LINE
  5
48
330
43
100
AcDbEntity
  8
003
 62
     3
370
    30
100
AcDbLine
 10
289.842309
 20
1329.775653
 30
0.0
 11
304.842309
 21
1329.775653
 31
0.0
  0
LINE
  5
49
330
43
100
AcDbEntity
  8
003
 62
     3
370
    30
100
AcDbLine
 10
291.042309
 20
1324.275664
 30
0.0
 11
289.842309
 21
1324.968484
 31
0.0
  0
LINE
  5
4A
330
43
100
AcDbEntity
  8
003
 62
     3
370
    30
100
AcDbLine
 10
303.642309
 20
1324.275664
 30
0.0
 11
304.842309
 21
1324.968484
 31
0.0
  0
LINE
  5
4B
330
43
100
AcDbEntity
  8
003
 62
     3
370
    30
100
AcDbLine
 10
304.842309
 20
1324.968484
 30
0.0
 11
304.842309
 21
1329.775653
 31
0.0
  0
LINE
  5
4C
330
43
100
AcDbEntity
  8
003
 62
     3
370
    30
100
AcDbLine
 10
293.592309
 20
1329.775653
 30
0.0
 11
293.592309
 21
1324.968484
 31
0.0
  0
LINE
  5
4D
330
43
100
AcDbEntity
  8
003
 62
     3
370
    30
100
AcDbLine
 10
301.092309
 20
1329.775653
 30
0.0
 11
301.092309
 21
1324.968484
 31
0.0
  0
ARC
  5
4E
330
43
100
AcDbEntity
  8
003
 62
     3
370
    30
100
AcDbCircle
 10
302.967309
 20
1327.159258
 30
0.0
 40
2.883593961663502
100
AcDbArc
 50
229.441037
 51
270.0
  0
ARC
  5
4F
330
43
100
AcDbEntity
  8
003
 62
     3
370
    30
100
AcDbCircle
 10
291.717309
 20
1327.159258
 30
0.0
 40
2.883593961663502
100
AcDbArc
 50
270.0
 51
310.558963
  0
ARC
  5
50
330
43
100
AcDbEntity
  8
003
 62
     3
370
    30
100
AcDbCircle
 10
297.342309
 20
1334.770809
 30
0.0
 40
10.4951453621126
100
AcDbArc
 50
249.065034
 51
290.934966
  0
LINE
  5
51
330
43
100
AcDbEntity
  8
003
 62
     3
370
    30
100
AcDbLine
 10
297.342314
 20
1329.775664
 30
0.0
 11
297.342314
 21
1329.775653
 31
0.0
  0
LINE
  5
52
330
43
100
AcDbEntity
  8
003
 62
     3
370
    30
100
AcDbLine
 10
297.342314
 20
1329.775664
 30
0.0
 11
297.342303
 21
1329.775664
 31
0.0
  0
LINE
  5
53
330
43
100
AcDbEntity
  8
003
 62
     3
370
    30
100
AcDbLine
 10
297.342303
 20
1329.775664
 30
0.0
 11
297.342303
 21
1329.775653
 31
0.0
  0
ENDBLK
  5
45
330
43
100
AcDbEntity
  8
0
100
AcDbBlockEnd
  0
BLOCK
  5
55
330
54
100
AcDbEntity
  8
0
100
AcDbBlockBegin
  2
JZB-2
 70
     0
 10
0.0
 20
0.0
 30
0.0
  3
JZB-2
  1

  0
LINE
  5
57
330
54
100
AcDbEntity
  8
003
 62
     3
370
    30
100
AcDbLine
 10
339.339309
 20
1324.968484
 30
0.0
 11
339.339309
 21
1329.775653
 31
0.0
  0
LINE
  5
58
330
54
100
AcDbEntity
  8
003
 62
     3
370
    30
100
AcDbLine
 10
340.539309
 20
1324.275664
 30
0.0
 11
353.139309
 21
1324.275664
 31
0.0
  0
LINE
  5
59
330
54
100
AcDbEntity
  8
003
 62
     3
370
    30
100
AcDbLine
 10
339.339309
 20
1329.775653
 30
0.0
 11
354.339309
 21
1329.775653
 31
0.0
  0
LINE
  5
5A
330
54
100
AcDbEntity
  8
003
 62
     3
370
    30
100
AcDbLine
 10
340.539309
 20
1324.275664
 30
0.0
 11
339.339309
 21
1324.968484
 31
0.0
  0
LINE
  5
5B
330
54
100
AcDbEntity
  8
003
 62
     3
370
    30
100
AcDbLine
 10
353.139309
 20
1324.275664
 30
0.0
 11
354.339309
 21
1324.968484
 31
0.0
  0
LINE
  5
5C
330
54
100
AcDbEntity
  8
003
 62
     3
370
    30
100
AcDbLine
 10
354.339309
 20
1324.968484
 30
0.0
 11
354.339309
 21
1329.775653
 31
0.0
  0
LINE
  5
5D
330
54
100
AcDbEntity
  8
003
 62
     3
370
    30
100
AcDbLine
 10
343.089309
 20
1329.775653
 30
0.0
 11
343.089309
 21
1324.968484
 31
0.0
  0
LINE
  5
5E
330
54
100
AcDbEntity
  8
003
 62
     3
370
    30
100
AcDbLine
 10
350.589309
 20
1329.775653
 30
0.0
 11
350.589309
 21
1324.968484
 31
0.0
  0
ARC
  5
5F
330
54
100
AcDbEntity
  8
003
 62
     3
370
    30
100
AcDbCircle
 10
352.464309
 20
1327.159258
 30
0.0
 40
2.883593961663502
100
AcDbArc
 50
229.441037
 51
270.0
  0
ARC
  5
60
330
54
100
AcDbEntity
  8
003
 62
     3
370
    30
100
AcDbCircle
 10
341.214309
 20
1327.159258
 30
0.0
 40
2.883593961663502
100
AcDbArc
 50
270.0
 51
310.558963
  0
ARC
  5
61
330
54
100
AcDbEntity
  8
003
 62
     3
370
    30
100
AcDbCircle
 10
346.839309
 20
1334.770809
 30
0.0
 40
10.4951453621126
100
AcDbArc
 50
249.065034
 51
290.934966
  0
LINE
  5
62
330
54
100
AcDbEntity
  8
003
 62
     3
370
    30
100
AcDbLine
 10
346.839314
 20
1329.775664
 30
0.0
 11
346.839314
 21
1329.775653
 31
0.0
  0
LINE
  5
63
330
54
100
AcDbEntity
  8
003
 62
     3
370
    30
100
AcDbLine
 10
346.839314
 20
1329.775664
 30
0.0
 11
346.839303
 21
1329.775664
 31
0.0
  0
LINE
  5
64
330
54
100
AcDbEntity
  8
003
 62
     3
370
    30
100
AcDbLine
 10
346.839303
 20
1329.775664
 30
0.0
 11
346.839303
 21
1329.775653
 31
0.0
  0
ENDBLK
  5
56
330
54
100
AcDbEntity
  8
0
100
AcDbBlockEnd
  0
BLOCK
  5
66
330
65
100
AcDbEntity
  8
0
100
AcDbBlockBegin
  2
JZB-3
 70
     0
 10
0.0
 20
0.0
 30
0.0
  3
JZB-3
  1

  0
LINE
  5
68
330
65
100
AcDbEntity
  8
003
 62
     3
370
    30
100
AcDbLine
 10
354.33932
 20
1492.082821
 30
0.0
 11
354.33932
 21
1487.275653
 31
0.0
  0
LINE
  5
69
330
65
100
AcDbEntity
  8
003
 62
     3
370
    30
100
AcDbLine
 10
353.13932
 20
1492.775642
 30
0.0
 11
340.53932
 21
1492.775642
 31
0.0
  0
LINE
  5
6A
330
65
100
AcDbEntity
  8
003
 62
     3
370
    30
100
AcDbLine
 10
354.33932
 20
1487.275653
 30
0.0
 11
339.33932
 21
1487.275653
 31
0.0
  0
LINE
  5
6B
330
65
100
AcDbEntity
  8
003
 62
     3
370
    30
100
AcDbLine
 10
353.13932
 20
1492.775642
 30
0.0
 11
354.33932
 21
1492.082821
 31
0.0
  0
LINE
  5
6C
330
65
100
AcDbEntity
  8
003
 62
     3
370
    30
100
AcDbLine
 10
340.53932
 20
1492.775642
 30
0.0
 11
339.33932
 21
1492.082821
 31
0.0
  0
LINE
  5
6D
330
65
100
AcDbEntity
  8
003
 62
     3
370
    30
100
AcDbLine
 10
339.33932
 20
1492.082821
 30
0.0
 11
339.33932
 21
1487.275653
 31
0.0
  0
LINE
  5
6E
330
65
100
AcDbEntity
  8
003
 62
     3
370
    30
100
AcDbLine
 10
350.58932
 20
1487.275653
 30
0.0
 11
350.58932
 21
1492.082821
 31
0.0
  0
LINE
  5
6F
330
65
100
AcDbEntity
  8
003
 62
     3
370
    30
100
AcDbLine
 10
343.08932
 20
1487.275653
 30
0.0
 11
343.08932
 21
1492.082821
 31
0.0
  0
ARC
  5
70
330
65
100
AcDbEntity
  8
003
 62
     3
370
    30
100
AcDbCircle
 10
341.21432
 20
1489.892048
 30
0.0
 40
2.883593961663502
100
AcDbArc
 50
49.441037
 51
90.0
  0
ARC
  5
71
330
65
100
AcDbEntity
  8
003
 62
     3
370
    30
100
AcDbCircle
 10
352.46432
 20
1489.892048
 30
0.0
 40
2.883593961663502
100
AcDbArc
 50
90.0
 51
130.558963
  0
ARC
  5
72
330
65
100
AcDbEntity
  8
003
 62
     3
370
    30
100
AcDbCircle
 10
346.83932
 20
1482.280496
 30
0.0
 40
10.4951453621126
100
AcDbArc
 50
69.065034
 51
110.934966
  0
LINE
  5
73
330
65
100
AcDbEntity
  8
003
 62
     3
370
    30
100
AcDbLine
 10
346.839314
 20
1487.275642
 30
0.0
 11
346.839314
 21
1487.275653
 31
0.0
  0
LINE
  5
74
330
65
100
AcDbEntity
  8
003
 62
     3
370
    30
100
AcDbLine
 10
346.839314
 20
1487.275642
 30
0.0
 11
346.839325
 21
1487.275642
 31
0.0
  0
LINE
  5
75
330
65
100
AcDbEntity
  8
003
 62
     3
370
    30
100
AcDbLine
 10
346.839325
 20
1487.275642
 30
0.0
 11
346.839325
 21
1487.275653
 31
0.0
  0
ENDBLK
  5
67
330
65
100
AcDbEntity
  8
0
100
AcDbBlockEnd
  0
BLOCK
  5
77
330
76
100
AcDbEntity
  8
0
100
AcDbBlockBegin
  2
JZB-4
 70
     0
 10
0.0
 20
0.0
 30
0.0
  3
JZB-4
  1

  0
LINE
  5
79
330
76
100
AcDbEntity
  8
003
 62
     3
370
    30
100
AcDbLine
 10
304.84232
 20
1492.082821
 30
0.0
 11
304.84232
 21
1487.275653
 31
0.0
  0
LINE
  5
7A
330
76
100
AcDbEntity
  8
003
 62
     3
370
    30
100
AcDbLine
 10
303.64232
 20
1492.775642
 30
0.0
 11
291.04232
 21
1492.775642
 31
0.0
  0
LINE
  5
7B
330
76
100
AcDbEntity
  8
003
 62
     3
370
    30
100
AcDbLine
 10
304.84232
 20
1487.275653
 30
0.0
 11
289.84232
 21
1487.275653
 31
0.0
  0
LINE
  5
7C
330
76
100
AcDbEntity
  8
003
 62
     3
370
    30
100
AcDbLine
 10
303.64232
 20
1492.775642
 30
0.0
 11
304.84232
 21
1492.082821
 31
0.0
  0
LINE
  5
7D
330
76
100
AcDbEntity
  8
003
 62
     3
370
    30
100
AcDbLine
 10
291.04232
 20
1492.775642
 30
0.0
 11
289.84232
 21
1492.082821
 31
0.0
  0
LINE
  5
7E
330
76
100
AcDbEntity
  8
003
 62
     3
370
    30
100
AcDbLine
 10
289.84232
 20
1492.082821
 30
0.0
 11
289.84232
 21
1487.275653
 31
0.0
  0
LINE
  5
7F
330
76
100
AcDbEntity
  8
003
 62
     3
370
    30
100
AcDbLine
 10
301.09232
 20
1487.275653
 30
0.0
 11
301.09232
 21
1492.082821
 31
0.0
  0
LINE
  5
80
330
76
100
AcDbEntity
  8
003
 62
     3
370
    30
100
AcDbLine
 10
293.59232
 20
1487.275653
 30
0.0
 11
293.59232
 21
1492.082821
 31
0.0
  0
ARC
  5
81
330
76
100
AcDbEntity
  8
003
 62
     3
370
    30
100
AcDbCircle
 10
291.71732
 20
1489.892048
 30
0.0
 40
2.883593961663502
100
AcDbArc
 50
49.441037
 51
90.0
  0
ARC
  5
82
330
76
100
AcDbEntity
  8
003
 62
     3
370
    30
100
AcDbCircle
 10
302.96732
 20
1489.892048
 30
0.0
 40
2.883593961663502
100
AcDbArc
 50
90.0
 51
130.558963
  0
ARC
  5
83
330
76
100
AcDbEntity
  8
003
 62
     3
370
    30
100
AcDbCircle
 10
297.34232
 20
1482.280496
 30
0.0
 40
10.4951453621126
100
AcDbArc
 50
69.065034
 51
110.934966
  0
LINE
  5
84
330
76
100
AcDbEntity
  8
003
 62
     3
370
    30
100
AcDbLine
 10
297.342314
 20
1487.275642
 30
0.0
 11
297.342314
 21
1487.275653
 31
0.0
  0
LINE
  5
85
330
76
100
AcDbEntity
  8
003
 62
     3
370
    30
100
AcDbLine
 10
297.342314
 20
1487.275642
 30
0.0
 11
297.342325
 21
1487.275642
 31
0.0
  0
LINE
  5
86
330
76
100
AcDbEntity
  8
003
 62
     3
370
    30
100
AcDbLine
 10
297.342325
 20
1487.275642
 30
0.0
 11
297.342325
 21
1487.275653
 31
0.0
  0
ENDBLK
  5
78
330
76
100
AcDbEntity
  8
0
100
AcDbBlockEnd
  0
BLOCK
  5
88
330
87
100
AcDbEntity
  8
0
100
AcDbBlockBegin
  2
JZB-5
 70
     0
 10
0.0
 20
0.0
 30
0.0
  3
JZB-5
  1

  0
LINE
  5
8A
330
87
100
AcDbEntity
  8
002
 62
     3
370
    30
100
AcDbLine
 10
352.398614
 20
526.82278
 30
0.0
 11
354.341096
 21
519.572946
 31
0.0
  0
LINE
  5
8B
330
87
100
AcDbEntity
  8
002
 62
     3
370
    30
100
AcDbLine
 10
339.841533
 20
523.458303
 30
0.0
 11
341.784015
 21
516.208469
 31
0.0
  0
LINE
  5
8C
330
87
100
AcDbEntity
  8
002
 62
     3
370
    30
100
AcDbLine
 10
345.148833
 20
528.765459
 30
0.0
 11
339.841533
 21
523.458303
 31
0.0
  0
LINE
  5
8D
330
87
100
AcDbEntity
  8
002
 62
     3
370
    30
100
AcDbLine
 10
349.033796
 20
514.26579
 30
0.0
 11
354.341096
 21
519.572946
 31
0.0
  0
LINE
  5
8E
330
87
100
AcDbEntity
  8
002
 62
     3
370
    30
100
AcDbLine
 10
341.784015
 20
516.208469
 30
0.0
 11
349.033796
 21
514.26579
 31
0.0
  0
LINE
  5
8F
330
87
100
AcDbEntity
  8
002
 62
     3
370
    30
100
AcDbLine
 10
352.398614
 20
526.82278
 30
0.0
 11
345.148833
 21
528.765459
 31
0.0
  0
CIRCLE
  5
90
330
87
100
AcDbEntity
  8
002
 62
     3
370
    30
100
AcDbCircle
 10
347.091314
 20
521.515625
 30
0.0
 40
6.500000000000002
  0
ENDBLK
  5
89
330
87
100
AcDbEntity
  8
0
100
AcDbBlockEnd
  0
BLOCK
  5
92
330
91
100
AcDbEntity
  8
0
100
AcDbBlockBegin
  2
JZB-6
 70
     0
 10
0.0
 20
0.0
 30
0.0
  3
JZB-6
  1

  0
LINE
  5
94
330
91
100
AcDbEntity
  8
002
 62
     3
370
    30
100
AcDbLine
 10
289.841445
 20
519.573274
 30
0.0
 11
291.784255
 21
526.823021
 31
0.0
  0
LINE
  5
95
330
91
100
AcDbEntity
  8
002
 62
     3
370
    30
100
AcDbLine
 10
302.398374
 20
516.208229
 30
0.0
 11
304.341184
 21
523.457975
 31
0.0
  0
LINE
  5
96
330
91
100
AcDbEntity
  8
002
 62
     3
370
    30
100
AcDbLine
 10
295.148505
 20
514.265878
 30
0.0
 11
302.398374
 21
516.208229
 31
0.0
  0
LINE
  5
97
330
91
100
AcDbEntity
  8
002
 62
     3
370
    30
100
AcDbLine
 10
299.034124
 20
528.765371
 30
0.0
 11
291.784255
 21
526.823021
 31
0.0
  0
LINE
  5
98
330
91
100
AcDbEntity
  8
002
 62
     3
370
    30
100
AcDbLine
 10
304.341184
 20
523.457975
 30
0.0
 11
299.034124
 21
528.765371
 31
0.0
  0
LINE
  5
99
330
91
100
AcDbEntity
  8
002
 62
     3
370
    30
100
AcDbLine
 10
289.841445
 20
519.573274
 30
0.0
 11
295.148505
 21
514.265878
 31
0.0
  0
CIRCLE
  5
9A
330
91
100
AcDbEntity
  8
002
 62
     3
370
    30
100
AcDbCircle
 10
297.091314
 20
521.515625
 30
0.0
 40
6.500000000000002
  0
ENDBLK
  5
93
330
91
100
AcDbEntity
  8
0
100
AcDbBlockEnd
  0
BLOCK
  5
9C
330
9B
100
AcDbEntity
  8
0
100
AcDbBlockBegin
  2
JZB-7
 70
     0
 10
0.0
 20
0.0
 30
0.0
  3
JZB-7
  1

  0
LINE
  5
9E
330
9B
100
AcDbEntity
  8
002
 62
     3
370
    30
100
AcDbLine
 10
289.841445
 20
473.457975
 30
0.0
 11
295.148505
 21
478.765371
 31
0.0
  0
LINE
  5
9F
330
9B
100
AcDbEntity
  8
002
 62
     3
370
    30
100
AcDbLine
 10
299.034124
 20
464.265878
 30
0.0
 11
304.341184
 21
469.573274
 31
0.0
  0
LINE
  5
A0
330
9B
100
AcDbEntity
  8
002
 62
     3
370
    30
100
AcDbLine
 10
291.784255
 20
466.208229
 30
0.0
 11
299.034124
 21
464.265878
 31
0.0
  0
LINE
  5
A1
330
9B
100
AcDbEntity
  8
002
 62
     3
370
    30
100
AcDbLine
 10
302.398374
 20
476.823021
 30
0.0
 11
295.148505
 21
478.765371
 31
0.0
  0
LINE
  5
A2
330
9B
100
AcDbEntity
  8
002
 62
     3
370
    30
100
AcDbLine
 10
304.341184
 20
469.573274
 30
0.0
 11
302.398374
 21
476.823021
 31
0.0
  0
LINE
  5
A3
330
9B
100
AcDbEntity
  8
002
 62
     3
370
    30
100
AcDbLine
 10
289.841445
 20
473.457975
 30
0.0
 11
291.784255
 21
466.208229
 31
0.0
  0
CIRCLE
  5
A4
330
9B
100
AcDbEntity
  8
002
 62
     3
370
    30
100
AcDbCircle
 10
297.091314
 20
471.515625
 30
0.0
 40
6.500000000000002
  0
ENDBLK
  5
9D
330
9B
100
AcDbEntity
  8
0
100
AcDbBlockEnd
  0
BLOCK
  5
A6
330
A5
100
AcDbEntity
  8
0
100
AcDbBlockBegin
  2
JZB-8
 70
     0
 10
0.0
 20
0.0
 30
0.0
  3
JZB-8
  1

  0
LINE
  5
A8
330
A5
100
AcDbEntity
  8
002
 62
     3
370
    30
100
AcDbLine
 10
352.398614
 20
466.208469
 30
0.0
 11
345.148833
 21
464.26579
 31
0.0
  0
LINE
  5
A9
330
A5
100
AcDbEntity
  8
002
 62
     3
370
    30
100
AcDbLine
 10
349.033796
 20
478.765459
 30
0.0
 11
341.784015
 21
476.82278
 31
0.0
  0
LINE
  5
AA
330
A5
100
AcDbEntity
  8
002
 62
     3
370
    30
100
AcDbLine
 10
354.341096
 20
473.458303
 30
0.0
 11
349.033796
 21
478.765459
 31
0.0
  0
LINE
  5
AB
330
A5
100
AcDbEntity
  8
002
 62
     3
370
    30
100
AcDbLine
 10
339.841533
 20
469.572946
 30
0.0
 11
345.148833
 21
464.26579
 31
0.0
  0
LINE
  5
AC
330
A5
100
AcDbEntity
  8
002
 62
     3
370
    30
100
AcDbLine
 10
341.784015
 20
476.82278
 30
0.0
 11
339.841533
 21
469.572946
 31
0.0
  0
LINE
  5
AD
330
A5
100
AcDbEntity
  8
002
 62
     3
370
    30
100
AcDbLine
 10
352.398614
 20
466.208469
 30
0.0
 11
354.341096
 21
473.458303
 31
0.0
  0
CIRCLE
  5
AE
330
A5
100
AcDbEntity
  8
002
 62
     3
370
    30
100
AcDbCircle
 10
347.091314
 20
471.515625
 30
0.0
 40
6.500000000000002
  0
ENDBLK
  5
A7
330
A5
100
AcDbEntity
  8
0
100
AcDbBlockEnd
  0
BLOCK
  5
B0
330
AF
100
AcDbEntity
  8
0
100
AcDbBlockBegin
  2
JZB-9
 70
     0
 10
0.0
 20
0.0
 30
0.0
  3
JZB-9
  1

  0
LINE
  5
B2
330
AF
100
AcDbEntity
  8
002
 62
     3
370
    30
100
AcDbLine
 10
904.87661
 20
526.82278
 30
0.0
 11
906.819092
 21
519.572946
 31
0.0
  0
LINE
  5
B3
330
AF
100
AcDbEntity
  8
002
 62
     3
370
    30
100
AcDbLine
 10
892.319529
 20
523.458303
 30
0.0
 11
894.262011
 21
516.208469
 31
0.0
  0
LINE
  5
B4
330
AF
100
AcDbEntity
  8
002
 62
     3
370
    30
100
AcDbLine
 10
897.626829
 20
528.765459
 30
0.0
 11
892.319529
 21
523.458303
 31
0.0
  0
LINE
  5
B5
330
AF
100
AcDbEntity
  8
002
 62
     3
370
    30
100
AcDbLine
 10
901.511792
 20
514.26579
 30
0.0
 11
906.819092
 21
519.572946
 31
0.0
  0
LINE
  5
B6
330
AF
100
AcDbEntity
  8
002
 62
     3
370
    30
100
AcDbLine
 10
894.262011
 20
516.208469
 30
0.0
 11
901.511792
 21
514.26579
 31
0.0
  0
LINE
  5
B7
330
AF
100
AcDbEntity
  8
002
 62
     3
370
    30
100
AcDbLine
 10
904.87661
 20
526.82278
 30
0.0
 11
897.626829
 21
528.765459
 31
0.0
  0
CIRCLE
  5
B8
330
AF
100
AcDbEntity
  8
002
 62
     3
370
    30
100
AcDbCircle
 10
899.56931
 20
521.515625
 30
0.0
 40
6.500000000000002
  0
ENDBLK
  5
B1
330
AF
100
AcDbEntity
  8
0
100
AcDbBlockEnd
  0
BLOCK
  5
BA
330
B9
100
AcDbEntity
  8
0
100
AcDbBlockBegin
  2
JZB-10
 70
     0
 10
0.0
 20
0.0
 30
0.0
  3
JZB-10
  1

  0
LINE
  5
BC
330
B9
100
AcDbEntity
  8
002
 62
     3
370
    30
100
AcDbLine
 10
842.319441
 20
519.573274
 30
0.0
 11
844.262251
 21
526.823021
 31
0.0
  0
LINE
  5
BD
330
B9
100
AcDbEntity
  8
002
 62
     3
370
    30
100
AcDbLine
 10
854.87637
 20
516.208229
 30
0.0
 11
856.81918
 21
523.457975
 31
0.0
  0
LINE
  5
BE
330
B9
100
AcDbEntity
  8
002
 62
     3
370
    30
100
AcDbLine
 10
847.626501
 20
514.265878
 30
0.0
 11
854.87637
 21
516.208229
 31
0.0
  0
LINE
  5
BF
330
B9
100
AcDbEntity
  8
002
 62
     3
370
    30
100
AcDbLine
 10
851.51212
 20
528.765371
 30
0.0
 11
844.262251
 21
526.823021
 31
0.0
  0
LINE
  5
C0
330
B9
100
AcDbEntity
  8
002
 62
     3
370
    30
100
AcDbLine
 10
856.81918
 20
523.457975
 30
0.0
 11
851.51212
 21
528.765371
 31
0.0
  0
LINE
  5
C1
330
B9
100
AcDbEntity
  8
002
 62
     3
370
    30
100
AcDbLine
 10
842.319441
 20
519.573274
 30
0.0
 11
847.626501
 21
514.265878
 31
0.0
  0
CIRCLE
  5
C2
330
B9
100
AcDbEntity
  8
002
 62
     3
370
    30
100
AcDbCircle
 10
849.56931
 20
521.515625
 30
0.0
 40
6.500000000000002
  0
ENDBLK
  5
BB
330
B9
100
AcDbEntity
  8
0
100
AcDbBlockEnd
  0
BLOCK
  5
C4
330
C3
100
AcDbEntity
  8
0
100
AcDbBlockBegin
  2
JZB-11
 70
     0
 10
0.0
 20
0.0
 30
0.0
  3
JZB-11
  1

  0
LINE
  5
C6
330
C3
100
AcDbEntity
  8
002
 62
     3
370
    30
100
AcDbLine
 10
842.319441
 20
473.457975
 30
0.0
 11
847.626501
 21
478.765371
 31
0.0
  0
LINE
  5
C7
330
C3
100
AcDbEntity
  8
002
 62
     3
370
    30
100
AcDbLine
 10
851.51212
 20
464.265878
 30
0.0
 11
856.81918
 21
469.573274
 31
0.0
  0
LINE
  5
C8
330
C3
100
AcDbEntity
  8
002
 62
     3
370
    30
100
AcDbLine
 10
844.262251
 20
466.208229
 30
0.0
 11
851.51212
 21
464.265878
 31
0.0
  0
LINE
  5
C9
330
C3
100
AcDbEntity
  8
002
 62
     3
370
    30
100
AcDbLine
 10
854.87637
 20
476.823021
 30
0.0
 11
847.626501
 21
478.765371
 31
0.0
  0
LINE
  5
CA
330
C3
100
AcDbEntity
  8
002
 62
     3
370
    30
100
AcDbLine
 10
856.81918
 20
469.573274
 30
0.0
 11
854.87637
 21
476.823021
 31
0.0
  0
LINE
  5
CB
330
C3
100
AcDbEntity
  8
002
 62
     3
370
    30
100
AcDbLine
 10
842.319441
 20
473.457975
 30
0.0
 11
844.262251
 21
466.208229
 31
0.0
  0
CIRCLE
  5
CC
330
C3
100
AcDbEntity
  8
002
 62
     3
370
    30
100
AcDbCircle
 10
849.56931
 20
471.515625
 30
0.0
 40
6.500000000000002
  0
ENDBLK
  5
C5
330
C3
100
AcDbEntity
  8
0
100
AcDbBlockEnd
  0
BLOCK
  5
CE
330
CD
100
AcDbEntity
  8
0
100
AcDbBlockBegin
  2
JZB-12
 70
     0
 10
0.0
 20
0.0
 30
0.0
  3
JZB-12
  1

  0
LINE
  5
D0
330
CD
100
AcDbEntity
  8
002
 62
     3
370
    30
100
AcDbLine
 10
904.87661
 20
466.208469
 30
0.0
 11
897.626829
 21
464.26579
 31
0.0
  0
LINE
  5
D1
330
CD
100
AcDbEntity
  8
002
 62
     3
370
    30
100
AcDbLine
 10
901.511792
 20
478.765459
 30
0.0
 11
894.262011
 21
476.82278
 31
0.0
  0
LINE
  5
D2
330
CD
100
AcDbEntity
  8
002
 62
     3
370
    30
100
AcDbLine
 10
906.819092
 20
473.458303
 30
0.0
 11
901.511792
 21
478.765459
 31
0.0
  0
LINE
  5
D3
330
CD
100
AcDbEntity
  8
002
 62
     3
370
    30
100
AcDbLine
 10
892.319529
 20
469.572946
 30
0.0
 11
897.626829
 21
464.26579
 31
0.0
  0
LINE
  5
D4
330
CD
100
AcDbEntity
  8
002
 62
     3
370
    30
100
AcDbLine
 10
894.262011
 20
476.82278
 30
0.0
 11
892.319529
 21
469.572946
 31
0.0
  0
LINE
  5
D5
330
CD
100
AcDbEntity
  8
002
 62
     3
370
    30
100
AcDbLine
 10
904.87661
 20
466.208469
 30
0.0
 11
906.819092
 21
473.458303
 31
0.0
  0
CIRCLE
  5
D6
330
CD
100
AcDbEntity
  8
002
 62
     3
370
    30
100
AcDbCircle
 10
899.56931
 20
471.515625
 30
0.0
 40
6.500000000000002
  0
ENDBLK
  5
CF
330
CD
100
AcDbEntity
  8
0
100
AcDbBlockEnd
  0
BLOCK
  5
D8
330
D7
100
AcDbEntity
  8
0
100
AcDbBlockBegin
  2
JZB-13
 70
     0
 10
0.0
 20
0.0
 30
0.0
  3
JZB-13
  1

  0
LINE
  5
DA
330
D7
100
AcDbEntity
  8
002
 62
     3
370
    30
100
AcDbLine
 10
1176.15481
 20
526.82278
 30
0.0
 11
1178.097291
 21
519.572946
 31
0.0
  0
LINE
  5
DB
330
D7
100
AcDbEntity
  8
002
 62
     3
370
    30
100
AcDbLine
 10
1163.597728
 20
523.458303
 30
0.0
 11
1165.54021
 21
516.208469
 31
0.0
  0
LINE
  5
DC
330
D7
100
AcDbEntity
  8
002
 62
     3
370
    30
100
AcDbLine
 10
1168.905028
 20
528.765459
 30
0.0
 11
1163.597728
 21
523.458303
 31
0.0
  0
LINE
  5
DD
330
D7
100
AcDbEntity
  8
002
 62
     3
370
    30
100
AcDbLine
 10
1172.789992
 20
514.26579
 30
0.0
 11
1178.097291
 21
519.572946
 31
0.0
  0
LINE
  5
DE
330
D7
100
AcDbEntity
  8
002
 62
     3
370
    30
100
AcDbLine
 10
1165.54021
 20
516.208469
 30
0.0
 11
1172.789992
 21
514.26579
 31
0.0
  0
LINE
  5
DF
330
D7
100
AcDbEntity
  8
002
 62
     3
370
    30
100
AcDbLine
 10
1176.15481
 20
526.82278
 30
0.0
 11
1168.905028
 21
528.765459
 31
0.0
  0
CIRCLE
  5
E0
330
D7
100
AcDbEntity
  8
002
 62
     3
370
    30
100
AcDbCircle
 10
1170.84751
 20
521.515625
 30
0.0
 40
6.500000000000002
  0
ENDBLK
  5
D9
330
D7
100
AcDbEntity
  8
0
100
AcDbBlockEnd
  0
BLOCK
  5
E2
330
E1
100
AcDbEntity
  8
0
100
AcDbBlockBegin
  2
JZB-14
 70
     0
 10
0.0
 20
0.0
 30
0.0
  3
JZB-14
  1

  0
LINE
  5
E4
330
E1
100
AcDbEntity
  8
002
 62
     3
370
    30
100
AcDbLine
 10
1113.59764
 20
519.573274
 30
0.0
 11
1115.54045
 21
526.823021
 31
0.0
  0
LINE
  5
E5
330
E1
100
AcDbEntity
  8
002
 62
     3
370
    30
100
AcDbLine
 10
1126.154569
 20
516.208229
 30
0.0
 11
1128.097379
 21
523.457975
 31
0.0
  0
LINE
  5
E6
330
E1
100
AcDbEntity
  8
002
 62
     3
370
    30
100
AcDbLine
 10
1118.9047
 20
514.265878
 30
0.0
 11
1126.154569
 21
516.208229
 31
0.0
  0
LINE
  5
E7
330
E1
100
AcDbEntity
  8
002
 62
     3
370
    30
100
AcDbLine
 10
1122.790319
 20
528.765371
 30
0.0
 11
1115.54045
 21
526.823021
 31
0.0
  0
LINE
  5
E8
330
E1
100
AcDbEntity
  8
002
 62
     3
370
    30
100
AcDbLine
 10
1128.097379
 20
523.457975
 30
0.0
 11
1122.790319
 21
528.765371
 31
0.0
  0
LINE
  5
E9
330
E1
100
AcDbEntity
  8
002
 62
     3
370
    30
100
AcDbLine
 10
1113.59764
 20
519.573274
 30
0.0
 11
1118.9047
 21
514.265878
 31
0.0
  0
CIRCLE
  5
EA
330
E1
100
AcDbEntity
  8
002
 62
     3
370
    30
100
AcDbCircle
 10
1120.84751
 20
521.515625
 30
0.0
 40
6.500000000000002
  0
ENDBLK
  5
E3
330
E1
100
AcDbEntity
  8
0
100
AcDbBlockEnd
  0
BLOCK
  5
EC
330
EB
100
AcDbEntity
  8
0
100
AcDbBlockBegin
  2
JZB-15
 70
     0
 10
0.0
 20
0.0
 30
0.0
  3
JZB-15
  1

  0
LINE
  5
EE
330
EB
100
AcDbEntity
  8
002
 62
     3
370
    30
100
AcDbLine
 10
1113.59764
 20
473.457975
 30
0.0
 11
1118.9047
 21
478.765371
 31
0.0
  0
LINE
  5
EF
330
EB
100
AcDbEntity
  8
002
 62
     3
370
    30
100
AcDbLine
 10
1122.790319
 20
464.265878
 30
0.0
 11
1128.097379
 21
469.573274
 31
0.0
  0
LINE
  5
F0
330
EB
100
AcDbEntity
  8
002
 62
     3
370
    30
100
AcDbLine
 10
1115.54045
 20
466.208229
 30
0.0
 11
1122.790319
 21
464.265878
 31
0.0
  0
LINE
  5
F1
330
EB
100
AcDbEntity
  8
002
 62
     3
370
    30
100
AcDbLine
 10
1126.154569
 20
476.823021
 30
0.0
 11
1118.9047
 21
478.765371
 31
0.0
  0
LINE
  5
F2
330
EB
100
AcDbEntity
  8
002
 62
     3
370
    30
100
AcDbLine
 10
1128.097379
 20
469.573274
 30
0.0
 11
1126.154569
 21
476.823021
 31
0.0
  0
LINE
  5
F3
330
EB
100
AcDbEntity
  8
002
 62
     3
370
    30
100
AcDbLine
 10
1113.59764
 20
473.457975
 30
0.0
 11
1115.54045
 21
466.208229
 31
0.0
  0
CIRCLE
  5
F4
330
EB
100
AcDbEntity
  8
002
 62
     3
370
    30
100
AcDbCircle
 10
1120.84751
 20
471.515625
 30
0.0
 40
6.500000000000002
  0
ENDBLK
  5
ED
330
EB
100
AcDbEntity
  8
0
100
AcDbBlockEnd
  0
BLOCK
  5
F6
330
F5
100
AcDbEntity
  8
0
100
AcDbBlockBegin
  2
JZB-16
 70
     0
 10
0.0
 20
0.0
 30
0.0
  3
JZB-16
  1

  0
LINE
  5
F8
330
F5
100
AcDbEntity
  8
002
 62
     3
370
    30
100
AcDbLine
 10
1176.15481
 20
466.208469
 30
0.0
 11
1168.905028
 21
464.26579
 31
0.0
  0
LINE
  5
F9
330
F5
100
AcDbEntity
  8
002
 62
     3
370
    30
100
AcDbLine
 10
1172.789992
 20
478.765459
 30
0.0
 11
1165.54021
 21
476.82278
 31
0.0
  0
LINE
  5
FA
330
F5
100
AcDbEntity
  8
002
 62
     3
370
    30
100
AcDbLine
 10
1178.097291
 20
473.458303
 30
0.0
 11
1172.789992
 21
478.765459
 31
0.0
  0
LINE
  5
FB
330
F5
100
AcDbEntity
  8
002
 62
     3
370
    30
100
AcDbLine
 10
1163.597728
 20
469.572946
 30
0.0
 11
1168.905028
 21
464.26579
 31
0.0
  0
LINE
  5
FC
330
F5
100
AcDbEntity
  8
002
 62
     3
370
    30
100
AcDbLine
 10
1165.54021
 20
476.82278
 30
0.0
 11
1163.597728
 21
469.572946
 31
0.0
  0
LINE
  5
FD
330
F5
100
AcDbEntity
  8
002
 62
     3
370
    30
100
AcDbLine
 10
1176.15481
 20
466.208469
 30
0.0
 11
1178.097291
 21
473.458303
 31
0.0
  0
CIRCLE
  5
FE
330
F5
100
AcDbEntity
  8
002
 62
     3
370
    30
100
AcDbCircle
 10
1170.84751
 20
471.515625
 30
0.0
 40
6.500000000000002
  0
ENDBLK
  5
F7
330
F5
100
AcDbEntity
  8
0
100
AcDbBlockEnd
  0
BLOCK
  5
100
330
FF
100
AcDbEntity
  8
0
100
AcDbBlockBegin
  2
JZB-17
 70
     0
 10
0.0
 20
0.0
 30
0.0
  3
JZB-17
  1

  0
LINE
  5
102
330
FF
100
AcDbEntity
  8
002
 62
     3
370
    30
100
AcDbLine
 10
1431.15481
 20
526.82278
 30
0.0
 11
1433.097291
 21
519.572946
 31
0.0
  0
LINE
  5
103
330
FF
100
AcDbEntity
  8
002
 62
     3
370
    30
100
AcDbLine
 10
1418.597728
 20
523.458303
 30
0.0
 11
1420.54021
 21
516.208469
 31
0.0
  0
LINE
  5
104
330
FF
100
AcDbEntity
  8
002
 62
     3
370
    30
100
AcDbLine
 10
1423.905028
 20
528.765459
 30
0.0
 11
1418.597728
 21
523.458303
 31
0.0
  0
LINE
  5
105
330
FF
100
AcDbEntity
  8
002
 62
     3
370
    30
100
AcDbLine
 10
1427.789992
 20
514.26579
 30
0.0
 11
1433.097291
 21
519.572946
 31
0.0
  0
LINE
  5
106
330
FF
100
AcDbEntity
  8
002
 62
     3
370
    30
100
AcDbLine
 10
1420.54021
 20
516.208469
 30
0.0
 11
1427.789992
 21
514.26579
 31
0.0
  0
LINE
  5
107
330
FF
100
AcDbEntity
  8
002
 62
     3
370
    30
100
AcDbLine
 10
1431.15481
 20
526.82278
 30
0.0
 11
1423.905028
 21
528.765459
 31
0.0
  0
CIRCLE
  5
108
330
FF
100
AcDbEntity
  8
002
 62
     3
370
    30
100
AcDbCircle
 10
1425.84751
 20
521.515625
 30
0.0
 40
6.500000000000002
  0
ENDBLK
  5
101
330
FF
100
AcDbEntity
  8
0
100
AcDbBlockEnd
  0
BLOCK
  5
10A
330
109
100
AcDbEntity
  8
0
100
AcDbBlockBegin
  2
JZB-18
 70
     0
 10
0.0
 20
0.0
 30
0.0
  3
JZB-18
  1

  0
LINE
  5
10C
330
109
100
AcDbEntity
  8
002
 62
     3
370
    30
100
AcDbLine
 10
1368.59764
 20
519.573274
 30
0.0
 11
1370.54045
 21
526.823021
 31
0.0
  0
LINE
  5
10D
330
109
100
AcDbEntity
  8
002
 62
     3
370
    30
100
AcDbLine
 10
1381.154569
 20
516.208229
 30
0.0
 11
1383.097379
 21
523.457975
 31
0.0
  0
LINE
  5
10E
330
109
100
AcDbEntity
  8
002
 62
     3
370
    30
100
AcDbLine
 10
1373.9047
 20
514.265878
 30
0.0
 11
1381.154569
 21
516.208229
 31
0.0
  0
LINE
  5
10F
330
109
100
AcDbEntity
  8
002
 62
     3
370
    30
100
AcDbLine
 10
1377.790319
 20
528.765371
 30
0.0
 11
1370.54045
 21
526.823021
 31
0.0
  0
LINE
  5
110
330
109
100
AcDbEntity
  8
002
 62
     3
370
    30
100
AcDbLine
 10
1383.097379
 20
523.457975
 30
0.0
 11
1377.790319
 21
528.765371
 31
0.0
  0
LINE
  5
111
330
109
100
AcDbEntity
  8
002
 62
     3
370
    30
100
AcDbLine
 10
1368.59764
 20
519.573274
 30
0.0
 11
1373.9047
 21
514.265878
 31
0.0
  0
CIRCLE
  5
112
330
109
100
AcDbEntity
  8
002
 62
     3
370
    30
100
AcDbCircle
 10
1375.84751
 20
521.515625
 30
0.0
 40
6.500000000000002
  0
ENDBLK
  5
10B
330
109
100
AcDbEntity
  8
0
100
AcDbBlockEnd
  0
BLOCK
  5
114
330
113
100
AcDbEntity
  8
0
100
AcDbBlockBegin
  2
JZB-19
 70
     0
 10
0.0
 20
0.0
 30
0.0
  3
JZB-19
  1

  0
LINE
  5
116
330
113
100
AcDbEntity
  8
002
 62
     3
370
    30
100
AcDbLine
 10
1368.59764
 20
473.457975
 30
0.0
 11
1373.9047
 21
478.765371
 31
0.0
  0
LINE
  5
117
330
113
100
AcDbEntity
  8
002
 62
     3
370
    30
100
AcDbLine
 10
1377.790319
 20
464.265878
 30
0.0
 11
1383.097379
 21
469.573274
 31
0.0
  0
LINE
  5
118
330
113
100
AcDbEntity
  8
002
 62
     3
370
    30
100
AcDbLine
 10
1370.54045
 20
466.208229
 30
0.0
 11
1377.790319
 21
464.265878
 31
0.0
  0
LINE
  5
119
330
113
100
AcDbEntity
  8
002
 62
     3
370
    30
100
AcDbLine
 10
1381.154569
 20
476.823021
 30
0.0
 11
1373.9047
 21
478.765371
 31
0.0
  0
LINE
  5
11A
330
113
100
AcDbEntity
  8
002
 62
     3
370
    30
100
AcDbLine
 10
1383.097379
 20
469.573274
 30
0.0
 11
1381.154569
 21
476.823021
 31
0.0
  0
LINE
  5
11B
330
113
100
AcDbEntity
  8
002
 62
     3
370
    30
100
AcDbLine
 10
1368.59764
 20
473.457975
 30
0.0
 11
1370.54045
 21
466.208229
 31
0.0
  0
CIRCLE
  5
11C
330
113
100
AcDbEntity
  8
002
 62
     3
370
    30
100
AcDbCircle
 10
1375.84751
 20
471.515625
 30
0.0
 40
6.500000000000002
  0
ENDBLK
  5
115
330
113
100
AcDbEntity
  8
0
100
AcDbBlockEnd
  0
BLOCK
  5
11E
330
11D
100
AcDbEntity
  8
0
100
AcDbBlockBegin
  2
JZB-20
 70
     0
 10
0.0
 20
0.0
 30
0.0
  3
JZB-20
  1

  0
LINE
  5
120
330
11D
100
AcDbEntity
  8
002
 62
     3
370
    30
100
AcDbLine
 10
1431.15481
 20
466.208469
 30
0.0
 11
1423.905028
 21
464.26579
 31
0.0
  0
LINE
  5
121
330
11D
100
AcDbEntity
  8
002
 62
     3
370
    30
100
AcDbLine
 10
1427.789992
 20
478.765459
 30
0.0
 11
1420.54021
 21
476.82278
 31
0.0
  0
LINE
  5
122
330
11D
100
AcDbEntity
  8
002
 62
     3
370
    30
100
AcDbLine
 10
1433.097291
 20
473.458303
 30
0.0
 11
1427.789992
 21
478.765459
 31
0.0
  0
LINE
  5
123
330
11D
100
AcDbEntity
  8
002
 62
     3
370
    30
100
AcDbLine
 10
1418.597728
 20
469.572946
 30
0.0
 11
1423.905028
 21
464.26579
 31
0.0
  0
LINE
  5
124
330
11D
100
AcDbEntity
  8
002
 62
     3
370
    30
100
AcDbLine
 10
1420.54021
 20
476.82278
 30
0.0
 11
1418.597728
 21
469.572946
 31
0.0
  0
LINE
  5
125
330
11D
100
AcDbEntity
  8
002
 62
     3
370
    30
100
AcDbLine
 10
1431.15481
 20
466.208469
 30
0.0
 11
1433.097291
 21
473.458303
 31
0.0
  0
CIRCLE
  5
126
330
11D
100
AcDbEntity
  8
002
 62
     3
370
    30
100
AcDbCircle
 10
1425.84751
 20
471.515625
 30
0.0
 40
6.500000000000002
  0
ENDBLK
  5
11F
330
11D
100
AcDbEntity
  8
0
100
AcDbBlockEnd
  0
BLOCK
  5
128
330
127
100
AcDbEntity
  8
0
100
AcDbBlockBegin
  2
JZB-21
 70
     0
 10
0.0
 20
0.0
 30
0.0
  3
JZB-21
  1

  0
LINE
  5
12A
330
127
100
AcDbEntity
  8
003
 62
     3
370
    30
100
AcDbLine
 10
456.534246
 20
528.76463
 30
0.0
 11
461.341414
 21
528.76463
 31
0.0
  0
LINE
  5
12B
330
127
100
AcDbEntity
  8
003
 62
     3
370
    30
100
AcDbLine
 10
455.841425
 20
527.56463
 30
0.0
 11
455.841425
 21
514.96463
 31
0.0
  0
LINE
  5
12C
330
127
100
AcDbEntity
  8
003
 62
     3
370
    30
100
AcDbLine
 10
461.341414
 20
528.76463
 30
0.0
 11
461.341414
 21
513.76463
 31
0.0
  0
LINE
  5
12D
330
127
100
AcDbEntity
  8
003
 62
     3
370
    30
100
AcDbLine
 10
455.841425
 20
527.56463
 30
0.0
 11
456.534246
 21
528.76463
 31
0.0
  0
LINE
  5
12E
330
127
100
AcDbEntity
  8
003
 62
     3
370
    30
100
AcDbLine
 10
455.841425
 20
514.96463
 30
0.0
 11
456.534246
 21
513.76463
 31
0.0
  0
LINE
  5
12F
330
127
100
AcDbEntity
  8
003
 62
     3
370
    30
100
AcDbLine
 10
456.534246
 20
513.76463
 30
0.0
 11
461.341414
 21
513.76463
 31
0.0
  0
LINE
  5
130
330
127
100
AcDbEntity
  8
003
 62
     3
370
    30
100
AcDbLine
 10
461.341414
 20
525.01463
 30
0.0
 11
456.534246
 21
525.01463
 31
0.0
  0
LINE
  5
131
330
127
100
AcDbEntity
  8
003
 62
     3
370
    30
100
AcDbLine
 10
461.341414
 20
517.51463
 30
0.0
 11
456.534246
 21
517.51463
 31
0.0
  0
ARC
  5
132
330
127
100
AcDbEntity
  8
003
 62
     3
370
    30
100
AcDbCircle
 10
458.725019
 20
515.63963
 30
0.0
 40
2.883593961663502
100
AcDbArc
 50
139.441037
 51
180.0
  0
ARC
  5
133
330
127
100
AcDbEntity
  8
003
 62
     3
370
    30
100
AcDbCircle
 10
458.725019
 20
526.88963
 30
0.0
 40
2.883593961663502
100
AcDbArc
 50
180.0
 51
220.558963
  0
ARC
  5
134
330
127
100
AcDbEntity
  8
003
 62
     3
370
    30
100
AcDbCircle
 10
466.336571
 20
521.26463
 30
0.0
 40
10.4951453621126
100
AcDbArc
 50
159.065034
 51
200.934966
  0
LINE
  5
135
330
127
100
AcDbEntity
  8
003
 62
     3
370
    30
100
AcDbLine
 10
461.341425
 20
521.264625
 30
0.0
 11
461.341414
 21
521.264625
 31
0.0
  0
LINE
  5
136
330
127
100
AcDbEntity
  8
003
 62
     3
370
    30
100
AcDbLine
 10
461.341425
 20
521.264625
 30
0.0
 11
461.341425
 21
521.264636
 31
0.0
  0
LINE
  5
137
330
127
100
AcDbEntity
  8
003
 62
     3
370
    30
100
AcDbLine
 10
461.341425
 20
521.264636
 30
0.0
 11
461.341414
 21
521.264636
 31
0.0
  0
ENDBLK
  5
129
330
127
100
AcDbEntity
  8
0
100
AcDbBlockEnd
  0
BLOCK
  5
139
330
138
100
AcDbEntity
  8
0
100
AcDbBlockBegin
  2
JZB-22
 70
     0
 10
0.0
 20
0.0
 30
0.0
  3
JZB-22
  1

  0
LINE
  5
13B
330
138
100
AcDbEntity
  8
003
 62
     3
370
    30
100
AcDbLine
 10
456.534246
 20
479.26763
 30
0.0
 11
461.341414
 21
479.26763
 31
0.0
  0
LINE
  5
13C
330
138
100
AcDbEntity
  8
003
 62
     3
370
    30
100
AcDbLine
 10
455.841425
 20
478.06763
 30
0.0
 11
455.841425
 21
465.46763
 31
0.0
  0
LINE
  5
13D
330
138
100
AcDbEntity
  8
003
 62
     3
370
    30
100
AcDbLine
 10
461.341414
 20
479.26763
 30
0.0
 11
461.341414
 21
464.26763
 31
0.0
  0
LINE
  5
13E
330
138
100
AcDbEntity
  8
003
 62
     3
370
    30
100
AcDbLine
 10
455.841425
 20
478.06763
 30
0.0
 11
456.534246
 21
479.26763
 31
0.0
  0
LINE
  5
13F
330
138
100
AcDbEntity
  8
003
 62
     3
370
    30
100
AcDbLine
 10
455.841425
 20
465.46763
 30
0.0
 11
456.534246
 21
464.26763
 31
0.0
  0
LINE
  5
140
330
138
100
AcDbEntity
  8
003
 62
     3
370
    30
100
AcDbLine
 10
456.534246
 20
464.26763
 30
0.0
 11
461.341414
 21
464.26763
 31
0.0
  0
LINE
  5
141
330
138
100
AcDbEntity
  8
003
 62
     3
370
    30
100
AcDbLine
 10
461.341414
 20
475.51763
 30
0.0
 11
456.534246
 21
475.51763
 31
0.0
  0
LINE
  5
142
330
138
100
AcDbEntity
  8
003
 62
     3
370
    30
100
AcDbLine
 10
461.341414
 20
468.01763
 30
0.0
 11
456.534246
 21
468.01763
 31
0.0
  0
ARC
  5
143
330
138
100
AcDbEntity
  8
003
 62
     3
370
    30
100
AcDbCircle
 10
458.725019
 20
466.14263
 30
0.0
 40
2.883593961663502
100
AcDbArc
 50
139.441037
 51
180.0
  0
ARC
  5
144
330
138
100
AcDbEntity
  8
003
 62
     3
370
    30
100
AcDbCircle
 10
458.725019
 20
477.39263
 30
0.0
 40
2.883593961663502
100
AcDbArc
 50
180.0
 51
220.558963
  0
ARC
  5
145
330
138
100
AcDbEntity
  8
003
 62
     3
370
    30
100
AcDbCircle
 10
466.336571
 20
471.76763
 30
0.0
 40
10.4951453621126
100
AcDbArc
 50
159.065034
 51
200.934966
  0
LINE
  5
146
330
138
100
AcDbEntity
  8
003
 62
     3
370
    30
100
AcDbLine
 10
461.341425
 20
471.767625
 30
0.0
 11
461.341414
 21
471.767625
 31
0.0
  0
LINE
  5
147
330
138
100
AcDbEntity
  8
003
 62
     3
370
    30
100
AcDbLine
 10
461.341425
 20
471.767625
 30
0.0
 11
461.341425
 21
471.767636
 31
0.0
  0
LINE
  5
148
330
138
100
AcDbEntity
  8
003
 62
     3
370
    30
100
AcDbLine
 10
461.341425
 20
471.767636
 30
0.0
 11
461.341414
 21
471.767636
 31
0.0
  0
ENDBLK
  5
13A
330
138
100
AcDbEntity
  8
0
100
AcDbBlockEnd
  0
BLOCK
  5
14A
330
149
100
AcDbEntity
  8
0
100
AcDbBlockBegin
  2
JZB-23
 70
     0
 10
0.0
 20
0.0
 30
0.0
  3
JZB-23
  1

  0
LINE
  5
14C
330
149
100
AcDbEntity
  8
003
 62
     3
370
    30
100
AcDbLine
 10
623.648583
 20
464.267619
 30
0.0
 11
618.841414
 21
464.267619
 31
0.0
  0
LINE
  5
14D
330
149
100
AcDbEntity
  8
003
 62
     3
370
    30
100
AcDbLine
 10
624.341403
 20
465.467619
 30
0.0
 11
624.341403
 21
478.067619
 31
0.0
  0
LINE
  5
14E
330
149
100
AcDbEntity
  8
003
 62
     3
370
    30
100
AcDbLine
 10
618.841414
 20
464.267619
 30
0.0
 11
618.841414
 21
479.267619
 31
0.0
  0
LINE
  5
14F
330
149
100
AcDbEntity
  8
003
 62
     3
370
    30
100
AcDbLine
 10
624.341403
 20
465.467619
 30
0.0
 11
623.648583
 21
464.267619
 31
0.0
  0
LINE
  5
150
330
149
100
AcDbEntity
  8
003
 62
     3
370
    30
100
AcDbLine
 10
624.341403
 20
478.067619
 30
0.0
 11
623.648583
 21
479.267619
 31
0.0
  0
LINE
  5
151
330
149
100
AcDbEntity
  8
003
 62
     3
370
    30
100
AcDbLine
 10
623.648583
 20
479.267619
 30
0.0
 11
618.841414
 21
479.267619
 31
0.0
  0
LINE
  5
152
330
149
100
AcDbEntity
  8
003
 62
     3
370
    30
100
AcDbLine
 10
618.841414
 20
468.017619
 30
0.0
 11
623.648583
 21
468.017619
 31
0.0
  0
LINE
  5
153
330
149
100
AcDbEntity
  8
003
 62
     3
370
    30
100
AcDbLine
 10
618.841414
 20
475.517619
 30
0.0
 11
623.648583
 21
475.517619
 31
0.0
  0
ARC
  5
154
330
149
100
AcDbEntity
  8
003
 62
     3
370
    30
100
AcDbCircle
 10
621.457809
 20
477.392619
 30
0.0
 40
2.883593961663502
100
AcDbArc
 50
319.441037
 51
0.0
  0
ARC
  5
155
330
149
100
AcDbEntity
  8
003
 62
     3
370
    30
100
AcDbCircle
 10
621.457809
 20
466.142619
 30
0.0
 40
2.883593961663502
100
AcDbArc
 50
0.0
 51
40.558963
  0
ARC
  5
156
330
149
100
AcDbEntity
  8
003
 62
     3
370
    30
100
AcDbCircle
 10
613.846258
 20
471.767619
 30
0.0
 40
10.4951453621126
100
AcDbArc
 50
339.065034
 51
20.934966
  0
LINE
  5
157
330
149
100
AcDbEntity
  8
003
 62
     3
370
    30
100
AcDbLine
 10
618.841403
 20
471.767625
 30
0.0
 11
618.841414
 21
471.767625
 31
0.0
  0
LINE
  5
158
330
149
100
AcDbEntity
  8
003
 62
     3
370
    30
100
AcDbLine
 10
618.841403
 20
471.767625
 30
0.0
 11
618.841403
 21
471.767614
 31
0.0
  0
LINE
  5
159
330
149
100
AcDbEntity
  8
003
 62
     3
370
    30
100
AcDbLine
 10
618.841403
 20
471.767614
 30
0.0
 11
618.841414
 21
471.767614
 31
0.0
  0
ENDBLK
  5
14B
330
149
100
AcDbEntity
  8
0
100
AcDbBlockEnd
  0
BLOCK
  5
15B
330
15A
100
AcDbEntity
  8
0
100
AcDbBlockBegin
  2
JZB-24
 70
     0
 10
0.0
 20
0.0
 30
0.0
  3
JZB-24
  1

  0
LINE
  5
15D
330
15A
100
AcDbEntity
  8
003
 62
     3
370
    30
100
AcDbLine
 10
623.648583
 20
513.764619
 30
0.0
 11
618.841414
 21
513.764619
 31
0.0
  0
LINE
  5
15E
330
15A
100
AcDbEntity
  8
003
 62
     3
370
    30
100
AcDbLine
 10
624.341403
 20
514.964619
 30
0.0
 11
624.341403
 21
527.564619
 31
0.0
  0
LINE
  5
15F
330
15A
100
AcDbEntity
  8
003
 62
     3
370
    30
100
AcDbLine
 10
618.841414
 20
513.764619
 30
0.0
 11
618.841414
 21
528.764619
 31
0.0
  0
LINE
  5
160
330
15A
100
AcDbEntity
  8
003
 62
     3
370
    30
100
AcDbLine
 10
624.341403
 20
514.964619
 30
0.0
 11
623.648583
 21
513.764619
 31
0.0
  0
LINE
  5
161
330
15A
100
AcDbEntity
  8
003
 62
     3
370
    30
100
AcDbLine
 10
624.341403
 20
527.564619
 30
0.0
 11
623.648583
 21
528.764619
 31
0.0
  0
LINE
  5
162
330
15A
100
AcDbEntity
  8
003
 62
     3
370
    30
100
AcDbLine
 10
623.648583
 20
528.764619
 30
0.0
 11
618.841414
 21
528.764619
 31
0.0
  0
LINE
  5
163
330
15A
100
AcDbEntity
  8
003
 62
     3
370
    30
100
AcDbLine
 10
618.841414
 20
517.514619
 30
0.0
 11
623.648583
 21
517.514619
 31
0.0
  0
LINE
  5
164
330
15A
100
AcDbEntity
  8
003
 62
     3
370
    30
100
AcDbLine
 10
618.841414
 20
525.014619
 30
0.0
 11
623.648583
 21
525.014619
 31
0.0
  0
ARC
  5
165
330
15A
100
AcDbEntity
  8
003
 62
     3
370
    30
100
AcDbCircle
 10
621.457809
 20
526.889619
 30
0.0
 40
2.883593961663502
100
AcDbArc
 50
319.441037
 51
0.0
  0
ARC
  5
166
330
15A
100
AcDbEntity
  8
003
 62
     3
370
    30
100
AcDbCircle
 10
621.457809
 20
515.639619
 30
0.0
 40
2.883593961663502
100
AcDbArc
 50
0.0
 51
40.558963
  0
ARC
  5
167
330
15A
100
AcDbEntity
  8
003
 62
     3
370
    30
100
AcDbCircle
 10
613.846258
 20
521.264619
 30
0.0
 40
10.4951453621126
100
AcDbArc
 50
339.065034
 51
20.934966
  0
LINE
  5
168
330
15A
100
AcDbEntity
  8
003
 62
     3
370
    30
100
AcDbLine
 10
618.841403
 20
521.264625
 30
0.0
 11
618.841414
 21
521.264625
 31
0.0
  0
LINE
  5
169
330
15A
100
AcDbEntity
  8
003
 62
     3
370
    30
100
AcDbLine
 10
618.841403
 20
521.264625
 30
0.0
 11
618.841403
 21
521.264614
 31
0.0
  0
LINE
  5
16A
330
15A
100
AcDbEntity
  8
003
 62
     3
370
    30
100
AcDbLine
 10
618.841403
 20
521.264614
 30
0.0
 11
618.841414
 21
521.264614
 31
0.0
  0
ENDBLK
  5
15C
330
15A
100
AcDbEntity
  8
0
100
AcDbBlockEnd
  0
ENDSEC
  0
SECTION
  2
ENTITIES
  0
INSERT
  5
16B
330
1F
100
AcDbEntity
  8
003
  6
ByBlock
 62
     0
370
    -2
100
AcDbBlockReference
  2
JZB-1
 10
0.0
 20
0.0
 30
0.0
  0
INSERT
  5
16C
330
1F
100
AcDbEntity
  8
003
  6
ByBlock
 62
     0
370
    -2
100
AcDbBlockReference
  2
JZB-2
 10
0.0
 20
0.0
 30
0.0
  0
INSERT
  5
16D
330
1F
100
AcDbEntity
  8
003
  6
ByBlock
 62
     0
370
    -2
100
AcDbBlockReference
  2
JZB-3
 10
0.0
 20
0.0
 30
0.0
  0
INSERT
  5
16E
330
1F
100
AcDbEntity
  8
003
  6
ByBlock
 62
     0
370
    -2
100
AcDbBlockReference
  2
JZB-4
 10
0.0
 20
0.0
 30
0.0
  0
INSERT
  5
16F
330
1F
100
AcDbEntity
  8
002
  6
ByBlock
 62
     0
370
    -2
100
AcDbBlockReference
  2
JZB-5
 10
0.0
 20
0.0
 30
0.0
  0
INSERT
  5
170
330
1F
100
AcDbEntity
  8
002
  6
ByBlock
 62
     0
370
    -2
100
AcDbBlockReference
  2
JZB-6
 10
0.0
 20
0.0
 30
0.0
  0
INSERT
  5
171
330
1F
100
AcDbEntity
  8
002
  6
ByBlock
 62
     0
370
    -2
100
AcDbBlockReference
  2
JZB-7
 10
0.0
 20
0.0
 30
0.0
  0
INSERT
  5
172
330
1F
100
AcDbEntity
  8
002
  6
ByBlock
 62
     0
370
    -2
100
AcDbBlockReference
  2
JZB-8
 10
0.0
 20
0.0
 30
0.0
  0
INSERT
  5
173
330
1F
100
AcDbEntity
  8
002
  6
ByBlock
 62
     0
370
    -2
100
AcDbBlockReference
  2
JZB-9
 10
0.0
 20
0.0
 30
0.0
  0
INSERT
  5
174
330
1F
100
AcDbEntity
  8
002
  6
ByBlock
 62
     0
370
    -2
100
AcDbBlockReference
  2
JZB-10
 10
0.0
 20
0.0
 30
0.0
  0
INSERT
  5
175
330
1F
100
AcDbEntity
  8
002
  6
ByBlock
 62
     0
370
    -2
100
AcDbBlockReference
  2
JZB-11
 10
0.0
 20
0.0
 30
0.0
  0
INSERT
  5
176
330
1F
100
AcDbEntity
  8
002
  6
ByBlock
 62
     0
370
    -2
100
AcDbBlockReference
  2
JZB-12
 10
0.0
 20
0.0
 30
0.0
  0
INSERT
  5
177
330
1F
100
AcDbEntity
  8
002
  6
ByBlock
 62
     0
370
    -2
100
AcDbBlockReference
  2
JZB-13
 10
0.0
 20
0.0
 30
0.0
  0
INSERT
  5
178
330
1F
100
AcDbEntity
  8
002
  6
ByBlock
 62
     0
370
    -2
100
AcDbBlockReference
  2
JZB-14
 10
0.0
 20
0.0
 30
0.0
  0
INSERT
  5
179
330
1F
100
AcDbEntity
  8
002
  6
ByBlock
 62
     0
370
    -2
100
AcDbBlockReference
  2
JZB-15
 10
0.0
 20
0.0
 30
0.0
  0
INSERT
  5
17A
330
1F
100
AcDbEntity
  8
002
  6
ByBlock
 62
     0
370
    -2
100
AcDbBlockReference
  2
JZB-16
 10
0.0
 20
0.0
 30
0.0
  0
INSERT
  5
17B
330
1F
100
AcDbEntity
  8
002
  6
ByBlock
 62
     0
370
    -2
100
AcDbBlockReference
  2
JZB-17
 10
0.0
 20
0.0
 30
0.0
  0
INSERT
  5
17C
330
1F
100
AcDbEntity
  8
002
  6
ByBlock
 62
     0
370
    -2
100
AcDbBlockReference
  2
JZB-18
 10
0.0
 20
0.0
 30
0.0
  0
INSERT
  5
17D
330
1F
100
AcDbEntity
  8
002
  6
ByBlock
 62
     0
370
    -2
100
AcDbBlockReference
  2
JZB-19
 10
0.0
 20
0.0
 30
0.0
  0
INSERT
  5
17E
330
1F
100
AcDbEntity
  8
002
  6
ByBlock
 62
     0
370
    -2
100
AcDbBlockReference
  2
JZB-20
 10
0.0
 20
0.0
 30
0.0
  0
INSERT
  5
17F
330
1F
100
AcDbEntity
  8
003
  6
ByBlock
 62
     0
370
    -2
100
AcDbBlockReference
  2
JZB-21
 10
0.0
 20
0.0
 30
0.0
  0
INSERT
  5
180
330
1F
100
AcDbEntity
  8
003
  6
ByBlock
 62
     0
370
    -2
100
AcDbBlockReference
  2
JZB-22
 10
0.0
 20
0.0
 30
0.0
  0
INSERT
  5
181
330
1F
100
AcDbEntity
  8
003
  6
ByBlock
 62
     0
370
    -2
100
AcDbBlockReference
  2
JZB-23
 10
0.0
 20
0.0
 30
0.0
  0
INSERT
  5
182
330
1F
100
AcDbEntity
  8
003
  6
ByBlock
 62
     0
370
    -2
100
AcDbBlockReference
  2
JZB-24
 10
0.0
 20
0.0
 30
0.0
  0
LINE
  5
183
330
1F
100
AcDbEntity
  8
002
 62
     3
370
    30
100
AcDbLine
 10
332.091314
 20
1522.525653
 30
0.0
 11
331.091314
 21
1523.525653
 31
0.0
  0
LINE
  5
184
330
1F
100
AcDbEntity
  8
002
 62
     3
370
    30
100
AcDbLine
 10
331.091314
 20
1523.525653
 30
0.0
 11
313.091314
 21
1523.525653
 31
0.0
  0
LINE
  5
185
330
1F
100
AcDbEntity
  8
002
 62
     3
370
    30
100
AcDbLine
 10
313.091314
 20
1523.525653
 30
0.0
 11
312.091314
 21
1522.525653
 31
0.0
  0
LINE
  5
186
330
1F
100
AcDbEntity
  8
002
 62
     3
370
    30
100
AcDbLine
 10
312.091314
 20
1522.525653
 30
0.0
 11
312.091314
 21
1496.525653
 31
0.0
  0
LINE
  5
187
330
1F
100
AcDbEntity
  8
002
 62
     3
370
    30
100
AcDbLine
 10
311.091314
 20
1496.525653
 30
0.0
 11
333.091314
 21
1496.525653
 31
0.0
  0
LINE
  5
188
330
1F
100
AcDbEntity
  8
002
 62
     3
370
    30
100
AcDbLine
 10
333.091314
 20
1496.525653
 30
0.0
 11
333.091314
 21
1487.275653
 31
0.0
  0
LINE
  5
189
330
1F
100
AcDbEntity
  8
002
 62
     3
370
    30
100
AcDbLine
 10
358.091314
 20
1487.275653
 30
0.0
 11
358.091314
 21
1448.525653
 31
0.0
  0
ARC
  5
18A
330
1F
100
AcDbEntity
  8
002
 62
     3
370
    30
100
AcDbCircle
 10
363.091314
 20
1448.525653
 30
0.0
 40
5.0
100
AcDbArc
 50
180.0
 51
270.0
  0
LINE
  5
18B
330
1F
100
AcDbEntity
  8
002
 62
     3
370
    30
100
AcDbLine
 10
363.091314
 20
1443.525653
 30
0.0
 11
386.091314
 21
1443.525653
 31
0.0
  0
LINE
  5
18C
330
1F
100
AcDbEntity
  8
002
 62
     3
370
    30
100
AcDbLine
 10
386.957314
 20
1443.450653
 30
0.0
 11
362.225314
 21
1447.798653
 31
0.0
  0
ARC
  5
18D
330
1F
100
AcDbEntity
  8
002
 62
     3
370
    30
100
AcDbCircle
 10
363.091314
 20
1452.723653
 30
0.0
 40
5.000558068855907
100
AcDbArc
 50
180.0
 51
260.027198
  0
ARC
  5
18E
330
1F
100
AcDbEntity
  8
002
 62
     3
370
    30
100
AcDbCircle
 10
365.313314
 20
1438.025653
 30
0.0
 40
2.0
100
AcDbArc
 50
180.0
 51
270.0
  0
LINE
  5
18F
330
1F
100
AcDbEntity
  8
002
 62
     3
370
    30
100
AcDbLine
 10
365.313314
 20
1436.025653
 30
0.0
 11
378.395314
 21
1436.025653
 31
0.0
  0
LINE
  5
190
330
1F
100
AcDbEntity
  8
002
 62
     3
370
    30
100
AcDbLine
 10
380.395314
 20
1434.025653
 30
0.0
 11
380.395314
 21
1383.025653
 31
0.0
  0
ARC
  5
191
330
1F
100
AcDbEntity
  8
002
 62
     3
370
    30
100
AcDbCircle
 10
378.395314
 20
1383.025653
 30
0.0
 40
2.0
100
AcDbArc
 50
270.0
 51
0.0
  0
LINE
  5
192
330
1F
100
AcDbEntity
  8
002
 62
     3
370
    30
100
AcDbLine
 10
378.395314
 20
1381.025653
 30
0.0
 11
365.313314
 21
1381.025653
 31
0.0
  0
ARC
  5
193
330
1F
100
AcDbEntity
  8
002
 62
     3
370
    30
100
AcDbCircle
 10
365.313314
 20
1379.025653
 30
0.0
 40
2.0
100
AcDbArc
 50
90.0
 51
180.0
  0
LINE
  5
194
330
1F
100
AcDbEntity
  8
002
 62
     3
370
    30
100
AcDbLine
 10
363.313314
 20
1383.025653
 30
0.0
 11
363.313314
 21
1434.025653
 31
0.0
  0
LINE
  5
195
330
1F
100
AcDbEntity
  8
002
 62
     3
370
    30
100
AcDbLine
 10
365.124314
 20
1434.025653
 30
0.0
 11
365.124314
 21
1383.025653
 31
0.0
  0
ARC
  5
196
330
1F
100
AcDbEntity
  8
002
 62
     3
370
    30
100
AcDbCircle
 10
367.124314
 20
1383.025653
 30
0.0
 40
2.0
100
AcDbArc
 50
180.0
 51
270.0
  0
ARC
  5
197
330
1F
100
AcDbEntity
  8
002
 62
     3
370
    30
100
AcDbCircle
 10
365.313314
 20
1383.025653
 30
0.0
 40
2.0
100
AcDbArc
 50
180.0
 51
270.0
  0
LINE
  5
198
330
1F
100
AcDbEntity
  8
002
 62
     3
370
    30
100
AcDbLine
 10
363.091314
 20
1373.525653
 30
0.0
 11
386.091314
 21
1373.525653
 31
0.0
  0
ARC
  5
199
330
1F
100
AcDbEntity
  8
002
 62
     3
370
    30
100
AcDbCircle
 10
386.091314
 20
1378.525653
 30
0.0
 40
5.0
100
AcDbArc
 50
270.0
 51
0.0
  0
LINE
  5
19A
330
1F
100
AcDbEntity
  8
002
 62
     3
370
    30
100
AcDbLine
 10
391.091314
 20
1378.525653
 30
0.0
 11
391.091314
 21
1438.525653
 31
0.0
  0
ARC
  5
19B
330
1F
100
AcDbEntity
  8
002
 62
     3
370
    30
100
AcDbCircle
 10
386.091314
 20
1438.525653
 30
0.0
 40
5.0
100
AcDbArc
 50
0.0
 51
90.0
  0
ARC
  5
19C
330
1F
100
AcDbEntity
  8
002
 62
     3
370
    30
100
AcDbCircle
 10
378.395314
 20
1434.025653
 30
0.0
 40
2.0
100
AcDbArc
 50
0.0
 51
90.0
  0
ARC
  5
19D
330
1F
100
AcDbEntity
  8
002
 62
     3
370
    30
100
AcDbCircle
 10
367.124314
 20
1434.025653
 30
0.0
 40
2.0
100
AcDbArc
 50
90.0
 51
180.0
  0
ARC
  5
19E
330
1F
100
AcDbEntity
  8
002
 62
     3
370
    30
100
AcDbCircle
 10
365.313314
 20
1434.025653
 30
0.0
 40
2.0
100
AcDbArc
 50
90.0
 51
180.0
  0
LINE
  5
19F
330
1F
100
AcDbEntity
  8
002
 62
     3
370
    30
100
AcDbLine
 10
321.186314
 20
1435.716653
 30
0.0
 11
317.186314
 21
1433.407653
 31
0.0
  0
LINE
  5
1A0
330
1F
100
AcDbEntity
  8
002
 62
     3
370
    30
100
AcDbLine
 10
317.186314
 20
1433.407653
 30
0.0
 11
313.186314
 21
1435.716653
 31
0.0
  0
LINE
  5
1A1
330
1F
100
AcDbEntity
  8
002
 62
     3
370
    30
100
AcDbLine
 10
313.186314
 20
1435.716653
 30
0.0
 11
313.186314
 21
1440.335653
 31
0.0
  0
LINE
  5
1A2
330
1F
100
AcDbEntity
  8
002
 62
     3
370
    30
100
AcDbLine
 10
313.186314
 20
1440.335653
 30
0.0
 11
317.186314
 21
1442.644653
 31
0.0
  0
LINE
  5
1A3
330
1F
100
AcDbEntity
  8
002
 62
     3
370
    30
100
AcDbLine
 10
317.186314
 20
1442.644653
 30
0.0
 11
321.186314
 21
1440.335653
 31
0.0
  0
LINE
  5
1A4
330
1F
100
AcDbEntity
  8
002
 62
     3
370
    30
100
AcDbLine
 10
321.186314
 20
1440.335653
 30
0.0
 11
321.186314
 21
1435.716653
 31
0.0
  0
CIRCLE
  5
1A5
330
1F
100
AcDbEntity
  8
002
 62
     3
370
    30
100
AcDbCircle
 10
317.186314
 20
1438.025653
 30
0.0
 40
8.0
  0
CIRCLE
  5
1A6
330
1F
100
AcDbEntity
  8
002
 62
     3
370
    30
100
AcDbCircle
 10
317.186314
 20
1379.025653
 30
0.0
 40
8.0
  0
LINE
  5
1A7
330
1F
100
AcDbEntity
  8
002
 62
     3
370
    30
100
AcDbLine
 10
317.186314
 20
1383.644653
 30
0.0
 11
313.186314
 21
1381.335653
 31
0.0
  0
LINE
  5
1A8
330
1F
100
AcDbEntity
  8
002
 62
     3
370
    30
100
AcDbLine
 10
313.186314
 20
1381.335653
 30
0.0
 11
313.186314
 21
1376.716653
 31
0.0
  0
LINE
  5
1A9
330
1F
100
AcDbEntity
  8
002
 62
     3
370
    30
100
AcDbLine
 10
313.186314
 20
1376.716653
 30
0.0
 11
317.186314
 21
1374.407653
 31
0.0
  0
LINE
  5
1AA
330
1F
100
AcDbEntity
  8
002
 62
     3
370
    30
100
AcDbLine
 10
317.186314
 20
1374.407653
 30
0.0
 11
321.186314
 21
1376.716653
 31
0.0
  0
LINE
  5
1AB
330
1F
100
AcDbEntity
  8
002
 62
     3
370
    30
100
AcDbLine
 10
321.186314
 20
1376.716653
 30
0.0
 11
321.186314
 21
1381.335653
 31
0.0
  0
LINE
  5
1AC
330
1F
100
AcDbEntity
  8
002
 62
     3
370
    30
100
AcDbLine
 10
321.186314
 20
1381.335653
 30
0.0
 11
317.186314
 21
1383.644653
 31
0.0
  0
LINE
  5
1AD
330
1F
100
AcDbEntity
  8
002
 62
     3
370
    30
100
AcDbLine
 10
358.091314
 20
1368.525653
 30
0.0
 11
358.091314
 21
1329.775653
 31
0.0
  0
LINE
  5
1AE
330
1F
100
AcDbEntity
  8
002
 62
     3
370
    30
100
AcDbLine
 10
358.091314
 20
1329.775653
 30
0.0
 11
286.091314
 21
1329.775653
 31
0.0
  0
LINE
  5
1AF
330
1F
100
AcDbEntity
  8
002
 62
     3
370
    30
100
AcDbLine
 10
286.091314
 20
1329.775653
 30
0.0
 11
286.091314
 21
1338.525653
 31
0.0
  0
LINE
  5
1B0
330
1F
100
AcDbEntity
  8
002
 62
     3
370
    30
100
AcDbLine
 10
286.091314
 20
1336.775653
 30
0.0
 11
358.091314
 21
1336.775653
 31
0.0
  0
LINE
  5
1B1
330
1F
100
AcDbEntity
  8
002
 62
     3
370
    30
100
AcDbLine
 10
358.091314
 20
1338.525653
 30
0.0
 11
360.091314
 21
1338.525653
 31
0.0
  0
ARC
  5
1B2
330
1F
100
AcDbEntity
  8
002
 62
     3
370
    30
100
AcDbCircle
 10
375.091314
 20
1353.525653
 30
0.0
 40
20.0
100
AcDbArc
 50
233.130102
 51
0.0
  0
LINE
  5
1B3
330
1F
100
AcDbEntity
  8
002
 62
     3
370
    30
100
AcDbLine
 10
395.091314
 20
1353.525653
 30
0.0
 11
395.091314
 21
1463.525653
 31
0.0
  0
ARC
  5
1B4
330
1F
100
AcDbEntity
  8
002
 62
     3
370
    30
100
AcDbCircle
 10
375.091314
 20
1463.525653
 30
0.0
 40
20.0
100
AcDbArc
 50
0.0
 51
126.869898
  0
LINE
  5
1B5
330
1F
100
AcDbEntity
  8
002
 62
     3
370
    30
100
AcDbLine
 10
360.091314
 20
1478.525653
 30
0.0
 11
358.091314
 21
1478.525653
 31
0.0
  0
LINE
  5
1B6
330
1F
100
AcDbEntity
  8
002
 62
     3
370
    30
100
AcDbLine
 10
358.091314
 20
1480.275653
 30
0.0
 11
286.091314
 21
1480.275653
 31
0.0
  0
LINE
  5
1B7
330
1F
100
AcDbEntity
  8
002
 62
     3
370
    30
100
AcDbLine
 10
286.091314
 20
1478.525653
 30
0.0
 11
286.091314
 21
1487.275653
 31
0.0
  0
LINE
  5
1B8
330
1F
100
AcDbEntity
  8
002
 62
     3
370
    30
100
AcDbLine
 10
286.091314
 20
1487.275653
 30
0.0
 11
358.091314
 21
1487.275653
 31
0.0
  0
LINE
  5
1B9
330
1F
100
AcDbEntity
  8
002
 62
     3
370
    30
100
AcDbLine
 10
311.091314
 20
1496.525653
 30
0.0
 11
311.091314
 21
1487.275653
 31
0.0
  0
LINE
  5
1BA
330
1F
100
AcDbEntity
  8
002
 62
     3
370
    30
100
AcDbLine
 10
332.091314
 20
1496.525653
 30
0.0
 11
332.091314
 21
1522.525653
 31
0.0
  0
LINE
  5
1BB
330
1F
100
AcDbEntity
  8
002
 62
     3
370
    30
100
AcDbLine
 10
297.091314
 20
1478.525653
 30
0.0
 11
225.091314
 21
1478.525653
 31
0.0
  0
ARC
  5
1BC
330
1F
100
AcDbEntity
  8
002
 62
     3
370
    30
100
AcDbCircle
 10
210.091314
 20
1463.525653
 30
0.0
 40
20.0
100
AcDbArc
 50
53.130102
 51
180.0
  0
LINE
  5
1BD
330
1F
100
AcDbEntity
  8
002
 62
     3
370
    30
100
AcDbLine
 10
190.091314
 20
1463.525653
 30
0.0
 11
190.091314
 21
1417.025653
 31
0.0
  0
LINE
  5
1BE
330
1F
100
AcDbEntity
  8
002
 62
     3
370
    30
100
AcDbLine
 10
186.091314
 20
1417.025653
 30
0.0
 11
186.091314
 21
1400.025653
 31
0.0
  0
LINE
  5
1BF
330
1F
100
AcDbEntity
  8
002
 62
     3
370
    30
100
AcDbLine
 10
186.091314
 20
1400.025653
 30
0.0
 11
196.609314
 21
1400.025653
 31
0.0
  0
LINE
  5
1C0
330
1F
100
AcDbEntity
  8
002
 62
     3
370
    30
100
AcDbLine
 10
190.091314
 20
1400.025653
 30
0.0
 11
190.091314
 21
1353.525653
 31
0.0
  0
ARC
  5
1C1
330
1F
100
AcDbEntity
  8
002
 62
     3
370
    30
100
AcDbCircle
 10
210.091314
 20
1353.525653
 30
0.0
 40
20.0
100
AcDbArc
 50
180.0
 51
306.869898
  0
LINE
  5
1C2
330
1F
100
AcDbEntity
  8
002
 62
     3
370
    30
100
AcDbLine
 10
225.091314
 20
1338.525653
 30
0.0
 11
297.091314
 21
1338.525653
 31
0.0
  0
LINE
  5
1C3
330
1F
100
AcDbEntity
  8
002
 62
     3
370
    30
100
AcDbLine
 10
311.091314
 20
1329.775653
 30
0.0
 11
311.091314
 21
1320.525653
 31
0.0
  0
LINE
  5
1C4
330
1F
100
AcDbEntity
  8
002
 62
     3
370
    30
100
AcDbLine
 10
333.091314
 20
1320.525653
 30
0.0
 11
333.091314
 21
1329.775653
 31
0.0
  0
LINE
  5
1C5
330
1F
100
AcDbEntity
  8
002
 62
     3
370
    30
100
AcDbLine
 10
333.091314
 20
1320.525653
 30
0.0
 11
311.091314
 21
1320.525653
 31
0.0
  0
LINE
  5
1C6
330
1F
100
AcDbEntity
  8
002
 62
     3
370
    30
100
AcDbLine
 10
312.091314
 20
1320.525653
 30
0.0
 11
312.091314
 21
1294.525653
 31
0.0
  0
LINE
  5
1C7
330
1F
100
AcDbEntity
  8
002
 62
     3
370
    30
100
AcDbLine
 10
312.091314
 20
1294.525653
 30
0.0
 11
313.091314
 21
1293.525653
 31
0.0
  0
LINE
  5
1C8
330
1F
100
AcDbEntity
  8
002
 62
     3
370
    30
100
AcDbLine
 10
313.091314
 20
1293.525653
 30
0.0
 11
331.091314
 21
1293.525653
 31
0.0
  0
LINE
  5
1C9
330
1F
100
AcDbEntity
  8
002
 62
     3
370
    30
100
AcDbLine
 10
331.091314
 20
1293.525653
 30
0.0
 11
332.091314
 21
1294.525653
 31
0.0
  0
LINE
  5
1CA
330
1F
100
AcDbEntity
  8
002
 62
     3
370
    30
100
AcDbLine
 10
332.091314
 20
1294.525653
 30
0.0
 11
332.091314
 21
1320.525653
 31
0.0
  0
LINE
  5
1CB
330
1F
100
AcDbEntity
  8
002
 62
     3
370
    30
100
AcDbLine
 10
271.864314
 20
1333.525653
 30
0.0
 11
268.951314
 21
1330.612653
 31
0.0
  0
ARC
  5
1CC
330
1F
100
AcDbEntity
  8
002
 62
     3
370
    30
100
AcDbCircle
 10
269.658314
 20
1329.905653
 30
0.0
 40
1.000001999997949
100
AcDbArc
 50
135.0
 51
212.005383
  0
LINE
  5
1CD
330
1F
100
AcDbEntity
  8
002
 62
     3
370
    30
100
AcDbLine
 10
268.810314
 20
1329.375653
 30
0.0
 11
269.341314
 21
1328.525653
 31
0.0
  0
LINE
  5
1CE
330
1F
100
AcDbEntity
  8
002
 62
     3
370
    30
100
AcDbLine
 10
269.341314
 20
1328.525653
 30
0.0
 11
268.591314
 21
1325.525653
 31
0.0
  0
LINE
  5
1CF
330
1F
100
AcDbEntity
  8
002
 62
     3
370
    30
100
AcDbLine
 10
268.591314
 20
1325.525653
 30
0.0
 11
263.591314
 21
1325.525653
 31
0.0
  0
LINE
  5
1D0
330
1F
100
AcDbEntity
  8
002
 62
     3
370
    30
100
AcDbLine
 10
263.591314
 20
1325.525653
 30
0.0
 11
262.841314
 21
1328.525653
 31
0.0
  0
LINE
  5
1D1
330
1F
100
AcDbEntity
  8
002
 62
     3
370
    30
100
AcDbLine
 10
262.841314
 20
1328.525653
 30
0.0
 11
263.372314
 21
1329.375653
 31
0.0
  0
ARC
  5
1D2
330
1F
100
AcDbEntity
  8
002
 62
     3
370
    30
100
AcDbCircle
 10
262.524314
 20
1329.905653
 30
0.0
 40
0.9998489885977692
100
AcDbArc
 50
327.994617
 51
45.0
  0
LINE
  5
1D3
330
1F
100
AcDbEntity
  8
002
 62
     3
370
    30
100
AcDbLine
 10
263.231314
 20
1330.612653
 30
0.0
 11
260.317314
 21
1333.525653
 31
0.0
  0
LINE
  5
1D4
330
1F
100
AcDbEntity
  8
002
 62
     3
370
    30
100
AcDbLine
 10
260.317314
 20
1333.525653
 30
0.0
 11
260.317314
 21
1336.525653
 31
0.0
  0
LINE
  5
1D5
330
1F
100
AcDbEntity
  8
002
 62
     3
370
    30
100
AcDbLine
 10
260.317314
 20
1336.525653
 30
0.0
 11
261.220314
 21
1337.428653
 31
0.0
  0
LINE
  5
1D6
330
1F
100
AcDbEntity
  8
002
 62
     3
370
    30
100
AcDbLine
 10
261.805314
 20
1337.525653
 30
0.0
 11
270.376314
 21
1337.525653
 31
0.0
  0
LINE
  5
1D7
330
1F
100
AcDbEntity
  8
002
 62
     3
370
    30
100
AcDbLine
 10
269.952314
 20
1337.525653
 30
0.0
 11
269.952314
 21
1338.525653
 31
0.0
  0
LINE
  5
1D8
330
1F
100
AcDbEntity
  8
002
 62
     3
370
    30
100
AcDbLine
 10
270.961314
 20
1337.428653
 30
0.0
 11
271.864314
 21
1336.525653
 31
0.0
  0
LINE
  5
1D9
330
1F
100
AcDbEntity
  8
002
 62
     3
370
    30
100
AcDbLine
 10
271.864314
 20
1336.525653
 30
0.0
 11
271.864314
 21
1333.525653
 31
0.0
  0
LINE
  5
1DA
330
1F
100
AcDbEntity
  8
002
 62
     3
370
    30
100
AcDbLine
 10
268.977314
 20
1333.525653
 30
0.0
 11
268.977314
 21
1336.525653
 31
0.0
  0
ARC
  5
1DB
330
1F
100
AcDbEntity
  8
002
 62
     3
370
    30
100
AcDbCircle
 10
266.091314
 20
1332.859653
 30
0.0
 40
4.666296711526233
100
AcDbArc
 50
51.788975
 51
128.220673
  0
LINE
  5
1DC
330
1F
100
AcDbEntity
  8
002
 62
     3
370
    30
100
AcDbLine
 10
263.204314
 20
1336.525653
 30
0.0
 11
263.204314
 21
1333.525653
 31
0.0
  0
ARC
  5
1DD
330
1F
100
AcDbEntity
  8
002
 62
     3
370
    30
100
AcDbCircle
 10
266.091314
 20
1337.192653
 30
0.0
 40
4.666463864640891
100
AcDbArc
 50
231.786922
 51
308.203431
  0
ARC
  5
1DE
330
1F
100
AcDbEntity
  8
002
 62
     3
370
    30
100
AcDbCircle
 10
270.421314
 20
1334.066653
 30
0.0
 40
1.540730021775364
100
AcDbArc
 50
200.53865
 51
290.516873
  0
LINE
  5
1DF
330
1F
100
AcDbEntity
  8
002
 62
     3
370
    30
100
AcDbLine
 10
268.388314
 20
1330.049653
 30
0.0
 11
263.793314
 21
1330.049653
 31
0.0
  0
LINE
  5
1E0
330
1F
100
AcDbEntity
  8
002
 62
     3
370
    30
100
AcDbLine
 10
263.591314
 20
1328.525653
 30
0.0
 11
268.591314
 21
1328.525653
 31
0.0
  0
ARC
  5
1E1
330
1F
100
AcDbEntity
  8
002
 62
     3
370
    30
100
AcDbCircle
 10
266.091314
 20
1326.187653
 30
0.0
 40
1.00037193083375
100
AcDbArc
 50
221.433771
 51
318.566229
  0
ARC
  5
1E2
330
1F
100
AcDbEntity
  8
002
 62
     3
370
    30
100
AcDbCircle
 10
261.761314
 20
1334.066653
 30
0.0
 40
1.541080789575903
100
AcDbArc
 50
249.448306
 51
339.448306
  0
ARC
  5
1E3
330
1F
100
AcDbEntity
  8
002
 62
     3
370
    30
100
AcDbCircle
 10
261.761314
 20
1335.985653
 30
0.0
 40
1.541080789575903
100
AcDbArc
 50
20.516873
 51
110.551694
  0
LINE
  5
1E4
330
1F
100
AcDbEntity
  8
002
 62
     3
370
    30
100
AcDbLine
 10
262.229314
 20
1337.525653
 30
0.0
 11
262.229314
 21
1338.525653
 31
0.0
  0
ARC
  5
1E5
330
1F
100
AcDbEntity
  8
002
 62
     3
370
    30
100
AcDbCircle
 10
270.421314
 20
1335.985653
 30
0.0
 40
1.54166663063058
100
AcDbArc
 50
69.483127
 51
159.496153
  0
LINE
  5
1E6
330
1F
100
AcDbEntity
  8
002
 62
     3
370
    30
100
AcDbLine
 10
236.091314
 20
1345.280653
 30
0.0
 11
236.091314
 21
1338.525653
 31
0.0
  0
ARC
  5
1E7
330
1F
100
AcDbEntity
  8
002
 62
     3
370
    30
100
AcDbCircle
 10
225.091314
 20
1333.525653
 30
0.0
 40
5.0
100
AcDbArc
 50
90.0
 51
126.869898
  0
CIRCLE
  5
1E8
330
1F
100
AcDbEntity
  8
002
 62
     3
370
    30
100
AcDbCircle
 10
210.091314
 20
1351.525653
 30
0.0
 40
9.0
  0
ARC
  5
1E9
330
1F
100
AcDbEntity
  8
002
 62
     3
370
    30
100
AcDbCircle
 10
210.091314
 20
1351.525653
 30
0.0
 40
17.49995122850325
100
AcDbArc
 50
95.67997
 51
355.335872
  0
LINE
  5
1EA
330
1F
100
AcDbEntity
  8
002
 62
     3
370
    30
100
AcDbLine
 10
214.995314
 20
1374.407653
 30
0.0
 11
210.995314
 21
1376.716653
 31
0.0
  0
LINE
  5
1EB
330
1F
100
AcDbEntity
  8
002
 62
     3
370
    30
100
AcDbLine
 10
210.995314
 20
1376.716653
 30
0.0
 11
210.995314
 21
1381.335653
 31
0.0
  0
LINE
  5
1EC
330
1F
100
AcDbEntity
  8
002
 62
     3
370
    30
100
AcDbLine
 10
210.995314
 20
1381.335653
 30
0.0
 11
214.995314
 21
1383.644653
 31
0.0
  0
LINE
  5
1ED
330
1F
100
AcDbEntity
  8
002
 62
     3
370
    30
100
AcDbLine
 10
214.995314
 20
1383.644653
 30
0.0
 11
218.995314
 21
1381.335653
 31
0.0
  0
LINE
  5
1EE
330
1F
100
AcDbEntity
  8
002
 62
     3
370
    30
100
AcDbLine
 10
218.995314
 20
1381.335653
 30
0.0
 11
218.995314
 21
1376.716653
 31
0.0
  0
LINE
  5
1EF
330
1F
100
AcDbEntity
  8
002
 62
     3
370
    30
100
AcDbLine
 10
218.995314
 20
1376.716653
 30
0.0
 11
214.995314
 21
1374.407653
 31
0.0
  0
CIRCLE
  5
1F0
330
1F
100
AcDbEntity
  8
002
 62
     3
370
    30
100
AcDbCircle
 10
214.995314
 20
1379.025653
 30
0.0
 40
8.0
  0
LINE
  5
1F1
330
1F
100
AcDbEntity
  8
002
 62
     3
370
    30
100
AcDbLine
 10
196.609314
 20
1417.025653
 30
0.0
 11
186.091314
 21
1417.025653
 31
0.0
  0
LINE
  5
1F2
330
1F
100
AcDbEntity
  8
002
 62
     3
370
    30
100
AcDbLine
 10
210.995314
 20
1435.716653
 30
0.0
 11
214.995314
 21
1433.407653
 31
0.0
  0
LINE
  5
1F3
330
1F
100
AcDbEntity
  8
002
 62
     3
370
    30
100
AcDbLine
 10
214.995314
 20
1433.407653
 30
0.0
 11
218.995314
 21
1435.716653
 31
0.0
  0
LINE
  5
1F4
330
1F
100
AcDbEntity
  8
002
 62
     3
370
    30
100
AcDbLine
 10
218.995314
 20
1435.716653
 30
0.0
 11
218.995314
 21
1440.335653
 31
0.0
  0
LINE
  5
1F5
330
1F
100
AcDbEntity
  8
002
 62
     3
370
    30
100
AcDbLine
 10
218.995314
 20
1440.335653
 30
0.0
 11
214.995314
 21
1442.644653
 31
0.0
  0
LINE
  5
1F6
330
1F
100
AcDbEntity
  8
002
 62
     3
370
    30
100
AcDbLine
 10
214.995314
 20
1442.644653
 30
0.0
 11
210.995314
 21
1440.335653
 31
0.0
  0
LINE
  5
1F7
330
1F
100
AcDbEntity
  8
002
 62
     3
370
    30
100
AcDbLine
 10
210.995314
 20
1440.335653
 30
0.0
 11
210.995314
 21
1435.716653
 31
0.0
  0
CIRCLE
  5
1F8
330
1F
100
AcDbEntity
  8
002
 62
     3
370
    30
100
AcDbCircle
 10
214.995314
 20
1438.025653
 30
0.0
 40
8.0
  0
ARC
  5
1F9
330
1F
100
AcDbEntity
  8
002
 62
     3
370
    30
100
AcDbCircle
 10
210.091314
 20
1465.525653
 30
0.0
 40
17.49992057124832
100
AcDbArc
 50
4.667391
 51
264.32003
  0
CIRCLE
  5
1FA
330
1F
100
AcDbEntity
  8
002
 62
     3
370
    30
100
AcDbCircle
 10
210.091314
 20
1465.525653
 30
0.0
 40
9.0
  0
ARC
  5
1FB
330
1F
100
AcDbEntity
  8
002
 62
     3
370
    30
100
AcDbCircle
 10
225.091314
 20
1483.525653
 30
0.0
 40
5.0
100
AcDbArc
 50
233.130102
 51
270.0
  0
LINE
  5
1FC
330
1F
100
AcDbEntity
  8
002
 62
     3
370
    30
100
AcDbLine
 10
236.091314
 20
1478.525653
 30
0.0
 11
236.091314
 21
1471.771653
 31
0.0
  0
LINE
  5
1FD
330
1F
100
AcDbEntity
  8
002
 62
     3
370
    30
100
AcDbLine
 10
260.317314
 20
1480.525653
 30
0.0
 11
261.220314
 21
1479.623653
 31
0.0
  0
ARC
  5
1FE
330
1F
100
AcDbEntity
  8
002
 62
     3
370
    30
100
AcDbCircle
 10
261.761314
 20
1481.066653
 30
0.0
 40
1.541080789575903
100
AcDbArc
 50
249.448306
 51
339.448306
  0
LINE
  5
1FF
330
1F
100
AcDbEntity
  8
002
 62
     3
370
    30
100
AcDbLine
 10
263.204314
 20
1480.525653
 30
0.0
 11
263.204314
 21
1483.525653
 31
0.0
  0
ARC
  5
200
330
1F
100
AcDbEntity
  8
002
 62
     3
370
    30
100
AcDbCircle
 10
261.761314
 20
1482.985653
 30
0.0
 40
1.541080789575903
100
AcDbArc
 50
20.516873
 51
110.551694
  0
LINE
  5
201
330
1F
100
AcDbEntity
  8
002
 62
     3
370
    30
100
AcDbLine
 10
260.317314
 20
1483.525653
 30
0.0
 11
263.231314
 21
1486.439653
 31
0.0
  0
ARC
  5
202
330
1F
100
AcDbEntity
  8
002
 62
     3
370
    30
100
AcDbCircle
 10
262.524314
 20
1487.146653
 30
0.0
 40
1.000001999998069
100
AcDbArc
 50
315.0
 51
32.005383
  0
LINE
  5
203
330
1F
100
AcDbEntity
  8
002
 62
     3
370
    30
100
AcDbLine
 10
263.372314
 20
1487.676653
 30
0.0
 11
262.841314
 21
1488.525653
 31
0.0
  0
LINE
  5
204
330
1F
100
AcDbEntity
  8
002
 62
     3
370
    30
100
AcDbLine
 10
262.841314
 20
1488.525653
 30
0.0
 11
263.591314
 21
1491.525653
 31
0.0
  0
LINE
  5
205
330
1F
100
AcDbEntity
  8
002
 62
     3
370
    30
100
AcDbLine
 10
263.591314
 20
1491.525653
 30
0.0
 11
268.591314
 21
1491.525653
 31
0.0
  0
LINE
  5
206
330
1F
100
AcDbEntity
  8
002
 62
     3
370
    30
100
AcDbLine
 10
268.591314
 20
1491.525653
 30
0.0
 11
269.341314
 21
1488.525653
 31
0.0
  0
LINE
  5
207
330
1F
100
AcDbEntity
  8
002
 62
     3
370
    30
100
AcDbLine
 10
269.341314
 20
1488.525653
 30
0.0
 11
268.810314
 21
1487.676653
 31
0.0
  0
ARC
  5
208
330
1F
100
AcDbEntity
  8
002
 62
     3
370
    30
100
AcDbCircle
 10
269.658314
 20
1487.146653
 30
0.0
 40
0.9998489885976084
100
AcDbArc
 50
147.994617
 51
225.0
  0
LINE
  5
209
330
1F
100
AcDbEntity
  8
002
 62
     3
370
    30
100
AcDbLine
 10
268.951314
 20
1486.439653
 30
0.0
 11
271.864314
 21
1483.525653
 31
0.0
  0
LINE
  5
20A
330
1F
100
AcDbEntity
  8
002
 62
     3
370
    30
100
AcDbLine
 10
271.864314
 20
1483.525653
 30
0.0
 11
271.864314
 21
1480.525653
 31
0.0
  0
LINE
  5
20B
330
1F
100
AcDbEntity
  8
002
 62
     3
370
    30
100
AcDbLine
 10
271.864314
 20
1480.525653
 30
0.0
 11
270.961314
 21
1479.623653
 31
0.0
  0
LINE
  5
20C
330
1F
100
AcDbEntity
  8
002
 62
     3
370
    30
100
AcDbLine
 10
270.376314
 20
1479.525653
 30
0.0
 11
261.805314
 21
1479.525653
 31
0.0
  0
LINE
  5
20D
330
1F
100
AcDbEntity
  8
002
 62
     3
370
    30
100
AcDbLine
 10
262.229314
 20
1479.525653
 30
0.0
 11
262.229314
 21
1478.525653
 31
0.0
  0
ARC
  5
20E
330
1F
100
AcDbEntity
  8
002
 62
     3
370
    30
100
AcDbCircle
 10
266.091314
 20
1484.192653
 30
0.0
 40
4.666463864640891
100
AcDbArc
 50
231.786922
 51
308.203431
  0
LINE
  5
20F
330
1F
100
AcDbEntity
  8
002
 62
     3
370
    30
100
AcDbLine
 10
268.977314
 20
1480.525653
 30
0.0
 11
268.977314
 21
1483.525653
 31
0.0
  0
ARC
  5
210
330
1F
100
AcDbEntity
  8
002
 62
     3
370
    30
100
AcDbCircle
 10
266.091314
 20
1479.859653
 30
0.0
 40
4.666296711526233
100
AcDbArc
 50
51.788975
 51
128.220673
  0
LINE
  5
211
330
1F
100
AcDbEntity
  8
002
 62
     3
370
    30
100
AcDbLine
 10
260.317314
 20
1483.525653
 30
0.0
 11
260.317314
 21
1480.525653
 31
0.0
  0
CIRCLE
  5
212
330
1F
100
AcDbEntity
  8
002
 62
     3
370
    30
100
AcDbCircle
 10
266.091314
 20
1408.525653
 30
0.0
 40
70.0
  0
LINE
  5
213
330
1F
100
AcDbEntity
  8
002
 62
     3
370
    30
100
AcDbLine
 10
269.952314
 20
1478.525653
 30
0.0
 11
269.952314
 21
1479.525653
 31
0.0
  0
ARC
  5
214
330
1F
100
AcDbEntity
  8
002
 62
     3
370
    30
100
AcDbCircle
 10
270.421314
 20
1481.066653
 30
0.0
 40
1.540730021775364
100
AcDbArc
 50
200.53865
 51
290.516873
  0
ARC
  5
215
330
1F
100
AcDbEntity
  8
002
 62
     3
370
    30
100
AcDbCircle
 10
270.421314
 20
1482.985653
 30
0.0
 40
1.54166663063058
100
AcDbArc
 50
69.483127
 51
159.496153
  0
LINE
  5
216
330
1F
100
AcDbEntity
  8
002
 62
     3
370
    30
100
AcDbLine
 10
268.388314
 20
1487.001653
 30
0.0
 11
263.793314
 21
1487.001653
 31
0.0
  0
LINE
  5
217
330
1F
100
AcDbEntity
  8
002
 62
     3
370
    30
100
AcDbLine
 10
263.591314
 20
1488.525653
 30
0.0
 11
268.591314
 21
1488.525653
 31
0.0
  0
ARC
  5
218
330
1F
100
AcDbEntity
  8
002
 62
     3
370
    30
100
AcDbCircle
 10
266.091314
 20
1490.864653
 30
0.0
 40
0.9997104580827776
100
AcDbArc
 50
41.390802
 51
138.609198
  0
ARC
  5
219
330
1F
100
AcDbEntity
  8
002
 62
     3
370
    30
100
AcDbCircle
 10
360.091314
 20
1483.525653
 30
0.0
 40
5.0
100
AcDbArc
 50
270.0
 51
306.869898
  0
ARC
  5
21A
330
1F
100
AcDbEntity
  8
002
 62
     3
370
    30
100
AcDbCircle
 10
375.091314
 20
1465.525653
 30
0.0
 40
17.5
100
AcDbArc
 50
193.729133
 51
166.270867
  0
CIRCLE
  5
21B
330
1F
100
AcDbEntity
  8
002
 62
     3
370
    30
100
AcDbCircle
 10
375.091314
 20
1465.525653
 30
0.0
 40
9.0
  0
LINE
  5
21C
330
1F
100
AcDbEntity
  8
002
 62
     3
370
    30
100
AcDbLine
 10
386.957314
 20
1373.601653
 30
0.0
 11
362.225314
 21
1369.252653
 31
0.0
  0
ARC
  5
21D
330
1F
100
AcDbEntity
  8
002
 62
     3
370
    30
100
AcDbCircle
 10
363.091314
 20
1364.328653
 30
0.0
 40
5.0
100
AcDbArc
 50
99.974786
 51
180.0
  0
ARC
  5
21E
330
1F
100
AcDbEntity
  8
002
 62
     3
370
    30
100
AcDbCircle
 10
363.091314
 20
1368.525653
 30
0.0
 40
5.0
100
AcDbArc
 50
90.0
 51
180.0
  0
ARC
  5
21F
330
1F
100
AcDbEntity
  8
002
 62
     3
370
    30
100
AcDbCircle
 10
375.091314
 20
1351.525653
 30
0.0
 40
17.5
100
AcDbArc
 50
193.729133
 51
166.270867
  0
CIRCLE
  5
220
330
1F
100
AcDbEntity
  8
002
 62
     3
370
    30
100
AcDbCircle
 10
375.091314
 20
1351.525653
 30
0.0
 40
9.0
  0
ARC
  5
221
330
1F
100
AcDbEntity
  8
002
 62
     3
370
    30
100
AcDbCircle
 10
360.091314
 20
1333.525653
 30
0.0
 40
5.0
100
AcDbArc
 50
53.130102
 51
90.0
  0
LINE
  5
222
330
1F
100
AcDbEntity
  8
002
  6
CENTER
 62
    40
370
     9
100
AcDbLine
 10
321.622841
 20
1034.032981
 30
0.0
 11
321.622841
 21
1009.094981
 31
0.0
  0
LINE
  5
223
330
1F
100
AcDbEntity
  8
002
  6
CENTER
 62
    40
370
     9
100
AcDbLine
 10
333.018841
 20
1020.940981
 30
0.0
 11
309.037841
 21
1020.940981
 31
0.0
  0
LINE
  5
224
330
1F
100
AcDbEntity
  8
002
  6
CENTER
 62
    40
370
     9
100
AcDbLine
 10
375.091314
 20
1371.514653
 30
0.0
 11
375.091314
 21
1327.560653
 31
0.0
  0
LINE
  5
225
330
1F
100
AcDbEntity
  8
002
  6
CENTER
 62
    40
370
     9
100
AcDbLine
 10
351.203314
 20
1351.525653
 30
0.0
 11
395.091314
 21
1351.525653
 31
0.0
  0
LINE
  5
226
330
1F
100
AcDbEntity
  8
002
  6
CENTER
 62
    40
370
     9
100
AcDbLine
 10
177.079314
 20
1408.525653
 30
0.0
 11
406.472314
 21
1408.525653
 31
0.0
  0
LINE
  5
227
330
1F
100
AcDbEntity
  8
002
  6
CENTER
 62
    40
370
     9
100
AcDbLine
 10
375.091314
 20
1441.560653
 30
0.0
 11
375.091314
 21
1485.514653
 31
0.0
  0
LINE
  5
228
330
1F
100
AcDbEntity
  8
002
  6
CENTER
 62
    40
370
     9
100
AcDbLine
 10
395.091314
 20
1465.525653
 30
0.0
 11
351.203314
 21
1465.525653
 31
0.0
  0
LINE
  5
229
330
1F
100
AcDbEntity
  8
002
  6
CENTER
 62
    40
370
     9
100
AcDbLine
 10
322.091314
 20
1531.030653
 30
0.0
 11
322.091314
 21
1285.003733
 31
0.0
  0
LINE
  5
22A
330
1F
100
AcDbEntity
  8
002
  6
CENTER
 62
    40
370
     9
100
AcDbLine
 10
325.640314
 20
1374.144653
 30
0.0
 11
308.226314
 21
1384.198653
 31
0.0
  0
LINE
  5
22B
330
1F
100
AcDbEntity
  8
002
  6
CENTER
 62
    40
370
     9
100
AcDbLine
 10
308.226314
 20
1432.852653
 30
0.0
 11
325.640314
 21
1442.906653
 31
0.0
  0
CIRCLE
  5
22C
330
1F
100
AcDbEntity
  8
002
  6
CENTER
 62
    40
370
     9
100
AcDbCircle
 10
266.091314
 20
1408.525653
 30
0.0
 40
59.0
  0
LINE
  5
22D
330
1F
100
AcDbEntity
  8
002
  6
CENTER
 62
    40
370
     9
100
AcDbLine
 10
266.091314
 20
1319.735653
 30
0.0
 11
266.091314
 21
1499.238653
 31
0.0
  0
LINE
  5
22E
330
1F
100
AcDbEntity
  8
002
  6
CENTER
 62
    40
370
     9
100
AcDbLine
 10
206.541314
 20
1374.144653
 30
0.0
 11
223.955314
 21
1384.198653
 31
0.0
  0
LINE
  5
22F
330
1F
100
AcDbEntity
  8
002
  6
CENTER
 62
    40
370
     9
100
AcDbLine
 10
206.541314
 20
1442.906653
 30
0.0
 11
223.955314
 21
1432.852653
 31
0.0
  0
LINE
  5
230
330
1F
100
AcDbEntity
  8
002
  6
CENTER
 62
    40
370
     9
100
AcDbLine
 10
230.091314
 20
1351.525653
 30
0.0
 11
186.203314
 21
1351.525653
 31
0.0
  0
LINE
  5
231
330
1F
100
AcDbEntity
  8
002
  6
CENTER
 62
    40
370
     9
100
AcDbLine
 10
210.091314
 20
1327.560653
 30
0.0
 11
210.091314
 21
1371.514653
 31
0.0
  0
LINE
  5
232
330
1F
100
AcDbEntity
  8
002
 62
    40
370
     9
100
AcDbLine
 10
196.504314
 20
1400.932653
 30
0.0
 11
186.091314
 21
1417.025653
 31
0.0
  0
LINE
  5
233
330
1F
100
AcDbEntity
  8
002
 62
    40
370
     9
100
AcDbLine
 10
196.504314
 20
1416.118653
 30
0.0
 11
186.091314
 21
1400.025653
 31
0.0
  0
LINE
  5
234
330
1F
100
AcDbEntity
  8
002
  6
CENTER
 62
    40
370
     9
100
AcDbLine
 10
210.091314
 20
1441.560653
 30
0.0
 11
210.091314
 21
1485.514653
 31
0.0
  0
LINE
  5
235
330
1F
100
AcDbEntity
  8
002
  6
CENTER
 62
    40
370
     9
100
AcDbLine
 10
230.091314
 20
1465.525653
 30
0.0
 11
186.203314
 21
1465.525653
 31
0.0
  0
LINE
  5
236
330
1F
100
AcDbEntity
  8
002
  6
CENTER
 62
    40
370
     9
100
AcDbLine
 10
177.079314
 20
1408.525653
 30
0.0
 11
406.472314
 21
1408.525653
 31
0.0
  0
LINE
  5
237
330
1F
100
AcDbEntity
  8
002
  6
CENTER
 62
    40
370
     9
100
AcDbLine
 10
266.091314
 20
1319.735653
 30
0.0
 11
266.091314
 21
1499.238653
 31
0.0
  0
LINE
  5
238
330
1F
100
AcDbEntity
  8
002
 62
     3
370
    30
100
AcDbLine
 10
684.275228
 20
1215.048502
 30
0.0
 11
644.275228
 21
1215.048502
 31
0.0
  0
LINE
  5
239
330
1F
100
AcDbEntity
  8
002
 62
     3
370
    30
100
AcDbLine
 10
676.275228
 20
1215.048502
 30
0.0
 11
683.484628
 21
1210.048502
 31
0.0
  0
LINE
  5
23A
330
1F
100
AcDbEntity
  8
002
 62
     3
370
    30
100
AcDbLine
 10
689.275228
 20
1210.048502
 30
0.0
 11
684.275228
 21
1215.048502
 31
0.0
  0
LINE
  5
23B
330
1F
100
AcDbEntity
  8
002
 62
     3
370
    30
100
AcDbLine
 10
683.484628
 20
1210.048502
 30
0.0
 11
689.275228
 21
1210.048502
 31
0.0
  0
LINE
  5
23C
330
1F
100
AcDbEntity
  8
002
 62
     3
370
    30
100
AcDbLine
 10
683.484628
 20
1210.048502
 30
0.0
 11
683.484628
 21
1155.048502
 31
0.0
  0
LINE
  5
23D
330
1F
100
AcDbEntity
  8
002
 62
     3
370
    30
100
AcDbLine
 10
689.275228
 20
1112.048502
 30
0.0
 11
689.275228
 21
1210.048502
 31
0.0
  0
LINE
  5
23E
330
1F
100
AcDbEntity
  8
002
 62
     3
370
    30
100
AcDbLine
 10
645.065928
 20
1155.048502
 30
0.0
 11
645.065928
 21
1210.048502
 31
0.0
  0
LINE
  5
23F
330
1F
100
AcDbEntity
  8
002
 62
     3
370
    30
100
AcDbLine
 10
645.065928
 20
1210.048502
 30
0.0
 11
652.275228
 21
1215.048502
 31
0.0
  0
LINE
  5
240
330
1F
100
AcDbEntity
  8
002
 62
     3
370
    30
100
AcDbLine
 10
644.275228
 20
1215.048502
 30
0.0
 11
639.275228
 21
1210.048502
 31
0.0
  0
LINE
  5
241
330
1F
100
AcDbEntity
  8
002
 62
     3
370
    30
100
AcDbLine
 10
645.065928
 20
1210.048502
 30
0.0
 11
639.275228
 21
1210.048502
 31
0.0
  0
LINE
  5
242
330
1F
100
AcDbEntity
  8
002
 62
     3
370
    30
100
AcDbLine
 10
639.275228
 20
1210.048502
 30
0.0
 11
639.275228
 21
1112.048502
 31
0.0
  0
CIRCLE
  5
243
330
1F
100
AcDbEntity
  8
002
 62
     3
370
    30
100
AcDbCircle
 10
664.275228
 20
1185.048502
 30
0.0
 40
12.5
  0
LINE
  5
244
330
1F
100
AcDbEntity
  8
002
 62
     3
370
    30
100
AcDbLine
 10
683.484628
 20
1155.048502
 30
0.0
 11
645.065928
 21
1155.048502
 31
0.0
  0
ARC
  5
245
330
1F
100
AcDbEntity
  8
002
 62
     3
370
    30
100
AcDbCircle
 10
650.065928
 20
1155.048502
 30
0.0
 40
5.0
100
AcDbArc
 50
180.0
 51
270.0
  0
LINE
  5
246
330
1F
100
AcDbEntity
  8
002
 62
     3
370
    30
100
AcDbLine
 10
678.484628
 20
1150.048502
 30
0.0
 11
650.065928
 21
1150.048502
 31
0.0
  0
ARC
  5
247
330
1F
100
AcDbEntity
  8
002
 62
     3
370
    30
100
AcDbCircle
 10
678.484628
 20
1155.048502
 30
0.0
 40
5.0
100
AcDbArc
 50
270.0
 51
0.0
  0
LINE
  5
248
330
1F
100
AcDbEntity
  8
002
 62
     3
370
    30
100
AcDbLine
 10
639.275228
 20
1112.048502
 30
0.0
 11
689.275228
 21
1112.048502
 31
0.0
  0
LINE
  5
249
330
1F
100
AcDbEntity
  8
002
 62
     3
370
    30
100
AcDbLine
 10
687.275228
 20
1110.048502
 30
0.0
 11
689.275228
 21
1112.048502
 31
0.0
  0
LINE
  5
24A
330
1F
100
AcDbEntity
  8
002
 62
     3
370
    30
100
AcDbLine
 10
641.275228
 20
1110.048502
 30
0.0
 11
687.275228
 21
1110.048502
 31
0.0
  0
LINE
  5
24B
330
1F
100
AcDbEntity
  8
002
 62
     3
370
    30
100
AcDbLine
 10
639.275228
 20
1112.048502
 30
0.0
 11
641.275228
 21
1110.048502
 31
0.0
  0
CIRCLE
  5
24C
330
1F
100
AcDbEntity
  8
002
 62
     3
370
    30
100
AcDbCircle
 10
664.275228
 20
1341.048402
 30
0.0
 40
25.0
  0
LINE
  5
24D
330
1F
100
AcDbEntity
  8
002
 62
     3
370
    30
100
AcDbLine
 10
645.065928
 20
1325.048402
 30
0.0
 11
683.484628
 21
1325.048402
 31
0.0
  0
ARC
  5
24E
330
1F
100
AcDbEntity
  8
002
 62
     3
370
    30
100
AcDbCircle
 10
664.275228
 20
1341.048402
 30
0.0
 40
20.0
100
AcDbArc
 50
306.869898
 51
53.130102
  0
ARC
  5
24F
330
1F
100
AcDbEntity
  8
002
 62
     3
370
    30
100
AcDbCircle
 10
664.275228
 20
1341.048402
 30
0.0
 40
20.0
100
AcDbArc
 50
126.869898
 51
233.130102
  0
LINE
  5
250
330
1F
100
AcDbEntity
  8
002
 62
     3
370
    30
100
AcDbLine
 10
645.065928
 20
1357.048402
 30
0.0
 11
683.484628
 21
1357.048402
 31
0.0
  0
LINE
  5
251
330
1F
100
AcDbEntity
  8
002
  6
CENTER
 62
    40
370
     9
100
AcDbLine
 10
624.680728
 20
1185.048502
 30
0.0
 11
704.691828
 21
1185.048502
 31
0.0
  0
LINE
  5
252
330
1F
100
AcDbEntity
  8
002
  6
HIDDEN
 62
    40
370
     9
100
AcDbLine
 10
676.775228
 20
1325.048402
 30
0.0
 11
676.775228
 21
1357.048402
 31
0.0
  0
LINE
  5
253
330
1F
100
AcDbEntity
  8
002
  6
HIDDEN
 62
    40
370
     9
100
AcDbLine
 10
651.775228
 20
1325.048402
 30
0.0
 11
651.775228
 21
1357.048402
 31
0.0
  0
LINE
  5
254
330
1F
100
AcDbEntity
  8
002
  6
CENTER
 62
    40
370
     9
100
AcDbLine
 10
704.275228
 20
1341.048402
 30
0.0
 11
624.275228
 21
1341.048402
 31
0.0
  0
LINE
  5
255
330
1F
100
AcDbEntity
  8
002
  6
CENTER
 62
    40
370
     9
100
AcDbLine
 10
664.275228
 20
1301.048402
 30
0.0
 11
664.275228
 21
1381.048402
 31
0.0
  0
LINE
  5
256
330
1F
100
AcDbEntity
  8
002
  6
CENTER
 62
    40
370
     9
100
AcDbLine
 10
942.474753
 20
1152.079502
 30
0.0
 11
942.474753
 21
1117.926502
 31
0.0
  0
LINE
  5
257
330
1F
100
AcDbEntity
  8
002
  6
CENTER
 62
    40
370
     9
100
AcDbLine
 10
1022.474753
 20
1152.079502
 30
0.0
 11
1022.474753
 21
1117.926502
 31
0.0
  0
LINE
  5
258
330
1F
100
AcDbEntity
  8
002
 62
     3
370
    30
100
AcDbLine
 10
1041.974453
 20
1143.048502
 30
0.0
 11
1041.974453
 21
1127.048502
 31
0.0
  0
ARC
  5
259
330
1F
100
AcDbEntity
  8
002
 62
     3
370
    30
100
AcDbCircle
 10
1006.974753
 20
1125.048502
 30
0.0
 40
2.0
100
AcDbArc
 50
90.0
 51
180.0
  0
LINE
  5
25A
330
1F
100
AcDbEntity
  8
002
 62
     3
370
    30
100
AcDbLine
 10
1004.974753
 20
1125.048502
 30
0.0
 11
1004.974753
 21
1110.048502
 31
0.0
  0
LINE
  5
25B
330
1F
100
AcDbEntity
  8
002
 62
     3
370
    30
100
AcDbLine
 10
959.974753
 20
1110.048502
 30
0.0
 11
959.974753
 21
1125.048502
 31
0.0
  0
ARC
  5
25C
330
1F
100
AcDbEntity
  8
002
 62
     3
370
    30
100
AcDbCircle
 10
957.974753
 20
1125.048502
 30
0.0
 40
2.0
100
AcDbArc
 50
0.0
 51
90.0
  0
LINE
  5
25D
330
1F
100
AcDbEntity
  8
002
 62
     3
370
    30
100
AcDbLine
 10
1004.974753
 20
1110.048502
 30
0.0
 11
959.974753
 21
1110.048502
 31
0.0
  0
LINE
  5
25E
330
1F
100
AcDbEntity
  8
002
 62
     3
370
    30
100
AcDbLine
 10
922.974753
 20
1143.048502
 30
0.0
 11
1041.974453
 21
1143.048502
 31
0.0
  0
LINE
  5
25F
330
1F
100
AcDbEntity
  8
002
 62
     3
370
    30
100
AcDbLine
 10
922.974753
 20
1127.048502
 30
0.0
 11
1041.974453
 21
1127.048502
 31
0.0
  0
LINE
  5
260
330
1F
100
AcDbEntity
  8
002
 62
     3
370
    30
100
AcDbLine
 10
922.974753
 20
1127.048502
 30
0.0
 11
922.974753
 21
1143.048502
 31
0.0
  0
CIRCLE
  5
261
330
1F
100
AcDbEntity
  8
002
  6
CENTER
 62
    40
370
     9
100
AcDbCircle
 10
982.474753
 20
1341.048402
 30
0.0
 40
40.0
  0
LINE
  5
262
330
1F
100
AcDbEntity
  8
002
  6
CENTER
 62
    40
370
     9
100
AcDbLine
 10
982.474753
 20
1272.320907
 30
0.0
 11
982.474753
 21
1415.273393
 31
0.0
  0
CIRCLE
  5
263
330
1F
100
AcDbEntity
  8
002
 62
    40
370
     9
100
AcDbCircle
 10
982.474753
 20
1341.048402
 30
0.0
 40
12.5
  0
LINE
  5
264
330
1F
100
AcDbEntity
  8
002
  6
CENTER
 62
    40
370
     9
100
AcDbLine
 10
1055.82587
 20
1341.048402
 30
0.0
 11
909.623355
 21
1341.048402
 31
0.0
  0
CIRCLE
  5
265
330
1F
100
AcDbEntity
  8
002
 62
     3
370
    30
100
AcDbCircle
 10
982.474753
 20
1341.048402
 30
0.0
 40
59.5
  0
CIRCLE
  5
266
330
1F
100
AcDbEntity
  8
002
 62
     3
370
    30
100
AcDbCircle
 10
982.474753
 20
1301.048402
 30
0.0
 40
9.0
  0
CIRCLE
  5
267
330
1F
100
AcDbEntity
  8
002
 62
     3
370
    30
100
AcDbCircle
 10
1022.474753
 20
1341.048402
 30
0.0
 40
9.0
  0
CIRCLE
  5
268
330
1F
100
AcDbEntity
  8
002
 62
     3
370
    30
100
AcDbCircle
 10
982.474753
 20
1341.048402
 30
0.0
 40
11.4175
  0
CIRCLE
  5
269
330
1F
100
AcDbEntity
  8
002
 62
     3
370
    30
100
AcDbCircle
 10
982.474753
 20
1381.048402
 30
0.0
 40
9.0
  0
CIRCLE
  5
26A
330
1F
100
AcDbEntity
  8
002
 62
     3
370
    30
100
AcDbCircle
 10
942.474753
 20
1341.048402
 30
0.0
 40
9.0
  0
LINE
  5
26B
330
1F
100
AcDbEntity
  8
002
 62
     3
370
    30
100
AcDbLine
 10
324.622841
 20
1027.440924
 30
0.0
 11
318.622841
 21
1027.440924
 31
0.0
  0
LINE
  5
26C
330
1F
100
AcDbEntity
  8
002
 62
     3
370
    30
100
AcDbLine
 10
318.622841
 20
1033.440924
 30
0.0
 11
324.622841
 21
1033.440924
 31
0.0
  0
LINE
  5
26D
330
1F
100
AcDbEntity
  8
002
 62
     3
370
    30
100
AcDbLine
 10
324.622841
 20
1033.440924
 30
0.0
 11
324.622841
 21
1027.440924
 31
0.0
  0
LINE
  5
26E
330
1F
100
AcDbEntity
  8
002
 62
     3
370
    30
100
AcDbLine
 10
318.622841
 20
1033.440924
 30
0.0
 11
318.622841
 21
1027.440924
 31
0.0
  0
ARC
  5
26F
330
1F
100
AcDbEntity
  8
002
 62
     3
370
    30
100
AcDbCircle
 10
321.622841
 20
1020.940981
 30
0.0
 40
10.00052443624832
100
AcDbArc
 50
107.456658
 51
72.543342
  0
LINE
  5
270
330
1F
100
AcDbEntity
  8
002
  6
HIDDEN
 62
    40
370
     9
100
AcDbLine
 10
676.775228
 20
1142.048502
 30
0.0
 11
651.775228
 21
1142.048502
 31
0.0
  0
LINE
  5
271
330
1F
100
AcDbEntity
  8
002
  6
HIDDEN
 62
    40
370
     9
100
AcDbLine
 10
651.775228
 20
1142.048502
 30
0.0
 11
651.775228
 21
1110.048502
 31
0.0
  0
LINE
  5
272
330
1F
100
AcDbEntity
  8
002
  6
HIDDEN
 62
    40
370
     9
100
AcDbLine
 10
652.858228
 20
1110.048502
 30
0.0
 11
652.858228
 21
1142.048502
 31
0.0
  0
LINE
  5
273
330
1F
100
AcDbEntity
  8
002
  6
HIDDEN
 62
    40
370
     9
100
AcDbLine
 10
675.692228
 20
1142.048502
 30
0.0
 11
675.692228
 21
1110.048502
 31
0.0
  0
LINE
  5
274
330
1F
100
AcDbEntity
  8
002
  6
HIDDEN
 62
    40
370
     9
100
AcDbLine
 10
676.775228
 20
1110.048502
 30
0.0
 11
676.775228
 21
1142.048502
 31
0.0
  0
LINE
  5
275
330
1F
100
AcDbEntity
  8
002
  6
CENTER
 62
    40
370
     9
100
AcDbLine
 10
664.275228
 20
1059.111464
 30
0.0
 11
664.275228
 21
1230.048502
 31
0.0
  0
LINE
  5
276
330
1F
100
AcDbEntity
  8
002
  6
HIDDEN
 62
    40
370
     9
100
AcDbLine
 10
994.974753
 20
1142.048502
 30
0.0
 11
969.974753
 21
1142.048502
 31
0.0
  0
LINE
  5
277
330
1F
100
AcDbEntity
  8
002
  6
HIDDEN
 62
    40
370
     9
100
AcDbLine
 10
969.974753
 20
1142.048502
 30
0.0
 11
969.974753
 21
1110.048502
 31
0.0
  0
LINE
  5
278
330
1F
100
AcDbEntity
  8
002
  6
HIDDEN
 62
    40
370
     9
100
AcDbLine
 10
971.057753
 20
1110.048502
 30
0.0
 11
971.057753
 21
1142.048502
 31
0.0
  0
LINE
  5
279
330
1F
100
AcDbEntity
  8
002
  6
HIDDEN
 62
    40
370
     9
100
AcDbLine
 10
993.891753
 20
1142.048502
 30
0.0
 11
993.891753
 21
1110.048502
 31
0.0
  0
LINE
  5
27A
330
1F
100
AcDbEntity
  8
002
  6
HIDDEN
 62
    40
370
     9
100
AcDbLine
 10
994.974753
 20
1110.048502
 30
0.0
 11
994.974753
 21
1142.048502
 31
0.0
  0
LINE
  5
27B
330
1F
100
AcDbEntity
  8
002
  6
CENTER
 62
    40
370
     9
100
AcDbLine
 10
982.474753
 20
1059.111464
 30
0.0
 11
982.474753
 21
1149.041977
 31
0.0
  0
ARC
  5
27C
330
1F
100
AcDbEntity
  8
002
 62
     3
370
    30
100
AcDbCircle
 10
322.091314
 20
1315.525653
 30
0.0
 40
3.0
100
AcDbArc
 50
0.0
 51
180.0
  0
LINE
  5
27D
330
1F
100
AcDbEntity
  8
002
 62
     3
370
    30
100
AcDbLine
 10
325.091314
 20
1315.525653
 30
0.0
 11
319.091314
 21
1315.525653
 31
0.0
  0
LINE
  5
27E
330
1F
100
AcDbEntity
  8
002
 62
     3
370
    30
100
AcDbLine
 10
325.091314
 20
1294.525653
 30
0.0
 11
332.091314
 21
1294.525653
 31
0.0
  0
LINE
  5
27F
330
1F
100
AcDbEntity
  8
002
 62
     3
370
    30
100
AcDbLine
 10
319.091314
 20
1294.525653
 30
0.0
 11
312.091314
 21
1294.525653
 31
0.0
  0
LINE
  5
280
330
1F
100
AcDbEntity
  8
002
 62
     3
370
    30
100
AcDbLine
 10
325.091314
 20
1501.525653
 30
0.0
 11
319.091314
 21
1501.525653
 31
0.0
  0
LINE
  5
281
330
1F
100
AcDbEntity
  8
002
 62
     3
370
    30
100
AcDbLine
 10
319.091314
 20
1315.525653
 30
0.0
 11
319.091314
 21
1293.525653
 31
0.0
  0
LINE
  5
282
330
1F
100
AcDbEntity
  8
002
 62
     3
370
    30
100
AcDbLine
 10
325.091314
 20
1315.525653
 30
0.0
 11
325.091314
 21
1293.525653
 31
0.0
  0
LINE
  5
283
330
1F
100
AcDbEntity
  8
002
 62
     3
370
    30
100
AcDbLine
 10
319.091314
 20
1501.525653
 30
0.0
 11
319.091314
 21
1523.525653
 31
0.0
  0
LINE
  5
284
330
1F
100
AcDbEntity
  8
002
 62
     3
370
    30
100
AcDbLine
 10
325.091314
 20
1501.525653
 30
0.0
 11
325.091314
 21
1523.525653
 31
0.0
  0
ARC
  5
285
330
1F
100
AcDbEntity
  8
002
 62
     3
370
    30
100
AcDbCircle
 10
322.091314
 20
1501.525653
 30
0.0
 40
3.0
100
AcDbArc
 50
180.0
 51
0.0
  0
LINE
  5
286
330
1F
100
AcDbEntity
  8
002
 62
     3
370
    30
100
AcDbLine
 10
325.091314
 20
1522.525653
 30
0.0
 11
332.091314
 21
1522.525653
 31
0.0
  0
LINE
  5
287
330
1F
100
AcDbEntity
  8
002
 62
     3
370
    30
100
AcDbLine
 10
319.091314
 20
1522.525653
 30
0.0
 11
312.091314
 21
1522.525653
 31
0.0
  0
LINE
  5
288
330
1F
100
AcDbEntity
  8
002
 62
     3
370
    30
100
AcDbLine
 10
219.091314
 20
651.515625
 30
0.0
 11
219.091314
 21
562.515625
 31
0.0
  0
LINE
  5
289
330
1F
100
AcDbEntity
  8
002
 62
     3
370
    30
100
AcDbLine
 10
222.995814
 20
562.515625
 30
0.0
 11
206.995814
 21
562.515625
 31
0.0
  0
LINE
  5
28A
330
1F
100
AcDbEntity
  8
002
 62
     3
370
    30
100
AcDbLine
 10
222.995814
 20
562.515625
 30
0.0
 11
222.995814
 21
552.515625
 31
0.0
  0
LINE
  5
28B
330
1F
100
AcDbEntity
  8
002
 62
     3
370
    30
100
AcDbLine
 10
222.995814
 20
555.046425
 30
0.0
 11
258.091314
 21
555.046425
 31
0.0
  0
LINE
  5
28C
330
1F
100
AcDbEntity
  8
002
 62
     3
370
    30
100
AcDbLine
 10
258.091314
 20
552.515625
 30
0.0
 11
258.091314
 21
562.515625
 31
0.0
  0
LINE
  5
28D
330
1F
100
AcDbEntity
  8
002
 62
     3
370
    30
100
AcDbLine
 10
274.091314
 20
562.515625
 30
0.0
 11
274.091314
 21
552.515625
 31
0.0
  0
LINE
  5
28E
330
1F
100
AcDbEntity
  8
002
 62
     3
370
    30
100
AcDbLine
 10
274.091314
 20
555.046425
 30
0.0
 11
309.186814
 21
555.046425
 31
0.0
  0
LINE
  5
28F
330
1F
100
AcDbEntity
  8
002
 62
     3
370
    30
100
AcDbLine
 10
309.186814
 20
552.515625
 30
0.0
 11
309.186814
 21
562.515625
 31
0.0
  0
LINE
  5
290
330
1F
100
AcDbEntity
  8
002
 62
     3
370
    30
100
AcDbLine
 10
325.186814
 20
562.515625
 30
0.0
 11
309.186814
 21
562.515625
 31
0.0
  0
LINE
  5
291
330
1F
100
AcDbEntity
  8
002
 62
     3
370
    30
100
AcDbLine
 10
313.091314
 20
562.515625
 30
0.0
 11
313.091314
 21
651.515625
 31
0.0
  0
LINE
  5
292
330
1F
100
AcDbEntity
  8
002
 62
     3
370
    30
100
AcDbLine
 10
313.091314
 20
651.515625
 30
0.0
 11
219.091314
 21
651.515625
 31
0.0
  0
LINE
  5
293
330
1F
100
AcDbEntity
  8
002
 62
     3
370
    30
100
AcDbLine
 10
263.204514
 20
626.515625
 30
0.0
 11
260.317814
 21
621.515625
 31
0.0
  0
LINE
  5
294
330
1F
100
AcDbEntity
  8
002
 62
     3
370
    30
100
AcDbLine
 10
260.317814
 20
621.515625
 30
0.0
 11
263.204514
 21
616.515625
 31
0.0
  0
LINE
  5
295
330
1F
100
AcDbEntity
  8
002
 62
     3
370
    30
100
AcDbLine
 10
263.204514
 20
616.515625
 30
0.0
 11
268.978014
 21
616.515625
 31
0.0
  0
LINE
  5
296
330
1F
100
AcDbEntity
  8
002
 62
     3
370
    30
100
AcDbLine
 10
268.978014
 20
616.515625
 30
0.0
 11
271.864814
 21
621.515625
 31
0.0
  0
LINE
  5
297
330
1F
100
AcDbEntity
  8
002
 62
     3
370
    30
100
AcDbLine
 10
271.864814
 20
621.515625
 30
0.0
 11
268.978014
 21
626.515625
 31
0.0
  0
LINE
  5
298
330
1F
100
AcDbEntity
  8
002
 62
     3
370
    30
100
AcDbLine
 10
268.978014
 20
626.515625
 30
0.0
 11
263.204514
 21
626.515625
 31
0.0
  0
CIRCLE
  5
299
330
1F
100
AcDbEntity
  8
002
 62
     3
370
    30
100
AcDbCircle
 10
266.091314
 20
621.515625
 30
0.0
 40
0.75
  0
CIRCLE
  5
29A
330
1F
100
AcDbEntity
  8
002
 62
     3
370
    30
100
AcDbCircle
 10
266.091314
 20
621.515625
 30
0.0
 40
2.5
  0
CIRCLE
  5
29B
330
1F
100
AcDbEntity
  8
002
 62
     3
370
    30
100
AcDbCircle
 10
266.091314
 20
621.515625
 30
0.0
 40
3.25
  0
CIRCLE
  5
29C
330
1F
100
AcDbEntity
  8
002
 62
     3
370
    30
100
AcDbCircle
 10
266.091314
 20
621.515625
 30
0.0
 40
5.0
  0
LINE
  5
29D
330
1F
100
AcDbEntity
  8
002
 62
     3
370
    30
100
AcDbLine
 10
258.091314
 20
562.515625
 30
0.0
 11
274.091314
 21
562.515625
 31
0.0
  0
LINE
  5
29E
330
1F
100
AcDbEntity
  8
002
 62
     3
370
    30
100
AcDbLine
 10
241.091314
 20
532.515625
 30
0.0
 11
347.091314
 21
532.515625
 31
0.0
  0
LINE
  5
29F
330
1F
100
AcDbEntity
  8
002
 62
     3
370
    30
100
AcDbLine
 10
358.091314
 20
521.515625
 30
0.0
 11
358.091314
 21
458.515625
 31
0.0
  0
ARC
  5
2A0
330
1F
100
AcDbEntity
  8
002
 62
     3
370
    30
100
AcDbCircle
 10
363.091314
 20
458.515625
 30
0.0
 40
5.0
100
AcDbArc
 50
180.0
 51
270.0
  0
LINE
  5
2A1
330
1F
100
AcDbEntity
  8
002
 62
     3
370
    30
100
AcDbLine
 10
363.091314
 20
453.515625
 30
0.0
 11
393.091314
 21
453.515625
 31
0.0
  0
LINE
  5
2A2
330
1F
100
AcDbEntity
  8
002
 62
     3
370
    30
100
AcDbLine
 10
395.091314
 20
451.515625
 30
0.0
 11
395.091314
 21
440.515625
 31
0.0
  0
LINE
  5
2A3
330
1F
100
AcDbEntity
  8
002
 62
     3
370
    30
100
AcDbLine
 10
395.091314
 20
440.515625
 30
0.0
 11
190.091314
 21
440.515625
 31
0.0
  0
LINE
  5
2A4
330
1F
100
AcDbEntity
  8
002
 62
     3
370
    30
100
AcDbLine
 10
190.091314
 20
440.515625
 30
0.0
 11
190.091314
 21
451.515625
 31
0.0
  0
LINE
  5
2A5
330
1F
100
AcDbEntity
  8
002
 62
     3
370
    30
100
AcDbLine
 10
192.091314
 20
453.515625
 30
0.0
 11
231.091314
 21
453.515625
 31
0.0
  0
ARC
  5
2A6
330
1F
100
AcDbEntity
  8
002
 62
     3
370
    30
100
AcDbCircle
 10
231.091314
 20
458.515625
 30
0.0
 40
5.0
100
AcDbArc
 50
270.0
 51
0.0
  0
LINE
  5
2A7
330
1F
100
AcDbEntity
  8
002
 62
     3
370
    30
100
AcDbLine
 10
236.091314
 20
458.515625
 30
0.0
 11
236.091314
 21
527.515625
 31
0.0
  0
ARC
  5
2A8
330
1F
100
AcDbEntity
  8
002
 62
     3
370
    30
100
AcDbCircle
 10
231.091314
 20
523.515625
 30
0.0
 40
5.0
100
AcDbArc
 50
0.0
 51
90.0
  0
LINE
  5
2A9
330
1F
100
AcDbEntity
  8
002
 62
     3
370
    30
100
AcDbLine
 10
231.091314
 20
528.515625
 30
0.0
 11
205.091314
 21
528.515625
 31
0.0
  0
LINE
  5
2AA
330
1F
100
AcDbEntity
  8
002
 62
     3
370
    30
100
AcDbLine
 10
205.091314
 20
540.515625
 30
0.0
 11
205.091314
 21
458.515625
 31
0.0
  0
ARC
  5
2AB
330
1F
100
AcDbEntity
  8
002
 62
     3
370
    30
100
AcDbCircle
 10
200.091314
 20
458.515625
 30
0.0
 40
5.0
100
AcDbArc
 50
270.0
 51
0.0
  0
ARC
  5
2AC
330
1F
100
AcDbEntity
  8
002
 62
     3
370
    30
100
AcDbCircle
 10
214.912114
 20
458.515625
 30
0.0
 40
5.0
100
AcDbArc
 50
270.0
 51
0.0
  0
LINE
  5
2AD
330
1F
100
AcDbEntity
  8
002
 62
     3
370
    30
100
AcDbLine
 10
219.912114
 20
458.515625
 30
0.0
 11
219.912114
 21
523.515625
 31
0.0
  0
ARC
  5
2AE
330
1F
100
AcDbEntity
  8
002
 62
     3
370
    30
100
AcDbCircle
 10
214.912114
 20
523.515625
 30
0.0
 40
5.0
100
AcDbArc
 50
0.0
 51
90.0
  0
LINE
  5
2AF
330
1F
100
AcDbEntity
  8
002
 62
     3
370
    30
100
AcDbLine
 10
205.091314
 20
509.719525
 30
0.0
 11
197.091314
 21
509.969525
 31
0.0
  0
LINE
  5
2B0
330
1F
100
AcDbEntity
  8
002
 62
     3
370
    30
100
AcDbLine
 10
197.091314
 20
509.969525
 30
0.0
 11
197.091314
 21
483.061625
 31
0.0
  0
LINE
  5
2B1
330
1F
100
AcDbEntity
  8
002
 62
     3
370
    30
100
AcDbLine
 10
197.091314
 20
483.061625
 30
0.0
 11
205.091314
 21
483.311625
 31
0.0
  0
LINE
  5
2B2
330
1F
100
AcDbEntity
  8
002
 62
     3
370
    30
100
AcDbLine
 10
197.091314
 20
488.015625
 30
0.0
 11
186.091314
 21
488.015625
 31
0.0
  0
LINE
  5
2B3
330
1F
100
AcDbEntity
  8
002
 62
     3
370
    30
100
AcDbLine
 10
186.091314
 20
488.015625
 30
0.0
 11
186.091314
 21
505.015625
 31
0.0
  0
LINE
  5
2B4
330
1F
100
AcDbEntity
  8
002
 62
     3
370
    30
100
AcDbLine
 10
186.091314
 20
505.015625
 30
0.0
 11
197.091314
 21
505.015625
 31
0.0
  0
LINE
  5
2B5
330
1F
100
AcDbEntity
  8
002
 62
     3
370
    30
100
AcDbLine
 10
196.091314
 20
540.515625
 30
0.0
 11
336.091314
 21
540.515625
 31
0.0
  0
LINE
  5
2B6
330
1F
100
AcDbEntity
  8
002
 62
     3
370
    30
100
AcDbLine
 10
336.091314
 20
537.515625
 30
0.0
 11
336.091314
 21
552.515625
 31
0.0
  0
LINE
  5
2B7
330
1F
100
AcDbEntity
  8
002
 62
     3
370
    30
100
AcDbLine
 10
336.091314
 20
552.515625
 30
0.0
 11
196.091314
 21
552.515625
 31
0.0
  0
LINE
  5
2B8
330
1F
100
AcDbEntity
  8
002
 62
     3
370
    30
100
AcDbLine
 10
196.091314
 20
552.515625
 30
0.0
 11
196.091314
 21
540.515625
 31
0.0
  0
LINE
  5
2B9
330
1F
100
AcDbEntity
  8
002
 62
     3
370
    30
100
AcDbLine
 10
206.995814
 20
552.515625
 30
0.0
 11
206.995814
 21
562.515625
 31
0.0
  0
ARC
  5
2BA
330
1F
100
AcDbEntity
  8
002
 62
     3
370
    30
100
AcDbCircle
 10
241.091314
 20
527.515625
 30
0.0
 40
5.0
100
AcDbArc
 50
90.0
 51
180.0
  0
LINE
  5
2BB
330
1F
100
AcDbEntity
  8
002
 62
     3
370
    30
100
AcDbLine
 10
263.204514
 20
501.515625
 30
0.0
 11
268.978014
 21
501.515625
 31
0.0
  0
LINE
  5
2BC
330
1F
100
AcDbEntity
  8
002
 62
     3
370
    30
100
AcDbLine
 10
268.978014
 20
501.515625
 30
0.0
 11
271.864814
 21
496.515625
 31
0.0
  0
LINE
  5
2BD
330
1F
100
AcDbEntity
  8
002
 62
     3
370
    30
100
AcDbLine
 10
271.864814
 20
496.515625
 30
0.0
 11
268.978014
 21
491.515625
 31
0.0
  0
LINE
  5
2BE
330
1F
100
AcDbEntity
  8
002
 62
     3
370
    30
100
AcDbLine
 10
268.978014
 20
491.515625
 30
0.0
 11
263.204514
 21
491.515625
 31
0.0
  0
LINE
  5
2BF
330
1F
100
AcDbEntity
  8
002
 62
     3
370
    30
100
AcDbLine
 10
263.204514
 20
491.515625
 30
0.0
 11
260.317814
 21
496.515625
 31
0.0
  0
LINE
  5
2C0
330
1F
100
AcDbEntity
  8
002
 62
     3
370
    30
100
AcDbLine
 10
260.317814
 20
496.515625
 30
0.0
 11
263.204514
 21
501.515625
 31
0.0
  0
CIRCLE
  5
2C1
330
1F
100
AcDbEntity
  8
002
 62
     3
370
    30
100
AcDbCircle
 10
266.091314
 20
496.515625
 30
0.0
 40
0.75
  0
CIRCLE
  5
2C2
330
1F
100
AcDbEntity
  8
002
 62
     3
370
    30
100
AcDbCircle
 10
266.091314
 20
496.515625
 30
0.0
 40
2.5
  0
CIRCLE
  5
2C3
330
1F
100
AcDbEntity
  8
002
 62
     3
370
    30
100
AcDbCircle
 10
266.091314
 20
496.515625
 30
0.0
 40
3.25
  0
CIRCLE
  5
2C4
330
1F
100
AcDbEntity
  8
002
 62
     3
370
    30
100
AcDbCircle
 10
266.091314
 20
496.515625
 30
0.0
 40
5.0
  0
LINE
  5
2C5
330
1F
100
AcDbEntity
  8
002
 62
     3
370
    30
100
AcDbLine
 10
286.091314
 20
521.515625
 30
0.0
 11
286.091314
 21
471.515625
 31
0.0
  0
ARC
  5
2C6
330
1F
100
AcDbEntity
  8
002
 62
     3
370
    30
100
AcDbCircle
 10
297.091314
 20
471.515625
 30
0.0
 40
11.0
100
AcDbArc
 50
180.0
 51
270.0
  0
LINE
  5
2C7
330
1F
100
AcDbEntity
  8
002
 62
     3
370
    30
100
AcDbLine
 10
297.091314
 20
460.515625
 30
0.0
 11
347.091314
 21
460.515625
 31
0.0
  0
ARC
  5
2C8
330
1F
100
AcDbEntity
  8
002
 62
     3
370
    30
100
AcDbCircle
 10
347.091314
 20
471.515625
 30
0.0
 40
11.0
100
AcDbArc
 50
270.0
 51
0.0
  0
ARC
  5
2C9
330
1F
100
AcDbEntity
  8
002
 62
     3
370
    30
100
AcDbCircle
 10
297.091314
 20
521.515625
 30
0.0
 40
11.0
100
AcDbArc
 50
90.0
 51
180.0
  0
LINE
  5
2CA
330
1F
100
AcDbEntity
  8
002
 62
     3
370
    30
100
AcDbLine
 10
311.091314
 20
440.515625
 30
0.0
 11
311.091314
 21
436.015625
 31
0.0
  0
LINE
  5
2CB
330
1F
100
AcDbEntity
  8
002
 62
     3
370
    30
100
AcDbLine
 10
311.091314
 20
436.015625
 30
0.0
 11
221.091314
 21
436.015625
 31
0.0
  0
LINE
  5
2CC
330
1F
100
AcDbEntity
  8
002
 62
     3
370
    30
100
AcDbLine
 10
221.091314
 20
436.015625
 30
0.0
 11
221.091314
 21
440.515625
 31
0.0
  0
LINE
  5
2CD
330
1F
100
AcDbEntity
  8
002
 62
     3
370
    30
100
AcDbLine
 10
361.862614
 20
440.515625
 30
0.0
 11
361.862614
 21
453.515625
 31
0.0
  0
LINE
  5
2CE
330
1F
100
AcDbEntity
  8
002
 62
     3
370
    30
100
AcDbLine
 10
222.591314
 20
436.015625
 30
0.0
 11
222.591314
 21
430.015625
 31
0.0
  0
LINE
  5
2CF
330
1F
100
AcDbEntity
  8
002
 62
     3
370
    30
100
AcDbLine
 10
232.591314
 20
430.015625
 30
0.0
 11
232.591314
 21
436.015625
 31
0.0
  0
LINE
  5
2D0
330
1F
100
AcDbEntity
  8
002
 62
     3
370
    30
100
AcDbLine
 10
232.591314
 20
430.015625
 30
0.0
 11
222.591314
 21
430.015625
 31
0.0
  0
LINE
  5
2D1
330
1F
100
AcDbEntity
  8
002
 62
     3
370
    30
100
AcDbLine
 10
229.926014
 20
430.015625
 30
0.0
 11
231.091314
 21
385.515625
 31
0.0
  0
LINE
  5
2D2
330
1F
100
AcDbEntity
  8
002
 62
     3
370
    30
100
AcDbLine
 10
231.091314
 20
385.515625
 30
0.0
 11
301.091314
 21
385.515625
 31
0.0
  0
LINE
  5
2D3
330
1F
100
AcDbEntity
  8
002
 62
     3
370
    30
100
AcDbLine
 10
301.091314
 20
385.515625
 30
0.0
 11
302.256514
 21
430.015625
 31
0.0
  0
LINE
  5
2D4
330
1F
100
AcDbEntity
  8
002
 62
     3
370
    30
100
AcDbLine
 10
299.591314
 20
430.015625
 30
0.0
 11
309.591314
 21
430.015625
 31
0.0
  0
LINE
  5
2D5
330
1F
100
AcDbEntity
  8
002
 62
     3
370
    30
100
AcDbLine
 10
299.591314
 20
430.015625
 30
0.0
 11
299.591314
 21
436.015625
 31
0.0
  0
LINE
  5
2D6
330
1F
100
AcDbEntity
  8
002
 62
     3
370
    30
100
AcDbLine
 10
309.591314
 20
430.015625
 30
0.0
 11
309.591314
 21
436.015625
 31
0.0
  0
LINE
  5
2D7
330
1F
100
AcDbEntity
  8
002
 62
     3
370
    30
100
AcDbLine
 10
271.091314
 20
436.015625
 30
0.0
 11
271.091314
 21
430.015625
 31
0.0
  0
LINE
  5
2D8
330
1F
100
AcDbEntity
  8
002
 62
     3
370
    30
100
AcDbLine
 10
261.091314
 20
430.015625
 30
0.0
 11
261.091314
 21
436.015625
 31
0.0
  0
LINE
  5
2D9
330
1F
100
AcDbEntity
  8
002
 62
     3
370
    30
100
AcDbLine
 10
261.091314
 20
430.015625
 30
0.0
 11
271.091314
 21
430.015625
 31
0.0
  0
ARC
  5
2DA
330
1F
100
AcDbEntity
  8
002
 62
     3
370
    30
100
AcDbCircle
 10
192.091314
 20
451.515625
 30
0.0
 40
2.0
100
AcDbArc
 50
90.0
 51
180.0
  0
LINE
  5
2DB
330
1F
100
AcDbEntity
  8
002
 62
     3
370
    30
100
AcDbLine
 10
325.186814
 20
552.515625
 30
0.0
 11
325.186814
 21
562.515625
 31
0.0
  0
ARC
  5
2DC
330
1F
100
AcDbEntity
  8
002
 62
     3
370
    30
100
AcDbCircle
 10
341.091314
 20
537.515625
 30
0.0
 40
5.0
100
AcDbArc
 50
180.0
 51
270.0
  0
LINE
  5
2DD
330
1F
100
AcDbEntity
  8
002
 62
     3
370
    30
100
AcDbLine
 10
357.052514
 20
526.181725
 30
0.0
 11
389.742614
 21
456.394625
 31
0.0
  0
ARC
  5
2DE
330
1F
100
AcDbEntity
  8
002
 62
     3
370
    30
100
AcDbCircle
 10
394.270514
 20
458.515625
 30
0.0
 40
5.0
100
AcDbArc
 50
205.099758
 51
257.830787
  0
ARC
  5
2DF
330
1F
100
AcDbEntity
  8
002
 62
     3
370
    30
100
AcDbCircle
 10
393.091314
 20
451.515625
 30
0.0
 40
2.0
100
AcDbArc
 50
0.0
 51
90.0
  0
ARC
  5
2E0
330
1F
100
AcDbEntity
  8
002
 62
     3
370
    30
100
AcDbCircle
 10
381.243914
 20
479.252525
 30
0.0
 40
1.999966442218362
100
AcDbArc
 50
115.096677
 51
205.100487
  0
LINE
  5
2E1
330
1F
100
AcDbEntity
  8
002
 62
     3
370
    30
100
AcDbLine
 10
380.395614
 20
481.063725
 30
0.0
 11
365.124614
 21
513.664225
 31
0.0
  0
ARC
  5
2E2
330
1F
100
AcDbEntity
  8
002
 62
     3
370
    30
100
AcDbCircle
 10
364.276214
 20
515.475425
 30
0.0
 40
2.000056999187747
100
AcDbArc
 50
205.100487
 51
295.099272
  0
ARC
  5
2E3
330
1F
100
AcDbEntity
  8
002
 62
     3
370
    30
100
AcDbCircle
 10
347.091314
 20
521.515625
 30
0.0
 40
11.0
100
AcDbArc
 50
0.0
 51
90.0
  0
LINE
  5
2E4
330
1F
100
AcDbEntity
  8
002
  6
CENTER
 62
    40
370
     9
100
AcDbLine
 10
257.691014
 20
621.515625
 30
0.0
 11
274.864314
 21
621.515625
 31
0.0
  0
LINE
  5
2E5
330
1F
100
AcDbEntity
  8
002
  6
CENTER
 62
    40
370
     9
100
AcDbLine
 10
214.995814
 20
564.715825
 30
0.0
 11
214.995814
 21
538.193525
 31
0.0
  0
LINE
  5
2E6
330
1F
100
AcDbEntity
  8
002
 62
    40
370
     9
100
AcDbLine
 10
205.091314
 20
508.574125
 30
0.0
 11
197.091314
 21
508.824125
 31
0.0
  0
LINE
  5
2E7
330
1F
100
AcDbEntity
  8
002
 62
    40
370
     9
100
AcDbLine
 10
197.091314
 20
505.015625
 30
0.0
 11
186.091314
 21
488.015625
 31
0.0
  0
LINE
  5
2E8
330
1F
100
AcDbEntity
  8
002
  6
CENTER
 62
    40
370
     9
100
AcDbLine
 10
182.647614
 20
496.515625
 30
0.0
 11
382.873414
 21
496.515625
 31
0.0
  0
LINE
  5
2E9
330
1F
100
AcDbEntity
  8
002
  6
CENTER
 62
    40
370
     9
100
AcDbLine
 10
322.091314
 20
545.386425
 30
0.0
 11
322.091314
 21
432.341125
 31
0.0
  0
LINE
  5
2EA
330
1F
100
AcDbEntity
  8
002
  6
CENTER
 62
    40
370
     9
100
AcDbLine
 10
304.591314
 20
426.964425
 30
0.0
 11
304.591314
 21
440.515625
 31
0.0
  0
LINE
  5
2EB
330
1F
100
AcDbEntity
  8
002
  6
CENTER
 62
    40
370
     9
100
AcDbLine
 10
317.186814
 20
538.193525
 30
0.0
 11
317.186814
 21
564.715825
 31
0.0
  0
LINE
  5
2EC
330
1F
100
AcDbEntity
  8
002
  6
CENTER
 62
    40
370
     9
100
AcDbLine
 10
375.091314
 20
432.797025
 30
0.0
 11
375.091314
 21
460.515625
 31
0.0
  0
LINE
  5
2ED
330
1F
100
AcDbEntity
  8
002
  6
CENTER
 62
    40
370
     9
100
AcDbLine
 10
227.591314
 20
440.515625
 30
0.0
 11
227.591314
 21
426.964425
 31
0.0
  0
LINE
  5
2EE
330
1F
100
AcDbEntity
  8
002
  6
CENTER
 62
    40
370
     9
100
AcDbLine
 10
210.091314
 20
460.515625
 30
0.0
 11
210.091314
 21
432.797025
 31
0.0
  0
LINE
  5
2EF
330
1F
100
AcDbEntity
  8
002
 62
    40
370
     9
100
AcDbLine
 10
197.091314
 20
484.207125
 30
0.0
 11
205.091314
 21
484.457125
 31
0.0
  0
LINE
  5
2F0
330
1F
100
AcDbEntity
  8
002
 62
    40
370
     9
100
AcDbLine
 10
197.091314
 20
488.015625
 30
0.0
 11
186.091314
 21
505.015625
 31
0.0
  0
LINE
  5
2F1
330
1F
100
AcDbEntity
  8
002
  6
HIDDEN
 62
    40
370
     9
100
AcDbLine
 10
366.091314
 20
453.515625
 30
0.0
 11
366.091314
 21
440.515625
 31
0.0
  0
LINE
  5
2F2
330
1F
100
AcDbEntity
  8
002
  6
HIDDEN
 62
    40
370
     9
100
AcDbLine
 10
384.091314
 20
453.515625
 30
0.0
 11
384.091314
 21
440.515625
 31
0.0
  0
LINE
  5
2F3
330
1F
100
AcDbEntity
  8
002
  6
HIDDEN
 62
    40
370
     9
100
AcDbLine
 10
201.091314
 20
440.515625
 30
0.0
 11
201.091314
 21
453.515625
 31
0.0
  0
LINE
  5
2F4
330
1F
100
AcDbEntity
  8
002
  6
HIDDEN
 62
    40
370
     9
100
AcDbLine
 10
219.091314
 20
440.515625
 30
0.0
 11
219.091314
 21
453.515625
 31
0.0
  0
LINE
  5
2F5
330
1F
100
AcDbEntity
  8
002
 62
     3
370
    30
100
AcDbLine
 10
299.091314
 20
200.515625
 30
0.0
 11
233.091314
 21
200.515625
 31
0.0
  0
LINE
  5
2F6
330
1F
100
AcDbEntity
  8
002
 62
     3
370
    30
100
AcDbLine
 10
233.091314
 20
200.515625
 30
0.0
 11
233.091314
 21
183.515625
 31
0.0
  0
ARC
  5
2F7
330
1F
100
AcDbEntity
  8
002
 62
     3
370
    30
100
AcDbCircle
 10
236.091314
 20
183.515625
 30
0.0
 40
3.0
100
AcDbArc
 50
180.0
 51
270.0
  0
LINE
  5
2F8
330
1F
100
AcDbEntity
  8
002
 62
     3
370
    30
100
AcDbLine
 10
236.091314
 20
180.515625
 30
0.0
 11
296.091314
 21
180.515625
 31
0.0
  0
ARC
  5
2F9
330
1F
100
AcDbEntity
  8
002
 62
     3
370
    30
100
AcDbCircle
 10
296.091314
 20
183.515625
 30
0.0
 40
3.0
100
AcDbArc
 50
270.0
 51
0.0
  0
LINE
  5
2FA
330
1F
100
AcDbEntity
  8
002
 62
     3
370
    30
100
AcDbLine
 10
299.091314
 20
183.515625
 30
0.0
 11
299.091314
 21
200.515625
 31
0.0
  0
LINE
  5
2FB
330
1F
100
AcDbEntity
  8
002
 62
     3
370
    30
100
AcDbLine
 10
278.590714
 20
850.515125
 30
0.0
 11
278.590714
 21
822.015125
 31
0.0
  0
LINE
  5
2FC
330
1F
100
AcDbEntity
  8
002
 62
     3
370
    30
100
AcDbLine
 10
278.590714
 20
822.015125
 30
0.0
 11
253.590714
 21
822.015125
 31
0.0
  0
LINE
  5
2FD
330
1F
100
AcDbEntity
  8
002
 62
     3
370
    30
100
AcDbLine
 10
253.590714
 20
822.015125
 30
0.0
 11
253.590714
 21
850.515125
 31
0.0
  0
LINE
  5
2FE
330
1F
100
AcDbEntity
  8
002
 62
     3
370
    30
100
AcDbLine
 10
253.590714
 20
850.515125
 30
0.0
 11
278.590714
 21
850.515125
 31
0.0
  0
LINE
  5
2FF
330
1F
100
AcDbEntity
  8
002
 62
     3
370
    30
100
AcDbLine
 10
277.090714
 20
822.015125
 30
0.0
 11
277.090714
 21
818.515125
 31
0.0
  0
LINE
  5
300
330
1F
100
AcDbEntity
  8
002
 62
     3
370
    30
100
AcDbLine
 10
284.091314
 20
818.515125
 30
0.0
 11
248.091514
 21
818.515125
 31
0.0
  0
LINE
  5
301
330
1F
100
AcDbEntity
  8
002
 62
     3
370
    30
100
AcDbLine
 10
255.090714
 20
818.515125
 30
0.0
 11
255.090714
 21
822.015125
 31
0.0
  0
LINE
  5
302
330
1F
100
AcDbEntity
  8
002
 62
    40
370
     9
100
AcDbLine
 10
254.990714
 20
850.515125
 30
0.0
 11
254.990714
 21
822.015125
 31
0.0
  0
LINE
  5
303
330
1F
100
AcDbEntity
  8
002
 62
    40
370
     9
100
AcDbLine
 10
277.190714
 20
822.015125
 30
0.0
 11
277.190714
 21
850.515125
 31
0.0
  0
LINE
  5
304
330
1F
100
AcDbEntity
  8
002
 62
     3
370
    30
100
AcDbLine
 10
223.320014
 20
440.515625
 30
0.0
 11
223.320014
 21
453.515625
 31
0.0
  0
LINE
  5
305
330
1F
100
AcDbEntity
  8
002
 62
     3
370
    30
100
AcDbLine
 10
771.56931
 20
651.515625
 30
0.0
 11
771.56931
 21
562.515625
 31
0.0
  0
LINE
  5
306
330
1F
100
AcDbEntity
  8
002
 62
     3
370
    30
100
AcDbLine
 10
775.47381
 20
562.515625
 30
0.0
 11
759.47381
 21
562.515625
 31
0.0
  0
LINE
  5
307
330
1F
100
AcDbEntity
  8
002
 62
     3
370
    30
100
AcDbLine
 10
775.47381
 20
562.515625
 30
0.0
 11
775.47381
 21
552.515625
 31
0.0
  0
LINE
  5
308
330
1F
100
AcDbEntity
  8
002
 62
     3
370
    30
100
AcDbLine
 10
775.47381
 20
555.046425
 30
0.0
 11
810.56931
 21
555.046425
 31
0.0
  0
LINE
  5
309
330
1F
100
AcDbEntity
  8
002
 62
     3
370
    30
100
AcDbLine
 10
810.56931
 20
552.515625
 30
0.0
 11
810.56931
 21
562.515625
 31
0.0
  0
LINE
  5
30A
330
1F
100
AcDbEntity
  8
002
 62
     3
370
    30
100
AcDbLine
 10
826.56931
 20
562.515625
 30
0.0
 11
826.56931
 21
552.515625
 31
0.0
  0
LINE
  5
30B
330
1F
100
AcDbEntity
  8
002
 62
     3
370
    30
100
AcDbLine
 10
826.56931
 20
555.046425
 30
0.0
 11
861.66481
 21
555.046425
 31
0.0
  0
LINE
  5
30C
330
1F
100
AcDbEntity
  8
002
 62
     3
370
    30
100
AcDbLine
 10
861.66481
 20
552.515625
 30
0.0
 11
861.66481
 21
562.515625
 31
0.0
  0
LINE
  5
30D
330
1F
100
AcDbEntity
  8
002
 62
     3
370
    30
100
AcDbLine
 10
877.66481
 20
562.515625
 30
0.0
 11
861.66481
 21
562.515625
 31
0.0
  0
LINE
  5
30E
330
1F
100
AcDbEntity
  8
002
 62
     3
370
    30
100
AcDbLine
 10
865.56931
 20
562.515625
 30
0.0
 11
865.56931
 21
651.515625
 31
0.0
  0
LINE
  5
30F
330
1F
100
AcDbEntity
  8
002
 62
     3
370
    30
100
AcDbLine
 10
865.56931
 20
651.515625
 30
0.0
 11
771.56931
 21
651.515625
 31
0.0
  0
LINE
  5
310
330
1F
100
AcDbEntity
  8
002
 62
     3
370
    30
100
AcDbLine
 10
815.68251
 20
626.515625
 30
0.0
 11
812.79581
 21
621.515625
 31
0.0
  0
LINE
  5
311
330
1F
100
AcDbEntity
  8
002
 62
     3
370
    30
100
AcDbLine
 10
812.79581
 20
621.515625
 30
0.0
 11
815.68251
 21
616.515625
 31
0.0
  0
LINE
  5
312
330
1F
100
AcDbEntity
  8
002
 62
     3
370
    30
100
AcDbLine
 10
815.68251
 20
616.515625
 30
0.0
 11
821.45601
 21
616.515625
 31
0.0
  0
LINE
  5
313
330
1F
100
AcDbEntity
  8
002
 62
     3
370
    30
100
AcDbLine
 10
821.45601
 20
616.515625
 30
0.0
 11
824.34281
 21
621.515625
 31
0.0
  0
LINE
  5
314
330
1F
100
AcDbEntity
  8
002
 62
     3
370
    30
100
AcDbLine
 10
824.34281
 20
621.515625
 30
0.0
 11
821.45601
 21
626.515625
 31
0.0
  0
LINE
  5
315
330
1F
100
AcDbEntity
  8
002
 62
     3
370
    30
100
AcDbLine
 10
821.45601
 20
626.515625
 30
0.0
 11
815.68251
 21
626.515625
 31
0.0
  0
CIRCLE
  5
316
330
1F
100
AcDbEntity
  8
002
 62
     3
370
    30
100
AcDbCircle
 10
818.56931
 20
621.515625
 30
0.0
 40
0.75
  0
CIRCLE
  5
317
330
1F
100
AcDbEntity
  8
002
 62
     3
370
    30
100
AcDbCircle
 10
818.56931
 20
621.515625
 30
0.0
 40
2.5
  0
CIRCLE
  5
318
330
1F
100
AcDbEntity
  8
002
 62
     3
370
    30
100
AcDbCircle
 10
818.56931
 20
621.515625
 30
0.0
 40
3.25
  0
CIRCLE
  5
319
330
1F
100
AcDbEntity
  8
002
 62
     3
370
    30
100
AcDbCircle
 10
818.56931
 20
621.515625
 30
0.0
 40
5.0
  0
LINE
  5
31A
330
1F
100
AcDbEntity
  8
002
 62
     3
370
    30
100
AcDbLine
 10
810.56931
 20
562.515625
 30
0.0
 11
826.56931
 21
562.515625
 31
0.0
  0
LINE
  5
31B
330
1F
100
AcDbEntity
  8
002
 62
     3
370
    30
100
AcDbLine
 10
793.56931
 20
532.515625
 30
0.0
 11
899.56931
 21
532.515625
 31
0.0
  0
LINE
  5
31C
330
1F
100
AcDbEntity
  8
002
 62
     3
370
    30
100
AcDbLine
 10
910.56931
 20
521.515625
 30
0.0
 11
910.56931
 21
458.515625
 31
0.0
  0
ARC
  5
31D
330
1F
100
AcDbEntity
  8
002
 62
     3
370
    30
100
AcDbCircle
 10
915.56931
 20
458.515625
 30
0.0
 40
5.0
100
AcDbArc
 50
180.0
 51
270.0
  0
LINE
  5
31E
330
1F
100
AcDbEntity
  8
002
 62
     3
370
    30
100
AcDbLine
 10
915.56931
 20
453.515625
 30
0.0
 11
945.56931
 21
453.515625
 31
0.0
  0
LINE
  5
31F
330
1F
100
AcDbEntity
  8
002
 62
     3
370
    30
100
AcDbLine
 10
947.56931
 20
451.515625
 30
0.0
 11
947.56931
 21
440.515625
 31
0.0
  0
LINE
  5
320
330
1F
100
AcDbEntity
  8
002
 62
     3
370
    30
100
AcDbLine
 10
947.56931
 20
440.515625
 30
0.0
 11
742.56931
 21
440.515625
 31
0.0
  0
LINE
  5
321
330
1F
100
AcDbEntity
  8
002
 62
     3
370
    30
100
AcDbLine
 10
742.56931
 20
440.515625
 30
0.0
 11
742.56931
 21
451.515625
 31
0.0
  0
LINE
  5
322
330
1F
100
AcDbEntity
  8
002
 62
     3
370
    30
100
AcDbLine
 10
744.56931
 20
453.515625
 30
0.0
 11
783.56931
 21
453.515625
 31
0.0
  0
ARC
  5
323
330
1F
100
AcDbEntity
  8
002
 62
     3
370
    30
100
AcDbCircle
 10
783.56931
 20
458.515625
 30
0.0
 40
5.0
100
AcDbArc
 50
270.0
 51
0.0
  0
LINE
  5
324
330
1F
100
AcDbEntity
  8
002
 62
     3
370
    30
100
AcDbLine
 10
788.56931
 20
458.515625
 30
0.0
 11
788.56931
 21
527.515625
 31
0.0
  0
ARC
  5
325
330
1F
100
AcDbEntity
  8
002
 62
     3
370
    30
100
AcDbCircle
 10
783.56931
 20
523.515625
 30
0.0
 40
5.0
100
AcDbArc
 50
0.0
 51
90.0
  0
LINE
  5
326
330
1F
100
AcDbEntity
  8
002
 62
     3
370
    30
100
AcDbLine
 10
783.56931
 20
528.515625
 30
0.0
 11
757.56931
 21
528.515625
 31
0.0
  0
LINE
  5
327
330
1F
100
AcDbEntity
  8
002
 62
     3
370
    30
100
AcDbLine
 10
757.56931
 20
540.515625
 30
0.0
 11
757.56931
 21
458.515625
 31
0.0
  0
ARC
  5
328
330
1F
100
AcDbEntity
  8
002
 62
     3
370
    30
100
AcDbCircle
 10
752.56931
 20
458.515625
 30
0.0
 40
5.0
100
AcDbArc
 50
270.0
 51
0.0
  0
ARC
  5
329
330
1F
100
AcDbEntity
  8
002
 62
     3
370
    30
100
AcDbCircle
 10
767.39011
 20
458.515625
 30
0.0
 40
5.0
100
AcDbArc
 50
270.0
 51
0.0
  0
LINE
  5
32A
330
1F
100
AcDbEntity
  8
002
 62
     3
370
    30
100
AcDbLine
 10
772.39011
 20
458.515625
 30
0.0
 11
772.39011
 21
523.515625
 31
0.0
  0
ARC
  5
32B
330
1F
100
AcDbEntity
  8
002
 62
     3
370
    30
100
AcDbCircle
 10
767.39011
 20
523.515625
 30
0.0
 40
5.0
100
AcDbArc
 50
0.0
 51
90.0
  0
LINE
  5
32C
330
1F
100
AcDbEntity
  8
002
 62
     3
370
    30
100
AcDbLine
 10
757.56931
 20
509.719525
 30
0.0
 11
749.56931
 21
509.969525
 31
0.0
  0
LINE
  5
32D
330
1F
100
AcDbEntity
  8
002
 62
     3
370
    30
100
AcDbLine
 10
749.56931
 20
509.969525
 30
0.0
 11
749.56931
 21
483.061625
 31
0.0
  0
LINE
  5
32E
330
1F
100
AcDbEntity
  8
002
 62
     3
370
    30
100
AcDbLine
 10
749.56931
 20
483.061625
 30
0.0
 11
757.56931
 21
483.311625
 31
0.0
  0
LINE
  5
32F
330
1F
100
AcDbEntity
  8
002
 62
     3
370
    30
100
AcDbLine
 10
749.56931
 20
488.015625
 30
0.0
 11
738.56931
 21
488.015625
 31
0.0
  0
LINE
  5
330
330
1F
100
AcDbEntity
  8
002
 62
     3
370
    30
100
AcDbLine
 10
738.56931
 20
488.015625
 30
0.0
 11
738.56931
 21
505.015625
 31
0.0
  0
LINE
  5
331
330
1F
100
AcDbEntity
  8
002
 62
     3
370
    30
100
AcDbLine
 10
738.56931
 20
505.015625
 30
0.0
 11
749.56931
 21
505.015625
 31
0.0
  0
LINE
  5
332
330
1F
100
AcDbEntity
  8
002
 62
     3
370
    30
100
AcDbLine
 10
748.56931
 20
540.515625
 30
0.0
 11
888.56931
 21
540.515625
 31
0.0
  0
LINE
  5
333
330
1F
100
AcDbEntity
  8
002
 62
     3
370
    30
100
AcDbLine
 10
888.56931
 20
537.515625
 30
0.0
 11
888.56931
 21
552.515625
 31
0.0
  0
LINE
  5
334
330
1F
100
AcDbEntity
  8
002
 62
     3
370
    30
100
AcDbLine
 10
888.56931
 20
552.515625
 30
0.0
 11
748.56931
 21
552.515625
 31
0.0
  0
LINE
  5
335
330
1F
100
AcDbEntity
  8
002
 62
     3
370
    30
100
AcDbLine
 10
748.56931
 20
552.515625
 30
0.0
 11
748.56931
 21
540.515625
 31
0.0
  0
LINE
  5
336
330
1F
100
AcDbEntity
  8
002
 62
     3
370
    30
100
AcDbLine
 10
759.47381
 20
552.515625
 30
0.0
 11
759.47381
 21
562.515625
 31
0.0
  0
ARC
  5
337
330
1F
100
AcDbEntity
  8
002
 62
     3
370
    30
100
AcDbCircle
 10
793.56931
 20
527.515625
 30
0.0
 40
5.0
100
AcDbArc
 50
90.0
 51
180.0
  0
LINE
  5
338
330
1F
100
AcDbEntity
  8
002
 62
     3
370
    30
100
AcDbLine
 10
815.68251
 20
501.515625
 30
0.0
 11
821.45601
 21
501.515625
 31
0.0
  0
LINE
  5
339
330
1F
100
AcDbEntity
  8
002
 62
     3
370
    30
100
AcDbLine
 10
821.45601
 20
501.515625
 30
0.0
 11
824.34281
 21
496.515625
 31
0.0
  0
LINE
  5
33A
330
1F
100
AcDbEntity
  8
002
 62
     3
370
    30
100
AcDbLine
 10
824.34281
 20
496.515625
 30
0.0
 11
821.45601
 21
491.515625
 31
0.0
  0
LINE
  5
33B
330
1F
100
AcDbEntity
  8
002
 62
     3
370
    30
100
AcDbLine
 10
821.45601
 20
491.515625
 30
0.0
 11
815.68251
 21
491.515625
 31
0.0
  0
LINE
  5
33C
330
1F
100
AcDbEntity
  8
002
 62
     3
370
    30
100
AcDbLine
 10
815.68251
 20
491.515625
 30
0.0
 11
812.79581
 21
496.515625
 31
0.0
  0
LINE
  5
33D
330
1F
100
AcDbEntity
  8
002
 62
     3
370
    30
100
AcDbLine
 10
812.79581
 20
496.515625
 30
0.0
 11
815.68251
 21
501.515625
 31
0.0
  0
CIRCLE
  5
33E
330
1F
100
AcDbEntity
  8
002
 62
     3
370
    30
100
AcDbCircle
 10
818.56931
 20
496.515625
 30
0.0
 40
0.75
  0
CIRCLE
  5
33F
330
1F
100
AcDbEntity
  8
002
 62
     3
370
    30
100
AcDbCircle
 10
818.56931
 20
496.515625
 30
0.0
 40
2.5
  0
CIRCLE
  5
340
330
1F
100
AcDbEntity
  8
002
 62
     3
370
    30
100
AcDbCircle
 10
818.56931
 20
496.515625
 30
0.0
 40
3.25
  0
CIRCLE
  5
341
330
1F
100
AcDbEntity
  8
002
 62
     3
370
    30
100
AcDbCircle
 10
818.56931
 20
496.515625
 30
0.0
 40
5.0
  0
LINE
  5
342
330
1F
100
AcDbEntity
  8
002
 62
     3
370
    30
100
AcDbLine
 10
838.56931
 20
521.515625
 30
0.0
 11
838.56931
 21
471.515625
 31
0.0
  0
ARC
  5
343
330
1F
100
AcDbEntity
  8
002
 62
     3
370
    30
100
AcDbCircle
 10
849.56931
 20
471.515625
 30
0.0
 40
11.0
100
AcDbArc
 50
180.0
 51
270.0
  0
LINE
  5
344
330
1F
100
AcDbEntity
  8
002
 62
     3
370
    30
100
AcDbLine
 10
849.56931
 20
460.515625
 30
0.0
 11
899.56931
 21
460.515625
 31
0.0
  0
ARC
  5
345
330
1F
100
AcDbEntity
  8
002
 62
     3
370
    30
100
AcDbCircle
 10
899.56931
 20
471.515625
 30
0.0
 40
11.0
100
AcDbArc
 50
270.0
 51
0.0
  0
ARC
  5
346
330
1F
100
AcDbEntity
  8
002
 62
     3
370
    30
100
AcDbCircle
 10
849.56931
 20
521.515625
 30
0.0
 40
11.0
100
AcDbArc
 50
90.0
 51
180.0
  0
LINE
  5
347
330
1F
100
AcDbEntity
  8
002
 62
     3
370
    30
100
AcDbLine
 10
863.56931
 20
440.515625
 30
0.0
 11
863.56931
 21
436.015625
 31
0.0
  0
LINE
  5
348
330
1F
100
AcDbEntity
  8
002
 62
     3
370
    30
100
AcDbLine
 10
863.56931
 20
436.015625
 30
0.0
 11
773.56931
 21
436.015625
 31
0.0
  0
LINE
  5
349
330
1F
100
AcDbEntity
  8
002
 62
     3
370
    30
100
AcDbLine
 10
773.56931
 20
436.015625
 30
0.0
 11
773.56931
 21
440.515625
 31
0.0
  0
LINE
  5
34A
330
1F
100
AcDbEntity
  8
002
 62
     3
370
    30
100
AcDbLine
 10
775.79801
 20
440.515625
 30
0.0
 11
775.79801
 21
453.515625
 31
0.0
  0
LINE
  5
34B
330
1F
100
AcDbEntity
  8
002
 62
     3
370
    30
100
AcDbLine
 10
775.06931
 20
436.015625
 30
0.0
 11
775.06931
 21
430.015625
 31
0.0
  0
LINE
  5
34C
330
1F
100
AcDbEntity
  8
002
 62
     3
370
    30
100
AcDbLine
 10
785.06931
 20
430.015625
 30
0.0
 11
785.06931
 21
436.015625
 31
0.0
  0
LINE
  5
34D
330
1F
100
AcDbEntity
  8
002
 62
     3
370
    30
100
AcDbLine
 10
785.06931
 20
430.015625
 30
0.0
 11
775.06931
 21
430.015625
 31
0.0
  0
LINE
  5
34E
330
1F
100
AcDbEntity
  8
002
 62
     3
370
    30
100
AcDbLine
 10
782.40401
 20
430.015625
 30
0.0
 11
783.56931
 21
385.515625
 31
0.0
  0
LINE
  5
34F
330
1F
100
AcDbEntity
  8
002
 62
     3
370
    30
100
AcDbLine
 10
783.56931
 20
385.515625
 30
0.0
 11
853.56931
 21
385.515625
 31
0.0
  0
LINE
  5
350
330
1F
100
AcDbEntity
  8
002
 62
     3
370
    30
100
AcDbLine
 10
853.56931
 20
385.515625
 30
0.0
 11
854.73451
 21
430.015625
 31
0.0
  0
LINE
  5
351
330
1F
100
AcDbEntity
  8
002
 62
     3
370
    30
100
AcDbLine
 10
852.06931
 20
430.015625
 30
0.0
 11
862.06931
 21
430.015625
 31
0.0
  0
LINE
  5
352
330
1F
100
AcDbEntity
  8
002
 62
     3
370
    30
100
AcDbLine
 10
852.06931
 20
430.015625
 30
0.0
 11
852.06931
 21
436.015625
 31
0.0
  0
LINE
  5
353
330
1F
100
AcDbEntity
  8
002
 62
     3
370
    30
100
AcDbLine
 10
862.06931
 20
430.015625
 30
0.0
 11
862.06931
 21
436.015625
 31
0.0
  0
LINE
  5
354
330
1F
100
AcDbEntity
  8
002
 62
     3
370
    30
100
AcDbLine
 10
823.56931
 20
436.015625
 30
0.0
 11
823.56931
 21
430.015625
 31
0.0
  0
LINE
  5
355
330
1F
100
AcDbEntity
  8
002
 62
     3
370
    30
100
AcDbLine
 10
813.56931
 20
430.015625
 30
0.0
 11
813.56931
 21
436.015625
 31
0.0
  0
LINE
  5
356
330
1F
100
AcDbEntity
  8
002
 62
     3
370
    30
100
AcDbLine
 10
813.56931
 20
430.015625
 30
0.0
 11
823.56931
 21
430.015625
 31
0.0
  0
ARC
  5
357
330
1F
100
AcDbEntity
  8
002
 62
     3
370
    30
100
AcDbCircle
 10
744.56931
 20
451.515625
 30
0.0
 40
2.0
100
AcDbArc
 50
90.0
 51
180.0
  0
LINE
  5
358
330
1F
100
AcDbEntity
  8
002
 62
     3
370
    30
100
AcDbLine
 10
877.66481
 20
552.515625
 30
0.0
 11
877.66481
 21
562.515625
 31
0.0
  0
ARC
  5
359
330
1F
100
AcDbEntity
  8
002
 62
     3
370
    30
100
AcDbCircle
 10
893.56931
 20
537.515625
 30
0.0
 40
5.0
100
AcDbArc
 50
180.0
 51
270.0
  0
LINE
  5
35A
330
1F
100
AcDbEntity
  8
002
 62
     3
370
    30
100
AcDbLine
 10
909.53051
 20
526.181725
 30
0.0
 11
942.22061
 21
456.394625
 31
0.0
  0
ARC
  5
35B
330
1F
100
AcDbEntity
  8
002
 62
     3
370
    30
100
AcDbCircle
 10
946.74851
 20
458.515625
 30
0.0
 40
5.0
100
AcDbArc
 50
205.099758
 51
257.830787
  0
ARC
  5
35C
330
1F
100
AcDbEntity
  8
002
 62
     3
370
    30
100
AcDbCircle
 10
945.56931
 20
451.515625
 30
0.0
 40
2.0
100
AcDbArc
 50
0.0
 51
90.0
  0
ARC
  5
35D
330
1F
100
AcDbEntity
  8
002
 62
     3
370
    30
100
AcDbCircle
 10
933.72191
 20
479.252525
 30
0.0
 40
1.999966442218362
100
AcDbArc
 50
115.096677
 51
205.100487
  0
LINE
  5
35E
330
1F
100
AcDbEntity
  8
002
 62
     3
370
    30
100
AcDbLine
 10
932.87361
 20
481.063725
 30
0.0
 11
917.60261
 21
513.664225
 31
0.0
  0
ARC
  5
35F
330
1F
100
AcDbEntity
  8
002
 62
     3
370
    30
100
AcDbCircle
 10
916.75421
 20
515.475425
 30
0.0
 40
2.000056999187747
100
AcDbArc
 50
205.100487
 51
295.099272
  0
ARC
  5
360
330
1F
100
AcDbEntity
  8
002
 62
     3
370
    30
100
AcDbCircle
 10
899.56931
 20
521.515625
 30
0.0
 40
11.0
100
AcDbArc
 50
0.0
 51
90.0
  0
LINE
  5
361
330
1F
100
AcDbEntity
  8
002
  6
CENTER
 62
    40
370
     9
100
AcDbLine
 10
810.16901
 20
621.515625
 30
0.0
 11
827.34231
 21
621.515625
 31
0.0
  0
LINE
  5
362
330
1F
100
AcDbEntity
  8
002
  6
CENTER
 62
    40
370
     9
100
AcDbLine
 10
767.47381
 20
564.715825
 30
0.0
 11
767.47381
 21
538.193525
 31
0.0
  0
LINE
  5
363
330
1F
100
AcDbEntity
  8
002
 62
    40
370
     9
100
AcDbLine
 10
757.56931
 20
508.574125
 30
0.0
 11
749.56931
 21
508.824125
 31
0.0
  0
LINE
  5
364
330
1F
100
AcDbEntity
  8
002
 62
    40
370
     9
100
AcDbLine
 10
749.56931
 20
505.015625
 30
0.0
 11
738.56931
 21
488.015625
 31
0.0
  0
LINE
  5
365
330
1F
100
AcDbEntity
  8
002
  6
CENTER
 62
    40
370
     9
100
AcDbLine
 10
735.12561
 20
496.515625
 30
0.0
 11
935.35141
 21
496.515625
 31
0.0
  0
LINE
  5
366
330
1F
100
AcDbEntity
  8
002
  6
CENTER
 62
    40
370
     9
100
AcDbLine
 10
874.56931
 20
545.386425
 30
0.0
 11
874.56931
 21
432.341125
 31
0.0
  0
LINE
  5
367
330
1F
100
AcDbEntity
  8
002
  6
CENTER
 62
    40
370
     9
100
AcDbLine
 10
857.06931
 20
426.964425
 30
0.0
 11
857.06931
 21
440.515625
 31
0.0
  0
LINE
  5
368
330
1F
100
AcDbEntity
  8
002
  6
CENTER
 62
    40
370
     9
100
AcDbLine
 10
869.66481
 20
538.193525
 30
0.0
 11
869.66481
 21
564.715825
 31
0.0
  0
LINE
  5
369
330
1F
100
AcDbEntity
  8
002
  6
CENTER
 62
    40
370
     9
100
AcDbLine
 10
927.56931
 20
432.797025
 30
0.0
 11
927.56931
 21
460.515625
 31
0.0
  0
LINE
  5
36A
330
1F
100
AcDbEntity
  8
002
  6
CENTER
 62
    40
370
     9
100
AcDbLine
 10
780.06931
 20
440.515625
 30
0.0
 11
780.06931
 21
426.964425
 31
0.0
  0
LINE
  5
36B
330
1F
100
AcDbEntity
  8
002
  6
CENTER
 62
    40
370
     9
100
AcDbLine
 10
762.56931
 20
460.515625
 30
0.0
 11
762.56931
 21
432.797025
 31
0.0
  0
LINE
  5
36C
330
1F
100
AcDbEntity
  8
002
 62
    40
370
     9
100
AcDbLine
 10
749.56931
 20
484.207125
 30
0.0
 11
757.56931
 21
484.457125
 31
0.0
  0
LINE
  5
36D
330
1F
100
AcDbEntity
  8
002
 62
    40
370
     9
100
AcDbLine
 10
749.56931
 20
488.015625
 30
0.0
 11
738.56931
 21
505.015625
 31
0.0
  0
LINE
  5
36E
330
1F
100
AcDbEntity
  8
002
 62
     3
370
    30
100
AcDbLine
 10
773.56931
 20
651.515625
 30
0.0
 11
773.56931
 21
653.815625
 31
0.0
  0
LINE
  5
36F
330
1F
100
AcDbEntity
  8
002
 62
     3
370
    30
100
AcDbLine
 10
773.56931
 20
653.815625
 30
0.0
 11
863.56931
 21
653.815625
 31
0.0
  0
LINE
  5
370
330
1F
100
AcDbEntity
  8
002
 62
     3
370
    30
100
AcDbLine
 10
863.56931
 20
653.815625
 30
0.0
 11
863.56931
 21
651.515625
 31
0.0
  0
LINE
  5
371
330
1F
100
AcDbEntity
  8
002
 62
     3
370
    30
100
AcDbLine
 10
862.06931
 20
653.815625
 30
0.0
 11
862.06931
 21
659.815625
 31
0.0
  0
LINE
  5
372
330
1F
100
AcDbEntity
  8
002
 62
     3
370
    30
100
AcDbLine
 10
862.06931
 20
659.815625
 30
0.0
 11
852.06931
 21
659.815625
 31
0.0
  0
LINE
  5
373
330
1F
100
AcDbEntity
  8
002
 62
     3
370
    30
100
AcDbLine
 10
852.06931
 20
659.815625
 30
0.0
 11
852.06931
 21
653.815625
 31
0.0
  0
LINE
  5
374
330
1F
100
AcDbEntity
  8
002
 62
     3
370
    30
100
AcDbLine
 10
848.81931
 20
653.815625
 30
0.0
 11
848.81931
 21
657.515625
 31
0.0
  0
LINE
  5
375
330
1F
100
AcDbEntity
  8
002
 62
     3
370
    30
100
AcDbLine
 10
849.61931
 20
657.515625
 30
0.0
 11
849.61931
 21
670.515625
 31
0.0
  0
LINE
  5
376
330
1F
100
AcDbEntity
  8
002
 62
     3
370
    30
100
AcDbLine
 10
849.61931
 20
670.515625
 30
0.0
 11
779.51931
 21
670.515625
 31
0.0
  0
ARC
  5
377
330
1F
100
AcDbEntity
  8
002
 62
     3
370
    30
100
AcDbCircle
 10
779.51931
 20
668.515625
 30
0.0
 40
2.0
100
AcDbArc
 50
90.0
 51
180.0
  0
LINE
  5
378
330
1F
100
AcDbEntity
  8
002
 62
     3
370
    30
100
AcDbLine
 10
777.51931
 20
668.515625
 30
0.0
 11
777.51931
 21
659.815625
 31
0.0
  0
LINE
  5
379
330
1F
100
AcDbEntity
  8
002
 62
     3
370
    30
100
AcDbLine
 10
785.06931
 20
659.815625
 30
0.0
 11
785.06931
 21
653.815625
 31
0.0
  0
LINE
  5
37A
330
1F
100
AcDbEntity
  8
002
 62
     3
370
    30
100
AcDbLine
 10
788.31931
 20
653.815625
 30
0.0
 11
788.31931
 21
657.515625
 31
0.0
  0
LINE
  5
37B
330
1F
100
AcDbEntity
  8
002
 62
     3
370
    30
100
AcDbLine
 10
787.51931
 20
657.515625
 30
0.0
 11
787.51931
 21
670.515625
 31
0.0
  0
LINE
  5
37C
330
1F
100
AcDbEntity
  8
002
 62
     3
370
    30
100
AcDbLine
 10
788.11931
 20
670.515625
 30
0.0
 11
788.11931
 21
671.515625
 31
0.0
  0
LINE
  5
37D
330
1F
100
AcDbEntity
  8
002
 62
     3
370
    30
100
AcDbLine
 10
788.11931
 20
671.515625
 30
0.0
 11
771.89571
 21
674.530725
 31
0.0
  0
LINE
  5
37E
330
1F
100
AcDbEntity
  8
002
 62
     3
370
    30
100
AcDbLine
 10
772.06931
 20
675.515625
 30
0.0
 11
865.06931
 21
675.515625
 31
0.0
  0
LINE
  5
37F
330
1F
100
AcDbEntity
  8
002
 62
     3
370
    30
100
AcDbLine
 10
865.24281
 20
674.530725
 30
0.0
 11
849.01931
 21
671.515625
 31
0.0
  0
LINE
  5
380
330
1F
100
AcDbEntity
  8
002
 62
     3
370
    30
100
AcDbLine
 10
790.24281
 20
678.530725
 30
0.0
 11
771.89571
 21
676.500425
 31
0.0
  0
ARC
  5
381
330
1F
100
AcDbEntity
  8
002
 62
     3
370
    30
100
AcDbCircle
 10
772.06931
 20
675.515625
 30
0.0
 40
1.000082481598435
100
AcDbArc
 50
99.997359
 51
260.003636
  0
LINE
  5
382
330
1F
100
AcDbEntity
  8
002
 62
     3
370
    30
100
AcDbLine
 10
771.89571
 20
682.530725
 30
0.0
 11
790.24281
 21
680.500425
 31
0.0
  0
ARC
  5
383
330
1F
100
AcDbEntity
  8
002
 62
     3
370
    30
100
AcDbCircle
 10
790.06931
 20
679.515625
 30
0.0
 40
0.9999666444436526
100
AcDbArc
 50
279.990722
 51
80.008284
  0
LINE
  5
384
330
1F
100
AcDbEntity
  8
002
 62
     3
370
    30
100
AcDbLine
 10
792.06931
 20
679.515625
 30
0.0
 11
845.06931
 21
679.515625
 31
0.0
  0
ARC
  5
385
330
1F
100
AcDbEntity
  8
002
 62
     3
370
    30
100
AcDbCircle
 10
847.06931
 20
679.515625
 30
0.0
 40
1.000082481598435
100
AcDbArc
 50
99.997359
 51
260.003636
  0
LINE
  5
386
330
1F
100
AcDbEntity
  8
002
 62
     3
370
    30
100
AcDbLine
 10
846.89571
 20
678.530725
 30
0.0
 11
865.24281
 21
676.500425
 31
0.0
  0
ARC
  5
387
330
1F
100
AcDbEntity
  8
002
 62
     3
370
    30
100
AcDbCircle
 10
865.06931
 20
675.515625
 30
0.0
 40
0.9999666444436526
100
AcDbArc
 50
279.990722
 51
80.008284
  0
ARC
  5
388
330
1F
100
AcDbEntity
  8
002
 62
     3
370
    30
100
AcDbCircle
 10
865.06931
 20
683.515625
 30
0.0
 40
0.9999666444436526
100
AcDbArc
 50
279.990722
 51
80.008284
  0
LINE
  5
389
330
1F
100
AcDbEntity
  8
002
 62
     3
370
    30
100
AcDbLine
 10
865.24281
 20
684.500425
 30
0.0
 11
846.89571
 21
686.530725
 31
0.0
  0
LINE
  5
38A
330
1F
100
AcDbEntity
  8
002
 62
     3
370
    30
100
AcDbLine
 10
846.89571
 20
688.500425
 30
0.0
 11
865.24281
 21
690.530725
 31
0.0
  0
ARC
  5
38B
330
1F
100
AcDbEntity
  8
002
 62
     3
370
    30
100
AcDbCircle
 10
865.06931
 20
691.515625
 30
0.0
 40
0.9999666444436526
100
AcDbArc
 50
279.990722
 51
80.008284
  0
LINE
  5
38C
330
1F
100
AcDbEntity
  8
002
 62
     3
370
    30
100
AcDbLine
 10
865.24281
 20
692.500425
 30
0.0
 11
846.89571
 21
694.530725
 31
0.0
  0
ARC
  5
38D
330
1F
100
AcDbEntity
  8
002
 62
     3
370
    30
100
AcDbCircle
 10
847.06931
 20
695.515625
 30
0.0
 40
1.000082481598435
100
AcDbArc
 50
180.0
 51
260.003636
  0
LINE
  5
38E
330
1F
100
AcDbEntity
  8
002
 62
     3
370
    30
100
AcDbLine
 10
845.06931
 20
695.515625
 30
0.0
 11
792.06931
 21
695.515625
 31
0.0
  0
LINE
  5
38F
330
1F
100
AcDbEntity
  8
002
 62
     3
370
    30
100
AcDbLine
 10
790.24281
 20
694.530725
 30
0.0
 11
771.89571
 21
692.500425
 31
0.0
  0
ARC
  5
390
330
1F
100
AcDbEntity
  8
002
 62
     3
370
    30
100
AcDbCircle
 10
772.06931
 20
691.515625
 30
0.0
 40
1.000082481598435
100
AcDbArc
 50
99.997359
 51
260.003636
  0
LINE
  5
391
330
1F
100
AcDbEntity
  8
002
 62
     3
370
    30
100
AcDbLine
 10
771.89571
 20
690.530725
 30
0.0
 11
790.24281
 21
688.500425
 31
0.0
  0
LINE
  5
392
330
1F
100
AcDbEntity
  8
002
 62
     3
370
    30
100
AcDbLine
 10
790.24281
 20
686.530725
 30
0.0
 11
771.89571
 21
684.500425
 31
0.0
  0
ARC
  5
393
330
1F
100
AcDbEntity
  8
002
 62
     3
370
    30
100
AcDbCircle
 10
772.06931
 20
683.515625
 30
0.0
 40
1.000082481598435
100
AcDbArc
 50
99.997359
 51
260.003636
  0
LINE
  5
394
330
1F
100
AcDbEntity
  8
002
 62
     3
370
    30
100
AcDbLine
 10
772.06931
 20
683.515625
 30
0.0
 11
865.06931
 21
683.515625
 31
0.0
  0
LINE
  5
395
330
1F
100
AcDbEntity
  8
002
 62
     3
370
    30
100
AcDbLine
 10
865.24281
 20
682.530725
 30
0.0
 11
846.89571
 21
680.500425
 31
0.0
  0
LINE
  5
396
330
1F
100
AcDbEntity
  8
002
 62
     3
370
    30
100
AcDbLine
 10
845.06931
 20
687.515625
 30
0.0
 11
792.06931
 21
687.515625
 31
0.0
  0
ARC
  5
397
330
1F
100
AcDbEntity
  8
002
 62
     3
370
    30
100
AcDbCircle
 10
790.06931
 20
687.515625
 30
0.0
 40
0.9999666444436526
100
AcDbArc
 50
279.990722
 51
80.008284
  0
ARC
  5
398
330
1F
100
AcDbEntity
  8
002
 62
     3
370
    30
100
AcDbCircle
 10
790.06931
 20
695.515625
 30
0.0
 40
1.0
100
AcDbArc
 50
279.990722
 51
0.0
  0
LINE
  5
399
330
1F
100
AcDbEntity
  8
002
 62
     3
370
    30
100
AcDbLine
 10
772.06931
 20
691.515625
 30
0.0
 11
865.06931
 21
691.515625
 31
0.0
  0
ARC
  5
39A
330
1F
100
AcDbEntity
  8
002
 62
     3
370
    30
100
AcDbCircle
 10
847.06931
 20
687.515625
 30
0.0
 40
1.000082481598435
100
AcDbArc
 50
99.997359
 51
260.003636
  0
LINE
  5
39B
330
1F
100
AcDbEntity
  8
002
 62
     3
370
    30
100
AcDbLine
 10
849.01931
 20
671.515625
 30
0.0
 11
849.01931
 21
670.515625
 31
0.0
  0
LINE
  5
39C
330
1F
100
AcDbEntity
  8
002
 62
     3
370
    30
100
AcDbLine
 10
849.61931
 20
657.515625
 30
0.0
 11
823.56931
 21
657.515625
 31
0.0
  0
LINE
  5
39D
330
1F
100
AcDbEntity
  8
002
 62
     3
370
    30
100
AcDbLine
 10
813.56931
 20
659.815625
 30
0.0
 11
813.56931
 21
653.815625
 31
0.0
  0
LINE
  5
39E
330
1F
100
AcDbEntity
  8
002
 62
     3
370
    30
100
AcDbLine
 10
813.56931
 20
657.515625
 30
0.0
 11
785.06931
 21
657.515625
 31
0.0
  0
LINE
  5
39F
330
1F
100
AcDbEntity
  8
002
 62
     3
370
    30
100
AcDbLine
 10
785.06931
 20
659.815625
 30
0.0
 11
775.06931
 21
659.815625
 31
0.0
  0
LINE
  5
3A0
330
1F
100
AcDbEntity
  8
002
 62
     3
370
    30
100
AcDbLine
 10
775.06931
 20
659.815625
 30
0.0
 11
775.06931
 21
653.815625
 31
0.0
  0
CIRCLE
  5
3A1
330
1F
100
AcDbEntity
  8
002
 62
     3
370
    30
100
AcDbCircle
 10
782.51931
 20
664.015625
 30
0.0
 40
1.0
  0
LINE
  5
3A2
330
1F
100
AcDbEntity
  8
002
 62
     3
370
    30
100
AcDbLine
 10
813.56931
 20
659.815625
 30
0.0
 11
823.56931
 21
659.815625
 31
0.0
  0
LINE
  5
3A3
330
1F
100
AcDbEntity
  8
002
 62
     3
370
    30
100
AcDbLine
 10
823.56931
 20
659.815625
 30
0.0
 11
823.56931
 21
653.815625
 31
0.0
  0
LINE
  5
3A4
330
1F
100
AcDbEntity
  8
002
  6
CENTER
 62
    40
370
     9
100
AcDbLine
 10
780.06931
 20
646.217525
 30
0.0
 11
780.06931
 21
661.769225
 31
0.0
  0
LINE
  5
3A5
330
1F
100
AcDbEntity
  8
002
  6
CENTER
 62
    40
370
     9
100
AcDbLine
 10
780.15151
 20
664.015625
 30
0.0
 11
785.17661
 21
664.015625
 31
0.0
  0
LINE
  5
3A6
330
1F
100
AcDbEntity
  8
002
  6
CENTER
 62
    40
370
     9
100
AcDbLine
 10
782.51931
 20
660.763425
 30
0.0
 11
782.51931
 21
667.523325
 31
0.0
  0
LINE
  5
3A7
330
1F
100
AcDbEntity
  8
002
  6
CENTER
 62
    40
370
     9
100
AcDbLine
 10
857.06931
 20
662.324825
 30
0.0
 11
857.06931
 21
646.217525
 31
0.0
  0
LINE
  5
3A8
330
1F
100
AcDbEntity
  8
002
  6
PHANTOM
 62
    40
370
     9
100
AcDbLine
 10
866.06931
 20
774.515625
 30
0.0
 11
866.06931
 21
691.515625
 31
0.0
  0
LINE
  5
3A9
330
1F
100
AcDbEntity
  8
002
  6
PHANTOM
 62
    40
370
     9
100
AcDbLine
 10
846.06931
 20
695.515625
 30
0.0
 11
846.06931
 21
770.515625
 31
0.0
  0
LINE
  5
3AA
330
1F
100
AcDbEntity
  8
002
  6
PHANTOM
 62
    40
370
     9
100
AcDbLine
 10
791.06931
 20
770.515625
 30
0.0
 11
791.06931
 21
695.515625
 31
0.0
  0
LINE
  5
3AB
330
1F
100
AcDbEntity
  8
002
  6
PHANTOM
 62
    40
370
     9
100
AcDbLine
 10
771.06931
 20
691.515625
 30
0.0
 11
771.06931
 21
774.515625
 31
0.0
  0
LINE
  5
3AC
330
1F
100
AcDbEntity
  8
002
  6
HIDDEN
 62
    40
370
     9
100
AcDbLine
 10
753.56931
 20
440.515625
 30
0.0
 11
753.56931
 21
453.515625
 31
0.0
  0
LINE
  5
3AD
330
1F
100
AcDbEntity
  8
002
  6
HIDDEN
 62
    40
370
     9
100
AcDbLine
 10
771.56931
 20
440.515625
 30
0.0
 11
771.56931
 21
453.515625
 31
0.0
  0
LINE
  5
3AE
330
1F
100
AcDbEntity
  8
002
  6
HIDDEN
 62
    40
370
     9
100
AcDbLine
 10
918.56931
 20
453.515625
 30
0.0
 11
918.56931
 21
440.515625
 31
0.0
  0
LINE
  5
3AF
330
1F
100
AcDbEntity
  8
002
  6
HIDDEN
 62
    40
370
     9
100
AcDbLine
 10
936.56931
 20
453.515625
 30
0.0
 11
936.56931
 21
440.515625
 31
0.0
  0
LINE
  5
3B0
330
1F
100
AcDbEntity
  8
002
 62
     3
370
    30
100
AcDbLine
 10
865.24281
 20
773.530725
 30
0.0
 11
846.89571
 21
771.500425
 31
0.0
  0
ARC
  5
3B1
330
1F
100
AcDbEntity
  8
002
 62
     3
370
    30
100
AcDbCircle
 10
847.06931
 20
770.515625
 30
0.0
 40
1.0
100
AcDbArc
 50
99.997359
 51
180.0
  0
LINE
  5
3B2
330
1F
100
AcDbEntity
  8
002
 62
     3
370
    30
100
AcDbLine
 10
845.06931
 20
770.515625
 30
0.0
 11
792.06931
 21
770.515625
 31
0.0
  0
ARC
  5
3B3
330
1F
100
AcDbEntity
  8
002
 62
     3
370
    30
100
AcDbCircle
 10
790.06931
 20
770.515625
 30
0.0
 40
0.9999666444436526
100
AcDbArc
 50
0.0
 51
80.008284
  0
LINE
  5
3B4
330
1F
100
AcDbEntity
  8
002
 62
     3
370
    30
100
AcDbLine
 10
790.24281
 20
771.500425
 30
0.0
 11
771.89571
 21
773.530725
 31
0.0
  0
LINE
  5
3B5
330
1F
100
AcDbEntity
  8
002
 62
     3
370
    30
100
AcDbLine
 10
772.06931
 20
774.515625
 30
0.0
 11
865.06931
 21
774.515625
 31
0.0
  0
LINE
  5
3B6
330
1F
100
AcDbEntity
  8
002
 62
     3
370
    30
100
AcDbLine
 10
865.24281
 20
775.500425
 30
0.0
 11
846.89571
 21
777.530725
 31
0.0
  0
LINE
  5
3B7
330
1F
100
AcDbEntity
  8
002
 62
     3
370
    30
100
AcDbLine
 10
846.89571
 20
779.500425
 30
0.0
 11
865.24281
 21
781.530725
 31
0.0
  0
ARC
  5
3B8
330
1F
100
AcDbEntity
  8
002
 62
     3
370
    30
100
AcDbCircle
 10
865.06931
 20
782.515625
 30
0.0
 40
0.9999666444436526
100
AcDbArc
 50
279.990722
 51
80.008284
  0
LINE
  5
3B9
330
1F
100
AcDbEntity
  8
002
 62
     3
370
    30
100
AcDbLine
 10
865.24281
 20
783.500425
 30
0.0
 11
846.89571
 21
785.530725
 31
0.0
  0
LINE
  5
3BA
330
1F
100
AcDbEntity
  8
002
 62
     3
370
    30
100
AcDbLine
 10
846.89571
 20
787.500425
 30
0.0
 11
865.24281
 21
789.530725
 31
0.0
  0
ARC
  5
3BB
330
1F
100
AcDbEntity
  8
002
 62
     3
370
    30
100
AcDbCircle
 10
865.06931
 20
790.515625
 30
0.0
 40
0.9999666444436526
100
AcDbArc
 50
279.990722
 51
80.008284
  0
LINE
  5
3BC
330
1F
100
AcDbEntity
  8
002
 62
     3
370
    30
100
AcDbLine
 10
865.24281
 20
791.500425
 30
0.0
 11
846.89571
 21
793.530725
 31
0.0
  0
LINE
  5
3BD
330
1F
100
AcDbEntity
  8
002
 62
     3
370
    30
100
AcDbLine
 10
846.89571
 20
795.500425
 30
0.0
 11
865.24281
 21
797.530725
 31
0.0
  0
ARC
  5
3BE
330
1F
100
AcDbEntity
  8
002
 62
     3
370
    30
100
AcDbCircle
 10
865.06931
 20
798.515625
 30
0.0
 40
0.9999666444436526
100
AcDbArc
 50
279.990722
 51
80.008284
  0
LINE
  5
3BF
330
1F
100
AcDbEntity
  8
002
 62
     3
370
    30
100
AcDbLine
 10
865.24281
 20
799.500425
 30
0.0
 11
837.26931
 21
802.515625
 31
0.0
  0
LINE
  5
3C0
330
1F
100
AcDbEntity
  8
002
 62
     3
370
    30
100
AcDbLine
 10
799.86931
 20
802.515625
 30
0.0
 11
771.89571
 21
799.500425
 31
0.0
  0
ARC
  5
3C1
330
1F
100
AcDbEntity
  8
002
 62
     3
370
    30
100
AcDbCircle
 10
772.06931
 20
798.515625
 30
0.0
 40
1.000082481598435
100
AcDbArc
 50
99.997359
 51
260.003636
  0
LINE
  5
3C2
330
1F
100
AcDbEntity
  8
002
 62
     3
370
    30
100
AcDbLine
 10
771.89571
 20
797.530725
 30
0.0
 11
790.24281
 21
795.500425
 31
0.0
  0
LINE
  5
3C3
330
1F
100
AcDbEntity
  8
002
 62
     3
370
    30
100
AcDbLine
 10
790.24281
 20
793.530725
 30
0.0
 11
771.89571
 21
791.500425
 31
0.0
  0
ARC
  5
3C4
330
1F
100
AcDbEntity
  8
002
 62
     3
370
    30
100
AcDbCircle
 10
772.06931
 20
790.515625
 30
0.0
 40
1.000082481598435
100
AcDbArc
 50
99.997359
 51
260.003636
  0
LINE
  5
3C5
330
1F
100
AcDbEntity
  8
002
 62
     3
370
    30
100
AcDbLine
 10
771.89571
 20
789.530725
 30
0.0
 11
790.24281
 21
787.500425
 31
0.0
  0
LINE
  5
3C6
330
1F
100
AcDbEntity
  8
002
 62
     3
370
    30
100
AcDbLine
 10
790.24281
 20
785.530725
 30
0.0
 11
771.89571
 21
783.500425
 31
0.0
  0
ARC
  5
3C7
330
1F
100
AcDbEntity
  8
002
 62
     3
370
    30
100
AcDbCircle
 10
772.06931
 20
782.515625
 30
0.0
 40
1.000082481598435
100
AcDbArc
 50
99.997359
 51
260.003636
  0
LINE
  5
3C8
330
1F
100
AcDbEntity
  8
002
 62
     3
370
    30
100
AcDbLine
 10
771.89571
 20
781.530725
 30
0.0
 11
790.24281
 21
779.500425
 31
0.0
  0
LINE
  5
3C9
330
1F
100
AcDbEntity
  8
002
 62
     3
370
    30
100
AcDbLine
 10
790.24281
 20
777.530725
 30
0.0
 11
771.89571
 21
775.500425
 31
0.0
  0
ARC
  5
3CA
330
1F
100
AcDbEntity
  8
002
 62
     3
370
    30
100
AcDbCircle
 10
772.06931
 20
774.515625
 30
0.0
 40
1.000082481598435
100
AcDbArc
 50
99.997359
 51
260.003636
  0
LINE
  5
3CB
330
1F
100
AcDbEntity
  8
002
 62
     3
370
    30
100
AcDbLine
 10
772.06931
 20
782.515625
 30
0.0
 11
865.06931
 21
782.515625
 31
0.0
  0
LINE
  5
3CC
330
1F
100
AcDbEntity
  8
002
 62
     3
370
    30
100
AcDbLine
 10
865.06931
 20
790.515625
 30
0.0
 11
772.06931
 21
790.515625
 31
0.0
  0
LINE
  5
3CD
330
1F
100
AcDbEntity
  8
002
 62
     3
370
    30
100
AcDbLine
 10
772.06931
 20
798.515625
 30
0.0
 11
865.06931
 21
798.515625
 31
0.0
  0
ARC
  5
3CE
330
1F
100
AcDbEntity
  8
002
 62
     3
370
    30
100
AcDbCircle
 10
847.06931
 20
794.515625
 30
0.0
 40
1.000082481598435
100
AcDbArc
 50
99.997359
 51
260.003636
  0
LINE
  5
3CF
330
1F
100
AcDbEntity
  8
002
 62
     3
370
    30
100
AcDbLine
 10
845.06931
 20
794.515625
 30
0.0
 11
792.06931
 21
794.515625
 31
0.0
  0
ARC
  5
3D0
330
1F
100
AcDbEntity
  8
002
 62
     3
370
    30
100
AcDbCircle
 10
790.06931
 20
794.515625
 30
0.0
 40
0.9999666444436526
100
AcDbArc
 50
279.990722
 51
80.008284
  0
LINE
  5
3D1
330
1F
100
AcDbEntity
  8
002
 62
     3
370
    30
100
AcDbLine
 10
791.26931
 20
803.515625
 30
0.0
 11
837.86931
 21
803.515625
 31
0.0
  0
LINE
  5
3D2
330
1F
100
AcDbEntity
  8
002
 62
     3
370
    30
100
AcDbLine
 10
837.86931
 20
803.515625
 30
0.0
 11
837.86931
 21
815.515125
 31
0.0
  0
LINE
  5
3D3
330
1F
100
AcDbEntity
  8
002
 62
     3
370
    30
100
AcDbLine
 10
837.86931
 20
815.515125
 30
0.0
 11
791.26931
 21
815.515125
 31
0.0
  0
ARC
  5
3D4
330
1F
100
AcDbEntity
  8
002
 62
     3
370
    30
100
AcDbCircle
 10
791.26931
 20
813.515125
 30
0.0
 40
2.0
100
AcDbArc
 50
90.0
 51
180.0
  0
LINE
  5
3D5
330
1F
100
AcDbEntity
  8
002
 62
     3
370
    30
100
AcDbLine
 10
789.26931
 20
813.515125
 30
0.0
 11
789.26931
 21
805.515625
 31
0.0
  0
ARC
  5
3D6
330
1F
100
AcDbEntity
  8
002
 62
     3
370
    30
100
AcDbCircle
 10
791.26931
 20
805.515625
 30
0.0
 40
2.0
100
AcDbArc
 50
180.0
 51
270.0
  0
CIRCLE
  5
3D7
330
1F
100
AcDbEntity
  8
002
 62
     3
370
    30
100
AcDbCircle
 10
794.26931
 20
810.015125
 30
0.0
 40
1.0
  0
LINE
  5
3D8
330
1F
100
AcDbEntity
  8
002
 62
     3
370
    30
100
AcDbLine
 10
799.26931
 20
803.515625
 30
0.0
 11
799.26931
 21
815.515125
 31
0.0
  0
LINE
  5
3D9
330
1F
100
AcDbEntity
  8
002
 62
     3
370
    30
100
AcDbLine
 10
799.86931
 20
815.515125
 30
0.0
 11
799.86931
 21
818.515125
 31
0.0
  0
LINE
  5
3DA
330
1F
100
AcDbEntity
  8
002
 62
     3
370
    30
100
AcDbLine
 10
837.26931
 20
818.515125
 30
0.0
 11
837.26931
 21
815.515125
 31
0.0
  0
LINE
  5
3DB
330
1F
100
AcDbEntity
  8
002
 62
     3
370
    30
100
AcDbLine
 10
837.26931
 20
818.515125
 30
0.0
 11
799.86931
 21
818.515125
 31
0.0
  0
LINE
  5
3DC
330
1F
100
AcDbEntity
  8
002
 62
     3
370
    30
100
AcDbLine
 10
807.56871
 20
818.515125
 30
0.0
 11
807.56871
 21
822.015125
 31
0.0
  0
LINE
  5
3DD
330
1F
100
AcDbEntity
  8
002
 62
     3
370
    30
100
AcDbLine
 10
806.06871
 20
822.015125
 30
0.0
 11
806.06871
 21
850.515125
 31
0.0
  0
LINE
  5
3DE
330
1F
100
AcDbEntity
  8
002
 62
     3
370
    30
100
AcDbLine
 10
806.06871
 20
850.515125
 30
0.0
 11
831.06871
 21
850.515125
 31
0.0
  0
LINE
  5
3DF
330
1F
100
AcDbEntity
  8
002
 62
     3
370
    30
100
AcDbLine
 10
831.06871
 20
850.515125
 30
0.0
 11
831.06871
 21
822.015125
 31
0.0
  0
LINE
  5
3E0
330
1F
100
AcDbEntity
  8
002
 62
     3
370
    30
100
AcDbLine
 10
831.06871
 20
822.015125
 30
0.0
 11
806.06871
 21
822.015125
 31
0.0
  0
LINE
  5
3E1
330
1F
100
AcDbEntity
  8
002
 62
     3
370
    30
100
AcDbLine
 10
799.86931
 20
803.515625
 30
0.0
 11
799.86931
 21
802.515625
 31
0.0
  0
LINE
  5
3E2
330
1F
100
AcDbEntity
  8
002
 62
     3
370
    30
100
AcDbLine
 10
792.06931
 20
786.515625
 30
0.0
 11
845.06931
 21
786.515625
 31
0.0
  0
ARC
  5
3E3
330
1F
100
AcDbEntity
  8
002
 62
     3
370
    30
100
AcDbCircle
 10
847.06931
 20
786.515625
 30
0.0
 40
1.000082481598435
100
AcDbArc
 50
99.997359
 51
260.003636
  0
ARC
  5
3E4
330
1F
100
AcDbEntity
  8
002
 62
     3
370
    30
100
AcDbCircle
 10
847.06931
 20
778.515625
 30
0.0
 40
1.000082481598435
100
AcDbArc
 50
99.997359
 51
260.003636
  0
LINE
  5
3E5
330
1F
100
AcDbEntity
  8
002
 62
     3
370
    30
100
AcDbLine
 10
845.06931
 20
778.515625
 30
0.0
 11
792.06931
 21
778.515625
 31
0.0
  0
ARC
  5
3E6
330
1F
100
AcDbEntity
  8
002
 62
     3
370
    30
100
AcDbCircle
 10
790.06931
 20
778.515625
 30
0.0
 40
0.9999666444436526
100
AcDbArc
 50
279.990722
 51
80.008284
  0
ARC
  5
3E7
330
1F
100
AcDbEntity
  8
002
 62
     3
370
    30
100
AcDbCircle
 10
790.06931
 20
786.515625
 30
0.0
 40
0.9999666444436526
100
AcDbArc
 50
279.990722
 51
80.008284
  0
LINE
  5
3E8
330
1F
100
AcDbEntity
  8
002
 62
     3
370
    30
100
AcDbLine
 10
837.26931
 20
802.515625
 30
0.0
 11
837.26931
 21
803.515625
 31
0.0
  0
LINE
  5
3E9
330
1F
100
AcDbEntity
  8
002
 62
     3
370
    30
100
AcDbLine
 10
829.56871
 20
818.515125
 30
0.0
 11
829.56871
 21
822.015125
 31
0.0
  0
ARC
  5
3EA
330
1F
100
AcDbEntity
  8
002
 62
     3
370
    30
100
AcDbCircle
 10
865.06931
 20
774.515625
 30
0.0
 40
0.9999666444436526
100
AcDbArc
 50
279.990722
 51
80.008284
  0
LINE
  5
3EB
330
1F
100
AcDbEntity
  8
002
 62
    40
370
     9
100
AcDbLine
 10
829.66871
 20
822.015125
 30
0.0
 11
829.66871
 21
850.515125
 31
0.0
  0
LINE
  5
3EC
330
1F
100
AcDbEntity
  8
002
 62
    40
370
     9
100
AcDbLine
 10
807.46871
 20
850.515125
 30
0.0
 11
807.46871
 21
822.015125
 31
0.0
  0
LINE
  5
3ED
330
1F
100
AcDbEntity
  8
002
  6
CENTER
 62
    40
370
     9
100
AcDbLine
 10
794.26931
 20
813.523125
 30
0.0
 11
794.26931
 21
806.763125
 31
0.0
  0
LINE
  5
3EE
330
1F
100
AcDbEntity
  8
002
  6
CENTER
 62
    40
370
     9
100
AcDbLine
 10
791.90151
 20
810.015125
 30
0.0
 11
796.92661
 21
810.015125
 31
0.0
  0
LINE
  5
3EF
330
1F
100
AcDbEntity
  8
002
 62
     3
370
    30
100
AcDbLine
 10
851.56931
 20
200.515625
 30
0.0
 11
785.56931
 21
200.515625
 31
0.0
  0
LINE
  5
3F0
330
1F
100
AcDbEntity
  8
002
 62
     3
370
    30
100
AcDbLine
 10
785.56931
 20
200.515625
 30
0.0
 11
785.56931
 21
183.515625
 31
0.0
  0
ARC
  5
3F1
330
1F
100
AcDbEntity
  8
002
 62
     3
370
    30
100
AcDbCircle
 10
788.56931
 20
183.515625
 30
0.0
 40
3.0
100
AcDbArc
 50
180.0
 51
270.0
  0
LINE
  5
3F2
330
1F
100
AcDbEntity
  8
002
 62
     3
370
    30
100
AcDbLine
 10
788.56931
 20
180.515625
 30
0.0
 11
848.56931
 21
180.515625
 31
0.0
  0
ARC
  5
3F3
330
1F
100
AcDbEntity
  8
002
 62
     3
370
    30
100
AcDbCircle
 10
848.56931
 20
183.515625
 30
0.0
 40
3.0
100
AcDbArc
 50
270.0
 51
0.0
  0
LINE
  5
3F4
330
1F
100
AcDbEntity
  8
002
 62
     3
370
    30
100
AcDbLine
 10
851.56931
 20
183.515625
 30
0.0
 11
851.56931
 21
200.515625
 31
0.0
  0
LINE
  5
3F5
330
1F
100
AcDbEntity
  8
002
 62
     3
370
    30
100
AcDbLine
 10
914.34061
 20
440.515625
 30
0.0
 11
914.34061
 21
453.515625
 31
0.0
  0
LINE
  5
3F6
330
1F
100
AcDbEntity
  8
002
 62
     3
370
    30
100
AcDbLine
 10
1124.84751
 20
706.515625
 30
0.0
 11
1126.01351
 21
662.015625
 31
0.0
  0
LINE
  5
3F7
330
1F
100
AcDbEntity
  8
002
 62
     3
370
    30
100
AcDbLine
 10
1123.34751
 20
662.015625
 30
0.0
 11
1133.34751
 21
662.015625
 31
0.0
  0
LINE
  5
3F8
330
1F
100
AcDbEntity
  8
002
 62
     3
370
    30
100
AcDbLine
 10
1123.34751
 20
662.015625
 30
0.0
 11
1123.34751
 21
656.015625
 31
0.0
  0
LINE
  5
3F9
330
1F
100
AcDbEntity
  8
002
 62
     3
370
    30
100
AcDbLine
 10
1133.34751
 20
662.015625
 30
0.0
 11
1133.34751
 21
656.015625
 31
0.0
  0
LINE
  5
3FA
330
1F
100
AcDbEntity
  8
002
 62
     3
370
    30
100
AcDbLine
 10
1134.84751
 20
656.015625
 30
0.0
 11
1044.84751
 21
656.015625
 31
0.0
  0
LINE
  5
3FB
330
1F
100
AcDbEntity
  8
002
 62
     3
370
    30
100
AcDbLine
 10
1044.84751
 20
656.015625
 30
0.0
 11
1044.84751
 21
651.515625
 31
0.0
  0
LINE
  5
3FC
330
1F
100
AcDbEntity
  8
002
 62
     3
370
    30
100
AcDbLine
 10
1042.84751
 20
651.515625
 30
0.0
 11
1042.84751
 21
562.515625
 31
0.0
  0
LINE
  5
3FD
330
1F
100
AcDbEntity
  8
002
 62
     3
370
    30
100
AcDbLine
 10
1046.75251
 20
562.515625
 30
0.0
 11
1030.75251
 21
562.515625
 31
0.0
  0
LINE
  5
3FE
330
1F
100
AcDbEntity
  8
002
 62
     3
370
    30
100
AcDbLine
 10
1046.75251
 20
562.515625
 30
0.0
 11
1046.75251
 21
552.515625
 31
0.0
  0
LINE
  5
3FF
330
1F
100
AcDbEntity
  8
002
 62
     3
370
    30
100
AcDbLine
 10
1046.75251
 20
555.046425
 30
0.0
 11
1081.84751
 21
555.046425
 31
0.0
  0
LINE
  5
400
330
1F
100
AcDbEntity
  8
002
 62
     3
370
    30
100
AcDbLine
 10
1081.84751
 20
552.515625
 30
0.0
 11
1081.84751
 21
562.515625
 31
0.0
  0
LINE
  5
401
330
1F
100
AcDbEntity
  8
002
 62
     3
370
    30
100
AcDbLine
 10
1097.84751
 20
562.515625
 30
0.0
 11
1097.84751
 21
552.515625
 31
0.0
  0
LINE
  5
402
330
1F
100
AcDbEntity
  8
002
 62
     3
370
    30
100
AcDbLine
 10
1097.84751
 20
555.046425
 30
0.0
 11
1132.94351
 21
555.046425
 31
0.0
  0
LINE
  5
403
330
1F
100
AcDbEntity
  8
002
 62
     3
370
    30
100
AcDbLine
 10
1132.94351
 20
552.515625
 30
0.0
 11
1132.94351
 21
562.515625
 31
0.0
  0
LINE
  5
404
330
1F
100
AcDbEntity
  8
002
 62
     3
370
    30
100
AcDbLine
 10
1148.94351
 20
562.515625
 30
0.0
 11
1148.94351
 21
552.515625
 31
0.0
  0
LINE
  5
405
330
1F
100
AcDbEntity
  8
002
 62
     3
370
    30
100
AcDbLine
 10
1148.94351
 20
562.515625
 30
0.0
 11
1132.94351
 21
562.515625
 31
0.0
  0
LINE
  5
406
330
1F
100
AcDbEntity
  8
002
 62
     3
370
    30
100
AcDbLine
 10
1136.84751
 20
562.515625
 30
0.0
 11
1136.84751
 21
651.515625
 31
0.0
  0
LINE
  5
407
330
1F
100
AcDbEntity
  8
002
 62
     3
370
    30
100
AcDbLine
 10
1136.84751
 20
651.515625
 30
0.0
 11
1042.84751
 21
651.515625
 31
0.0
  0
LINE
  5
408
330
1F
100
AcDbEntity
  8
002
 62
     3
370
    30
100
AcDbLine
 10
1046.34751
 20
656.015625
 30
0.0
 11
1046.34751
 21
662.015625
 31
0.0
  0
LINE
  5
409
330
1F
100
AcDbEntity
  8
002
 62
     3
370
    30
100
AcDbLine
 10
1056.34751
 20
662.015625
 30
0.0
 11
1056.34751
 21
656.015625
 31
0.0
  0
LINE
  5
40A
330
1F
100
AcDbEntity
  8
002
 62
     3
370
    30
100
AcDbLine
 10
1056.34751
 20
662.015625
 30
0.0
 11
1046.34751
 21
662.015625
 31
0.0
  0
LINE
  5
40B
330
1F
100
AcDbEntity
  8
002
 62
     3
370
    30
100
AcDbLine
 10
1053.68251
 20
662.015625
 30
0.0
 11
1054.84751
 21
706.515625
 31
0.0
  0
LINE
  5
40C
330
1F
100
AcDbEntity
  8
002
 62
     3
370
    30
100
AcDbLine
 10
1054.84751
 20
706.515625
 30
0.0
 11
1124.84751
 21
706.515625
 31
0.0
  0
LINE
  5
40D
330
1F
100
AcDbEntity
  8
002
 62
     3
370
    30
100
AcDbLine
 10
1134.84751
 20
656.015625
 30
0.0
 11
1134.84751
 21
651.515625
 31
0.0
  0
LINE
  5
40E
330
1F
100
AcDbEntity
  8
002
 62
     3
370
    30
100
AcDbLine
 10
1094.84751
 20
656.015625
 30
0.0
 11
1094.84751
 21
662.015625
 31
0.0
  0
LINE
  5
40F
330
1F
100
AcDbEntity
  8
002
 62
     3
370
    30
100
AcDbLine
 10
1084.84751
 20
662.015625
 30
0.0
 11
1084.84751
 21
656.015625
 31
0.0
  0
LINE
  5
410
330
1F
100
AcDbEntity
  8
002
 62
     3
370
    30
100
AcDbLine
 10
1084.84751
 20
662.015625
 30
0.0
 11
1094.84751
 21
662.015625
 31
0.0
  0
LINE
  5
411
330
1F
100
AcDbEntity
  8
002
 62
     3
370
    30
100
AcDbLine
 10
1092.73451
 20
626.515625
 30
0.0
 11
1095.62151
 21
621.515625
 31
0.0
  0
LINE
  5
412
330
1F
100
AcDbEntity
  8
002
 62
     3
370
    30
100
AcDbLine
 10
1095.62151
 20
621.515625
 30
0.0
 11
1092.73451
 21
616.515625
 31
0.0
  0
LINE
  5
413
330
1F
100
AcDbEntity
  8
002
 62
     3
370
    30
100
AcDbLine
 10
1092.73451
 20
616.515625
 30
0.0
 11
1086.96051
 21
616.515625
 31
0.0
  0
LINE
  5
414
330
1F
100
AcDbEntity
  8
002
 62
     3
370
    30
100
AcDbLine
 10
1086.96051
 20
616.515625
 30
0.0
 11
1084.07451
 21
621.515625
 31
0.0
  0
LINE
  5
415
330
1F
100
AcDbEntity
  8
002
 62
     3
370
    30
100
AcDbLine
 10
1084.07451
 20
621.515625
 30
0.0
 11
1086.96051
 21
626.515625
 31
0.0
  0
LINE
  5
416
330
1F
100
AcDbEntity
  8
002
 62
     3
370
    30
100
AcDbLine
 10
1086.96051
 20
626.515625
 30
0.0
 11
1092.73451
 21
626.515625
 31
0.0
  0
CIRCLE
  5
417
330
1F
100
AcDbEntity
  8
002
 62
     3
370
    30
100
AcDbCircle
 10
1089.84751
 20
621.515625
 30
0.0
 40
0.75
  0
CIRCLE
  5
418
330
1F
100
AcDbEntity
  8
002
 62
     3
370
    30
100
AcDbCircle
 10
1089.84751
 20
621.515625
 30
0.0
 40
2.5
  0
CIRCLE
  5
419
330
1F
100
AcDbEntity
  8
002
 62
     3
370
    30
100
AcDbCircle
 10
1089.84751
 20
621.515625
 30
0.0
 40
3.25
  0
CIRCLE
  5
41A
330
1F
100
AcDbEntity
  8
002
 62
     3
370
    30
100
AcDbCircle
 10
1089.84751
 20
621.515625
 30
0.0
 40
5.0
  0
LINE
  5
41B
330
1F
100
AcDbEntity
  8
002
 62
     3
370
    30
100
AcDbLine
 10
1081.84751
 20
562.515625
 30
0.0
 11
1097.84751
 21
562.515625
 31
0.0
  0
LINE
  5
41C
330
1F
100
AcDbEntity
  8
002
 62
     3
370
    30
100
AcDbLine
 10
1064.84751
 20
532.515625
 30
0.0
 11
1170.84751
 21
532.515625
 31
0.0
  0
ARC
  5
41D
330
1F
100
AcDbEntity
  8
002
 62
     3
370
    30
100
AcDbCircle
 10
1170.84751
 20
521.515625
 30
0.0
 40
11.0
100
AcDbArc
 50
0.0
 51
90.0
  0
LINE
  5
41E
330
1F
100
AcDbEntity
  8
002
 62
     3
370
    30
100
AcDbLine
 10
1181.84751
 20
521.515625
 30
0.0
 11
1181.84751
 21
458.515625
 31
0.0
  0
LINE
  5
41F
330
1F
100
AcDbEntity
  8
002
 62
     3
370
    30
100
AcDbLine
 10
1186.84751
 20
453.515625
 30
0.0
 11
1216.84751
 21
453.515625
 31
0.0
  0
ARC
  5
420
330
1F
100
AcDbEntity
  8
002
 62
     3
370
    30
100
AcDbCircle
 10
1216.84751
 20
451.515625
 30
0.0
 40
2.0
100
AcDbArc
 50
0.0
 51
90.0
  0
LINE
  5
421
330
1F
100
AcDbEntity
  8
002
 62
     3
370
    30
100
AcDbLine
 10
1218.84751
 20
451.515625
 30
0.0
 11
1218.84751
 21
440.515625
 31
0.0
  0
LINE
  5
422
330
1F
100
AcDbEntity
  8
002
 62
     3
370
    30
100
AcDbLine
 10
1218.84751
 20
440.515625
 30
0.0
 11
1013.84751
 21
440.515625
 31
0.0
  0
LINE
  5
423
330
1F
100
AcDbEntity
  8
002
 62
     3
370
    30
100
AcDbLine
 10
1015.84751
 20
453.515625
 30
0.0
 11
1054.84751
 21
453.515625
 31
0.0
  0
LINE
  5
424
330
1F
100
AcDbEntity
  8
002
 62
     3
370
    30
100
AcDbLine
 10
1059.84751
 20
458.515625
 30
0.0
 11
1059.84751
 21
527.515625
 31
0.0
  0
ARC
  5
425
330
1F
100
AcDbEntity
  8
002
 62
     3
370
    30
100
AcDbCircle
 10
1064.84751
 20
527.515625
 30
0.0
 40
5.0
100
AcDbArc
 50
90.0
 51
180.0
  0
LINE
  5
426
330
1F
100
AcDbEntity
  8
002
 62
     3
370
    30
100
AcDbLine
 10
1054.84751
 20
528.515625
 30
0.0
 11
1028.84751
 21
528.515625
 31
0.0
  0
ARC
  5
427
330
1F
100
AcDbEntity
  8
002
 62
     3
370
    30
100
AcDbCircle
 10
1038.66851
 20
523.515625
 30
0.0
 40
5.0
100
AcDbArc
 50
0.0
 51
90.0
  0
LINE
  5
428
330
1F
100
AcDbEntity
  8
002
 62
     3
370
    30
100
AcDbLine
 10
1043.66851
 20
523.515625
 30
0.0
 11
1043.66851
 21
458.515625
 31
0.0
  0
ARC
  5
429
330
1F
100
AcDbEntity
  8
002
 62
     3
370
    30
100
AcDbCircle
 10
1038.66851
 20
458.515625
 30
0.0
 40
5.0
100
AcDbArc
 50
270.0
 51
0.0
  0
LINE
  5
42A
330
1F
100
AcDbEntity
  8
002
 62
     3
370
    30
100
AcDbLine
 10
1047.07651
 20
453.515625
 30
0.0
 11
1047.07651
 21
440.515625
 31
0.0
  0
ARC
  5
42B
330
1F
100
AcDbEntity
  8
002
 62
     3
370
    30
100
AcDbCircle
 10
1054.84751
 20
458.515625
 30
0.0
 40
5.0
100
AcDbArc
 50
270.0
 51
0.0
  0
LINE
  5
42C
330
1F
100
AcDbEntity
  8
002
 62
     3
370
    30
100
AcDbLine
 10
1120.84751
 20
460.515625
 30
0.0
 11
1170.84751
 21
460.515625
 31
0.0
  0
ARC
  5
42D
330
1F
100
AcDbEntity
  8
002
 62
     3
370
    30
100
AcDbCircle
 10
1170.84751
 20
471.515625
 30
0.0
 40
11.0
100
AcDbArc
 50
270.0
 51
0.0
  0
ARC
  5
42E
330
1F
100
AcDbEntity
  8
002
 62
     3
370
    30
100
AcDbCircle
 10
1186.84751
 20
458.515625
 30
0.0
 40
5.0
100
AcDbArc
 50
180.0
 51
270.0
  0
ARC
  5
42F
330
1F
100
AcDbEntity
  8
002
 62
     3
370
    30
100
AcDbCircle
 10
1205.00051
 20
479.252525
 30
0.0
 40
1.999887356827847
100
AcDbArc
 50
115.088894
 51
205.101702
  0
LINE
  5
430
330
1F
100
AcDbEntity
  8
002
 62
     3
370
    30
100
AcDbLine
 10
1204.15251
 20
481.063725
 30
0.0
 11
1188.88151
 21
513.664225
 31
0.0
  0
ARC
  5
431
330
1F
100
AcDbEntity
  8
002
 62
     3
370
    30
100
AcDbCircle
 10
1188.03251
 20
515.475425
 30
0.0
 40
1.999875886148854
100
AcDbArc
 50
205.101702
 51
295.114835
  0
LINE
  5
432
330
1F
100
AcDbEntity
  8
002
 62
     3
370
    30
100
AcDbLine
 10
1180.80951
 20
526.181725
 30
0.0
 11
1213.49951
 21
456.394625
 31
0.0
  0
ARC
  5
433
330
1F
100
AcDbEntity
  8
002
 62
     3
370
    30
100
AcDbCircle
 10
1218.07851
 20
458.406625
 30
0.0
 40
5.000142497969443
100
AcDbArc
 50
205.099272
 51
259.874925
  0
ARC
  5
434
330
1F
100
AcDbEntity
  8
002
 62
     3
370
    30
100
AcDbCircle
 10
1164.84751
 20
537.515625
 30
0.0
 40
5.0
100
AcDbArc
 50
180.0
 51
270.0
  0
LINE
  5
435
330
1F
100
AcDbEntity
  8
002
 62
     3
370
    30
100
AcDbLine
 10
1159.84751
 20
537.515625
 30
0.0
 11
1159.84751
 21
552.515625
 31
0.0
  0
LINE
  5
436
330
1F
100
AcDbEntity
  8
002
 62
     3
370
    30
100
AcDbLine
 10
1159.84751
 20
552.515625
 30
0.0
 11
1019.84751
 21
552.515625
 31
0.0
  0
LINE
  5
437
330
1F
100
AcDbEntity
  8
002
 62
     3
370
    30
100
AcDbLine
 10
1019.84751
 20
540.515625
 30
0.0
 11
1159.84751
 21
540.515625
 31
0.0
  0
LINE
  5
438
330
1F
100
AcDbEntity
  8
002
 62
     3
370
    30
100
AcDbLine
 10
1109.84751
 20
471.515625
 30
0.0
 11
1109.84751
 21
521.515625
 31
0.0
  0
ARC
  5
439
330
1F
100
AcDbEntity
  8
002
 62
     3
370
    30
100
AcDbCircle
 10
1120.84751
 20
521.515625
 30
0.0
 40
11.0
100
AcDbArc
 50
90.0
 51
180.0
  0
LINE
  5
43A
330
1F
100
AcDbEntity
  8
002
 62
     3
370
    30
100
AcDbLine
 10
1092.73451
 20
501.515625
 30
0.0
 11
1095.62151
 21
496.515625
 31
0.0
  0
LINE
  5
43B
330
1F
100
AcDbEntity
  8
002
 62
     3
370
    30
100
AcDbLine
 10
1095.62151
 20
496.515625
 30
0.0
 11
1092.73451
 21
491.515625
 31
0.0
  0
LINE
  5
43C
330
1F
100
AcDbEntity
  8
002
 62
     3
370
    30
100
AcDbLine
 10
1092.73451
 20
491.515625
 30
0.0
 11
1086.96051
 21
491.515625
 31
0.0
  0
LINE
  5
43D
330
1F
100
AcDbEntity
  8
002
 62
     3
370
    30
100
AcDbLine
 10
1086.96051
 20
491.515625
 30
0.0
 11
1084.07451
 21
496.515625
 31
0.0
  0
LINE
  5
43E
330
1F
100
AcDbEntity
  8
002
 62
     3
370
    30
100
AcDbLine
 10
1084.07451
 20
496.515625
 30
0.0
 11
1086.96051
 21
501.515625
 31
0.0
  0
LINE
  5
43F
330
1F
100
AcDbEntity
  8
002
 62
     3
370
    30
100
AcDbLine
 10
1086.96051
 20
501.515625
 30
0.0
 11
1092.73451
 21
501.515625
 31
0.0
  0
CIRCLE
  5
440
330
1F
100
AcDbEntity
  8
002
 62
     3
370
    30
100
AcDbCircle
 10
1089.84751
 20
496.515625
 30
0.0
 40
0.75
  0
CIRCLE
  5
441
330
1F
100
AcDbEntity
  8
002
 62
     3
370
    30
100
AcDbCircle
 10
1089.84751
 20
496.515625
 30
0.0
 40
2.5
  0
CIRCLE
  5
442
330
1F
100
AcDbEntity
  8
002
 62
     3
370
    30
100
AcDbCircle
 10
1089.84751
 20
496.515625
 30
0.0
 40
3.25
  0
CIRCLE
  5
443
330
1F
100
AcDbEntity
  8
002
 62
     3
370
    30
100
AcDbCircle
 10
1089.84751
 20
496.515625
 30
0.0
 40
5.0
  0
ARC
  5
444
330
1F
100
AcDbEntity
  8
002
 62
     3
370
    30
100
AcDbCircle
 10
1054.84751
 20
523.515625
 30
0.0
 40
5.0
100
AcDbArc
 50
0.0
 51
90.0
  0
LINE
  5
445
330
1F
100
AcDbEntity
  8
002
 62
     3
370
    30
100
AcDbLine
 10
1028.84751
 20
509.719525
 30
0.0
 11
1020.84751
 21
509.969525
 31
0.0
  0
LINE
  5
446
330
1F
100
AcDbEntity
  8
002
 62
     3
370
    30
100
AcDbLine
 10
1020.84751
 20
483.061625
 30
0.0
 11
1028.84751
 21
483.311625
 31
0.0
  0
LINE
  5
447
330
1F
100
AcDbEntity
  8
002
 62
     3
370
    30
100
AcDbLine
 10
1028.84751
 20
540.515625
 30
0.0
 11
1028.84751
 21
458.515625
 31
0.0
  0
ARC
  5
448
330
1F
100
AcDbEntity
  8
002
 62
     3
370
    30
100
AcDbCircle
 10
1023.84751
 20
458.515625
 30
0.0
 40
5.0
100
AcDbArc
 50
270.0
 51
0.0
  0
ARC
  5
449
330
1F
100
AcDbEntity
  8
002
 62
     3
370
    30
100
AcDbCircle
 10
1120.84751
 20
471.515625
 30
0.0
 40
11.0
100
AcDbArc
 50
180.0
 51
270.0
  0
LINE
  5
44A
330
1F
100
AcDbEntity
  8
002
 62
     3
370
    30
100
AcDbLine
 10
1030.75251
 20
562.515625
 30
0.0
 11
1030.75251
 21
552.515625
 31
0.0
  0
LINE
  5
44B
330
1F
100
AcDbEntity
  8
002
  6
CENTER
 62
    40
370
     9
100
AcDbLine
 10
1128.34751
 20
665.066725
 30
0.0
 11
1128.34751
 21
651.515625
 31
0.0
  0
LINE
  5
44C
330
1F
100
AcDbEntity
  8
002
  6
CENTER
 62
    40
370
     9
100
AcDbLine
 10
1098.24851
 20
621.515625
 30
0.0
 11
1081.07451
 21
621.515625
 31
0.0
  0
LINE
  5
44D
330
1F
100
AcDbEntity
  8
002
  6
CENTER
 62
    40
370
     9
100
AcDbLine
 10
1051.34751
 20
651.515625
 30
0.0
 11
1051.34751
 21
665.066725
 31
0.0
  0
LINE
  5
44E
330
1F
100
AcDbEntity
  8
002
  6
CENTER
 62
    40
370
     9
100
AcDbLine
 10
1038.75251
 20
564.715825
 30
0.0
 11
1038.75251
 21
538.193525
 31
0.0
  0
LINE
  5
44F
330
1F
100
AcDbEntity
  8
002
 62
    40
370
     9
100
AcDbLine
 10
1028.84751
 20
508.574125
 30
0.0
 11
1020.84751
 21
508.824125
 31
0.0
  0
LINE
  5
450
330
1F
100
AcDbEntity
  8
002
  6
CENTER
 62
    40
370
     9
100
AcDbLine
 10
1006.40451
 20
496.515625
 30
0.0
 11
1206.62951
 21
496.515625
 31
0.0
  0
LINE
  5
451
330
1F
100
AcDbEntity
  8
002
  6
CENTER
 62
    40
370
     9
100
AcDbLine
 10
1198.84751
 20
460.515625
 30
0.0
 11
1198.84751
 21
432.797025
 31
0.0
  0
LINE
  5
452
330
1F
100
AcDbEntity
  8
002
  6
CENTER
 62
    40
370
     9
100
AcDbLine
 10
1033.84751
 20
460.515625
 30
0.0
 11
1033.84751
 21
432.797025
 31
0.0
  0
LINE
  5
453
330
1F
100
AcDbEntity
  8
002
 62
    40
370
     9
100
AcDbLine
 10
1020.84751
 20
484.207125
 30
0.0
 11
1028.84751
 21
484.457125
 31
0.0
  0
LINE
  5
454
330
1F
100
AcDbEntity
  8
002
  6
CENTER
 62
    40
370
     9
100
AcDbLine
 10
1140.94351
 20
538.193525
 30
0.0
 11
1140.94351
 21
564.715825
 31
0.0
  0
LINE
  5
455
330
1F
100
AcDbEntity
  8
002
  6
CENTER
 62
    40
370
     9
100
AcDbLine
 10
1145.84751
 20
545.386425
 30
0.0
 11
1145.84751
 21
432.341125
 31
0.0
  0
LINE
  5
456
330
1F
100
AcDbEntity
  8
002
  6
HIDDEN
 62
    40
370
     9
100
AcDbLine
 10
1024.84751
 20
440.515625
 30
0.0
 11
1024.84751
 21
453.515625
 31
0.0
  0
LINE
  5
457
330
1F
100
AcDbEntity
  8
002
  6
HIDDEN
 62
    40
370
     9
100
AcDbLine
 10
1042.84751
 20
440.515625
 30
0.0
 11
1042.84751
 21
453.515625
 31
0.0
  0
LINE
  5
458
330
1F
100
AcDbEntity
  8
002
  6
HIDDEN
 62
    40
370
     9
100
AcDbLine
 10
1189.84751
 20
453.515625
 30
0.0
 11
1189.84751
 21
440.515625
 31
0.0
  0
LINE
  5
459
330
1F
100
AcDbEntity
  8
002
  6
HIDDEN
 62
    40
370
     9
100
AcDbLine
 10
1207.84751
 20
440.515625
 30
0.0
 11
1207.84751
 21
453.515625
 31
0.0
  0
LINE
  5
45A
330
1F
100
AcDbEntity
  8
002
 62
     3
370
    30
100
AcDbLine
 10
1122.84751
 20
857.515125
 30
0.0
 11
1122.84751
 21
840.515625
 31
0.0
  0
LINE
  5
45B
330
1F
100
AcDbEntity
  8
002
 62
     3
370
    30
100
AcDbLine
 10
1122.84751
 20
840.515625
 30
0.0
 11
1056.84751
 21
840.515625
 31
0.0
  0
LINE
  5
45C
330
1F
100
AcDbEntity
  8
002
 62
     3
370
    30
100
AcDbLine
 10
1056.84751
 20
840.515625
 30
0.0
 11
1056.84751
 21
857.515125
 31
0.0
  0
ARC
  5
45D
330
1F
100
AcDbEntity
  8
002
 62
     3
370
    30
100
AcDbCircle
 10
1059.84751
 20
857.515125
 30
0.0
 40
3.0
100
AcDbArc
 50
90.0
 51
180.0
  0
LINE
  5
45E
330
1F
100
AcDbEntity
  8
002
 62
     3
370
    30
100
AcDbLine
 10
1059.84751
 20
860.515125
 30
0.0
 11
1119.84751
 21
860.515125
 31
0.0
  0
ARC
  5
45F
330
1F
100
AcDbEntity
  8
002
 62
     3
370
    30
100
AcDbCircle
 10
1119.84751
 20
857.515125
 30
0.0
 40
3.0
100
AcDbArc
 50
0.0
 51
90.0
  0
LINE
  5
460
330
1F
100
AcDbEntity
  8
002
 62
     3
370
    30
100
AcDbLine
 10
1071.84851
 20
272.515625
 30
0.0
 11
1107.84751
 21
272.515625
 31
0.0
  0
LINE
  5
461
330
1F
100
AcDbEntity
  8
002
 62
     3
370
    30
100
AcDbLine
 10
1078.84751
 20
272.515625
 30
0.0
 11
1078.84751
 21
269.015625
 31
0.0
  0
LINE
  5
462
330
1F
100
AcDbEntity
  8
002
 62
     3
370
    30
100
AcDbLine
 10
1077.34751
 20
269.015625
 30
0.0
 11
1077.34751
 21
240.515625
 31
0.0
  0
LINE
  5
463
330
1F
100
AcDbEntity
  8
002
 62
     3
370
    30
100
AcDbLine
 10
1077.34751
 20
240.515625
 30
0.0
 11
1102.34751
 21
240.515625
 31
0.0
  0
LINE
  5
464
330
1F
100
AcDbEntity
  8
002
 62
     3
370
    30
100
AcDbLine
 10
1102.34751
 20
240.515625
 30
0.0
 11
1102.34751
 21
269.015625
 31
0.0
  0
LINE
  5
465
330
1F
100
AcDbEntity
  8
002
 62
     3
370
    30
100
AcDbLine
 10
1102.34751
 20
269.015625
 30
0.0
 11
1077.34751
 21
269.015625
 31
0.0
  0
LINE
  5
466
330
1F
100
AcDbEntity
  8
002
 62
     3
370
    30
100
AcDbLine
 10
1100.84751
 20
269.015625
 30
0.0
 11
1100.84751
 21
272.515625
 31
0.0
  0
LINE
  5
467
330
1F
100
AcDbEntity
  8
002
 62
    40
370
     9
100
AcDbLine
 10
1100.94751
 20
269.015625
 30
0.0
 11
1100.94751
 21
240.515625
 31
0.0
  0
LINE
  5
468
330
1F
100
AcDbEntity
  8
002
 62
    40
370
     9
100
AcDbLine
 10
1078.74751
 20
240.515625
 30
0.0
 11
1078.74751
 21
269.015625
 31
0.0
  0
LINE
  5
469
330
1F
100
AcDbEntity
  8
002
 62
     3
370
    30
100
AcDbLine
 10
1013.84751
 20
440.515625
 30
0.0
 11
1013.84751
 21
451.515625
 31
0.0
  0
ARC
  5
46A
330
1F
100
AcDbEntity
  8
002
 62
     3
370
    30
100
AcDbCircle
 10
1015.84751
 20
451.515625
 30
0.0
 40
2.0
100
AcDbArc
 50
90.0
 51
180.0
  0
LINE
  5
46B
330
1F
100
AcDbEntity
  8
002
 62
     3
370
    30
100
AcDbLine
 10
1019.84751
 20
552.515625
 30
0.0
 11
1019.84751
 21
540.515625
 31
0.0
  0
LINE
  5
46C
330
1F
100
AcDbEntity
  8
002
 62
     3
370
    30
100
AcDbLine
 10
1020.84751
 20
509.969525
 30
0.0
 11
1020.84751
 21
483.061625
 31
0.0
  0
LINE
  5
46D
330
1F
100
AcDbEntity
  8
002
 62
     3
370
    30
100
AcDbLine
 10
1020.84751
 20
488.015625
 30
0.0
 11
1009.84751
 21
488.015625
 31
0.0
  0
LINE
  5
46E
330
1F
100
AcDbEntity
  8
002
 62
     3
370
    30
100
AcDbLine
 10
1009.84751
 20
488.015625
 30
0.0
 11
1009.84751
 21
505.015625
 31
0.0
  0
LINE
  5
46F
330
1F
100
AcDbEntity
  8
002
 62
     3
370
    30
100
AcDbLine
 10
1009.84751
 20
505.015625
 30
0.0
 11
1020.84751
 21
505.015625
 31
0.0
  0
LINE
  5
470
330
1F
100
AcDbEntity
  8
002
 62
    40
370
     9
100
AcDbLine
 10
1020.84751
 20
505.015625
 30
0.0
 11
1009.84751
 21
488.015625
 31
0.0
  0
LINE
  5
471
330
1F
100
AcDbEntity
  8
002
 62
    40
370
     9
100
AcDbLine
 10
1020.84751
 20
488.015625
 30
0.0
 11
1009.84751
 21
505.015625
 31
0.0
  0
LINE
  5
472
330
1F
100
AcDbEntity
  8
002
 62
     3
370
    30
100
AcDbLine
 10
1185.61851
 20
453.515625
 30
0.0
 11
1185.61851
 21
440.515625
 31
0.0
  0
ARC
  5
473
330
1F
100
AcDbEntity
  8
002
 62
     3
370
    30
100
AcDbCircle
 10
266.091314
 20
1349.525653
 30
0.0
 40
8.0
100
AcDbArc
 50
144.160898
 51
35.846739
  0
ARC
  5
474
330
1F
100
AcDbEntity
  8
002
 62
     3
370
    30
100
AcDbCircle
 10
266.091314
 20
1467.525653
 30
0.0
 40
8.0
100
AcDbArc
 50
324.239111
 51
218.255878
  0
CIRCLE
  5
475
330
1F
100
AcDbEntity
  8
002
 62
     3
370
    30
100
AcDbCircle
 10
266.091314
 20
1408.525653
 30
0.0
 40
47.0
  0
CIRCLE
  5
476
330
1F
100
AcDbEntity
  8
002
 62
     3
370
    30
100
AcDbCircle
 10
266.091314
 20
1408.525653
 30
0.0
 40
18.0
  0
CIRCLE
  5
477
330
1F
100
AcDbEntity
  8
002
 62
     3
370
    30
100
AcDbCircle
 10
266.091314
 20
1408.525653
 30
0.0
 40
12.5
  0
CIRCLE
  5
478
330
1F
100
AcDbEntity
  8
002
 62
    40
370
     9
100
AcDbCircle
 10
266.091314
 20
1408.525653
 30
0.0
 40
11.5
  0
LINE
  5
479
330
1F
100
AcDbEntity
  8
002
 62
     3
370
    30
100
AcDbLine
 10
260.318314
 20
1457.525653
 30
0.0
 11
261.220314
 21
1456.622653
 31
0.0
  0
ARC
  5
47A
330
1F
100
AcDbEntity
  8
002
 62
     3
370
    30
100
AcDbCircle
 10
261.761314
 20
1458.065653
 30
0.0
 40
1.540730021775364
100
AcDbArc
 50
249.448306
 51
339.483127
  0
LINE
  5
47B
330
1F
100
AcDbEntity
  8
002
 62
     3
370
    30
100
AcDbLine
 10
263.204314
 20
1457.525653
 30
0.0
 11
263.204314
 21
1460.525653
 31
0.0
  0
ARC
  5
47C
330
1F
100
AcDbEntity
  8
002
 62
     3
370
    30
100
AcDbCircle
 10
261.761314
 20
1459.984653
 30
0.0
 40
1.541080789575903
100
AcDbArc
 50
20.551694
 51
110.551694
  0
LINE
  5
47D
330
1F
100
AcDbEntity
  8
002
 62
     3
370
    30
100
AcDbLine
 10
260.318314
 20
1460.525653
 30
0.0
 11
263.231314
 21
1463.438653
 31
0.0
  0
ARC
  5
47E
330
1F
100
AcDbEntity
  8
002
 62
     3
370
    30
100
AcDbCircle
 10
262.524314
 20
1464.145653
 30
0.0
 40
1.000001999998141
100
AcDbArc
 50
315.0
 51
32.005383
  0
LINE
  5
47F
330
1F
100
AcDbEntity
  8
002
 62
     3
370
    30
100
AcDbLine
 10
263.372314
 20
1464.675653
 30
0.0
 11
262.841314
 21
1465.525653
 31
0.0
  0
LINE
  5
480
330
1F
100
AcDbEntity
  8
002
 62
     3
370
    30
100
AcDbLine
 10
262.841314
 20
1465.525653
 30
0.0
 11
263.591314
 21
1468.525653
 31
0.0
  0
LINE
  5
481
330
1F
100
AcDbEntity
  8
002
 62
     3
370
    30
100
AcDbLine
 10
263.591314
 20
1468.525653
 30
0.0
 11
268.591314
 21
1468.525653
 31
0.0
  0
LINE
  5
482
330
1F
100
AcDbEntity
  8
002
 62
     3
370
    30
100
AcDbLine
 10
268.591314
 20
1468.525653
 30
0.0
 11
269.341314
 21
1465.525653
 31
0.0
  0
LINE
  5
483
330
1F
100
AcDbEntity
  8
002
 62
     3
370
    30
100
AcDbLine
 10
269.341314
 20
1465.525653
 30
0.0
 11
268.810314
 21
1464.675653
 31
0.0
  0
ARC
  5
484
330
1F
100
AcDbEntity
  8
002
 62
     3
370
    30
100
AcDbCircle
 10
269.658314
 20
1464.145653
 30
0.0
 40
0.9998489885976084
100
AcDbArc
 50
147.994617
 51
225.0
  0
LINE
  5
485
330
1F
100
AcDbEntity
  8
002
 62
     3
370
    30
100
AcDbLine
 10
268.951314
 20
1463.438653
 30
0.0
 11
271.865314
 21
1460.525653
 31
0.0
  0
LINE
  5
486
330
1F
100
AcDbEntity
  8
002
 62
     3
370
    30
100
AcDbLine
 10
271.865314
 20
1460.525653
 30
0.0
 11
271.865314
 21
1457.525653
 31
0.0
  0
LINE
  5
487
330
1F
100
AcDbEntity
  8
002
 62
     3
370
    30
100
AcDbLine
 10
271.865314
 20
1457.525653
 30
0.0
 11
270.962314
 21
1456.622653
 31
0.0
  0
LINE
  5
488
330
1F
100
AcDbEntity
  8
002
 62
     3
370
    30
100
AcDbLine
 10
270.377314
 20
1456.525653
 30
0.0
 11
261.805314
 21
1456.525653
 31
0.0
  0
LINE
  5
489
330
1F
100
AcDbEntity
  8
002
 62
     3
370
    30
100
AcDbLine
 10
262.230314
 20
1456.525653
 30
0.0
 11
262.230314
 21
1455.525653
 31
0.0
  0
ARC
  5
48A
330
1F
100
AcDbEntity
  8
002
 62
     3
370
    30
100
AcDbCircle
 10
266.091314
 20
1461.191653
 30
0.0
 40
4.666296711526233
100
AcDbArc
 50
231.779327
 51
308.220673
  0
LINE
  5
48B
330
1F
100
AcDbEntity
  8
002
 62
     3
370
    30
100
AcDbLine
 10
268.978314
 20
1457.525653
 30
0.0
 11
268.978314
 21
1460.525653
 31
0.0
  0
ARC
  5
48C
330
1F
100
AcDbEntity
  8
002
 62
     3
370
    30
100
AcDbCircle
 10
266.091314
 20
1456.858653
 30
0.0
 40
4.667082386245079
100
AcDbArc
 50
51.786922
 51
128.213078
  0
LINE
  5
48D
330
1F
100
AcDbEntity
  8
002
 62
     3
370
    30
100
AcDbLine
 10
260.318314
 20
1460.525653
 30
0.0
 11
260.318314
 21
1457.525653
 31
0.0
  0
LINE
  5
48E
330
1F
100
AcDbEntity
  8
002
 62
     3
370
    30
100
AcDbLine
 10
269.953314
 20
1455.525653
 30
0.0
 11
269.953314
 21
1456.525653
 31
0.0
  0
ARC
  5
48F
330
1F
100
AcDbEntity
  8
002
 62
     3
370
    30
100
AcDbCircle
 10
270.421314
 20
1458.065653
 30
0.0
 40
1.541080789575903
100
AcDbArc
 50
200.516873
 51
290.551694
  0
ARC
  5
490
330
1F
100
AcDbEntity
  8
002
 62
     3
370
    30
100
AcDbCircle
 10
270.421314
 20
1459.984653
 30
0.0
 40
1.541080789575903
100
AcDbArc
 50
69.448306
 51
159.448306
  0
LINE
  5
491
330
1F
100
AcDbEntity
  8
002
 62
     3
370
    30
100
AcDbLine
 10
268.389314
 20
1464.001653
 30
0.0
 11
263.794314
 21
1464.001653
 31
0.0
  0
LINE
  5
492
330
1F
100
AcDbEntity
  8
002
 62
     3
370
    30
100
AcDbLine
 10
263.591314
 20
1465.525653
 30
0.0
 11
268.591314
 21
1465.525653
 31
0.0
  0
ARC
  5
493
330
1F
100
AcDbEntity
  8
002
 62
     3
370
    30
100
AcDbCircle
 10
266.091314
 20
1467.863653
 30
0.0
 40
1.00037193083375
100
AcDbArc
 50
41.433771
 51
138.566229
  0
LINE
  5
494
330
1F
100
AcDbEntity
  8
002
 62
     3
370
    30
100
AcDbLine
 10
260.318314
 20
1359.525653
 30
0.0
 11
260.318314
 21
1356.525653
 31
0.0
  0
LINE
  5
495
330
1F
100
AcDbEntity
  8
002
 62
     3
370
    30
100
AcDbLine
 10
260.318314
 20
1356.525653
 30
0.0
 11
263.231314
 21
1353.611653
 31
0.0
  0
LINE
  5
496
330
1F
100
AcDbEntity
  8
002
 62
     3
370
    30
100
AcDbLine
 10
263.794314
 20
1353.049653
 30
0.0
 11
268.389314
 21
1353.049653
 31
0.0
  0
LINE
  5
497
330
1F
100
AcDbEntity
  8
002
 62
     3
370
    30
100
AcDbLine
 10
268.951314
 20
1353.611653
 30
0.0
 11
271.865314
 21
1356.525653
 31
0.0
  0
LINE
  5
498
330
1F
100
AcDbEntity
  8
002
 62
     3
370
    30
100
AcDbLine
 10
271.865314
 20
1356.525653
 30
0.0
 11
271.865314
 21
1359.525653
 31
0.0
  0
LINE
  5
499
330
1F
100
AcDbEntity
  8
002
 62
     3
370
    30
100
AcDbLine
 10
271.865314
 20
1359.525653
 30
0.0
 11
270.962314
 21
1360.427653
 31
0.0
  0
ARC
  5
49A
330
1F
100
AcDbEntity
  8
002
 62
     3
370
    30
100
AcDbCircle
 10
270.421314
 20
1358.984653
 30
0.0
 40
1.541080789575903
100
AcDbArc
 50
69.448306
 51
159.448306
  0
LINE
  5
49B
330
1F
100
AcDbEntity
  8
002
 62
     3
370
    30
100
AcDbLine
 10
268.978314
 20
1359.525653
 30
0.0
 11
268.978314
 21
1356.525653
 31
0.0
  0
ARC
  5
49C
330
1F
100
AcDbEntity
  8
002
 62
     3
370
    30
100
AcDbCircle
 10
270.421314
 20
1357.065653
 30
0.0
 40
1.541080789575903
100
AcDbArc
 50
200.516873
 51
290.551694
  0
ARC
  5
49D
330
1F
100
AcDbEntity
  8
002
 62
     3
370
    30
100
AcDbCircle
 10
269.658314
 20
1352.904653
 30
0.0
 40
1.000001999997949
100
AcDbArc
 50
135.0
 51
212.005383
  0
LINE
  5
49E
330
1F
100
AcDbEntity
  8
002
 62
     3
370
    30
100
AcDbLine
 10
268.810314
 20
1352.374653
 30
0.0
 11
269.341314
 21
1351.525653
 31
0.0
  0
LINE
  5
49F
330
1F
100
AcDbEntity
  8
002
 62
     3
370
    30
100
AcDbLine
 10
269.341314
 20
1351.525653
 30
0.0
 11
268.591314
 21
1348.525653
 31
0.0
  0
LINE
  5
4A0
330
1F
100
AcDbEntity
  8
002
 62
     3
370
    30
100
AcDbLine
 10
268.591314
 20
1348.525653
 30
0.0
 11
263.591314
 21
1348.525653
 31
0.0
  0
LINE
  5
4A1
330
1F
100
AcDbEntity
  8
002
 62
     3
370
    30
100
AcDbLine
 10
263.591314
 20
1348.525653
 30
0.0
 11
262.841314
 21
1351.525653
 31
0.0
  0
LINE
  5
4A2
330
1F
100
AcDbEntity
  8
002
 62
     3
370
    30
100
AcDbLine
 10
262.841314
 20
1351.525653
 30
0.0
 11
263.372314
 21
1352.374653
 31
0.0
  0
ARC
  5
4A3
330
1F
100
AcDbEntity
  8
002
 62
     3
370
    30
100
AcDbCircle
 10
262.524314
 20
1352.904653
 30
0.0
 40
0.99984898859793
100
AcDbArc
 50
327.994617
 51
45.0
  0
LINE
  5
4A4
330
1F
100
AcDbEntity
  8
002
 62
     3
370
    30
100
AcDbLine
 10
263.591314
 20
1351.525653
 30
0.0
 11
268.591314
 21
1351.525653
 31
0.0
  0
ARC
  5
4A5
330
1F
100
AcDbEntity
  8
002
 62
     3
370
    30
100
AcDbCircle
 10
266.091314
 20
1349.186653
 30
0.0
 40
0.9997104580827776
100
AcDbArc
 50
221.390802
 51
318.609198
  0
LINE
  5
4A6
330
1F
100
AcDbEntity
  8
002
 62
     3
370
    30
100
AcDbLine
 10
263.204314
 20
1356.525653
 30
0.0
 11
263.204314
 21
1359.525653
 31
0.0
  0
ARC
  5
4A7
330
1F
100
AcDbEntity
  8
002
 62
     3
370
    30
100
AcDbCircle
 10
261.761314
 20
1358.984653
 30
0.0
 40
1.541080789575903
100
AcDbArc
 50
20.551694
 51
110.551694
  0
LINE
  5
4A8
330
1F
100
AcDbEntity
  8
002
 62
     3
370
    30
100
AcDbLine
 10
261.220314
 20
1360.427653
 30
0.0
 11
260.318314
 21
1359.525653
 31
0.0
  0
LINE
  5
4A9
330
1F
100
AcDbEntity
  8
002
 62
     3
370
    30
100
AcDbLine
 10
261.805314
 20
1360.525653
 30
0.0
 11
270.377314
 21
1360.525653
 31
0.0
  0
LINE
  5
4AA
330
1F
100
AcDbEntity
  8
002
 62
     3
370
    30
100
AcDbLine
 10
269.953314
 20
1360.525653
 30
0.0
 11
269.953314
 21
1361.525653
 31
0.0
  0
ARC
  5
4AB
330
1F
100
AcDbEntity
  8
002
 62
     3
370
    30
100
AcDbCircle
 10
266.091314
 20
1355.858653
 30
0.0
 40
4.667082386245079
100
AcDbArc
 50
51.786922
 51
128.213078
  0
LINE
  5
4AC
330
1F
100
AcDbEntity
  8
002
 62
     3
370
    30
100
AcDbLine
 10
262.230314
 20
1360.525653
 30
0.0
 11
262.230314
 21
1361.525653
 31
0.0
  0
ARC
  5
4AD
330
1F
100
AcDbEntity
  8
002
 62
     3
370
    30
100
AcDbCircle
 10
266.091314
 20
1360.191653
 30
0.0
 40
4.666296711526233
100
AcDbArc
 50
231.779327
 51
308.220673
  0
ARC
  5
4AE
330
1F
100
AcDbEntity
  8
002
 62
     3
370
    30
100
AcDbCircle
 10
261.761314
 20
1357.065653
 30
0.0
 40
1.540730021775364
100
AcDbArc
 50
249.448306
 51
339.483127
  0
CIRCLE
  5
4AF
330
1F
100
AcDbEntity
  8
002
 62
     3
370
    30
100
AcDbCircle
 10
322.091314
 20
496.515625
 30
0.0
 40
19.0
  0
LINE
  5
4B0
330
1F
100
AcDbEntity
  8
002
 62
     3
370
    30
100
AcDbLine
 10
325.091314
 20
503.015568
 30
0.0
 11
319.091314
 21
503.015568
 31
0.0
  0
LINE
  5
4B1
330
1F
100
AcDbEntity
  8
002
 62
     3
370
    30
100
AcDbLine
 10
319.091314
 20
509.015568
 30
0.0
 11
325.091314
 21
509.015568
 31
0.0
  0
LINE
  5
4B2
330
1F
100
AcDbEntity
  8
002
 62
     3
370
    30
100
AcDbLine
 10
325.091314
 20
509.015568
 30
0.0
 11
325.091314
 21
503.015568
 31
0.0
  0
LINE
  5
4B3
330
1F
100
AcDbEntity
  8
002
 62
     3
370
    30
100
AcDbLine
 10
319.091314
 20
509.015568
 30
0.0
 11
319.091314
 21
503.015568
 31
0.0
  0
ARC
  5
4B4
330
1F
100
AcDbEntity
  8
002
 62
     3
370
    30
100
AcDbCircle
 10
322.091314
 20
496.515625
 30
0.0
 40
9.999943487840238
100
AcDbArc
 50
107.457705
 51
72.542295
  0
ARC
  5
4B5
330
1F
100
AcDbEntity
  8
002
 62
     3
370
    30
100
AcDbCircle
 10
322.091314
 20
496.515625
 30
0.0
 40
10.9999584731034
100
AcDbArc
 50
105.826681
 51
74.173319
  0
CIRCLE
  5
4B6
330
1F
100
AcDbEntity
  8
002
 62
     3
370
    30
100
AcDbCircle
 10
874.56931
 20
496.515625
 30
0.0
 40
19.0
  0
LINE
  5
4B7
330
1F
100
AcDbEntity
  8
002
 62
     3
370
    30
100
AcDbLine
 10
877.56931
 20
503.015568
 30
0.0
 11
871.56931
 21
503.015568
 31
0.0
  0
LINE
  5
4B8
330
1F
100
AcDbEntity
  8
002
 62
     3
370
    30
100
AcDbLine
 10
871.56931
 20
509.015568
 30
0.0
 11
877.56931
 21
509.015568
 31
0.0
  0
LINE
  5
4B9
330
1F
100
AcDbEntity
  8
002
 62
     3
370
    30
100
AcDbLine
 10
877.56931
 20
509.015568
 30
0.0
 11
877.56931
 21
503.015568
 31
0.0
  0
LINE
  5
4BA
330
1F
100
AcDbEntity
  8
002
 62
     3
370
    30
100
AcDbLine
 10
871.56931
 20
509.015568
 30
0.0
 11
871.56931
 21
503.015568
 31
0.0
  0
ARC
  5
4BB
330
1F
100
AcDbEntity
  8
002
 62
     3
370
    30
100
AcDbCircle
 10
874.56931
 20
496.515625
 30
0.0
 40
9.999943487840238
100
AcDbArc
 50
107.457705
 51
72.542295
  0
ARC
  5
4BC
330
1F
100
AcDbEntity
  8
002
 62
     3
370
    30
100
AcDbCircle
 10
874.56931
 20
496.515625
 30
0.0
 40
10.9999584731034
100
AcDbArc
 50
105.826681
 51
74.173319
  0
CIRCLE
  5
4BD
330
1F
100
AcDbEntity
  8
002
 62
     3
370
    30
100
AcDbCircle
 10
1145.84751
 20
496.515625
 30
0.0
 40
19.0
  0
LINE
  5
4BE
330
1F
100
AcDbEntity
  8
002
 62
     3
370
    30
100
AcDbLine
 10
1148.84751
 20
503.015568
 30
0.0
 11
1142.84751
 21
503.015568
 31
0.0
  0
LINE
  5
4BF
330
1F
100
AcDbEntity
  8
002
 62
     3
370
    30
100
AcDbLine
 10
1142.84751
 20
509.015568
 30
0.0
 11
1148.84751
 21
509.015568
 31
0.0
  0
LINE
  5
4C0
330
1F
100
AcDbEntity
  8
002
 62
     3
370
    30
100
AcDbLine
 10
1148.84751
 20
509.015568
 30
0.0
 11
1148.84751
 21
503.015568
 31
0.0
  0
LINE
  5
4C1
330
1F
100
AcDbEntity
  8
002
 62
     3
370
    30
100
AcDbLine
 10
1142.84751
 20
509.015568
 30
0.0
 11
1142.84751
 21
503.015568
 31
0.0
  0
ARC
  5
4C2
330
1F
100
AcDbEntity
  8
002
 62
     3
370
    30
100
AcDbCircle
 10
1145.84751
 20
496.515625
 30
0.0
 40
9.999943487840238
100
AcDbArc
 50
107.457705
 51
72.542295
  0
ARC
  5
4C3
330
1F
100
AcDbEntity
  8
002
 62
     3
370
    30
100
AcDbCircle
 10
1145.84751
 20
496.515625
 30
0.0
 40
10.9999584731034
100
AcDbArc
 50
105.826681
 51
74.173319
  0
LINE
  5
4C4
330
1F
100
AcDbEntity
  8
002
 62
     3
370
    30
100
AcDbLine
 10
646.275428
 20
1110.048502
 30
0.0
 11
646.275428
 21
1059.111464
 31
0.0
  0
LINE
  5
4C5
330
1F
100
AcDbEntity
  8
002
 62
    40
370
     9
100
AcDbLine
 10
648.636328
 20
1110.048502
 30
0.0
 11
648.636328
 21
1059.111464
 31
0.0
  0
LINE
  5
4C6
330
1F
100
AcDbEntity
  8
002
 62
     3
370
    30
100
AcDbLine
 10
682.275228
 20
1059.111464
 30
0.0
 11
682.275228
 21
1110.048502
 31
0.0
  0
LINE
  5
4C7
330
1F
100
AcDbEntity
  8
002
 62
    40
370
     9
100
AcDbLine
 10
679.914328
 20
1059.111464
 30
0.0
 11
679.914328
 21
1110.048502
 31
0.0
  0
LINE
  5
4C8
330
1F
100
AcDbEntity
  8
002
 62
     3
370
    30
100
AcDbLine
 10
964.474953
 20
1110.048502
 30
0.0
 11
964.474953
 21
1059.111464
 31
0.0
  0
LINE
  5
4C9
330
1F
100
AcDbEntity
  8
002
 62
    40
370
     9
100
AcDbLine
 10
966.835853
 20
1110.048502
 30
0.0
 11
966.835853
 21
1059.111464
 31
0.0
  0
LINE
  5
4CA
330
1F
100
AcDbEntity
  8
002
 62
     3
370
    30
100
AcDbLine
 10
1000.474753
 20
1059.111464
 30
0.0
 11
1000.474753
 21
1110.048502
 31
0.0
  0
LINE
  5
4CB
330
1F
100
AcDbEntity
  8
002
 62
    40
370
     9
100
AcDbLine
 10
998.113853
 20
1059.111464
 30
0.0
 11
998.113853
 21
1110.048502
 31
0.0
  0
LINE
  5
4CC
330
1F
100
AcDbEntity
  8
002
 62
     3
370
    30
100
AcDbLine
 10
461.341314
 20
532.515625
 30
0.0
 11
618.841314
 21
532.515625
 31
0.0
  0
ARC
  5
4CD
330
1F
100
AcDbEntity
  8
002
 62
     3
370
    30
100
AcDbCircle
 10
612.091314
 20
458.531325
 30
0.0
 40
2.0
100
AcDbArc
 50
97.180804
 51
180.0
  0
LINE
  5
4CE
330
1F
100
AcDbEntity
  8
002
 62
     3
370
    30
100
AcDbLine
 10
610.091314
 20
458.531325
 30
0.0
 11
610.091314
 21
455.515625
 31
0.0
  0
ARC
  5
4CF
330
1F
100
AcDbEntity
  8
002
 62
     3
370
    30
100
AcDbCircle
 10
612.091314
 20
455.515625
 30
0.0
 40
2.0
100
AcDbArc
 50
180.0
 51
270.0
  0
LINE
  5
4D0
330
1F
100
AcDbEntity
  8
002
 62
     3
370
    30
100
AcDbLine
 10
613.091314
 20
453.515625
 30
0.0
 11
467.091314
 21
453.515625
 31
0.0
  0
ARC
  5
4D1
330
1F
100
AcDbEntity
  8
002
 62
     3
370
    30
100
AcDbCircle
 10
467.091314
 20
451.515625
 30
0.0
 40
2.0
100
AcDbArc
 50
90.0
 51
180.0
  0
LINE
  5
4D2
330
1F
100
AcDbEntity
  8
002
 62
     3
370
    30
100
AcDbLine
 10
465.091314
 20
451.515625
 30
0.0
 11
465.091314
 21
440.515625
 31
0.0
  0
LINE
  5
4D3
330
1F
100
AcDbEntity
  8
002
 62
     3
370
    30
100
AcDbLine
 10
465.091314
 20
440.515625
 30
0.0
 11
615.091314
 21
440.515625
 31
0.0
  0
LINE
  5
4D4
330
1F
100
AcDbEntity
  8
002
 62
     3
370
    30
100
AcDbLine
 10
615.091314
 20
440.515625
 30
0.0
 11
615.091314
 21
451.515625
 31
0.0
  0
ARC
  5
4D5
330
1F
100
AcDbEntity
  8
002
 62
     3
370
    30
100
AcDbCircle
 10
613.091314
 20
451.515625
 30
0.0
 40
2.0
100
AcDbArc
 50
0.0
 51
90.0
  0
LINE
  5
4D6
330
1F
100
AcDbEntity
  8
002
 62
     3
370
    30
100
AcDbLine
 10
611.841314
 20
460.515625
 30
0.0
 11
611.841314
 21
532.515625
 31
0.0
  0
LINE
  5
4D7
330
1F
100
AcDbEntity
  8
002
 62
     3
370
    30
100
AcDbLine
 10
610.091314
 20
536.315225
 30
0.0
 11
610.091314
 21
552.515625
 31
0.0
  0
LINE
  5
4D8
330
1F
100
AcDbEntity
  8
002
 62
     3
370
    30
100
AcDbLine
 10
470.091314
 20
552.515625
 30
0.0
 11
470.091314
 21
536.315225
 31
0.0
  0
ARC
  5
4D9
330
1F
100
AcDbEntity
  8
002
 62
     3
370
    30
100
AcDbCircle
 10
465.091314
 20
536.315225
 30
0.0
 40
5.0
100
AcDbArc
 50
310.542131
 51
0.0
  0
LINE
  5
4DA
330
1F
100
AcDbEntity
  8
002
 62
     3
370
    30
100
AcDbLine
 10
468.341314
 20
532.515625
 30
0.0
 11
468.341314
 21
460.515625
 31
0.0
  0
LINE
  5
4DB
330
1F
100
AcDbEntity
  8
002
 62
     3
370
    30
100
AcDbLine
 10
470.091314
 20
458.531325
 30
0.0
 11
470.091314
 21
455.515625
 31
0.0
  0
ARC
  5
4DC
330
1F
100
AcDbEntity
  8
002
 62
     3
370
    30
100
AcDbCircle
 10
468.091314
 20
455.515625
 30
0.0
 40
2.0
100
AcDbArc
 50
270.0
 51
0.0
  0
ARC
  5
4DD
330
1F
100
AcDbEntity
  8
002
 62
     3
370
    30
100
AcDbCircle
 10
468.091314
 20
458.531325
 30
0.0
 40
1.999986622455335
100
AcDbArc
 50
0.0
 51
82.819196
  0
ARC
  5
4DE
330
1F
100
AcDbEntity
  8
002
 62
     3
370
    30
100
AcDbCircle
 10
495.397314
 20
458.515625
 30
0.0
 40
4.999989280988523
100
AcDbArc
 50
270.0
 51
356.377632
  0
LINE
  5
4DF
330
1F
100
AcDbEntity
  8
002
 62
     3
370
    30
100
AcDbLine
 10
500.387314
 20
458.191325
 30
0.0
 11
505.095314
 21
530.645325
 31
0.0
  0
LINE
  5
4E0
330
1F
100
AcDbEntity
  8
002
 62
     3
370
    30
100
AcDbLine
 10
505.091314
 20
530.515625
 30
0.0
 11
505.091314
 21
458.515625
 31
0.0
  0
ARC
  5
4E1
330
1F
100
AcDbEntity
  8
002
 62
     3
370
    30
100
AcDbCircle
 10
500.091314
 20
458.515625
 30
0.0
 40
5.0
100
AcDbArc
 50
270.0
 51
0.0
  0
LINE
  5
4E2
330
1F
100
AcDbEntity
  8
002
 62
     3
370
    30
100
AcDbLine
 10
579.795314
 20
458.191325
 30
0.0
 11
575.087314
 21
530.645325
 31
0.0
  0
ARC
  5
4E3
330
1F
100
AcDbEntity
  8
002
 62
     3
370
    30
100
AcDbCircle
 10
573.091314
 20
530.515625
 30
0.0
 40
2.0
100
AcDbArc
 50
0.0
 51
90.0
  0
LINE
  5
4E4
330
1F
100
AcDbEntity
  8
002
 62
     3
370
    30
100
AcDbLine
 10
575.091314
 20
530.515625
 30
0.0
 11
575.091314
 21
458.515625
 31
0.0
  0
ARC
  5
4E5
330
1F
100
AcDbEntity
  8
002
 62
     3
370
    30
100
AcDbCircle
 10
580.091314
 20
458.515625
 30
0.0
 40
5.0
100
AcDbArc
 50
180.0
 51
270.0
  0
ARC
  5
4E6
330
1F
100
AcDbEntity
  8
002
 62
     3
370
    30
100
AcDbCircle
 10
584.784314
 20
458.515625
 30
0.0
 40
5.0
100
AcDbArc
 50
183.622368
 51
270.0
  0
LINE
  5
4E7
330
1F
100
AcDbEntity
  8
002
 62
     3
370
    30
100
AcDbLine
 10
565.591314
 20
480.215325
 30
0.0
 11
514.591314
 21
480.215325
 31
0.0
  0
LINE
  5
4E8
330
1F
100
AcDbEntity
  8
002
 62
     3
370
    30
100
AcDbLine
 10
514.591314
 20
481.063725
 30
0.0
 11
565.591314
 21
481.063725
 31
0.0
  0
ARC
  5
4E9
330
1F
100
AcDbEntity
  8
002
 62
     3
370
    30
100
AcDbCircle
 10
565.591314
 20
483.063725
 30
0.0
 40
2.0
100
AcDbArc
 50
270.0
 51
0.0
  0
LINE
  5
4EA
330
1F
100
AcDbEntity
  8
002
 62
     3
370
    30
100
AcDbLine
 10
567.591314
 20
483.063725
 30
0.0
 11
567.591314
 21
511.664225
 31
0.0
  0
ARC
  5
4EB
330
1F
100
AcDbEntity
  8
002
 62
     3
370
    30
100
AcDbCircle
 10
565.591314
 20
511.664225
 30
0.0
 40
2.0
100
AcDbArc
 50
0.0
 51
90.0
  0
LINE
  5
4EC
330
1F
100
AcDbEntity
  8
002
 62
     3
370
    30
100
AcDbLine
 10
565.591314
 20
513.664225
 30
0.0
 11
514.591314
 21
513.664225
 31
0.0
  0
ARC
  5
4ED
330
1F
100
AcDbEntity
  8
002
 62
     3
370
    30
100
AcDbCircle
 10
514.591314
 20
511.664225
 30
0.0
 40
2.0
100
AcDbArc
 50
90.0
 51
180.0
  0
LINE
  5
4EE
330
1F
100
AcDbEntity
  8
002
 62
     3
370
    30
100
AcDbLine
 10
512.591314
 20
511.664225
 30
0.0
 11
512.591314
 21
483.063725
 31
0.0
  0
ARC
  5
4EF
330
1F
100
AcDbEntity
  8
002
 62
     3
370
    30
100
AcDbCircle
 10
514.591314
 20
483.063725
 30
0.0
 40
2.0
100
AcDbArc
 50
180.0
 51
270.0
  0
ARC
  5
4F0
330
1F
100
AcDbEntity
  8
002
 62
     3
370
    30
100
AcDbCircle
 10
514.591314
 20
482.215325
 30
0.0
 40
2.0
100
AcDbArc
 50
180.0
 51
270.0
  0
ARC
  5
4F1
330
1F
100
AcDbEntity
  8
002
 62
     3
370
    30
100
AcDbCircle
 10
510.591314
 20
482.215325
 30
0.0
 40
2.0
100
AcDbArc
 50
270.0
 51
0.0
  0
ARC
  5
4F2
330
1F
100
AcDbEntity
  8
002
 62
     3
370
    30
100
AcDbCircle
 10
507.091314
 20
530.515625
 30
0.0
 40
2.0
100
AcDbArc
 50
90.0
 51
180.0
  0
LINE
  5
4F3
330
1F
100
AcDbEntity
  8
002
 62
     3
370
    30
100
AcDbLine
 10
470.091314
 20
540.515625
 30
0.0
 11
610.091314
 21
540.515625
 31
0.0
  0
ARC
  5
4F4
330
1F
100
AcDbEntity
  8
002
 62
     3
370
    30
100
AcDbCircle
 10
615.091314
 20
536.315225
 30
0.0
 40
4.999946015708525
100
AcDbArc
 50
180.0
 51
229.457869
  0
ARC
  5
4F5
330
1F
100
AcDbEntity
  8
002
 62
     3
370
    30
100
AcDbCircle
 10
569.591314
 20
482.215325
 30
0.0
 40
2.0
100
AcDbArc
 50
180.0
 51
270.0
  0
ARC
  5
4F6
330
1F
100
AcDbEntity
  8
002
 62
     3
370
    30
100
AcDbCircle
 10
565.591314
 20
482.215325
 30
0.0
 40
2.0
100
AcDbArc
 50
270.0
 51
0.0
  0
LINE
  5
4F7
330
1F
100
AcDbEntity
  8
003
  6
CENTER
 62
    40
370
     9
100
AcDbLine
 10
421.988314
 20
496.515625
 30
0.0
 11
662.630314
 21
496.515625
 31
0.0
  0
LINE
  5
4F8
330
1F
100
AcDbEntity
  8
003
  6
CENTER
 62
    40
370
     9
100
AcDbLine
 10
597.091314
 20
460.515625
 30
0.0
 11
597.091314
 21
432.797025
 31
0.0
  0
LINE
  5
4F9
330
1F
100
AcDbEntity
  8
003
  6
HIDDEN
 62
    40
370
     9
100
AcDbLine
 10
588.091314
 20
440.515625
 30
0.0
 11
588.091314
 21
453.515625
 31
0.0
  0
LINE
  5
4FA
330
1F
100
AcDbEntity
  8
003
  6
HIDDEN
 62
    40
370
     9
100
AcDbLine
 10
492.091314
 20
440.515625
 30
0.0
 11
492.091314
 21
453.515625
 31
0.0
  0
LINE
  5
4FB
330
1F
100
AcDbEntity
  8
003
  6
CENTER
 62
    40
370
     9
100
AcDbLine
 10
483.091314
 20
460.515625
 30
0.0
 11
483.091314
 21
432.797025
 31
0.0
  0
LINE
  5
4FC
330
1F
100
AcDbEntity
  8
003
  6
HIDDEN
 62
    40
370
     9
100
AcDbLine
 10
474.091314
 20
440.515625
 30
0.0
 11
474.091314
 21
453.515625
 31
0.0
  0
LINE
  5
4FD
330
1F
100
AcDbEntity
  8
003
  6
HIDDEN
 62
    40
370
     9
100
AcDbLine
 10
606.091314
 20
453.515625
 30
0.0
 11
606.091314
 21
440.515625
 31
0.0
  0
LINE
  5
4FE
330
1F
100
AcDbEntity
  8
002
 62
     3
370
    30
100
AcDbLine
 10
585.091314
 20
440.515625
 30
0.0
 11
585.091314
 21
436.015625
 31
0.0
  0
LINE
  5
4FF
330
1F
100
AcDbEntity
  8
002
 62
     3
370
    30
100
AcDbLine
 10
585.091314
 20
436.015625
 30
0.0
 11
495.091314
 21
436.015625
 31
0.0
  0
LINE
  5
500
330
1F
100
AcDbEntity
  8
002
 62
     3
370
    30
100
AcDbLine
 10
495.091314
 20
436.015625
 30
0.0
 11
495.091314
 21
440.515625
 31
0.0
  0
LINE
  5
501
330
1F
100
AcDbEntity
  8
002
 62
     3
370
    30
100
AcDbLine
 10
496.591314
 20
436.015625
 30
0.0
 11
496.591314
 21
430.015625
 31
0.0
  0
LINE
  5
502
330
1F
100
AcDbEntity
  8
002
 62
     3
370
    30
100
AcDbLine
 10
506.591314
 20
430.015625
 30
0.0
 11
506.591314
 21
436.015625
 31
0.0
  0
LINE
  5
503
330
1F
100
AcDbEntity
  8
002
 62
     3
370
    30
100
AcDbLine
 10
506.591314
 20
430.015625
 30
0.0
 11
496.591314
 21
430.015625
 31
0.0
  0
LINE
  5
504
330
1F
100
AcDbEntity
  8
002
 62
     3
370
    30
100
AcDbLine
 10
503.926014
 20
430.015625
 30
0.0
 11
505.091314
 21
385.515625
 31
0.0
  0
LINE
  5
505
330
1F
100
AcDbEntity
  8
002
 62
     3
370
    30
100
AcDbLine
 10
505.091314
 20
385.515625
 30
0.0
 11
575.091314
 21
385.515625
 31
0.0
  0
LINE
  5
506
330
1F
100
AcDbEntity
  8
002
 62
     3
370
    30
100
AcDbLine
 10
575.091314
 20
385.515625
 30
0.0
 11
576.256514
 21
430.015625
 31
0.0
  0
LINE
  5
507
330
1F
100
AcDbEntity
  8
002
 62
     3
370
    30
100
AcDbLine
 10
573.591314
 20
430.015625
 30
0.0
 11
583.591314
 21
430.015625
 31
0.0
  0
LINE
  5
508
330
1F
100
AcDbEntity
  8
002
 62
     3
370
    30
100
AcDbLine
 10
573.591314
 20
430.015625
 30
0.0
 11
573.591314
 21
436.015625
 31
0.0
  0
LINE
  5
509
330
1F
100
AcDbEntity
  8
002
 62
     3
370
    30
100
AcDbLine
 10
583.591314
 20
430.015625
 30
0.0
 11
583.591314
 21
436.015625
 31
0.0
  0
LINE
  5
50A
330
1F
100
AcDbEntity
  8
002
 62
     3
370
    30
100
AcDbLine
 10
545.091314
 20
436.015625
 30
0.0
 11
545.091314
 21
430.015625
 31
0.0
  0
LINE
  5
50B
330
1F
100
AcDbEntity
  8
002
 62
     3
370
    30
100
AcDbLine
 10
535.091314
 20
430.015625
 30
0.0
 11
535.091314
 21
436.015625
 31
0.0
  0
LINE
  5
50C
330
1F
100
AcDbEntity
  8
002
 62
     3
370
    30
100
AcDbLine
 10
535.091314
 20
430.015625
 30
0.0
 11
545.091314
 21
430.015625
 31
0.0
  0
LINE
  5
50D
330
1F
100
AcDbEntity
  8
002
  6
CENTER
 62
    40
370
     9
100
AcDbLine
 10
578.591314
 20
426.964425
 30
0.0
 11
578.591314
 21
440.515625
 31
0.0
  0
LINE
  5
50E
330
1F
100
AcDbEntity
  8
002
  6
CENTER
 62
    40
370
     9
100
AcDbLine
 10
501.591314
 20
440.515625
 30
0.0
 11
501.591314
 21
426.964425
 31
0.0
  0
LINE
  5
50F
330
1F
100
AcDbEntity
  8
002
 62
     3
370
    30
100
AcDbLine
 10
573.091314
 20
200.515625
 30
0.0
 11
507.091314
 21
200.515625
 31
0.0
  0
LINE
  5
510
330
1F
100
AcDbEntity
  8
002
 62
     3
370
    30
100
AcDbLine
 10
507.091314
 20
200.515625
 30
0.0
 11
507.091314
 21
183.515625
 31
0.0
  0
ARC
  5
511
330
1F
100
AcDbEntity
  8
002
 62
     3
370
    30
100
AcDbCircle
 10
510.091314
 20
183.515625
 30
0.0
 40
3.0
100
AcDbArc
 50
180.0
 51
270.0
  0
LINE
  5
512
330
1F
100
AcDbEntity
  8
002
 62
     3
370
    30
100
AcDbLine
 10
510.091314
 20
180.515625
 30
0.0
 11
570.091314
 21
180.515625
 31
0.0
  0
ARC
  5
513
330
1F
100
AcDbEntity
  8
002
 62
     3
370
    30
100
AcDbCircle
 10
570.091314
 20
183.515625
 30
0.0
 40
3.0
100
AcDbArc
 50
270.0
 51
0.0
  0
LINE
  5
514
330
1F
100
AcDbEntity
  8
002
 62
     3
370
    30
100
AcDbLine
 10
573.091314
 20
183.515625
 30
0.0
 11
573.091314
 21
200.515625
 31
0.0
  0
LINE
  5
515
330
1F
100
AcDbEntity
  8
002
 62
     3
370
    30
100
AcDbLine
 10
447.091314
 20
499.515625
 30
0.0
 11
425.091314
 21
499.515625
 31
0.0
  0
LINE
  5
516
330
1F
100
AcDbEntity
  8
002
 62
     3
370
    30
100
AcDbLine
 10
447.091314
 20
493.515625
 30
0.0
 11
425.091314
 21
493.515625
 31
0.0
  0
LINE
  5
517
330
1F
100
AcDbEntity
  8
002
 62
     3
370
    30
100
AcDbLine
 10
461.341314
 20
460.515625
 30
0.0
 11
461.341314
 21
532.515625
 31
0.0
  0
LINE
  5
518
330
1F
100
AcDbEntity
  8
002
 62
     3
370
    30
100
AcDbLine
 10
461.341314
 20
507.515625
 30
0.0
 11
452.091314
 21
507.515625
 31
0.0
  0
LINE
  5
519
330
1F
100
AcDbEntity
  8
002
 62
     3
370
    30
100
AcDbLine
 10
452.091314
 20
485.515625
 30
0.0
 11
461.341314
 21
485.515625
 31
0.0
  0
LINE
  5
51A
330
1F
100
AcDbEntity
  8
002
 62
     3
370
    30
100
AcDbLine
 10
452.091314
 20
485.515625
 30
0.0
 11
452.091314
 21
507.515625
 31
0.0
  0
LINE
  5
51B
330
1F
100
AcDbEntity
  8
002
 62
     3
370
    30
100
AcDbLine
 10
452.091314
 20
506.515625
 30
0.0
 11
426.091314
 21
506.515625
 31
0.0
  0
LINE
  5
51C
330
1F
100
AcDbEntity
  8
002
 62
     3
370
    30
100
AcDbLine
 10
426.091314
 20
506.515625
 30
0.0
 11
425.091314
 21
505.515625
 31
0.0
  0
LINE
  5
51D
330
1F
100
AcDbEntity
  8
002
 62
     3
370
    30
100
AcDbLine
 10
425.091314
 20
505.515625
 30
0.0
 11
425.091314
 21
487.515625
 31
0.0
  0
LINE
  5
51E
330
1F
100
AcDbEntity
  8
002
 62
     3
370
    30
100
AcDbLine
 10
425.091314
 20
487.515625
 30
0.0
 11
426.091314
 21
486.515625
 31
0.0
  0
LINE
  5
51F
330
1F
100
AcDbEntity
  8
002
 62
     3
370
    30
100
AcDbLine
 10
426.091314
 20
486.515625
 30
0.0
 11
452.091314
 21
486.515625
 31
0.0
  0
ARC
  5
520
330
1F
100
AcDbEntity
  8
002
 62
     3
370
    30
100
AcDbCircle
 10
447.091314
 20
496.515625
 30
0.0
 40
3.0
100
AcDbArc
 50
270.0
 51
90.0
  0
LINE
  5
521
330
1F
100
AcDbEntity
  8
002
 62
     3
370
    30
100
AcDbLine
 10
447.091314
 20
493.515625
 30
0.0
 11
447.091314
 21
499.515625
 31
0.0
  0
LINE
  5
522
330
1F
100
AcDbEntity
  8
002
 62
     3
370
    30
100
AcDbLine
 10
426.091314
 20
493.515625
 30
0.0
 11
426.091314
 21
486.515625
 31
0.0
  0
LINE
  5
523
330
1F
100
AcDbEntity
  8
002
 62
     3
370
    30
100
AcDbLine
 10
426.091314
 20
499.515625
 30
0.0
 11
426.091314
 21
506.515625
 31
0.0
  0
LINE
  5
524
330
1F
100
AcDbEntity
  8
002
 62
     3
370
    30
100
AcDbLine
 10
468.341314
 20
460.515625
 30
0.0
 11
461.341314
 21
460.515625
 31
0.0
  0
LINE
  5
525
330
1F
100
AcDbEntity
  8
002
 62
     3
370
    30
100
AcDbLine
 10
633.091314
 20
499.515625
 30
0.0
 11
655.091314
 21
499.515625
 31
0.0
  0
LINE
  5
526
330
1F
100
AcDbEntity
  8
002
 62
     3
370
    30
100
AcDbLine
 10
633.091314
 20
493.515625
 30
0.0
 11
655.091314
 21
493.515625
 31
0.0
  0
LINE
  5
527
330
1F
100
AcDbEntity
  8
002
 62
     3
370
    30
100
AcDbLine
 10
618.841314
 20
460.515625
 30
0.0
 11
618.841314
 21
532.515625
 31
0.0
  0
LINE
  5
528
330
1F
100
AcDbEntity
  8
002
 62
     3
370
    30
100
AcDbLine
 10
618.841314
 20
507.515625
 30
0.0
 11
628.091314
 21
507.515625
 31
0.0
  0
LINE
  5
529
330
1F
100
AcDbEntity
  8
002
 62
     3
370
    30
100
AcDbLine
 10
628.091314
 20
485.515625
 30
0.0
 11
618.841314
 21
485.515625
 31
0.0
  0
LINE
  5
52A
330
1F
100
AcDbEntity
  8
002
 62
     3
370
    30
100
AcDbLine
 10
628.091314
 20
485.515625
 30
0.0
 11
628.091314
 21
507.515625
 31
0.0
  0
LINE
  5
52B
330
1F
100
AcDbEntity
  8
002
 62
     3
370
    30
100
AcDbLine
 10
628.091314
 20
506.515625
 30
0.0
 11
654.091314
 21
506.515625
 31
0.0
  0
LINE
  5
52C
330
1F
100
AcDbEntity
  8
002
 62
     3
370
    30
100
AcDbLine
 10
654.091314
 20
506.515625
 30
0.0
 11
655.091314
 21
505.515625
 31
0.0
  0
LINE
  5
52D
330
1F
100
AcDbEntity
  8
002
 62
     3
370
    30
100
AcDbLine
 10
655.091314
 20
505.515625
 30
0.0
 11
655.091314
 21
487.515625
 31
0.0
  0
LINE
  5
52E
330
1F
100
AcDbEntity
  8
002
 62
     3
370
    30
100
AcDbLine
 10
655.091314
 20
487.515625
 30
0.0
 11
654.091314
 21
486.515625
 31
0.0
  0
LINE
  5
52F
330
1F
100
AcDbEntity
  8
002
 62
     3
370
    30
100
AcDbLine
 10
654.091314
 20
486.515625
 30
0.0
 11
628.091314
 21
486.515625
 31
0.0
  0
ARC
  5
530
330
1F
100
AcDbEntity
  8
002
 62
     3
370
    30
100
AcDbCircle
 10
633.091314
 20
496.515625
 30
0.0
 40
3.0
100
AcDbArc
 50
90.0
 51
270.0
  0
LINE
  5
531
330
1F
100
AcDbEntity
  8
002
 62
     3
370
    30
100
AcDbLine
 10
633.091314
 20
493.515625
 30
0.0
 11
633.091314
 21
499.515625
 31
0.0
  0
LINE
  5
532
330
1F
100
AcDbEntity
  8
002
 62
     3
370
    30
100
AcDbLine
 10
654.091314
 20
493.515625
 30
0.0
 11
654.091314
 21
486.515625
 31
0.0
  0
LINE
  5
533
330
1F
100
AcDbEntity
  8
002
 62
     3
370
    30
100
AcDbLine
 10
654.091314
 20
499.515625
 30
0.0
 11
654.091314
 21
506.515625
 31
0.0
  0
LINE
  5
534
330
1F
100
AcDbEntity
  8
002
 62
     3
370
    30
100
AcDbLine
 10
611.841314
 20
460.515625
 30
0.0
 11
618.841314
 21
460.515625
 31
0.0
  0
LINE
  5
535
330
1F
100
AcDbEntity
  8
002
 62
     3
370
    30
100
AcDbLine
 10
489.091314
 20
562.515625
 30
0.0
 11
473.091314
 21
562.515625
 31
0.0
  0
LINE
  5
536
330
1F
100
AcDbEntity
  8
002
 62
     3
370
    30
100
AcDbLine
 10
489.091314
 20
562.515625
 30
0.0
 11
489.091314
 21
552.515625
 31
0.0
  0
LINE
  5
537
330
1F
100
AcDbEntity
  8
002
 62
     3
370
    30
100
AcDbLine
 10
587.091314
 20
651.515625
 30
0.0
 11
493.091314
 21
651.515625
 31
0.0
  0
LINE
  5
538
330
1F
100
AcDbEntity
  8
002
 62
     3
370
    30
100
AcDbLine
 10
610.091314
 20
552.515625
 30
0.0
 11
470.091314
 21
552.515625
 31
0.0
  0
LINE
  5
539
330
1F
100
AcDbEntity
  8
002
 62
     3
370
    30
100
AcDbLine
 10
473.091314
 20
552.515625
 30
0.0
 11
473.091314
 21
562.515625
 31
0.0
  0
LINE
  5
53A
330
1F
100
AcDbEntity
  8
002
  6
CENTER
 62
    40
370
     9
100
AcDbLine
 10
481.091314
 20
564.715825
 30
0.0
 11
481.091314
 21
538.193525
 31
0.0
  0
LINE
  5
53B
330
1F
100
AcDbEntity
  8
002
 62
     3
370
    30
100
AcDbLine
 10
552.590714
 20
850.515125
 30
0.0
 11
552.590714
 21
822.015125
 31
0.0
  0
LINE
  5
53C
330
1F
100
AcDbEntity
  8
002
 62
     3
370
    30
100
AcDbLine
 10
552.590714
 20
822.015125
 30
0.0
 11
527.590714
 21
822.015125
 31
0.0
  0
LINE
  5
53D
330
1F
100
AcDbEntity
  8
002
 62
     3
370
    30
100
AcDbLine
 10
527.590714
 20
822.015125
 30
0.0
 11
527.590714
 21
850.515125
 31
0.0
  0
LINE
  5
53E
330
1F
100
AcDbEntity
  8
002
 62
     3
370
    30
100
AcDbLine
 10
527.590714
 20
850.515125
 30
0.0
 11
552.590714
 21
850.515125
 31
0.0
  0
LINE
  5
53F
330
1F
100
AcDbEntity
  8
002
 62
     3
370
    30
100
AcDbLine
 10
551.090714
 20
822.015125
 30
0.0
 11
551.090714
 21
818.515125
 31
0.0
  0
LINE
  5
540
330
1F
100
AcDbEntity
  8
002
 62
     3
370
    30
100
AcDbLine
 10
558.091314
 20
818.515125
 30
0.0
 11
522.091514
 21
818.515125
 31
0.0
  0
LINE
  5
541
330
1F
100
AcDbEntity
  8
002
 62
     3
370
    30
100
AcDbLine
 10
529.090714
 20
818.515125
 30
0.0
 11
529.090714
 21
822.015125
 31
0.0
  0
LINE
  5
542
330
1F
100
AcDbEntity
  8
002
 62
    40
370
     9
100
AcDbLine
 10
528.990714
 20
850.515125
 30
0.0
 11
528.990714
 21
822.015125
 31
0.0
  0
LINE
  5
543
330
1F
100
AcDbEntity
  8
002
 62
    40
370
     9
100
AcDbLine
 10
551.190714
 20
822.015125
 30
0.0
 11
551.190714
 21
850.515125
 31
0.0
  0
LINE
  5
544
330
1F
100
AcDbEntity
  8
002
 62
     3
370
    30
100
AcDbLine
 10
518.591046
 20
562.515625
 30
0.0
 11
502.591046
 21
562.515625
 31
0.0
  0
LINE
  5
545
330
1F
100
AcDbEntity
  8
002
 62
     3
370
    30
100
AcDbLine
 10
518.591046
 20
562.515625
 30
0.0
 11
518.591046
 21
552.515625
 31
0.0
  0
LINE
  5
546
330
1F
100
AcDbEntity
  8
002
 62
     3
370
    30
100
AcDbLine
 10
502.591046
 20
552.515625
 30
0.0
 11
502.591046
 21
562.515625
 31
0.0
  0
LINE
  5
547
330
1F
100
AcDbEntity
  8
002
  6
CENTER
 62
    40
370
     9
100
AcDbLine
 10
510.591046
 20
564.715825
 30
0.0
 11
510.591046
 21
538.193525
 31
0.0
  0
LINE
  5
548
330
1F
100
AcDbEntity
  8
002
 62
     3
370
    30
100
AcDbLine
 10
591.091314
 20
562.515625
 30
0.0
 11
607.091314
 21
562.515625
 31
0.0
  0
LINE
  5
549
330
1F
100
AcDbEntity
  8
002
 62
     3
370
    30
100
AcDbLine
 10
591.091314
 20
562.515625
 30
0.0
 11
591.091314
 21
552.515625
 31
0.0
  0
LINE
  5
54A
330
1F
100
AcDbEntity
  8
002
 62
     3
370
    30
100
AcDbLine
 10
607.091314
 20
552.515625
 30
0.0
 11
607.091314
 21
562.515625
 31
0.0
  0
LINE
  5
54B
330
1F
100
AcDbEntity
  8
002
  6
CENTER
 62
    40
370
     9
100
AcDbLine
 10
599.091314
 20
564.715825
 30
0.0
 11
599.091314
 21
538.193525
 31
0.0
  0
LINE
  5
54C
330
1F
100
AcDbEntity
  8
002
 62
     3
370
    30
100
AcDbLine
 10
561.591583
 20
562.515625
 30
0.0
 11
577.591583
 21
562.515625
 31
0.0
  0
LINE
  5
54D
330
1F
100
AcDbEntity
  8
002
 62
     3
370
    30
100
AcDbLine
 10
561.591583
 20
562.515625
 30
0.0
 11
561.591583
 21
552.515625
 31
0.0
  0
LINE
  5
54E
330
1F
100
AcDbEntity
  8
002
 62
     3
370
    30
100
AcDbLine
 10
577.591583
 20
552.515625
 30
0.0
 11
577.591583
 21
562.515625
 31
0.0
  0
LINE
  5
54F
330
1F
100
AcDbEntity
  8
002
  6
CENTER
 62
    40
370
     9
100
AcDbLine
 10
569.591583
 20
564.715825
 30
0.0
 11
569.591583
 21
538.193525
 31
0.0
  0
LINE
  5
550
330
1F
100
AcDbEntity
  8
002
 62
     3
370
    30
100
AcDbLine
 10
518.591046
 20
555.046425
 30
0.0
 11
561.591583
 21
555.046425
 31
0.0
  0
LINE
  5
551
330
1F
100
AcDbEntity
  8
002
 62
     3
370
    30
100
AcDbLine
 10
492.091314
 20
555.046425
 30
0.0
 11
502.591046
 21
555.046425
 31
0.0
  0
LINE
  5
552
330
1F
100
AcDbEntity
  8
002
 62
     3
370
    30
100
AcDbLine
 10
493.091314
 20
651.515625
 30
0.0
 11
493.091314
 21
555.046425
 31
0.0
  0
LINE
  5
553
330
1F
100
AcDbEntity
  8
003
 62
     3
370
    30
100
AcDbLine
 10
492.091314
 20
552.515625
 30
0.0
 11
492.091314
 21
555.046425
 31
0.0
  0
LINE
  5
554
330
1F
100
AcDbEntity
  8
002
 62
     3
370
    30
100
AcDbLine
 10
577.591583
 20
555.046425
 30
0.0
 11
588.091314
 21
555.046425
 31
0.0
  0
LINE
  5
555
330
1F
100
AcDbEntity
  8
002
 62
     3
370
    30
100
AcDbLine
 10
587.091314
 20
555.046425
 30
0.0
 11
587.091314
 21
651.515625
 31
0.0
  0
LINE
  5
556
330
1F
100
AcDbEntity
  8
003
 62
     3
370
    30
100
AcDbLine
 10
588.091314
 20
552.515625
 30
0.0
 11
588.091314
 21
555.046425
 31
0.0
  0
LINE
  5
557
330
1F
100
AcDbEntity
  8
002
 62
     3
370
    30
100
AcDbLine
 10
491.091314
 20
627.288625
 30
0.0
 11
488.091314
 21
627.288625
 31
0.0
  0
LINE
  5
558
330
1F
100
AcDbEntity
  8
002
 62
     3
370
    30
100
AcDbLine
 10
488.091314
 20
627.288625
 30
0.0
 11
485.177314
 21
624.375625
 31
0.0
  0
LINE
  5
559
330
1F
100
AcDbEntity
  8
002
 62
     3
370
    30
100
AcDbLine
 10
484.615314
 20
623.812625
 30
0.0
 11
484.615314
 21
619.217625
 31
0.0
  0
LINE
  5
55A
330
1F
100
AcDbEntity
  8
002
 62
     3
370
    30
100
AcDbLine
 10
485.177314
 20
618.655625
 30
0.0
 11
488.091314
 21
615.741625
 31
0.0
  0
LINE
  5
55B
330
1F
100
AcDbEntity
  8
002
 62
     3
370
    30
100
AcDbLine
 10
488.091314
 20
615.741625
 30
0.0
 11
491.091314
 21
615.741625
 31
0.0
  0
LINE
  5
55C
330
1F
100
AcDbEntity
  8
002
 62
     3
370
    30
100
AcDbLine
 10
491.091314
 20
615.741625
 30
0.0
 11
491.993314
 21
616.644625
 31
0.0
  0
ARC
  5
55D
330
1F
100
AcDbEntity
  8
002
 62
     3
370
    30
100
AcDbCircle
 10
490.550314
 20
617.185625
 30
0.0
 40
1.541080789575903
100
AcDbArc
 50
339.448306
 51
69.448306
  0
LINE
  5
55E
330
1F
100
AcDbEntity
  8
002
 62
     3
370
    30
100
AcDbLine
 10
491.091314
 20
618.628625
 30
0.0
 11
488.091314
 21
618.628625
 31
0.0
  0
ARC
  5
55F
330
1F
100
AcDbEntity
  8
002
 62
     3
370
    30
100
AcDbCircle
 10
488.631314
 20
617.185625
 30
0.0
 40
1.541080789575903
100
AcDbArc
 50
110.516873
 51
200.551694
  0
ARC
  5
560
330
1F
100
AcDbEntity
  8
002
 62
     3
370
    30
100
AcDbCircle
 10
484.470314
 20
617.948625
 30
0.0
 40
1.000001999997949
100
AcDbArc
 50
45.0
 51
122.005383
  0
LINE
  5
561
330
1F
100
AcDbEntity
  8
002
 62
     3
370
    30
100
AcDbLine
 10
483.940314
 20
618.796625
 30
0.0
 11
483.091314
 21
618.265625
 31
0.0
  0
LINE
  5
562
330
1F
100
AcDbEntity
  8
002
 62
     3
370
    30
100
AcDbLine
 10
483.091314
 20
618.265625
 30
0.0
 11
480.091314
 21
619.015625
 31
0.0
  0
LINE
  5
563
330
1F
100
AcDbEntity
  8
002
 62
     3
370
    30
100
AcDbLine
 10
480.091314
 20
619.015625
 30
0.0
 11
480.091314
 21
624.015625
 31
0.0
  0
LINE
  5
564
330
1F
100
AcDbEntity
  8
002
 62
     3
370
    30
100
AcDbLine
 10
480.091314
 20
624.015625
 30
0.0
 11
483.091314
 21
624.765625
 31
0.0
  0
LINE
  5
565
330
1F
100
AcDbEntity
  8
002
 62
     3
370
    30
100
AcDbLine
 10
483.091314
 20
624.765625
 30
0.0
 11
483.940314
 21
624.234625
 31
0.0
  0
ARC
  5
566
330
1F
100
AcDbEntity
  8
002
 62
     3
370
    30
100
AcDbCircle
 10
484.470314
 20
625.082625
 30
0.0
 40
0.99984898859793
100
AcDbArc
 50
237.994617
 51
315.0
  0
LINE
  5
567
330
1F
100
AcDbEntity
  8
002
 62
     3
370
    30
100
AcDbLine
 10
483.091314
 20
624.015625
 30
0.0
 11
483.091314
 21
619.015625
 31
0.0
  0
ARC
  5
568
330
1F
100
AcDbEntity
  8
002
 62
     3
370
    30
100
AcDbCircle
 10
480.752314
 20
621.515625
 30
0.0
 40
0.9997104580827776
100
AcDbArc
 50
131.390802
 51
228.609198
  0
LINE
  5
569
330
1F
100
AcDbEntity
  8
002
 62
     3
370
    30
100
AcDbLine
 10
488.091314
 20
624.402625
 30
0.0
 11
491.091314
 21
624.402625
 31
0.0
  0
ARC
  5
56A
330
1F
100
AcDbEntity
  8
002
 62
     3
370
    30
100
AcDbCircle
 10
490.550314
 20
625.845625
 30
0.0
 40
1.541080789575903
100
AcDbArc
 50
290.551694
 51
20.551694
  0
LINE
  5
56B
330
1F
100
AcDbEntity
  8
002
 62
     3
370
    30
100
AcDbLine
 10
491.993314
 20
626.386625
 30
0.0
 11
491.091314
 21
627.288625
 31
0.0
  0
LINE
  5
56C
330
1F
100
AcDbEntity
  8
002
 62
     3
370
    30
100
AcDbLine
 10
492.091314
 20
625.801625
 30
0.0
 11
492.091314
 21
617.229625
 31
0.0
  0
LINE
  5
56D
330
1F
100
AcDbEntity
  8
002
 62
     3
370
    30
100
AcDbLine
 10
492.091314
 20
617.653625
 30
0.0
 11
493.091314
 21
617.653625
 31
0.0
  0
ARC
  5
56E
330
1F
100
AcDbEntity
  8
002
 62
     3
370
    30
100
AcDbCircle
 10
487.424314
 20
621.515625
 30
0.0
 40
4.667082386245079
100
AcDbArc
 50
321.786922
 51
38.213078
  0
LINE
  5
56F
330
1F
100
AcDbEntity
  8
002
 62
     3
370
    30
100
AcDbLine
 10
492.091314
 20
625.376625
 30
0.0
 11
493.091314
 21
625.376625
 31
0.0
  0
ARC
  5
570
330
1F
100
AcDbEntity
  8
002
 62
     3
370
    30
100
AcDbCircle
 10
491.757314
 20
621.515625
 30
0.0
 40
4.666296711526233
100
AcDbArc
 50
141.779327
 51
218.220673
  0
ARC
  5
571
330
1F
100
AcDbEntity
  8
002
 62
     3
370
    30
100
AcDbCircle
 10
488.631314
 20
625.845625
 30
0.0
 40
1.540730021775364
100
AcDbArc
 50
159.448306
 51
249.483127
  0
LINE
  5
572
330
1F
100
AcDbEntity
  8
002
  6
CENTER
 62
    40
370
     9
100
AcDbLine
 10
478.516872
 20
621.515625
 30
0.0
 11
497.366167
 21
621.515625
 31
0.0
  0
LINE
  5
573
330
1F
100
AcDbEntity
  8
002
 62
     3
370
    30
100
AcDbLine
 10
589.091314
 20
627.288625
 30
0.0
 11
592.091314
 21
627.288625
 31
0.0
  0
LINE
  5
574
330
1F
100
AcDbEntity
  8
002
 62
     3
370
    30
100
AcDbLine
 10
592.091314
 20
627.288625
 30
0.0
 11
595.005314
 21
624.375625
 31
0.0
  0
LINE
  5
575
330
1F
100
AcDbEntity
  8
002
 62
     3
370
    30
100
AcDbLine
 10
595.567314
 20
623.812625
 30
0.0
 11
595.567314
 21
619.217625
 31
0.0
  0
LINE
  5
576
330
1F
100
AcDbEntity
  8
002
 62
     3
370
    30
100
AcDbLine
 10
595.005314
 20
618.655625
 30
0.0
 11
592.091314
 21
615.741625
 31
0.0
  0
LINE
  5
577
330
1F
100
AcDbEntity
  8
002
 62
     3
370
    30
100
AcDbLine
 10
592.091314
 20
615.741625
 30
0.0
 11
589.091314
 21
615.741625
 31
0.0
  0
LINE
  5
578
330
1F
100
AcDbEntity
  8
002
 62
     3
370
    30
100
AcDbLine
 10
589.091314
 20
615.741625
 30
0.0
 11
588.189314
 21
616.644625
 31
0.0
  0
ARC
  5
579
330
1F
100
AcDbEntity
  8
002
 62
     3
370
    30
100
AcDbCircle
 10
589.632314
 20
617.185625
 30
0.0
 40
1.541080789575903
100
AcDbArc
 50
110.551694
 51
200.551694
  0
LINE
  5
57A
330
1F
100
AcDbEntity
  8
002
 62
     3
370
    30
100
AcDbLine
 10
589.091314
 20
618.628625
 30
0.0
 11
592.091314
 21
618.628625
 31
0.0
  0
ARC
  5
57B
330
1F
100
AcDbEntity
  8
002
 62
     3
370
    30
100
AcDbCircle
 10
591.551314
 20
617.185625
 30
0.0
 40
1.541080789575903
100
AcDbArc
 50
339.448306
 51
69.483127
  0
ARC
  5
57C
330
1F
100
AcDbEntity
  8
002
 62
     3
370
    30
100
AcDbCircle
 10
595.712314
 20
617.948625
 30
0.0
 40
1.000001999997949
100
AcDbArc
 50
57.994617
 51
135.0
  0
LINE
  5
57D
330
1F
100
AcDbEntity
  8
002
 62
     3
370
    30
100
AcDbLine
 10
596.242314
 20
618.796625
 30
0.0
 11
597.091314
 21
618.265625
 31
0.0
  0
LINE
  5
57E
330
1F
100
AcDbEntity
  8
002
 62
     3
370
    30
100
AcDbLine
 10
597.091314
 20
618.265625
 30
0.0
 11
600.091314
 21
619.015625
 31
0.0
  0
LINE
  5
57F
330
1F
100
AcDbEntity
  8
002
 62
     3
370
    30
100
AcDbLine
 10
600.091314
 20
619.015625
 30
0.0
 11
600.091314
 21
624.015625
 31
0.0
  0
LINE
  5
580
330
1F
100
AcDbEntity
  8
002
 62
     3
370
    30
100
AcDbLine
 10
600.091314
 20
624.015625
 30
0.0
 11
597.091314
 21
624.765625
 31
0.0
  0
LINE
  5
581
330
1F
100
AcDbEntity
  8
002
 62
     3
370
    30
100
AcDbLine
 10
597.091314
 20
624.765625
 30
0.0
 11
596.242314
 21
624.234625
 31
0.0
  0
ARC
  5
582
330
1F
100
AcDbEntity
  8
002
 62
     3
370
    30
100
AcDbCircle
 10
595.712314
 20
625.082625
 30
0.0
 40
0.99984898859793
100
AcDbArc
 50
225.0
 51
302.005383
  0
LINE
  5
583
330
1F
100
AcDbEntity
  8
002
 62
     3
370
    30
100
AcDbLine
 10
597.091314
 20
624.015625
 30
0.0
 11
597.091314
 21
619.015625
 31
0.0
  0
ARC
  5
584
330
1F
100
AcDbEntity
  8
002
 62
     3
370
    30
100
AcDbCircle
 10
599.430314
 20
621.515625
 30
0.0
 40
0.9997104580827776
100
AcDbArc
 50
311.390802
 51
48.609198
  0
LINE
  5
585
330
1F
100
AcDbEntity
  8
002
 62
     3
370
    30
100
AcDbLine
 10
592.091314
 20
624.402625
 30
0.0
 11
589.091314
 21
624.402625
 31
0.0
  0
ARC
  5
586
330
1F
100
AcDbEntity
  8
002
 62
     3
370
    30
100
AcDbCircle
 10
589.632314
 20
625.845625
 30
0.0
 40
1.541080789575903
100
AcDbArc
 50
159.448306
 51
249.448306
  0
LINE
  5
587
330
1F
100
AcDbEntity
  8
002
 62
     3
370
    30
100
AcDbLine
 10
588.189314
 20
626.386625
 30
0.0
 11
589.091314
 21
627.288625
 31
0.0
  0
LINE
  5
588
330
1F
100
AcDbEntity
  8
002
 62
     3
370
    30
100
AcDbLine
 10
588.091314
 20
625.801625
 30
0.0
 11
588.091314
 21
617.229625
 31
0.0
  0
LINE
  5
589
330
1F
100
AcDbEntity
  8
002
 62
     3
370
    30
100
AcDbLine
 10
588.091314
 20
617.653625
 30
0.0
 11
587.091314
 21
617.653625
 31
0.0
  0
ARC
  5
58A
330
1F
100
AcDbEntity
  8
002
 62
     3
370
    30
100
AcDbCircle
 10
592.758314
 20
621.515625
 30
0.0
 40
4.667082386245079
100
AcDbArc
 50
141.786922
 51
218.213078
  0
LINE
  5
58B
330
1F
100
AcDbEntity
  8
002
 62
     3
370
    30
100
AcDbLine
 10
588.091314
 20
625.376625
 30
0.0
 11
587.091314
 21
625.376625
 31
0.0
  0
ARC
  5
58C
330
1F
100
AcDbEntity
  8
002
 62
     3
370
    30
100
AcDbCircle
 10
588.425314
 20
621.515625
 30
0.0
 40
4.666296711526233
100
AcDbArc
 50
321.779327
 51
38.220673
  0
ARC
  5
58D
330
1F
100
AcDbEntity
  8
002
 62
     3
370
    30
100
AcDbCircle
 10
591.551314
 20
625.845625
 30
0.0
 40
1.540730021775364
100
AcDbArc
 50
290.516873
 51
20.551694
  0
LINE
  5
58E
330
1F
100
AcDbEntity
  8
002
  6
CENTER
 62
    40
370
     9
100
AcDbLine
 10
601.665757
 20
621.515625
 30
0.0
 11
582.816461
 21
621.515625
 31
0.0
  0
LINE
  5
58F
330
1F
100
AcDbEntity
  8
002
 62
     3
370
    30
100
AcDbLine
 10
1379.84751
 20
706.515625
 30
0.0
 11
1381.01351
 21
662.015625
 31
0.0
  0
LINE
  5
590
330
1F
100
AcDbEntity
  8
002
 62
     3
370
    30
100
AcDbLine
 10
1378.34751
 20
662.015625
 30
0.0
 11
1388.34751
 21
662.015625
 31
0.0
  0
LINE
  5
591
330
1F
100
AcDbEntity
  8
002
 62
     3
370
    30
100
AcDbLine
 10
1378.34751
 20
662.015625
 30
0.0
 11
1378.34751
 21
656.015625
 31
0.0
  0
LINE
  5
592
330
1F
100
AcDbEntity
  8
002
 62
     3
370
    30
100
AcDbLine
 10
1388.34751
 20
662.015625
 30
0.0
 11
1388.34751
 21
656.015625
 31
0.0
  0
LINE
  5
593
330
1F
100
AcDbEntity
  8
002
 62
     3
370
    30
100
AcDbLine
 10
1389.84751
 20
656.015625
 30
0.0
 11
1299.84751
 21
656.015625
 31
0.0
  0
LINE
  5
594
330
1F
100
AcDbEntity
  8
002
 62
     3
370
    30
100
AcDbLine
 10
1299.84751
 20
656.015625
 30
0.0
 11
1299.84751
 21
651.515625
 31
0.0
  0
LINE
  5
595
330
1F
100
AcDbEntity
  8
002
 62
     3
370
    30
100
AcDbLine
 10
1297.84751
 20
651.515625
 30
0.0
 11
1297.84751
 21
562.515625
 31
0.0
  0
LINE
  5
596
330
1F
100
AcDbEntity
  8
002
 62
     3
370
    30
100
AcDbLine
 10
1301.75251
 20
562.515625
 30
0.0
 11
1285.75251
 21
562.515625
 31
0.0
  0
LINE
  5
597
330
1F
100
AcDbEntity
  8
002
 62
     3
370
    30
100
AcDbLine
 10
1301.75251
 20
562.515625
 30
0.0
 11
1301.75251
 21
552.515625
 31
0.0
  0
LINE
  5
598
330
1F
100
AcDbEntity
  8
002
 62
     3
370
    30
100
AcDbLine
 10
1301.75251
 20
555.046425
 30
0.0
 11
1336.84751
 21
555.046425
 31
0.0
  0
LINE
  5
599
330
1F
100
AcDbEntity
  8
002
 62
     3
370
    30
100
AcDbLine
 10
1336.84751
 20
552.515625
 30
0.0
 11
1336.84751
 21
562.515625
 31
0.0
  0
LINE
  5
59A
330
1F
100
AcDbEntity
  8
002
 62
     3
370
    30
100
AcDbLine
 10
1352.84751
 20
562.515625
 30
0.0
 11
1352.84751
 21
552.515625
 31
0.0
  0
LINE
  5
59B
330
1F
100
AcDbEntity
  8
002
 62
     3
370
    30
100
AcDbLine
 10
1352.84751
 20
555.046425
 30
0.0
 11
1387.94351
 21
555.046425
 31
0.0
  0
LINE
  5
59C
330
1F
100
AcDbEntity
  8
002
 62
     3
370
    30
100
AcDbLine
 10
1387.94351
 20
552.515625
 30
0.0
 11
1387.94351
 21
562.515625
 31
0.0
  0
LINE
  5
59D
330
1F
100
AcDbEntity
  8
002
 62
     3
370
    30
100
AcDbLine
 10
1403.94351
 20
562.515625
 30
0.0
 11
1403.94351
 21
552.515625
 31
0.0
  0
LINE
  5
59E
330
1F
100
AcDbEntity
  8
002
 62
     3
370
    30
100
AcDbLine
 10
1403.94351
 20
562.515625
 30
0.0
 11
1387.94351
 21
562.515625
 31
0.0
  0
LINE
  5
59F
330
1F
100
AcDbEntity
  8
002
 62
     3
370
    30
100
AcDbLine
 10
1391.84751
 20
562.515625
 30
0.0
 11
1391.84751
 21
651.515625
 31
0.0
  0
LINE
  5
5A0
330
1F
100
AcDbEntity
  8
002
 62
     3
370
    30
100
AcDbLine
 10
1391.84751
 20
651.515625
 30
0.0
 11
1297.84751
 21
651.515625
 31
0.0
  0
LINE
  5
5A1
330
1F
100
AcDbEntity
  8
002
 62
     3
370
    30
100
AcDbLine
 10
1301.34751
 20
656.015625
 30
0.0
 11
1301.34751
 21
662.015625
 31
0.0
  0
LINE
  5
5A2
330
1F
100
AcDbEntity
  8
002
 62
     3
370
    30
100
AcDbLine
 10
1311.34751
 20
662.015625
 30
0.0
 11
1311.34751
 21
656.015625
 31
0.0
  0
LINE
  5
5A3
330
1F
100
AcDbEntity
  8
002
 62
     3
370
    30
100
AcDbLine
 10
1311.34751
 20
662.015625
 30
0.0
 11
1301.34751
 21
662.015625
 31
0.0
  0
LINE
  5
5A4
330
1F
100
AcDbEntity
  8
002
 62
     3
370
    30
100
AcDbLine
 10
1308.68251
 20
662.015625
 30
0.0
 11
1309.84751
 21
706.515625
 31
0.0
  0
LINE
  5
5A5
330
1F
100
AcDbEntity
  8
002
 62
     3
370
    30
100
AcDbLine
 10
1309.84751
 20
706.515625
 30
0.0
 11
1379.84751
 21
706.515625
 31
0.0
  0
LINE
  5
5A6
330
1F
100
AcDbEntity
  8
002
 62
     3
370
    30
100
AcDbLine
 10
1389.84751
 20
656.015625
 30
0.0
 11
1389.84751
 21
651.515625
 31
0.0
  0
LINE
  5
5A7
330
1F
100
AcDbEntity
  8
002
 62
     3
370
    30
100
AcDbLine
 10
1349.84751
 20
656.015625
 30
0.0
 11
1349.84751
 21
662.015625
 31
0.0
  0
LINE
  5
5A8
330
1F
100
AcDbEntity
  8
002
 62
     3
370
    30
100
AcDbLine
 10
1339.84751
 20
662.015625
 30
0.0
 11
1339.84751
 21
656.015625
 31
0.0
  0
LINE
  5
5A9
330
1F
100
AcDbEntity
  8
002
 62
     3
370
    30
100
AcDbLine
 10
1339.84751
 20
662.015625
 30
0.0
 11
1349.84751
 21
662.015625
 31
0.0
  0
LINE
  5
5AA
330
1F
100
AcDbEntity
  8
002
 62
     3
370
    30
100
AcDbLine
 10
1347.73451
 20
626.515625
 30
0.0
 11
1350.62151
 21
621.515625
 31
0.0
  0
LINE
  5
5AB
330
1F
100
AcDbEntity
  8
002
 62
     3
370
    30
100
AcDbLine
 10
1350.62151
 20
621.515625
 30
0.0
 11
1347.73451
 21
616.515625
 31
0.0
  0
LINE
  5
5AC
330
1F
100
AcDbEntity
  8
002
 62
     3
370
    30
100
AcDbLine
 10
1347.73451
 20
616.515625
 30
0.0
 11
1341.96051
 21
616.515625
 31
0.0
  0
LINE
  5
5AD
330
1F
100
AcDbEntity
  8
002
 62
     3
370
    30
100
AcDbLine
 10
1341.96051
 20
616.515625
 30
0.0
 11
1339.07451
 21
621.515625
 31
0.0
  0
LINE
  5
5AE
330
1F
100
AcDbEntity
  8
002
 62
     3
370
    30
100
AcDbLine
 10
1339.07451
 20
621.515625
 30
0.0
 11
1341.96051
 21
626.515625
 31
0.0
  0
LINE
  5
5AF
330
1F
100
AcDbEntity
  8
002
 62
     3
370
    30
100
AcDbLine
 10
1341.96051
 20
626.515625
 30
0.0
 11
1347.73451
 21
626.515625
 31
0.0
  0
CIRCLE
  5
5B0
330
1F
100
AcDbEntity
  8
002
 62
     3
370
    30
100
AcDbCircle
 10
1344.84751
 20
621.515625
 30
0.0
 40
0.75
  0
CIRCLE
  5
5B1
330
1F
100
AcDbEntity
  8
002
 62
     3
370
    30
100
AcDbCircle
 10
1344.84751
 20
621.515625
 30
0.0
 40
2.5
  0
CIRCLE
  5
5B2
330
1F
100
AcDbEntity
  8
002
 62
     3
370
    30
100
AcDbCircle
 10
1344.84751
 20
621.515625
 30
0.0
 40
3.25
  0
CIRCLE
  5
5B3
330
1F
100
AcDbEntity
  8
002
 62
     3
370
    30
100
AcDbCircle
 10
1344.84751
 20
621.515625
 30
0.0
 40
5.0
  0
LINE
  5
5B4
330
1F
100
AcDbEntity
  8
002
 62
     3
370
    30
100
AcDbLine
 10
1336.84751
 20
562.515625
 30
0.0
 11
1352.84751
 21
562.515625
 31
0.0
  0
LINE
  5
5B5
330
1F
100
AcDbEntity
  8
002
 62
     3
370
    30
100
AcDbLine
 10
1319.84751
 20
532.515625
 30
0.0
 11
1425.84751
 21
532.515625
 31
0.0
  0
ARC
  5
5B6
330
1F
100
AcDbEntity
  8
002
 62
     3
370
    30
100
AcDbCircle
 10
1425.84751
 20
521.515625
 30
0.0
 40
11.0
100
AcDbArc
 50
0.0
 51
90.0
  0
LINE
  5
5B7
330
1F
100
AcDbEntity
  8
002
 62
     3
370
    30
100
AcDbLine
 10
1436.84751
 20
521.515625
 30
0.0
 11
1436.84751
 21
458.515625
 31
0.0
  0
LINE
  5
5B8
330
1F
100
AcDbEntity
  8
002
 62
     3
370
    30
100
AcDbLine
 10
1441.84751
 20
453.515625
 30
0.0
 11
1471.84751
 21
453.515625
 31
0.0
  0
ARC
  5
5B9
330
1F
100
AcDbEntity
  8
002
 62
     3
370
    30
100
AcDbCircle
 10
1471.84751
 20
451.515625
 30
0.0
 40
2.0
100
AcDbArc
 50
0.0
 51
90.0
  0
LINE
  5
5BA
330
1F
100
AcDbEntity
  8
002
 62
     3
370
    30
100
AcDbLine
 10
1473.84751
 20
451.515625
 30
0.0
 11
1473.84751
 21
440.515625
 31
0.0
  0
LINE
  5
5BB
330
1F
100
AcDbEntity
  8
002
 62
     3
370
    30
100
AcDbLine
 10
1473.84751
 20
440.515625
 30
0.0
 11
1268.84751
 21
440.515625
 31
0.0
  0
LINE
  5
5BC
330
1F
100
AcDbEntity
  8
002
 62
     3
370
    30
100
AcDbLine
 10
1270.84751
 20
453.515625
 30
0.0
 11
1309.84751
 21
453.515625
 31
0.0
  0
LINE
  5
5BD
330
1F
100
AcDbEntity
  8
002
 62
     3
370
    30
100
AcDbLine
 10
1314.84751
 20
458.515625
 30
0.0
 11
1314.84751
 21
527.515625
 31
0.0
  0
ARC
  5
5BE
330
1F
100
AcDbEntity
  8
002
 62
     3
370
    30
100
AcDbCircle
 10
1319.84751
 20
527.515625
 30
0.0
 40
5.0
100
AcDbArc
 50
90.0
 51
180.0
  0
LINE
  5
5BF
330
1F
100
AcDbEntity
  8
002
 62
     3
370
    30
100
AcDbLine
 10
1309.84751
 20
528.515625
 30
0.0
 11
1283.84751
 21
528.515625
 31
0.0
  0
ARC
  5
5C0
330
1F
100
AcDbEntity
  8
002
 62
     3
370
    30
100
AcDbCircle
 10
1293.66851
 20
523.515625
 30
0.0
 40
5.0
100
AcDbArc
 50
0.0
 51
90.0
  0
LINE
  5
5C1
330
1F
100
AcDbEntity
  8
002
 62
     3
370
    30
100
AcDbLine
 10
1298.66851
 20
523.515625
 30
0.0
 11
1298.66851
 21
458.515625
 31
0.0
  0
ARC
  5
5C2
330
1F
100
AcDbEntity
  8
002
 62
     3
370
    30
100
AcDbCircle
 10
1293.66851
 20
458.515625
 30
0.0
 40
5.0
100
AcDbArc
 50
270.0
 51
0.0
  0
LINE
  5
5C3
330
1F
100
AcDbEntity
  8
002
 62
     3
370
    30
100
AcDbLine
 10
1302.07651
 20
453.515625
 30
0.0
 11
1302.07651
 21
440.515625
 31
0.0
  0
ARC
  5
5C4
330
1F
100
AcDbEntity
  8
002
 62
     3
370
    30
100
AcDbCircle
 10
1309.84751
 20
458.515625
 30
0.0
 40
5.0
100
AcDbArc
 50
270.0
 51
0.0
  0
LINE
  5
5C5
330
1F
100
AcDbEntity
  8
002
 62
     3
370
    30
100
AcDbLine
 10
1375.84751
 20
460.515625
 30
0.0
 11
1425.84751
 21
460.515625
 31
0.0
  0
ARC
  5
5C6
330
1F
100
AcDbEntity
  8
002
 62
     3
370
    30
100
AcDbCircle
 10
1425.84751
 20
471.515625
 30
0.0
 40
11.0
100
AcDbArc
 50
270.0
 51
0.0
  0
ARC
  5
5C7
330
1F
100
AcDbEntity
  8
002
 62
     3
370
    30
100
AcDbCircle
 10
1441.84751
 20
458.515625
 30
0.0
 40
5.0
100
AcDbArc
 50
180.0
 51
270.0
  0
ARC
  5
5C8
330
1F
100
AcDbEntity
  8
002
 62
     3
370
    30
100
AcDbCircle
 10
1460.00051
 20
479.252525
 30
0.0
 40
1.999887356827847
100
AcDbArc
 50
115.088894
 51
205.101702
  0
LINE
  5
5C9
330
1F
100
AcDbEntity
  8
002
 62
     3
370
    30
100
AcDbLine
 10
1459.15251
 20
481.063725
 30
0.0
 11
1443.88151
 21
513.664225
 31
0.0
  0
ARC
  5
5CA
330
1F
100
AcDbEntity
  8
002
 62
     3
370
    30
100
AcDbCircle
 10
1443.03251
 20
515.475425
 30
0.0
 40
1.999875886148854
100
AcDbArc
 50
205.101702
 51
295.114835
  0
LINE
  5
5CB
330
1F
100
AcDbEntity
  8
002
 62
     3
370
    30
100
AcDbLine
 10
1435.80951
 20
526.181725
 30
0.0
 11
1468.49951
 21
456.394625
 31
0.0
  0
ARC
  5
5CC
330
1F
100
AcDbEntity
  8
002
 62
     3
370
    30
100
AcDbCircle
 10
1473.07851
 20
458.406625
 30
0.0
 40
5.000142497969443
100
AcDbArc
 50
205.099272
 51
259.874925
  0
ARC
  5
5CD
330
1F
100
AcDbEntity
  8
002
 62
     3
370
    30
100
AcDbCircle
 10
1419.84751
 20
537.515625
 30
0.0
 40
5.0
100
AcDbArc
 50
180.0
 51
270.0
  0
LINE
  5
5CE
330
1F
100
AcDbEntity
  8
002
 62
     3
370
    30
100
AcDbLine
 10
1414.84751
 20
537.515625
 30
0.0
 11
1414.84751
 21
552.515625
 31
0.0
  0
LINE
  5
5CF
330
1F
100
AcDbEntity
  8
002
 62
     3
370
    30
100
AcDbLine
 10
1414.84751
 20
552.515625
 30
0.0
 11
1274.84751
 21
552.515625
 31
0.0
  0
LINE
  5
5D0
330
1F
100
AcDbEntity
  8
002
 62
     3
370
    30
100
AcDbLine
 10
1274.84751
 20
540.515625
 30
0.0
 11
1414.84751
 21
540.515625
 31
0.0
  0
LINE
  5
5D1
330
1F
100
AcDbEntity
  8
002
 62
     3
370
    30
100
AcDbLine
 10
1364.84751
 20
471.515625
 30
0.0
 11
1364.84751
 21
521.515625
 31
0.0
  0
ARC
  5
5D2
330
1F
100
AcDbEntity
  8
002
 62
     3
370
    30
100
AcDbCircle
 10
1375.84751
 20
521.515625
 30
0.0
 40
11.0
100
AcDbArc
 50
90.0
 51
180.0
  0
LINE
  5
5D3
330
1F
100
AcDbEntity
  8
002
 62
     3
370
    30
100
AcDbLine
 10
1347.73451
 20
501.515625
 30
0.0
 11
1350.62151
 21
496.515625
 31
0.0
  0
LINE
  5
5D4
330
1F
100
AcDbEntity
  8
002
 62
     3
370
    30
100
AcDbLine
 10
1350.62151
 20
496.515625
 30
0.0
 11
1347.73451
 21
491.515625
 31
0.0
  0
LINE
  5
5D5
330
1F
100
AcDbEntity
  8
002
 62
     3
370
    30
100
AcDbLine
 10
1347.73451
 20
491.515625
 30
0.0
 11
1341.96051
 21
491.515625
 31
0.0
  0
LINE
  5
5D6
330
1F
100
AcDbEntity
  8
002
 62
     3
370
    30
100
AcDbLine
 10
1341.96051
 20
491.515625
 30
0.0
 11
1339.07451
 21
496.515625
 31
0.0
  0
LINE
  5
5D7
330
1F
100
AcDbEntity
  8
002
 62
     3
370
    30
100
AcDbLine
 10
1339.07451
 20
496.515625
 30
0.0
 11
1341.96051
 21
501.515625
 31
0.0
  0
LINE
  5
5D8
330
1F
100
AcDbEntity
  8
002
 62
     3
370
    30
100
AcDbLine
 10
1341.96051
 20
501.515625
 30
0.0
 11
1347.73451
 21
501.515625
 31
0.0
  0
CIRCLE
  5
5D9
330
1F
100
AcDbEntity
  8
002
 62
     3
370
    30
100
AcDbCircle
 10
1344.84751
 20
496.515625
 30
0.0
 40
0.75
  0
CIRCLE
  5
5DA
330
1F
100
AcDbEntity
  8
002
 62
     3
370
    30
100
AcDbCircle
 10
1344.84751
 20
496.515625
 30
0.0
 40
2.5
  0
CIRCLE
  5
5DB
330
1F
100
AcDbEntity
  8
002
 62
     3
370
    30
100
AcDbCircle
 10
1344.84751
 20
496.515625
 30
0.0
 40
3.25
  0
CIRCLE
  5
5DC
330
1F
100
AcDbEntity
  8
002
 62
     3
370
    30
100
AcDbCircle
 10
1344.84751
 20
496.515625
 30
0.0
 40
5.0
  0
ARC
  5
5DD
330
1F
100
AcDbEntity
  8
002
 62
     3
370
    30
100
AcDbCircle
 10
1309.84751
 20
523.515625
 30
0.0
 40
5.0
100
AcDbArc
 50
0.0
 51
90.0
  0
LINE
  5
5DE
330
1F
100
AcDbEntity
  8
002
 62
     3
370
    30
100
AcDbLine
 10
1283.84751
 20
509.719525
 30
0.0
 11
1275.84751
 21
509.969525
 31
0.0
  0
LINE
  5
5DF
330
1F
100
AcDbEntity
  8
002
 62
     3
370
    30
100
AcDbLine
 10
1275.84751
 20
483.061625
 30
0.0
 11
1283.84751
 21
483.311625
 31
0.0
  0
LINE
  5
5E0
330
1F
100
AcDbEntity
  8
002
 62
     3
370
    30
100
AcDbLine
 10
1283.84751
 20
540.515625
 30
0.0
 11
1283.84751
 21
458.515625
 31
0.0
  0
ARC
  5
5E1
330
1F
100
AcDbEntity
  8
002
 62
     3
370
    30
100
AcDbCircle
 10
1278.84751
 20
458.515625
 30
0.0
 40
5.0
100
AcDbArc
 50
270.0
 51
0.0
  0
ARC
  5
5E2
330
1F
100
AcDbEntity
  8
002
 62
     3
370
    30
100
AcDbCircle
 10
1375.84751
 20
471.515625
 30
0.0
 40
11.0
100
AcDbArc
 50
180.0
 51
270.0
  0
LINE
  5
5E3
330
1F
100
AcDbEntity
  8
002
 62
     3
370
    30
100
AcDbLine
 10
1285.75251
 20
562.515625
 30
0.0
 11
1285.75251
 21
552.515625
 31
0.0
  0
LINE
  5
5E4
330
1F
100
AcDbEntity
  8
002
  6
CENTER
 62
    40
370
     9
100
AcDbLine
 10
1383.34751
 20
665.066725
 30
0.0
 11
1383.34751
 21
651.515625
 31
0.0
  0
LINE
  5
5E5
330
1F
100
AcDbEntity
  8
002
  6
CENTER
 62
    40
370
     9
100
AcDbLine
 10
1353.24851
 20
621.515625
 30
0.0
 11
1336.07451
 21
621.515625
 31
0.0
  0
LINE
  5
5E6
330
1F
100
AcDbEntity
  8
002
  6
CENTER
 62
    40
370
     9
100
AcDbLine
 10
1306.34751
 20
651.515625
 30
0.0
 11
1306.34751
 21
665.066725
 31
0.0
  0
LINE
  5
5E7
330
1F
100
AcDbEntity
  8
002
  6
CENTER
 62
    40
370
     9
100
AcDbLine
 10
1293.75251
 20
564.715825
 30
0.0
 11
1293.75251
 21
538.193525
 31
0.0
  0
LINE
  5
5E8
330
1F
100
AcDbEntity
  8
002
 62
    40
370
     9
100
AcDbLine
 10
1283.84751
 20
508.574125
 30
0.0
 11
1275.84751
 21
508.824125
 31
0.0
  0
LINE
  5
5E9
330
1F
100
AcDbEntity
  8
002
  6
CENTER
 62
    40
370
     9
100
AcDbLine
 10
1261.40451
 20
496.515625
 30
0.0
 11
1461.62951
 21
496.515625
 31
0.0
  0
LINE
  5
5EA
330
1F
100
AcDbEntity
  8
002
  6
CENTER
 62
    40
370
     9
100
AcDbLine
 10
1453.84751
 20
460.515625
 30
0.0
 11
1453.84751
 21
432.797025
 31
0.0
  0
LINE
  5
5EB
330
1F
100
AcDbEntity
  8
002
  6
CENTER
 62
    40
370
     9
100
AcDbLine
 10
1288.84751
 20
460.515625
 30
0.0
 11
1288.84751
 21
432.797025
 31
0.0
  0
LINE
  5
5EC
330
1F
100
AcDbEntity
  8
002
 62
    40
370
     9
100
AcDbLine
 10
1275.84751
 20
484.207125
 30
0.0
 11
1283.84751
 21
484.457125
 31
0.0
  0
LINE
  5
5ED
330
1F
100
AcDbEntity
  8
002
  6
CENTER
 62
    40
370
     9
100
AcDbLine
 10
1395.94351
 20
538.193525
 30
0.0
 11
1395.94351
 21
564.715825
 31
0.0
  0
LINE
  5
5EE
330
1F
100
AcDbEntity
  8
002
  6
CENTER
 62
    40
370
     9
100
AcDbLine
 10
1400.84751
 20
545.386425
 30
0.0
 11
1400.84751
 21
432.341125
 31
0.0
  0
LINE
  5
5EF
330
1F
100
AcDbEntity
  8
002
  6
HIDDEN
 62
    40
370
     9
100
AcDbLine
 10
1279.84751
 20
440.515625
 30
0.0
 11
1279.84751
 21
453.515625
 31
0.0
  0
LINE
  5
5F0
330
1F
100
AcDbEntity
  8
002
  6
HIDDEN
 62
    40
370
     9
100
AcDbLine
 10
1297.84751
 20
440.515625
 30
0.0
 11
1297.84751
 21
453.515625
 31
0.0
  0
LINE
  5
5F1
330
1F
100
AcDbEntity
  8
002
  6
HIDDEN
 62
    40
370
     9
100
AcDbLine
 10
1444.84751
 20
453.515625
 30
0.0
 11
1444.84751
 21
440.515625
 31
0.0
  0
LINE
  5
5F2
330
1F
100
AcDbEntity
  8
002
  6
HIDDEN
 62
    40
370
     9
100
AcDbLine
 10
1462.84751
 20
440.515625
 30
0.0
 11
1462.84751
 21
453.515625
 31
0.0
  0
LINE
  5
5F3
330
1F
100
AcDbEntity
  8
002
 62
     3
370
    30
100
AcDbLine
 10
1377.84751
 20
857.515125
 30
0.0
 11
1377.84751
 21
840.515625
 31
0.0
  0
LINE
  5
5F4
330
1F
100
AcDbEntity
  8
002
 62
     3
370
    30
100
AcDbLine
 10
1377.84751
 20
840.515625
 30
0.0
 11
1311.84751
 21
840.515625
 31
0.0
  0
LINE
  5
5F5
330
1F
100
AcDbEntity
  8
002
 62
     3
370
    30
100
AcDbLine
 10
1311.84751
 20
840.515625
 30
0.0
 11
1311.84751
 21
857.515125
 31
0.0
  0
ARC
  5
5F6
330
1F
100
AcDbEntity
  8
002
 62
     3
370
    30
100
AcDbCircle
 10
1314.84751
 20
857.515125
 30
0.0
 40
3.0
100
AcDbArc
 50
90.0
 51
180.0
  0
LINE
  5
5F7
330
1F
100
AcDbEntity
  8
002
 62
     3
370
    30
100
AcDbLine
 10
1314.84751
 20
860.515125
 30
0.0
 11
1374.84751
 21
860.515125
 31
0.0
  0
ARC
  5
5F8
330
1F
100
AcDbEntity
  8
002
 62
     3
370
    30
100
AcDbCircle
 10
1374.84751
 20
857.515125
 30
0.0
 40
3.0
100
AcDbArc
 50
0.0
 51
90.0
  0
LINE
  5
5F9
330
1F
100
AcDbEntity
  8
002
 62
     3
370
    30
100
AcDbLine
 10
1268.84751
 20
440.515625
 30
0.0
 11
1268.84751
 21
451.515625
 31
0.0
  0
ARC
  5
5FA
330
1F
100
AcDbEntity
  8
002
 62
     3
370
    30
100
AcDbCircle
 10
1270.84751
 20
451.515625
 30
0.0
 40
2.0
100
AcDbArc
 50
90.0
 51
180.0
  0
LINE
  5
5FB
330
1F
100
AcDbEntity
  8
002
 62
     3
370
    30
100
AcDbLine
 10
1274.84751
 20
552.515625
 30
0.0
 11
1274.84751
 21
540.515625
 31
0.0
  0
LINE
  5
5FC
330
1F
100
AcDbEntity
  8
002
 62
     3
370
    30
100
AcDbLine
 10
1275.84751
 20
509.969525
 30
0.0
 11
1275.84751
 21
483.061625
 31
0.0
  0
LINE
  5
5FD
330
1F
100
AcDbEntity
  8
002
 62
     3
370
    30
100
AcDbLine
 10
1275.84751
 20
488.015625
 30
0.0
 11
1264.84751
 21
488.015625
 31
0.0
  0
LINE
  5
5FE
330
1F
100
AcDbEntity
  8
002
 62
     3
370
    30
100
AcDbLine
 10
1264.84751
 20
488.015625
 30
0.0
 11
1264.84751
 21
505.015625
 31
0.0
  0
LINE
  5
5FF
330
1F
100
AcDbEntity
  8
002
 62
     3
370
    30
100
AcDbLine
 10
1264.84751
 20
505.015625
 30
0.0
 11
1275.84751
 21
505.015625
 31
0.0
  0
LINE
  5
600
330
1F
100
AcDbEntity
  8
002
 62
    40
370
     9
100
AcDbLine
 10
1275.84751
 20
505.015625
 30
0.0
 11
1264.84751
 21
488.015625
 31
0.0
  0
LINE
  5
601
330
1F
100
AcDbEntity
  8
002
 62
    40
370
     9
100
AcDbLine
 10
1275.84751
 20
488.015625
 30
0.0
 11
1264.84751
 21
505.015625
 31
0.0
  0
LINE
  5
602
330
1F
100
AcDbEntity
  8
002
 62
     3
370
    30
100
AcDbLine
 10
1440.61851
 20
453.515625
 30
0.0
 11
1440.61851
 21
440.515625
 31
0.0
  0
CIRCLE
  5
603
330
1F
100
AcDbEntity
  8
002
 62
     3
370
    30
100
AcDbCircle
 10
1400.84751
 20
496.515625
 30
0.0
 40
19.0
  0
LINE
  5
604
330
1F
100
AcDbEntity
  8
002
 62
     3
370
    30
100
AcDbLine
 10
1403.84751
 20
503.015568
 30
0.0
 11
1397.84751
 21
503.015568
 31
0.0
  0
LINE
  5
605
330
1F
100
AcDbEntity
  8
002
 62
     3
370
    30
100
AcDbLine
 10
1397.84751
 20
509.015568
 30
0.0
 11
1403.84751
 21
509.015568
 31
0.0
  0
LINE
  5
606
330
1F
100
AcDbEntity
  8
002
 62
     3
370
    30
100
AcDbLine
 10
1403.84751
 20
509.015568
 30
0.0
 11
1403.84751
 21
503.015568
 31
0.0
  0
LINE
  5
607
330
1F
100
AcDbEntity
  8
002
 62
     3
370
    30
100
AcDbLine
 10
1397.84751
 20
509.015568
 30
0.0
 11
1397.84751
 21
503.015568
 31
0.0
  0
ARC
  5
608
330
1F
100
AcDbEntity
  8
002
 62
     3
370
    30
100
AcDbCircle
 10
1400.84751
 20
496.515625
 30
0.0
 40
9.999943487840238
100
AcDbArc
 50
107.457705
 51
72.542295
  0
ARC
  5
609
330
1F
100
AcDbEntity
  8
002
 62
     3
370
    30
100
AcDbCircle
 10
1400.84751
 20
496.515625
 30
0.0
 40
10.9999584731034
100
AcDbArc
 50
105.826681
 51
74.173319
  0
LINE
  5
60A
330
1F
100
AcDbEntity
  8
002
 62
     3
370
    30
100
AcDbLine
 10
1299.84751
 20
440.515625
 30
0.0
 11
1299.84751
 21
438.215625
 31
0.0
  0
LINE
  5
60B
330
1F
100
AcDbEntity
  8
002
 62
     3
370
    30
100
AcDbLine
 10
1299.84751
 20
438.215625
 30
0.0
 11
1389.84751
 21
438.215625
 31
0.0
  0
LINE
  5
60C
330
1F
100
AcDbEntity
  8
002
 62
     3
370
    30
100
AcDbLine
 10
1389.84751
 20
438.215625
 30
0.0
 11
1389.84751
 21
440.515625
 31
0.0
  0
LINE
  5
60D
330
1F
100
AcDbEntity
  8
002
 62
     3
370
    30
100
AcDbLine
 10
1388.34751
 20
438.215625
 30
0.0
 11
1388.34751
 21
432.215625
 31
0.0
  0
LINE
  5
60E
330
1F
100
AcDbEntity
  8
002
 62
     3
370
    30
100
AcDbLine
 10
1388.34751
 20
432.215625
 30
0.0
 11
1378.34751
 21
432.215625
 31
0.0
  0
LINE
  5
60F
330
1F
100
AcDbEntity
  8
002
 62
     3
370
    30
100
AcDbLine
 10
1378.34751
 20
432.215625
 30
0.0
 11
1378.34751
 21
438.215625
 31
0.0
  0
LINE
  5
610
330
1F
100
AcDbEntity
  8
002
 62
     3
370
    30
100
AcDbLine
 10
1375.09751
 20
438.215625
 30
0.0
 11
1375.09751
 21
434.515625
 31
0.0
  0
LINE
  5
611
330
1F
100
AcDbEntity
  8
002
 62
     3
370
    30
100
AcDbLine
 10
1375.89751
 20
434.515625
 30
0.0
 11
1375.89751
 21
421.515625
 31
0.0
  0
LINE
  5
612
330
1F
100
AcDbEntity
  8
002
 62
     3
370
    30
100
AcDbLine
 10
1375.89751
 20
421.515625
 30
0.0
 11
1305.79751
 21
421.515625
 31
0.0
  0
ARC
  5
613
330
1F
100
AcDbEntity
  8
002
 62
     3
370
    30
100
AcDbCircle
 10
1305.79751
 20
423.515625
 30
0.0
 40
2.0
100
AcDbArc
 50
180.0
 51
270.0
  0
LINE
  5
614
330
1F
100
AcDbEntity
  8
002
 62
     3
370
    30
100
AcDbLine
 10
1303.79751
 20
423.515625
 30
0.0
 11
1303.79751
 21
432.215625
 31
0.0
  0
LINE
  5
615
330
1F
100
AcDbEntity
  8
002
 62
     3
370
    30
100
AcDbLine
 10
1311.34751
 20
432.215625
 30
0.0
 11
1311.34751
 21
438.215625
 31
0.0
  0
LINE
  5
616
330
1F
100
AcDbEntity
  8
002
 62
     3
370
    30
100
AcDbLine
 10
1314.59751
 20
438.215625
 30
0.0
 11
1314.59751
 21
434.515625
 31
0.0
  0
LINE
  5
617
330
1F
100
AcDbEntity
  8
002
 62
     3
370
    30
100
AcDbLine
 10
1313.79751
 20
434.515625
 30
0.0
 11
1313.79751
 21
421.515625
 31
0.0
  0
LINE
  5
618
330
1F
100
AcDbEntity
  8
002
 62
     3
370
    30
100
AcDbLine
 10
1314.39751
 20
421.515625
 30
0.0
 11
1314.39751
 21
420.515625
 31
0.0
  0
LINE
  5
619
330
1F
100
AcDbEntity
  8
002
 62
     3
370
    30
100
AcDbLine
 10
1314.39751
 20
420.515625
 30
0.0
 11
1298.17391
 21
417.500525
 31
0.0
  0
LINE
  5
61A
330
1F
100
AcDbEntity
  8
002
 62
     3
370
    30
100
AcDbLine
 10
1298.34751
 20
416.515625
 30
0.0
 11
1391.34751
 21
416.515625
 31
0.0
  0
LINE
  5
61B
330
1F
100
AcDbEntity
  8
002
 62
     3
370
    30
100
AcDbLine
 10
1391.52101
 20
417.500525
 30
0.0
 11
1375.29751
 21
420.515625
 31
0.0
  0
LINE
  5
61C
330
1F
100
AcDbEntity
  8
002
 62
     3
370
    30
100
AcDbLine
 10
1316.52101
 20
413.500525
 30
0.0
 11
1298.17391
 21
415.530825
 31
0.0
  0
ARC
  5
61D
330
1F
100
AcDbEntity
  8
002
 62
     3
370
    30
100
AcDbCircle
 10
1298.34751
 20
416.515625
 30
0.0
 40
1.000082481598435
100
AcDbArc
 50
99.996364
 51
260.002641
  0
LINE
  5
61E
330
1F
100
AcDbEntity
  8
002
 62
     3
370
    30
100
AcDbLine
 10
1298.17391
 20
409.500525
 30
0.0
 11
1316.52101
 21
411.530825
 31
0.0
  0
ARC
  5
61F
330
1F
100
AcDbEntity
  8
002
 62
     3
370
    30
100
AcDbCircle
 10
1316.34751
 20
412.515625
 30
0.0
 40
0.9999666444436526
100
AcDbArc
 50
279.991716
 51
80.009278
  0
LINE
  5
620
330
1F
100
AcDbEntity
  8
002
 62
     3
370
    30
100
AcDbLine
 10
1318.34751
 20
412.515625
 30
0.0
 11
1371.34751
 21
412.515625
 31
0.0
  0
ARC
  5
621
330
1F
100
AcDbEntity
  8
002
 62
     3
370
    30
100
AcDbCircle
 10
1373.34751
 20
412.515625
 30
0.0
 40
1.000082481598435
100
AcDbArc
 50
99.996364
 51
260.002641
  0
LINE
  5
622
330
1F
100
AcDbEntity
  8
002
 62
     3
370
    30
100
AcDbLine
 10
1373.17391
 20
413.500525
 30
0.0
 11
1391.52101
 21
415.530825
 31
0.0
  0
ARC
  5
623
330
1F
100
AcDbEntity
  8
002
 62
     3
370
    30
100
AcDbCircle
 10
1391.34751
 20
416.515625
 30
0.0
 40
0.9999666444436526
100
AcDbArc
 50
279.991716
 51
80.009278
  0
ARC
  5
624
330
1F
100
AcDbEntity
  8
002
 62
     3
370
    30
100
AcDbCircle
 10
1391.34751
 20
408.515625
 30
0.0
 40
0.9999666444436526
100
AcDbArc
 50
279.991716
 51
80.009278
  0
LINE
  5
625
330
1F
100
AcDbEntity
  8
002
 62
     3
370
    30
100
AcDbLine
 10
1391.52101
 20
407.530825
 30
0.0
 11
1373.17391
 21
405.500525
 31
0.0
  0
LINE
  5
626
330
1F
100
AcDbEntity
  8
002
 62
     3
370
    30
100
AcDbLine
 10
1373.17391
 20
403.530825
 30
0.0
 11
1391.52101
 21
401.500525
 31
0.0
  0
ARC
  5
627
330
1F
100
AcDbEntity
  8
002
 62
     3
370
    30
100
AcDbCircle
 10
1391.34751
 20
400.515625
 30
0.0
 40
0.9999666444436526
100
AcDbArc
 50
279.991716
 51
80.009278
  0
LINE
  5
628
330
1F
100
AcDbEntity
  8
002
 62
     3
370
    30
100
AcDbLine
 10
1391.52101
 20
399.530825
 30
0.0
 11
1373.17391
 21
397.500525
 31
0.0
  0
ARC
  5
629
330
1F
100
AcDbEntity
  8
002
 62
     3
370
    30
100
AcDbCircle
 10
1373.34751
 20
396.515625
 30
0.0
 40
1.000082481598435
100
AcDbArc
 50
99.996364
 51
180.0
  0
LINE
  5
62A
330
1F
100
AcDbEntity
  8
002
 62
     3
370
    30
100
AcDbLine
 10
1371.34751
 20
396.515625
 30
0.0
 11
1318.34751
 21
396.515625
 31
0.0
  0
LINE
  5
62B
330
1F
100
AcDbEntity
  8
002
 62
     3
370
    30
100
AcDbLine
 10
1316.52101
 20
397.500525
 30
0.0
 11
1298.17391
 21
399.530825
 31
0.0
  0
ARC
  5
62C
330
1F
100
AcDbEntity
  8
002
 62
     3
370
    30
100
AcDbCircle
 10
1298.34751
 20
400.515625
 30
0.0
 40
1.000082481598435
100
AcDbArc
 50
99.996364
 51
260.002641
  0
LINE
  5
62D
330
1F
100
AcDbEntity
  8
002
 62
     3
370
    30
100
AcDbLine
 10
1298.17391
 20
401.500525
 30
0.0
 11
1316.52101
 21
403.530825
 31
0.0
  0
LINE
  5
62E
330
1F
100
AcDbEntity
  8
002
 62
     3
370
    30
100
AcDbLine
 10
1316.52101
 20
405.500525
 30
0.0
 11
1298.17391
 21
407.530825
 31
0.0
  0
ARC
  5
62F
330
1F
100
AcDbEntity
  8
002
 62
     3
370
    30
100
AcDbCircle
 10
1298.34751
 20
408.515625
 30
0.0
 40
1.000082481598435
100
AcDbArc
 50
99.996364
 51
260.002641
  0
LINE
  5
630
330
1F
100
AcDbEntity
  8
002
 62
     3
370
    30
100
AcDbLine
 10
1298.34751
 20
408.515625
 30
0.0
 11
1391.34751
 21
408.515625
 31
0.0
  0
LINE
  5
631
330
1F
100
AcDbEntity
  8
002
 62
     3
370
    30
100
AcDbLine
 10
1391.52101
 20
409.500525
 30
0.0
 11
1373.17391
 21
411.530825
 31
0.0
  0
LINE
  5
632
330
1F
100
AcDbEntity
  8
002
 62
     3
370
    30
100
AcDbLine
 10
1371.34751
 20
404.515625
 30
0.0
 11
1318.34751
 21
404.515625
 31
0.0
  0
ARC
  5
633
330
1F
100
AcDbEntity
  8
002
 62
     3
370
    30
100
AcDbCircle
 10
1316.34751
 20
404.515625
 30
0.0
 40
0.9999666444436526
100
AcDbArc
 50
279.991716
 51
80.009278
  0
ARC
  5
634
330
1F
100
AcDbEntity
  8
002
 62
     3
370
    30
100
AcDbCircle
 10
1316.34751
 20
396.515625
 30
0.0
 40
1.0
100
AcDbArc
 50
0.0
 51
80.009278
  0
LINE
  5
635
330
1F
100
AcDbEntity
  8
002
 62
     3
370
    30
100
AcDbLine
 10
1298.34751
 20
400.515625
 30
0.0
 11
1391.34751
 21
400.515625
 31
0.0
  0
ARC
  5
636
330
1F
100
AcDbEntity
  8
002
 62
     3
370
    30
100
AcDbCircle
 10
1373.34751
 20
404.515625
 30
0.0
 40
1.000082481598435
100
AcDbArc
 50
99.996364
 51
260.002641
  0
LINE
  5
637
330
1F
100
AcDbEntity
  8
002
 62
     3
370
    30
100
AcDbLine
 10
1375.29751
 20
420.515625
 30
0.0
 11
1375.29751
 21
421.515625
 31
0.0
  0
LINE
  5
638
330
1F
100
AcDbEntity
  8
002
 62
     3
370
    30
100
AcDbLine
 10
1375.89751
 20
434.515625
 30
0.0
 11
1349.84751
 21
434.515625
 31
0.0
  0
LINE
  5
639
330
1F
100
AcDbEntity
  8
002
 62
     3
370
    30
100
AcDbLine
 10
1339.84751
 20
432.215625
 30
0.0
 11
1339.84751
 21
438.215625
 31
0.0
  0
LINE
  5
63A
330
1F
100
AcDbEntity
  8
002
 62
     3
370
    30
100
AcDbLine
 10
1339.84751
 20
434.515625
 30
0.0
 11
1311.34751
 21
434.515625
 31
0.0
  0
LINE
  5
63B
330
1F
100
AcDbEntity
  8
002
 62
     3
370
    30
100
AcDbLine
 10
1311.34751
 20
432.215625
 30
0.0
 11
1301.34751
 21
432.215625
 31
0.0
  0
LINE
  5
63C
330
1F
100
AcDbEntity
  8
002
 62
     3
370
    30
100
AcDbLine
 10
1301.34751
 20
432.215625
 30
0.0
 11
1301.34751
 21
438.215625
 31
0.0
  0
CIRCLE
  5
63D
330
1F
100
AcDbEntity
  8
002
 62
     3
370
    30
100
AcDbCircle
 10
1308.79751
 20
428.015625
 30
0.0
 40
1.0
  0
LINE
  5
63E
330
1F
100
AcDbEntity
  8
002
 62
     3
370
    30
100
AcDbLine
 10
1339.84751
 20
432.215625
 30
0.0
 11
1349.84751
 21
432.215625
 31
0.0
  0
LINE
  5
63F
330
1F
100
AcDbEntity
  8
002
 62
     3
370
    30
100
AcDbLine
 10
1349.84751
 20
432.215625
 30
0.0
 11
1349.84751
 21
438.215625
 31
0.0
  0
LINE
  5
640
330
1F
100
AcDbEntity
  8
002
  6
CENTER
 62
    40
370
     9
100
AcDbLine
 10
1306.34751
 20
445.813725
 30
0.0
 11
1306.34751
 21
430.262025
 31
0.0
  0
LINE
  5
641
330
1F
100
AcDbEntity
  8
002
  6
CENTER
 62
    40
370
     9
100
AcDbLine
 10
1306.42971
 20
428.015625
 30
0.0
 11
1311.45481
 21
428.015625
 31
0.0
  0
LINE
  5
642
330
1F
100
AcDbEntity
  8
002
  6
CENTER
 62
    40
370
     9
100
AcDbLine
 10
1308.79751
 20
431.267825
 30
0.0
 11
1308.79751
 21
424.507925
 31
0.0
  0
LINE
  5
643
330
1F
100
AcDbEntity
  8
002
  6
CENTER
 62
    40
370
     9
100
AcDbLine
 10
1383.34751
 20
429.706425
 30
0.0
 11
1383.34751
 21
445.813725
 31
0.0
  0
LINE
  5
644
330
1F
100
AcDbEntity
  8
002
  6
PHANTOM
 62
    40
370
     9
100
AcDbLine
 10
1392.34751
 20
317.515625
 30
0.0
 11
1392.34751
 21
400.515625
 31
0.0
  0
LINE
  5
645
330
1F
100
AcDbEntity
  8
002
  6
PHANTOM
 62
    40
370
     9
100
AcDbLine
 10
1372.34751
 20
396.515625
 30
0.0
 11
1372.34751
 21
321.515625
 31
0.0
  0
LINE
  5
646
330
1F
100
AcDbEntity
  8
002
  6
PHANTOM
 62
    40
370
     9
100
AcDbLine
 10
1317.34751
 20
321.515625
 30
0.0
 11
1317.34751
 21
396.515625
 31
0.0
  0
LINE
  5
647
330
1F
100
AcDbEntity
  8
002
  6
PHANTOM
 62
    40
370
     9
100
AcDbLine
 10
1297.34751
 20
400.515625
 30
0.0
 11
1297.34751
 21
317.515625
 31
0.0
  0
LINE
  5
648
330
1F
100
AcDbEntity
  8
002
 62
     3
370
    30
100
AcDbLine
 10
1391.52101
 20
318.500525
 30
0.0
 11
1373.17391
 21
320.530825
 31
0.0
  0
ARC
  5
649
330
1F
100
AcDbEntity
  8
002
 62
     3
370
    30
100
AcDbCircle
 10
1373.34751
 20
321.515625
 30
0.0
 40
1.0
100
AcDbArc
 50
180.0
 51
260.002641
  0
LINE
  5
64A
330
1F
100
AcDbEntity
  8
002
 62
     3
370
    30
100
AcDbLine
 10
1371.34751
 20
321.515625
 30
0.0
 11
1318.34751
 21
321.515625
 31
0.0
  0
ARC
  5
64B
330
1F
100
AcDbEntity
  8
002
 62
     3
370
    30
100
AcDbCircle
 10
1316.34751
 20
321.515625
 30
0.0
 40
0.9999666444436526
100
AcDbArc
 50
279.991716
 51
0.0
  0
LINE
  5
64C
330
1F
100
AcDbEntity
  8
002
 62
     3
370
    30
100
AcDbLine
 10
1316.52101
 20
320.530825
 30
0.0
 11
1298.17391
 21
318.500525
 31
0.0
  0
LINE
  5
64D
330
1F
100
AcDbEntity
  8
002
 62
     3
370
    30
100
AcDbLine
 10
1298.34751
 20
317.515625
 30
0.0
 11
1391.34751
 21
317.515625
 31
0.0
  0
LINE
  5
64E
330
1F
100
AcDbEntity
  8
002
 62
     3
370
    30
100
AcDbLine
 10
1391.52101
 20
316.530825
 30
0.0
 11
1373.17391
 21
314.500525
 31
0.0
  0
LINE
  5
64F
330
1F
100
AcDbEntity
  8
002
 62
     3
370
    30
100
AcDbLine
 10
1373.17391
 20
312.530825
 30
0.0
 11
1391.52101
 21
310.500525
 31
0.0
  0
ARC
  5
650
330
1F
100
AcDbEntity
  8
002
 62
     3
370
    30
100
AcDbCircle
 10
1391.34751
 20
309.515625
 30
0.0
 40
0.9999666444436526
100
AcDbArc
 50
279.991716
 51
80.009278
  0
LINE
  5
651
330
1F
100
AcDbEntity
  8
002
 62
     3
370
    30
100
AcDbLine
 10
1391.52101
 20
308.530825
 30
0.0
 11
1373.17391
 21
306.500525
 31
0.0
  0
LINE
  5
652
330
1F
100
AcDbEntity
  8
002
 62
     3
370
    30
100
AcDbLine
 10
1373.17391
 20
304.530825
 30
0.0
 11
1391.52101
 21
302.500525
 31
0.0
  0
ARC
  5
653
330
1F
100
AcDbEntity
  8
002
 62
     3
370
    30
100
AcDbCircle
 10
1391.34751
 20
301.515625
 30
0.0
 40
0.9999666444436526
100
AcDbArc
 50
279.991716
 51
80.009278
  0
LINE
  5
654
330
1F
100
AcDbEntity
  8
002
 62
     3
370
    30
100
AcDbLine
 10
1391.52101
 20
300.530825
 30
0.0
 11
1373.17391
 21
298.500525
 31
0.0
  0
LINE
  5
655
330
1F
100
AcDbEntity
  8
002
 62
     3
370
    30
100
AcDbLine
 10
1373.17391
 20
296.530825
 30
0.0
 11
1391.52101
 21
294.500525
 31
0.0
  0
ARC
  5
656
330
1F
100
AcDbEntity
  8
002
 62
     3
370
    30
100
AcDbCircle
 10
1391.34751
 20
293.515625
 30
0.0
 40
0.9999666444436526
100
AcDbArc
 50
279.991716
 51
80.009278
  0
LINE
  5
657
330
1F
100
AcDbEntity
  8
002
 62
     3
370
    30
100
AcDbLine
 10
1391.52101
 20
292.530825
 30
0.0
 11
1363.54751
 21
289.515625
 31
0.0
  0
LINE
  5
658
330
1F
100
AcDbEntity
  8
002
 62
     3
370
    30
100
AcDbLine
 10
1326.14751
 20
289.515625
 30
0.0
 11
1298.17391
 21
292.530825
 31
0.0
  0
ARC
  5
659
330
1F
100
AcDbEntity
  8
002
 62
     3
370
    30
100
AcDbCircle
 10
1298.34751
 20
293.515625
 30
0.0
 40
1.000082481598435
100
AcDbArc
 50
99.996364
 51
260.002641
  0
LINE
  5
65A
330
1F
100
AcDbEntity
  8
002
 62
     3
370
    30
100
AcDbLine
 10
1298.17391
 20
294.500525
 30
0.0
 11
1316.52101
 21
296.530825
 31
0.0
  0
LINE
  5
65B
330
1F
100
AcDbEntity
  8
002
 62
     3
370
    30
100
AcDbLine
 10
1316.52101
 20
298.500525
 30
0.0
 11
1298.17391
 21
300.530825
 31
0.0
  0
ARC
  5
65C
330
1F
100
AcDbEntity
  8
002
 62
     3
370
    30
100
AcDbCircle
 10
1298.34751
 20
301.515625
 30
0.0
 40
1.000082481598435
100
AcDbArc
 50
99.996364
 51
260.002641
  0
LINE
  5
65D
330
1F
100
AcDbEntity
  8
002
 62
     3
370
    30
100
AcDbLine
 10
1298.17391
 20
302.500525
 30
0.0
 11
1316.52101
 21
304.530825
 31
0.0
  0
LINE
  5
65E
330
1F
100
AcDbEntity
  8
002
 62
     3
370
    30
100
AcDbLine
 10
1316.52101
 20
306.500525
 30
0.0
 11
1298.17391
 21
308.530825
 31
0.0
  0
ARC
  5
65F
330
1F
100
AcDbEntity
  8
002
 62
     3
370
    30
100
AcDbCircle
 10
1298.34751
 20
309.515625
 30
0.0
 40
1.000082481598435
100
AcDbArc
 50
99.996364
 51
260.002641
  0
LINE
  5
660
330
1F
100
AcDbEntity
  8
002
 62
     3
370
    30
100
AcDbLine
 10
1298.17391
 20
310.500525
 30
0.0
 11
1316.52101
 21
312.530825
 31
0.0
  0
LINE
  5
661
330
1F
100
AcDbEntity
  8
002
 62
     3
370
    30
100
AcDbLine
 10
1316.52101
 20
314.500525
 30
0.0
 11
1298.17391
 21
316.530825
 31
0.0
  0
ARC
  5
662
330
1F
100
AcDbEntity
  8
002
 62
     3
370
    30
100
AcDbCircle
 10
1298.34751
 20
317.515625
 30
0.0
 40
1.000082481598435
100
AcDbArc
 50
99.996364
 51
260.002641
  0
LINE
  5
663
330
1F
100
AcDbEntity
  8
002
 62
     3
370
    30
100
AcDbLine
 10
1298.34751
 20
309.515625
 30
0.0
 11
1391.34751
 21
309.515625
 31
0.0
  0
LINE
  5
664
330
1F
100
AcDbEntity
  8
002
 62
     3
370
    30
100
AcDbLine
 10
1391.34751
 20
301.515625
 30
0.0
 11
1298.34751
 21
301.515625
 31
0.0
  0
LINE
  5
665
330
1F
100
AcDbEntity
  8
002
 62
     3
370
    30
100
AcDbLine
 10
1298.34751
 20
293.515625
 30
0.0
 11
1391.34751
 21
293.515625
 31
0.0
  0
ARC
  5
666
330
1F
100
AcDbEntity
  8
002
 62
     3
370
    30
100
AcDbCircle
 10
1373.34751
 20
297.515625
 30
0.0
 40
1.000082481598435
100
AcDbArc
 50
99.996364
 51
260.002641
  0
LINE
  5
667
330
1F
100
AcDbEntity
  8
002
 62
     3
370
    30
100
AcDbLine
 10
1371.34751
 20
297.515625
 30
0.0
 11
1318.34751
 21
297.515625
 31
0.0
  0
ARC
  5
668
330
1F
100
AcDbEntity
  8
002
 62
     3
370
    30
100
AcDbCircle
 10
1316.34751
 20
297.515625
 30
0.0
 40
0.9999666444436526
100
AcDbArc
 50
279.991716
 51
80.009278
  0
LINE
  5
669
330
1F
100
AcDbEntity
  8
002
 62
     3
370
    30
100
AcDbLine
 10
1317.54751
 20
288.515625
 30
0.0
 11
1364.14751
 21
288.515625
 31
0.0
  0
LINE
  5
66A
330
1F
100
AcDbEntity
  8
002
 62
     3
370
    30
100
AcDbLine
 10
1364.14751
 20
288.515625
 30
0.0
 11
1364.14751
 21
276.516125
 31
0.0
  0
LINE
  5
66B
330
1F
100
AcDbEntity
  8
002
 62
     3
370
    30
100
AcDbLine
 10
1364.14751
 20
276.516125
 30
0.0
 11
1317.54751
 21
276.516125
 31
0.0
  0
ARC
  5
66C
330
1F
100
AcDbEntity
  8
002
 62
     3
370
    30
100
AcDbCircle
 10
1317.54751
 20
278.516125
 30
0.0
 40
2.0
100
AcDbArc
 50
180.0
 51
270.0
  0
LINE
  5
66D
330
1F
100
AcDbEntity
  8
002
 62
     3
370
    30
100
AcDbLine
 10
1315.54751
 20
278.516125
 30
0.0
 11
1315.54751
 21
286.515625
 31
0.0
  0
ARC
  5
66E
330
1F
100
AcDbEntity
  8
002
 62
     3
370
    30
100
AcDbCircle
 10
1317.54751
 20
286.515625
 30
0.0
 40
2.0
100
AcDbArc
 50
90.0
 51
180.0
  0
CIRCLE
  5
66F
330
1F
100
AcDbEntity
  8
002
 62
     3
370
    30
100
AcDbCircle
 10
1320.54751
 20
282.016125
 30
0.0
 40
1.0
  0
LINE
  5
670
330
1F
100
AcDbEntity
  8
002
 62
     3
370
    30
100
AcDbLine
 10
1325.54751
 20
288.515625
 30
0.0
 11
1325.54751
 21
276.516125
 31
0.0
  0
LINE
  5
671
330
1F
100
AcDbEntity
  8
002
 62
     3
370
    30
100
AcDbLine
 10
1326.14751
 20
276.516125
 30
0.0
 11
1326.14751
 21
273.516125
 31
0.0
  0
LINE
  5
672
330
1F
100
AcDbEntity
  8
002
 62
     3
370
    30
100
AcDbLine
 10
1363.54751
 20
273.516125
 30
0.0
 11
1363.54751
 21
276.516125
 31
0.0
  0
LINE
  5
673
330
1F
100
AcDbEntity
  8
002
 62
     3
370
    30
100
AcDbLine
 10
1363.54751
 20
273.516125
 30
0.0
 11
1326.14751
 21
273.516125
 31
0.0
  0
LINE
  5
674
330
1F
100
AcDbEntity
  8
002
 62
     3
370
    30
100
AcDbLine
 10
1333.84691
 20
273.516125
 30
0.0
 11
1333.84691
 21
270.016125
 31
0.0
  0
LINE
  5
675
330
1F
100
AcDbEntity
  8
002
 62
     3
370
    30
100
AcDbLine
 10
1332.34691
 20
270.016125
 30
0.0
 11
1332.34691
 21
241.516125
 31
0.0
  0
LINE
  5
676
330
1F
100
AcDbEntity
  8
002
 62
     3
370
    30
100
AcDbLine
 10
1332.34691
 20
241.516125
 30
0.0
 11
1357.34691
 21
241.516125
 31
0.0
  0
LINE
  5
677
330
1F
100
AcDbEntity
  8
002
 62
     3
370
    30
100
AcDbLine
 10
1357.34691
 20
241.516125
 30
0.0
 11
1357.34691
 21
270.016125
 31
0.0
  0
LINE
  5
678
330
1F
100
AcDbEntity
  8
002
 62
     3
370
    30
100
AcDbLine
 10
1357.34691
 20
270.016125
 30
0.0
 11
1332.34691
 21
270.016125
 31
0.0
  0
LINE
  5
679
330
1F
100
AcDbEntity
  8
002
 62
     3
370
    30
100
AcDbLine
 10
1326.14751
 20
288.515625
 30
0.0
 11
1326.14751
 21
289.515625
 31
0.0
  0
LINE
  5
67A
330
1F
100
AcDbEntity
  8
002
 62
     3
370
    30
100
AcDbLine
 10
1318.34751
 20
305.515625
 30
0.0
 11
1371.34751
 21
305.515625
 31
0.0
  0
ARC
  5
67B
330
1F
100
AcDbEntity
  8
002
 62
     3
370
    30
100
AcDbCircle
 10
1373.34751
 20
305.515625
 30
0.0
 40
1.000082481598435
100
AcDbArc
 50
99.996364
 51
260.002641
  0
ARC
  5
67C
330
1F
100
AcDbEntity
  8
002
 62
     3
370
    30
100
AcDbCircle
 10
1373.34751
 20
313.515625
 30
0.0
 40
1.000082481598435
100
AcDbArc
 50
99.996364
 51
260.002641
  0
LINE
  5
67D
330
1F
100
AcDbEntity
  8
002
 62
     3
370
    30
100
AcDbLine
 10
1371.34751
 20
313.515625
 30
0.0
 11
1318.34751
 21
313.515625
 31
0.0
  0
ARC
  5
67E
330
1F
100
AcDbEntity
  8
002
 62
     3
370
    30
100
AcDbCircle
 10
1316.34751
 20
313.515625
 30
0.0
 40
0.9999666444436526
100
AcDbArc
 50
279.991716
 51
80.009278
  0
ARC
  5
67F
330
1F
100
AcDbEntity
  8
002
 62
     3
370
    30
100
AcDbCircle
 10
1316.34751
 20
305.515625
 30
0.0
 40
0.9999666444436526
100
AcDbArc
 50
279.991716
 51
80.009278
  0
LINE
  5
680
330
1F
100
AcDbEntity
  8
002
 62
     3
370
    30
100
AcDbLine
 10
1363.54751
 20
289.515625
 30
0.0
 11
1363.54751
 21
288.515625
 31
0.0
  0
LINE
  5
681
330
1F
100
AcDbEntity
  8
002
 62
     3
370
    30
100
AcDbLine
 10
1355.84691
 20
273.516125
 30
0.0
 11
1355.84691
 21
270.016125
 31
0.0
  0
ARC
  5
682
330
1F
100
AcDbEntity
  8
002
 62
     3
370
    30
100
AcDbCircle
 10
1391.34751
 20
317.515625
 30
0.0
 40
0.9999666444436526
100
AcDbArc
 50
279.991716
 51
80.009278
  0
LINE
  5
683
330
1F
100
AcDbEntity
  8
002
 62
    40
370
     9
100
AcDbLine
 10
1355.94691
 20
270.016125
 30
0.0
 11
1355.94691
 21
241.516125
 31
0.0
  0
LINE
  5
684
330
1F
100
AcDbEntity
  8
002
 62
    40
370
     9
100
AcDbLine
 10
1333.74691
 20
241.516125
 30
0.0
 11
1333.74691
 21
270.016125
 31
0.0
  0
LINE
  5
685
330
1F
100
AcDbEntity
  8
002
  6
CENTER
 62
    40
370
     9
100
AcDbLine
 10
1320.54751
 20
278.508125
 30
0.0
 11
1320.54751
 21
285.268125
 31
0.0
  0
LINE
  5
686
330
1F
100
AcDbEntity
  8
002
  6
CENTER
 62
    40
370
     9
100
AcDbLine
 10
1318.17971
 20
282.016125
 30
0.0
 11
1323.20481
 21
282.016125
 31
0.0
  0
LINE
  5
687
330
1F
100
AcDbEntity
  8
002
  6
CENTER
 62
    40
370
     9
100
AcDbLine
 10
346.840314
 20
1318.708653
 30
0.0
 11
346.840314
 21
1341.104653
 31
0.0
  0
LINE
  5
688
330
1F
100
AcDbEntity
  8
002
  6
CENTER
 62
    40
370
     9
100
AcDbLine
 10
297.342314
 20
1341.104653
 30
0.0
 11
297.342314
 21
1318.708653
 31
0.0
  0
LINE
  5
689
330
1F
100
AcDbEntity
  8
002
  6
CENTER
 62
    40
370
     9
100
AcDbLine
 10
297.342314
 20
1498.341653
 30
0.0
 11
297.342314
 21
1475.946653
 31
0.0
  0
LINE
  5
68A
330
1F
100
AcDbEntity
  8
002
  6
CENTER
 62
    40
370
     9
100
AcDbLine
 10
346.840314
 20
1475.946653
 30
0.0
 11
346.840314
 21
1498.341653
 31
0.0
  0
POLYLINE
  5
68B
330
1F
100
AcDbEntity
  8
002
 62
     3
370
     9
100
AcDb2dPolyline
 66
     1
 10
0.0
 20
0.0
 30
0.0
  0
VERTEX
  5
68D
330
68B
100
AcDbEntity
  8
002
 62
     3
370
     9
100
AcDbVertex
100
AcDb2dVertex
 10
236.091314
 20
285.015625
 30
0.0
  0
VERTEX
  5
68E
330
68B
100
AcDbEntity
  8
002
 62
     3
370
     9
100
AcDbVertex
100
AcDb2dVertex
 10
239.091314
 20
282.647625
 30
0.0
  0
VERTEX
  5
68F
330
68B
100
AcDbEntity
  8
002
 62
     3
370
     9
100
AcDbVertex
100
AcDb2dVertex
 10
242.091314
 20
280.471625
 30
0.0
  0
VERTEX
  5
690
330
68B
100
AcDbEntity
  8
002
 62
     3
370
     9
100
AcDbVertex
100
AcDb2dVertex
 10
245.091314
 20
278.679625
 30
0.0
  0
VERTEX
  5
691
330
68B
100
AcDbEntity
  8
002
 62
     3
370
     9
100
AcDbVertex
100
AcDb2dVertex
 10
248.091314
 20
277.463625
 30
0.0
  0
VERTEX
  5
692
330
68B
100
AcDbEntity
  8
002
 62
     3
370
     9
100
AcDbVertex
100
AcDb2dVertex
 10
251.091314
 20
277.015625
 30
0.0
  0
VERTEX
  5
693
330
68B
100
AcDbEntity
  8
002
 62
     3
370
     9
100
AcDbVertex
100
AcDb2dVertex
 10
254.091314
 20
277.463625
 30
0.0
  0
VERTEX
  5
694
330
68B
100
AcDbEntity
  8
002
 62
     3
370
     9
100
AcDbVertex
100
AcDb2dVertex
 10
257.091314
 20
278.679625
 30
0.0
  0
VERTEX
  5
695
330
68B
100
AcDbEntity
  8
002
 62
     3
370
     9
100
AcDbVertex
100
AcDb2dVertex
 10
260.091314
 20
280.471625
 30
0.0
  0
VERTEX
  5
696
330
68B
100
AcDbEntity
  8
002
 62
     3
370
     9
100
AcDbVertex
100
AcDb2dVertex
 10
263.091314
 20
282.647625
 30
0.0
  0
VERTEX
  5
697
330
68B
100
AcDbEntity
  8
002
 62
     3
370
     9
100
AcDbVertex
100
AcDb2dVertex
 10
266.091314
 20
285.015625
 30
0.0
  0
VERTEX
  5
698
330
68B
100
AcDbEntity
  8
002
 62
     3
370
     9
100
AcDbVertex
100
AcDb2dVertex
 10
269.091314
 20
287.383625
 30
0.0
  0
VERTEX
  5
699
330
68B
100
AcDbEntity
  8
002
 62
     3
370
     9
100
AcDbVertex
100
AcDb2dVertex
 10
272.091314
 20
289.559625
 30
0.0
  0
VERTEX
  5
69A
330
68B
100
AcDbEntity
  8
002
 62
     3
370
     9
100
AcDbVertex
100
AcDb2dVertex
 10
275.091314
 20
291.351625
 30
0.0
  0
VERTEX
  5
69B
330
68B
100
AcDbEntity
  8
002
 62
     3
370
     9
100
AcDbVertex
100
AcDb2dVertex
 10
278.091314
 20
292.567625
 30
0.0
  0
VERTEX
  5
69C
330
68B
100
AcDbEntity
  8
002
 62
     3
370
     9
100
AcDbVertex
100
AcDb2dVertex
 10
281.091314
 20
293.015625
 30
0.0
  0
VERTEX
  5
69D
330
68B
100
AcDbEntity
  8
002
 62
     3
370
     9
100
AcDbVertex
100
AcDb2dVertex
 10
284.091314
 20
292.567625
 30
0.0
  0
VERTEX
  5
69E
330
68B
100
AcDbEntity
  8
002
 62
     3
370
     9
100
AcDbVertex
100
AcDb2dVertex
 10
287.091314
 20
291.351625
 30
0.0
  0
VERTEX
  5
69F
330
68B
100
AcDbEntity
  8
002
 62
     3
370
     9
100
AcDbVertex
100
AcDb2dVertex
 10
290.091314
 20
289.559625
 30
0.0
  0
VERTEX
  5
6A0
330
68B
100
AcDbEntity
  8
002
 62
     3
370
     9
100
AcDbVertex
100
AcDb2dVertex
 10
293.091314
 20
287.383625
 30
0.0
  0
VERTEX
  5
6A1
330
68B
100
AcDbEntity
  8
002
 62
     3
370
     9
100
AcDbVertex
100
AcDb2dVertex
 10
296.091314
 20
285.015625
 30
0.0
  0
SEQEND
  5
68C
330
68B
100
AcDbEntity
  8
002
370
     9
  0
POLYLINE
  5
6A2
330
1F
100
AcDbEntity
  8
002
 62
     3
370
     9
100
AcDb2dPolyline
 66
     1
 10
0.0
 20
0.0
 30
0.0
  0
VERTEX
  5
6A4
330
6A2
100
AcDbEntity
  8
002
 62
     3
370
     9
100
AcDbVertex
100
AcDb2dVertex
 10
236.091314
 20
301.015625
 30
0.0
  0
VERTEX
  5
6A5
330
6A2
100
AcDbEntity
  8
002
 62
     3
370
     9
100
AcDbVertex
100
AcDb2dVertex
 10
239.091314
 20
298.647625
 30
0.0
  0
VERTEX
  5
6A6
330
6A2
100
AcDbEntity
  8
002
 62
     3
370
     9
100
AcDbVertex
100
AcDb2dVertex
 10
242.091314
 20
296.471625
 30
0.0
  0
VERTEX
  5
6A7
330
6A2
100
AcDbEntity
  8
002
 62
     3
370
     9
100
AcDbVertex
100
AcDb2dVertex
 10
245.091314
 20
294.679625
 30
0.0
  0
VERTEX
  5
6A8
330
6A2
100
AcDbEntity
  8
002
 62
     3
370
     9
100
AcDbVertex
100
AcDb2dVertex
 10
248.091314
 20
293.463625
 30
0.0
  0
VERTEX
  5
6A9
330
6A2
100
AcDbEntity
  8
002
 62
     3
370
     9
100
AcDbVertex
100
AcDb2dVertex
 10
251.091314
 20
293.015625
 30
0.0
  0
VERTEX
  5
6AA
330
6A2
100
AcDbEntity
  8
002
 62
     3
370
     9
100
AcDbVertex
100
AcDb2dVertex
 10
254.091314
 20
293.463625
 30
0.0
  0
VERTEX
  5
6AB
330
6A2
100
AcDbEntity
  8
002
 62
     3
370
     9
100
AcDbVertex
100
AcDb2dVertex
 10
257.091314
 20
294.679625
 30
0.0
  0
VERTEX
  5
6AC
330
6A2
100
AcDbEntity
  8
002
 62
     3
370
     9
100
AcDbVertex
100
AcDb2dVertex
 10
260.091314
 20
296.471625
 30
0.0
  0
VERTEX
  5
6AD
330
6A2
100
AcDbEntity
  8
002
 62
     3
370
     9
100
AcDbVertex
100
AcDb2dVertex
 10
263.091314
 20
298.647625
 30
0.0
  0
VERTEX
  5
6AE
330
6A2
100
AcDbEntity
  8
002
 62
     3
370
     9
100
AcDbVertex
100
AcDb2dVertex
 10
266.091314
 20
301.015625
 30
0.0
  0
VERTEX
  5
6AF
330
6A2
100
AcDbEntity
  8
002
 62
     3
370
     9
100
AcDbVertex
100
AcDb2dVertex
 10
269.091314
 20
303.383625
 30
0.0
  0
VERTEX
  5
6B0
330
6A2
100
AcDbEntity
  8
002
 62
     3
370
     9
100
AcDbVertex
100
AcDb2dVertex
 10
272.091314
 20
305.559625
 30
0.0
  0
VERTEX
  5
6B1
330
6A2
100
AcDbEntity
  8
002
 62
     3
370
     9
100
AcDbVertex
100
AcDb2dVertex
 10
275.091314
 20
307.351625
 30
0.0
  0
VERTEX
  5
6B2
330
6A2
100
AcDbEntity
  8
002
 62
     3
370
     9
100
AcDbVertex
100
AcDb2dVertex
 10
278.091314
 20
308.567625
 30
0.0
  0
VERTEX
  5
6B3
330
6A2
100
AcDbEntity
  8
002
 62
     3
370
     9
100
AcDbVertex
100
AcDb2dVertex
 10
281.091314
 20
309.015625
 30
0.0
  0
VERTEX
  5
6B4
330
6A2
100
AcDbEntity
  8
002
 62
     3
370
     9
100
AcDbVertex
100
AcDb2dVertex
 10
284.091314
 20
308.567625
 30
0.0
  0
VERTEX
  5
6B5
330
6A2
100
AcDbEntity
  8
002
 62
     3
370
     9
100
AcDbVertex
100
AcDb2dVertex
 10
287.091314
 20
307.351625
 30
0.0
  0
VERTEX
  5
6B6
330
6A2
100
AcDbEntity
  8
002
 62
     3
370
     9
100
AcDbVertex
100
AcDb2dVertex
 10
290.091314
 20
305.559625
 30
0.0
  0
VERTEX
  5
6B7
330
6A2
100
AcDbEntity
  8
002
 62
     3
370
     9
100
AcDbVertex
100
AcDb2dVertex
 10
293.091314
 20
303.383625
 30
0.0
  0
VERTEX
  5
6B8
330
6A2
100
AcDbEntity
  8
002
 62
     3
370
     9
100
AcDbVertex
100
AcDb2dVertex
 10
296.091314
 20
301.015625
 30
0.0
  0
SEQEND
  5
6A3
330
6A2
100
AcDbEntity
  8
002
370
     9
  0
LINE
  5
6B9
330
1F
100
AcDbEntity
  8
002
 62
     3
370
    30
100
AcDbLine
 10
296.091314
 20
385.515625
 30
0.0
 11
296.091314
 21
301.015625
 31
0.0
  0
LINE
  5
6BA
330
1F
100
AcDbEntity
  8
002
 62
     3
370
    30
100
AcDbLine
 10
296.091314
 20
285.015625
 30
0.0
 11
296.091314
 21
200.515625
 31
0.0
  0
LINE
  5
6BB
330
1F
100
AcDbEntity
  8
002
 62
     3
370
    30
100
AcDbLine
 10
236.091314
 20
200.515625
 30
0.0
 11
236.091314
 21
285.015625
 31
0.0
  0
LINE
  5
6BC
330
1F
100
AcDbEntity
  8
002
 62
     3
370
    30
100
AcDbLine
 10
236.091314
 20
301.015625
 30
0.0
 11
236.091314
 21
385.515625
 31
0.0
  0
POLYLINE
  5
6BD
330
1F
100
AcDbEntity
  8
002
 62
     3
370
     9
100
AcDb2dPolyline
 66
     1
 10
0.0
 20
0.0
 30
0.0
  0
VERTEX
  5
6BF
330
6BD
100
AcDbEntity
  8
002
 62
     3
370
     9
100
AcDbVertex
100
AcDb2dVertex
 10
510.091314
 20
285.015625
 30
0.0
  0
VERTEX
  5
6C0
330
6BD
100
AcDbEntity
  8
002
 62
     3
370
     9
100
AcDbVertex
100
AcDb2dVertex
 10
513.091314
 20
282.647625
 30
0.0
  0
VERTEX
  5
6C1
330
6BD
100
AcDbEntity
  8
002
 62
     3
370
     9
100
AcDbVertex
100
AcDb2dVertex
 10
516.091314
 20
280.471625
 30
0.0
  0
VERTEX
  5
6C2
330
6BD
100
AcDbEntity
  8
002
 62
     3
370
     9
100
AcDbVertex
100
AcDb2dVertex
 10
519.091314
 20
278.679625
 30
0.0
  0
VERTEX
  5
6C3
330
6BD
100
AcDbEntity
  8
002
 62
     3
370
     9
100
AcDbVertex
100
AcDb2dVertex
 10
522.091314
 20
277.463625
 30
0.0
  0
VERTEX
  5
6C4
330
6BD
100
AcDbEntity
  8
002
 62
     3
370
     9
100
AcDbVertex
100
AcDb2dVertex
 10
525.091314
 20
277.015625
 30
0.0
  0
VERTEX
  5
6C5
330
6BD
100
AcDbEntity
  8
002
 62
     3
370
     9
100
AcDbVertex
100
AcDb2dVertex
 10
528.091314
 20
277.463625
 30
0.0
  0
VERTEX
  5
6C6
330
6BD
100
AcDbEntity
  8
002
 62
     3
370
     9
100
AcDbVertex
100
AcDb2dVertex
 10
531.091314
 20
278.679625
 30
0.0
  0
VERTEX
  5
6C7
330
6BD
100
AcDbEntity
  8
002
 62
     3
370
     9
100
AcDbVertex
100
AcDb2dVertex
 10
534.091314
 20
280.471625
 30
0.0
  0
VERTEX
  5
6C8
330
6BD
100
AcDbEntity
  8
002
 62
     3
370
     9
100
AcDbVertex
100
AcDb2dVertex
 10
537.091314
 20
282.647625
 30
0.0
  0
VERTEX
  5
6C9
330
6BD
100
AcDbEntity
  8
002
 62
     3
370
     9
100
AcDbVertex
100
AcDb2dVertex
 10
540.091314
 20
285.015625
 30
0.0
  0
VERTEX
  5
6CA
330
6BD
100
AcDbEntity
  8
002
 62
     3
370
     9
100
AcDbVertex
100
AcDb2dVertex
 10
543.091314
 20
287.383625
 30
0.0
  0
VERTEX
  5
6CB
330
6BD
100
AcDbEntity
  8
002
 62
     3
370
     9
100
AcDbVertex
100
AcDb2dVertex
 10
546.091314
 20
289.559625
 30
0.0
  0
VERTEX
  5
6CC
330
6BD
100
AcDbEntity
  8
002
 62
     3
370
     9
100
AcDbVertex
100
AcDb2dVertex
 10
549.091314
 20
291.351625
 30
0.0
  0
VERTEX
  5
6CD
330
6BD
100
AcDbEntity
  8
002
 62
     3
370
     9
100
AcDbVertex
100
AcDb2dVertex
 10
552.091314
 20
292.567625
 30
0.0
  0
VERTEX
  5
6CE
330
6BD
100
AcDbEntity
  8
002
 62
     3
370
     9
100
AcDbVertex
100
AcDb2dVertex
 10
555.091314
 20
293.015625
 30
0.0
  0
VERTEX
  5
6CF
330
6BD
100
AcDbEntity
  8
002
 62
     3
370
     9
100
AcDbVertex
100
AcDb2dVertex
 10
558.091314
 20
292.567625
 30
0.0
  0
VERTEX
  5
6D0
330
6BD
100
AcDbEntity
  8
002
 62
     3
370
     9
100
AcDbVertex
100
AcDb2dVertex
 10
561.091314
 20
291.351625
 30
0.0
  0
VERTEX
  5
6D1
330
6BD
100
AcDbEntity
  8
002
 62
     3
370
     9
100
AcDbVertex
100
AcDb2dVertex
 10
564.091314
 20
289.559625
 30
0.0
  0
VERTEX
  5
6D2
330
6BD
100
AcDbEntity
  8
002
 62
     3
370
     9
100
AcDbVertex
100
AcDb2dVertex
 10
567.091314
 20
287.383625
 30
0.0
  0
VERTEX
  5
6D3
330
6BD
100
AcDbEntity
  8
002
 62
     3
370
     9
100
AcDbVertex
100
AcDb2dVertex
 10
570.091314
 20
285.015625
 30
0.0
  0
SEQEND
  5
6BE
330
6BD
100
AcDbEntity
  8
002
370
     9
  0
POLYLINE
  5
6D4
330
1F
100
AcDbEntity
  8
002
 62
     3
370
     9
100
AcDb2dPolyline
 66
     1
 10
0.0
 20
0.0
 30
0.0
  0
VERTEX
  5
6D6
330
6D4
100
AcDbEntity
  8
002
 62
     3
370
     9
100
AcDbVertex
100
AcDb2dVertex
 10
510.091314
 20
301.015625
 30
0.0
  0
VERTEX
  5
6D7
330
6D4
100
AcDbEntity
  8
002
 62
     3
370
     9
100
AcDbVertex
100
AcDb2dVertex
 10
513.091314
 20
298.647625
 30
0.0
  0
VERTEX
  5
6D8
330
6D4
100
AcDbEntity
  8
002
 62
     3
370
     9
100
AcDbVertex
100
AcDb2dVertex
 10
516.091314
 20
296.471625
 30
0.0
  0
VERTEX
  5
6D9
330
6D4
100
AcDbEntity
  8
002
 62
     3
370
     9
100
AcDbVertex
100
AcDb2dVertex
 10
519.091314
 20
294.679625
 30
0.0
  0
VERTEX
  5
6DA
330
6D4
100
AcDbEntity
  8
002
 62
     3
370
     9
100
AcDbVertex
100
AcDb2dVertex
 10
522.091314
 20
293.463625
 30
0.0
  0
VERTEX
  5
6DB
330
6D4
100
AcDbEntity
  8
002
 62
     3
370
     9
100
AcDbVertex
100
AcDb2dVertex
 10
525.091314
 20
293.015625
 30
0.0
  0
VERTEX
  5
6DC
330
6D4
100
AcDbEntity
  8
002
 62
     3
370
     9
100
AcDbVertex
100
AcDb2dVertex
 10
528.091314
 20
293.463625
 30
0.0
  0
VERTEX
  5
6DD
330
6D4
100
AcDbEntity
  8
002
 62
     3
370
     9
100
AcDbVertex
100
AcDb2dVertex
 10
531.091314
 20
294.679625
 30
0.0
  0
VERTEX
  5
6DE
330
6D4
100
AcDbEntity
  8
002
 62
     3
370
     9
100
AcDbVertex
100
AcDb2dVertex
 10
534.091314
 20
296.471625
 30
0.0
  0
VERTEX
  5
6DF
330
6D4
100
AcDbEntity
  8
002
 62
     3
370
     9
100
AcDbVertex
100
AcDb2dVertex
 10
537.091314
 20
298.647625
 30
0.0
  0
VERTEX
  5
6E0
330
6D4
100
AcDbEntity
  8
002
 62
     3
370
     9
100
AcDbVertex
100
AcDb2dVertex
 10
540.091314
 20
301.015625
 30
0.0
  0
VERTEX
  5
6E1
330
6D4
100
AcDbEntity
  8
002
 62
     3
370
     9
100
AcDbVertex
100
AcDb2dVertex
 10
543.091314
 20
303.383625
 30
0.0
  0
VERTEX
  5
6E2
330
6D4
100
AcDbEntity
  8
002
 62
     3
370
     9
100
AcDbVertex
100
AcDb2dVertex
 10
546.091314
 20
305.559625
 30
0.0
  0
VERTEX
  5
6E3
330
6D4
100
AcDbEntity
  8
002
 62
     3
370
     9
100
AcDbVertex
100
AcDb2dVertex
 10
549.091314
 20
307.351625
 30
0.0
  0
VERTEX
  5
6E4
330
6D4
100
AcDbEntity
  8
002
 62
     3
370
     9
100
AcDbVertex
100
AcDb2dVertex
 10
552.091314
 20
308.567625
 30
0.0
  0
VERTEX
  5
6E5
330
6D4
100
AcDbEntity
  8
002
 62
     3
370
     9
100
AcDbVertex
100
AcDb2dVertex
 10
555.091314
 20
309.015625
 30
0.0
  0
VERTEX
  5
6E6
330
6D4
100
AcDbEntity
  8
002
 62
     3
370
     9
100
AcDbVertex
100
AcDb2dVertex
 10
558.091314
 20
308.567625
 30
0.0
  0
VERTEX
  5
6E7
330
6D4
100
AcDbEntity
  8
002
 62
     3
370
     9
100
AcDbVertex
100
AcDb2dVertex
 10
561.091314
 20
307.351625
 30
0.0
  0
VERTEX
  5
6E8
330
6D4
100
AcDbEntity
  8
002
 62
     3
370
     9
100
AcDbVertex
100
AcDb2dVertex
 10
564.091314
 20
305.559625
 30
0.0
  0
VERTEX
  5
6E9
330
6D4
100
AcDbEntity
  8
002
 62
     3
370
     9
100
AcDbVertex
100
AcDb2dVertex
 10
567.091314
 20
303.383625
 30
0.0
  0
VERTEX
  5
6EA
330
6D4
100
AcDbEntity
  8
002
 62
     3
370
     9
100
AcDbVertex
100
AcDb2dVertex
 10
570.091314
 20
301.015625
 30
0.0
  0
SEQEND
  5
6D5
330
6D4
100
AcDbEntity
  8
002
370
     9
  0
LINE
  5
6EB
330
1F
100
AcDbEntity
  8
002
 62
     3
370
    30
100
AcDbLine
 10
570.091314
 20
385.515625
 30
0.0
 11
570.091314
 21
301.015625
 31
0.0
  0
LINE
  5
6EC
330
1F
100
AcDbEntity
  8
002
 62
     3
370
    30
100
AcDbLine
 10
570.091314
 20
285.015625
 30
0.0
 11
570.091314
 21
200.515625
 31
0.0
  0
LINE
  5
6ED
330
1F
100
AcDbEntity
  8
002
 62
     3
370
    30
100
AcDbLine
 10
510.091314
 20
200.515625
 30
0.0
 11
510.091314
 21
285.015625
 31
0.0
  0
LINE
  5
6EE
330
1F
100
AcDbEntity
  8
002
 62
     3
370
    30
100
AcDbLine
 10
510.091314
 20
301.015625
 30
0.0
 11
510.091314
 21
385.515625
 31
0.0
  0
POLYLINE
  5
6EF
330
1F
100
AcDbEntity
  8
002
 62
     3
370
     9
100
AcDb2dPolyline
 66
     1
 10
0.0
 20
0.0
 30
0.0
  0
VERTEX
  5
6F1
330
6EF
100
AcDbEntity
  8
002
 62
     3
370
     9
100
AcDbVertex
100
AcDb2dVertex
 10
788.56931
 20
285.015625
 30
0.0
  0
VERTEX
  5
6F2
330
6EF
100
AcDbEntity
  8
002
 62
     3
370
     9
100
AcDbVertex
100
AcDb2dVertex
 10
791.56931
 20
282.647625
 30
0.0
  0
VERTEX
  5
6F3
330
6EF
100
AcDbEntity
  8
002
 62
     3
370
     9
100
AcDbVertex
100
AcDb2dVertex
 10
794.56931
 20
280.471625
 30
0.0
  0
VERTEX
  5
6F4
330
6EF
100
AcDbEntity
  8
002
 62
     3
370
     9
100
AcDbVertex
100
AcDb2dVertex
 10
797.56931
 20
278.679625
 30
0.0
  0
VERTEX
  5
6F5
330
6EF
100
AcDbEntity
  8
002
 62
     3
370
     9
100
AcDbVertex
100
AcDb2dVertex
 10
800.56931
 20
277.463625
 30
0.0
  0
VERTEX
  5
6F6
330
6EF
100
AcDbEntity
  8
002
 62
     3
370
     9
100
AcDbVertex
100
AcDb2dVertex
 10
803.56931
 20
277.015625
 30
0.0
  0
VERTEX
  5
6F7
330
6EF
100
AcDbEntity
  8
002
 62
     3
370
     9
100
AcDbVertex
100
AcDb2dVertex
 10
806.56931
 20
277.463625
 30
0.0
  0
VERTEX
  5
6F8
330
6EF
100
AcDbEntity
  8
002
 62
     3
370
     9
100
AcDbVertex
100
AcDb2dVertex
 10
809.56931
 20
278.679625
 30
0.0
  0
VERTEX
  5
6F9
330
6EF
100
AcDbEntity
  8
002
 62
     3
370
     9
100
AcDbVertex
100
AcDb2dVertex
 10
812.56931
 20
280.471625
 30
0.0
  0
VERTEX
  5
6FA
330
6EF
100
AcDbEntity
  8
002
 62
     3
370
     9
100
AcDbVertex
100
AcDb2dVertex
 10
815.56931
 20
282.647625
 30
0.0
  0
VERTEX
  5
6FB
330
6EF
100
AcDbEntity
  8
002
 62
     3
370
     9
100
AcDbVertex
100
AcDb2dVertex
 10
818.56931
 20
285.015625
 30
0.0
  0
VERTEX
  5
6FC
330
6EF
100
AcDbEntity
  8
002
 62
     3
370
     9
100
AcDbVertex
100
AcDb2dVertex
 10
821.56931
 20
287.383625
 30
0.0
  0
VERTEX
  5
6FD
330
6EF
100
AcDbEntity
  8
002
 62
     3
370
     9
100
AcDbVertex
100
AcDb2dVertex
 10
824.56931
 20
289.559625
 30
0.0
  0
VERTEX
  5
6FE
330
6EF
100
AcDbEntity
  8
002
 62
     3
370
     9
100
AcDbVertex
100
AcDb2dVertex
 10
827.56931
 20
291.351625
 30
0.0
  0
VERTEX
  5
6FF
330
6EF
100
AcDbEntity
  8
002
 62
     3
370
     9
100
AcDbVertex
100
AcDb2dVertex
 10
830.56931
 20
292.567625
 30
0.0
  0
VERTEX
  5
700
330
6EF
100
AcDbEntity
  8
002
 62
     3
370
     9
100
AcDbVertex
100
AcDb2dVertex
 10
833.56931
 20
293.015625
 30
0.0
  0
VERTEX
  5
701
330
6EF
100
AcDbEntity
  8
002
 62
     3
370
     9
100
AcDbVertex
100
AcDb2dVertex
 10
836.56931
 20
292.567625
 30
0.0
  0
VERTEX
  5
702
330
6EF
100
AcDbEntity
  8
002
 62
     3
370
     9
100
AcDbVertex
100
AcDb2dVertex
 10
839.56931
 20
291.351625
 30
0.0
  0
VERTEX
  5
703
330
6EF
100
AcDbEntity
  8
002
 62
     3
370
     9
100
AcDbVertex
100
AcDb2dVertex
 10
842.56931
 20
289.559625
 30
0.0
  0
VERTEX
  5
704
330
6EF
100
AcDbEntity
  8
002
 62
     3
370
     9
100
AcDbVertex
100
AcDb2dVertex
 10
845.56931
 20
287.383625
 30
0.0
  0
VERTEX
  5
705
330
6EF
100
AcDbEntity
  8
002
 62
     3
370
     9
100
AcDbVertex
100
AcDb2dVertex
 10
848.56931
 20
285.015625
 30
0.0
  0
SEQEND
  5
6F0
330
6EF
100
AcDbEntity
  8
002
370
     9
  0
POLYLINE
  5
706
330
1F
100
AcDbEntity
  8
002
 62
     3
370
     9
100
AcDb2dPolyline
 66
     1
 10
0.0
 20
0.0
 30
0.0
  0
VERTEX
  5
708
330
706
100
AcDbEntity
  8
002
 62
     3
370
     9
100
AcDbVertex
100
AcDb2dVertex
 10
788.56931
 20
301.015625
 30
0.0
  0
VERTEX
  5
709
330
706
100
AcDbEntity
  8
002
 62
     3
370
     9
100
AcDbVertex
100
AcDb2dVertex
 10
791.56931
 20
298.647625
 30
0.0
  0
VERTEX
  5
70A
330
706
100
AcDbEntity
  8
002
 62
     3
370
     9
100
AcDbVertex
100
AcDb2dVertex
 10
794.56931
 20
296.471625
 30
0.0
  0
VERTEX
  5
70B
330
706
100
AcDbEntity
  8
002
 62
     3
370
     9
100
AcDbVertex
100
AcDb2dVertex
 10
797.56931
 20
294.679625
 30
0.0
  0
VERTEX
  5
70C
330
706
100
AcDbEntity
  8
002
 62
     3
370
     9
100
AcDbVertex
100
AcDb2dVertex
 10
800.56931
 20
293.463625
 30
0.0
  0
VERTEX
  5
70D
330
706
100
AcDbEntity
  8
002
 62
     3
370
     9
100
AcDbVertex
100
AcDb2dVertex
 10
803.56931
 20
293.015625
 30
0.0
  0
VERTEX
  5
70E
330
706
100
AcDbEntity
  8
002
 62
     3
370
     9
100
AcDbVertex
100
AcDb2dVertex
 10
806.56931
 20
293.463625
 30
0.0
  0
VERTEX
  5
70F
330
706
100
AcDbEntity
  8
002
 62
     3
370
     9
100
AcDbVertex
100
AcDb2dVertex
 10
809.56931
 20
294.679625
 30
0.0
  0
VERTEX
  5
710
330
706
100
AcDbEntity
  8
002
 62
     3
370
     9
100
AcDbVertex
100
AcDb2dVertex
 10
812.56931
 20
296.471625
 30
0.0
  0
VERTEX
  5
711
330
706
100
AcDbEntity
  8
002
 62
     3
370
     9
100
AcDbVertex
100
AcDb2dVertex
 10
815.56931
 20
298.647625
 30
0.0
  0
VERTEX
  5
712
330
706
100
AcDbEntity
  8
002
 62
     3
370
     9
100
AcDbVertex
100
AcDb2dVertex
 10
818.56931
 20
301.015625
 30
0.0
  0
VERTEX
  5
713
330
706
100
AcDbEntity
  8
002
 62
     3
370
     9
100
AcDbVertex
100
AcDb2dVertex
 10
821.56931
 20
303.383625
 30
0.0
  0
VERTEX
  5
714
330
706
100
AcDbEntity
  8
002
 62
     3
370
     9
100
AcDbVertex
100
AcDb2dVertex
 10
824.56931
 20
305.559625
 30
0.0
  0
VERTEX
  5
715
330
706
100
AcDbEntity
  8
002
 62
     3
370
     9
100
AcDbVertex
100
AcDb2dVertex
 10
827.56931
 20
307.351625
 30
0.0
  0
VERTEX
  5
716
330
706
100
AcDbEntity
  8
002
 62
     3
370
     9
100
AcDbVertex
100
AcDb2dVertex
 10
830.56931
 20
308.567625
 30
0.0
  0
VERTEX
  5
717
330
706
100
AcDbEntity
  8
002
 62
     3
370
     9
100
AcDbVertex
100
AcDb2dVertex
 10
833.56931
 20
309.015625
 30
0.0
  0
VERTEX
  5
718
330
706
100
AcDbEntity
  8
002
 62
     3
370
     9
100
AcDbVertex
100
AcDb2dVertex
 10
836.56931
 20
308.567625
 30
0.0
  0
VERTEX
  5
719
330
706
100
AcDbEntity
  8
002
 62
     3
370
     9
100
AcDbVertex
100
AcDb2dVertex
 10
839.56931
 20
307.351625
 30
0.0
  0
VERTEX
  5
71A
330
706
100
AcDbEntity
  8
002
 62
     3
370
     9
100
AcDbVertex
100
AcDb2dVertex
 10
842.56931
 20
305.559625
 30
0.0
  0
VERTEX
  5
71B
330
706
100
AcDbEntity
  8
002
 62
     3
370
     9
100
AcDbVertex
100
AcDb2dVertex
 10
845.56931
 20
303.383625
 30
0.0
  0
VERTEX
  5
71C
330
706
100
AcDbEntity
  8
002
 62
     3
370
     9
100
AcDbVertex
100
AcDb2dVertex
 10
848.56931
 20
301.015625
 30
0.0
  0
SEQEND
  5
707
330
706
100
AcDbEntity
  8
002
370
     9
  0
LINE
  5
71D
330
1F
100
AcDbEntity
  8
002
 62
     3
370
    30
100
AcDbLine
 10
848.56931
 20
385.515625
 30
0.0
 11
848.56931
 21
301.015625
 31
0.0
  0
LINE
  5
71E
330
1F
100
AcDbEntity
  8
002
 62
     3
370
    30
100
AcDbLine
 10
848.56931
 20
285.015625
 30
0.0
 11
848.56931
 21
200.515625
 31
0.0
  0
LINE
  5
71F
330
1F
100
AcDbEntity
  8
002
 62
     3
370
    30
100
AcDbLine
 10
788.56931
 20
200.515625
 30
0.0
 11
788.56931
 21
285.015625
 31
0.0
  0
LINE
  5
720
330
1F
100
AcDbEntity
  8
002
 62
     3
370
    30
100
AcDbLine
 10
788.56931
 20
301.015625
 30
0.0
 11
788.56931
 21
385.515625
 31
0.0
  0
POLYLINE
  5
721
330
1F
100
AcDbEntity
  8
002
 62
     3
370
     9
100
AcDb2dPolyline
 66
     1
 10
0.0
 20
0.0
 30
0.0
  0
VERTEX
  5
723
330
721
100
AcDbEntity
  8
002
 62
     3
370
     9
100
AcDbVertex
100
AcDb2dVertex
 10
1071.84851
 20
348.515625
 30
0.0
  0
VERTEX
  5
724
330
721
100
AcDbEntity
  8
002
 62
     3
370
     9
100
AcDbVertex
100
AcDb2dVertex
 10
1073.64846
 20
346.147625
 30
0.0
  0
VERTEX
  5
725
330
721
100
AcDbEntity
  8
002
 62
     3
370
     9
100
AcDbVertex
100
AcDb2dVertex
 10
1075.44841
 20
343.971625
 30
0.0
  0
VERTEX
  5
726
330
721
100
AcDbEntity
  8
002
 62
     3
370
     9
100
AcDbVertex
100
AcDb2dVertex
 10
1077.24836
 20
342.179625
 30
0.0
  0
VERTEX
  5
727
330
721
100
AcDbEntity
  8
002
 62
     3
370
     9
100
AcDbVertex
100
AcDb2dVertex
 10
1079.04831
 20
340.963625
 30
0.0
  0
VERTEX
  5
728
330
721
100
AcDbEntity
  8
002
 62
     3
370
     9
100
AcDbVertex
100
AcDb2dVertex
 10
1080.84826
 20
340.515625
 30
0.0
  0
VERTEX
  5
729
330
721
100
AcDbEntity
  8
002
 62
     3
370
     9
100
AcDbVertex
100
AcDb2dVertex
 10
1082.64821
 20
340.963625
 30
0.0
  0
VERTEX
  5
72A
330
721
100
AcDbEntity
  8
002
 62
     3
370
     9
100
AcDbVertex
100
AcDb2dVertex
 10
1084.44816
 20
342.179625
 30
0.0
  0
VERTEX
  5
72B
330
721
100
AcDbEntity
  8
002
 62
     3
370
     9
100
AcDbVertex
100
AcDb2dVertex
 10
1086.24811
 20
343.971625
 30
0.0
  0
VERTEX
  5
72C
330
721
100
AcDbEntity
  8
002
 62
     3
370
     9
100
AcDbVertex
100
AcDb2dVertex
 10
1088.04806
 20
346.147625
 30
0.0
  0
VERTEX
  5
72D
330
721
100
AcDbEntity
  8
002
 62
     3
370
     9
100
AcDbVertex
100
AcDb2dVertex
 10
1089.84801
 20
348.515625
 30
0.0
  0
VERTEX
  5
72E
330
721
100
AcDbEntity
  8
002
 62
     3
370
     9
100
AcDbVertex
100
AcDb2dVertex
 10
1091.64796
 20
350.883625
 30
0.0
  0
VERTEX
  5
72F
330
721
100
AcDbEntity
  8
002
 62
     3
370
     9
100
AcDbVertex
100
AcDb2dVertex
 10
1093.44791
 20
353.059625
 30
0.0
  0
VERTEX
  5
730
330
721
100
AcDbEntity
  8
002
 62
     3
370
     9
100
AcDbVertex
100
AcDb2dVertex
 10
1095.24786
 20
354.851625
 30
0.0
  0
VERTEX
  5
731
330
721
100
AcDbEntity
  8
002
 62
     3
370
     9
100
AcDbVertex
100
AcDb2dVertex
 10
1097.04781
 20
356.067625
 30
0.0
  0
VERTEX
  5
732
330
721
100
AcDbEntity
  8
002
 62
     3
370
     9
100
AcDbVertex
100
AcDb2dVertex
 10
1098.84776
 20
356.515625
 30
0.0
  0
VERTEX
  5
733
330
721
100
AcDbEntity
  8
002
 62
     3
370
     9
100
AcDbVertex
100
AcDb2dVertex
 10
1100.64771
 20
356.067625
 30
0.0
  0
VERTEX
  5
734
330
721
100
AcDbEntity
  8
002
 62
     3
370
     9
100
AcDbVertex
100
AcDb2dVertex
 10
1102.44766
 20
354.851625
 30
0.0
  0
VERTEX
  5
735
330
721
100
AcDbEntity
  8
002
 62
     3
370
     9
100
AcDbVertex
100
AcDb2dVertex
 10
1104.24761
 20
353.059625
 30
0.0
  0
VERTEX
  5
736
330
721
100
AcDbEntity
  8
002
 62
     3
370
     9
100
AcDbVertex
100
AcDb2dVertex
 10
1106.04756
 20
350.883625
 30
0.0
  0
VERTEX
  5
737
330
721
100
AcDbEntity
  8
002
 62
     3
370
     9
100
AcDbVertex
100
AcDb2dVertex
 10
1107.84751
 20
348.515625
 30
0.0
  0
SEQEND
  5
722
330
721
100
AcDbEntity
  8
002
370
     9
  0
POLYLINE
  5
738
330
1F
100
AcDbEntity
  8
002
 62
     3
370
     9
100
AcDb2dPolyline
 66
     1
 10
0.0
 20
0.0
 30
0.0
  0
VERTEX
  5
73A
330
738
100
AcDbEntity
  8
002
 62
     3
370
     9
100
AcDbVertex
100
AcDb2dVertex
 10
1071.84851
 20
364.515625
 30
0.0
  0
VERTEX
  5
73B
330
738
100
AcDbEntity
  8
002
 62
     3
370
     9
100
AcDbVertex
100
AcDb2dVertex
 10
1073.64846
 20
362.147625
 30
0.0
  0
VERTEX
  5
73C
330
738
100
AcDbEntity
  8
002
 62
     3
370
     9
100
AcDbVertex
100
AcDb2dVertex
 10
1075.44841
 20
359.971625
 30
0.0
  0
VERTEX
  5
73D
330
738
100
AcDbEntity
  8
002
 62
     3
370
     9
100
AcDbVertex
100
AcDb2dVertex
 10
1077.24836
 20
358.179625
 30
0.0
  0
VERTEX
  5
73E
330
738
100
AcDbEntity
  8
002
 62
     3
370
     9
100
AcDbVertex
100
AcDb2dVertex
 10
1079.04831
 20
356.963625
 30
0.0
  0
VERTEX
  5
73F
330
738
100
AcDbEntity
  8
002
 62
     3
370
     9
100
AcDbVertex
100
AcDb2dVertex
 10
1080.84826
 20
356.515625
 30
0.0
  0
VERTEX
  5
740
330
738
100
AcDbEntity
  8
002
 62
     3
370
     9
100
AcDbVertex
100
AcDb2dVertex
 10
1082.64821
 20
356.963625
 30
0.0
  0
VERTEX
  5
741
330
738
100
AcDbEntity
  8
002
 62
     3
370
     9
100
AcDbVertex
100
AcDb2dVertex
 10
1084.44816
 20
358.179625
 30
0.0
  0
VERTEX
  5
742
330
738
100
AcDbEntity
  8
002
 62
     3
370
     9
100
AcDbVertex
100
AcDb2dVertex
 10
1086.24811
 20
359.971625
 30
0.0
  0
VERTEX
  5
743
330
738
100
AcDbEntity
  8
002
 62
     3
370
     9
100
AcDbVertex
100
AcDb2dVertex
 10
1088.04806
 20
362.147625
 30
0.0
  0
VERTEX
  5
744
330
738
100
AcDbEntity
  8
002
 62
     3
370
     9
100
AcDbVertex
100
AcDb2dVertex
 10
1089.84801
 20
364.515625
 30
0.0
  0
VERTEX
  5
745
330
738
100
AcDbEntity
  8
002
 62
     3
370
     9
100
AcDbVertex
100
AcDb2dVertex
 10
1091.64796
 20
366.883625
 30
0.0
  0
VERTEX
  5
746
330
738
100
AcDbEntity
  8
002
 62
     3
370
     9
100
AcDbVertex
100
AcDb2dVertex
 10
1093.44791
 20
369.059625
 30
0.0
  0
VERTEX
  5
747
330
738
100
AcDbEntity
  8
002
 62
     3
370
     9
100
AcDbVertex
100
AcDb2dVertex
 10
1095.24786
 20
370.851625
 30
0.0
  0
VERTEX
  5
748
330
738
100
AcDbEntity
  8
002
 62
     3
370
     9
100
AcDbVertex
100
AcDb2dVertex
 10
1097.04781
 20
372.067625
 30
0.0
  0
VERTEX
  5
749
330
738
100
AcDbEntity
  8
002
 62
     3
370
     9
100
AcDbVertex
100
AcDb2dVertex
 10
1098.84776
 20
372.515625
 30
0.0
  0
VERTEX
  5
74A
330
738
100
AcDbEntity
  8
002
 62
     3
370
     9
100
AcDbVertex
100
AcDb2dVertex
 10
1100.64771
 20
372.067625
 30
0.0
  0
VERTEX
  5
74B
330
738
100
AcDbEntity
  8
002
 62
     3
370
     9
100
AcDbVertex
100
AcDb2dVertex
 10
1102.44766
 20
370.851625
 30
0.0
  0
VERTEX
  5
74C
330
738
100
AcDbEntity
  8
002
 62
     3
370
     9
100
AcDbVertex
100
AcDb2dVertex
 10
1104.24761
 20
369.059625
 30
0.0
  0
VERTEX
  5
74D
330
738
100
AcDbEntity
  8
002
 62
     3
370
     9
100
AcDbVertex
100
AcDb2dVertex
 10
1106.04756
 20
366.883625
 30
0.0
  0
VERTEX
  5
74E
330
738
100
AcDbEntity
  8
002
 62
     3
370
     9
100
AcDbVertex
100
AcDb2dVertex
 10
1107.84751
 20
364.515625
 30
0.0
  0
SEQEND
  5
739
330
738
100
AcDbEntity
  8
002
370
     9
  0
LINE
  5
74F
330
1F
100
AcDbEntity
  8
002
 62
     3
370
    30
100
AcDbLine
 10
1071.84851
 20
440.515625
 30
0.0
 11
1071.84851
 21
364.515625
 31
0.0
  0
LINE
  5
750
330
1F
100
AcDbEntity
  8
002
 62
     3
370
    30
100
AcDbLine
 10
1071.84851
 20
348.515625
 30
0.0
 11
1071.84851
 21
272.515625
 31
0.0
  0
LINE
  5
751
330
1F
100
AcDbEntity
  8
002
 62
     3
370
    30
100
AcDbLine
 10
1107.84751
 20
272.515625
 30
0.0
 11
1107.84751
 21
348.515625
 31
0.0
  0
LINE
  5
752
330
1F
100
AcDbEntity
  8
002
 62
     3
370
    30
100
AcDbLine
 10
1107.84751
 20
364.515625
 30
0.0
 11
1107.84751
 21
440.515625
 31
0.0
  0
LINE
  5
753
330
1F
100
AcDbEntity
  8
002
 62
    40
370
     9
100
AcDbLine
 10
1105.48651
 20
440.515625
 30
0.0
 11
1105.48651
 21
367.591492
 31
0.0
  0
LINE
  5
754
330
1F
100
AcDbEntity
  8
002
 62
    40
370
     9
100
AcDbLine
 10
1105.48651
 20
351.591492
 30
0.0
 11
1105.48651
 21
272.515625
 31
0.0
  0
LINE
  5
755
330
1F
100
AcDbEntity
  8
002
 62
    40
370
     9
100
AcDbLine
 10
1074.20851
 20
272.515625
 30
0.0
 11
1074.20851
 21
345.440999
 31
0.0
  0
LINE
  5
756
330
1F
100
AcDbEntity
  8
002
 62
    40
370
     9
100
AcDbLine
 10
1074.20851
 20
361.440999
 30
0.0
 11
1074.20851
 21
440.515625
 31
0.0
  0
POLYLINE
  5
757
330
1F
100
AcDbEntity
  8
002
 62
     3
370
     9
100
AcDb2dPolyline
 66
     1
 10
0.0
 20
0.0
 30
0.0
  0
VERTEX
  5
759
330
757
100
AcDbEntity
  8
002
 62
     3
370
     9
100
AcDbVertex
100
AcDb2dVertex
 10
1314.84751
 20
765.515625
 30
0.0
  0
VERTEX
  5
75A
330
757
100
AcDbEntity
  8
002
 62
     3
370
     9
100
AcDbVertex
100
AcDb2dVertex
 10
1317.84751
 20
763.147625
 30
0.0
  0
VERTEX
  5
75B
330
757
100
AcDbEntity
  8
002
 62
     3
370
     9
100
AcDbVertex
100
AcDb2dVertex
 10
1320.84751
 20
760.971625
 30
0.0
  0
VERTEX
  5
75C
330
757
100
AcDbEntity
  8
002
 62
     3
370
     9
100
AcDbVertex
100
AcDb2dVertex
 10
1323.84751
 20
759.179625
 30
0.0
  0
VERTEX
  5
75D
330
757
100
AcDbEntity
  8
002
 62
     3
370
     9
100
AcDbVertex
100
AcDb2dVertex
 10
1326.84751
 20
757.963625
 30
0.0
  0
VERTEX
  5
75E
330
757
100
AcDbEntity
  8
002
 62
     3
370
     9
100
AcDbVertex
100
AcDb2dVertex
 10
1329.84751
 20
757.515625
 30
0.0
  0
VERTEX
  5
75F
330
757
100
AcDbEntity
  8
002
 62
     3
370
     9
100
AcDbVertex
100
AcDb2dVertex
 10
1332.84751
 20
757.963625
 30
0.0
  0
VERTEX
  5
760
330
757
100
AcDbEntity
  8
002
 62
     3
370
     9
100
AcDbVertex
100
AcDb2dVertex
 10
1335.84751
 20
759.179625
 30
0.0
  0
VERTEX
  5
761
330
757
100
AcDbEntity
  8
002
 62
     3
370
     9
100
AcDbVertex
100
AcDb2dVertex
 10
1338.84751
 20
760.971625
 30
0.0
  0
VERTEX
  5
762
330
757
100
AcDbEntity
  8
002
 62
     3
370
     9
100
AcDbVertex
100
AcDb2dVertex
 10
1341.84751
 20
763.147625
 30
0.0
  0
VERTEX
  5
763
330
757
100
AcDbEntity
  8
002
 62
     3
370
     9
100
AcDbVertex
100
AcDb2dVertex
 10
1344.84751
 20
765.515625
 30
0.0
  0
VERTEX
  5
764
330
757
100
AcDbEntity
  8
002
 62
     3
370
     9
100
AcDbVertex
100
AcDb2dVertex
 10
1347.84751
 20
767.883625
 30
0.0
  0
VERTEX
  5
765
330
757
100
AcDbEntity
  8
002
 62
     3
370
     9
100
AcDbVertex
100
AcDb2dVertex
 10
1350.84751
 20
770.059625
 30
0.0
  0
VERTEX
  5
766
330
757
100
AcDbEntity
  8
002
 62
     3
370
     9
100
AcDbVertex
100
AcDb2dVertex
 10
1353.84751
 20
771.851625
 30
0.0
  0
VERTEX
  5
767
330
757
100
AcDbEntity
  8
002
 62
     3
370
     9
100
AcDbVertex
100
AcDb2dVertex
 10
1356.84751
 20
773.067625
 30
0.0
  0
VERTEX
  5
768
330
757
100
AcDbEntity
  8
002
 62
     3
370
     9
100
AcDbVertex
100
AcDb2dVertex
 10
1359.84751
 20
773.515625
 30
0.0
  0
VERTEX
  5
769
330
757
100
AcDbEntity
  8
002
 62
     3
370
     9
100
AcDbVertex
100
AcDb2dVertex
 10
1362.84751
 20
773.067625
 30
0.0
  0
VERTEX
  5
76A
330
757
100
AcDbEntity
  8
002
 62
     3
370
     9
100
AcDbVertex
100
AcDb2dVertex
 10
1365.84751
 20
771.851625
 30
0.0
  0
VERTEX
  5
76B
330
757
100
AcDbEntity
  8
002
 62
     3
370
     9
100
AcDbVertex
100
AcDb2dVertex
 10
1368.84751
 20
770.059625
 30
0.0
  0
VERTEX
  5
76C
330
757
100
AcDbEntity
  8
002
 62
     3
370
     9
100
AcDbVertex
100
AcDb2dVertex
 10
1371.84751
 20
767.883625
 30
0.0
  0
VERTEX
  5
76D
330
757
100
AcDbEntity
  8
002
 62
     3
370
     9
100
AcDbVertex
100
AcDb2dVertex
 10
1374.84751
 20
765.515625
 30
0.0
  0
SEQEND
  5
758
330
757
100
AcDbEntity
  8
002
370
     9
  0
POLYLINE
  5
76E
330
1F
100
AcDbEntity
  8
002
 62
     3
370
     9
100
AcDb2dPolyline
 66
     1
 10
0.0
 20
0.0
 30
0.0
  0
VERTEX
  5
770
330
76E
100
AcDbEntity
  8
002
 62
     3
370
     9
100
AcDbVertex
100
AcDb2dVertex
 10
1314.84751
 20
781.515625
 30
0.0
  0
VERTEX
  5
771
330
76E
100
AcDbEntity
  8
002
 62
     3
370
     9
100
AcDbVertex
100
AcDb2dVertex
 10
1317.84751
 20
779.147625
 30
0.0
  0
VERTEX
  5
772
330
76E
100
AcDbEntity
  8
002
 62
     3
370
     9
100
AcDbVertex
100
AcDb2dVertex
 10
1320.84751
 20
776.971625
 30
0.0
  0
VERTEX
  5
773
330
76E
100
AcDbEntity
  8
002
 62
     3
370
     9
100
AcDbVertex
100
AcDb2dVertex
 10
1323.84751
 20
775.179625
 30
0.0
  0
VERTEX
  5
774
330
76E
100
AcDbEntity
  8
002
 62
     3
370
     9
100
AcDbVertex
100
AcDb2dVertex
 10
1326.84751
 20
773.963625
 30
0.0
  0
VERTEX
  5
775
330
76E
100
AcDbEntity
  8
002
 62
     3
370
     9
100
AcDbVertex
100
AcDb2dVertex
 10
1329.84751
 20
773.515625
 30
0.0
  0
VERTEX
  5
776
330
76E
100
AcDbEntity
  8
002
 62
     3
370
     9
100
AcDbVertex
100
AcDb2dVertex
 10
1332.84751
 20
773.963625
 30
0.0
  0
VERTEX
  5
777
330
76E
100
AcDbEntity
  8
002
 62
     3
370
     9
100
AcDbVertex
100
AcDb2dVertex
 10
1335.84751
 20
775.179625
 30
0.0
  0
VERTEX
  5
778
330
76E
100
AcDbEntity
  8
002
 62
     3
370
     9
100
AcDbVertex
100
AcDb2dVertex
 10
1338.84751
 20
776.971625
 30
0.0
  0
VERTEX
  5
779
330
76E
100
AcDbEntity
  8
002
 62
     3
370
     9
100
AcDbVertex
100
AcDb2dVertex
 10
1341.84751
 20
779.147625
 30
0.0
  0
VERTEX
  5
77A
330
76E
100
AcDbEntity
  8
002
 62
     3
370
     9
100
AcDbVertex
100
AcDb2dVertex
 10
1344.84751
 20
781.515625
 30
0.0
  0
VERTEX
  5
77B
330
76E
100
AcDbEntity
  8
002
 62
     3
370
     9
100
AcDbVertex
100
AcDb2dVertex
 10
1347.84751
 20
783.883625
 30
0.0
  0
VERTEX
  5
77C
330
76E
100
AcDbEntity
  8
002
 62
     3
370
     9
100
AcDbVertex
100
AcDb2dVertex
 10
1350.84751
 20
786.059625
 30
0.0
  0
VERTEX
  5
77D
330
76E
100
AcDbEntity
  8
002
 62
     3
370
     9
100
AcDbVertex
100
AcDb2dVertex
 10
1353.84751
 20
787.851625
 30
0.0
  0
VERTEX
  5
77E
330
76E
100
AcDbEntity
  8
002
 62
     3
370
     9
100
AcDbVertex
100
AcDb2dVertex
 10
1356.84751
 20
789.067625
 30
0.0
  0
VERTEX
  5
77F
330
76E
100
AcDbEntity
  8
002
 62
     3
370
     9
100
AcDbVertex
100
AcDb2dVertex
 10
1359.84751
 20
789.515625
 30
0.0
  0
VERTEX
  5
780
330
76E
100
AcDbEntity
  8
002
 62
     3
370
     9
100
AcDbVertex
100
AcDb2dVertex
 10
1362.84751
 20
789.067625
 30
0.0
  0
VERTEX
  5
781
330
76E
100
AcDbEntity
  8
002
 62
     3
370
     9
100
AcDbVertex
100
AcDb2dVertex
 10
1365.84751
 20
787.851625
 30
0.0
  0
VERTEX
  5
782
330
76E
100
AcDbEntity
  8
002
 62
     3
370
     9
100
AcDbVertex
100
AcDb2dVertex
 10
1368.84751
 20
786.059625
 30
0.0
  0
VERTEX
  5
783
330
76E
100
AcDbEntity
  8
002
 62
     3
370
     9
100
AcDbVertex
100
AcDb2dVertex
 10
1371.84751
 20
783.883625
 30
0.0
  0
VERTEX
  5
784
330
76E
100
AcDbEntity
  8
002
 62
     3
370
     9
100
AcDbVertex
100
AcDb2dVertex
 10
1374.84751
 20
781.515625
 30
0.0
  0
SEQEND
  5
76F
330
76E
100
AcDbEntity
  8
002
370
     9
  0
LINE
  5
785
330
1F
100
AcDbEntity
  8
002
 62
     3
370
    30
100
AcDbLine
 10
1374.84751
 20
840.515625
 30
0.0
 11
1374.84751
 21
781.515625
 31
0.0
  0
LINE
  5
786
330
1F
100
AcDbEntity
  8
002
 62
     3
370
    30
100
AcDbLine
 10
1374.84751
 20
765.515625
 30
0.0
 11
1374.84751
 21
706.515625
 31
0.0
  0
LINE
  5
787
330
1F
100
AcDbEntity
  8
002
 62
     3
370
    30
100
AcDbLine
 10
1314.84751
 20
706.515625
 30
0.0
 11
1314.84751
 21
765.515625
 31
0.0
  0
LINE
  5
788
330
1F
100
AcDbEntity
  8
002
 62
     3
370
    30
100
AcDbLine
 10
1314.84751
 20
781.515625
 30
0.0
 11
1314.84751
 21
840.515625
 31
0.0
  0
POLYLINE
  5
789
330
1F
100
AcDbEntity
  8
002
 62
     3
370
     9
100
AcDb2dPolyline
 66
     1
 10
0.0
 20
0.0
 30
0.0
  0
VERTEX
  5
78B
330
789
100
AcDbEntity
  8
002
 62
     3
370
     9
100
AcDbVertex
100
AcDb2dVertex
 10
1119.84751
 20
781.515625
 30
0.0
  0
VERTEX
  5
78C
330
789
100
AcDbEntity
  8
002
 62
     3
370
     9
100
AcDbVertex
100
AcDb2dVertex
 10
1116.84751
 20
783.883625
 30
0.0
  0
VERTEX
  5
78D
330
789
100
AcDbEntity
  8
002
 62
     3
370
     9
100
AcDbVertex
100
AcDb2dVertex
 10
1113.84751
 20
786.059625
 30
0.0
  0
VERTEX
  5
78E
330
789
100
AcDbEntity
  8
002
 62
     3
370
     9
100
AcDbVertex
100
AcDb2dVertex
 10
1110.84751
 20
787.851625
 30
0.0
  0
VERTEX
  5
78F
330
789
100
AcDbEntity
  8
002
 62
     3
370
     9
100
AcDbVertex
100
AcDb2dVertex
 10
1107.84751
 20
789.067625
 30
0.0
  0
VERTEX
  5
790
330
789
100
AcDbEntity
  8
002
 62
     3
370
     9
100
AcDbVertex
100
AcDb2dVertex
 10
1104.84751
 20
789.515625
 30
0.0
  0
VERTEX
  5
791
330
789
100
AcDbEntity
  8
002
 62
     3
370
     9
100
AcDbVertex
100
AcDb2dVertex
 10
1101.84751
 20
789.067625
 30
0.0
  0
VERTEX
  5
792
330
789
100
AcDbEntity
  8
002
 62
     3
370
     9
100
AcDbVertex
100
AcDb2dVertex
 10
1098.84751
 20
787.851625
 30
0.0
  0
VERTEX
  5
793
330
789
100
AcDbEntity
  8
002
 62
     3
370
     9
100
AcDbVertex
100
AcDb2dVertex
 10
1095.84751
 20
786.059625
 30
0.0
  0
VERTEX
  5
794
330
789
100
AcDbEntity
  8
002
 62
     3
370
     9
100
AcDbVertex
100
AcDb2dVertex
 10
1092.84751
 20
783.883625
 30
0.0
  0
VERTEX
  5
795
330
789
100
AcDbEntity
  8
002
 62
     3
370
     9
100
AcDbVertex
100
AcDb2dVertex
 10
1089.84751
 20
781.515625
 30
0.0
  0
VERTEX
  5
796
330
789
100
AcDbEntity
  8
002
 62
     3
370
     9
100
AcDbVertex
100
AcDb2dVertex
 10
1086.84751
 20
779.147625
 30
0.0
  0
VERTEX
  5
797
330
789
100
AcDbEntity
  8
002
 62
     3
370
     9
100
AcDbVertex
100
AcDb2dVertex
 10
1083.84751
 20
776.971625
 30
0.0
  0
VERTEX
  5
798
330
789
100
AcDbEntity
  8
002
 62
     3
370
     9
100
AcDbVertex
100
AcDb2dVertex
 10
1080.84751
 20
775.179625
 30
0.0
  0
VERTEX
  5
799
330
789
100
AcDbEntity
  8
002
 62
     3
370
     9
100
AcDbVertex
100
AcDb2dVertex
 10
1077.84751
 20
773.963625
 30
0.0
  0
VERTEX
  5
79A
330
789
100
AcDbEntity
  8
002
 62
     3
370
     9
100
AcDbVertex
100
AcDb2dVertex
 10
1074.84751
 20
773.515625
 30
0.0
  0
VERTEX
  5
79B
330
789
100
AcDbEntity
  8
002
 62
     3
370
     9
100
AcDbVertex
100
AcDb2dVertex
 10
1071.84751
 20
773.963625
 30
0.0
  0
VERTEX
  5
79C
330
789
100
AcDbEntity
  8
002
 62
     3
370
     9
100
AcDbVertex
100
AcDb2dVertex
 10
1068.84751
 20
775.179625
 30
0.0
  0
VERTEX
  5
79D
330
789
100
AcDbEntity
  8
002
 62
     3
370
     9
100
AcDbVertex
100
AcDb2dVertex
 10
1065.84751
 20
776.971625
 30
0.0
  0
VERTEX
  5
79E
330
789
100
AcDbEntity
  8
002
 62
     3
370
     9
100
AcDbVertex
100
AcDb2dVertex
 10
1062.84751
 20
779.147625
 30
0.0
  0
VERTEX
  5
79F
330
789
100
AcDbEntity
  8
002
 62
     3
370
     9
100
AcDbVertex
100
AcDb2dVertex
 10
1059.84751
 20
781.515625
 30
0.0
  0
SEQEND
  5
78A
330
789
100
AcDbEntity
  8
002
370
     9
  0
POLYLINE
  5
7A0
330
1F
100
AcDbEntity
  8
002
 62
     3
370
     9
100
AcDb2dPolyline
 66
     1
 10
0.0
 20
0.0
 30
0.0
  0
VERTEX
  5
7A2
330
7A0
100
AcDbEntity
  8
002
 62
     3
370
     9
100
AcDbVertex
100
AcDb2dVertex
 10
1119.84751
 20
765.515625
 30
0.0
  0
VERTEX
  5
7A3
330
7A0
100
AcDbEntity
  8
002
 62
     3
370
     9
100
AcDbVertex
100
AcDb2dVertex
 10
1116.84751
 20
767.883625
 30
0.0
  0
VERTEX
  5
7A4
330
7A0
100
AcDbEntity
  8
002
 62
     3
370
     9
100
AcDbVertex
100
AcDb2dVertex
 10
1113.84751
 20
770.059625
 30
0.0
  0
VERTEX
  5
7A5
330
7A0
100
AcDbEntity
  8
002
 62
     3
370
     9
100
AcDbVertex
100
AcDb2dVertex
 10
1110.84751
 20
771.851625
 30
0.0
  0
VERTEX
  5
7A6
330
7A0
100
AcDbEntity
  8
002
 62
     3
370
     9
100
AcDbVertex
100
AcDb2dVertex
 10
1107.84751
 20
773.067625
 30
0.0
  0
VERTEX
  5
7A7
330
7A0
100
AcDbEntity
  8
002
 62
     3
370
     9
100
AcDbVertex
100
AcDb2dVertex
 10
1104.84751
 20
773.515625
 30
0.0
  0
VERTEX
  5
7A8
330
7A0
100
AcDbEntity
  8
002
 62
     3
370
     9
100
AcDbVertex
100
AcDb2dVertex
 10
1101.84751
 20
773.067625
 30
0.0
  0
VERTEX
  5
7A9
330
7A0
100
AcDbEntity
  8
002
 62
     3
370
     9
100
AcDbVertex
100
AcDb2dVertex
 10
1098.84751
 20
771.851625
 30
0.0
  0
VERTEX
  5
7AA
330
7A0
100
AcDbEntity
  8
002
 62
     3
370
     9
100
AcDbVertex
100
AcDb2dVertex
 10
1095.84751
 20
770.059625
 30
0.0
  0
VERTEX
  5
7AB
330
7A0
100
AcDbEntity
  8
002
 62
     3
370
     9
100
AcDbVertex
100
AcDb2dVertex
 10
1092.84751
 20
767.883625
 30
0.0
  0
VERTEX
  5
7AC
330
7A0
100
AcDbEntity
  8
002
 62
     3
370
     9
100
AcDbVertex
100
AcDb2dVertex
 10
1089.84751
 20
765.515625
 30
0.0
  0
VERTEX
  5
7AD
330
7A0
100
AcDbEntity
  8
002
 62
     3
370
     9
100
AcDbVertex
100
AcDb2dVertex
 10
1086.84751
 20
763.147625
 30
0.0
  0
VERTEX
  5
7AE
330
7A0
100
AcDbEntity
  8
002
 62
     3
370
     9
100
AcDbVertex
100
AcDb2dVertex
 10
1083.84751
 20
760.971625
 30
0.0
  0
VERTEX
  5
7AF
330
7A0
100
AcDbEntity
  8
002
 62
     3
370
     9
100
AcDbVertex
100
AcDb2dVertex
 10
1080.84751
 20
759.179625
 30
0.0
  0
VERTEX
  5
7B0
330
7A0
100
AcDbEntity
  8
002
 62
     3
370
     9
100
AcDbVertex
100
AcDb2dVertex
 10
1077.84751
 20
757.963625
 30
0.0
  0
VERTEX
  5
7B1
330
7A0
100
AcDbEntity
  8
002
 62
     3
370
     9
100
AcDbVertex
100
AcDb2dVertex
 10
1074.84751
 20
757.515625
 30
0.0
  0
VERTEX
  5
7B2
330
7A0
100
AcDbEntity
  8
002
 62
     3
370
     9
100
AcDbVertex
100
AcDb2dVertex
 10
1071.84751
 20
757.963625
 30
0.0
  0
VERTEX
  5
7B3
330
7A0
100
AcDbEntity
  8
002
 62
     3
370
     9
100
AcDbVertex
100
AcDb2dVertex
 10
1068.84751
 20
759.179625
 30
0.0
  0
VERTEX
  5
7B4
330
7A0
100
AcDbEntity
  8
002
 62
     3
370
     9
100
AcDbVertex
100
AcDb2dVertex
 10
1065.84751
 20
760.971625
 30
0.0
  0
VERTEX
  5
7B5
330
7A0
100
AcDbEntity
  8
002
 62
     3
370
     9
100
AcDbVertex
100
AcDb2dVertex
 10
1062.84751
 20
763.147625
 30
0.0
  0
VERTEX
  5
7B6
330
7A0
100
AcDbEntity
  8
002
 62
     3
370
     9
100
AcDbVertex
100
AcDb2dVertex
 10
1059.84751
 20
765.515625
 30
0.0
  0
SEQEND
  5
7A1
330
7A0
100
AcDbEntity
  8
002
370
     9
  0
LINE
  5
7B7
330
1F
100
AcDbEntity
  8
002
 62
     3
370
    30
100
AcDbLine
 10
1119.84751
 20
840.515625
 30
0.0
 11
1119.84751
 21
781.515625
 31
0.0
  0
LINE
  5
7B8
330
1F
100
AcDbEntity
  8
002
 62
     3
370
    30
100
AcDbLine
 10
1119.84751
 20
765.515625
 30
0.0
 11
1119.84751
 21
706.515625
 31
0.0
  0
LINE
  5
7B9
330
1F
100
AcDbEntity
  8
002
 62
     3
370
    30
100
AcDbLine
 10
1059.84751
 20
706.515625
 30
0.0
 11
1059.84751
 21
765.515625
 31
0.0
  0
LINE
  5
7BA
330
1F
100
AcDbEntity
  8
002
 62
     3
370
    30
100
AcDbLine
 10
1059.84751
 20
781.515625
 30
0.0
 11
1059.84751
 21
840.515625
 31
0.0
  0
POLYLINE
  5
7BB
330
1F
100
AcDbEntity
  8
002
 62
     3
370
     9
100
AcDb2dPolyline
 66
     1
 10
0.0
 20
0.0
 30
0.0
  0
VERTEX
  5
7BD
330
7BB
100
AcDbEntity
  8
002
 62
     3
370
     9
100
AcDbVertex
100
AcDb2dVertex
 10
558.091314
 20
743.015375
 30
0.0
  0
VERTEX
  5
7BE
330
7BB
100
AcDbEntity
  8
002
 62
     3
370
     9
100
AcDbVertex
100
AcDb2dVertex
 10
556.291324
 20
745.383375
 30
0.0
  0
VERTEX
  5
7BF
330
7BB
100
AcDbEntity
  8
002
 62
     3
370
     9
100
AcDbVertex
100
AcDb2dVertex
 10
554.491334
 20
747.559375
 30
0.0
  0
VERTEX
  5
7C0
330
7BB
100
AcDbEntity
  8
002
 62
     3
370
     9
100
AcDbVertex
100
AcDb2dVertex
 10
552.691344
 20
749.351375
 30
0.0
  0
VERTEX
  5
7C1
330
7BB
100
AcDbEntity
  8
002
 62
     3
370
     9
100
AcDbVertex
100
AcDb2dVertex
 10
550.891354
 20
750.567375
 30
0.0
  0
VERTEX
  5
7C2
330
7BB
100
AcDbEntity
  8
002
 62
     3
370
     9
100
AcDbVertex
100
AcDb2dVertex
 10
549.091364
 20
751.015375
 30
0.0
  0
VERTEX
  5
7C3
330
7BB
100
AcDbEntity
  8
002
 62
     3
370
     9
100
AcDbVertex
100
AcDb2dVertex
 10
547.291374
 20
750.567375
 30
0.0
  0
VERTEX
  5
7C4
330
7BB
100
AcDbEntity
  8
002
 62
     3
370
     9
100
AcDbVertex
100
AcDb2dVertex
 10
545.491384
 20
749.351375
 30
0.0
  0
VERTEX
  5
7C5
330
7BB
100
AcDbEntity
  8
002
 62
     3
370
     9
100
AcDbVertex
100
AcDb2dVertex
 10
543.691394
 20
747.559375
 30
0.0
  0
VERTEX
  5
7C6
330
7BB
100
AcDbEntity
  8
002
 62
     3
370
     9
100
AcDbVertex
100
AcDb2dVertex
 10
541.891404
 20
745.383375
 30
0.0
  0
VERTEX
  5
7C7
330
7BB
100
AcDbEntity
  8
002
 62
     3
370
     9
100
AcDbVertex
100
AcDb2dVertex
 10
540.091414
 20
743.015375
 30
0.0
  0
VERTEX
  5
7C8
330
7BB
100
AcDbEntity
  8
002
 62
     3
370
     9
100
AcDbVertex
100
AcDb2dVertex
 10
538.291424
 20
740.647375
 30
0.0
  0
VERTEX
  5
7C9
330
7BB
100
AcDbEntity
  8
002
 62
     3
370
     9
100
AcDbVertex
100
AcDb2dVertex
 10
536.491434
 20
738.471375
 30
0.0
  0
VERTEX
  5
7CA
330
7BB
100
AcDbEntity
  8
002
 62
     3
370
     9
100
AcDbVertex
100
AcDb2dVertex
 10
534.691444
 20
736.679375
 30
0.0
  0
VERTEX
  5
7CB
330
7BB
100
AcDbEntity
  8
002
 62
     3
370
     9
100
AcDbVertex
100
AcDb2dVertex
 10
532.891454
 20
735.463375
 30
0.0
  0
VERTEX
  5
7CC
330
7BB
100
AcDbEntity
  8
002
 62
     3
370
     9
100
AcDbVertex
100
AcDb2dVertex
 10
531.091464
 20
735.015375
 30
0.0
  0
VERTEX
  5
7CD
330
7BB
100
AcDbEntity
  8
002
 62
     3
370
     9
100
AcDbVertex
100
AcDb2dVertex
 10
529.291474
 20
735.463375
 30
0.0
  0
VERTEX
  5
7CE
330
7BB
100
AcDbEntity
  8
002
 62
     3
370
     9
100
AcDbVertex
100
AcDb2dVertex
 10
527.491484
 20
736.679375
 30
0.0
  0
VERTEX
  5
7CF
330
7BB
100
AcDbEntity
  8
002
 62
     3
370
     9
100
AcDbVertex
100
AcDb2dVertex
 10
525.691494
 20
738.471375
 30
0.0
  0
VERTEX
  5
7D0
330
7BB
100
AcDbEntity
  8
002
 62
     3
370
     9
100
AcDbVertex
100
AcDb2dVertex
 10
523.891504
 20
740.647375
 30
0.0
  0
VERTEX
  5
7D1
330
7BB
100
AcDbEntity
  8
002
 62
     3
370
     9
100
AcDbVertex
100
AcDb2dVertex
 10
522.091514
 20
743.015375
 30
0.0
  0
SEQEND
  5
7BC
330
7BB
100
AcDbEntity
  8
002
370
     9
  0
POLYLINE
  5
7D2
330
1F
100
AcDbEntity
  8
002
 62
     3
370
     9
100
AcDb2dPolyline
 66
     1
 10
0.0
 20
0.0
 30
0.0
  0
VERTEX
  5
7D4
330
7D2
100
AcDbEntity
  8
002
 62
     3
370
     9
100
AcDbVertex
100
AcDb2dVertex
 10
558.091314
 20
727.015375
 30
0.0
  0
VERTEX
  5
7D5
330
7D2
100
AcDbEntity
  8
002
 62
     3
370
     9
100
AcDbVertex
100
AcDb2dVertex
 10
556.291324
 20
729.383375
 30
0.0
  0
VERTEX
  5
7D6
330
7D2
100
AcDbEntity
  8
002
 62
     3
370
     9
100
AcDbVertex
100
AcDb2dVertex
 10
554.491334
 20
731.559375
 30
0.0
  0
VERTEX
  5
7D7
330
7D2
100
AcDbEntity
  8
002
 62
     3
370
     9
100
AcDbVertex
100
AcDb2dVertex
 10
552.691344
 20
733.351375
 30
0.0
  0
VERTEX
  5
7D8
330
7D2
100
AcDbEntity
  8
002
 62
     3
370
     9
100
AcDbVertex
100
AcDb2dVertex
 10
550.891354
 20
734.567375
 30
0.0
  0
VERTEX
  5
7D9
330
7D2
100
AcDbEntity
  8
002
 62
     3
370
     9
100
AcDbVertex
100
AcDb2dVertex
 10
549.091364
 20
735.015375
 30
0.0
  0
VERTEX
  5
7DA
330
7D2
100
AcDbEntity
  8
002
 62
     3
370
     9
100
AcDbVertex
100
AcDb2dVertex
 10
547.291374
 20
734.567375
 30
0.0
  0
VERTEX
  5
7DB
330
7D2
100
AcDbEntity
  8
002
 62
     3
370
     9
100
AcDbVertex
100
AcDb2dVertex
 10
545.491384
 20
733.351375
 30
0.0
  0
VERTEX
  5
7DC
330
7D2
100
AcDbEntity
  8
002
 62
     3
370
     9
100
AcDbVertex
100
AcDb2dVertex
 10
543.691394
 20
731.559375
 30
0.0
  0
VERTEX
  5
7DD
330
7D2
100
AcDbEntity
  8
002
 62
     3
370
     9
100
AcDbVertex
100
AcDb2dVertex
 10
541.891404
 20
729.383375
 30
0.0
  0
VERTEX
  5
7DE
330
7D2
100
AcDbEntity
  8
002
 62
     3
370
     9
100
AcDbVertex
100
AcDb2dVertex
 10
540.091414
 20
727.015375
 30
0.0
  0
VERTEX
  5
7DF
330
7D2
100
AcDbEntity
  8
002
 62
     3
370
     9
100
AcDbVertex
100
AcDb2dVertex
 10
538.291424
 20
724.647375
 30
0.0
  0
VERTEX
  5
7E0
330
7D2
100
AcDbEntity
  8
002
 62
     3
370
     9
100
AcDbVertex
100
AcDb2dVertex
 10
536.491434
 20
722.471375
 30
0.0
  0
VERTEX
  5
7E1
330
7D2
100
AcDbEntity
  8
002
 62
     3
370
     9
100
AcDbVertex
100
AcDb2dVertex
 10
534.691444
 20
720.679375
 30
0.0
  0
VERTEX
  5
7E2
330
7D2
100
AcDbEntity
  8
002
 62
     3
370
     9
100
AcDbVertex
100
AcDb2dVertex
 10
532.891454
 20
719.463375
 30
0.0
  0
VERTEX
  5
7E3
330
7D2
100
AcDbEntity
  8
002
 62
     3
370
     9
100
AcDbVertex
100
AcDb2dVertex
 10
531.091464
 20
719.015375
 30
0.0
  0
VERTEX
  5
7E4
330
7D2
100
AcDbEntity
  8
002
 62
     3
370
     9
100
AcDbVertex
100
AcDb2dVertex
 10
529.291474
 20
719.463375
 30
0.0
  0
VERTEX
  5
7E5
330
7D2
100
AcDbEntity
  8
002
 62
     3
370
     9
100
AcDbVertex
100
AcDb2dVertex
 10
527.491484
 20
720.679375
 30
0.0
  0
VERTEX
  5
7E6
330
7D2
100
AcDbEntity
  8
002
 62
     3
370
     9
100
AcDbVertex
100
AcDb2dVertex
 10
525.691494
 20
722.471375
 30
0.0
  0
VERTEX
  5
7E7
330
7D2
100
AcDbEntity
  8
002
 62
     3
370
     9
100
AcDbVertex
100
AcDb2dVertex
 10
523.891504
 20
724.647375
 30
0.0
  0
VERTEX
  5
7E8
330
7D2
100
AcDbEntity
  8
002
 62
     3
370
     9
100
AcDbVertex
100
AcDb2dVertex
 10
522.091514
 20
727.015375
 30
0.0
  0
SEQEND
  5
7D3
330
7D2
100
AcDbEntity
  8
002
370
     9
  0
LINE
  5
7E9
330
1F
100
AcDbEntity
  8
002
 62
     3
370
    30
100
AcDbLine
 10
522.091514
 20
818.515125
 30
0.0
 11
522.091514
 21
743.015375
 31
0.0
  0
LINE
  5
7EA
330
1F
100
AcDbEntity
  8
002
 62
     3
370
    30
100
AcDbLine
 10
522.091514
 20
727.015375
 30
0.0
 11
522.091514
 21
651.515625
 31
0.0
  0
LINE
  5
7EB
330
1F
100
AcDbEntity
  8
002
 62
     3
370
    30
100
AcDbLine
 10
558.091314
 20
651.515625
 30
0.0
 11
558.091314
 21
727.015375
 31
0.0
  0
LINE
  5
7EC
330
1F
100
AcDbEntity
  8
002
 62
     3
370
    30
100
AcDbLine
 10
558.091314
 20
743.015375
 30
0.0
 11
558.091314
 21
818.515125
 31
0.0
  0
LINE
  5
7ED
330
1F
100
AcDbEntity
  8
002
 62
    40
370
     9
100
AcDbLine
 10
524.452414
 20
818.515125
 30
0.0
 11
524.452414
 21
739.939696
 31
0.0
  0
LINE
  5
7EE
330
1F
100
AcDbEntity
  8
002
 62
    40
370
     9
100
AcDbLine
 10
524.452414
 20
723.939696
 30
0.0
 11
524.452414
 21
651.515625
 31
0.0
  0
LINE
  5
7EF
330
1F
100
AcDbEntity
  8
002
 62
    40
370
     9
100
AcDbLine
 10
555.730414
 20
651.515625
 30
0.0
 11
555.730414
 21
730.091053
 31
0.0
  0
LINE
  5
7F0
330
1F
100
AcDbEntity
  8
002
 62
    40
370
     9
100
AcDbLine
 10
555.730414
 20
746.091053
 30
0.0
 11
555.730414
 21
818.515125
 31
0.0
  0
POLYLINE
  5
7F1
330
1F
100
AcDbEntity
  8
002
 62
     3
370
     9
100
AcDb2dPolyline
 66
     1
 10
0.0
 20
0.0
 30
0.0
  0
VERTEX
  5
7F3
330
7F1
100
AcDbEntity
  8
002
 62
     3
370
     9
100
AcDbVertex
100
AcDb2dVertex
 10
284.091314
 20
743.015375
 30
0.0
  0
VERTEX
  5
7F4
330
7F1
100
AcDbEntity
  8
002
 62
     3
370
     9
100
AcDbVertex
100
AcDb2dVertex
 10
282.291324
 20
745.383375
 30
0.0
  0
VERTEX
  5
7F5
330
7F1
100
AcDbEntity
  8
002
 62
     3
370
     9
100
AcDbVertex
100
AcDb2dVertex
 10
280.491334
 20
747.559375
 30
0.0
  0
VERTEX
  5
7F6
330
7F1
100
AcDbEntity
  8
002
 62
     3
370
     9
100
AcDbVertex
100
AcDb2dVertex
 10
278.691344
 20
749.351375
 30
0.0
  0
VERTEX
  5
7F7
330
7F1
100
AcDbEntity
  8
002
 62
     3
370
     9
100
AcDbVertex
100
AcDb2dVertex
 10
276.891354
 20
750.567375
 30
0.0
  0
VERTEX
  5
7F8
330
7F1
100
AcDbEntity
  8
002
 62
     3
370
     9
100
AcDbVertex
100
AcDb2dVertex
 10
275.091364
 20
751.015375
 30
0.0
  0
VERTEX
  5
7F9
330
7F1
100
AcDbEntity
  8
002
 62
     3
370
     9
100
AcDbVertex
100
AcDb2dVertex
 10
273.291374
 20
750.567375
 30
0.0
  0
VERTEX
  5
7FA
330
7F1
100
AcDbEntity
  8
002
 62
     3
370
     9
100
AcDbVertex
100
AcDb2dVertex
 10
271.491384
 20
749.351375
 30
0.0
  0
VERTEX
  5
7FB
330
7F1
100
AcDbEntity
  8
002
 62
     3
370
     9
100
AcDbVertex
100
AcDb2dVertex
 10
269.691394
 20
747.559375
 30
0.0
  0
VERTEX
  5
7FC
330
7F1
100
AcDbEntity
  8
002
 62
     3
370
     9
100
AcDbVertex
100
AcDb2dVertex
 10
267.891404
 20
745.383375
 30
0.0
  0
VERTEX
  5
7FD
330
7F1
100
AcDbEntity
  8
002
 62
     3
370
     9
100
AcDbVertex
100
AcDb2dVertex
 10
266.091414
 20
743.015375
 30
0.0
  0
VERTEX
  5
7FE
330
7F1
100
AcDbEntity
  8
002
 62
     3
370
     9
100
AcDbVertex
100
AcDb2dVertex
 10
264.291424
 20
740.647375
 30
0.0
  0
VERTEX
  5
7FF
330
7F1
100
AcDbEntity
  8
002
 62
     3
370
     9
100
AcDbVertex
100
AcDb2dVertex
 10
262.491434
 20
738.471375
 30
0.0
  0
VERTEX
  5
800
330
7F1
100
AcDbEntity
  8
002
 62
     3
370
     9
100
AcDbVertex
100
AcDb2dVertex
 10
260.691444
 20
736.679375
 30
0.0
  0
VERTEX
  5
801
330
7F1
100
AcDbEntity
  8
002
 62
     3
370
     9
100
AcDbVertex
100
AcDb2dVertex
 10
258.891454
 20
735.463375
 30
0.0
  0
VERTEX
  5
802
330
7F1
100
AcDbEntity
  8
002
 62
     3
370
     9
100
AcDbVertex
100
AcDb2dVertex
 10
257.091464
 20
735.015375
 30
0.0
  0
VERTEX
  5
803
330
7F1
100
AcDbEntity
  8
002
 62
     3
370
     9
100
AcDbVertex
100
AcDb2dVertex
 10
255.291474
 20
735.463375
 30
0.0
  0
VERTEX
  5
804
330
7F1
100
AcDbEntity
  8
002
 62
     3
370
     9
100
AcDbVertex
100
AcDb2dVertex
 10
253.491484
 20
736.679375
 30
0.0
  0
VERTEX
  5
805
330
7F1
100
AcDbEntity
  8
002
 62
     3
370
     9
100
AcDbVertex
100
AcDb2dVertex
 10
251.691494
 20
738.471375
 30
0.0
  0
VERTEX
  5
806
330
7F1
100
AcDbEntity
  8
002
 62
     3
370
     9
100
AcDbVertex
100
AcDb2dVertex
 10
249.891504
 20
740.647375
 30
0.0
  0
VERTEX
  5
807
330
7F1
100
AcDbEntity
  8
002
 62
     3
370
     9
100
AcDbVertex
100
AcDb2dVertex
 10
248.091514
 20
743.015375
 30
0.0
  0
SEQEND
  5
7F2
330
7F1
100
AcDbEntity
  8
002
370
     9
  0
POLYLINE
  5
808
330
1F
100
AcDbEntity
  8
002
 62
     3
370
     9
100
AcDb2dPolyline
 66
     1
 10
0.0
 20
0.0
 30
0.0
  0
VERTEX
  5
80A
330
808
100
AcDbEntity
  8
002
 62
     3
370
     9
100
AcDbVertex
100
AcDb2dVertex
 10
284.091314
 20
727.015375
 30
0.0
  0
VERTEX
  5
80B
330
808
100
AcDbEntity
  8
002
 62
     3
370
     9
100
AcDbVertex
100
AcDb2dVertex
 10
282.291324
 20
729.383375
 30
0.0
  0
VERTEX
  5
80C
330
808
100
AcDbEntity
  8
002
 62
     3
370
     9
100
AcDbVertex
100
AcDb2dVertex
 10
280.491334
 20
731.559375
 30
0.0
  0
VERTEX
  5
80D
330
808
100
AcDbEntity
  8
002
 62
     3
370
     9
100
AcDbVertex
100
AcDb2dVertex
 10
278.691344
 20
733.351375
 30
0.0
  0
VERTEX
  5
80E
330
808
100
AcDbEntity
  8
002
 62
     3
370
     9
100
AcDbVertex
100
AcDb2dVertex
 10
276.891354
 20
734.567375
 30
0.0
  0
VERTEX
  5
80F
330
808
100
AcDbEntity
  8
002
 62
     3
370
     9
100
AcDbVertex
100
AcDb2dVertex
 10
275.091364
 20
735.015375
 30
0.0
  0
VERTEX
  5
810
330
808
100
AcDbEntity
  8
002
 62
     3
370
     9
100
AcDbVertex
100
AcDb2dVertex
 10
273.291374
 20
734.567375
 30
0.0
  0
VERTEX
  5
811
330
808
100
AcDbEntity
  8
002
 62
     3
370
     9
100
AcDbVertex
100
AcDb2dVertex
 10
271.491384
 20
733.351375
 30
0.0
  0
VERTEX
  5
812
330
808
100
AcDbEntity
  8
002
 62
     3
370
     9
100
AcDbVertex
100
AcDb2dVertex
 10
269.691394
 20
731.559375
 30
0.0
  0
VERTEX
  5
813
330
808
100
AcDbEntity
  8
002
 62
     3
370
     9
100
AcDbVertex
100
AcDb2dVertex
 10
267.891404
 20
729.383375
 30
0.0
  0
VERTEX
  5
814
330
808
100
AcDbEntity
  8
002
 62
     3
370
     9
100
AcDbVertex
100
AcDb2dVertex
 10
266.091414
 20
727.015375
 30
0.0
  0
VERTEX
  5
815
330
808
100
AcDbEntity
  8
002
 62
     3
370
     9
100
AcDbVertex
100
AcDb2dVertex
 10
264.291424
 20
724.647375
 30
0.0
  0
VERTEX
  5
816
330
808
100
AcDbEntity
  8
002
 62
     3
370
     9
100
AcDbVertex
100
AcDb2dVertex
 10
262.491434
 20
722.471375
 30
0.0
  0
VERTEX
  5
817
330
808
100
AcDbEntity
  8
002
 62
     3
370
     9
100
AcDbVertex
100
AcDb2dVertex
 10
260.691444
 20
720.679375
 30
0.0
  0
VERTEX
  5
818
330
808
100
AcDbEntity
  8
002
 62
     3
370
     9
100
AcDbVertex
100
AcDb2dVertex
 10
258.891454
 20
719.463375
 30
0.0
  0
VERTEX
  5
819
330
808
100
AcDbEntity
  8
002
 62
     3
370
     9
100
AcDbVertex
100
AcDb2dVertex
 10
257.091464
 20
719.015375
 30
0.0
  0
VERTEX
  5
81A
330
808
100
AcDbEntity
  8
002
 62
     3
370
     9
100
AcDbVertex
100
AcDb2dVertex
 10
255.291474
 20
719.463375
 30
0.0
  0
VERTEX
  5
81B
330
808
100
AcDbEntity
  8
002
 62
     3
370
     9
100
AcDbVertex
100
AcDb2dVertex
 10
253.491484
 20
720.679375
 30
0.0
  0
VERTEX
  5
81C
330
808
100
AcDbEntity
  8
002
 62
     3
370
     9
100
AcDbVertex
100
AcDb2dVertex
 10
251.691494
 20
722.471375
 30
0.0
  0
VERTEX
  5
81D
330
808
100
AcDbEntity
  8
002
 62
     3
370
     9
100
AcDbVertex
100
AcDb2dVertex
 10
249.891504
 20
724.647375
 30
0.0
  0
VERTEX
  5
81E
330
808
100
AcDbEntity
  8
002
 62
     3
370
     9
100
AcDbVertex
100
AcDb2dVertex
 10
248.091514
 20
727.015375
 30
0.0
  0
SEQEND
  5
809
330
808
100
AcDbEntity
  8
002
370
     9
  0
LINE
  5
81F
330
1F
100
AcDbEntity
  8
002
 62
     3
370
    30
100
AcDbLine
 10
248.091514
 20
818.515125
 30
0.0
 11
248.091514
 21
743.015375
 31
0.0
  0
LINE
  5
820
330
1F
100
AcDbEntity
  8
002
 62
     3
370
    30
100
AcDbLine
 10
248.091514
 20
727.015375
 30
0.0
 11
248.091514
 21
651.515625
 31
0.0
  0
LINE
  5
821
330
1F
100
AcDbEntity
  8
002
 62
     3
370
    30
100
AcDbLine
 10
284.091314
 20
651.515625
 30
0.0
 11
284.091314
 21
727.015375
 31
0.0
  0
LINE
  5
822
330
1F
100
AcDbEntity
  8
002
 62
     3
370
    30
100
AcDbLine
 10
284.091314
 20
743.015375
 30
0.0
 11
284.091314
 21
818.515125
 31
0.0
  0
LINE
  5
823
330
1F
100
AcDbEntity
  8
002
 62
    40
370
     9
100
AcDbLine
 10
250.452414
 20
818.515125
 30
0.0
 11
250.452414
 21
739.939696
 31
0.0
  0
LINE
  5
824
330
1F
100
AcDbEntity
  8
002
 62
    40
370
     9
100
AcDbLine
 10
250.452414
 20
723.939696
 30
0.0
 11
250.452414
 21
651.515625
 31
0.0
  0
LINE
  5
825
330
1F
100
AcDbEntity
  8
002
 62
    40
370
     9
100
AcDbLine
 10
281.730414
 20
651.515625
 30
0.0
 11
281.730414
 21
730.091053
 31
0.0
  0
LINE
  5
826
330
1F
100
AcDbEntity
  8
002
 62
    40
370
     9
100
AcDbLine
 10
281.730414
 20
746.091053
 30
0.0
 11
281.730414
 21
818.515125
 31
0.0
  0
LINE
  5
827
330
1F
100
AcDbEntity
  8
002
  6
CENTER
 62
    40
370
     9
100
AcDbLine
 10
266.091314
 20
853.897173
 30
0.0
 11
266.091314
 21
166.462969
 31
0.0
  0
LINE
  5
828
330
1F
100
AcDbEntity
  8
002
  6
CENTER
 62
    40
370
     9
100
AcDbLine
 10
818.56931
 20
853.897173
 30
0.0
 11
818.56931
 21
170.293901
 31
0.0
  0
LINE
  5
829
330
1F
100
AcDbEntity
  8
002
  6
CENTER
 62
    40
370
     9
100
AcDbLine
 10
1089.84751
 20
231.369875
 30
0.0
 11
1089.84751
 21
875.175383
 31
0.0
  0
LINE
  5
82A
330
1F
100
AcDbEntity
  8
002
  6
CENTER
 62
    40
370
     9
100
AcDbLine
 10
1344.84751
 20
231.369875
 30
0.0
 11
1344.84751
 21
875.175383
 31
0.0
  0
LINE
  5
82B
330
1F
100
AcDbEntity
  8
002
  6
CENTER
 62
    40
370
     9
100
AcDbLine
 10
352.350314
 20
466.256725
 30
0.0
 11
340.831314
 21
477.775625
 31
0.0
  0
LINE
  5
82C
330
1F
100
AcDbEntity
  8
002
  6
CENTER
 62
    40
370
     9
100
AcDbLine
 10
303.351314
 20
477.775625
 30
0.0
 11
291.832314
 21
466.256725
 31
0.0
  0
CIRCLE
  5
82D
330
1F
100
AcDbEntity
  8
002
  6
CENTER
 62
    40
370
     9
100
AcDbCircle
 10
322.091314
 20
496.515625
 30
0.0
 40
35.0
  0
LINE
  5
82E
330
1F
100
AcDbEntity
  8
002
  6
CENTER
 62
    40
370
     9
100
AcDbLine
 10
303.351314
 20
515.255625
 30
0.0
 11
291.832314
 21
526.774425
 31
0.0
  0
LINE
  5
82F
330
1F
100
AcDbEntity
  8
002
  6
CENTER
 62
    40
370
     9
100
AcDbLine
 10
340.831314
 20
515.255625
 30
0.0
 11
352.350314
 21
526.774425
 31
0.0
  0
LINE
  5
830
330
1F
100
AcDbEntity
  8
002
  6
CENTER
 62
    40
370
     9
100
AcDbLine
 10
904.82831
 20
466.256725
 30
0.0
 11
893.30931
 21
477.775625
 31
0.0
  0
LINE
  5
831
330
1F
100
AcDbEntity
  8
002
  6
CENTER
 62
    40
370
     9
100
AcDbLine
 10
855.82931
 20
477.775625
 30
0.0
 11
844.31031
 21
466.256725
 31
0.0
  0
CIRCLE
  5
832
330
1F
100
AcDbEntity
  8
002
  6
CENTER
 62
    40
370
     9
100
AcDbCircle
 10
874.56931
 20
496.515625
 30
0.0
 40
35.0
  0
LINE
  5
833
330
1F
100
AcDbEntity
  8
002
  6
CENTER
 62
    40
370
     9
100
AcDbLine
 10
855.82931
 20
515.255625
 30
0.0
 11
844.31031
 21
526.774425
 31
0.0
  0
LINE
  5
834
330
1F
100
AcDbEntity
  8
002
  6
CENTER
 62
    40
370
     9
100
AcDbLine
 10
893.30931
 20
515.255625
 30
0.0
 11
904.82831
 21
526.774425
 31
0.0
  0
LINE
  5
835
330
1F
100
AcDbEntity
  8
002
  6
CENTER
 62
    40
370
     9
100
AcDbLine
 10
1176.10651
 20
466.256725
 30
0.0
 11
1164.58751
 21
477.775625
 31
0.0
  0
LINE
  5
836
330
1F
100
AcDbEntity
  8
002
  6
CENTER
 62
    40
370
     9
100
AcDbLine
 10
1127.10751
 20
477.775625
 30
0.0
 11
1115.58851
 21
466.256725
 31
0.0
  0
CIRCLE
  5
837
330
1F
100
AcDbEntity
  8
002
  6
CENTER
 62
    40
370
     9
100
AcDbCircle
 10
1145.84751
 20
496.515625
 30
0.0
 40
35.0
  0
LINE
  5
838
330
1F
100
AcDbEntity
  8
002
  6
CENTER
 62
    40
370
     9
100
AcDbLine
 10
1127.10751
 20
515.255625
 30
0.0
 11
1115.58851
 21
526.774425
 31
0.0
  0
LINE
  5
839
330
1F
100
AcDbEntity
  8
002
  6
CENTER
 62
    40
370
     9
100
AcDbLine
 10
1164.58751
 20
515.255625
 30
0.0
 11
1176.10651
 21
526.774425
 31
0.0
  0
LINE
  5
83A
330
1F
100
AcDbEntity
  8
002
  6
CENTER
 62
    40
370
     9
100
AcDbLine
 10
1431.10651
 20
466.256725
 30
0.0
 11
1419.58751
 21
477.775625
 31
0.0
  0
LINE
  5
83B
330
1F
100
AcDbEntity
  8
002
  6
CENTER
 62
    40
370
     9
100
AcDbLine
 10
1382.10751
 20
477.775625
 30
0.0
 11
1370.58851
 21
466.256725
 31
0.0
  0
CIRCLE
  5
83C
330
1F
100
AcDbEntity
  8
002
  6
CENTER
 62
    40
370
     9
100
AcDbCircle
 10
1400.84751
 20
496.515625
 30
0.0
 40
35.0
  0
LINE
  5
83D
330
1F
100
AcDbEntity
  8
002
  6
CENTER
 62
    40
370
     9
100
AcDbLine
 10
1382.10751
 20
515.255625
 30
0.0
 11
1370.58851
 21
526.774425
 31
0.0
  0
LINE
  5
83E
330
1F
100
AcDbEntity
  8
002
  6
CENTER
 62
    40
370
     9
100
AcDbLine
 10
1419.58751
 20
515.255625
 30
0.0
 11
1431.10651
 21
526.774425
 31
0.0
  0
LINE
  5
83F
330
1F
100
AcDbEntity
  8
002
  6
CENTER
 62
    40
370
     9
100
AcDbLine
 10
450.274414
 20
471.766625
 30
0.0
 11
472.670414
 21
471.766625
 31
0.0
  0
LINE
  5
840
330
1F
100
AcDbEntity
  8
002
  6
CENTER
 62
    40
370
     9
100
AcDbLine
 10
472.670414
 20
521.264625
 30
0.0
 11
450.274414
 21
521.264625
 31
0.0
  0
LINE
  5
841
330
1F
100
AcDbEntity
  8
002
  6
CENTER
 62
    40
370
     9
100
AcDbLine
 10
629.907414
 20
521.264625
 30
0.0
 11
607.512414
 21
521.264625
 31
0.0
  0
LINE
  5
842
330
1F
100
AcDbEntity
  8
002
  6
CENTER
 62
    40
370
     9
100
AcDbLine
 10
607.512414
 20
471.766625
 30
0.0
 11
629.907414
 21
471.766625
 31
0.0
  0
LINE
  5
843
330
1F
100
AcDbEntity
  8
003
  6
CENTER
 62
    40
370
     9
100
AcDbLine
 10
540.091414
 20
166.462969
 30
0.0
 11
540.091414
 21
853.897173
 31
0.0
  0
ENDSEC
  0
SECTION
  2
OBJECTS
  0
DICTIONARY
  5
C
330
0
100
AcDbDictionary
281
     1
  3
ACAD_GROUP
350
D
  3
ACAD_LAYOUT
350
1A
  3
ACAD_MLEADERSTYLE
350
846
  3
ACAD_MLINESTYLE
350
17
  3
ACAD_PLOTSETTINGS
350
19
  3
ACAD_PLOTSTYLENAME
350
E
  3
ACAD_VISUALSTYLE
350
2A
  3
AcDbVariableDictionary
350
844
  0
DICTIONARY
  5
D
102
{ACAD_REACTORS
330
C
102
}
330
C
100
AcDbDictionary
281
     1
  0
DICTIONARY
  5
1A
102
{ACAD_REACTORS
330
C
102
}
330
C
100
AcDbDictionary
281
     1
  3
Layout1
350
1E
  3
Layout2
350
26
  3
Model
350
22
  0
DICTIONARY
  5
846
102
{ACAD_REACTORS
330
C
102
}
330
C
100
AcDbDictionary
281
     1
  0
DICTIONARY
  5
17
102
{ACAD_REACTORS
330
C
102
}
330
C
100
AcDbDictionary
281
     1
  3
Standard
350
18
  0
DICTIONARY
  5
19
102
{ACAD_REACTORS
330
C
102
}
330
C
100
AcDbDictionary
281
     1
  0
ACDBDICTIONARYWDFLT
  5
E
102
{ACAD_REACTORS
330
C
102
}
330
C
100
AcDbDictionary
281
     1
  3
Normal
350
F
100
AcDbDictionaryWithDefault
340
F
  0
DICTIONARY
  5
2A
102
{ACAD_REACTORS
330
C
102
}
330
C
100
AcDbDictionary
281
     1
  3
2dWireframe
350
2F
  3
3D Hidden
350
31
  3
3dWireframe
350
30
  3
Basic
350
32
  3
Brighten
350
36
  3
ColorChange
350
3A
  3
Conceptual
350
34
  3
Dim
350
35
  3
Facepattern
350
39
  3
Flat
350
2B
  3
FlatWithEdges
350
2C
  3
Gouraud
350
2D
  3
GouraudWithEdges
350
2E
  3
Linepattern
350
38
  3
Realistic
350
33
  3
Thicken
350
37
  0
DICTIONARY
  5
844
102
{ACAD_REACTORS
330
C
102
}
330
C
100
AcDbDictionary
281
     1
  3
PSOLHEIGHT
350
848
  3
PSOLWIDTH
350
847
  0
LAYOUT
  5
1E
102
{ACAD_REACTORS
330
1A
102
}
330
1A
100
AcDbPlotSettings
  1

  2
none_device
  4

  6

 40
0.0
 41
0.0
 42
0.0
 43
0.0
 44
0.0
 45
0.0
 46
0.0
 47
0.0
 48
0.0
 49
0.0
140
0.0
141
0.0
142
1.0
143
1.0
 70
   688
 72
     0
 73
     0
 74
     5
  7

 75
    16
147
1.0
148
0.0
149
0.0
100
AcDbLayout
  1
Layout1
 70
     1
 71
     1
 10
0.0
 20
0.0
 11
12.0
 21
9.0
 12
0.0
 22
0.0
 32
0.0
 14
1.000000E+20
 24
1.000000E+20
 34
0.0
 15
-1.000000E+20
 25
-1.000000E+20
 35
0.0
146
0.0
 13
0.0
 23
0.0
 33
0.0
 16
1.0
 26
0.0
 36
0.0
 17
0.0
 27
1.0
 37
0.0
 76
     0
330
1B
  0
LAYOUT
  5
26
102
{ACAD_REACTORS
330
1A
102
}
330
1A
100
AcDbPlotSettings
  1

  2
none_device
  4

  6

 40
0.0
 41
0.0
 42
0.0
 43
0.0
 44
0.0
 45
0.0
 46
0.0
 47
0.0
 48
0.0
 49
0.0
140
0.0
141
0.0
142
1.0
143
1.0
 70
   688
 72
     0
 73
     0
 74
     5
  7

 75
    16
147
1.0
148
0.0
149
0.0
100
AcDbLayout
  1
Layout2
 70
     1
 71
     2
 10
0.0
 20
0.0
 11
0.0
 21
0.0
 12
0.0
 22
0.0
 32
0.0
 14
0.0
 24
0.0
 34
0.0
 15
0.0
 25
0.0
 35
0.0
146
0.0
 13
0.0
 23
0.0
 33
0.0
 16
1.0
 26
0.0
 36
0.0
 17
0.0
 27
1.0
 37
0.0
 76
     0
330
23
  0
LAYOUT
  5
22
102
{ACAD_REACTORS
330
1A
102
}
330
1A
100
AcDbPlotSettings
  1

  2
none_device
  4

  6

 40
0.0
 41
0.0
 42
0.0
 43
0.0
 44
0.0
 45
0.0
 46
0.0
 47
0.0
 48
0.0
 49
0.0
140
0.0
141
0.0
142
1.0
143
1.0
 70
  1712
 72
     0
 73
     0
 74
     0
  7

 75
     0
147
1.0
148
0.0
149
0.0
100
AcDbLayout
  1
Model
 70
     1
 71
     0
 10
0.0
 20
0.0
 11
12.0
 21
9.0
 12
0.0
 22
0.0
 32
0.0
 14
177.079346
 24
166.463013
 34
0.0
 15
1473.847534
 25
1531.03064
 35
0.0
146
0.0
 13
0.0
 23
0.0
 33
0.0
 16
1.0
 26
0.0
 36
0.0
 17
0.0
 27
1.0
 37
0.0
 76
     0
330
1F
331
29
  0
MLINESTYLE
  5
18
102
{ACAD_REACTORS
330
17
102
}
330
17
100
AcDbMlineStyle
  2
Standard
 70
     0
  3

 62
   256
 51
90.0
 52
90.0
 71
     2
 49
0.5
 62
   256
  6
BYLAYER
 49
-0.5
 62
   256
  6
BYLAYER
  0
ACDBPLACEHOLDER
  5
F
102
{ACAD_REACTORS
330
E
102
}
330
E
  0
VISUALSTYLE
  5
2F
102
{ACAD_REACTORS
330
2A
102
}
330
2A
100
AcDbVisualStyle
  2
2dWireframe
 70
     4
 71
     0
 72
     2
 73
     0
 90
        0
 40
-0.6
 41
-30.0
 62
     5
 63
     7
 74
     1
 91
        4
 64
     7
 65
   257
 75
     1
175
     1
 42
1.0
 92
        0
 66
   257
 43
1.0
 76
     1
 77
     6
 78
     2
 67
     7
 79
     5
170
     0
171
     0
290
     0
174
     0
 93
        1
 44
0.0
173
     0
291
     0
 45
0.0
1001
ACAD
1000
AcDbSavedByObjectVersion
1070
     0
  0
VISUALSTYLE
  5
31
102
{ACAD_REACTORS
330
2A
102
}
330
2A
100
AcDbVisualStyle
  2
3D Hidden
 70
     6
 71
     1
 72
     2
 73
     2
 90
        0
 40
-0.6
 41
-30.0
 62
     5
 63
     7
 74
     2
 91
        2
 64
     7
 65
   257
 75
     2
175
     1
 42
40.0
 92
        0
 66
   257
 43
1.0
 76
     1
 77
     6
 78
     2
 67
     7
 79
     3
170
     0
171
     0
290
     0
174
     0
 93
        1
 44
0.0
173
     0
291
     0
 45
0.0
1001
ACAD
1000
AcDbSavedByObjectVersion
1070
     0
  0
VISUALSTYLE
  5
30
102
{ACAD_REACTORS
330
2A
102
}
330
2A
100
AcDbVisualStyle
  2
3dWireframe
 70
     5
 71
     0
 72
     2
 73
     0
 90
        0
 40
-0.6
 41
-30.0
 62
     5
 63
     7
 74
     1
 91
        4
 64
     7
 65
   257
 75
     1
175
     1
 42
1.0
 92
        0
 66
   257
 43
1.0
 76
     1
 77
     6
 78
     2
 67
     7
 79
     5
170
     0
171
     0
290
     0
174
     0
 93
        1
 44
0.0
173
     0
291
     0
 45
0.0
1001
ACAD
1000
AcDbSavedByObjectVersion
1070
     0
  0
VISUALSTYLE
  5
32
102
{ACAD_REACTORS
330
2A
102
}
330
2A
100
AcDbVisualStyle
  2
Basic
 70
     7
 71
     1
 72
     0
 73
     1
 90
        0
 40
-0.6
 41
-30.0
 62
     5
 63
     7
 74
     0
 91
        4
 64
     7
 65
   257
 75
     1
175
     1
 42
1.0
 92
        8
 66
     7
 43
1.0
 76
     1
 77
     6
 78
     2
 67
     7
 79
     5
170
     0
171
     0
290
     0
174
     0
 93
        1
 44
0.0
173
     0
291
     1
 45
0.0
1001
ACAD
1000
AcDbSavedByObjectVersion
1070
     0
  0
VISUALSTYLE
  5
36
102
{ACAD_REACTORS
330
2A
102
}
330
2A
100
AcDbVisualStyle
  2
Brighten
 70
    12
 71
     2
 72
     2
 73
     0
 90
        0
 40
-0.6
 41
-30.0
 62
     5
 63
     7
 74
     1
 91
        4
 64
     7
 65
   257
 75
     1
175
     1
 42
1.0
 92
        8
 66
     7
 43
1.0
 76
     1
 77
     6
 78
     2
 67
     7
 79
     5
170
     0
171
     0
290
     0
174
     0
 93
        1
 44
50.0
173
     0
291
     1
 45
0.0
1001
ACAD
1000
AcDbSavedByObjectVersion
1070
     0
  0
VISUALSTYLE
  5
3A
102
{ACAD_REACTORS
330
2A
102
}
330
2A
100
AcDbVisualStyle
  2
ColorChange
 70
    16
 71
     2
 72
     2
 73
     3
 90
        0
 40
-0.6
 41
-30.0
 62
     5
 63
     8
 74
     1
 91
        4
 64
     7
 65
   257
 75
     1
175
     1
 42
1.0
 92
        8
 66
     8
 43
1.0
 76
     1
 77
     6
 78
     2
 67
     7
 79
     5
170
     0
171
     0
290
     0
174
     0
 93
        1
 44
0.0
173
     0
291
     1
 45
0.0
1001
ACAD
1000
AcDbSavedByObjectVersion
1070
     0
  0
VISUALSTYLE
  5
34
102
{ACAD_REACTORS
330
2A
102
}
330
2A
100
AcDbVisualStyle
  2
Conceptual
 70
     9
 71
     3
 72
     2
 73
     0
 90
        0
 40
-0.6
 41
-30.0
 62
     5
 63
     7
 74
     2
 91
        2
 64
     7
 65
   257
 75
     1
175
     1
 42
40.0
 92
        8
 66
     7
 43
1.0
 76
     1
 77
     6
 78
     2
 67
     7
 79
     3
170
     0
171
     0
290
     0
174
     0
 93
        1
 44
0.0
173
     0
291
     0
 45
0.0
1001
ACAD
1000
AcDbSavedByObjectVersion
1070
     0
  0
VISUALSTYLE
  5
35
102
{ACAD_REACTORS
330
2A
102
}
330
2A
100
AcDbVisualStyle
  2
Dim
 70
    11
 71
     2
 72
     2
 73
     0
 90
        0
 40
-0.6
 41
-30.0
 62
     5
 63
     7
 74
     1
 91
        4
 64
     7
 65
   257
 75
     1
175
     1
 42
1.0
 92
        8
 66
     7
 43
1.0
 76
     1
 77
     6
 78
     2
 67
     7
 79
     5
170
     0
171
     0
290
     0
174
     0
 93
        1
 44
-50.0
173
     0
291
     1
 45
0.0
1001
ACAD
1000
AcDbSavedByObjectVersion
1070
     0
  0
VISUALSTYLE
  5
39
102
{ACAD_REACTORS
330
2A
102
}
330
2A
100
AcDbVisualStyle
  2
Facepattern
 70
    15
 71
     2
 72
     2
 73
     0
 90
        0
 40
-0.6
 41
-30.0
 62
     5
 63
     7
 74
     1
 91
        4
 64
     7
 65
   257
 75
     1
175
     1
 42
1.0
 92
        8
 66
     7
 43
1.0
 76
     1
 77
     6
 78
     2
 67
     7
 79
     5
170
     0
171
     0
290
     0
174
     0
 93
        1
 44
0.0
173
     0
291
     1
 45
0.0
1001
ACAD
1000
AcDbSavedByObjectVersion
1070
     0
  0
VISUALSTYLE
  5
2B
102
{ACAD_REACTORS
330
2A
102
}
330
2A
100
AcDbVisualStyle
  2
Flat
 70
     0
 71
     2
 72
     1
 73
     1
 90
        2
 40
-0.6
 41
30.0
 62
     5
 63
     7
 74
     0
 91
        4
 64
     7
 65
   257
 75
     1
175
     1
 42
1.0
 92
        8
 66
     7
 43
1.0
 76
     1
 77
     6
 78
     2
 67
     7
 79
     5
170
     0
171
     0
290
     0
174
     0
 93
       13
 44
0.0
173
     0
291
     1
 45
0.0
1001
ACAD
1000
AcDbSavedByObjectVersion
1070
     0
  0
VISUALSTYLE
  5
2C
102
{ACAD_REACTORS
330
2A
102
}
330
2A
100
AcDbVisualStyle
  2
FlatWithEdges
 70
     1
 71
     2
 72
     1
 73
     1
 90
        2
 40
-0.6
 41
30.0
 62
     5
 63
     7
 74
     1
 91
        4
 64
     7
 65
   257
 75
     1
175
     1
 42
1.0
 92
        0
 66
   257
 43
1.0
 76
     1
 77
     6
 78
     2
 67
     7
 79
     5
170
     0
171
     0
290
     0
174
     0
 93
       13
 44
0.0
173
     0
291
     1
 45
0.0
1001
ACAD
1000
AcDbSavedByObjectVersion
1070
     0
  0
VISUALSTYLE
  5
2D
102
{ACAD_REACTORS
330
2A
102
}
330
2A
100
AcDbVisualStyle
  2
Gouraud
 70
     2
 71
     2
 72
     2
 73
     1
 90
        2
 40
-0.6
 41
30.0
 62
     5
 63
     7
 74
     0
 91
        4
 64
     7
 65
   257
 75
     1
175
     1
 42
1.0
 92
        0
 66
     7
 43
1.0
 76
     1
 77
     6
 78
     2
 67
     7
 79
     5
170
     0
171
     0
290
     0
174
     0
 93
       13
 44
0.0
173
     0
291
     1
 45
0.0
1001
ACAD
1000
AcDbSavedByObjectVersion
1070
     0
  0
VISUALSTYLE
  5
2E
102
{ACAD_REACTORS
330
2A
102
}
330
2A
100
AcDbVisualStyle
  2
GouraudWithEdges
 70
     3
 71
     2
 72
     2
 73
     1
 90
        2
 40
-0.6
 41
30.0
 62
     5
 63
     7
 74
     1
 91
        4
 64
     7
 65
   257
 75
     1
175
     1
 42
1.0
 92
        0
 66
   257
 43
1.0
 76
     1
 77
     6
 78
     2
 67
     7
 79
     5
170
     0
171
     0
290
     0
174
     0
 93
       13
 44
0.0
173
     0
291
     1
 45
0.0
1001
ACAD
1000
AcDbSavedByObjectVersion
1070
     0
  0
VISUALSTYLE
  5
38
102
{ACAD_REACTORS
330
2A
102
}
330
2A
100
AcDbVisualStyle
  2
Linepattern
 70
    14
 71
     2
 72
     2
 73
     0
 90
        0
 40
-0.6
 41
-30.0
 62
     5
 63
     7
 74
     1
 91
        4
 64
     7
 65
   257
 75
     7
175
     7
 42
1.0
 92
        8
 66
     7
 43
1.0
 76
     1
 77
     6
 78
     2
 67
     7
 79
     5
170
     0
171
     0
290
     0
174
     0
 93
        1
 44
0.0
173
     0
291
     1
 45
0.0
1001
ACAD
1000
AcDbSavedByObjectVersion
1070
     0
  0
VISUALSTYLE
  5
33
102
{ACAD_REACTORS
330
2A
102
}
330
2A
100
AcDbVisualStyle
  2
Realistic
 70
     8
 71
     2
 72
     2
 73
     0
 90
        0
 40
-0.6
 41
-30.0
 62
     5
 63
     7
 74
     1
 91
        0
 64
     7
 65
   257
 75
     1
175
     1
 42
1.0
 92
        8
 66
     8
 43
1.0
 76
     1
 77
     6
 78
     2
 67
     7
 79
     5
170
     0
171
     0
290
     0
174
     0
 93
       13
 44
0.0
173
     0
291
     0
 45
0.0
1001
ACAD
1000
AcDbSavedByObjectVersion
1070
     0
  0
VISUALSTYLE
  5
37
102
{ACAD_REACTORS
330
2A
102
}
330
2A
100
AcDbVisualStyle
  2
Thicken
 70
    13
 71
     2
 72
     2
 73
     0
 90
        0
 40
-0.6
 41
-30.0
 62
     5
 63
     7
 74
     1
 91
        4
 64
     7
 65
   257
 75
     1
175
     1
 42
1.0
 92
       12
 66
     7
 43
1.0
 76
     1
 77
     6
 78
     2
 67
     7
 79
     5
170
     0
171
     0
290
     0
174
     0
 93
        1
 44
0.0
173
     0
291
     1
 45
0.0
1001
ACAD
1000
AcDbSavedByObjectVersion
1070
     0
  0
DICTIONARYVAR
  5
848
102
{ACAD_REACTORS
330
844
102
}
330
844
100
DictionaryVariables
280
     0
  1
80.000000
  0
DICTIONARYVAR
  5
847
102
{ACAD_REACTORS
330
844
102
}
330
844
100
DictionaryVariables
280
     0
  1
5.000000
  0
ENDSEC
  0
EOF
