  0
SECTION
  2
HEADER
  9
$ACADVER
  1
AC1015
  9
$ACADMAINTVER
 70
     6
  9
$DWGCODEPAGE
  3
ANSI_932
  9
$INSBASE
 10
0.0
 20
0.0
 30
0.0
  9
$EXTMIN
 10
216.127319
 20
51.865295
 30
0.0
  9
$EXTMAX
 10
1512.906982
 20
2085.344971
 30
0.0
  9
$LIMMIN
 10
0.0
 20
0.0
  9
$LIMMAX
 10
12.0
 20
9.0
  9
$ORTHOMODE
 70
     0
  9
$REGENMODE
 70
     1
  9
$FILLMODE
 70
     1
  9
$QTEXTMODE
 70
     0
  9
$MIRRTEXT
 70
     1
  9
$LTSCALE
 40
24.117788
  9
$ATTMODE
 70
     1
  9
$TEXTSIZE
 40
3.2
  9
$TRACEWID
 40
1.0
  9
$TEXTSTYLE
  7
Standard
  9
$CLAYER
  8
0
  9
$CELTYPE
  6
ByLayer
  9
$CECOLOR
 62
   256
  9
$CELTSCALE
 40
1.0
  9
$DISPSILH
 70
     0
  9
$DIMSCALE
 40
1.0
  9
$DIMASZ
 40
2.5
  9
$DIMEXO
 40
0.625
  9
$DIMDLI
 40
3.75
  9
$DIMRND
 40
0.0
  9
$DIMDLE
 40
0.0
  9
$DIMEXE
 40
1.25
  9
$DIMTP
 40
0.0
  9
$DIMTM
 40
0.0
  9
$DIMTXT
 40
2.5
  9
$DIMCEN
 40
0.09
  9
$DIMTSZ
 40
0.0
  9
$DIMTOL
 70
     0
  9
$DIMLIM
 70
     0
  9
$DIMTIH
 70
     0
  9
$DIMTOH
 70
     0
  9
$DIMSE1
 70
     0
  9
$DIMSE2
 70
     0
  9
$DIMTAD
 70
     0
  9
$DIMZIN
 70
     8
  9
$DIMBLK
  1

  9
$DIMASO
 70
     1
  9
$DIMSHO
 70
     0
  9
$DIMPOST
  1

  9
$DIMAPOST
  1

  9
$DIMALT
 70
     0
  9
$DIMALTD
 70
     3
  9
$DIMALTF
 40
0.03937
  9
$DIMLFAC
 40
1.0
  9
$DIMTOFL
 70
     1
  9
$DIMTVP
 40
0.0
  9
$DIMTIX
 70
     0
  9
$DIMSOXD
 70
     0
  9
$DIMSAH
 70
     0
  9
$DIMBLK1
  1

  9
$DIMBLK2
  1

  9
$DIMSTYLE
  2
ISO-25
  9
$DIMCLRD
 70
     0
  9
$DIMCLRE
 70
     0
  9
$DIMCLRT
 70
     0
  9
$DIMTFAC
 40
1.0
  9
$DIMGAP
 40
0.625
  9
$DIMJUST
 70
     0
  9
$DIMSD1
 70
     0
  9
$DIMSD2
 70
     0
  9
$DIMTOLJ
 70
     0
  9
$DIMTZIN
 70
     8
  9
$DIMALTZ
 70
     0
  9
$DIMALTTZ
 70
     0
  9
$DIMUPT
 70
     0
  9
$DIMDEC
 70
     2
  9
$DIMTDEC
 70
     2
  9
$DIMALTU
 70
     2
  9
$DIMALTTD
 70
     3
  9
$DIMTXSTY
  7
Standard
  9
$DIMAUNIT
 70
     0
  9
$DIMADEC
 70
     0
  9
$DIMALTRND
 40
0.0
  9
$DIMAZIN
 70
     0
  9
$DIMDSEP
 70
    44
  9
$DIMATFIT
 70
     3
  9
$DIMFRAC
 70
     0
  9
$DIMLDRBLK
  1

  9
$DIMLUNIT
 70
     2
  9
$DIMLWD
 70
    -2
  9
$DIMLWE
 70
    -2
  9
$DIMTMOVE
 70
     0
  9
$LUNITS
 70
     2
  9
$LUPREC
 70
     4
  9
$SKETCHINC
 40
1.0
  9
$FILLETRAD
 40
0.0
  9
$AUNITS
 70
     0
  9
$AUPREC
 70
     0
  9
$MENU
  1
.
  9
$ELEVATION
 40
0.0
  9
$PELEVATION
 40
0.0
  9
$THICKNESS
 40
0.0
  9
$LIMCHECK
 70
     0
  9
$CHAMFERA
 40
10.0
  9
$CHAMFERB
 40
10.0
  9
$CHAMFERC
 40
20.0
  9
$CHAMFERD
 40
0.0
  9
$SKPOLY
 70
     0
  9
$TDCREATE
 40
2455649.657759503
  9
$TDUCREATE
 40
2455649.282759503
  9
$TDUPDATE
 40
2455649.657759514
  9
$TDUUPDATE
 40
2455649.282759514
  9
$TDINDWG
 40
0.0000000116
  9
$TDUSRTIMER
 40
0.0000000116
  9
$USRTIMER
 70
     1
  9
$ANGBASE
 50
0.0
  9
$ANGDIR
 70
     0
  9
$PDMODE
 70
     0
  9
$PDSIZE
 40
0.0
  9
$PLINEWID
 40
0.0
  9
$SPLFRAME
 70
     0
  9
$SPLINETYPE
 70
     6
  9
$SPLINESEGS
 70
     8
  9
$HANDSEED
  5
771
  9
$SURFTAB1
 70
     6
  9
$SURFTAB2
 70
     6
  9
$SURFTYPE
 70
     6
  9
$SURFU
 70
     6
  9
$SURFV
 70
     6
  9
$UCSBASE
  2

  9
$UCSNAME
  2

  9
$UCSORG
 10
0.0
 20
0.0
 30
0.0
  9
$UCSXDIR
 10
1.0
 20
0.0
 30
0.0
  9
$UCSYDIR
 10
0.0
 20
1.0
 30
0.0
  9
$UCSORTHOREF
  2

  9
$UCSORTHOVIEW
 70
     0
  9
$UCSORGTOP
 10
0.0
 20
0.0
 30
0.0
  9
$UCSORGBOTTOM
 10
0.0
 20
0.0
 30
0.0
  9
$UCSORGLEFT
 10
0.0
 20
0.0
 30
0.0
  9
$UCSORGRIGHT
 10
0.0
 20
0.0
 30
0.0
  9
$UCSORGFRONT
 10
0.0
 20
0.0
 30
0.0
  9
$UCSORGBACK
 10
0.0
 20
0.0
 30
0.0
  9
$PUCSBASE
  2

  9
$PUCSNAME
  2

  9
$PUCSORG
 10
0.0
 20
0.0
 30
0.0
  9
$PUCSXDIR
 10
1.0
 20
0.0
 30
0.0
  9
$PUCSYDIR
 10
0.0
 20
1.0
 30
0.0
  9
$PUCSORTHOREF
  2

  9
$PUCSORTHOVIEW
 70
     0
  9
$PUCSORGTOP
 10
0.0
 20
0.0
 30
0.0
  9
$PUCSORGBOTTOM
 10
0.0
 20
0.0
 30
0.0
  9
$PUCSORGLEFT
 10
0.0
 20
0.0
 30
0.0
  9
$PUCSORGRIGHT
 10
0.0
 20
0.0
 30
0.0
  9
$PUCSORGFRONT
 10
0.0
 20
0.0
 30
0.0
  9
$PUCSORGBACK
 10
0.0
 20
0.0
 30
0.0
  9
$USERI1
 70
     0
  9
$USERI2
 70
     0
  9
$USERI3
 70
     0
  9
$USERI4
 70
     0
  9
$USERI5
 70
     0
  9
$USERR1
 40
0.0
  9
$USERR2
 40
0.0
  9
$USERR3
 40
0.0
  9
$USERR4
 40
0.0
  9
$USERR5
 40
0.0
  9
$WORLDVIEW
 70
     1
  9
$SHADEDGE
 70
     3
  9
$SHADEDIF
 70
    70
  9
$TILEMODE
 70
     1
  9
$MAXACTVP
 70
    64
  9
$PINSBASE
 10
0.0
 20
0.0
 30
0.0
  9
$PLIMCHECK
 70
     0
  9
$PEXTMIN
 10
1.000000E+20
 20
1.000000E+20
 30
0.0
  9
$PEXTMAX
 10
-1.000000E+20
 20
-1.000000E+20
 30
0.0
  9
$PLIMMIN
 10
0.0
 20
0.0
  9
$PLIMMAX
 10
12.0
 20
9.0
  9
$UNITMODE
 70
     0
  9
$VISRETAIN
 70
     1
  9
$PLINEGEN
 70
     0
  9
$PSLTSCALE
 70
     1
  9
$TREEDEPTH
 70
  3020
  9
$CMLSTYLE
  2
Standard
  9
$CMLJUST
 70
     0
  9
$CMLSCALE
 40
20.0
  9
$PROXYGRAPHICS
 70
     1
  9
$MEASUREMENT
 70
     1
  9
$CELWEIGHT
370
    -1
  9
$ENDCAPS
280
     0
  9
$JOINSTYLE
280
     0
  9
$LWDISPLAY
290
     0
  9
$INSUNITS
 70
     4
  9
$HYPERLINKBASE
  1

  9
$STYLESHEET
  1

  9
$XEDIT
290
     1
  9
$CEPSNTYPE
380
     0
  9
$PSTYLEMODE
290
     1
  9
$FINGERPRINTGUID
  2
{05DD9D0A-DE4F-4BD8-A284-2880A0514C1B}
  9
$VERSIONGUID
  2
{FAEB1C32-E019-11D5-929B-00C0DF256EC4}
  9
$EXTNAMES
290
     1
  9
$PSVPSCALE
 40
0.0
  9
$OLESTARTUP
290
     0
  0
ENDSEC
  0
SECTION
  2
CLASSES
  0
CLASS
  1
ACDBDICTIONARYWDFLT
  2
AcDbDictionaryWithDefault
  3
ObjectDBX Classes
 90
        0
280
     0
281
     0
  0
CLASS
  1
VISUALSTYLE
  2
AcDbVisualStyle
  3
ObjectDBX Classes
 90
     4095
280
     0
281
     0
  0
CLASS
  1
DICTIONARYVAR
  2
AcDbDictionaryVar
  3
ObjectDBX Classes
 90
        0
280
     0
281
     0
  0
CLASS
  1
ACDBPLACEHOLDER
  2
AcDbPlaceHolder
  3
ObjectDBX Classes
 90
        0
280
     0
281
     0
  0
CLASS
  1
LAYOUT
  2
AcDbLayout
  3
ObjectDBX Classes
 90
        0
280
     0
281
     0
  0
ENDSEC
  0
SECTION
  2
TABLES
  0
TABLE
  2
VPORT
  5
8
330
0
100
AcDbSymbolTable
 70
     1
  0
VPORT
  5
29
330
8
100
AcDbSymbolTableRecord
100
AcDbViewportTableRecord
  2
*Active
 70
     0
 10
0.0
 20
0.0
 11
1.0
 21
1.0
 12
864.517151
 22
1068.605133
 13
0.0
 23
0.0
 14
1.0
 24
1.0
 15
0.0
 25
0.0
 16
0.0
 26
0.0
 36
1.0
 17
0.0
 27
0.0
 37
0.0
 40
2053.814472
 41
1.691288
 42
50.0
 43
0.0
 44
0.0
 50
0.0
 51
0.0
 71
     0
 72
   100
 73
     1
 74
     3
 75
     0
 76
     0
 77
     0
 78
     0
281
     0
 65
     1
110
0.0
120
0.0
130
0.0
111
1.0
121
0.0
131
0.0
112
0.0
122
1.0
132
0.0
 79
     0
146
0.0
  0
ENDTAB
  0
TABLE
  2
LTYPE
  5
5
330
0
100
AcDbSymbolTable
 70
     5
  0
LTYPE
  5
14
330
5
100
AcDbSymbolTableRecord
100
AcDbLinetypeTableRecord
  2
ByBlock
 70
     0
  3

 72
    65
 73
     0
 40
0.0
  0
LTYPE
  5
15
330
5
100
AcDbSymbolTableRecord
100
AcDbLinetypeTableRecord
  2
ByLayer
 70
     0
  3

 72
    65
 73
     0
 40
0.0
  0
LTYPE
  5
16
330
5
100
AcDbSymbolTableRecord
100
AcDbLinetypeTableRecord
  2
Continuous
 70
     0
  3
Solid line
 72
    65
 73
     0
 40
0.0
  0
LTYPE
  5
3B
330
5
100
AcDbSymbolTableRecord
100
AcDbLinetypeTableRecord
  2
DASHED
 70
     0
  3
DASHED
 72
    83
 73
     2
 40
0.75
 49
0.5
 74
     0
 49
-0.25
 74
     0
  0
LTYPE
  5
3C
330
5
100
AcDbSymbolTableRecord
100
AcDbLinetypeTableRecord
  2
HIDDEN
 70
     0
  3
HIDDEN
 72
    83
 73
     2
 40
0.375
 49
0.25
 74
     0
 49
-0.125
 74
     0
  0
LTYPE
  5
3D
330
5
100
AcDbSymbolTableRecord
100
AcDbLinetypeTableRecord
  2
CENTER
 70
     0
  3
CENTER
 72
    83
 73
     4
 40
2.0
 49
1.25
 74
     0
 49
-0.25
 74
     0
 49
0.25
 74
     0
 49
-0.25
 74
     0
  0
LTYPE
  5
3E
330
5
100
AcDbSymbolTableRecord
100
AcDbLinetypeTableRecord
  2
PHANTOM
 70
     0
  3
PHANTOM
 72
    83
 73
     6
 40
2.5
 49
1.25
 74
     0
 49
-0.25
 74
     0
 49
0.25
 74
     0
 49
-0.25
 74
     0
 49
0.25
 74
     0
 49
-0.25
 74
     0
  0
ENDTAB
  0
TABLE
  2
LAYER
  5
2
330
0
100
AcDbSymbolTable
 70
     3
  0
LAYER
  5
10
330
2
100
AcDbSymbolTableRecord
100
AcDbLayerTableRecord
  2
0
 70
     0
 62
     7
  6
Continuous
370
    -3
390
F
  0
LAYER
  5
3F
330
2
100
AcDbSymbolTableRecord
100
AcDbLayerTableRecord
  2
002
 70
     0
 62
     7
  6
Continuous
370
    -3
390
F
  0
LAYER
  5
40
330
2
100
AcDbSymbolTableRecord
100
AcDbLayerTableRecord
  2
003
 70
     0
 62
     7
  6
Continuous
370
    -3
390
F
  0
ENDTAB
  0
TABLE
  2
STYLE
  5
3
330
0
100
AcDbSymbolTable
 70
     2
  0
STYLE
  5
11
330
3
100
AcDbSymbolTableRecord
100
AcDbTextStyleTableRecord
  2
Standard
 70
     0
 40
0.0
 41
1.0
 50
0.0
 71
     0
 42
0.2
  3
TXT
  4
BIGFONT
  0
STYLE
  5
41
330
3
100
AcDbSymbolTableRecord
100
AcDbTextStyleTableRecord
  2
TATEGAKI
 70
     4
 40
1.0
 41
1.0
 50
0.0
 71
     0
 42
0.2
  3
TXT
  4
BIGFONT
  0
ENDTAB
  0
TABLE
  2
VIEW
  5
6
330
0
100
AcDbSymbolTable
 70
     0
  0
ENDTAB
  0
TABLE
  2
UCS
  5
7
330
0
100
AcDbSymbolTable
 70
     0
  0
ENDTAB
  0
TABLE
  2
APPID
  5
9
330
0
100
AcDbSymbolTable
 70
     1
  0
APPID
  5
12
330
9
100
AcDbSymbolTableRecord
100
AcDbRegAppTableRecord
  2
ACAD
 70
     0
  0
ENDTAB
  0
TABLE
  2
DIMSTYLE
  5
A
330
0
100
AcDbSymbolTable
 70
     2
100
AcDbDimStyleTable
  0
DIMSTYLE
105
27
330
A
100
AcDbSymbolTableRecord
100
AcDbDimStyleTableRecord
  2
ISO-25
 70
     0
 41
2.5
 42
0.625
 43
3.75
 44
1.25
 73
     0
 74
     0
 77
     1
 78
     8
140
2.5
141
2.5
143
0.03937
147
0.625
171
     3
172
     1
271
     2
272
     2
274
     3
278
    44
283
     0
284
     8
340
11
  0
DIMSTYLE
105
42
330
A
100
AcDbSymbolTableRecord
100
AcDbDimStyleTableRecord
  2
Standard
 70
     0
 41
3.0
 42
0.5
 44
0.7
 73
     0
 74
     0
 77
     1
 78
     8
 79
     2
140
4.0
146
0.65
147
1.0
172
     1
179
     3
271
     3
283
     2
340
11
  0
ENDTAB
  0
TABLE
  2
BLOCK_RECORD
  5
1
330
0
100
AcDbSymbolTable
 70
    31
  0
BLOCK_RECORD
  5
1F
330
1
100
AcDbSymbolTableRecord
100
AcDbBlockTableRecord
  2
*Model_Space
340
22
  0
BLOCK_RECORD
  5
1B
330
1
100
AcDbSymbolTableRecord
100
AcDbBlockTableRecord
  2
*Paper_Space
340
1E
  0
BLOCK_RECORD
  5
23
330
1
100
AcDbSymbolTableRecord
100
AcDbBlockTableRecord
  2
*Paper_Space0
340
26
  0
BLOCK_RECORD
  5
43
330
1
100
AcDbSymbolTableRecord
100
AcDbBlockTableRecord
  2
JZB-1
340
0
102
{BLKREFS
331
17A
102
}
  0
BLOCK_RECORD
  5
54
330
1
100
AcDbSymbolTableRecord
100
AcDbBlockTableRecord
  2
JZB-2
340
0
102
{BLKREFS
331
17B
102
}
  0
BLOCK_RECORD
  5
62
330
1
100
AcDbSymbolTableRecord
100
AcDbBlockTableRecord
  2
JZB-3
340
0
102
{BLKREFS
331
17C
102
}
  0
BLOCK_RECORD
  5
6C
330
1
100
AcDbSymbolTableRecord
100
AcDbBlockTableRecord
  2
JZB-4
340
0
102
{BLKREFS
331
17D
102
}
  0
BLOCK_RECORD
  5
76
330
1
100
AcDbSymbolTableRecord
100
AcDbBlockTableRecord
  2
JZB-5
340
0
102
{BLKREFS
331
17E
102
}
  0
BLOCK_RECORD
  5
80
330
1
100
AcDbSymbolTableRecord
100
AcDbBlockTableRecord
  2
JZB-6
340
0
102
{BLKREFS
331
17F
102
}
  0
BLOCK_RECORD
  5
8A
330
1
100
AcDbSymbolTableRecord
100
AcDbBlockTableRecord
  2
JZB-7
340
0
102
{BLKREFS
331
180
102
}
  0
BLOCK_RECORD
  5
94
330
1
100
AcDbSymbolTableRecord
100
AcDbBlockTableRecord
  2
JZB-8
340
0
102
{BLKREFS
331
181
102
}
  0
BLOCK_RECORD
  5
9E
330
1
100
AcDbSymbolTableRecord
100
AcDbBlockTableRecord
  2
JZB-9
340
0
102
{BLKREFS
331
182
102
}
  0
BLOCK_RECORD
  5
A8
330
1
100
AcDbSymbolTableRecord
100
AcDbBlockTableRecord
  2
JZB-10
340
0
102
{BLKREFS
331
183
102
}
  0
BLOCK_RECORD
  5
B2
330
1
100
AcDbSymbolTableRecord
100
AcDbBlockTableRecord
  2
JZB-11
340
0
102
{BLKREFS
331
184
102
}
  0
BLOCK_RECORD
  5
BC
330
1
100
AcDbSymbolTableRecord
100
AcDbBlockTableRecord
  2
JZB-12
340
0
102
{BLKREFS
331
185
102
}
  0
BLOCK_RECORD
  5
C6
330
1
100
AcDbSymbolTableRecord
100
AcDbBlockTableRecord
  2
JZB-13
340
0
102
{BLKREFS
331
186
102
}
  0
BLOCK_RECORD
  5
D0
330
1
100
AcDbSymbolTableRecord
100
AcDbBlockTableRecord
  2
JZB-14
340
0
102
{BLKREFS
331
187
102
}
  0
BLOCK_RECORD
  5
DA
330
1
100
AcDbSymbolTableRecord
100
AcDbBlockTableRecord
  2
JZB-15
340
0
102
{BLKREFS
331
188
102
}
  0
BLOCK_RECORD
  5
E4
330
1
100
AcDbSymbolTableRecord
100
AcDbBlockTableRecord
  2
JZB-16
340
0
102
{BLKREFS
331
189
102
}
  0
BLOCK_RECORD
  5
EE
330
1
100
AcDbSymbolTableRecord
100
AcDbBlockTableRecord
  2
JZB-17
340
0
102
{BLKREFS
331
18A
102
}
  0
BLOCK_RECORD
  5
F8
330
1
100
AcDbSymbolTableRecord
100
AcDbBlockTableRecord
  2
JZB-18
340
0
102
{BLKREFS
331
18B
102
}
  0
BLOCK_RECORD
  5
102
330
1
100
AcDbSymbolTableRecord
100
AcDbBlockTableRecord
  2
JZB-19
340
0
102
{BLKREFS
331
18C
102
}
  0
BLOCK_RECORD
  5
10C
330
1
100
AcDbSymbolTableRecord
100
AcDbBlockTableRecord
  2
JZB-20
340
0
102
{BLKREFS
331
18D
102
}
  0
BLOCK_RECORD
  5
116
330
1
100
AcDbSymbolTableRecord
100
AcDbBlockTableRecord
  2
JZB-21
340
0
102
{BLKREFS
331
18E
102
}
  0
BLOCK_RECORD
  5
120
330
1
100
AcDbSymbolTableRecord
100
AcDbBlockTableRecord
  2
JZB-22
340
0
102
{BLKREFS
331
18F
102
}
  0
BLOCK_RECORD
  5
12A
330
1
100
AcDbSymbolTableRecord
100
AcDbBlockTableRecord
  2
JZB-23
340
0
102
{BLKREFS
331
190
102
}
  0
BLOCK_RECORD
  5
134
330
1
100
AcDbSymbolTableRecord
100
AcDbBlockTableRecord
  2
JZB-24
340
0
102
{BLKREFS
331
191
102
}
  0
BLOCK_RECORD
  5
13E
330
1
100
AcDbSymbolTableRecord
100
AcDbBlockTableRecord
  2
JZB-25
340
0
102
{BLKREFS
331
192
102
}
  0
BLOCK_RECORD
  5
148
330
1
100
AcDbSymbolTableRecord
100
AcDbBlockTableRecord
  2
JZB-26
340
0
102
{BLKREFS
331
193
102
}
  0
BLOCK_RECORD
  5
152
330
1
100
AcDbSymbolTableRecord
100
AcDbBlockTableRecord
  2
JZB-27
340
0
102
{BLKREFS
331
194
102
}
  0
BLOCK_RECORD
  5
15C
330
1
100
AcDbSymbolTableRecord
100
AcDbBlockTableRecord
  2
JZB-28
340
0
102
{BLKREFS
331
195
102
}
  0
BLOCK_RECORD
  5
166
330
1
100
AcDbSymbolTableRecord
100
AcDbBlockTableRecord
  2
JZB-29
340
0
102
{BLKREFS
331
196
102
}
  0
BLOCK_RECORD
  5
170
330
1
100
AcDbSymbolTableRecord
100
AcDbBlockTableRecord
  2
JZB-30
340
0
102
{BLKREFS
331
197
102
}
  0
ENDTAB
  0
ENDSEC
  0
SECTION
  2
BLOCKS
  0
BLOCK
  5
20
330
1F
100
AcDbEntity
  8
0
100
AcDbBlockBegin
  2
*Model_Space
 70
     0
 10
0.0
 20
0.0
 30
0.0
  3
*Model_Space
  1

  0
ENDBLK
  5
21
330
1F
100
AcDbEntity
  8
0
100
AcDbBlockEnd
  0
BLOCK
  5
1C
330
1B
100
AcDbEntity
 67
     1
  8
0
100
AcDbBlockBegin
  2
*Paper_Space
 70
     0
 10
0.0
 20
0.0
 30
0.0
  3
*Paper_Space
  1

  0
ENDBLK
  5
1D
330
1B
100
AcDbEntity
 67
     1
  8
0
100
AcDbBlockEnd
  0
BLOCK
  5
24
330
23
100
AcDbEntity
  8
0
100
AcDbBlockBegin
  2
*Paper_Space0
 70
     0
 10
0.0
 20
0.0
 30
0.0
  3
*Paper_Space0
  1

  0
ENDBLK
  5
25
330
23
100
AcDbEntity
  8
0
100
AcDbBlockEnd
  0
BLOCK
  5
44
330
43
100
AcDbEntity
  8
0
100
AcDbBlockBegin
  2
JZB-1
 70
     0
 10
0.0
 20
0.0
 30
0.0
  3
JZB-1
  1

  0
LINE
  5
46
330
43
100
AcDbEntity
  8
003
 62
     3
370
    30
100
AcDbLine
 10
376.820363
 20
2032.679097
 30
0.0
 11
376.820363
 21
2027.871928
 31
0.0
  0
LINE
  5
47
330
43
100
AcDbEntity
  8
003
 62
     3
370
    30
100
AcDbLine
 10
375.620363
 20
2033.371917
 30
0.0
 11
363.020363
 21
2033.371917
 31
0.0
  0
LINE
  5
48
330
43
100
AcDbEntity
  8
003
 62
     3
370
    30
100
AcDbLine
 10
375.620363
 20
2033.371917
 30
0.0
 11
376.820363
 21
2032.679097
 31
0.0
  0
LINE
  5
49
330
43
100
AcDbEntity
  8
003
 62
     3
370
    30
100
AcDbLine
 10
363.020363
 20
2033.371917
 30
0.0
 11
361.820363
 21
2032.679097
 31
0.0
  0
ARC
  5
4A
330
43
100
AcDbEntity
  8
003
 62
     3
370
    30
100
AcDbCircle
 10
363.695363
 20
2030.488323
 30
0.0
 40
2.883593961663502
100
AcDbArc
 50
49.441037
 51
90.0
  0
ARC
  5
4B
330
43
100
AcDbEntity
  8
003
 62
     3
370
    30
100
AcDbCircle
 10
374.945363
 20
2030.488323
 30
0.0
 40
2.883593961663502
100
AcDbArc
 50
90.0
 51
130.558963
  0
ARC
  5
4C
330
43
100
AcDbEntity
  8
003
 62
     3
370
    30
100
AcDbCircle
 10
369.320363
 20
2022.876772
 30
0.0
 40
10.4951453621126
100
AcDbArc
 50
69.065034
 51
110.934966
  0
LINE
  5
4D
330
43
100
AcDbEntity
  8
003
 62
     3
370
    30
100
AcDbLine
 10
369.320357
 20
2027.871917
 30
0.0
 11
369.320357
 21
2027.871928
 31
0.0
  0
LINE
  5
4E
330
43
100
AcDbEntity
  8
003
 62
     3
370
    30
100
AcDbLine
 10
369.320357
 20
2027.871917
 30
0.0
 11
369.320368
 21
2027.871917
 31
0.0
  0
LINE
  5
4F
330
43
100
AcDbEntity
  8
003
 62
     3
370
    30
100
AcDbLine
 10
369.320368
 20
2027.871917
 30
0.0
 11
369.320368
 21
2027.871928
 31
0.0
  0
LINE
  5
50
330
43
100
AcDbEntity
  8
003
 62
     3
370
    30
100
AcDbLine
 10
361.820363
 20
2032.679097
 30
0.0
 11
361.820363
 21
2031.728446
 31
0.0
  0
LINE
  5
51
330
43
100
AcDbEntity
  8
003
 62
     3
370
    30
100
AcDbLine
 10
365.570363
 20
2030.715559
 30
0.0
 11
365.570363
 21
2032.679097
 31
0.0
  0
LINE
  5
52
330
43
100
AcDbEntity
  8
003
 62
     3
370
    30
100
AcDbLine
 10
373.070363
 20
2028.230649
 30
0.0
 11
373.070363
 21
2032.679097
 31
0.0
  0
LINE
  5
53
330
43
100
AcDbEntity
  8
003
 62
     3
370
    30
100
AcDbLine
 10
376.820363
 20
2027.871928
 30
0.0
 11
374.016522
 21
2027.871928
 31
0.0
  0
ENDBLK
  5
45
330
43
100
AcDbEntity
  8
0
100
AcDbBlockEnd
  0
BLOCK
  5
55
330
54
100
AcDbEntity
  8
0
100
AcDbBlockBegin
  2
JZB-2
 70
     0
 10
0.0
 20
0.0
 30
0.0
  3
JZB-2
  1

  0
LINE
  5
57
330
54
100
AcDbEntity
  8
003
 62
     3
370
    30
100
AcDbLine
 10
376.820363
 20
1827.064759
 30
0.0
 11
376.820363
 21
1831.871928
 31
0.0
  0
LINE
  5
58
330
54
100
AcDbEntity
  8
003
 62
     3
370
    30
100
AcDbLine
 10
375.620363
 20
1826.371939
 30
0.0
 11
363.020363
 21
1826.371939
 31
0.0
  0
LINE
  5
59
330
54
100
AcDbEntity
  8
003
 62
     3
370
    30
100
AcDbLine
 10
375.620363
 20
1826.371939
 30
0.0
 11
376.820363
 21
1827.064759
 31
0.0
  0
LINE
  5
5A
330
54
100
AcDbEntity
  8
003
 62
     3
370
    30
100
AcDbLine
 10
363.020363
 20
1826.371939
 30
0.0
 11
361.820363
 21
1827.064759
 31
0.0
  0
ARC
  5
5B
330
54
100
AcDbEntity
  8
003
 62
     3
370
    30
100
AcDbCircle
 10
363.695363
 20
1829.255533
 30
0.0
 40
2.883593961663502
100
AcDbArc
 50
270.0
 51
310.558963
  0
ARC
  5
5C
330
54
100
AcDbEntity
  8
003
 62
     3
370
    30
100
AcDbCircle
 10
374.945363
 20
1829.255533
 30
0.0
 40
2.883593961663502
100
AcDbArc
 50
229.441037
 51
270.0
  0
ARC
  5
5D
330
54
100
AcDbEntity
  8
003
 62
     3
370
    30
100
AcDbCircle
 10
369.320363
 20
1836.867084
 30
0.0
 40
10.4951453621126
100
AcDbArc
 50
249.065034
 51
290.934966
  0
LINE
  5
5E
330
54
100
AcDbEntity
  8
003
 62
     3
370
    30
100
AcDbLine
 10
361.820363
 20
1827.064759
 30
0.0
 11
361.820363
 21
1828.01541
 31
0.0
  0
LINE
  5
5F
330
54
100
AcDbEntity
  8
003
 62
     3
370
    30
100
AcDbLine
 10
365.570363
 20
1829.028298
 30
0.0
 11
365.570363
 21
1827.064759
 31
0.0
  0
LINE
  5
60
330
54
100
AcDbEntity
  8
003
 62
     3
370
    30
100
AcDbLine
 10
373.070363
 20
1831.513208
 30
0.0
 11
373.070363
 21
1827.064759
 31
0.0
  0
LINE
  5
61
330
54
100
AcDbEntity
  8
003
 62
     3
370
    30
100
AcDbLine
 10
376.820363
 20
1831.871928
 30
0.0
 11
374.016522
 21
1831.871928
 31
0.0
  0
ENDBLK
  5
56
330
54
100
AcDbEntity
  8
0
100
AcDbBlockEnd
  0
BLOCK
  5
63
330
62
100
AcDbEntity
  8
0
100
AcDbBlockBegin
  2
JZB-3
 70
     0
 10
0.0
 20
0.0
 30
0.0
  3
JZB-3
  1

  0
LINE
  5
65
330
62
100
AcDbEntity
  8
002
 62
     3
370
    30
100
AcDbLine
 10
373.786403
 20
274.714025
 30
0.0
 11
375.729213
 21
281.963771
 31
0.0
  0
LINE
  5
66
330
62
100
AcDbEntity
  8
002
 62
     3
370
    30
100
AcDbLine
 10
386.343333
 20
271.34898
 30
0.0
 11
388.286142
 21
278.598726
 31
0.0
  0
LINE
  5
67
330
62
100
AcDbEntity
  8
002
 62
     3
370
    30
100
AcDbLine
 10
379.093463
 20
269.406629
 30
0.0
 11
386.343333
 21
271.34898
 31
0.0
  0
LINE
  5
68
330
62
100
AcDbEntity
  8
002
 62
     3
370
    30
100
AcDbLine
 10
382.979083
 20
283.906122
 30
0.0
 11
375.729213
 21
281.963771
 31
0.0
  0
LINE
  5
69
330
62
100
AcDbEntity
  8
002
 62
     3
370
    30
100
AcDbLine
 10
388.286142
 20
278.598726
 30
0.0
 11
382.979083
 21
283.906122
 31
0.0
  0
LINE
  5
6A
330
62
100
AcDbEntity
  8
002
 62
     3
370
    30
100
AcDbLine
 10
373.786403
 20
274.714025
 30
0.0
 11
379.093463
 21
269.406629
 31
0.0
  0
CIRCLE
  5
6B
330
62
100
AcDbEntity
  8
002
 62
     3
370
    30
100
AcDbCircle
 10
381.036273
 20
276.656375
 30
0.0
 40
6.500000000000002
  0
ENDBLK
  5
64
330
62
100
AcDbEntity
  8
0
100
AcDbBlockEnd
  0
BLOCK
  5
6D
330
6C
100
AcDbEntity
  8
0
100
AcDbBlockBegin
  2
JZB-4
 70
     0
 10
0.0
 20
0.0
 30
0.0
  3
JZB-4
  1

  0
LINE
  5
6F
330
6C
100
AcDbEntity
  8
002
 62
     3
370
    30
100
AcDbLine
 10
365.567591
 20
254.871928
 30
0.0
 11
373.073145
 21
254.871928
 31
0.0
  0
LINE
  5
70
330
6C
100
AcDbEntity
  8
002
 62
     3
370
    30
100
AcDbLine
 10
365.567591
 20
241.871928
 30
0.0
 11
373.073145
 21
241.871928
 31
0.0
  0
LINE
  5
71
330
6C
100
AcDbEntity
  8
002
 62
     3
370
    30
100
AcDbLine
 10
361.814815
 20
248.371928
 30
0.0
 11
365.567591
 21
241.871928
 31
0.0
  0
LINE
  5
72
330
6C
100
AcDbEntity
  8
002
 62
     3
370
    30
100
AcDbLine
 10
376.825922
 20
248.371928
 30
0.0
 11
373.073145
 21
254.871928
 31
0.0
  0
LINE
  5
73
330
6C
100
AcDbEntity
  8
002
 62
     3
370
    30
100
AcDbLine
 10
373.073145
 20
241.871928
 30
0.0
 11
376.825922
 21
248.371928
 31
0.0
  0
LINE
  5
74
330
6C
100
AcDbEntity
  8
002
 62
     3
370
    30
100
AcDbLine
 10
365.567591
 20
254.871928
 30
0.0
 11
361.814815
 21
248.371928
 31
0.0
  0
CIRCLE
  5
75
330
6C
100
AcDbEntity
  8
002
 62
     3
370
    30
100
AcDbCircle
 10
369.320368
 20
248.371928
 30
0.0
 40
6.500000000000002
  0
ENDBLK
  5
6E
330
6C
100
AcDbEntity
  8
0
100
AcDbBlockEnd
  0
BLOCK
  5
77
330
76
100
AcDbEntity
  8
0
100
AcDbBlockBegin
  2
JZB-5
 70
     0
 10
0.0
 20
0.0
 30
0.0
  3
JZB-5
  1

  0
LINE
  5
79
330
76
100
AcDbEntity
  8
002
 62
     3
370
    30
100
AcDbLine
 10
373.786403
 20
222.029831
 30
0.0
 11
379.093463
 21
227.337227
 31
0.0
  0
LINE
  5
7A
330
76
100
AcDbEntity
  8
002
 62
     3
370
    30
100
AcDbLine
 10
382.979083
 20
212.837734
 30
0.0
 11
388.286142
 21
218.14513
 31
0.0
  0
LINE
  5
7B
330
76
100
AcDbEntity
  8
002
 62
     3
370
    30
100
AcDbLine
 10
375.729213
 20
214.780085
 30
0.0
 11
382.979083
 21
212.837734
 31
0.0
  0
LINE
  5
7C
330
76
100
AcDbEntity
  8
002
 62
     3
370
    30
100
AcDbLine
 10
386.343333
 20
225.394877
 30
0.0
 11
379.093463
 21
227.337227
 31
0.0
  0
LINE
  5
7D
330
76
100
AcDbEntity
  8
002
 62
     3
370
    30
100
AcDbLine
 10
388.286142
 20
218.14513
 30
0.0
 11
386.343333
 21
225.394877
 31
0.0
  0
LINE
  5
7E
330
76
100
AcDbEntity
  8
002
 62
     3
370
    30
100
AcDbLine
 10
373.786403
 20
222.029831
 30
0.0
 11
375.729213
 21
214.780085
 31
0.0
  0
CIRCLE
  5
7F
330
76
100
AcDbEntity
  8
002
 62
     3
370
    30
100
AcDbCircle
 10
381.036273
 20
220.087481
 30
0.0
 40
6.500000000000002
  0
ENDBLK
  5
78
330
76
100
AcDbEntity
  8
0
100
AcDbBlockEnd
  0
BLOCK
  5
81
330
80
100
AcDbEntity
  8
0
100
AcDbBlockBegin
  2
JZB-6
 70
     0
 10
0.0
 20
0.0
 30
0.0
  3
JZB-6
  1

  0
LINE
  5
83
330
80
100
AcDbEntity
  8
002
 62
     3
370
    30
100
AcDbLine
 10
442.912015
 20
214.780577
 30
0.0
 11
435.662233
 21
212.837898
 31
0.0
  0
LINE
  5
84
330
80
100
AcDbEntity
  8
002
 62
     3
370
    30
100
AcDbLine
 10
439.547197
 20
227.337567
 30
0.0
 11
432.297415
 21
225.394888
 31
0.0
  0
LINE
  5
85
330
80
100
AcDbEntity
  8
002
 62
     3
370
    30
100
AcDbLine
 10
444.854496
 20
222.030411
 30
0.0
 11
439.547197
 21
227.337567
 31
0.0
  0
LINE
  5
86
330
80
100
AcDbEntity
  8
002
 62
     3
370
    30
100
AcDbLine
 10
430.354933
 20
218.145054
 30
0.0
 11
435.662233
 21
212.837898
 31
0.0
  0
LINE
  5
87
330
80
100
AcDbEntity
  8
002
 62
     3
370
    30
100
AcDbLine
 10
432.297415
 20
225.394888
 30
0.0
 11
430.354933
 21
218.145054
 31
0.0
  0
LINE
  5
88
330
80
100
AcDbEntity
  8
002
 62
     3
370
    30
100
AcDbLine
 10
442.912015
 20
214.780577
 30
0.0
 11
444.854496
 21
222.030411
 31
0.0
  0
CIRCLE
  5
89
330
80
100
AcDbEntity
  8
002
 62
     3
370
    30
100
AcDbCircle
 10
437.604715
 20
220.087732
 30
0.0
 40
6.500000000000002
  0
ENDBLK
  5
82
330
80
100
AcDbEntity
  8
0
100
AcDbBlockEnd
  0
BLOCK
  5
8B
330
8A
100
AcDbEntity
  8
0
100
AcDbBlockBegin
  2
JZB-7
 70
     0
 10
0.0
 20
0.0
 30
0.0
  3
JZB-7
  1

  0
LINE
  5
8D
330
8A
100
AcDbEntity
  8
002
 62
     3
370
    30
100
AcDbLine
 10
442.912015
 20
281.96328
 30
0.0
 11
444.854496
 21
274.713445
 31
0.0
  0
LINE
  5
8E
330
8A
100
AcDbEntity
  8
002
 62
     3
370
    30
100
AcDbLine
 10
430.354933
 20
278.598803
 30
0.0
 11
432.297415
 21
271.348968
 31
0.0
  0
LINE
  5
8F
330
8A
100
AcDbEntity
  8
002
 62
     3
370
    30
100
AcDbLine
 10
435.662233
 20
283.905958
 30
0.0
 11
430.354933
 21
278.598803
 31
0.0
  0
LINE
  5
90
330
8A
100
AcDbEntity
  8
002
 62
     3
370
    30
100
AcDbLine
 10
439.547197
 20
269.40629
 30
0.0
 11
444.854496
 21
274.713445
 31
0.0
  0
LINE
  5
91
330
8A
100
AcDbEntity
  8
002
 62
     3
370
    30
100
AcDbLine
 10
432.297415
 20
271.348968
 30
0.0
 11
439.547197
 21
269.40629
 31
0.0
  0
LINE
  5
92
330
8A
100
AcDbEntity
  8
002
 62
     3
370
    30
100
AcDbLine
 10
442.912015
 20
281.96328
 30
0.0
 11
435.662233
 21
283.905958
 31
0.0
  0
CIRCLE
  5
93
330
8A
100
AcDbEntity
  8
002
 62
     3
370
    30
100
AcDbCircle
 10
437.604715
 20
276.656124
 30
0.0
 40
6.500000000000002
  0
ENDBLK
  5
8C
330
8A
100
AcDbEntity
  8
0
100
AcDbBlockEnd
  0
BLOCK
  5
95
330
94
100
AcDbEntity
  8
0
100
AcDbBlockBegin
  2
JZB-8
 70
     0
 10
0.0
 20
0.0
 30
0.0
  3
JZB-8
  1

  0
LINE
  5
97
330
94
100
AcDbEntity
  8
002
 62
     3
370
    30
100
AcDbLine
 10
402.820368
 20
284.619151
 30
0.0
 11
402.820368
 21
292.124705
 31
0.0
  0
LINE
  5
98
330
94
100
AcDbEntity
  8
002
 62
     3
370
    30
100
AcDbLine
 10
415.820368
 20
284.619151
 30
0.0
 11
415.820368
 21
292.124705
 31
0.0
  0
LINE
  5
99
330
94
100
AcDbEntity
  8
002
 62
     3
370
    30
100
AcDbLine
 10
409.320368
 20
280.866375
 30
0.0
 11
415.820368
 21
284.619151
 31
0.0
  0
LINE
  5
9A
330
94
100
AcDbEntity
  8
002
 62
     3
370
    30
100
AcDbLine
 10
409.320368
 20
295.877482
 30
0.0
 11
402.820368
 21
292.124705
 31
0.0
  0
LINE
  5
9B
330
94
100
AcDbEntity
  8
002
 62
     3
370
    30
100
AcDbLine
 10
415.820368
 20
292.124705
 30
0.0
 11
409.320368
 21
295.877482
 31
0.0
  0
LINE
  5
9C
330
94
100
AcDbEntity
  8
002
 62
     3
370
    30
100
AcDbLine
 10
402.820368
 20
284.619151
 30
0.0
 11
409.320368
 21
280.866375
 31
0.0
  0
CIRCLE
  5
9D
330
94
100
AcDbEntity
  8
002
 62
     3
370
    30
100
AcDbCircle
 10
409.320368
 20
288.371928
 30
0.0
 40
6.500000000000002
  0
ENDBLK
  5
96
330
94
100
AcDbEntity
  8
0
100
AcDbBlockEnd
  0
BLOCK
  5
9F
330
9E
100
AcDbEntity
  8
0
100
AcDbBlockBegin
  2
JZB-9
 70
     0
 10
0.0
 20
0.0
 30
0.0
  3
JZB-9
  1

  0
LINE
  5
A1
330
9E
100
AcDbEntity
  8
002
 62
     3
370
    30
100
AcDbLine
 10
415.820368
 20
204.619151
 30
0.0
 11
409.320368
 21
200.866375
 31
0.0
  0
LINE
  5
A2
330
9E
100
AcDbEntity
  8
002
 62
     3
370
    30
100
AcDbLine
 10
409.320368
 20
215.877482
 30
0.0
 11
402.820368
 21
212.124705
 31
0.0
  0
LINE
  5
A3
330
9E
100
AcDbEntity
  8
002
 62
     3
370
    30
100
AcDbLine
 10
415.820368
 20
212.124705
 30
0.0
 11
409.320368
 21
215.877482
 31
0.0
  0
LINE
  5
A4
330
9E
100
AcDbEntity
  8
002
 62
     3
370
    30
100
AcDbLine
 10
402.820368
 20
204.619151
 30
0.0
 11
409.320368
 21
200.866375
 31
0.0
  0
LINE
  5
A5
330
9E
100
AcDbEntity
  8
002
 62
     3
370
    30
100
AcDbLine
 10
402.820368
 20
212.124705
 30
0.0
 11
402.820368
 21
204.619151
 31
0.0
  0
LINE
  5
A6
330
9E
100
AcDbEntity
  8
002
 62
     3
370
    30
100
AcDbLine
 10
415.820368
 20
204.619151
 30
0.0
 11
415.820368
 21
212.124705
 31
0.0
  0
CIRCLE
  5
A7
330
9E
100
AcDbEntity
  8
002
 62
     3
370
    30
100
AcDbCircle
 10
409.320368
 20
208.371928
 30
0.0
 40
6.500000000000002
  0
ENDBLK
  5
A0
330
9E
100
AcDbEntity
  8
0
100
AcDbBlockEnd
  0
BLOCK
  5
A9
330
A8
100
AcDbEntity
  8
0
100
AcDbBlockBegin
  2
JZB-10
 70
     0
 10
0.0
 20
0.0
 30
0.0
  3
JZB-10
  1

  0
LINE
  5
AB
330
A8
100
AcDbEntity
  8
002
 62
     3
370
    30
100
AcDbLine
 10
695.786103
 20
274.714025
 30
0.0
 11
697.728913
 21
281.963771
 31
0.0
  0
LINE
  5
AC
330
A8
100
AcDbEntity
  8
002
 62
     3
370
    30
100
AcDbLine
 10
708.343033
 20
271.34898
 30
0.0
 11
710.285842
 21
278.598726
 31
0.0
  0
LINE
  5
AD
330
A8
100
AcDbEntity
  8
002
 62
     3
370
    30
100
AcDbLine
 10
701.093163
 20
269.406629
 30
0.0
 11
708.343033
 21
271.34898
 31
0.0
  0
LINE
  5
AE
330
A8
100
AcDbEntity
  8
002
 62
     3
370
    30
100
AcDbLine
 10
704.978783
 20
283.906122
 30
0.0
 11
697.728913
 21
281.963771
 31
0.0
  0
LINE
  5
AF
330
A8
100
AcDbEntity
  8
002
 62
     3
370
    30
100
AcDbLine
 10
710.285842
 20
278.598726
 30
0.0
 11
704.978783
 21
283.906122
 31
0.0
  0
LINE
  5
B0
330
A8
100
AcDbEntity
  8
002
 62
     3
370
    30
100
AcDbLine
 10
695.786103
 20
274.714025
 30
0.0
 11
701.093163
 21
269.406629
 31
0.0
  0
CIRCLE
  5
B1
330
A8
100
AcDbEntity
  8
002
 62
     3
370
    30
100
AcDbCircle
 10
703.035973
 20
276.656375
 30
0.0
 40
6.500000000000002
  0
ENDBLK
  5
AA
330
A8
100
AcDbEntity
  8
0
100
AcDbBlockEnd
  0
BLOCK
  5
B3
330
B2
100
AcDbEntity
  8
0
100
AcDbBlockBegin
  2
JZB-11
 70
     0
 10
0.0
 20
0.0
 30
0.0
  3
JZB-11
  1

  0
LINE
  5
B5
330
B2
100
AcDbEntity
  8
002
 62
     3
370
    30
100
AcDbLine
 10
687.567291
 20
254.871928
 30
0.0
 11
695.072845
 21
254.871928
 31
0.0
  0
LINE
  5
B6
330
B2
100
AcDbEntity
  8
002
 62
     3
370
    30
100
AcDbLine
 10
687.567291
 20
241.871928
 30
0.0
 11
695.072845
 21
241.871928
 31
0.0
  0
LINE
  5
B7
330
B2
100
AcDbEntity
  8
002
 62
     3
370
    30
100
AcDbLine
 10
683.814515
 20
248.371928
 30
0.0
 11
687.567291
 21
241.871928
 31
0.0
  0
LINE
  5
B8
330
B2
100
AcDbEntity
  8
002
 62
     3
370
    30
100
AcDbLine
 10
698.825622
 20
248.371928
 30
0.0
 11
695.072845
 21
254.871928
 31
0.0
  0
LINE
  5
B9
330
B2
100
AcDbEntity
  8
002
 62
     3
370
    30
100
AcDbLine
 10
695.072845
 20
241.871928
 30
0.0
 11
698.825622
 21
248.371928
 31
0.0
  0
LINE
  5
BA
330
B2
100
AcDbEntity
  8
002
 62
     3
370
    30
100
AcDbLine
 10
687.567291
 20
254.871928
 30
0.0
 11
683.814515
 21
248.371928
 31
0.0
  0
CIRCLE
  5
BB
330
B2
100
AcDbEntity
  8
002
 62
     3
370
    30
100
AcDbCircle
 10
691.320068
 20
248.371928
 30
0.0
 40
6.500000000000002
  0
ENDBLK
  5
B4
330
B2
100
AcDbEntity
  8
0
100
AcDbBlockEnd
  0
BLOCK
  5
BD
330
BC
100
AcDbEntity
  8
0
100
AcDbBlockBegin
  2
JZB-12
 70
     0
 10
0.0
 20
0.0
 30
0.0
  3
JZB-12
  1

  0
LINE
  5
BF
330
BC
100
AcDbEntity
  8
002
 62
     3
370
    30
100
AcDbLine
 10
695.786103
 20
222.029831
 30
0.0
 11
701.093163
 21
227.337227
 31
0.0
  0
LINE
  5
C0
330
BC
100
AcDbEntity
  8
002
 62
     3
370
    30
100
AcDbLine
 10
704.978783
 20
212.837734
 30
0.0
 11
710.285842
 21
218.14513
 31
0.0
  0
LINE
  5
C1
330
BC
100
AcDbEntity
  8
002
 62
     3
370
    30
100
AcDbLine
 10
697.728913
 20
214.780085
 30
0.0
 11
704.978783
 21
212.837734
 31
0.0
  0
LINE
  5
C2
330
BC
100
AcDbEntity
  8
002
 62
     3
370
    30
100
AcDbLine
 10
708.343033
 20
225.394877
 30
0.0
 11
701.093163
 21
227.337227
 31
0.0
  0
LINE
  5
C3
330
BC
100
AcDbEntity
  8
002
 62
     3
370
    30
100
AcDbLine
 10
710.285842
 20
218.14513
 30
0.0
 11
708.343033
 21
225.394877
 31
0.0
  0
LINE
  5
C4
330
BC
100
AcDbEntity
  8
002
 62
     3
370
    30
100
AcDbLine
 10
695.786103
 20
222.029831
 30
0.0
 11
697.728913
 21
214.780085
 31
0.0
  0
CIRCLE
  5
C5
330
BC
100
AcDbEntity
  8
002
 62
     3
370
    30
100
AcDbCircle
 10
703.035973
 20
220.087481
 30
0.0
 40
6.500000000000002
  0
ENDBLK
  5
BE
330
BC
100
AcDbEntity
  8
0
100
AcDbBlockEnd
  0
BLOCK
  5
C7
330
C6
100
AcDbEntity
  8
0
100
AcDbBlockBegin
  2
JZB-13
 70
     0
 10
0.0
 20
0.0
 30
0.0
  3
JZB-13
  1

  0
LINE
  5
C9
330
C6
100
AcDbEntity
  8
002
 62
     3
370
    30
100
AcDbLine
 10
764.911715
 20
214.780577
 30
0.0
 11
757.661933
 21
212.837898
 31
0.0
  0
LINE
  5
CA
330
C6
100
AcDbEntity
  8
002
 62
     3
370
    30
100
AcDbLine
 10
761.546897
 20
227.337567
 30
0.0
 11
754.297115
 21
225.394888
 31
0.0
  0
LINE
  5
CB
330
C6
100
AcDbEntity
  8
002
 62
     3
370
    30
100
AcDbLine
 10
766.854196
 20
222.030411
 30
0.0
 11
761.546897
 21
227.337567
 31
0.0
  0
LINE
  5
CC
330
C6
100
AcDbEntity
  8
002
 62
     3
370
    30
100
AcDbLine
 10
752.354633
 20
218.145054
 30
0.0
 11
757.661933
 21
212.837898
 31
0.0
  0
LINE
  5
CD
330
C6
100
AcDbEntity
  8
002
 62
     3
370
    30
100
AcDbLine
 10
754.297115
 20
225.394888
 30
0.0
 11
752.354633
 21
218.145054
 31
0.0
  0
LINE
  5
CE
330
C6
100
AcDbEntity
  8
002
 62
     3
370
    30
100
AcDbLine
 10
764.911715
 20
214.780577
 30
0.0
 11
766.854196
 21
222.030411
 31
0.0
  0
CIRCLE
  5
CF
330
C6
100
AcDbEntity
  8
002
 62
     3
370
    30
100
AcDbCircle
 10
759.604415
 20
220.087732
 30
0.0
 40
6.500000000000002
  0
ENDBLK
  5
C8
330
C6
100
AcDbEntity
  8
0
100
AcDbBlockEnd
  0
BLOCK
  5
D1
330
D0
100
AcDbEntity
  8
0
100
AcDbBlockBegin
  2
JZB-14
 70
     0
 10
0.0
 20
0.0
 30
0.0
  3
JZB-14
  1

  0
LINE
  5
D3
330
D0
100
AcDbEntity
  8
002
 62
     3
370
    30
100
AcDbLine
 10
764.911715
 20
281.96328
 30
0.0
 11
766.854196
 21
274.713445
 31
0.0
  0
LINE
  5
D4
330
D0
100
AcDbEntity
  8
002
 62
     3
370
    30
100
AcDbLine
 10
752.354633
 20
278.598803
 30
0.0
 11
754.297115
 21
271.348968
 31
0.0
  0
LINE
  5
D5
330
D0
100
AcDbEntity
  8
002
 62
     3
370
    30
100
AcDbLine
 10
757.661933
 20
283.905958
 30
0.0
 11
752.354633
 21
278.598803
 31
0.0
  0
LINE
  5
D6
330
D0
100
AcDbEntity
  8
002
 62
     3
370
    30
100
AcDbLine
 10
761.546897
 20
269.40629
 30
0.0
 11
766.854196
 21
274.713445
 31
0.0
  0
LINE
  5
D7
330
D0
100
AcDbEntity
  8
002
 62
     3
370
    30
100
AcDbLine
 10
754.297115
 20
271.348968
 30
0.0
 11
761.546897
 21
269.40629
 31
0.0
  0
LINE
  5
D8
330
D0
100
AcDbEntity
  8
002
 62
     3
370
    30
100
AcDbLine
 10
764.911715
 20
281.96328
 30
0.0
 11
757.661933
 21
283.905958
 31
0.0
  0
CIRCLE
  5
D9
330
D0
100
AcDbEntity
  8
002
 62
     3
370
    30
100
AcDbCircle
 10
759.604415
 20
276.656124
 30
0.0
 40
6.500000000000002
  0
ENDBLK
  5
D2
330
D0
100
AcDbEntity
  8
0
100
AcDbBlockEnd
  0
BLOCK
  5
DB
330
DA
100
AcDbEntity
  8
0
100
AcDbBlockBegin
  2
JZB-15
 70
     0
 10
0.0
 20
0.0
 30
0.0
  3
JZB-15
  1

  0
LINE
  5
DD
330
DA
100
AcDbEntity
  8
002
 62
     3
370
    30
100
AcDbLine
 10
724.820068
 20
284.619151
 30
0.0
 11
724.820068
 21
292.124705
 31
0.0
  0
LINE
  5
DE
330
DA
100
AcDbEntity
  8
002
 62
     3
370
    30
100
AcDbLine
 10
737.820068
 20
284.619151
 30
0.0
 11
737.820068
 21
292.124705
 31
0.0
  0
LINE
  5
DF
330
DA
100
AcDbEntity
  8
002
 62
     3
370
    30
100
AcDbLine
 10
731.320068
 20
280.866375
 30
0.0
 11
737.820068
 21
284.619151
 31
0.0
  0
LINE
  5
E0
330
DA
100
AcDbEntity
  8
002
 62
     3
370
    30
100
AcDbLine
 10
731.320068
 20
295.877482
 30
0.0
 11
724.820068
 21
292.124705
 31
0.0
  0
LINE
  5
E1
330
DA
100
AcDbEntity
  8
002
 62
     3
370
    30
100
AcDbLine
 10
737.820068
 20
292.124705
 30
0.0
 11
731.320068
 21
295.877482
 31
0.0
  0
LINE
  5
E2
330
DA
100
AcDbEntity
  8
002
 62
     3
370
    30
100
AcDbLine
 10
724.820068
 20
284.619151
 30
0.0
 11
731.320068
 21
280.866375
 31
0.0
  0
CIRCLE
  5
E3
330
DA
100
AcDbEntity
  8
002
 62
     3
370
    30
100
AcDbCircle
 10
731.320068
 20
288.371928
 30
0.0
 40
6.500000000000002
  0
ENDBLK
  5
DC
330
DA
100
AcDbEntity
  8
0
100
AcDbBlockEnd
  0
BLOCK
  5
E5
330
E4
100
AcDbEntity
  8
0
100
AcDbBlockBegin
  2
JZB-16
 70
     0
 10
0.0
 20
0.0
 30
0.0
  3
JZB-16
  1

  0
LINE
  5
E7
330
E4
100
AcDbEntity
  8
002
 62
     3
370
    30
100
AcDbLine
 10
737.820068
 20
204.619151
 30
0.0
 11
731.320068
 21
200.866375
 31
0.0
  0
LINE
  5
E8
330
E4
100
AcDbEntity
  8
002
 62
     3
370
    30
100
AcDbLine
 10
731.320068
 20
215.877482
 30
0.0
 11
724.820068
 21
212.124705
 31
0.0
  0
LINE
  5
E9
330
E4
100
AcDbEntity
  8
002
 62
     3
370
    30
100
AcDbLine
 10
737.820068
 20
212.124705
 30
0.0
 11
731.320068
 21
215.877482
 31
0.0
  0
LINE
  5
EA
330
E4
100
AcDbEntity
  8
002
 62
     3
370
    30
100
AcDbLine
 10
724.820068
 20
204.619151
 30
0.0
 11
731.320068
 21
200.866375
 31
0.0
  0
LINE
  5
EB
330
E4
100
AcDbEntity
  8
002
 62
     3
370
    30
100
AcDbLine
 10
724.820068
 20
212.124705
 30
0.0
 11
724.820068
 21
204.619151
 31
0.0
  0
LINE
  5
EC
330
E4
100
AcDbEntity
  8
002
 62
     3
370
    30
100
AcDbLine
 10
737.820068
 20
204.619151
 30
0.0
 11
737.820068
 21
212.124705
 31
0.0
  0
CIRCLE
  5
ED
330
E4
100
AcDbEntity
  8
002
 62
     3
370
    30
100
AcDbCircle
 10
731.320068
 20
208.371928
 30
0.0
 40
6.500000000000002
  0
ENDBLK
  5
E6
330
E4
100
AcDbEntity
  8
0
100
AcDbBlockEnd
  0
BLOCK
  5
EF
330
EE
100
AcDbEntity
  8
0
100
AcDbBlockBegin
  2
JZB-17
 70
     0
 10
0.0
 20
0.0
 30
0.0
  3
JZB-17
  1

  0
LINE
  5
F1
330
EE
100
AcDbEntity
  8
002
 62
     3
370
    30
100
AcDbLine
 10
1033.3728
 20
776.331175
 30
0.0
 11
1035.31561
 21
783.580922
 31
0.0
  0
LINE
  5
F2
330
EE
100
AcDbEntity
  8
002
 62
     3
370
    30
100
AcDbLine
 10
1045.92973
 20
772.96613
 30
0.0
 11
1047.872539
 21
780.215876
 31
0.0
  0
LINE
  5
F3
330
EE
100
AcDbEntity
  8
002
 62
     3
370
    30
100
AcDbLine
 10
1038.67986
 20
771.023779
 30
0.0
 11
1045.92973
 21
772.96613
 31
0.0
  0
LINE
  5
F4
330
EE
100
AcDbEntity
  8
002
 62
     3
370
    30
100
AcDbLine
 10
1042.56548
 20
785.523272
 30
0.0
 11
1035.31561
 21
783.580922
 31
0.0
  0
LINE
  5
F5
330
EE
100
AcDbEntity
  8
002
 62
     3
370
    30
100
AcDbLine
 10
1047.872539
 20
780.215876
 30
0.0
 11
1042.56548
 21
785.523272
 31
0.0
  0
LINE
  5
F6
330
EE
100
AcDbEntity
  8
002
 62
     3
370
    30
100
AcDbLine
 10
1033.3728
 20
776.331175
 30
0.0
 11
1038.67986
 21
771.023779
 31
0.0
  0
CIRCLE
  5
F7
330
EE
100
AcDbEntity
  8
002
 62
     3
370
    30
100
AcDbCircle
 10
1040.62267
 20
778.273526
 30
0.0
 40
6.500000000000002
  0
ENDBLK
  5
F0
330
EE
100
AcDbEntity
  8
0
100
AcDbBlockEnd
  0
BLOCK
  5
F9
330
F8
100
AcDbEntity
  8
0
100
AcDbBlockBegin
  2
JZB-18
 70
     0
 10
0.0
 20
0.0
 30
0.0
  3
JZB-18
  1

  0
LINE
  5
FB
330
F8
100
AcDbEntity
  8
002
 62
     3
370
    30
100
AcDbLine
 10
1025.153988
 20
756.489079
 30
0.0
 11
1032.659542
 21
756.489079
 31
0.0
  0
LINE
  5
FC
330
F8
100
AcDbEntity
  8
002
 62
     3
370
    30
100
AcDbLine
 10
1025.153988
 20
743.489079
 30
0.0
 11
1032.659542
 21
743.489079
 31
0.0
  0
LINE
  5
FD
330
F8
100
AcDbEntity
  8
002
 62
     3
370
    30
100
AcDbLine
 10
1021.401212
 20
749.989079
 30
0.0
 11
1025.153988
 21
743.489079
 31
0.0
  0
LINE
  5
FE
330
F8
100
AcDbEntity
  8
002
 62
     3
370
    30
100
AcDbLine
 10
1036.412319
 20
749.989079
 30
0.0
 11
1032.659542
 21
756.489079
 31
0.0
  0
LINE
  5
FF
330
F8
100
AcDbEntity
  8
002
 62
     3
370
    30
100
AcDbLine
 10
1032.659542
 20
743.489079
 30
0.0
 11
1036.412319
 21
749.989079
 31
0.0
  0
LINE
  5
100
330
F8
100
AcDbEntity
  8
002
 62
     3
370
    30
100
AcDbLine
 10
1025.153988
 20
756.489079
 30
0.0
 11
1021.401212
 21
749.989079
 31
0.0
  0
CIRCLE
  5
101
330
F8
100
AcDbEntity
  8
002
 62
     3
370
    30
100
AcDbCircle
 10
1028.906765
 20
749.989079
 30
0.0
 40
6.500000000000002
  0
ENDBLK
  5
FA
330
F8
100
AcDbEntity
  8
0
100
AcDbBlockEnd
  0
BLOCK
  5
103
330
102
100
AcDbEntity
  8
0
100
AcDbBlockBegin
  2
JZB-19
 70
     0
 10
0.0
 20
0.0
 30
0.0
  3
JZB-19
  1

  0
LINE
  5
105
330
102
100
AcDbEntity
  8
002
 62
     3
370
    30
100
AcDbLine
 10
1033.3728
 20
723.646982
 30
0.0
 11
1038.67986
 21
728.954378
 31
0.0
  0
LINE
  5
106
330
102
100
AcDbEntity
  8
002
 62
     3
370
    30
100
AcDbLine
 10
1042.56548
 20
714.454885
 30
0.0
 11
1047.872539
 21
719.762281
 31
0.0
  0
LINE
  5
107
330
102
100
AcDbEntity
  8
002
 62
     3
370
    30
100
AcDbLine
 10
1035.31561
 20
716.397236
 30
0.0
 11
1042.56548
 21
714.454885
 31
0.0
  0
LINE
  5
108
330
102
100
AcDbEntity
  8
002
 62
     3
370
    30
100
AcDbLine
 10
1045.92973
 20
727.012027
 30
0.0
 11
1038.67986
 21
728.954378
 31
0.0
  0
LINE
  5
109
330
102
100
AcDbEntity
  8
002
 62
     3
370
    30
100
AcDbLine
 10
1047.872539
 20
719.762281
 30
0.0
 11
1045.92973
 21
727.012027
 31
0.0
  0
LINE
  5
10A
330
102
100
AcDbEntity
  8
002
 62
     3
370
    30
100
AcDbLine
 10
1033.3728
 20
723.646982
 30
0.0
 11
1035.31561
 21
716.397236
 31
0.0
  0
CIRCLE
  5
10B
330
102
100
AcDbEntity
  8
002
 62
     3
370
    30
100
AcDbCircle
 10
1040.62267
 20
721.704631
 30
0.0
 40
6.500000000000002
  0
ENDBLK
  5
104
330
102
100
AcDbEntity
  8
0
100
AcDbBlockEnd
  0
BLOCK
  5
10D
330
10C
100
AcDbEntity
  8
0
100
AcDbBlockBegin
  2
JZB-20
 70
     0
 10
0.0
 20
0.0
 30
0.0
  3
JZB-20
  1

  0
LINE
  5
10F
330
10C
100
AcDbEntity
  8
002
 62
     3
370
    30
100
AcDbLine
 10
1102.498412
 20
716.397727
 30
0.0
 11
1095.24863
 21
714.455048
 31
0.0
  0
LINE
  5
110
330
10C
100
AcDbEntity
  8
002
 62
     3
370
    30
100
AcDbLine
 10
1099.133594
 20
728.954717
 30
0.0
 11
1091.883812
 21
727.012039
 31
0.0
  0
LINE
  5
111
330
10C
100
AcDbEntity
  8
002
 62
     3
370
    30
100
AcDbLine
 10
1104.440893
 20
723.647561
 30
0.0
 11
1099.133594
 21
728.954717
 31
0.0
  0
LINE
  5
112
330
10C
100
AcDbEntity
  8
002
 62
     3
370
    30
100
AcDbLine
 10
1089.94133
 20
719.762204
 30
0.0
 11
1095.24863
 21
714.455048
 31
0.0
  0
LINE
  5
113
330
10C
100
AcDbEntity
  8
002
 62
     3
370
    30
100
AcDbLine
 10
1091.883812
 20
727.012039
 30
0.0
 11
1089.94133
 21
719.762204
 31
0.0
  0
LINE
  5
114
330
10C
100
AcDbEntity
  8
002
 62
     3
370
    30
100
AcDbLine
 10
1102.498412
 20
716.397727
 30
0.0
 11
1104.440893
 21
723.647561
 31
0.0
  0
CIRCLE
  5
115
330
10C
100
AcDbEntity
  8
002
 62
     3
370
    30
100
AcDbCircle
 10
1097.191112
 20
721.704883
 30
0.0
 40
6.500000000000002
  0
ENDBLK
  5
10E
330
10C
100
AcDbEntity
  8
0
100
AcDbBlockEnd
  0
BLOCK
  5
117
330
116
100
AcDbEntity
  8
0
100
AcDbBlockBegin
  2
JZB-21
 70
     0
 10
0.0
 20
0.0
 30
0.0
  3
JZB-21
  1

  0
LINE
  5
119
330
116
100
AcDbEntity
  8
002
 62
     3
370
    30
100
AcDbLine
 10
1102.498412
 20
783.58043
 30
0.0
 11
1104.440893
 21
776.330596
 31
0.0
  0
LINE
  5
11A
330
116
100
AcDbEntity
  8
002
 62
     3
370
    30
100
AcDbLine
 10
1089.94133
 20
780.215953
 30
0.0
 11
1091.883812
 21
772.966119
 31
0.0
  0
LINE
  5
11B
330
116
100
AcDbEntity
  8
002
 62
     3
370
    30
100
AcDbLine
 10
1095.24863
 20
785.523109
 30
0.0
 11
1089.94133
 21
780.215953
 31
0.0
  0
LINE
  5
11C
330
116
100
AcDbEntity
  8
002
 62
     3
370
    30
100
AcDbLine
 10
1099.133594
 20
771.02344
 30
0.0
 11
1104.440893
 21
776.330596
 31
0.0
  0
LINE
  5
11D
330
116
100
AcDbEntity
  8
002
 62
     3
370
    30
100
AcDbLine
 10
1091.883812
 20
772.966119
 30
0.0
 11
1099.133594
 21
771.02344
 31
0.0
  0
LINE
  5
11E
330
116
100
AcDbEntity
  8
002
 62
     3
370
    30
100
AcDbLine
 10
1102.498412
 20
783.58043
 30
0.0
 11
1095.24863
 21
785.523109
 31
0.0
  0
CIRCLE
  5
11F
330
116
100
AcDbEntity
  8
002
 62
     3
370
    30
100
AcDbCircle
 10
1097.191112
 20
778.273274
 30
0.0
 40
6.500000000000002
  0
ENDBLK
  5
118
330
116
100
AcDbEntity
  8
0
100
AcDbBlockEnd
  0
BLOCK
  5
121
330
120
100
AcDbEntity
  8
0
100
AcDbBlockBegin
  2
JZB-22
 70
     0
 10
0.0
 20
0.0
 30
0.0
  3
JZB-22
  1

  0
LINE
  5
123
330
120
100
AcDbEntity
  8
002
 62
     3
370
    30
100
AcDbLine
 10
1062.406765
 20
786.236302
 30
0.0
 11
1062.406765
 21
793.741855
 31
0.0
  0
LINE
  5
124
330
120
100
AcDbEntity
  8
002
 62
     3
370
    30
100
AcDbLine
 10
1075.406765
 20
786.236302
 30
0.0
 11
1075.406765
 21
793.741855
 31
0.0
  0
LINE
  5
125
330
120
100
AcDbEntity
  8
002
 62
     3
370
    30
100
AcDbLine
 10
1068.906765
 20
782.483525
 30
0.0
 11
1075.406765
 21
786.236302
 31
0.0
  0
LINE
  5
126
330
120
100
AcDbEntity
  8
002
 62
     3
370
    30
100
AcDbLine
 10
1068.906765
 20
797.494632
 30
0.0
 11
1062.406765
 21
793.741855
 31
0.0
  0
LINE
  5
127
330
120
100
AcDbEntity
  8
002
 62
     3
370
    30
100
AcDbLine
 10
1075.406765
 20
793.741855
 30
0.0
 11
1068.906765
 21
797.494632
 31
0.0
  0
LINE
  5
128
330
120
100
AcDbEntity
  8
002
 62
     3
370
    30
100
AcDbLine
 10
1062.406765
 20
786.236302
 30
0.0
 11
1068.906765
 21
782.483525
 31
0.0
  0
CIRCLE
  5
129
330
120
100
AcDbEntity
  8
002
 62
     3
370
    30
100
AcDbCircle
 10
1068.906765
 20
789.989079
 30
0.0
 40
6.500000000000002
  0
ENDBLK
  5
122
330
120
100
AcDbEntity
  8
0
100
AcDbBlockEnd
  0
BLOCK
  5
12B
330
12A
100
AcDbEntity
  8
0
100
AcDbBlockBegin
  2
JZB-23
 70
     0
 10
0.0
 20
0.0
 30
0.0
  3
JZB-23
  1

  0
LINE
  5
12D
330
12A
100
AcDbEntity
  8
002
 62
     3
370
    30
100
AcDbLine
 10
1075.406765
 20
706.236302
 30
0.0
 11
1068.906765
 21
702.483525
 31
0.0
  0
LINE
  5
12E
330
12A
100
AcDbEntity
  8
002
 62
     3
370
    30
100
AcDbLine
 10
1068.906765
 20
717.494632
 30
0.0
 11
1062.406765
 21
713.741855
 31
0.0
  0
LINE
  5
12F
330
12A
100
AcDbEntity
  8
002
 62
     3
370
    30
100
AcDbLine
 10
1075.406765
 20
713.741855
 30
0.0
 11
1068.906765
 21
717.494632
 31
0.0
  0
LINE
  5
130
330
12A
100
AcDbEntity
  8
002
 62
     3
370
    30
100
AcDbLine
 10
1062.406765
 20
706.236302
 30
0.0
 11
1068.906765
 21
702.483525
 31
0.0
  0
LINE
  5
131
330
12A
100
AcDbEntity
  8
002
 62
     3
370
    30
100
AcDbLine
 10
1062.406765
 20
713.741855
 30
0.0
 11
1062.406765
 21
706.236302
 31
0.0
  0
LINE
  5
132
330
12A
100
AcDbEntity
  8
002
 62
     3
370
    30
100
AcDbLine
 10
1075.406765
 20
706.236302
 30
0.0
 11
1075.406765
 21
713.741855
 31
0.0
  0
CIRCLE
  5
133
330
12A
100
AcDbEntity
  8
002
 62
     3
370
    30
100
AcDbCircle
 10
1068.906765
 20
709.989079
 30
0.0
 40
6.500000000000002
  0
ENDBLK
  5
12C
330
12A
100
AcDbEntity
  8
0
100
AcDbBlockEnd
  0
BLOCK
  5
135
330
134
100
AcDbEntity
  8
0
100
AcDbBlockBegin
  2
JZB-24
 70
     0
 10
0.0
 20
0.0
 30
0.0
  3
JZB-24
  1

  0
LINE
  5
137
330
134
100
AcDbEntity
  8
002
 62
     3
370
    30
100
AcDbLine
 10
1375.3728
 20
776.33188
 30
0.0
 11
1377.31561
 21
783.581626
 31
0.0
  0
LINE
  5
138
330
134
100
AcDbEntity
  8
002
 62
     3
370
    30
100
AcDbLine
 10
1387.92973
 20
772.966835
 30
0.0
 11
1389.872539
 21
780.216581
 31
0.0
  0
LINE
  5
139
330
134
100
AcDbEntity
  8
002
 62
     3
370
    30
100
AcDbLine
 10
1380.67986
 20
771.024484
 30
0.0
 11
1387.92973
 21
772.966835
 31
0.0
  0
LINE
  5
13A
330
134
100
AcDbEntity
  8
002
 62
     3
370
    30
100
AcDbLine
 10
1384.56548
 20
785.523977
 30
0.0
 11
1377.31561
 21
783.581626
 31
0.0
  0
LINE
  5
13B
330
134
100
AcDbEntity
  8
002
 62
     3
370
    30
100
AcDbLine
 10
1389.872539
 20
780.216581
 30
0.0
 11
1384.56548
 21
785.523977
 31
0.0
  0
LINE
  5
13C
330
134
100
AcDbEntity
  8
002
 62
     3
370
    30
100
AcDbLine
 10
1375.3728
 20
776.33188
 30
0.0
 11
1380.67986
 21
771.024484
 31
0.0
  0
CIRCLE
  5
13D
330
134
100
AcDbEntity
  8
002
 62
     3
370
    30
100
AcDbCircle
 10
1382.62267
 20
778.274231
 30
0.0
 40
6.500000000000002
  0
ENDBLK
  5
136
330
134
100
AcDbEntity
  8
0
100
AcDbBlockEnd
  0
BLOCK
  5
13F
330
13E
100
AcDbEntity
  8
0
100
AcDbBlockBegin
  2
JZB-25
 70
     0
 10
0.0
 20
0.0
 30
0.0
  3
JZB-25
  1

  0
LINE
  5
141
330
13E
100
AcDbEntity
  8
002
 62
     3
370
    30
100
AcDbLine
 10
1367.153988
 20
756.489783
 30
0.0
 11
1374.659542
 21
756.489783
 31
0.0
  0
LINE
  5
142
330
13E
100
AcDbEntity
  8
002
 62
     3
370
    30
100
AcDbLine
 10
1367.153988
 20
743.489783
 30
0.0
 11
1374.659542
 21
743.489783
 31
0.0
  0
LINE
  5
143
330
13E
100
AcDbEntity
  8
002
 62
     3
370
    30
100
AcDbLine
 10
1363.401212
 20
749.989783
 30
0.0
 11
1367.153988
 21
743.489783
 31
0.0
  0
LINE
  5
144
330
13E
100
AcDbEntity
  8
002
 62
     3
370
    30
100
AcDbLine
 10
1378.412319
 20
749.989783
 30
0.0
 11
1374.659542
 21
756.489783
 31
0.0
  0
LINE
  5
145
330
13E
100
AcDbEntity
  8
002
 62
     3
370
    30
100
AcDbLine
 10
1374.659542
 20
743.489783
 30
0.0
 11
1378.412319
 21
749.989783
 31
0.0
  0
LINE
  5
146
330
13E
100
AcDbEntity
  8
002
 62
     3
370
    30
100
AcDbLine
 10
1367.153988
 20
756.489783
 30
0.0
 11
1363.401212
 21
749.989783
 31
0.0
  0
CIRCLE
  5
147
330
13E
100
AcDbEntity
  8
002
 62
     3
370
    30
100
AcDbCircle
 10
1370.906765
 20
749.989783
 30
0.0
 40
6.500000000000002
  0
ENDBLK
  5
140
330
13E
100
AcDbEntity
  8
0
100
AcDbBlockEnd
  0
BLOCK
  5
149
330
148
100
AcDbEntity
  8
0
100
AcDbBlockBegin
  2
JZB-26
 70
     0
 10
0.0
 20
0.0
 30
0.0
  3
JZB-26
  1

  0
LINE
  5
14B
330
148
100
AcDbEntity
  8
002
 62
     3
370
    30
100
AcDbLine
 10
1375.3728
 20
723.647687
 30
0.0
 11
1380.67986
 21
728.955083
 31
0.0
  0
LINE
  5
14C
330
148
100
AcDbEntity
  8
002
 62
     3
370
    30
100
AcDbLine
 10
1384.56548
 20
714.45559
 30
0.0
 11
1389.872539
 21
719.762986
 31
0.0
  0
LINE
  5
14D
330
148
100
AcDbEntity
  8
002
 62
     3
370
    30
100
AcDbLine
 10
1377.31561
 20
716.39794
 30
0.0
 11
1384.56548
 21
714.45559
 31
0.0
  0
LINE
  5
14E
330
148
100
AcDbEntity
  8
002
 62
     3
370
    30
100
AcDbLine
 10
1387.92973
 20
727.012732
 30
0.0
 11
1380.67986
 21
728.955083
 31
0.0
  0
LINE
  5
14F
330
148
100
AcDbEntity
  8
002
 62
     3
370
    30
100
AcDbLine
 10
1389.872539
 20
719.762986
 30
0.0
 11
1387.92973
 21
727.012732
 31
0.0
  0
LINE
  5
150
330
148
100
AcDbEntity
  8
002
 62
     3
370
    30
100
AcDbLine
 10
1375.3728
 20
723.647687
 30
0.0
 11
1377.31561
 21
716.39794
 31
0.0
  0
CIRCLE
  5
151
330
148
100
AcDbEntity
  8
002
 62
     3
370
    30
100
AcDbCircle
 10
1382.62267
 20
721.705336
 30
0.0
 40
6.500000000000002
  0
ENDBLK
  5
14A
330
148
100
AcDbEntity
  8
0
100
AcDbBlockEnd
  0
BLOCK
  5
153
330
152
100
AcDbEntity
  8
0
100
AcDbBlockBegin
  2
JZB-27
 70
     0
 10
0.0
 20
0.0
 30
0.0
  3
JZB-27
  1

  0
LINE
  5
155
330
152
100
AcDbEntity
  8
002
 62
     3
370
    30
100
AcDbLine
 10
1444.498412
 20
716.398432
 30
0.0
 11
1437.24863
 21
714.455753
 31
0.0
  0
LINE
  5
156
330
152
100
AcDbEntity
  8
002
 62
     3
370
    30
100
AcDbLine
 10
1441.133594
 20
728.955422
 30
0.0
 11
1433.883812
 21
727.012743
 31
0.0
  0
LINE
  5
157
330
152
100
AcDbEntity
  8
002
 62
     3
370
    30
100
AcDbLine
 10
1446.440893
 20
723.648266
 30
0.0
 11
1441.133594
 21
728.955422
 31
0.0
  0
LINE
  5
158
330
152
100
AcDbEntity
  8
002
 62
     3
370
    30
100
AcDbLine
 10
1431.94133
 20
719.762909
 30
0.0
 11
1437.24863
 21
714.455753
 31
0.0
  0
LINE
  5
159
330
152
100
AcDbEntity
  8
002
 62
     3
370
    30
100
AcDbLine
 10
1433.883812
 20
727.012743
 30
0.0
 11
1431.94133
 21
719.762909
 31
0.0
  0
LINE
  5
15A
330
152
100
AcDbEntity
  8
002
 62
     3
370
    30
100
AcDbLine
 10
1444.498412
 20
716.398432
 30
0.0
 11
1446.440893
 21
723.648266
 31
0.0
  0
CIRCLE
  5
15B
330
152
100
AcDbEntity
  8
002
 62
     3
370
    30
100
AcDbCircle
 10
1439.191112
 20
721.705588
 30
0.0
 40
6.500000000000002
  0
ENDBLK
  5
154
330
152
100
AcDbEntity
  8
0
100
AcDbBlockEnd
  0
BLOCK
  5
15D
330
15C
100
AcDbEntity
  8
0
100
AcDbBlockBegin
  2
JZB-28
 70
     0
 10
0.0
 20
0.0
 30
0.0
  3
JZB-28
  1

  0
LINE
  5
15F
330
15C
100
AcDbEntity
  8
002
 62
     3
370
    30
100
AcDbLine
 10
1444.498412
 20
783.581135
 30
0.0
 11
1446.440893
 21
776.331301
 31
0.0
  0
LINE
  5
160
330
15C
100
AcDbEntity
  8
002
 62
     3
370
    30
100
AcDbLine
 10
1431.94133
 20
780.216658
 30
0.0
 11
1433.883812
 21
772.966823
 31
0.0
  0
LINE
  5
161
330
15C
100
AcDbEntity
  8
002
 62
     3
370
    30
100
AcDbLine
 10
1437.24863
 20
785.523814
 30
0.0
 11
1431.94133
 21
780.216658
 31
0.0
  0
LINE
  5
162
330
15C
100
AcDbEntity
  8
002
 62
     3
370
    30
100
AcDbLine
 10
1441.133594
 20
771.024145
 30
0.0
 11
1446.440893
 21
776.331301
 31
0.0
  0
LINE
  5
163
330
15C
100
AcDbEntity
  8
002
 62
     3
370
    30
100
AcDbLine
 10
1433.883812
 20
772.966823
 30
0.0
 11
1441.133594
 21
771.024145
 31
0.0
  0
LINE
  5
164
330
15C
100
AcDbEntity
  8
002
 62
     3
370
    30
100
AcDbLine
 10
1444.498412
 20
783.581135
 30
0.0
 11
1437.24863
 21
785.523814
 31
0.0
  0
CIRCLE
  5
165
330
15C
100
AcDbEntity
  8
002
 62
     3
370
    30
100
AcDbCircle
 10
1439.191112
 20
778.273979
 30
0.0
 40
6.500000000000002
  0
ENDBLK
  5
15E
330
15C
100
AcDbEntity
  8
0
100
AcDbBlockEnd
  0
BLOCK
  5
167
330
166
100
AcDbEntity
  8
0
100
AcDbBlockBegin
  2
JZB-29
 70
     0
 10
0.0
 20
0.0
 30
0.0
  3
JZB-29
  1

  0
LINE
  5
169
330
166
100
AcDbEntity
  8
002
 62
     3
370
    30
100
AcDbLine
 10
1404.406765
 20
786.237007
 30
0.0
 11
1404.406765
 21
793.74256
 31
0.0
  0
LINE
  5
16A
330
166
100
AcDbEntity
  8
002
 62
     3
370
    30
100
AcDbLine
 10
1417.406765
 20
786.237007
 30
0.0
 11
1417.406765
 21
793.74256
 31
0.0
  0
LINE
  5
16B
330
166
100
AcDbEntity
  8
002
 62
     3
370
    30
100
AcDbLine
 10
1410.906765
 20
782.48423
 30
0.0
 11
1417.406765
 21
786.237007
 31
0.0
  0
LINE
  5
16C
330
166
100
AcDbEntity
  8
002
 62
     3
370
    30
100
AcDbLine
 10
1410.906765
 20
797.495337
 30
0.0
 11
1404.406765
 21
793.74256
 31
0.0
  0
LINE
  5
16D
330
166
100
AcDbEntity
  8
002
 62
     3
370
    30
100
AcDbLine
 10
1417.406765
 20
793.74256
 30
0.0
 11
1410.906765
 21
797.495337
 31
0.0
  0
LINE
  5
16E
330
166
100
AcDbEntity
  8
002
 62
     3
370
    30
100
AcDbLine
 10
1404.406765
 20
786.237007
 30
0.0
 11
1410.906765
 21
782.48423
 31
0.0
  0
CIRCLE
  5
16F
330
166
100
AcDbEntity
  8
002
 62
     3
370
    30
100
AcDbCircle
 10
1410.906765
 20
789.989783
 30
0.0
 40
6.500000000000002
  0
ENDBLK
  5
168
330
166
100
AcDbEntity
  8
0
100
AcDbBlockEnd
  0
BLOCK
  5
171
330
170
100
AcDbEntity
  8
0
100
AcDbBlockBegin
  2
JZB-30
 70
     0
 10
0.0
 20
0.0
 30
0.0
  3
JZB-30
  1

  0
LINE
  5
173
330
170
100
AcDbEntity
  8
002
 62
     3
370
    30
100
AcDbLine
 10
1417.406765
 20
706.237007
 30
0.0
 11
1410.906765
 21
702.48423
 31
0.0
  0
LINE
  5
174
330
170
100
AcDbEntity
  8
002
 62
     3
370
    30
100
AcDbLine
 10
1410.906765
 20
717.495337
 30
0.0
 11
1404.406765
 21
713.74256
 31
0.0
  0
LINE
  5
175
330
170
100
AcDbEntity
  8
002
 62
     3
370
    30
100
AcDbLine
 10
1417.406765
 20
713.74256
 30
0.0
 11
1410.906765
 21
717.495337
 31
0.0
  0
LINE
  5
176
330
170
100
AcDbEntity
  8
002
 62
     3
370
    30
100
AcDbLine
 10
1404.406765
 20
706.237007
 30
0.0
 11
1410.906765
 21
702.48423
 31
0.0
  0
LINE
  5
177
330
170
100
AcDbEntity
  8
002
 62
     3
370
    30
100
AcDbLine
 10
1404.406765
 20
713.74256
 30
0.0
 11
1404.406765
 21
706.237007
 31
0.0
  0
LINE
  5
178
330
170
100
AcDbEntity
  8
002
 62
     3
370
    30
100
AcDbLine
 10
1417.406765
 20
706.237007
 30
0.0
 11
1417.406765
 21
713.74256
 31
0.0
  0
CIRCLE
  5
179
330
170
100
AcDbEntity
  8
002
 62
     3
370
    30
100
AcDbCircle
 10
1410.906765
 20
709.989783
 30
0.0
 40
6.500000000000002
  0
ENDBLK
  5
172
330
170
100
AcDbEntity
  8
0
100
AcDbBlockEnd
  0
ENDSEC
  0
SECTION
  2
ENTITIES
  0
INSERT
  5
17A
330
1F
100
AcDbEntity
  8
003
  6
ByBlock
 62
     0
370
    -2
100
AcDbBlockReference
  2
JZB-1
 10
0.0
 20
0.0
 30
0.0
  0
INSERT
  5
17B
330
1F
100
AcDbEntity
  8
003
  6
ByBlock
 62
     0
370
    -2
100
AcDbBlockReference
  2
JZB-2
 10
0.0
 20
0.0
 30
0.0
  0
INSERT
  5
17C
330
1F
100
AcDbEntity
  8
002
  6
ByBlock
 62
     0
370
    -2
100
AcDbBlockReference
  2
JZB-3
 10
0.0
 20
0.0
 30
0.0
  0
INSERT
  5
17D
330
1F
100
AcDbEntity
  8
002
  6
ByBlock
 62
     0
370
    -2
100
AcDbBlockReference
  2
JZB-4
 10
0.0
 20
0.0
 30
0.0
  0
INSERT
  5
17E
330
1F
100
AcDbEntity
  8
002
  6
ByBlock
 62
     0
370
    -2
100
AcDbBlockReference
  2
JZB-5
 10
0.0
 20
0.0
 30
0.0
  0
INSERT
  5
17F
330
1F
100
AcDbEntity
  8
002
  6
ByBlock
 62
     0
370
    -2
100
AcDbBlockReference
  2
JZB-6
 10
0.0
 20
0.0
 30
0.0
  0
INSERT
  5
180
330
1F
100
AcDbEntity
  8
002
  6
ByBlock
 62
     0
370
    -2
100
AcDbBlockReference
  2
JZB-7
 10
0.0
 20
0.0
 30
0.0
  0
INSERT
  5
181
330
1F
100
AcDbEntity
  8
002
  6
ByBlock
 62
     0
370
    -2
100
AcDbBlockReference
  2
JZB-8
 10
0.0
 20
0.0
 30
0.0
  0
INSERT
  5
182
330
1F
100
AcDbEntity
  8
002
  6
ByBlock
 62
     0
370
    -2
100
AcDbBlockReference
  2
JZB-9
 10
0.0
 20
0.0
 30
0.0
  0
INSERT
  5
183
330
1F
100
AcDbEntity
  8
002
  6
ByBlock
 62
     0
370
    -2
100
AcDbBlockReference
  2
JZB-10
 10
0.0
 20
0.0
 30
0.0
  0
INSERT
  5
184
330
1F
100
AcDbEntity
  8
002
  6
ByBlock
 62
     0
370
    -2
100
AcDbBlockReference
  2
JZB-11
 10
0.0
 20
0.0
 30
0.0
  0
INSERT
  5
185
330
1F
100
AcDbEntity
  8
002
  6
ByBlock
 62
     0
370
    -2
100
AcDbBlockReference
  2
JZB-12
 10
0.0
 20
0.0
 30
0.0
  0
INSERT
  5
186
330
1F
100
AcDbEntity
  8
002
  6
ByBlock
 62
     0
370
    -2
100
AcDbBlockReference
  2
JZB-13
 10
0.0
 20
0.0
 30
0.0
  0
INSERT
  5
187
330
1F
100
AcDbEntity
  8
002
  6
ByBlock
 62
     0
370
    -2
100
AcDbBlockReference
  2
JZB-14
 10
0.0
 20
0.0
 30
0.0
  0
INSERT
  5
188
330
1F
100
AcDbEntity
  8
002
  6
ByBlock
 62
     0
370
    -2
100
AcDbBlockReference
  2
JZB-15
 10
0.0
 20
0.0
 30
0.0
  0
INSERT
  5
189
330
1F
100
AcDbEntity
  8
002
  6
ByBlock
 62
     0
370
    -2
100
AcDbBlockReference
  2
JZB-16
 10
0.0
 20
0.0
 30
0.0
  0
INSERT
  5
18A
330
1F
100
AcDbEntity
  8
002
  6
ByBlock
 62
     0
370
    -2
100
AcDbBlockReference
  2
JZB-17
 10
0.0
 20
0.0
 30
0.0
  0
INSERT
  5
18B
330
1F
100
AcDbEntity
  8
002
  6
ByBlock
 62
     0
370
    -2
100
AcDbBlockReference
  2
JZB-18
 10
0.0
 20
0.0
 30
0.0
  0
INSERT
  5
18C
330
1F
100
AcDbEntity
  8
002
  6
ByBlock
 62
     0
370
    -2
100
AcDbBlockReference
  2
JZB-19
 10
0.0
 20
0.0
 30
0.0
  0
INSERT
  5
18D
330
1F
100
AcDbEntity
  8
002
  6
ByBlock
 62
     0
370
    -2
100
AcDbBlockReference
  2
JZB-20
 10
0.0
 20
0.0
 30
0.0
  0
INSERT
  5
18E
330
1F
100
AcDbEntity
  8
002
  6
ByBlock
 62
     0
370
    -2
100
AcDbBlockReference
  2
JZB-21
 10
0.0
 20
0.0
 30
0.0
  0
INSERT
  5
18F
330
1F
100
AcDbEntity
  8
002
  6
ByBlock
 62
     0
370
    -2
100
AcDbBlockReference
  2
JZB-22
 10
0.0
 20
0.0
 30
0.0
  0
INSERT
  5
190
330
1F
100
AcDbEntity
  8
002
  6
ByBlock
 62
     0
370
    -2
100
AcDbBlockReference
  2
JZB-23
 10
0.0
 20
0.0
 30
0.0
  0
INSERT
  5
191
330
1F
100
AcDbEntity
  8
002
  6
ByBlock
 62
     0
370
    -2
100
AcDbBlockReference
  2
JZB-24
 10
0.0
 20
0.0
 30
0.0
  0
INSERT
  5
192
330
1F
100
AcDbEntity
  8
002
  6
ByBlock
 62
     0
370
    -2
100
AcDbBlockReference
  2
JZB-25
 10
0.0
 20
0.0
 30
0.0
  0
INSERT
  5
193
330
1F
100
AcDbEntity
  8
002
  6
ByBlock
 62
     0
370
    -2
100
AcDbBlockReference
  2
JZB-26
 10
0.0
 20
0.0
 30
0.0
  0
INSERT
  5
194
330
1F
100
AcDbEntity
  8
002
  6
ByBlock
 62
     0
370
    -2
100
AcDbBlockReference
  2
JZB-27
 10
0.0
 20
0.0
 30
0.0
  0
INSERT
  5
195
330
1F
100
AcDbEntity
  8
002
  6
ByBlock
 62
     0
370
    -2
100
AcDbBlockReference
  2
JZB-28
 10
0.0
 20
0.0
 30
0.0
  0
INSERT
  5
196
330
1F
100
AcDbEntity
  8
002
  6
ByBlock
 62
     0
370
    -2
100
AcDbBlockReference
  2
JZB-29
 10
0.0
 20
0.0
 30
0.0
  0
INSERT
  5
197
330
1F
100
AcDbEntity
  8
002
  6
ByBlock
 62
     0
370
    -2
100
AcDbBlockReference
  2
JZB-30
 10
0.0
 20
0.0
 30
0.0
  0
LINE
  5
198
330
1F
100
AcDbEntity
  8
002
 62
     3
370
    30
100
AcDbLine
 10
405.820368
 20
2079.871928
 30
0.0
 11
405.820368
 21
2041.871928
 31
0.0
  0
ARC
  5
199
330
1F
100
AcDbEntity
  8
002
 62
     3
370
    30
100
AcDbCircle
 10
409.320368
 20
2041.871928
 30
0.0
 40
3.5
100
AcDbArc
 50
180.0
 51
0.0
  0
LINE
  5
19A
330
1F
100
AcDbEntity
  8
002
 62
     3
370
    30
100
AcDbLine
 10
412.820368
 20
2041.871928
 30
0.0
 11
412.820368
 21
2079.871928
 31
0.0
  0
LINE
  5
19B
330
1F
100
AcDbEntity
  8
002
 62
     3
370
    30
100
AcDbLine
 10
421.820368
 20
2079.871928
 30
0.0
 11
421.820368
 21
2036.871928
 31
0.0
  0
LINE
  5
19C
330
1F
100
AcDbEntity
  8
002
 62
     3
370
    30
100
AcDbLine
 10
423.320368
 20
2036.871928
 30
0.0
 11
395.320368
 21
2036.871928
 31
0.0
  0
LINE
  5
19D
330
1F
100
AcDbEntity
  8
002
 62
     3
370
    30
100
AcDbLine
 10
396.820368
 20
2036.871928
 30
0.0
 11
396.820368
 21
2079.871928
 31
0.0
  0
LINE
  5
19E
330
1F
100
AcDbEntity
  8
002
 62
     3
370
    30
100
AcDbLine
 10
396.820368
 20
2079.871928
 30
0.0
 11
421.820368
 21
2079.871928
 31
0.0
  0
LINE
  5
19F
330
1F
100
AcDbEntity
  8
002
 62
     3
370
    30
100
AcDbLine
 10
405.820368
 20
2044.871928
 30
0.0
 11
412.820368
 21
2044.871928
 31
0.0
  0
LINE
  5
1A0
330
1F
100
AcDbEntity
  8
002
 62
     3
370
    30
100
AcDbLine
 10
423.320368
 20
2036.871928
 30
0.0
 11
423.320368
 21
2030.871928
 31
0.0
  0
LINE
  5
1A1
330
1F
100
AcDbEntity
  8
002
 62
     3
370
    30
100
AcDbLine
 10
423.320368
 20
2034.871928
 30
0.0
 11
482.320368
 21
2034.871928
 31
0.0
  0
CIRCLE
  5
1A2
330
1F
100
AcDbEntity
  8
002
 62
     3
370
    30
100
AcDbCircle
 10
481.320368
 20
2005.871928
 30
0.0
 40
25.0
  0
CIRCLE
  5
1A3
330
1F
100
AcDbEntity
  8
002
 62
     3
370
    30
100
AcDbCircle
 10
481.320368
 20
2005.871928
 30
0.0
 40
13.0
  0
LINE
  5
1A4
330
1F
100
AcDbEntity
  8
002
 62
     3
370
    30
100
AcDbLine
 10
450.320368
 20
2020.871928
 30
0.0
 11
450.320368
 21
2005.871928
 31
0.0
  0
ARC
  5
1A5
330
1F
100
AcDbEntity
  8
002
 62
     3
370
    30
100
AcDbCircle
 10
481.320368
 20
2005.871928
 30
0.0
 40
30.99972711170207
100
AcDbArc
 50
180.0
 51
211.289292
  0
LINE
  5
1A6
330
1F
100
AcDbEntity
  8
002
 62
     3
370
    30
100
AcDbLine
 10
458.320368
 20
1977.306928
 30
0.0
 11
458.320368
 21
1956.871928
 31
0.0
  0
ARC
  5
1A7
330
1F
100
AcDbEntity
  8
002
 62
     3
370
    30
100
AcDbCircle
 10
456.320368
 20
1956.871928
 30
0.0
 40
2.0
100
AcDbArc
 50
307.890063
 51
0.0
  0
LINE
  5
1A8
330
1F
100
AcDbEntity
  8
002
 62
     3
370
    30
100
AcDbLine
 10
457.892368
 20
1954.871928
 30
0.0
 11
489.297368
 21
1954.871928
 31
0.0
  0
LINE
  5
1A9
330
1F
100
AcDbEntity
  8
002
 62
     3
370
    30
100
AcDbLine
 10
489.297368
 20
1954.871928
 30
0.0
 11
489.297368
 21
1904.871928
 31
0.0
  0
LINE
  5
1AA
330
1F
100
AcDbEntity
  8
002
 62
     3
370
    30
100
AcDbLine
 10
489.297368
 20
1904.871928
 30
0.0
 11
457.892368
 21
1904.871928
 31
0.0
  0
LINE
  5
1AB
330
1F
100
AcDbEntity
  8
002
 62
     3
370
    30
100
AcDbLine
 10
458.074368
 20
1906.871928
 30
0.0
 11
458.074368
 21
1952.871928
 31
0.0
  0
ARC
  5
1AC
330
1F
100
AcDbEntity
  8
002
 62
     3
370
    30
100
AcDbCircle
 10
457.892368
 20
1952.871928
 30
0.0
 40
2.0
100
AcDbArc
 50
90.0
 51
180.0
  0
LINE
  5
1AD
330
1F
100
AcDbEntity
  8
002
 62
     3
370
    30
100
AcDbLine
 10
455.892368
 20
1952.871928
 30
0.0
 11
455.892368
 21
1906.871928
 31
0.0
  0
ARC
  5
1AE
330
1F
100
AcDbEntity
  8
002
 62
     3
370
    30
100
AcDbCircle
 10
457.892368
 20
1906.871928
 30
0.0
 40
2.0
100
AcDbArc
 50
180.0
 51
270.0
  0
ARC
  5
1AF
330
1F
100
AcDbEntity
  8
002
 62
     3
370
    30
100
AcDbCircle
 10
460.074368
 20
1906.871928
 30
0.0
 40
2.0
100
AcDbArc
 50
180.0
 51
270.0
  0
LINE
  5
1B0
330
1F
100
AcDbEntity
  8
002
 62
     3
370
    30
100
AcDbLine
 10
458.320368
 20
1902.871928
 30
0.0
 11
458.320368
 21
1882.437928
 31
0.0
  0
ARC
  5
1B1
330
1F
100
AcDbEntity
  8
002
 62
     3
370
    30
100
AcDbCircle
 10
434.320368
 20
1882.437928
 30
0.0
 40
24.0
100
AcDbArc
 50
328.709521
 51
0.0
  0
ARC
  5
1B2
330
1F
100
AcDbEntity
  8
002
 62
     3
370
    30
100
AcDbCircle
 10
481.320368
 20
1853.871928
 30
0.0
 40
31.0
100
AcDbArc
 50
148.709129
 51
180.0
  0
LINE
  5
1B3
330
1F
100
AcDbEntity
  8
002
 62
     3
370
    30
100
AcDbLine
 10
450.320368
 20
1853.871928
 30
0.0
 11
450.320368
 21
1838.871928
 31
0.0
  0
LINE
  5
1B4
330
1F
100
AcDbEntity
  8
002
 62
     3
370
    30
100
AcDbLine
 10
450.320368
 20
1838.871928
 30
0.0
 11
388.703368
 21
1838.871928
 31
0.0
  0
LINE
  5
1B5
330
1F
100
AcDbEntity
  8
002
 62
     3
370
    30
100
AcDbLine
 10
380.320368
 20
1831.871928
 30
0.0
 11
380.320368
 21
1828.871928
 31
0.0
  0
LINE
  5
1B6
330
1F
100
AcDbEntity
  8
002
 62
     3
370
    30
100
AcDbLine
 10
380.320368
 20
1828.871928
 30
0.0
 11
438.320368
 21
1828.871928
 31
0.0
  0
LINE
  5
1B7
330
1F
100
AcDbEntity
  8
002
 62
     3
370
    30
100
AcDbLine
 10
438.320368
 20
1828.871928
 30
0.0
 11
438.320368
 21
1831.871928
 31
0.0
  0
LINE
  5
1B8
330
1F
100
AcDbEntity
  8
002
 62
     3
370
    30
100
AcDbLine
 10
449.317368
 20
1831.871928
 30
0.0
 11
374.016368
 21
1831.871928
 31
0.0
  0
LINE
  5
1B9
330
1F
100
AcDbEntity
  8
002
 62
     3
370
    30
100
AcDbLine
 10
365.190368
 20
1841.444928
 30
0.0
 11
363.696368
 21
1847.021928
 31
0.0
  0
LINE
  5
1BA
330
1F
100
AcDbEntity
  8
002
 62
     3
370
    30
100
AcDbLine
 10
363.696368
 20
1847.021928
 30
0.0
 11
358.119368
 21
1848.515928
 31
0.0
  0
LINE
  5
1BB
330
1F
100
AcDbEntity
  8
002
 62
     3
370
    30
100
AcDbLine
 10
358.119368
 20
1848.515928
 30
0.0
 11
354.037368
 21
1844.432928
 31
0.0
  0
LINE
  5
1BC
330
1F
100
AcDbEntity
  8
002
 62
     3
370
    30
100
AcDbLine
 10
354.037368
 20
1844.432928
 30
0.0
 11
355.531368
 21
1838.856928
 31
0.0
  0
LINE
  5
1BD
330
1F
100
AcDbEntity
  8
002
 62
     3
370
    30
100
AcDbLine
 10
355.531368
 20
1838.856928
 30
0.0
 11
361.108368
 21
1837.361928
 31
0.0
  0
LINE
  5
1BE
330
1F
100
AcDbEntity
  8
002
 62
     3
370
    30
100
AcDbLine
 10
361.108368
 20
1837.361928
 30
0.0
 11
365.190368
 21
1841.444928
 31
0.0
  0
CIRCLE
  5
1BF
330
1F
100
AcDbEntity
  8
002
 62
     3
370
    30
100
AcDbCircle
 10
359.613368
 20
1842.938928
 30
0.0
 40
9.0
  0
LINE
  5
1C0
330
1F
100
AcDbEntity
  8
002
 62
     3
370
    30
100
AcDbLine
 10
394.382368
 20
1864.738928
 30
0.0
 11
398.465368
 21
1860.655928
 31
0.0
  0
LINE
  5
1C1
330
1F
100
AcDbEntity
  8
002
 62
     3
370
    30
100
AcDbLine
 10
398.465368
 20
1860.655928
 30
0.0
 11
404.042368
 21
1862.149928
 31
0.0
  0
LINE
  5
1C2
330
1F
100
AcDbEntity
  8
002
 62
     3
370
    30
100
AcDbLine
 10
404.042368
 20
1862.149928
 30
0.0
 11
405.536368
 21
1867.726928
 31
0.0
  0
LINE
  5
1C3
330
1F
100
AcDbEntity
  8
002
 62
     3
370
    30
100
AcDbLine
 10
405.536368
 20
1867.726928
 30
0.0
 11
401.453368
 21
1871.809928
 31
0.0
  0
LINE
  5
1C4
330
1F
100
AcDbEntity
  8
002
 62
     3
370
    30
100
AcDbLine
 10
401.453368
 20
1871.809928
 30
0.0
 11
395.877368
 21
1870.314928
 31
0.0
  0
LINE
  5
1C5
330
1F
100
AcDbEntity
  8
002
 62
     3
370
    30
100
AcDbLine
 10
395.877368
 20
1870.314928
 30
0.0
 11
394.382368
 21
1864.738928
 31
0.0
  0
CIRCLE
  5
1C6
330
1F
100
AcDbEntity
  8
002
 62
     3
370
    30
100
AcDbCircle
 10
399.959368
 20
1866.232928
 30
0.0
 40
9.0
  0
LINE
  5
1C7
330
1F
100
AcDbEntity
  8
002
 62
     3
370
    30
100
AcDbLine
 10
417.676368
 20
1908.072928
 30
0.0
 11
421.759368
 21
1912.154928
 31
0.0
  0
LINE
  5
1C8
330
1F
100
AcDbEntity
  8
002
 62
     3
370
    30
100
AcDbLine
 10
421.759368
 20
1912.154928
 30
0.0
 11
427.335368
 21
1910.660928
 31
0.0
  0
LINE
  5
1C9
330
1F
100
AcDbEntity
  8
002
 62
     3
370
    30
100
AcDbLine
 10
427.335368
 20
1910.660928
 30
0.0
 11
428.830368
 21
1905.083928
 31
0.0
  0
LINE
  5
1CA
330
1F
100
AcDbEntity
  8
002
 62
     3
370
    30
100
AcDbLine
 10
428.830368
 20
1905.083928
 30
0.0
 11
424.747368
 21
1901.001928
 31
0.0
  0
LINE
  5
1CB
330
1F
100
AcDbEntity
  8
002
 62
     3
370
    30
100
AcDbLine
 10
424.747368
 20
1901.001928
 30
0.0
 11
419.170368
 21
1902.495928
 31
0.0
  0
LINE
  5
1CC
330
1F
100
AcDbEntity
  8
002
 62
     3
370
    30
100
AcDbLine
 10
419.170368
 20
1902.495928
 30
0.0
 11
417.676368
 21
1908.072928
 31
0.0
  0
CIRCLE
  5
1CD
330
1F
100
AcDbEntity
  8
002
 62
     3
370
    30
100
AcDbCircle
 10
423.253368
 20
1906.578928
 30
0.0
 40
9.0
  0
LINE
  5
1CE
330
1F
100
AcDbEntity
  8
002
 62
     3
370
    30
100
AcDbLine
 10
421.759368
 20
1947.588928
 30
0.0
 11
427.335368
 21
1949.083928
 31
0.0
  0
LINE
  5
1CF
330
1F
100
AcDbEntity
  8
002
 62
     3
370
    30
100
AcDbLine
 10
427.335368
 20
1949.083928
 30
0.0
 11
428.830368
 21
1954.659928
 31
0.0
  0
LINE
  5
1D0
330
1F
100
AcDbEntity
  8
002
 62
     3
370
    30
100
AcDbLine
 10
428.830368
 20
1954.659928
 30
0.0
 11
424.747368
 21
1958.742928
 31
0.0
  0
LINE
  5
1D1
330
1F
100
AcDbEntity
  8
002
 62
     3
370
    30
100
AcDbLine
 10
424.747368
 20
1958.742928
 30
0.0
 11
419.170368
 21
1957.248928
 31
0.0
  0
LINE
  5
1D2
330
1F
100
AcDbEntity
  8
002
 62
     3
370
    30
100
AcDbLine
 10
419.170368
 20
1957.248928
 30
0.0
 11
417.676368
 21
1951.671928
 31
0.0
  0
LINE
  5
1D3
330
1F
100
AcDbEntity
  8
002
 62
     3
370
    30
100
AcDbLine
 10
417.676368
 20
1951.671928
 30
0.0
 11
421.759368
 21
1947.588928
 31
0.0
  0
CIRCLE
  5
1D4
330
1F
100
AcDbEntity
  8
002
 62
     3
370
    30
100
AcDbCircle
 10
423.253368
 20
1953.165928
 30
0.0
 40
9.0
  0
LINE
  5
1D5
330
1F
100
AcDbEntity
  8
002
 62
     3
370
    30
100
AcDbLine
 10
401.453368
 20
1987.934928
 30
0.0
 11
405.536368
 21
1992.017928
 31
0.0
  0
LINE
  5
1D6
330
1F
100
AcDbEntity
  8
002
 62
     3
370
    30
100
AcDbLine
 10
405.536368
 20
1992.017928
 30
0.0
 11
404.042368
 21
1997.594928
 31
0.0
  0
LINE
  5
1D7
330
1F
100
AcDbEntity
  8
002
 62
     3
370
    30
100
AcDbLine
 10
404.042368
 20
1997.594928
 30
0.0
 11
398.465368
 21
1999.088928
 31
0.0
  0
LINE
  5
1D8
330
1F
100
AcDbEntity
  8
002
 62
     3
370
    30
100
AcDbLine
 10
398.465368
 20
1999.088928
 30
0.0
 11
394.382368
 21
1995.005928
 31
0.0
  0
LINE
  5
1D9
330
1F
100
AcDbEntity
  8
002
 62
     3
370
    30
100
AcDbLine
 10
394.382368
 20
1995.005928
 30
0.0
 11
395.877368
 21
1989.429928
 31
0.0
  0
LINE
  5
1DA
330
1F
100
AcDbEntity
  8
002
 62
     3
370
    30
100
AcDbLine
 10
395.877368
 20
1989.429928
 30
0.0
 11
401.453368
 21
1987.934928
 31
0.0
  0
CIRCLE
  5
1DB
330
1F
100
AcDbEntity
  8
002
 62
     3
370
    30
100
AcDbCircle
 10
399.959368
 20
1993.511928
 30
0.0
 40
9.0
  0
LINE
  5
1DC
330
1F
100
AcDbEntity
  8
002
 62
     3
370
    30
100
AcDbLine
 10
388.703368
 20
2020.871928
 30
0.0
 11
450.320368
 21
2020.871928
 31
0.0
  0
LINE
  5
1DD
330
1F
100
AcDbEntity
  8
002
 62
     3
370
    30
100
AcDbLine
 10
449.317368
 20
2020.871928
 30
0.0
 11
449.317368
 21
2027.871928
 31
0.0
  0
LINE
  5
1DE
330
1F
100
AcDbEntity
  8
002
 62
     3
370
    30
100
AcDbLine
 10
449.317368
 20
2027.871928
 30
0.0
 11
374.016368
 21
2027.871928
 31
0.0
  0
LINE
  5
1DF
330
1F
100
AcDbEntity
  8
002
 62
     3
370
    30
100
AcDbLine
 10
380.320368
 20
2027.871928
 30
0.0
 11
380.320368
 21
2030.871928
 31
0.0
  0
LINE
  5
1E0
330
1F
100
AcDbEntity
  8
002
 62
     3
370
    30
100
AcDbLine
 10
380.320368
 20
2030.871928
 30
0.0
 11
438.320368
 21
2030.871928
 31
0.0
  0
LINE
  5
1E1
330
1F
100
AcDbEntity
  8
002
 62
     3
370
    30
100
AcDbLine
 10
438.320368
 20
2030.871928
 30
0.0
 11
438.320368
 21
2027.871928
 31
0.0
  0
LINE
  5
1E2
330
1F
100
AcDbEntity
  8
002
 62
     3
370
    30
100
AcDbLine
 10
395.320368
 20
2036.871928
 30
0.0
 11
395.320368
 21
2030.871928
 31
0.0
  0
ARC
  5
1E3
330
1F
100
AcDbEntity
  8
002
 62
     3
370
    30
100
AcDbCircle
 10
258.320368
 20
2005.871928
 30
0.0
 40
29.0
100
AcDbArc
 50
90.0
 51
180.0
  0
LINE
  5
1E4
330
1F
100
AcDbEntity
  8
002
 62
     3
370
    30
100
AcDbLine
 10
229.320368
 20
2005.871928
 30
0.0
 11
229.320368
 21
1853.871928
 31
0.0
  0
ARC
  5
1E5
330
1F
100
AcDbEntity
  8
002
 62
     3
370
    30
100
AcDbCircle
 10
258.320368
 20
1853.871928
 30
0.0
 40
29.0
100
AcDbArc
 50
180.0
 51
270.0
  0
LINE
  5
1E6
330
1F
100
AcDbEntity
  8
002
 62
     3
370
    30
100
AcDbLine
 10
395.320368
 20
1822.871928
 30
0.0
 11
395.320368
 21
1828.871928
 31
0.0
  0
LINE
  5
1E7
330
1F
100
AcDbEntity
  8
002
 62
     3
370
    30
100
AcDbLine
 10
395.320368
 20
1822.871928
 30
0.0
 11
423.320368
 21
1822.871928
 31
0.0
  0
LINE
  5
1E8
330
1F
100
AcDbEntity
  8
002
 62
     3
370
    30
100
AcDbLine
 10
421.820368
 20
1822.871928
 30
0.0
 11
421.820368
 21
1779.871928
 31
0.0
  0
LINE
  5
1E9
330
1F
100
AcDbEntity
  8
002
 62
     3
370
    30
100
AcDbLine
 10
421.820368
 20
1779.871928
 30
0.0
 11
396.820368
 21
1779.871928
 31
0.0
  0
LINE
  5
1EA
330
1F
100
AcDbEntity
  8
002
 62
     3
370
    30
100
AcDbLine
 10
396.820368
 20
1779.871928
 30
0.0
 11
396.820368
 21
1822.871928
 31
0.0
  0
LINE
  5
1EB
330
1F
100
AcDbEntity
  8
002
 62
     3
370
    30
100
AcDbLine
 10
423.320368
 20
1822.871928
 30
0.0
 11
423.320368
 21
1828.871928
 31
0.0
  0
LINE
  5
1EC
330
1F
100
AcDbEntity
  8
002
 62
     3
370
    30
100
AcDbLine
 10
423.320368
 20
1824.871928
 30
0.0
 11
482.320368
 21
1824.871928
 31
0.0
  0
ARC
  5
1ED
330
1F
100
AcDbEntity
  8
002
 62
     3
370
    30
100
AcDbCircle
 10
482.320368
 20
1853.871928
 30
0.0
 40
29.0
100
AcDbArc
 50
270.0
 51
0.0
  0
LINE
  5
1EE
330
1F
100
AcDbEntity
  8
002
 62
     3
370
    30
100
AcDbLine
 10
511.320368
 20
1853.871928
 30
0.0
 11
511.320368
 21
2005.871928
 31
0.0
  0
ARC
  5
1EF
330
1F
100
AcDbEntity
  8
002
 62
     3
370
    30
100
AcDbCircle
 10
482.320368
 20
2005.871928
 30
0.0
 40
29.0
100
AcDbArc
 50
0.0
 51
90.0
  0
ARC
  5
1F0
330
1F
100
AcDbEntity
  8
002
 62
     3
370
    30
100
AcDbCircle
 10
434.320368
 20
1977.306928
 30
0.0
 40
23.99990220813419
100
AcDbArc
 50
0.0
 51
31.290479
  0
ARC
  5
1F1
330
1F
100
AcDbEntity
  8
002
 62
     3
370
    30
100
AcDbCircle
 10
463.320368
 20
1967.008928
 30
0.0
 40
4.999626586056174
100
AcDbArc
 50
180.0
 51
254.988119
  0
LINE
  5
1F2
330
1F
100
AcDbEntity
  8
002
 62
     3
370
    30
100
AcDbLine
 10
462.025368
 20
1962.179928
 30
0.0
 11
489.297368
 21
1954.871928
 31
0.0
  0
ARC
  5
1F3
330
1F
100
AcDbEntity
  8
002
 62
     3
370
    30
100
AcDbCircle
 10
460.074368
 20
1952.871928
 30
0.0
 40
2.0
100
AcDbArc
 50
90.0
 51
180.0
  0
ARC
  5
1F4
330
1F
100
AcDbEntity
  8
002
 62
     3
370
    30
100
AcDbCircle
 10
456.320368
 20
1902.871928
 30
0.0
 40
2.000306226556325
100
AcDbArc
 50
0.0
 51
52.127529
  0
ARC
  5
1F5
330
1F
100
AcDbEntity
  8
002
 62
     3
370
    30
100
AcDbCircle
 10
463.320368
 20
1892.734928
 30
0.0
 40
5.0
100
AcDbArc
 50
105.008914
 51
180.0
  0
LINE
  5
1F6
330
1F
100
AcDbEntity
  8
002
 62
     3
370
    30
100
AcDbLine
 10
462.025368
 20
1897.564928
 30
0.0
 11
489.297368
 21
1904.871928
 31
0.0
  0
CIRCLE
  5
1F7
330
1F
100
AcDbEntity
  8
002
 62
     3
370
    30
100
AcDbCircle
 10
481.320368
 20
1853.871928
 30
0.0
 40
25.0
  0
CIRCLE
  5
1F8
330
1F
100
AcDbEntity
  8
002
 62
     3
370
    30
100
AcDbCircle
 10
481.320368
 20
1853.871928
 30
0.0
 40
13.0
  0
LINE
  5
1F9
330
1F
100
AcDbEntity
  8
002
 62
     3
370
    30
100
AcDbLine
 10
449.317368
 20
1838.871928
 30
0.0
 11
449.317368
 21
1831.871928
 31
0.0
  0
ARC
  5
1FA
330
1F
100
AcDbEntity
  8
002
 62
     3
370
    30
100
AcDbCircle
 10
409.320368
 20
1817.871928
 30
0.0
 40
3.5
100
AcDbArc
 50
0.0
 51
180.0
  0
LINE
  5
1FB
330
1F
100
AcDbEntity
  8
002
 62
     3
370
    30
100
AcDbLine
 10
405.820368
 20
1817.871928
 30
0.0
 11
405.820368
 21
1779.871928
 31
0.0
  0
LINE
  5
1FC
330
1F
100
AcDbEntity
  8
002
 62
     3
370
    30
100
AcDbLine
 10
412.820368
 20
1779.871928
 30
0.0
 11
412.820368
 21
1817.871928
 31
0.0
  0
LINE
  5
1FD
330
1F
100
AcDbEntity
  8
002
 62
     3
370
    30
100
AcDbLine
 10
412.820368
 20
1814.871928
 30
0.0
 11
405.820368
 21
1814.871928
 31
0.0
  0
LINE
  5
1FE
330
1F
100
AcDbEntity
  8
002
 62
     3
370
    30
100
AcDbLine
 10
317.108368
 20
1838.856928
 30
0.0
 11
318.603368
 21
1844.432928
 31
0.0
  0
LINE
  5
1FF
330
1F
100
AcDbEntity
  8
002
 62
     3
370
    30
100
AcDbLine
 10
318.603368
 20
1844.432928
 30
0.0
 11
314.520368
 21
1848.515928
 31
0.0
  0
LINE
  5
200
330
1F
100
AcDbEntity
  8
002
 62
     3
370
    30
100
AcDbLine
 10
314.520368
 20
1848.515928
 30
0.0
 11
308.943368
 21
1847.021928
 31
0.0
  0
LINE
  5
201
330
1F
100
AcDbEntity
  8
002
 62
     3
370
    30
100
AcDbLine
 10
308.943368
 20
1847.021928
 30
0.0
 11
307.449368
 21
1841.444928
 31
0.0
  0
LINE
  5
202
330
1F
100
AcDbEntity
  8
002
 62
     3
370
    30
100
AcDbLine
 10
307.449368
 20
1841.444928
 30
0.0
 11
311.532368
 21
1837.361928
 31
0.0
  0
LINE
  5
203
330
1F
100
AcDbEntity
  8
002
 62
     3
370
    30
100
AcDbLine
 10
311.532368
 20
1837.361928
 30
0.0
 11
317.108368
 21
1838.856928
 31
0.0
  0
CIRCLE
  5
204
330
1F
100
AcDbEntity
  8
002
 62
     3
370
    30
100
AcDbCircle
 10
313.026368
 20
1842.938928
 30
0.0
 40
9.0
  0
LINE
  5
205
330
1F
100
AcDbEntity
  8
002
 62
     3
370
    30
100
AcDbLine
 10
278.257368
 20
1864.738928
 30
0.0
 11
274.174368
 21
1860.655928
 31
0.0
  0
LINE
  5
206
330
1F
100
AcDbEntity
  8
002
 62
     3
370
    30
100
AcDbLine
 10
274.174368
 20
1860.655928
 30
0.0
 11
268.597368
 21
1862.149928
 31
0.0
  0
LINE
  5
207
330
1F
100
AcDbEntity
  8
002
 62
     3
370
    30
100
AcDbLine
 10
268.597368
 20
1862.149928
 30
0.0
 11
267.103368
 21
1867.726928
 31
0.0
  0
LINE
  5
208
330
1F
100
AcDbEntity
  8
002
 62
     3
370
    30
100
AcDbLine
 10
267.103368
 20
1867.726928
 30
0.0
 11
271.186368
 21
1871.809928
 31
0.0
  0
LINE
  5
209
330
1F
100
AcDbEntity
  8
002
 62
     3
370
    30
100
AcDbLine
 10
271.186368
 20
1871.809928
 30
0.0
 11
276.762368
 21
1870.314928
 31
0.0
  0
LINE
  5
20A
330
1F
100
AcDbEntity
  8
002
 62
     3
370
    30
100
AcDbLine
 10
276.762368
 20
1870.314928
 30
0.0
 11
278.257368
 21
1864.738928
 31
0.0
  0
CIRCLE
  5
20B
330
1F
100
AcDbEntity
  8
002
 62
     3
370
    30
100
AcDbCircle
 10
272.680368
 20
1866.232928
 30
0.0
 40
9.0
  0
ARC
  5
20C
330
1F
100
AcDbEntity
  8
002
 62
     3
370
    30
100
AcDbCircle
 10
259.320368
 20
1853.871928
 30
0.0
 40
12.99908073672912
100
AcDbArc
 50
117.059784
 51
332.193012
  0
ARC
  5
20D
330
1F
100
AcDbEntity
  8
002
 62
     3
370
    30
100
AcDbCircle
 10
259.320368
 20
1853.871928
 30
0.0
 40
24.99926248912157
100
AcDbArc
 50
120.666222
 51
328.586188
  0
LINE
  5
20E
330
1F
100
AcDbEntity
  8
002
 62
     3
370
    30
100
AcDbLine
 10
254.963368
 20
1908.072928
 30
0.0
 11
250.881368
 21
1912.154928
 31
0.0
  0
LINE
  5
20F
330
1F
100
AcDbEntity
  8
002
 62
     3
370
    30
100
AcDbLine
 10
250.881368
 20
1912.154928
 30
0.0
 11
245.304368
 21
1910.660928
 31
0.0
  0
LINE
  5
210
330
1F
100
AcDbEntity
  8
002
 62
     3
370
    30
100
AcDbLine
 10
245.304368
 20
1910.660928
 30
0.0
 11
243.809368
 21
1905.083928
 31
0.0
  0
LINE
  5
211
330
1F
100
AcDbEntity
  8
002
 62
     3
370
    30
100
AcDbLine
 10
243.809368
 20
1905.083928
 30
0.0
 11
247.892368
 21
1901.001928
 31
0.0
  0
LINE
  5
212
330
1F
100
AcDbEntity
  8
002
 62
     3
370
    30
100
AcDbLine
 10
247.892368
 20
1901.001928
 30
0.0
 11
253.469368
 21
1902.495928
 31
0.0
  0
LINE
  5
213
330
1F
100
AcDbEntity
  8
002
 62
     3
370
    30
100
AcDbLine
 10
253.469368
 20
1902.495928
 30
0.0
 11
254.963368
 21
1908.072928
 31
0.0
  0
CIRCLE
  5
214
330
1F
100
AcDbEntity
  8
002
 62
     3
370
    30
100
AcDbCircle
 10
249.386368
 20
1906.578928
 30
0.0
 40
9.0
  0
LINE
  5
215
330
1F
100
AcDbEntity
  8
002
 62
     3
370
    30
100
AcDbLine
 10
250.881368
 20
1947.588928
 30
0.0
 11
245.304368
 21
1949.083928
 31
0.0
  0
LINE
  5
216
330
1F
100
AcDbEntity
  8
002
 62
     3
370
    30
100
AcDbLine
 10
245.304368
 20
1949.083928
 30
0.0
 11
243.809368
 21
1954.659928
 31
0.0
  0
LINE
  5
217
330
1F
100
AcDbEntity
  8
002
 62
     3
370
    30
100
AcDbLine
 10
243.809368
 20
1954.659928
 30
0.0
 11
247.892368
 21
1958.742928
 31
0.0
  0
LINE
  5
218
330
1F
100
AcDbEntity
  8
002
 62
     3
370
    30
100
AcDbLine
 10
247.892368
 20
1958.742928
 30
0.0
 11
253.469368
 21
1957.248928
 31
0.0
  0
LINE
  5
219
330
1F
100
AcDbEntity
  8
002
 62
     3
370
    30
100
AcDbLine
 10
253.469368
 20
1957.248928
 30
0.0
 11
254.963368
 21
1951.671928
 31
0.0
  0
LINE
  5
21A
330
1F
100
AcDbEntity
  8
002
 62
     3
370
    30
100
AcDbLine
 10
254.963368
 20
1951.671928
 30
0.0
 11
250.881368
 21
1947.588928
 31
0.0
  0
CIRCLE
  5
21B
330
1F
100
AcDbEntity
  8
002
 62
     3
370
    30
100
AcDbCircle
 10
249.386368
 20
1953.165928
 30
0.0
 40
9.0
  0
LINE
  5
21C
330
1F
100
AcDbEntity
  8
002
 62
     3
370
    30
100
AcDbLine
 10
271.186368
 20
1987.934928
 30
0.0
 11
267.103368
 21
1992.017928
 31
0.0
  0
LINE
  5
21D
330
1F
100
AcDbEntity
  8
002
 62
     3
370
    30
100
AcDbLine
 10
267.103368
 20
1992.017928
 30
0.0
 11
268.597368
 21
1997.594928
 31
0.0
  0
LINE
  5
21E
330
1F
100
AcDbEntity
  8
002
 62
     3
370
    30
100
AcDbLine
 10
268.597368
 20
1997.594928
 30
0.0
 11
274.174368
 21
1999.088928
 31
0.0
  0
LINE
  5
21F
330
1F
100
AcDbEntity
  8
002
 62
     3
370
    30
100
AcDbLine
 10
274.174368
 20
1999.088928
 30
0.0
 11
278.257368
 21
1995.005928
 31
0.0
  0
LINE
  5
220
330
1F
100
AcDbEntity
  8
002
 62
     3
370
    30
100
AcDbLine
 10
278.257368
 20
1995.005928
 30
0.0
 11
276.762368
 21
1989.429928
 31
0.0
  0
LINE
  5
221
330
1F
100
AcDbEntity
  8
002
 62
     3
370
    30
100
AcDbLine
 10
276.762368
 20
1989.429928
 30
0.0
 11
271.186368
 21
1987.934928
 31
0.0
  0
CIRCLE
  5
222
330
1F
100
AcDbEntity
  8
002
 62
     3
370
    30
100
AcDbCircle
 10
272.680368
 20
1993.511928
 30
0.0
 40
9.0
  0
ARC
  5
223
330
1F
100
AcDbEntity
  8
002
 62
     3
370
    30
100
AcDbCircle
 10
259.320368
 20
2005.871928
 30
0.0
 40
13.00008942276936
100
AcDbArc
 50
27.810887
 51
242.940216
  0
ARC
  5
224
330
1F
100
AcDbEntity
  8
002
 62
     3
370
    30
100
AcDbCircle
 10
259.320368
 20
2005.871928
 30
0.0
 40
25.00020033919738
100
AcDbArc
 50
31.415768
 51
239.333778
  0
LINE
  5
225
330
1F
100
AcDbEntity
  8
002
 62
     3
370
    30
100
AcDbLine
 10
308.943368
 20
2012.722928
 30
0.0
 11
307.449368
 21
2018.299928
 31
0.0
  0
LINE
  5
226
330
1F
100
AcDbEntity
  8
002
 62
     3
370
    30
100
AcDbLine
 10
307.449368
 20
2018.299928
 30
0.0
 11
311.532368
 21
2022.382928
 31
0.0
  0
LINE
  5
227
330
1F
100
AcDbEntity
  8
002
 62
     3
370
    30
100
AcDbLine
 10
311.532368
 20
2022.382928
 30
0.0
 11
317.108368
 21
2020.887928
 31
0.0
  0
LINE
  5
228
330
1F
100
AcDbEntity
  8
002
 62
     3
370
    30
100
AcDbLine
 10
317.108368
 20
2020.887928
 30
0.0
 11
318.603368
 21
2015.310928
 31
0.0
  0
LINE
  5
229
330
1F
100
AcDbEntity
  8
002
 62
     3
370
    30
100
AcDbLine
 10
318.603368
 20
2015.310928
 30
0.0
 11
314.520368
 21
2011.228928
 31
0.0
  0
LINE
  5
22A
330
1F
100
AcDbEntity
  8
002
 62
     3
370
    30
100
AcDbLine
 10
314.520368
 20
2011.228928
 30
0.0
 11
308.943368
 21
2012.722928
 31
0.0
  0
CIRCLE
  5
22B
330
1F
100
AcDbEntity
  8
002
 62
     3
370
    30
100
AcDbCircle
 10
313.026368
 20
2016.805928
 30
0.0
 40
9.0
  0
CIRCLE
  5
22C
330
1F
100
AcDbEntity
  8
002
 62
     3
370
    30
100
AcDbCircle
 10
336.320368
 20
1929.871928
 30
0.0
 40
105.0
  0
LINE
  5
22D
330
1F
100
AcDbEntity
  8
002
 62
     3
370
    30
100
AcDbLine
 10
355.531368
 20
2020.887928
 30
0.0
 11
354.037368
 21
2015.310928
 31
0.0
  0
LINE
  5
22E
330
1F
100
AcDbEntity
  8
002
 62
     3
370
    30
100
AcDbLine
 10
354.037368
 20
2015.310928
 30
0.0
 11
358.119368
 21
2011.228928
 31
0.0
  0
LINE
  5
22F
330
1F
100
AcDbEntity
  8
002
 62
     3
370
    30
100
AcDbLine
 10
358.119368
 20
2011.228928
 30
0.0
 11
363.696368
 21
2012.722928
 31
0.0
  0
LINE
  5
230
330
1F
100
AcDbEntity
  8
002
 62
     3
370
    30
100
AcDbLine
 10
363.696368
 20
2012.722928
 30
0.0
 11
365.190368
 21
2018.299928
 31
0.0
  0
LINE
  5
231
330
1F
100
AcDbEntity
  8
002
 62
     3
370
    30
100
AcDbLine
 10
365.190368
 20
2018.299928
 30
0.0
 11
361.108368
 21
2022.382928
 31
0.0
  0
LINE
  5
232
330
1F
100
AcDbEntity
  8
002
 62
     3
370
    30
100
AcDbLine
 10
361.108368
 20
2022.382928
 30
0.0
 11
355.531368
 21
2020.887928
 31
0.0
  0
CIRCLE
  5
233
330
1F
100
AcDbEntity
  8
002
 62
     3
370
    30
100
AcDbCircle
 10
359.613368
 20
2016.805928
 30
0.0
 40
9.0
  0
CIRCLE
  5
234
330
1F
100
AcDbEntity
  8
002
 62
     3
370
    30
100
AcDbCircle
 10
336.320368
 20
1929.871928
 30
0.0
 40
76.0
  0
CIRCLE
  5
235
330
1F
100
AcDbEntity
  8
002
 62
     3
370
    30
100
AcDbCircle
 10
336.320368
 20
1929.871928
 30
0.0
 40
31.5
  0
CIRCLE
  5
236
330
1F
100
AcDbEntity
  8
002
 62
     3
370
    30
100
AcDbCircle
 10
336.320368
 20
1929.871928
 30
0.0
 40
22.5
  0
LINE
  5
237
330
1F
100
AcDbEntity
  8
002
  6
CENTER
 62
    40
370
     9
100
AcDbLine
 10
526.024368
 20
1929.871928
 30
0.0
 11
216.127368
 21
1929.871928
 31
0.0
  0
LINE
  5
238
330
1F
100
AcDbEntity
  8
002
  6
CENTER
 62
    40
370
     9
100
AcDbLine
 10
481.320368
 20
1887.414928
 30
0.0
 11
481.320368
 21
1819.205928
 31
0.0
  0
LINE
  5
239
330
1F
100
AcDbEntity
  8
002
  6
CENTER
 62
    40
370
     9
100
AcDbLine
 10
449.413368
 20
1853.871928
 30
0.0
 11
517.622368
 21
1853.871928
 31
0.0
  0
LINE
  5
23A
330
1F
100
AcDbEntity
  8
002
  6
CENTER
 62
    40
370
     9
100
AcDbLine
 10
449.413368
 20
2005.871928
 30
0.0
 11
517.622368
 21
2005.871928
 31
0.0
  0
LINE
  5
23B
330
1F
100
AcDbEntity
  8
002
  6
CENTER
 62
    40
370
     9
100
AcDbLine
 10
481.320368
 20
1972.328928
 30
0.0
 11
481.320368
 21
2040.538928
 31
0.0
  0
LINE
  5
23C
330
1F
100
AcDbEntity
  8
002
  6
CENTER
 62
    40
370
     9
100
AcDbLine
 10
409.320368
 20
2085.344928
 30
0.0
 11
409.320368
 21
1775.997928
 31
0.0
  0
LINE
  5
23D
330
1F
100
AcDbEntity
  8
002
  6
CENTER
 62
    40
370
     9
100
AcDbLine
 10
433.759368
 20
1903.763928
 30
0.0
 11
413.826368
 21
1909.104928
 31
0.0
  0
LINE
  5
23E
330
1F
100
AcDbEntity
  8
002
  6
CENTER
 62
    40
370
     9
100
AcDbLine
 10
413.826368
 20
1950.639928
 30
0.0
 11
433.759368
 21
1955.980928
 31
0.0
  0
LINE
  5
23F
330
1F
100
AcDbEntity
  8
002
  6
CENTER
 62
    40
370
     9
100
AcDbLine
 10
393.058368
 20
1873.133928
 30
0.0
 11
407.650368
 21
1858.541928
 31
0.0
  0
LINE
  5
240
330
1F
100
AcDbEntity
  8
002
  6
CENTER
 62
    40
370
     9
100
AcDbLine
 10
393.058368
 20
1986.610928
 30
0.0
 11
407.650368
 21
2001.202928
 31
0.0
  0
LINE
  5
241
330
1F
100
AcDbEntity
  8
002
  6
CENTER
 62
    40
370
     9
100
AcDbLine
 10
357.087368
 20
2007.377928
 30
0.0
 11
362.428368
 21
2027.311928
 31
0.0
  0
LINE
  5
242
330
1F
100
AcDbEntity
  8
002
  6
CENTER
 62
    40
370
     9
100
AcDbLine
 10
362.428368
 20
1832.432928
 30
0.0
 11
357.087368
 21
1852.365928
 31
0.0
  0
CIRCLE
  5
243
330
1F
100
AcDbEntity
  8
002
  6
CENTER
 62
    40
370
     9
100
AcDbCircle
 10
336.320368
 20
1929.871928
 30
0.0
 40
90.0
  0
CIRCLE
  5
244
330
1F
100
AcDbEntity
  8
002
 62
    40
370
     9
100
AcDbCircle
 10
336.320368
 20
1929.871928
 30
0.0
 40
21.5
  0
LINE
  5
245
330
1F
100
AcDbEntity
  8
002
  6
CENTER
 62
    40
370
     9
100
AcDbLine
 10
336.320368
 20
2049.126928
 30
0.0
 11
336.320368
 21
1807.303928
 31
0.0
  0
LINE
  5
246
330
1F
100
AcDbEntity
  8
002
  6
CENTER
 62
    40
370
     9
100
AcDbLine
 10
310.211368
 20
2027.311928
 30
0.0
 11
315.552368
 21
2007.377928
 31
0.0
  0
LINE
  5
247
330
1F
100
AcDbEntity
  8
002
  6
CENTER
 62
    40
370
     9
100
AcDbLine
 10
279.581368
 20
1986.610928
 30
0.0
 11
264.989368
 21
2001.202928
 31
0.0
  0
LINE
  5
248
330
1F
100
AcDbEntity
  8
002
  6
CENTER
 62
    40
370
     9
100
AcDbLine
 10
238.880368
 20
1955.980928
 30
0.0
 11
258.814368
 21
1950.639928
 31
0.0
  0
LINE
  5
249
330
1F
100
AcDbEntity
  8
002
  6
CENTER
 62
    40
370
     9
100
AcDbLine
 10
238.880368
 20
1903.763928
 30
0.0
 11
258.814368
 21
1909.104928
 31
0.0
  0
LINE
  5
24A
330
1F
100
AcDbEntity
  8
002
  6
CENTER
 62
    40
370
     9
100
AcDbLine
 10
279.581368
 20
1873.133928
 30
0.0
 11
264.989368
 21
1858.541928
 31
0.0
  0
LINE
  5
24B
330
1F
100
AcDbEntity
  8
002
  6
CENTER
 62
    40
370
     9
100
AcDbLine
 10
273.279368
 20
1853.871928
 30
0.0
 11
226.887368
 21
1853.871928
 31
0.0
  0
LINE
  5
24C
330
1F
100
AcDbEntity
  8
002
  6
CENTER
 62
    40
370
     9
100
AcDbLine
 10
259.320368
 20
1866.463928
 30
0.0
 11
259.320368
 21
1818.928928
 31
0.0
  0
LINE
  5
24D
330
1F
100
AcDbEntity
  8
002
  6
CENTER
 62
    40
370
     9
100
AcDbLine
 10
273.279368
 20
2005.871928
 30
0.0
 11
226.887368
 21
2005.871928
 31
0.0
  0
LINE
  5
24E
330
1F
100
AcDbEntity
  8
002
  6
CENTER
 62
    40
370
     9
100
AcDbLine
 10
259.320368
 20
1993.280928
 30
0.0
 11
259.320368
 21
2040.815928
 31
0.0
  0
LINE
  5
24F
330
1F
100
AcDbEntity
  8
002
  6
CENTER
 62
    40
370
     9
100
AcDbLine
 10
310.211368
 20
1832.432928
 30
0.0
 11
315.552368
 21
1852.365928
 31
0.0
  0
LINE
  5
250
330
1F
100
AcDbEntity
  8
002
  6
CENTER
 62
    40
370
     9
100
AcDbLine
 10
409.320368
 20
1452.467928
 30
0.0
 11
409.320368
 21
1489.319928
 31
0.0
  0
LINE
  5
251
330
1F
100
AcDbEntity
  8
002
  6
CENTER
 62
    40
370
     9
100
AcDbLine
 10
391.877368
 20
1469.641928
 30
0.0
 11
428.543368
 21
1469.641928
 31
0.0
  0
LINE
  5
252
330
1F
100
AcDbEntity
  8
002
 62
     3
370
    30
100
AcDbLine
 10
413.320368
 20
1478.141928
 30
0.0
 11
405.320368
 21
1478.141928
 31
0.0
  0
LINE
  5
253
330
1F
100
AcDbEntity
  8
002
 62
     3
370
    30
100
AcDbLine
 10
405.320368
 20
1485.141928
 30
0.0
 11
413.320368
 21
1485.141928
 31
0.0
  0
LINE
  5
254
330
1F
100
AcDbEntity
  8
002
 62
     3
370
    30
100
AcDbLine
 10
413.320368
 20
1485.141928
 30
0.0
 11
413.320368
 21
1478.141928
 31
0.0
  0
LINE
  5
255
330
1F
100
AcDbEntity
  8
002
 62
     3
370
    30
100
AcDbLine
 10
405.320368
 20
1485.141928
 30
0.0
 11
405.320368
 21
1478.141928
 31
0.0
  0
ARC
  5
256
330
1F
100
AcDbEntity
  8
002
 62
     3
370
    30
100
AcDbCircle
 10
409.320368
 20
1469.641928
 30
0.0
 40
12.5
100
AcDbArc
 50
108.662925
 51
71.337075
  0
LINE
  5
257
330
1F
100
AcDbEntity
  8
002
 62
     3
370
    30
100
AcDbLine
 10
384.320368
 20
557.372228
 30
0.0
 11
384.320368
 21
709.371428
 31
0.0
  0
LINE
  5
258
330
1F
100
AcDbEntity
  8
002
 62
     3
370
    30
100
AcDbLine
 10
384.320368
 20
709.371428
 30
0.0
 11
288.320368
 21
709.371428
 31
0.0
  0
LINE
  5
259
330
1F
100
AcDbEntity
  8
002
 62
     3
370
    30
100
AcDbLine
 10
288.320368
 20
557.372228
 30
0.0
 11
288.320368
 21
709.371428
 31
0.0
  0
LINE
  5
25A
330
1F
100
AcDbEntity
  8
002
  6
PHANTOM
 62
    40
370
     9
100
AcDbLine
 10
374.820368
 20
1204.705298
 30
0.0
 11
374.820368
 21
1176.371928
 31
0.0
  0
LINE
  5
25B
330
1F
100
AcDbEntity
  8
002
  6
PHANTOM
 62
    40
370
     9
100
AcDbLine
 10
297.820368
 20
1176.371928
 30
0.0
 11
297.820368
 21
1204.705298
 31
0.0
  0
LINE
  5
25C
330
1F
100
AcDbEntity
  8
002
 62
     3
370
    30
100
AcDbLine
 10
359.562435
 20
1191.373928
 30
0.0
 11
313.078302
 21
1191.373928
 31
0.0
  0
LINE
  5
25D
330
1F
100
AcDbEntity
  8
002
 62
     3
370
    30
100
AcDbLine
 10
371.631368
 20
1200.857947
 30
0.0
 11
371.631368
 21
1198.122928
 31
0.0
  0
ARC
  5
25E
330
1F
100
AcDbEntity
  8
002
 62
     3
370
    30
100
AcDbCircle
 10
336.320368
 20
1233.371928
 30
0.0
 40
48.00026727753795
100
AcDbArc
 50
298.960532
 51
241.039468
  0
LINE
  5
25F
330
1F
100
AcDbEntity
  8
002
 62
     3
370
    30
100
AcDbLine
 10
301.010368
 20
1198.122928
 30
0.0
 11
301.010368
 21
1200.856861
 31
0.0
  0
LINE
  5
260
330
1F
100
AcDbEntity
  8
002
  6
CENTER
 62
    40
370
     9
100
AcDbLine
 10
256.259655
 20
1279.59614
 30
0.0
 11
283.539613
 21
1263.846036
 31
0.0
  0
LINE
  5
261
330
1F
100
AcDbEntity
  8
002
  6
CENTER
 62
    40
370
     9
100
AcDbLine
 10
418.085618
 20
1186.164969
 30
0.0
 11
390.402681
 21
1202.149078
 31
0.0
  0
LINE
  5
262
330
1F
100
AcDbEntity
  8
002
  6
PHANTOM
 62
    40
370
     9
100
AcDbLine
 10
369.820368
 20
1171.371928
 30
0.0
 11
302.820368
 21
1171.371928
 31
0.0
  0
LINE
  5
263
330
1F
100
AcDbEntity
  8
002
  6
CENTER
 62
    40
370
     9
100
AcDbLine
 10
283.105534
 20
1202.648973
 30
0.0
 11
255.390458
 21
1186.647836
 31
0.0
  0
ARC
  5
264
330
1F
100
AcDbEntity
  8
002
  6
PHANTOM
 62
    40
370
     9
100
AcDbCircle
 10
302.820368
 20
1176.371928
 30
0.0
 40
5.0
100
AcDbArc
 50
180.0
 51
270.0
  0
LINE
  5
265
330
1F
100
AcDbEntity
  8
002
  6
CENTER
 62
    40
370
     9
100
AcDbLine
 10
390.791511
 20
1264.820774
 30
0.0
 11
416.677389
 21
1279.766064
 31
0.0
  0
ARC
  5
266
330
1F
100
AcDbEntity
  8
002
  6
PHANTOM
 62
    40
370
     9
100
AcDbCircle
 10
369.820368
 20
1176.371928
 30
0.0
 40
5.0
100
AcDbArc
 50
270.0
 51
0.0
  0
ARC
  5
267
330
1F
100
AcDbEntity
  8
002
 62
     3
370
    30
100
AcDbCircle
 10
352.281368
 20
1198.122928
 30
0.0
 40
19.34990000000005
100
AcDbArc
 50
270.0
 51
0.0
  0
LINE
  5
268
330
1F
100
AcDbEntity
  8
002
 62
     3
370
    30
100
AcDbLine
 10
348.820868
 20
1178.773928
 30
0.0
 11
352.281368
 21
1178.773928
 31
0.0
  0
LINE
  5
269
330
1F
100
AcDbEntity
  8
002
 62
     3
370
    30
100
AcDbLine
 10
323.820868
 20
1178.773928
 30
0.0
 11
320.360368
 21
1178.773928
 31
0.0
  0
ARC
  5
26A
330
1F
100
AcDbEntity
  8
002
 62
     3
370
    30
100
AcDbCircle
 10
320.360368
 20
1198.122928
 30
0.0
 40
19.34999999999991
100
AcDbArc
 50
180.0
 51
270.0
  0
LINE
  5
26B
330
1F
100
AcDbEntity
  8
002
 62
     3
370
    30
100
AcDbLine
 10
323.820868
 20
1191.374928
 30
0.0
 11
323.820868
 21
1177.572928
 31
0.0
  0
LINE
  5
26C
330
1F
100
AcDbEntity
  8
002
 62
     3
370
    30
100
AcDbLine
 10
348.820868
 20
1190.173928
 30
0.0
 11
323.820868
 21
1190.173928
 31
0.0
  0
LINE
  5
26D
330
1F
100
AcDbEntity
  8
002
 62
     3
370
    30
100
AcDbLine
 10
348.820868
 20
1177.572928
 30
0.0
 11
348.820868
 21
1191.374928
 31
0.0
  0
LINE
  5
26E
330
1F
100
AcDbEntity
  8
002
 62
     3
370
    30
100
AcDbLine
 10
323.820868
 20
1177.572928
 30
0.0
 11
348.820868
 21
1177.572928
 31
0.0
  0
LINE
  5
26F
330
1F
100
AcDbEntity
  8
002
 62
     3
370
    30
100
AcDbLine
 10
337.186868
 20
1188.673928
 30
0.0
 11
336.320868
 21
1190.173928
 31
0.0
  0
LINE
  5
270
330
1F
100
AcDbEntity
  8
002
 62
     3
370
    30
100
AcDbLine
 10
335.454768
 20
1190.173928
 30
0.0
 11
336.320868
 21
1188.673928
 31
0.0
  0
LINE
  5
271
330
1F
100
AcDbEntity
  8
002
 62
     3
370
    30
100
AcDbLine
 10
330.220868
 20
1188.673928
 30
0.0
 11
342.420868
 21
1188.673928
 31
0.0
  0
LINE
  5
272
330
1F
100
AcDbEntity
  8
002
 62
     3
370
    30
100
AcDbLine
 10
330.220868
 20
1190.173928
 30
0.0
 11
330.220868
 21
1188.673928
 31
0.0
  0
LINE
  5
273
330
1F
100
AcDbEntity
  8
002
 62
     3
370
    30
100
AcDbLine
 10
342.420868
 20
1188.673928
 30
0.0
 11
342.420868
 21
1190.173928
 31
0.0
  0
LINE
  5
274
330
1F
100
AcDbEntity
  8
002
 62
     3
370
    30
100
AcDbLine
 10
341.570768
 20
1188.672928
 30
0.0
 11
341.419168
 21
1186.939928
 31
0.0
  0
ARC
  5
275
330
1F
100
AcDbEntity
  8
002
 62
     3
370
    30
100
AcDbCircle
 10
339.526368
 20
1187.105928
 30
0.0
 40
1.899965602320216
100
AcDbArc
 50
285.361712
 51
354.987677
  0
ARC
  5
276
330
1F
100
AcDbEntity
  8
002
 62
     3
370
    30
100
AcDbCircle
 10
336.320868
 20
1198.773928
 30
0.0
 40
14.00021211303599
100
AcDbArc
 50
274.297009
 51
285.362046
  0
LINE
  5
277
330
1F
100
AcDbEntity
  8
002
 62
     3
370
    30
100
AcDbLine
 10
336.820768
 20
1184.916928
 30
0.0
 11
337.369668
 21
1184.812928
 31
0.0
  0
ARC
  5
278
330
1F
100
AcDbEntity
  8
002
 62
     3
370
    30
100
AcDbCircle
 10
333.115268
 20
1187.105928
 30
0.0
 40
1.899877598689036
100
AcDbArc
 50
185.012323
 51
254.638288
  0
LINE
  5
279
330
1F
100
AcDbEntity
  8
002
 62
     3
370
    30
100
AcDbLine
 10
331.222568
 20
1186.939928
 30
0.0
 11
331.070868
 21
1188.672928
 31
0.0
  0
ARC
  5
27A
330
1F
100
AcDbEntity
  8
002
 62
     3
370
    30
100
AcDbCircle
 10
336.320868
 20
1198.773928
 30
0.0
 40
14.00035435265838
100
AcDbArc
 50
254.637954
 51
265.702991
  0
LINE
  5
27B
330
1F
100
AcDbEntity
  8
002
 62
     3
370
    30
100
AcDbLine
 10
335.820968
 20
1184.916928
 30
0.0
 11
335.271968
 21
1184.812928
 31
0.0
  0
LINE
  5
27C
330
1F
100
AcDbEntity
  8
002
 62
     3
370
    30
100
AcDbLine
 10
335.820868
 20
1185.097928
 30
0.0
 11
335.820868
 21
1184.916928
 31
0.0
  0
LINE
  5
27D
330
1F
100
AcDbEntity
  8
002
 62
     3
370
    30
100
AcDbLine
 10
335.820968
 20
1185.097928
 30
0.0
 11
336.820868
 21
1185.097928
 31
0.0
  0
LINE
  5
27E
330
1F
100
AcDbEntity
  8
002
 62
     3
370
    30
100
AcDbLine
 10
336.820868
 20
1185.097928
 30
0.0
 11
336.820868
 21
1184.916928
 31
0.0
  0
LINE
  5
27F
330
1F
100
AcDbEntity
  8
002
 62
     3
370
    30
100
AcDbLine
 10
229.320668
 20
180.371928
 30
0.0
 11
229.320668
 21
163.371928
 31
0.0
  0
LINE
  5
280
330
1F
100
AcDbEntity
  8
002
 62
     3
370
    30
100
AcDbLine
 10
229.320668
 20
163.371928
 30
0.0
 11
511.320368
 21
163.371928
 31
0.0
  0
LINE
  5
281
330
1F
100
AcDbEntity
  8
002
 62
     3
370
    30
100
AcDbLine
 10
511.320368
 20
163.371928
 30
0.0
 11
511.320368
 21
180.371928
 31
0.0
  0
ARC
  5
282
330
1F
100
AcDbEntity
  8
002
 62
     3
370
    30
100
AcDbCircle
 10
508.320368
 20
180.371928
 30
0.0
 40
3.0
100
AcDbArc
 50
0.0
 51
90.0
  0
LINE
  5
283
330
1F
100
AcDbEntity
  8
002
 62
     3
370
    30
100
AcDbLine
 10
508.320368
 20
183.371928
 30
0.0
 11
232.320668
 21
183.371928
 31
0.0
  0
ARC
  5
284
330
1F
100
AcDbEntity
  8
002
 62
     3
370
    30
100
AcDbCircle
 10
232.320668
 20
180.371928
 30
0.0
 40
3.0
100
AcDbArc
 50
90.0
 51
180.0
  0
ARC
  5
285
330
1F
100
AcDbEntity
  8
002
 62
     3
370
    30
100
AcDbCircle
 10
253.320668
 20
186.371928
 30
0.0
 40
3.0
100
AcDbArc
 50
270.0
 51
0.0
  0
LINE
  5
286
330
1F
100
AcDbEntity
  8
002
 62
     3
370
    30
100
AcDbLine
 10
256.320668
 20
186.371928
 30
0.0
 11
256.320668
 21
218.371928
 31
0.0
  0
ARC
  5
287
330
1F
100
AcDbEntity
  8
002
 62
     3
370
    30
100
AcDbCircle
 10
251.320668
 20
218.371928
 30
0.0
 40
5.0
100
AcDbArc
 50
0.0
 51
90.0
  0
LINE
  5
288
330
1F
100
AcDbEntity
  8
002
 62
     3
370
    30
100
AcDbLine
 10
251.320668
 20
223.371928
 30
0.0
 11
251.320668
 21
269.176228
 31
0.0
  0
ARC
  5
289
330
1F
100
AcDbEntity
  8
002
 62
     3
370
    30
100
AcDbCircle
 10
246.320668
 20
269.176228
 30
0.0
 40
5.000069689514357
100
AcDbArc
 50
0.0
 51
75.000157
  0
LINE
  5
28A
330
1F
100
AcDbEntity
  8
002
 62
     3
370
    30
100
AcDbLine
 10
247.614768
 20
274.005928
 30
0.0
 11
235.026568
 21
277.378928
 31
0.0
  0
LINE
  5
28B
330
1F
100
AcDbEntity
  8
002
 62
     3
370
    30
100
AcDbLine
 10
235.026568
 20
278.371928
 30
0.0
 11
364.420368
 21
278.371928
 31
0.0
  0
LINE
  5
28C
330
1F
100
AcDbEntity
  8
002
 62
     3
370
    30
100
AcDbLine
 10
361.270368
 20
273.012928
 30
0.0
 11
363.955368
 21
271.673128
 31
0.0
  0
LINE
  5
28D
330
1F
100
AcDbEntity
  8
002
 62
     3
370
    30
100
AcDbLine
 10
363.955368
 20
271.673128
 30
0.0
 11
260.327268
 21
271.673128
 31
0.0
  0
LINE
  5
28E
330
1F
100
AcDbEntity
  8
002
 62
     3
370
    30
100
AcDbLine
 10
260.327268
 20
268.012928
 30
0.0
 11
260.327268
 21
248.371928
 31
0.0
  0
LINE
  5
28F
330
1F
100
AcDbEntity
  8
002
 62
     3
370
    30
100
AcDbLine
 10
251.320668
 20
231.703828
 30
0.0
 11
243.320668
 21
231.453828
 31
0.0
  0
LINE
  5
290
330
1F
100
AcDbEntity
  8
002
 62
     3
370
    30
100
AcDbLine
 10
243.320668
 20
231.453828
 30
0.0
 11
243.320668
 21
265.289928
 31
0.0
  0
LINE
  5
291
330
1F
100
AcDbEntity
  8
002
 62
     3
370
    30
100
AcDbLine
 10
243.320668
 20
265.289928
 30
0.0
 11
251.320668
 21
265.039928
 31
0.0
  0
LINE
  5
292
330
1F
100
AcDbEntity
  8
002
 62
     3
370
    30
100
AcDbLine
 10
251.320668
 20
273.012928
 30
0.0
 11
255.327268
 21
273.012928
 31
0.0
  0
ARC
  5
293
330
1F
100
AcDbEntity
  8
002
 62
     3
370
    30
100
AcDbCircle
 10
255.327268
 20
268.012928
 30
0.0
 40
4.999914375266868
100
AcDbArc
 50
0.0
 51
65.701717
  0
LINE
  5
294
330
1F
100
AcDbEntity
  8
002
 62
     3
370
    30
100
AcDbLine
 10
272.158668
 20
271.673128
 30
0.0
 11
272.158668
 21
183.371928
 31
0.0
  0
LINE
  5
295
330
1F
100
AcDbEntity
  8
002
 62
     3
370
    30
100
AcDbLine
 10
287.702368
 20
183.371928
 30
0.0
 11
287.702368
 21
271.673128
 31
0.0
  0
LINE
  5
296
330
1F
100
AcDbEntity
  8
002
 62
     3
370
    30
100
AcDbLine
 10
243.320668
 20
257.871928
 30
0.0
 11
231.320668
 21
257.371928
 31
0.0
  0
LINE
  5
297
330
1F
100
AcDbEntity
  8
002
 62
     3
370
    30
100
AcDbLine
 10
231.320668
 20
257.371928
 30
0.0
 11
231.320668
 21
239.371928
 31
0.0
  0
LINE
  5
298
330
1F
100
AcDbEntity
  8
002
 62
     3
370
    30
100
AcDbLine
 10
231.320668
 20
239.371928
 30
0.0
 11
243.320668
 21
238.871928
 31
0.0
  0
ARC
  5
299
330
1F
100
AcDbEntity
  8
002
 62
     3
370
    30
100
AcDbCircle
 10
60.652368
 20
259.771428
 30
0.0
 40
200.0000357256468
100
AcDbArc
 50
348.053544
 51
356.732514
  0
LINE
  5
29A
330
1F
100
AcDbEntity
  8
002
 62
     3
370
    30
100
AcDbLine
 10
231.320668
 20
282.208528
 30
0.0
 11
231.320668
 21
322.371928
 31
0.0
  0
LINE
  5
29B
330
1F
100
AcDbEntity
  8
002
 62
     3
370
    30
100
AcDbLine
 10
231.320668
 20
322.371928
 30
0.0
 11
441.320368
 21
322.371928
 31
0.0
  0
LINE
  5
29C
330
1F
100
AcDbEntity
  8
002
 62
     3
370
    30
100
AcDbLine
 10
441.320368
 20
322.371928
 30
0.0
 11
441.320368
 21
290.407628
 31
0.0
  0
ARC
  5
29D
330
1F
100
AcDbEntity
  8
002
 62
     3
370
    30
100
AcDbCircle
 10
446.320368
 20
290.407628
 30
0.0
 40
4.999631910450926
100
AcDbArc
 50
180.0
 51
228.65064
  0
LINE
  5
29E
330
1F
100
AcDbEntity
  8
002
 62
     3
370
    30
100
AcDbLine
 10
449.320368
 20
280.010428
 30
0.0
 11
449.320368
 21
216.733328
 31
0.0
  0
ARC
  5
29F
330
1F
100
AcDbEntity
  8
002
 62
     3
370
    30
100
AcDbCircle
 10
435.320368
 20
223.472128
 30
0.0
 40
15.0
100
AcDbArc
 50
338.769945
 51
0.0
  0
CIRCLE
  5
2A0
330
1F
100
AcDbEntity
  8
002
 62
     3
370
    30
100
AcDbCircle
 10
409.320368
 20
248.371928
 30
0.0
 40
29.0
  0
LINE
  5
2A1
330
1F
100
AcDbEntity
  8
002
 62
     3
370
    30
100
AcDbLine
 10
458.320368
 20
259.326328
 30
0.0
 11
458.320368
 21
186.371928
 31
0.0
  0
ARC
  5
2A2
330
1F
100
AcDbEntity
  8
002
 62
     3
370
    30
100
AcDbCircle
 10
461.320368
 20
186.371928
 30
0.0
 40
3.0
100
AcDbArc
 50
180.0
 51
270.0
  0
LINE
  5
2A3
330
1F
100
AcDbEntity
  8
002
 62
     3
370
    30
100
AcDbLine
 10
450.320368
 20
186.371928
 30
0.0
 11
450.320368
 21
271.175428
 31
0.0
  0
ARC
  5
2A4
330
1F
100
AcDbEntity
  8
002
 62
     3
370
    30
100
AcDbCircle
 10
430.320368
 20
271.175428
 30
0.0
 40
20.00000062499999
100
AcDbArc
 50
0.0
 51
18.194878
  0
ARC
  5
2A5
330
1F
100
AcDbEntity
  8
002
 62
     3
370
    30
100
AcDbCircle
 10
457.173368
 20
271.156228
 30
0.0
 40
2.0
100
AcDbArc
 50
205.458173
 51
270.0
  0
LINE
  5
2A6
330
1F
100
AcDbEntity
  8
002
 62
     3
370
    30
100
AcDbLine
 10
457.173368
 20
269.156228
 30
0.0
 11
458.075368
 21
269.156228
 31
0.0
  0
LINE
  5
2A7
330
1F
100
AcDbEntity
  8
002
 62
     3
370
    30
100
AcDbLine
 10
458.075368
 20
269.156228
 30
0.0
 11
488.100368
 21
186.661828
 31
0.0
  0
ARC
  5
2A8
330
1F
100
AcDbEntity
  8
002
 62
     3
370
    30
100
AcDbCircle
 10
492.799368
 20
188.371928
 30
0.0
 40
5.0
100
AcDbArc
 50
199.997888
 51
270.0
  0
ARC
  5
2A9
330
1F
100
AcDbEntity
  8
002
 62
     3
370
    30
100
AcDbCircle
 10
453.320368
 20
186.371928
 30
0.0
 40
3.0
100
AcDbArc
 50
180.0
 51
270.0
  0
LINE
  5
2AA
330
1F
100
AcDbEntity
  8
002
 62
     3
370
    30
100
AcDbLine
 10
358.320368
 20
248.371928
 30
0.0
 11
358.320368
 21
186.371928
 31
0.0
  0
ARC
  5
2AB
330
1F
100
AcDbEntity
  8
002
 62
     3
370
    30
100
AcDbCircle
 10
355.320368
 20
186.371928
 30
0.0
 40
3.0
100
AcDbArc
 50
270.0
 51
0.0
  0
LINE
  5
2AC
330
1F
100
AcDbEntity
  8
002
 62
     3
370
    30
100
AcDbLine
 10
367.211368
 20
147.371928
 30
0.0
 11
367.211368
 21
157.371928
 31
0.0
  0
LINE
  5
2AD
330
1F
100
AcDbEntity
  8
002
 62
     3
370
    30
100
AcDbLine
 10
383.211368
 20
147.371928
 30
0.0
 11
367.211368
 21
147.371928
 31
0.0
  0
LINE
  5
2AE
330
1F
100
AcDbEntity
  8
002
 62
     3
370
    30
100
AcDbLine
 10
380.870368
 20
147.371928
 30
0.0
 11
380.870368
 21
98.371928
 31
0.0
  0
LINE
  5
2AF
330
1F
100
AcDbEntity
  8
002
 62
     3
370
    30
100
AcDbLine
 10
380.870368
 20
98.371928
 30
0.0
 11
291.770368
 21
98.371928
 31
0.0
  0
LINE
  5
2B0
330
1F
100
AcDbEntity
  8
002
 62
     3
370
    30
100
AcDbLine
 10
291.770368
 20
98.371928
 30
0.0
 11
291.770368
 21
147.371928
 31
0.0
  0
LINE
  5
2B1
330
1F
100
AcDbEntity
  8
002
 62
     3
370
    30
100
AcDbLine
 10
305.429368
 20
147.371928
 30
0.0
 11
305.429368
 21
157.371928
 31
0.0
  0
LINE
  5
2B2
330
1F
100
AcDbEntity
  8
002
 62
     3
370
    30
100
AcDbLine
 10
305.429368
 20
147.371928
 30
0.0
 11
289.429368
 21
147.371928
 31
0.0
  0
LINE
  5
2B3
330
1F
100
AcDbEntity
  8
002
 62
     3
370
    30
100
AcDbLine
 10
289.429368
 20
147.371928
 30
0.0
 11
289.429368
 21
157.371928
 31
0.0
  0
LINE
  5
2B4
330
1F
100
AcDbEntity
  8
002
 62
     3
370
    30
100
AcDbLine
 10
269.320668
 20
157.371928
 30
0.0
 11
403.320368
 21
157.371928
 31
0.0
  0
LINE
  5
2B5
330
1F
100
AcDbEntity
  8
002
 62
     3
370
    30
100
AcDbLine
 10
403.320368
 20
157.371928
 30
0.0
 11
403.320368
 21
163.371928
 31
0.0
  0
LINE
  5
2B6
330
1F
100
AcDbEntity
  8
002
 62
     3
370
    30
100
AcDbLine
 10
383.211368
 20
147.371928
 30
0.0
 11
383.211368
 21
157.371928
 31
0.0
  0
LINE
  5
2B7
330
1F
100
AcDbEntity
  8
002
 62
     3
370
    30
100
AcDbLine
 10
339.207368
 20
243.371928
 30
0.0
 11
342.094368
 21
248.371928
 31
0.0
  0
LINE
  5
2B8
330
1F
100
AcDbEntity
  8
002
 62
     3
370
    30
100
AcDbLine
 10
342.094368
 20
248.371928
 30
0.0
 11
339.207368
 21
253.371928
 31
0.0
  0
LINE
  5
2B9
330
1F
100
AcDbEntity
  8
002
 62
     3
370
    30
100
AcDbLine
 10
339.207368
 20
253.371928
 30
0.0
 11
333.434368
 21
253.371928
 31
0.0
  0
LINE
  5
2BA
330
1F
100
AcDbEntity
  8
002
 62
     3
370
    30
100
AcDbLine
 10
333.434368
 20
253.371928
 30
0.0
 11
330.547368
 21
248.371928
 31
0.0
  0
LINE
  5
2BB
330
1F
100
AcDbEntity
  8
002
 62
     3
370
    30
100
AcDbLine
 10
330.547368
 20
248.371928
 30
0.0
 11
333.434368
 21
243.371928
 31
0.0
  0
LINE
  5
2BC
330
1F
100
AcDbEntity
  8
002
 62
     3
370
    30
100
AcDbLine
 10
333.434368
 20
243.371928
 30
0.0
 11
339.207368
 21
243.371928
 31
0.0
  0
CIRCLE
  5
2BD
330
1F
100
AcDbEntity
  8
002
 62
     3
370
    30
100
AcDbCircle
 10
336.320368
 20
248.371928
 30
0.0
 40
3.25
  0
CIRCLE
  5
2BE
330
1F
100
AcDbEntity
  8
002
 62
     3
370
    30
100
AcDbCircle
 10
336.320368
 20
248.371928
 30
0.0
 40
2.5
  0
CIRCLE
  5
2BF
330
1F
100
AcDbEntity
  8
002
 62
     3
370
    30
100
AcDbCircle
 10
336.320368
 20
248.371928
 30
0.0
 40
0.75
  0
CIRCLE
  5
2C0
330
1F
100
AcDbEntity
  8
002
 62
     3
370
    30
100
AcDbCircle
 10
336.320368
 20
248.371928
 30
0.0
 40
5.0
  0
CIRCLE
  5
2C1
330
1F
100
AcDbEntity
  8
002
 62
     3
370
    30
100
AcDbCircle
 10
336.320368
 20
248.371928
 30
0.0
 40
10.0
  0
LINE
  5
2C2
330
1F
100
AcDbEntity
  8
002
 62
     3
370
    30
100
AcDbLine
 10
388.703368
 20
295.018928
 30
0.0
 11
388.703368
 21
298.281328
 31
0.0
  0
ARC
  5
2C3
330
1F
100
AcDbEntity
  8
002
 62
     3
370
    30
100
AcDbCircle
 10
409.320368
 20
248.371928
 30
0.0
 40
53.9998276015766
100
AcDbArc
 50
112.444958
 51
152.850343
  0
LINE
  5
2C4
330
1F
100
AcDbEntity
  8
002
 62
     3
370
    30
100
AcDbLine
 10
441.320368
 20
308.371928
 30
0.0
 11
231.320668
 21
308.371928
 31
0.0
  0
LINE
  5
2C5
330
1F
100
AcDbEntity
  8
002
 62
     3
370
    30
100
AcDbLine
 10
240.387268
 20
322.371928
 30
0.0
 11
240.387268
 21
334.371928
 31
0.0
  0
LINE
  5
2C6
330
1F
100
AcDbEntity
  8
002
 62
     3
370
    30
100
AcDbLine
 10
258.387268
 20
334.371928
 30
0.0
 11
258.387268
 21
322.371928
 31
0.0
  0
LINE
  5
2C7
330
1F
100
AcDbEntity
  8
002
 62
     3
370
    30
100
AcDbLine
 10
260.320668
 20
322.371928
 30
0.0
 11
260.320668
 21
323.371928
 31
0.0
  0
LINE
  5
2C8
330
1F
100
AcDbEntity
  8
002
 62
     3
370
    30
100
AcDbLine
 10
260.320668
 20
323.371928
 30
0.0
 11
263.681068
 21
323.371928
 31
0.0
  0
LINE
  5
2C9
330
1F
100
AcDbEntity
  8
002
 62
     3
370
    30
100
AcDbLine
 10
263.681068
 20
322.371928
 30
0.0
 11
263.681068
 21
334.371928
 31
0.0
  0
LINE
  5
2CA
330
1F
100
AcDbEntity
  8
002
 62
     3
370
    30
100
AcDbLine
 10
281.681368
 20
334.371928
 30
0.0
 11
263.681068
 21
334.371928
 31
0.0
  0
LINE
  5
2CB
330
1F
100
AcDbEntity
  8
002
 62
     3
370
    30
100
AcDbLine
 10
258.387268
 20
334.371928
 30
0.0
 11
240.387268
 21
334.371928
 31
0.0
  0
LINE
  5
2CC
330
1F
100
AcDbEntity
  8
002
 62
     3
370
    30
100
AcDbLine
 10
269.320668
 20
334.371928
 30
0.0
 11
269.320668
 21
338.371928
 31
0.0
  0
LINE
  5
2CD
330
1F
100
AcDbEntity
  8
002
 62
     3
370
    30
100
AcDbLine
 10
269.320668
 20
338.371928
 30
0.0
 11
403.320368
 21
338.371928
 31
0.0
  0
LINE
  5
2CE
330
1F
100
AcDbEntity
  8
002
 62
     3
370
    30
100
AcDbLine
 10
403.320368
 20
338.371928
 30
0.0
 11
403.320368
 21
334.371928
 31
0.0
  0
LINE
  5
2CF
330
1F
100
AcDbEntity
  8
002
 62
     3
370
    30
100
AcDbLine
 10
390.960368
 20
334.371928
 30
0.0
 11
390.960368
 21
322.371928
 31
0.0
  0
LINE
  5
2D0
330
1F
100
AcDbEntity
  8
002
 62
     3
370
    30
100
AcDbLine
 10
390.960368
 20
323.371928
 30
0.0
 11
368.614368
 21
323.371928
 31
0.0
  0
LINE
  5
2D1
330
1F
100
AcDbEntity
  8
002
 62
     3
370
    30
100
AcDbLine
 10
368.614368
 20
322.371928
 30
0.0
 11
368.614368
 21
334.371928
 31
0.0
  0
LINE
  5
2D2
330
1F
100
AcDbEntity
  8
002
 62
     3
370
    30
100
AcDbLine
 10
350.614368
 20
334.371928
 30
0.0
 11
368.614368
 21
334.371928
 31
0.0
  0
LINE
  5
2D3
330
1F
100
AcDbEntity
  8
002
 62
     3
370
    30
100
AcDbLine
 10
371.320368
 20
338.371928
 30
0.0
 11
371.320368
 21
351.371928
 31
0.0
  0
LINE
  5
2D4
330
1F
100
AcDbEntity
  8
002
 62
     3
370
    30
100
AcDbLine
 10
371.320368
 20
351.371928
 30
0.0
 11
301.320368
 21
351.371928
 31
0.0
  0
LINE
  5
2D5
330
1F
100
AcDbEntity
  8
002
 62
     3
370
    30
100
AcDbLine
 10
301.320368
 20
351.371928
 30
0.0
 11
301.320368
 21
338.371928
 31
0.0
  0
LINE
  5
2D6
330
1F
100
AcDbEntity
  8
002
 62
     3
370
    30
100
AcDbLine
 10
322.027368
 20
334.371928
 30
0.0
 11
322.027368
 21
322.371928
 31
0.0
  0
LINE
  5
2D7
330
1F
100
AcDbEntity
  8
002
 62
     3
370
    30
100
AcDbLine
 10
322.027368
 20
323.371928
 30
0.0
 11
350.614368
 21
323.371928
 31
0.0
  0
LINE
  5
2D8
330
1F
100
AcDbEntity
  8
002
 62
     3
370
    30
100
AcDbLine
 10
350.614368
 20
322.371928
 30
0.0
 11
350.614368
 21
334.371928
 31
0.0
  0
LINE
  5
2D9
330
1F
100
AcDbEntity
  8
002
 62
     3
370
    30
100
AcDbLine
 10
357.415368
 20
557.371628
 30
0.0
 11
357.415368
 21
571.265028
 31
0.0
  0
LINE
  5
2DA
330
1F
100
AcDbEntity
  8
002
 62
     3
370
    30
100
AcDbLine
 10
360.751368
 20
567.916528
 30
0.0
 11
348.820368
 21
579.894328
 31
0.0
  0
LINE
  5
2DB
330
1F
100
AcDbEntity
  8
002
 62
     3
370
    30
100
AcDbLine
 10
348.820368
 20
578.181728
 30
0.0
 11
323.820368
 21
603.298328
 31
0.0
  0
LINE
  5
2DC
330
1F
100
AcDbEntity
  8
002
 62
     3
370
    30
100
AcDbLine
 10
323.820368
 20
604.994028
 30
0.0
 11
302.917368
 21
625.980528
 31
0.0
  0
ARC
  5
2DD
330
1F
100
AcDbEntity
  8
002
 62
     3
370
    30
100
AcDbCircle
 10
307.426368
 20
630.380028
 30
0.0
 40
6.299766234551814
100
AcDbArc
 50
44.884251
 51
225.481693
  0
LINE
  5
2DE
330
1F
100
AcDbEntity
  8
002
 62
     3
370
    30
100
AcDbLine
 10
311.890368
 20
634.826228
 30
0.0
 11
323.820368
 21
622.848328
 31
0.0
  0
LINE
  5
2DF
330
1F
100
AcDbEntity
  8
002
 62
     3
370
    30
100
AcDbLine
 10
323.820368
 20
624.561028
 30
0.0
 11
348.820368
 21
599.444428
 31
0.0
  0
LINE
  5
2E0
330
1F
100
AcDbEntity
  8
002
 62
     3
370
    30
100
AcDbLine
 10
348.820368
 20
597.748628
 30
0.0
 11
369.724368
 21
576.762228
 31
0.0
  0
ARC
  5
2E1
330
1F
100
AcDbEntity
  8
002
 62
     3
370
    30
100
AcDbCircle
 10
365.215368
 20
572.362728
 30
0.0
 40
6.299766234551974
100
AcDbArc
 50
224.884251
 51
45.481693
  0
LINE
  5
2E2
330
1F
100
AcDbEntity
  8
002
 62
     3
370
    30
100
AcDbLine
 10
357.415368
 20
589.059328
 30
0.0
 11
357.415368
 21
635.265428
 31
0.0
  0
ARC
  5
2E3
330
1F
100
AcDbEntity
  8
002
 62
     3
370
    30
100
AcDbCircle
 10
365.215368
 20
636.362928
 30
0.0
 40
6.299766234552055
100
AcDbArc
 50
224.883607
 51
45.481693
  0
LINE
  5
2E4
330
1F
100
AcDbEntity
  8
002
 62
     3
370
    30
100
AcDbLine
 10
369.724368
 20
640.762428
 30
0.0
 11
348.820368
 21
661.748928
 31
0.0
  0
LINE
  5
2E5
330
1F
100
AcDbEntity
  8
002
 62
     3
370
    30
100
AcDbLine
 10
348.820368
 20
663.444728
 30
0.0
 11
323.820368
 21
688.561228
 31
0.0
  0
LINE
  5
2E6
330
1F
100
AcDbEntity
  8
002
 62
     3
370
    30
100
AcDbLine
 10
323.820368
 20
686.848628
 30
0.0
 11
311.890368
 21
698.826428
 31
0.0
  0
ARC
  5
2E7
330
1F
100
AcDbEntity
  8
002
 62
     3
370
    30
100
AcDbCircle
 10
307.426368
 20
694.380328
 30
0.0
 40
6.299766234551814
100
AcDbArc
 50
44.884251
 51
225.481693
  0
LINE
  5
2E8
330
1F
100
AcDbEntity
  8
002
 62
     3
370
    30
100
AcDbLine
 10
302.917368
 20
689.980628
 30
0.0
 11
323.820368
 21
668.994228
 31
0.0
  0
LINE
  5
2E9
330
1F
100
AcDbEntity
  8
002
 62
     3
370
    30
100
AcDbLine
 10
323.820368
 20
667.298528
 30
0.0
 11
348.820368
 21
642.181928
 31
0.0
  0
LINE
  5
2EA
330
1F
100
AcDbEntity
  8
002
 62
     3
370
    30
100
AcDbLine
 10
348.820368
 20
643.894528
 30
0.0
 11
360.751368
 21
631.916728
 31
0.0
  0
CIRCLE
  5
2EB
330
1F
100
AcDbEntity
  8
002
 62
     3
370
    30
100
AcDbCircle
 10
336.320368
 20
633.371528
 30
0.0
 40
5.249999
  0
LINE
  5
2EC
330
1F
100
AcDbEntity
  8
002
 62
     3
370
    30
100
AcDbLine
 10
339.320368
 20
633.871528
 30
0.0
 11
339.320368
 21
632.871528
 31
0.0
  0
LINE
  5
2ED
330
1F
100
AcDbEntity
  8
002
 62
     3
370
    30
100
AcDbLine
 10
339.320368
 20
632.871528
 30
0.0
 11
338.320368
 21
632.871528
 31
0.0
  0
LINE
  5
2EE
330
1F
100
AcDbEntity
  8
002
 62
     3
370
    30
100
AcDbLine
 10
338.320368
 20
632.871528
 30
0.0
 11
337.369368
 21
632.322428
 31
0.0
  0
LINE
  5
2EF
330
1F
100
AcDbEntity
  8
002
 62
     3
370
    30
100
AcDbLine
 10
337.369368
 20
632.322428
 30
0.0
 11
336.820368
 21
631.371528
 31
0.0
  0
LINE
  5
2F0
330
1F
100
AcDbEntity
  8
002
 62
     3
370
    30
100
AcDbLine
 10
336.820368
 20
631.371528
 30
0.0
 11
336.820368
 21
630.371528
 31
0.0
  0
LINE
  5
2F1
330
1F
100
AcDbEntity
  8
002
 62
     3
370
    30
100
AcDbLine
 10
336.820368
 20
630.371528
 30
0.0
 11
335.820368
 21
630.371528
 31
0.0
  0
LINE
  5
2F2
330
1F
100
AcDbEntity
  8
002
 62
     3
370
    30
100
AcDbLine
 10
335.820368
 20
630.371528
 30
0.0
 11
335.820368
 21
631.371528
 31
0.0
  0
LINE
  5
2F3
330
1F
100
AcDbEntity
  8
002
 62
     3
370
    30
100
AcDbLine
 10
335.820368
 20
631.371528
 30
0.0
 11
335.271368
 21
632.322428
 31
0.0
  0
LINE
  5
2F4
330
1F
100
AcDbEntity
  8
002
 62
     3
370
    30
100
AcDbLine
 10
335.271368
 20
632.322428
 30
0.0
 11
334.320368
 21
632.871528
 31
0.0
  0
LINE
  5
2F5
330
1F
100
AcDbEntity
  8
002
 62
     3
370
    30
100
AcDbLine
 10
334.320368
 20
632.871528
 30
0.0
 11
333.320368
 21
632.871528
 31
0.0
  0
LINE
  5
2F6
330
1F
100
AcDbEntity
  8
002
 62
     3
370
    30
100
AcDbLine
 10
333.320368
 20
632.871528
 30
0.0
 11
333.320368
 21
633.871528
 31
0.0
  0
LINE
  5
2F7
330
1F
100
AcDbEntity
  8
002
 62
     3
370
    30
100
AcDbLine
 10
333.320368
 20
633.871528
 30
0.0
 11
334.320368
 21
633.871528
 31
0.0
  0
LINE
  5
2F8
330
1F
100
AcDbEntity
  8
002
 62
     3
370
    30
100
AcDbLine
 10
334.320368
 20
633.871528
 30
0.0
 11
335.271368
 21
634.420528
 31
0.0
  0
LINE
  5
2F9
330
1F
100
AcDbEntity
  8
002
 62
     3
370
    30
100
AcDbLine
 10
335.271368
 20
634.420528
 30
0.0
 11
335.820368
 21
635.371528
 31
0.0
  0
LINE
  5
2FA
330
1F
100
AcDbEntity
  8
002
 62
     3
370
    30
100
AcDbLine
 10
335.820368
 20
635.371528
 30
0.0
 11
335.820368
 21
636.371528
 31
0.0
  0
LINE
  5
2FB
330
1F
100
AcDbEntity
  8
002
 62
     3
370
    30
100
AcDbLine
 10
335.820368
 20
636.371528
 30
0.0
 11
336.820368
 21
636.371528
 31
0.0
  0
LINE
  5
2FC
330
1F
100
AcDbEntity
  8
002
 62
     3
370
    30
100
AcDbLine
 10
336.820368
 20
636.371528
 30
0.0
 11
336.820368
 21
635.371528
 31
0.0
  0
LINE
  5
2FD
330
1F
100
AcDbEntity
  8
002
 62
     3
370
    30
100
AcDbLine
 10
336.820368
 20
635.371528
 30
0.0
 11
337.369368
 21
634.420528
 31
0.0
  0
LINE
  5
2FE
330
1F
100
AcDbEntity
  8
002
 62
     3
370
    30
100
AcDbLine
 10
337.369368
 20
634.420528
 30
0.0
 11
338.320368
 21
633.871528
 31
0.0
  0
LINE
  5
2FF
330
1F
100
AcDbEntity
  8
002
 62
     3
370
    30
100
AcDbLine
 10
338.320368
 20
633.871528
 30
0.0
 11
339.320368
 21
633.871528
 31
0.0
  0
LINE
  5
300
330
1F
100
AcDbEntity
  8
002
 62
     3
370
    30
100
AcDbLine
 10
315.225368
 20
631.330128
 30
0.0
 11
315.225368
 21
677.683728
 31
0.0
  0
LINE
  5
301
330
1F
100
AcDbEntity
  8
002
 62
     3
370
    30
100
AcDbLine
 10
315.225368
 20
695.465528
 30
0.0
 11
315.225368
 21
708.371428
 31
0.0
  0
LINE
  5
302
330
1F
100
AcDbEntity
  8
002
 62
     3
370
    30
100
AcDbLine
 10
315.226368
 20
708.371828
 30
0.0
 11
315.803368
 21
709.371428
 31
0.0
  0
LINE
  5
303
330
1F
100
AcDbEntity
  8
002
 62
     3
370
    30
100
AcDbLine
 10
323.820368
 20
704.371528
 30
0.0
 11
323.820368
 21
562.371228
 31
0.0
  0
ARC
  5
304
330
1F
100
AcDbEntity
  8
002
 62
     3
370
    30
100
AcDbCircle
 10
325.820368
 20
562.371528
 30
0.0
 40
2.0
100
AcDbArc
 50
180.0
 51
270.0
  0
LINE
  5
305
330
1F
100
AcDbEntity
  8
002
 62
     3
370
    30
100
AcDbLine
 10
325.820368
 20
560.371528
 30
0.0
 11
346.820368
 21
560.371528
 31
0.0
  0
ARC
  5
306
330
1F
100
AcDbEntity
  8
002
 62
     3
370
    30
100
AcDbCircle
 10
346.820368
 20
562.371528
 30
0.0
 40
2.0
100
AcDbArc
 50
270.0
 51
0.0
  0
LINE
  5
307
330
1F
100
AcDbEntity
  8
002
 62
     3
370
    30
100
AcDbLine
 10
348.820368
 20
562.371528
 30
0.0
 11
348.820368
 21
704.371728
 31
0.0
  0
ARC
  5
308
330
1F
100
AcDbEntity
  8
002
 62
     3
370
    30
100
AcDbCircle
 10
346.820368
 20
704.371528
 30
0.0
 40
2.0
100
AcDbArc
 50
0.0
 51
90.0
  0
LINE
  5
309
330
1F
100
AcDbEntity
  8
002
 62
     3
370
    30
100
AcDbLine
 10
346.820368
 20
706.371528
 30
0.0
 11
325.820368
 21
706.371528
 31
0.0
  0
ARC
  5
30A
330
1F
100
AcDbEntity
  8
002
 62
     3
370
    30
100
AcDbCircle
 10
325.820368
 20
704.371528
 30
0.0
 40
2.0
100
AcDbArc
 50
90.0
 51
180.0
  0
LINE
  5
30B
330
1F
100
AcDbEntity
  8
002
 62
     3
370
    30
100
AcDbLine
 10
333.320368
 20
697.871728
 30
0.0
 11
333.320368
 21
696.871728
 31
0.0
  0
LINE
  5
30C
330
1F
100
AcDbEntity
  8
002
 62
     3
370
    30
100
AcDbLine
 10
333.320368
 20
696.871728
 30
0.0
 11
334.320368
 21
696.871728
 31
0.0
  0
LINE
  5
30D
330
1F
100
AcDbEntity
  8
002
 62
     3
370
    30
100
AcDbLine
 10
334.320368
 20
696.871728
 30
0.0
 11
335.271368
 21
696.322628
 31
0.0
  0
LINE
  5
30E
330
1F
100
AcDbEntity
  8
002
 62
     3
370
    30
100
AcDbLine
 10
335.271368
 20
696.322728
 30
0.0
 11
335.820368
 21
695.371728
 31
0.0
  0
LINE
  5
30F
330
1F
100
AcDbEntity
  8
002
 62
     3
370
    30
100
AcDbLine
 10
335.820368
 20
695.371728
 30
0.0
 11
335.820368
 21
694.371728
 31
0.0
  0
LINE
  5
310
330
1F
100
AcDbEntity
  8
002
 62
     3
370
    30
100
AcDbLine
 10
335.820368
 20
694.371728
 30
0.0
 11
336.820368
 21
694.371728
 31
0.0
  0
LINE
  5
311
330
1F
100
AcDbEntity
  8
002
 62
     3
370
    30
100
AcDbLine
 10
336.820368
 20
694.371728
 30
0.0
 11
336.820368
 21
695.371728
 31
0.0
  0
LINE
  5
312
330
1F
100
AcDbEntity
  8
002
 62
     3
370
    30
100
AcDbLine
 10
336.820368
 20
695.371728
 30
0.0
 11
337.369368
 21
696.322628
 31
0.0
  0
LINE
  5
313
330
1F
100
AcDbEntity
  8
002
 62
     3
370
    30
100
AcDbLine
 10
337.369368
 20
696.322728
 30
0.0
 11
338.320368
 21
696.871728
 31
0.0
  0
LINE
  5
314
330
1F
100
AcDbEntity
  8
002
 62
     3
370
    30
100
AcDbLine
 10
338.320368
 20
696.871728
 30
0.0
 11
339.320368
 21
696.871728
 31
0.0
  0
LINE
  5
315
330
1F
100
AcDbEntity
  8
002
 62
     3
370
    30
100
AcDbLine
 10
339.320368
 20
696.871728
 30
0.0
 11
339.320368
 21
697.871728
 31
0.0
  0
LINE
  5
316
330
1F
100
AcDbEntity
  8
002
 62
     3
370
    30
100
AcDbLine
 10
339.320368
 20
697.871728
 30
0.0
 11
338.320368
 21
697.871728
 31
0.0
  0
LINE
  5
317
330
1F
100
AcDbEntity
  8
002
 62
     3
370
    30
100
AcDbLine
 10
338.320368
 20
697.871728
 30
0.0
 11
337.369368
 21
698.420728
 31
0.0
  0
LINE
  5
318
330
1F
100
AcDbEntity
  8
002
 62
     3
370
    30
100
AcDbLine
 10
337.369368
 20
698.420828
 30
0.0
 11
336.820368
 21
699.371728
 31
0.0
  0
LINE
  5
319
330
1F
100
AcDbEntity
  8
002
 62
     3
370
    30
100
AcDbLine
 10
336.820368
 20
699.371728
 30
0.0
 11
336.820368
 21
700.371728
 31
0.0
  0
LINE
  5
31A
330
1F
100
AcDbEntity
  8
002
 62
     3
370
    30
100
AcDbLine
 10
336.820368
 20
700.371728
 30
0.0
 11
335.820368
 21
700.371728
 31
0.0
  0
LINE
  5
31B
330
1F
100
AcDbEntity
  8
002
 62
     3
370
    30
100
AcDbLine
 10
335.820368
 20
700.371728
 30
0.0
 11
335.820368
 21
699.371728
 31
0.0
  0
LINE
  5
31C
330
1F
100
AcDbEntity
  8
002
 62
     3
370
    30
100
AcDbLine
 10
335.820368
 20
699.371728
 30
0.0
 11
335.271368
 21
698.420828
 31
0.0
  0
LINE
  5
31D
330
1F
100
AcDbEntity
  8
002
 62
     3
370
    30
100
AcDbLine
 10
335.271368
 20
698.420728
 30
0.0
 11
334.320368
 21
697.871728
 31
0.0
  0
LINE
  5
31E
330
1F
100
AcDbEntity
  8
002
 62
     3
370
    30
100
AcDbLine
 10
334.320368
 20
697.871728
 30
0.0
 11
333.320368
 21
697.871728
 31
0.0
  0
CIRCLE
  5
31F
330
1F
100
AcDbEntity
  8
002
 62
     3
370
    30
100
AcDbCircle
 10
336.320368
 20
697.371728
 30
0.0
 40
5.249999
  0
LINE
  5
320
330
1F
100
AcDbEntity
  8
002
 62
     3
370
    30
100
AcDbLine
 10
357.415368
 20
708.371428
 30
0.0
 11
357.415368
 21
653.246428
 31
0.0
  0
LINE
  5
321
330
1F
100
AcDbEntity
  8
002
 62
     3
370
    30
100
AcDbLine
 10
357.415368
 20
708.372528
 30
0.0
 11
356.839368
 21
709.371428
 31
0.0
  0
LINE
  5
322
330
1F
100
AcDbEntity
  8
002
 62
     3
370
    30
100
AcDbLine
 10
315.225368
 20
557.371628
 30
0.0
 11
315.225368
 21
613.489828
 31
0.0
  0
LINE
  5
323
330
1F
100
AcDbEntity
  8
002
 62
     3
370
    30
100
AcDbLine
 10
335.820368
 20
572.371828
 30
0.0
 11
336.820368
 21
572.371828
 31
0.0
  0
LINE
  5
324
330
1F
100
AcDbEntity
  8
002
 62
     3
370
    30
100
AcDbLine
 10
336.820368
 20
572.371828
 30
0.0
 11
336.820368
 21
571.371728
 31
0.0
  0
LINE
  5
325
330
1F
100
AcDbEntity
  8
002
 62
     3
370
    30
100
AcDbLine
 10
336.820368
 20
571.371728
 30
0.0
 11
337.369368
 21
570.420728
 31
0.0
  0
LINE
  5
326
330
1F
100
AcDbEntity
  8
002
 62
     3
370
    30
100
AcDbLine
 10
337.369368
 20
570.420728
 30
0.0
 11
338.320368
 21
569.871728
 31
0.0
  0
LINE
  5
327
330
1F
100
AcDbEntity
  8
002
 62
     3
370
    30
100
AcDbLine
 10
338.320368
 20
569.871828
 30
0.0
 11
339.320368
 21
569.871828
 31
0.0
  0
LINE
  5
328
330
1F
100
AcDbEntity
  8
002
 62
     3
370
    30
100
AcDbLine
 10
339.320368
 20
569.871828
 30
0.0
 11
339.320368
 21
568.871728
 31
0.0
  0
LINE
  5
329
330
1F
100
AcDbEntity
  8
002
 62
     3
370
    30
100
AcDbLine
 10
339.320368
 20
568.871728
 30
0.0
 11
338.320368
 21
568.871728
 31
0.0
  0
LINE
  5
32A
330
1F
100
AcDbEntity
  8
002
 62
     3
370
    30
100
AcDbLine
 10
338.320368
 20
568.871728
 30
0.0
 11
337.369368
 21
568.322728
 31
0.0
  0
LINE
  5
32B
330
1F
100
AcDbEntity
  8
002
 62
     3
370
    30
100
AcDbLine
 10
337.369368
 20
568.322728
 30
0.0
 11
336.820368
 21
567.371828
 31
0.0
  0
LINE
  5
32C
330
1F
100
AcDbEntity
  8
002
 62
     3
370
    30
100
AcDbLine
 10
336.820368
 20
567.371828
 30
0.0
 11
336.820368
 21
566.371728
 31
0.0
  0
LINE
  5
32D
330
1F
100
AcDbEntity
  8
002
 62
     3
370
    30
100
AcDbLine
 10
336.820368
 20
566.371728
 30
0.0
 11
335.820368
 21
566.371728
 31
0.0
  0
LINE
  5
32E
330
1F
100
AcDbEntity
  8
002
 62
     3
370
    30
100
AcDbLine
 10
335.820368
 20
566.371728
 30
0.0
 11
335.820368
 21
567.371828
 31
0.0
  0
LINE
  5
32F
330
1F
100
AcDbEntity
  8
002
 62
     3
370
    30
100
AcDbLine
 10
335.820368
 20
567.371728
 30
0.0
 11
335.271368
 21
568.322728
 31
0.0
  0
LINE
  5
330
330
1F
100
AcDbEntity
  8
002
 62
     3
370
    30
100
AcDbLine
 10
335.271368
 20
568.322728
 30
0.0
 11
334.320368
 21
568.871728
 31
0.0
  0
LINE
  5
331
330
1F
100
AcDbEntity
  8
002
 62
     3
370
    30
100
AcDbLine
 10
334.320368
 20
568.871728
 30
0.0
 11
333.320368
 21
568.871728
 31
0.0
  0
LINE
  5
332
330
1F
100
AcDbEntity
  8
002
 62
     3
370
    30
100
AcDbLine
 10
333.320368
 20
568.871728
 30
0.0
 11
333.320368
 21
569.871828
 31
0.0
  0
LINE
  5
333
330
1F
100
AcDbEntity
  8
002
 62
     3
370
    30
100
AcDbLine
 10
333.320368
 20
569.871828
 30
0.0
 11
334.320368
 21
569.871828
 31
0.0
  0
LINE
  5
334
330
1F
100
AcDbEntity
  8
002
 62
     3
370
    30
100
AcDbLine
 10
334.320368
 20
569.871728
 30
0.0
 11
335.271368
 21
570.420728
 31
0.0
  0
LINE
  5
335
330
1F
100
AcDbEntity
  8
002
 62
     3
370
    30
100
AcDbLine
 10
335.271368
 20
570.420728
 30
0.0
 11
335.820368
 21
571.371628
 31
0.0
  0
LINE
  5
336
330
1F
100
AcDbEntity
  8
002
 62
     3
370
    30
100
AcDbLine
 10
335.820368
 20
571.371728
 30
0.0
 11
335.820368
 21
572.371828
 31
0.0
  0
CIRCLE
  5
337
330
1F
100
AcDbEntity
  8
002
 62
     3
370
    30
100
AcDbCircle
 10
336.320368
 20
569.371728
 30
0.0
 40
5.249999
  0
LINE
  5
338
330
1F
100
AcDbEntity
  8
002
 62
     3
370
    30
100
AcDbLine
 10
236.320368
 20
557.371628
 30
0.0
 11
436.320368
 21
557.371628
 31
0.0
  0
LINE
  5
339
330
1F
100
AcDbEntity
  8
002
 62
     3
370
    30
100
AcDbLine
 10
304.027368
 20
334.371928
 30
0.0
 11
322.027368
 21
334.371928
 31
0.0
  0
LINE
  5
33A
330
1F
100
AcDbEntity
  8
002
 62
     3
370
    30
100
AcDbLine
 10
304.027368
 20
334.371928
 30
0.0
 11
304.027368
 21
322.371928
 31
0.0
  0
LINE
  5
33B
330
1F
100
AcDbEntity
  8
002
 62
     3
370
    30
100
AcDbLine
 10
304.027368
 20
323.371928
 30
0.0
 11
281.681368
 21
323.371928
 31
0.0
  0
LINE
  5
33C
330
1F
100
AcDbEntity
  8
002
 62
     3
370
    30
100
AcDbLine
 10
281.681368
 20
322.371928
 30
0.0
 11
281.681368
 21
334.371928
 31
0.0
  0
ARC
  5
33D
330
1F
100
AcDbEntity
  8
002
 62
     3
370
    30
100
AcDbCircle
 10
236.320668
 20
282.208528
 30
0.0
 40
4.999973096927584
100
AcDbArc
 50
180.0
 51
254.999861
  0
LINE
  5
33E
330
1F
100
AcDbEntity
  8
002
 62
     3
370
    30
100
AcDbLine
 10
269.320668
 20
163.371928
 30
0.0
 11
269.320668
 21
157.371928
 31
0.0
  0
LINE
  5
33F
330
1F
100
AcDbEntity
  8
002
 62
     3
370
    30
100
AcDbLine
 10
390.960368
 20
334.371928
 30
0.0
 11
408.960368
 21
334.371928
 31
0.0
  0
LINE
  5
340
330
1F
100
AcDbEntity
  8
002
 62
     3
370
    30
100
AcDbLine
 10
408.960368
 20
334.371928
 30
0.0
 11
408.960368
 21
322.371928
 31
0.0
  0
LINE
  5
341
330
1F
100
AcDbEntity
  8
002
 62
     3
370
    30
100
AcDbLine
 10
408.960368
 20
323.371928
 30
0.0
 11
412.320368
 21
323.371928
 31
0.0
  0
LINE
  5
342
330
1F
100
AcDbEntity
  8
002
 62
     3
370
    30
100
AcDbLine
 10
412.320368
 20
323.371928
 30
0.0
 11
412.320368
 21
322.371928
 31
0.0
  0
LINE
  5
343
330
1F
100
AcDbEntity
  8
002
 62
     3
370
    30
100
AcDbLine
 10
414.254368
 20
322.371928
 30
0.0
 11
414.254368
 21
334.371928
 31
0.0
  0
LINE
  5
344
330
1F
100
AcDbEntity
  8
002
 62
     3
370
    30
100
AcDbLine
 10
432.254368
 20
334.371928
 30
0.0
 11
432.254368
 21
322.371928
 31
0.0
  0
LINE
  5
345
330
1F
100
AcDbEntity
  8
002
 62
     3
370
    30
100
AcDbLine
 10
432.254368
 20
334.371928
 30
0.0
 11
414.254368
 21
334.371928
 31
0.0
  0
ARC
  5
346
330
1F
100
AcDbEntity
  8
002
 62
     3
370
    30
100
AcDbCircle
 10
409.320368
 20
248.371928
 30
0.0
 40
51.00000990156767
100
AcDbArc
 50
20.693372
 51
321.657237
  0
ARC
  5
347
330
1F
100
AcDbEntity
  8
002
 62
     3
370
    30
100
AcDbCircle
 10
438.320368
 20
259.326328
 30
0.0
 40
20.00030606665812
100
AcDbArc
 50
0.0
 51
20.693247
  0
LINE
  5
348
330
1F
100
AcDbEntity
  8
002
  6
CENTER
 62
    40
370
     9
100
AcDbLine
 10
259.320668
 20
154.262728
 30
0.0
 11
259.320668
 21
189.727428
 31
0.0
  0
LINE
  5
349
330
1F
100
AcDbEntity
  8
002
 62
    40
370
     9
100
AcDbLine
 10
251.320668
 20
233.144228
 30
0.0
 11
243.320668
 21
232.894228
 31
0.0
  0
LINE
  5
34A
330
1F
100
AcDbEntity
  8
002
 62
    40
370
     9
100
AcDbLine
 10
243.320668
 20
238.871928
 30
0.0
 11
231.320668
 21
257.371928
 31
0.0
  0
LINE
  5
34B
330
1F
100
AcDbEntity
  8
002
  6
CENTER
 62
    40
370
     9
100
AcDbLine
 10
228.757268
 20
248.371928
 30
0.0
 11
487.966368
 21
248.371928
 31
0.0
  0
LINE
  5
34C
330
1F
100
AcDbEntity
  8
002
  6
CENTER
 62
    40
370
     9
100
AcDbLine
 10
481.320368
 20
154.262728
 30
0.0
 11
481.320368
 21
189.727428
 31
0.0
  0
LINE
  5
34D
330
1F
100
AcDbEntity
  8
002
  6
CENTER
 62
    40
370
     9
100
AcDbLine
 10
409.320368
 20
183.371928
 30
0.0
 11
409.320368
 21
308.371928
 31
0.0
  0
LINE
  5
34E
330
1F
100
AcDbEntity
  8
002
  6
CENTER
 62
    40
370
     9
100
AcDbLine
 10
399.960368
 20
305.487728
 30
0.0
 11
399.960368
 21
340.342828
 31
0.0
  0
LINE
  5
34F
330
1F
100
AcDbEntity
  8
002
  6
CENTER
 62
    40
370
     9
100
AcDbLine
 10
423.254368
 20
340.342828
 30
0.0
 11
423.254368
 21
305.487728
 31
0.0
  0
LINE
  5
350
330
1F
100
AcDbEntity
  8
002
  6
CENTER
 62
    40
370
     9
100
AcDbLine
 10
359.614368
 20
305.487728
 30
0.0
 11
359.614368
 21
340.342828
 31
0.0
  0
LINE
  5
351
330
1F
100
AcDbEntity
  8
002
  6
PHANTOM
 62
    40
370
     9
100
AcDbLine
 10
369.660368
 20
567.898928
 30
0.0
 11
348.820368
 21
588.821528
 31
0.0
  0
LINE
  5
352
330
1F
100
AcDbEntity
  8
002
  6
PHANTOM
 62
    40
370
     9
100
AcDbLine
 10
323.820368
 20
613.921228
 30
0.0
 11
302.980368
 21
634.843828
 31
0.0
  0
LINE
  5
353
330
1F
100
AcDbEntity
  8
002
  6
PHANTOM
 62
    40
370
     9
100
AcDbLine
 10
323.820368
 20
677.921528
 30
0.0
 11
302.980368
 21
698.844128
 31
0.0
  0
LINE
  5
354
330
1F
100
AcDbEntity
  8
002
  6
PHANTOM
 62
    40
370
     9
100
AcDbLine
 10
348.820368
 20
652.821728
 30
0.0
 11
369.660368
 21
631.899128
 31
0.0
  0
LINE
  5
355
330
1F
100
AcDbEntity
  8
002
  6
CENTER
 62
    40
370
     9
100
AcDbLine
 10
313.027368
 20
340.342828
 30
0.0
 11
313.027368
 21
305.487728
 31
0.0
  0
LINE
  5
356
330
1F
100
AcDbEntity
  8
002
  6
CENTER
 62
    40
370
     9
100
AcDbLine
 10
272.681068
 20
305.487728
 30
0.0
 11
272.681068
 21
340.342828
 31
0.0
  0
LINE
  5
357
330
1F
100
AcDbEntity
  8
002
  6
CENTER
 62
    40
370
     9
100
AcDbLine
 10
249.387268
 20
340.342828
 30
0.0
 11
249.387268
 21
305.487728
 31
0.0
  0
LINE
  5
358
330
1F
100
AcDbEntity
  8
002
 62
    40
370
     9
100
AcDbLine
 10
251.320668
 20
263.599528
 30
0.0
 11
243.320668
 21
263.849528
 31
0.0
  0
LINE
  5
359
330
1F
100
AcDbEntity
  8
002
 62
    40
370
     9
100
AcDbLine
 10
243.320668
 20
257.871928
 30
0.0
 11
231.320668
 21
239.371928
 31
0.0
  0
LINE
  5
35A
330
1F
100
AcDbEntity
  8
002
  6
CENTER
 62
    40
370
     9
100
AcDbLine
 10
297.429368
 20
165.480428
 30
0.0
 11
297.429368
 21
139.854728
 31
0.0
  0
LINE
  5
35B
330
1F
100
AcDbEntity
  8
002
  6
CENTER
 62
    40
370
     9
100
AcDbLine
 10
375.211368
 20
165.480428
 30
0.0
 11
375.211368
 21
139.854728
 31
0.0
  0
LINE
  5
35C
330
1F
100
AcDbEntity
  8
002
 62
     3
370
    30
100
AcDbLine
 10
366.321368
 20
709.371428
 30
0.0
 11
366.321368
 21
862.371928
 31
0.0
  0
LINE
  5
35D
330
1F
100
AcDbEntity
  8
002
 62
     3
370
    30
100
AcDbLine
 10
366.321368
 20
862.371928
 30
0.0
 11
306.321368
 21
862.371928
 31
0.0
  0
LINE
  5
35E
330
1F
100
AcDbEntity
  8
002
 62
     3
370
    30
100
AcDbLine
 10
306.321368
 20
862.371928
 30
0.0
 11
306.321368
 21
709.371428
 31
0.0
  0
LINE
  5
35F
330
1F
100
AcDbEntity
  8
002
 62
     3
370
    30
100
AcDbLine
 10
313.821368
 20
862.372028
 30
0.0
 11
313.821368
 21
933.371928
 31
0.0
  0
LINE
  5
360
330
1F
100
AcDbEntity
  8
002
 62
     3
370
    30
100
AcDbLine
 10
313.821368
 20
933.371928
 30
0.0
 11
358.821368
 21
933.371928
 31
0.0
  0
LINE
  5
361
330
1F
100
AcDbEntity
  8
002
 62
     3
370
    30
100
AcDbLine
 10
358.821368
 20
933.371928
 30
0.0
 11
358.821368
 21
862.371928
 31
0.0
  0
LINE
  5
362
330
1F
100
AcDbEntity
  8
002
 62
    40
370
     9
100
AcDbLine
 10
309.811368
 20
709.371428
 30
0.0
 11
309.811368
 21
862.371928
 31
0.0
  0
LINE
  5
363
330
1F
100
AcDbEntity
  8
002
 62
    40
370
     9
100
AcDbLine
 10
362.829368
 20
862.371928
 30
0.0
 11
362.829368
 21
709.371428
 31
0.0
  0
LINE
  5
364
330
1F
100
AcDbEntity
  8
002
  6
HIDDEN
 62
    40
370
     9
100
AcDbLine
 10
494.320368
 20
182.371928
 30
0.0
 11
494.320368
 21
163.371928
 31
0.0
  0
LINE
  5
365
330
1F
100
AcDbEntity
  8
002
  6
HIDDEN
 62
    40
370
     9
100
AcDbLine
 10
456.320368
 20
182.371928
 30
0.0
 11
506.320368
 21
182.371928
 31
0.0
  0
LINE
  5
366
330
1F
100
AcDbEntity
  8
002
  6
HIDDEN
 62
    40
370
     9
100
AcDbLine
 10
506.320368
 20
182.371928
 30
0.0
 11
506.320368
 21
183.371928
 31
0.0
  0
LINE
  5
367
330
1F
100
AcDbEntity
  8
002
  6
HIDDEN
 62
    40
370
     9
100
AcDbLine
 10
468.320368
 20
182.371928
 30
0.0
 11
468.320368
 21
163.371928
 31
0.0
  0
LINE
  5
368
330
1F
100
AcDbEntity
  8
002
  6
HIDDEN
 62
    40
370
     9
100
AcDbLine
 10
456.320368
 20
183.371928
 30
0.0
 11
456.320368
 21
182.371928
 31
0.0
  0
LINE
  5
369
330
1F
100
AcDbEntity
  8
002
  6
HIDDEN
 62
    40
370
     9
100
AcDbLine
 10
272.320668
 20
182.371928
 30
0.0
 11
272.320668
 21
163.371928
 31
0.0
  0
LINE
  5
36A
330
1F
100
AcDbEntity
  8
002
  6
HIDDEN
 62
    40
370
     9
100
AcDbLine
 10
234.320668
 20
182.371928
 30
0.0
 11
284.320368
 21
182.371928
 31
0.0
  0
LINE
  5
36B
330
1F
100
AcDbEntity
  8
002
  6
HIDDEN
 62
    40
370
     9
100
AcDbLine
 10
284.320368
 20
182.371928
 30
0.0
 11
284.320368
 21
183.371928
 31
0.0
  0
LINE
  5
36C
330
1F
100
AcDbEntity
  8
002
  6
HIDDEN
 62
    40
370
     9
100
AcDbLine
 10
246.320668
 20
163.371928
 30
0.0
 11
246.320668
 21
182.371928
 31
0.0
  0
LINE
  5
36D
330
1F
100
AcDbEntity
  8
002
  6
HIDDEN
 62
    40
370
     9
100
AcDbLine
 10
234.320668
 20
182.371928
 30
0.0
 11
234.320668
 21
183.371928
 31
0.0
  0
CIRCLE
  5
36E
330
1F
100
AcDbEntity
  8
002
 62
     3
370
    30
100
AcDbCircle
 10
336.320368
 20
1233.371928
 30
0.0
 40
22.49900000000025
  0
CIRCLE
  5
36F
330
1F
100
AcDbEntity
  8
002
 62
     3
370
    30
100
AcDbCircle
 10
336.320368
 20
1233.371928
 30
0.0
 40
29.99900000000025
  0
CIRCLE
  5
370
330
1F
100
AcDbEntity
  8
002
 62
    40
370
     9
100
AcDbCircle
 10
336.320368
 20
1233.371928
 30
0.0
 40
26.50900000000001
  0
LINE
  5
371
330
1F
100
AcDbEntity
  8
002
 62
     3
370
    30
100
AcDbLine
 10
236.320368
 20
522.371628
 30
0.0
 11
436.320368
 21
522.371628
 31
0.0
  0
LINE
  5
372
330
1F
100
AcDbEntity
  8
002
 62
     3
370
    30
100
AcDbLine
 10
436.320368
 20
522.371628
 30
0.0
 11
436.320368
 21
557.371628
 31
0.0
  0
LINE
  5
373
330
1F
100
AcDbEntity
  8
002
 62
     3
370
    30
100
AcDbLine
 10
236.320368
 20
522.371628
 30
0.0
 11
236.320368
 21
557.371628
 31
0.0
  0
LINE
  5
374
330
1F
100
AcDbEntity
  8
002
  6
CENTER
 62
    40
370
     9
100
AcDbLine
 10
413.820368
 20
517.371628
 30
0.0
 11
413.820368
 21
562.371628
 31
0.0
  0
LINE
  5
375
330
1F
100
AcDbEntity
  8
002
  6
CENTER
 62
    40
370
     9
100
AcDbLine
 10
258.820368
 20
517.371628
 30
0.0
 11
258.820368
 21
562.371628
 31
0.0
  0
CIRCLE
  5
376
330
1F
100
AcDbEntity
  8
002
 62
     3
370
    30
100
AcDbCircle
 10
336.320368
 20
1233.371928
 30
0.0
 40
100.0
  0
CIRCLE
  5
377
330
1F
100
AcDbEntity
  8
002
 62
     3
370
    30
100
AcDbCircle
 10
403.437358
 20
1272.121892
 30
0.0
 40
11.0
  0
CIRCLE
  5
378
330
1F
100
AcDbEntity
  8
002
 62
     3
370
    30
100
AcDbCircle
 10
403.437748
 20
1194.622639
 30
0.0
 40
11.0
  0
CIRCLE
  5
379
330
1F
100
AcDbEntity
  8
002
 62
     3
370
    30
100
AcDbCircle
 10
269.203084
 20
1194.622475
 30
0.0
 40
11.0
  0
CIRCLE
  5
37A
330
1F
100
AcDbEntity
  8
002
 62
     3
370
    30
100
AcDbCircle
 10
269.203889
 20
1272.122776
 30
0.0
 40
11.0
  0
CIRCLE
  5
37B
330
1F
100
AcDbEntity
  8
002
  6
CENTER
 62
    40
370
     9
100
AcDbCircle
 10
336.320368
 20
1233.371928
 30
0.0
 40
77.5
  0
LINE
  5
37C
330
1F
100
AcDbEntity
  8
002
  6
CENTER
 62
    40
370
     9
100
AcDbLine
 10
336.320368
 20
1118.371928
 30
0.0
 11
336.320368
 21
1348.371928
 31
0.0
  0
LINE
  5
37D
330
1F
100
AcDbEntity
  8
002
  6
CENTER
 62
    40
370
     9
100
AcDbLine
 10
221.320368
 20
1233.371928
 30
0.0
 11
451.320368
 21
1233.371928
 31
0.0
  0
LINE
  5
37E
330
1F
100
AcDbEntity
  8
002
 62
     3
370
    30
100
AcDbLine
 10
1040.456378
 20
904.988807
 30
0.0
 11
1040.4565
 21
855.988807
 31
0.0
  0
LINE
  5
37F
330
1F
100
AcDbEntity
  8
002
 62
     3
370
    30
100
AcDbLine
 10
1042.7965
 20
855.988813
 30
0.0
 11
1026.7965
 21
855.988773
 31
0.0
  0
LINE
  5
380
330
1F
100
AcDbEntity
  8
002
 62
     3
370
    30
100
AcDbLine
 10
1042.7965
 20
855.988813
 30
0.0
 11
1042.796525
 21
845.989013
 31
0.0
  0
LINE
  5
381
330
1F
100
AcDbEntity
  8
002
 62
     3
370
    30
100
AcDbLine
 10
1026.7965
 20
855.988773
 30
0.0
 11
1026.796525
 21
845.988973
 31
0.0
  0
LINE
  5
382
330
1F
100
AcDbEntity
  8
002
 62
     3
370
    30
100
AcDbLine
 10
1028.19955
 20
835.988977
 30
0.0
 11
1010.19955
 21
835.988932
 31
0.0
  0
LINE
  5
383
330
1F
100
AcDbEntity
  8
002
 62
     3
370
    30
100
AcDbLine
 10
1010.19955
 20
835.988932
 30
0.0
 11
1010.19958
 21
823.988932
 31
0.0
  0
LINE
  5
384
330
1F
100
AcDbEntity
  8
002
 62
     3
370
    30
100
AcDbLine
 10
1010.199578
 20
824.988932
 30
0.0
 11
981.612578
 21
824.98886
 31
0.0
  0
LINE
  5
385
330
1F
100
AcDbEntity
  8
002
 62
     3
370
    30
100
AcDbLine
 10
981.61258
 20
823.98886
 30
0.0
 11
981.61255
 21
835.98886
 31
0.0
  0
LINE
  5
386
330
1F
100
AcDbEntity
  8
002
 62
     3
370
    30
100
AcDbLine
 10
963.61255
 20
835.988815
 30
0.0
 11
963.61258
 21
823.988815
 31
0.0
  0
LINE
  5
387
330
1F
100
AcDbEntity
  8
002
 62
     3
370
    30
100
AcDbLine
 10
963.612578
 20
824.988815
 30
0.0
 11
941.266578
 21
824.98876
 31
0.0
  0
LINE
  5
388
330
1F
100
AcDbEntity
  8
002
 62
     3
370
    30
100
AcDbLine
 10
941.26658
 20
823.98876
 30
0.0
 11
941.26655
 21
835.98876
 31
0.0
  0
LINE
  5
389
330
1F
100
AcDbEntity
  8
002
 62
     3
370
    30
100
AcDbLine
 10
923.26655
 20
835.988715
 30
0.0
 11
923.26658
 21
823.988715
 31
0.0
  0
LINE
  5
38A
330
1F
100
AcDbEntity
  8
002
 62
     3
370
    30
100
AcDbLine
 10
923.266578
 20
824.988715
 30
0.0
 11
919.906578
 21
824.988706
 31
0.0
  0
LINE
  5
38B
330
1F
100
AcDbEntity
  8
002
 62
     3
370
    30
100
AcDbLine
 10
919.906578
 20
824.988706
 30
0.0
 11
919.90658
 21
823.988706
 31
0.0
  0
LINE
  5
38C
330
1F
100
AcDbEntity
  8
002
 62
     3
370
    30
100
AcDbLine
 10
917.97258
 20
823.988701
 30
0.0
 11
917.97255
 21
835.988701
 31
0.0
  0
LINE
  5
38D
330
1F
100
AcDbEntity
  8
002
 62
     3
370
    30
100
AcDbLine
 10
899.97255
 20
835.988656
 30
0.0
 11
899.97258
 21
823.988656
 31
0.0
  0
LINE
  5
38E
330
1F
100
AcDbEntity
  8
002
 62
     3
370
    30
100
AcDbLine
 10
890.90658
 20
823.988634
 30
0.0
 11
890.906681
 21
783.825234
 31
0.0
  0
LINE
  5
38F
330
1F
100
AcDbEntity
  8
002
 62
     3
370
    30
100
AcDbLine
 10
894.61169
 20
779.988643
 30
0.0
 11
1024.00669
 21
779.988966
 31
0.0
  0
ARC
  5
390
330
1F
100
AcDbEntity
  8
002
 62
     3
370
    30
100
AcDbCircle
 10
1068.906765
 20
749.989079
 30
0.0
 40
54.00008238290003
100
AcDbArc
 50
112.445101
 51
152.85097
  0
LINE
  5
391
330
1F
100
AcDbEntity
  8
002
 62
     3
370
    30
100
AcDbLine
 10
1048.28964
 20
799.898427
 30
0.0
 11
1048.289649
 21
796.636027
 31
0.0
  0
LINE
  5
392
330
1F
100
AcDbEntity
  8
002
 62
     3
370
    30
100
AcDbLine
 10
1023.540707
 20
773.290165
 30
0.0
 11
919.912707
 21
773.289906
 31
0.0
  0
ARC
  5
393
330
1F
100
AcDbEntity
  8
002
 62
     3
370
    30
100
AcDbCircle
 10
914.912716
 20
769.629694
 30
0.0
 40
5.0
100
AcDbArc
 50
0.000143
 51
65.695594
  0
LINE
  5
394
330
1F
100
AcDbEntity
  8
002
 62
     3
370
    30
100
AcDbLine
 10
919.912716
 20
769.629706
 30
0.0
 11
919.912765
 21
749.988706
 31
0.0
  0
ARC
  5
395
330
1F
100
AcDbEntity
  8
002
 62
     3
370
    30
100
AcDbCircle
 10
720.237737
 20
761.387707
 30
0.0
 40
200.0006904019332
100
AcDbArc
 50
348.053729
 51
356.732658
  0
LINE
  5
396
330
1F
100
AcDbEntity
  8
002
 62
     3
370
    30
100
AcDbLine
 10
915.90684
 20
719.988696
 30
0.0
 11
915.90692
 21
687.988696
 31
0.0
  0
ARC
  5
397
330
1F
100
AcDbEntity
  8
002
 62
     3
370
    30
100
AcDbCircle
 10
912.90692
 20
687.988689
 30
0.0
 40
3.0
100
AcDbArc
 50
270.000143
 51
0.000143
  0
LINE
  5
398
330
1F
100
AcDbEntity
  8
002
 62
     3
370
    30
100
AcDbLine
 10
931.744928
 20
684.988736
 30
0.0
 11
931.744707
 21
773.289936
 31
0.0
  0
LINE
  5
399
330
1F
100
AcDbEntity
  8
002
 62
     3
370
    30
100
AcDbLine
 10
947.288707
 20
773.289975
 30
0.0
 11
947.288928
 21
684.988775
 31
0.0
  0
LINE
  5
39A
330
1F
100
AcDbEntity
  8
002
 62
     3
370
    30
100
AcDbLine
 10
960.906978
 20
664.988809
 30
0.0
 11
960.907023
 21
646.988809
 31
0.0
  0
LINE
  5
39B
330
1F
100
AcDbEntity
  8
002
 62
     3
370
    30
100
AcDbLine
 10
960.907023
 20
646.988809
 30
0.0
 11
1030.907023
 21
646.988984
 31
0.0
  0
LINE
  5
39C
330
1F
100
AcDbEntity
  8
002
 62
     3
370
    30
100
AcDbLine
 10
1030.907023
 20
646.988984
 30
0.0
 11
1030.906978
 21
664.988984
 31
0.0
  0
LINE
  5
39D
330
1F
100
AcDbEntity
  8
002
 62
     3
370
    30
100
AcDbLine
 10
1017.90692
 20
687.988951
 30
0.0
 11
1017.906765
 21
749.988951
 31
0.0
  0
CIRCLE
  5
39E
330
1F
100
AcDbEntity
  8
002
 62
     3
370
    30
100
AcDbCircle
 10
1068.906765
 20
749.989079
 30
0.0
 40
29.0
  0
ARC
  5
39F
330
1F
100
AcDbEntity
  8
002
 62
     3
370
    30
100
AcDbCircle
 10
1068.906765
 20
749.989079
 30
0.0
 40
50.99935250804688
100
AcDbArc
 50
20.693912
 51
321.65738
  0
ARC
  5
3A0
330
1F
100
AcDbEntity
  8
002
 62
     3
370
    30
100
AcDbCircle
 10
1097.906738
 20
760.943551
 30
0.0
 40
20.0
100
AcDbArc
 50
0.000143
 51
20.694403
  0
LINE
  5
3A1
330
1F
100
AcDbEntity
  8
002
 62
     3
370
    30
100
AcDbLine
 10
1117.906738
 20
760.943601
 30
0.0
 11
1117.90692
 21
687.989201
 31
0.0
  0
ARC
  5
3A2
330
1F
100
AcDbEntity
  8
002
 62
     3
370
    30
100
AcDbCircle
 10
1120.90692
 20
687.989209
 30
0.0
 40
3.0
100
AcDbArc
 50
180.000143
 51
270.000143
  0
ARC
  5
3A3
330
1F
100
AcDbEntity
  8
002
 62
     3
370
    30
100
AcDbCircle
 10
1112.90692
 20
687.989189
 30
0.0
 40
3.0
100
AcDbArc
 50
180.000143
 51
270.000143
  0
LINE
  5
3A4
330
1F
100
AcDbEntity
  8
002
 62
     3
370
    30
100
AcDbLine
 10
1109.90692
 20
687.989181
 30
0.0
 11
1109.906708
 21
772.792681
 31
0.0
  0
ARC
  5
3A5
330
1F
100
AcDbEntity
  8
002
 62
     3
370
    30
100
AcDbCircle
 10
1089.906708
 20
772.792631
 30
0.0
 40
20.0
100
AcDbArc
 50
0.000143
 51
18.195021
  0
LINE
  5
3A6
330
1F
100
AcDbEntity
  8
002
 62
     3
370
    30
100
AcDbLine
 10
1116.758713
 20
770.773498
 30
0.0
 11
1117.660713
 21
770.7735
 31
0.0
  0
LINE
  5
3A7
330
1F
100
AcDbEntity
  8
002
 62
     3
370
    30
100
AcDbLine
 10
1117.660713
 20
770.7735
 30
0.0
 11
1147.686919
 21
688.279175
 31
0.0
  0
ARC
  5
3A8
330
1F
100
AcDbEntity
  8
002
 62
     3
370
    30
100
AcDbCircle
 10
1152.384915
 20
689.989287
 30
0.0
 40
4.999564582040998
100
AcDbArc
 50
200.001951
 51
270.000143
  0
LINE
  5
3A9
330
1F
100
AcDbEntity
  8
002
 62
     3
370
    30
100
AcDbLine
 10
1167.906928
 20
684.989326
 30
0.0
 11
891.906928
 21
684.988636
 31
0.0
  0
ARC
  5
3AA
330
1F
100
AcDbEntity
  8
002
 62
     3
370
    30
100
AcDbCircle
 10
891.906935
 20
681.988636
 30
0.0
 40
3.0
100
AcDbArc
 50
90.000143
 51
180.000143
  0
LINE
  5
3AB
330
1F
100
AcDbEntity
  8
002
 62
     3
370
    30
100
AcDbLine
 10
888.906935
 20
681.988629
 30
0.0
 11
888.906978
 21
664.988629
 31
0.0
  0
LINE
  5
3AC
330
1F
100
AcDbEntity
  8
002
 62
     3
370
    30
100
AcDbLine
 10
888.906978
 20
664.988629
 30
0.0
 11
1170.906978
 21
664.989334
 31
0.0
  0
LINE
  5
3AD
330
1F
100
AcDbEntity
  8
002
 62
     3
370
    30
100
AcDbLine
 10
1170.906978
 20
664.989334
 30
0.0
 11
1170.906935
 21
681.989334
 31
0.0
  0
ARC
  5
3AE
330
1F
100
AcDbEntity
  8
002
 62
     3
370
    30
100
AcDbCircle
 10
1167.906935
 20
681.989326
 30
0.0
 40
3.0
100
AcDbArc
 50
0.000143
 51
90.000143
  0
LINE
  5
3AF
330
1F
100
AcDbEntity
  8
002
 62
     3
370
    30
100
AcDbLine
 10
1108.906844
 20
718.350579
 30
0.0
 11
1108.906686
 21
781.627679
 31
0.0
  0
ARC
  5
3B0
330
1F
100
AcDbEntity
  8
002
 62
     3
370
    30
100
AcDbCircle
 10
1105.90666
 20
792.024871
 30
0.0
 40
5.0
100
AcDbArc
 50
180.000143
 51
228.642181
  0
LINE
  5
3B1
330
1F
100
AcDbEntity
  8
002
 62
     3
370
    30
100
AcDbLine
 10
1100.90666
 20
792.024859
 30
0.0
 11
1100.90658
 21
823.989159
 31
0.0
  0
LINE
  5
3B2
330
1F
100
AcDbEntity
  8
002
 62
     3
370
    30
100
AcDbLine
 10
1100.90658
 20
823.989159
 30
0.0
 11
890.90658
 21
823.988634
 31
0.0
  0
LINE
  5
3B3
330
1F
100
AcDbEntity
  8
002
 62
     3
370
    30
100
AcDbLine
 10
890.906615
 20
809.988634
 30
0.0
 11
1100.906615
 21
809.989159
 31
0.0
  0
LINE
  5
3B4
330
1F
100
AcDbEntity
  8
002
 62
     3
370
    30
100
AcDbLine
 10
1091.83958
 20
823.989136
 30
0.0
 11
1091.83955
 21
835.989136
 31
0.0
  0
LINE
  5
3B5
330
1F
100
AcDbEntity
  8
002
 62
     3
370
    30
100
AcDbLine
 10
1073.83955
 20
835.989091
 30
0.0
 11
1073.83958
 21
823.989091
 31
0.0
  0
LINE
  5
3B6
330
1F
100
AcDbEntity
  8
002
 62
     3
370
    30
100
AcDbLine
 10
1071.90658
 20
823.989086
 30
0.0
 11
1071.906578
 21
824.989086
 31
0.0
  0
LINE
  5
3B7
330
1F
100
AcDbEntity
  8
002
 62
     3
370
    30
100
AcDbLine
 10
1071.906578
 20
824.989086
 30
0.0
 11
1068.545578
 21
824.989078
 31
0.0
  0
LINE
  5
3B8
330
1F
100
AcDbEntity
  8
002
 62
     3
370
    30
100
AcDbLine
 10
1068.54558
 20
823.989078
 30
0.0
 11
1068.54555
 21
835.989078
 31
0.0
  0
LINE
  5
3B9
330
1F
100
AcDbEntity
  8
002
 62
     3
370
    30
100
AcDbLine
 10
1050.54555
 20
835.989033
 30
0.0
 11
1050.54558
 21
823.989033
 31
0.0
  0
LINE
  5
3BA
330
1F
100
AcDbEntity
  8
002
 62
     3
370
    30
100
AcDbLine
 10
1050.545578
 20
824.989033
 30
0.0
 11
1028.199578
 21
824.988977
 31
0.0
  0
LINE
  5
3BB
330
1F
100
AcDbEntity
  8
002
 62
     3
370
    30
100
AcDbLine
 10
1028.19958
 20
823.988977
 30
0.0
 11
1028.19955
 21
835.988977
 31
0.0
  0
LINE
  5
3BC
330
1F
100
AcDbEntity
  8
002
 62
     3
370
    30
100
AcDbLine
 10
1050.54555
 20
835.989033
 30
0.0
 11
1068.54555
 21
835.989078
 31
0.0
  0
LINE
  5
3BD
330
1F
100
AcDbEntity
  8
002
 62
     3
370
    30
100
AcDbLine
 10
1073.83955
 20
835.989091
 30
0.0
 11
1091.83955
 21
835.989136
 31
0.0
  0
LINE
  5
3BE
330
1F
100
AcDbEntity
  8
002
 62
     3
370
    30
100
AcDbLine
 10
1062.90655
 20
835.989064
 30
0.0
 11
1062.906525
 21
845.989064
 31
0.0
  0
LINE
  5
3BF
330
1F
100
AcDbEntity
  8
002
 62
     3
370
    30
100
AcDbLine
 10
1062.906525
 20
845.989064
 30
0.0
 11
928.906525
 21
845.988729
 31
0.0
  0
LINE
  5
3C0
330
1F
100
AcDbEntity
  8
002
 62
     3
370
    30
100
AcDbLine
 10
928.906525
 20
845.988729
 30
0.0
 11
928.90655
 21
835.988729
 31
0.0
  0
LINE
  5
3C1
330
1F
100
AcDbEntity
  8
002
 62
     3
370
    30
100
AcDbLine
 10
928.90654
 20
839.988729
 30
0.0
 11
1062.90654
 21
839.989064
 31
0.0
  0
ARC
  5
3C2
330
1F
100
AcDbEntity
  8
002
 62
     3
370
    30
100
AcDbCircle
 10
1116.758708
 20
772.773498
 30
0.0
 40
2.000222997568036
100
AcDbArc
 50
205.458316
 51
270.000143
  0
ARC
  5
3C3
330
1F
100
AcDbEntity
  8
002
 62
     3
370
    30
100
AcDbCircle
 10
1094.906827
 20
725.089344
 30
0.0
 40
14.99998962966351
100
AcDbArc
 50
338.770088
 51
0.000143
  0
ARC
  5
3C4
330
1F
100
AcDbEntity
  8
002
 62
     3
370
    30
100
AcDbCircle
 10
1014.90692
 20
687.988944
 30
0.0
 40
3.0
100
AcDbArc
 50
270.000143
 51
0.000143
  0
LINE
  5
3C5
330
1F
100
AcDbEntity
  8
002
 62
     3
370
    30
100
AcDbLine
 10
998.792778
 20
744.988903
 30
0.0
 11
993.019778
 21
744.988889
 31
0.0
  0
LINE
  5
3C6
330
1F
100
AcDbEntity
  8
002
 62
     3
370
    30
100
AcDbLine
 10
993.019778
 20
744.988889
 30
0.0
 11
990.132765
 21
749.988882
 31
0.0
  0
LINE
  5
3C7
330
1F
100
AcDbEntity
  8
002
 62
     3
370
    30
100
AcDbLine
 10
990.132765
 20
749.988882
 30
0.0
 11
993.019753
 21
754.988889
 31
0.0
  0
LINE
  5
3C8
330
1F
100
AcDbEntity
  8
002
 62
     3
370
    30
100
AcDbLine
 10
993.019753
 20
754.988889
 30
0.0
 11
998.792753
 21
754.988903
 31
0.0
  0
LINE
  5
3C9
330
1F
100
AcDbEntity
  8
002
 62
     3
370
    30
100
AcDbLine
 10
998.792753
 20
754.988903
 30
0.0
 11
1001.679765
 21
749.988911
 31
0.0
  0
LINE
  5
3CA
330
1F
100
AcDbEntity
  8
002
 62
     3
370
    30
100
AcDbLine
 10
1001.679765
 20
749.988911
 30
0.0
 11
998.792778
 21
744.988903
 31
0.0
  0
CIRCLE
  5
3CB
330
1F
100
AcDbEntity
  8
002
 62
     3
370
    30
100
AcDbCircle
 10
995.906765
 20
749.988896
 30
0.0
 40
0.75
  0
CIRCLE
  5
3CC
330
1F
100
AcDbEntity
  8
002
 62
     3
370
    30
100
AcDbCircle
 10
995.906765
 20
749.988896
 30
0.0
 40
2.5
  0
CIRCLE
  5
3CD
330
1F
100
AcDbEntity
  8
002
 62
     3
370
    30
100
AcDbCircle
 10
995.906765
 20
749.988896
 30
0.0
 40
3.25
  0
CIRCLE
  5
3CE
330
1F
100
AcDbEntity
  8
002
 62
     3
370
    30
100
AcDbCircle
 10
995.906765
 20
749.988896
 30
0.0
 40
5.0
  0
CIRCLE
  5
3CF
330
1F
100
AcDbEntity
  8
002
 62
     3
370
    30
100
AcDbCircle
 10
995.906765
 20
749.988896
 30
0.0
 40
10.0
  0
LINE
  5
3D0
330
1F
100
AcDbEntity
  8
002
 62
     3
370
    30
100
AcDbLine
 10
1020.855704
 20
774.629958
 30
0.0
 11
1023.540707
 21
773.290165
 31
0.0
  0
LINE
  5
3D1
330
1F
100
AcDbEntity
  8
002
 62
     3
370
    30
100
AcDbLine
 10
981.61255
 20
835.98886
 30
0.0
 11
963.61255
 21
835.988815
 31
0.0
  0
LINE
  5
3D2
330
1F
100
AcDbEntity
  8
002
 62
     3
370
    30
100
AcDbLine
 10
965.015525
 20
845.988819
 30
0.0
 11
965.0155
 21
855.988619
 31
0.0
  0
LINE
  5
3D3
330
1F
100
AcDbEntity
  8
002
 62
     3
370
    30
100
AcDbLine
 10
949.0155
 20
855.988579
 30
0.0
 11
965.0155
 21
855.988619
 31
0.0
  0
LINE
  5
3D4
330
1F
100
AcDbEntity
  8
002
 62
     3
370
    30
100
AcDbLine
 10
951.3565
 20
855.988585
 30
0.0
 11
951.356378
 21
904.988585
 31
0.0
  0
LINE
  5
3D5
330
1F
100
AcDbEntity
  8
002
 62
     3
370
    30
100
AcDbLine
 10
951.356378
 20
904.988585
 30
0.0
 11
1040.456378
 21
904.988807
 31
0.0
  0
LINE
  5
3D6
330
1F
100
AcDbEntity
  8
002
 62
     3
370
    30
100
AcDbLine
 10
949.0155
 20
855.988579
 30
0.0
 11
949.015525
 21
845.988779
 31
0.0
  0
LINE
  5
3D7
330
1F
100
AcDbEntity
  8
002
 62
     3
370
    30
100
AcDbLine
 10
941.26655
 20
835.98876
 30
0.0
 11
923.26655
 21
835.988715
 31
0.0
  0
LINE
  5
3D8
330
1F
100
AcDbEntity
  8
002
 62
     3
370
    30
100
AcDbLine
 10
917.97255
 20
835.988701
 30
0.0
 11
899.97255
 21
835.988656
 31
0.0
  0
LINE
  5
3D9
330
1F
100
AcDbEntity
  8
002
 62
     3
370
    30
100
AcDbLine
 10
894.611693
 20
778.995643
 30
0.0
 11
907.200701
 21
775.622674
 31
0.0
  0
ARC
  5
3DA
330
1F
100
AcDbEntity
  8
002
 62
     3
370
    30
100
AcDbCircle
 10
905.906713
 20
770.792971
 30
0.0
 40
5.0
100
AcDbArc
 50
0.000143
 51
75.001407
  0
LINE
  5
3DB
330
1F
100
AcDbEntity
  8
002
 62
     3
370
    30
100
AcDbLine
 10
910.906713
 20
770.792984
 30
0.0
 11
910.906828
 21
724.988684
 31
0.0
  0
ARC
  5
3DC
330
1F
100
AcDbEntity
  8
002
 62
     3
370
    30
100
AcDbCircle
 10
910.90684
 20
719.988684
 30
0.0
 40
5.0
100
AcDbArc
 50
0.000143
 51
90.000143
  0
LINE
  5
3DD
330
1F
100
AcDbEntity
  8
002
 62
     3
370
    30
100
AcDbLine
 10
910.906807
 20
733.320584
 30
0.0
 11
902.906807
 21
733.070564
 31
0.0
  0
LINE
  5
3DE
330
1F
100
AcDbEntity
  8
002
 62
     3
370
    30
100
AcDbLine
 10
902.906807
 20
733.070564
 30
0.0
 11
902.906723
 21
766.906664
 31
0.0
  0
LINE
  5
3DF
330
1F
100
AcDbEntity
  8
002
 62
     3
370
    30
100
AcDbLine
 10
902.906723
 20
766.906664
 30
0.0
 11
910.906724
 21
766.656684
 31
0.0
  0
LINE
  5
3E0
330
1F
100
AcDbEntity
  8
002
 62
     3
370
    30
100
AcDbLine
 10
910.906704
 20
774.629684
 30
0.0
 11
914.912704
 21
774.629694
 31
0.0
  0
LINE
  5
3E1
330
1F
100
AcDbEntity
  8
002
 62
     3
370
    30
100
AcDbLine
 10
902.906741
 20
759.488664
 30
0.0
 11
890.906743
 21
758.988634
 31
0.0
  0
LINE
  5
3E2
330
1F
100
AcDbEntity
  8
002
 62
     3
370
    30
100
AcDbLine
 10
890.906743
 20
758.988634
 30
0.0
 11
890.906788
 21
740.988634
 31
0.0
  0
LINE
  5
3E3
330
1F
100
AcDbEntity
  8
002
 62
     3
370
    30
100
AcDbLine
 10
890.906788
 20
740.988634
 30
0.0
 11
902.906789
 21
740.488664
 31
0.0
  0
ARC
  5
3E4
330
1F
100
AcDbEntity
  8
002
 62
     3
370
    30
100
AcDbCircle
 10
895.906681
 20
783.825246
 30
0.0
 40
5.0
100
AcDbArc
 50
180.000143
 51
254.990043
  0
LINE
  5
3E5
330
1F
100
AcDbEntity
  8
002
  6
CENTER
 62
    40
370
     9
100
AcDbLine
 10
918.907
 20
655.879504
 30
0.0
 11
918.906912
 21
691.344204
 31
0.0
  0
LINE
  5
3E6
330
1F
100
AcDbEntity
  8
002
 62
    40
370
     9
100
AcDbLine
 10
910.906803
 20
734.760984
 30
0.0
 11
902.906804
 21
734.510964
 31
0.0
  0
LINE
  5
3E7
330
1F
100
AcDbEntity
  8
002
 62
    40
370
     9
100
AcDbLine
 10
902.906789
 20
740.488664
 30
0.0
 11
890.906743
 21
758.988634
 31
0.0
  0
LINE
  5
3E8
330
1F
100
AcDbEntity
  8
002
  6
CENTER
 62
    40
370
     9
100
AcDbLine
 10
888.342765
 20
749.988627
 30
0.0
 11
1147.551765
 21
749.989275
 31
0.0
  0
LINE
  5
3E9
330
1F
100
AcDbEntity
  8
002
  6
CENTER
 62
    40
370
     9
100
AcDbLine
 10
1082.839622
 20
807.104913
 30
0.0
 11
1082.839535
 21
841.960013
 31
0.0
  0
LINE
  5
3EA
330
1F
100
AcDbEntity
  8
002
  6
CENTER
 62
    40
370
     9
100
AcDbLine
 10
1059.545535
 20
841.959955
 30
0.0
 11
1059.545622
 21
807.104855
 31
0.0
  0
LINE
  5
3EB
330
1F
100
AcDbEntity
  8
002
  6
CENTER
 62
    40
370
     9
100
AcDbLine
 10
1068.906615
 20
809.989079
 30
0.0
 11
1068.906928
 21
684.989079
 31
0.0
  0
LINE
  5
3EC
330
1F
100
AcDbEntity
  8
002
  6
CENTER
 62
    40
370
     9
100
AcDbLine
 10
1019.199622
 20
807.104754
 30
0.0
 11
1019.199535
 21
841.959854
 31
0.0
  0
LINE
  5
3ED
330
1F
100
AcDbEntity
  8
002
  6
CENTER
 62
    40
370
     9
100
AcDbLine
 10
1034.796546
 20
837.880493
 30
0.0
 11
1034.796481
 21
863.505793
 31
0.0
  0
LINE
  5
3EE
330
1F
100
AcDbEntity
  8
002
  6
CENTER
 62
    40
370
     9
100
AcDbLine
 10
972.612535
 20
841.959738
 30
0.0
 11
972.612622
 21
807.104638
 31
0.0
  0
LINE
  5
3EF
330
1F
100
AcDbEntity
  8
002
  6
CENTER
 62
    40
370
     9
100
AcDbLine
 10
957.015546
 20
837.880299
 30
0.0
 11
957.015481
 21
863.505599
 31
0.0
  0
LINE
  5
3F0
330
1F
100
AcDbEntity
  8
002
  6
CENTER
 62
    40
370
     9
100
AcDbLine
 10
932.266535
 20
841.959637
 30
0.0
 11
932.266622
 21
807.104537
 31
0.0
  0
LINE
  5
3F1
330
1F
100
AcDbEntity
  8
002
  6
CENTER
 62
    40
370
     9
100
AcDbLine
 10
908.972622
 20
807.104479
 30
0.0
 11
908.972535
 21
841.959579
 31
0.0
  0
LINE
  5
3F2
330
1F
100
AcDbEntity
  8
002
 62
    40
370
     9
100
AcDbLine
 10
902.906726
 20
765.466264
 30
0.0
 11
910.906727
 21
765.216284
 31
0.0
  0
LINE
  5
3F3
330
1F
100
AcDbEntity
  8
002
 62
    40
370
     9
100
AcDbLine
 10
902.906741
 20
759.488664
 30
0.0
 11
890.906788
 21
740.988634
 31
0.0
  0
LINE
  5
3F4
330
1F
100
AcDbEntity
  8
002
  6
CENTER
 62
    40
370
     9
100
AcDbLine
 10
1140.907
 20
655.880059
 30
0.0
 11
1140.906912
 21
691.344759
 31
0.0
  0
LINE
  5
3F5
330
1F
100
AcDbEntity
  8
002
 62
     3
370
    30
100
AcDbLine
 10
965.907851
 20
278.114196
 30
0.0
 11
965.908206
 21
135.989221
 31
0.0
  0
LINE
  5
3F6
330
1F
100
AcDbEntity
  8
002
 62
     3
370
    30
100
AcDbLine
 10
965.908206
 20
135.989221
 30
0.0
 11
1025.908206
 21
135.989371
 31
0.0
  0
LINE
  5
3F7
330
1F
100
AcDbEntity
  8
002
 62
     3
370
    30
100
AcDbLine
 10
1025.908206
 20
135.989371
 30
0.0
 11
1025.907851
 21
278.114196
 31
0.0
  0
LINE
  5
3F8
330
1F
100
AcDbEntity
  8
002
 62
     3
370
    30
100
AcDbLine
 10
1018.408206
 20
135.989352
 30
0.0
 11
1018.408383
 21
64.988952
 31
0.0
  0
LINE
  5
3F9
330
1F
100
AcDbEntity
  8
002
 62
     3
370
    30
100
AcDbLine
 10
1018.408383
 20
64.988952
 30
0.0
 11
973.408383
 21
64.98884
 31
0.0
  0
LINE
  5
3FA
330
1F
100
AcDbEntity
  8
002
 62
     3
370
    30
100
AcDbLine
 10
973.408383
 20
64.98884
 30
0.0
 11
973.408206
 21
135.98924
 31
0.0
  0
LINE
  5
3FB
330
1F
100
AcDbEntity
  8
002
 62
    40
370
     9
100
AcDbLine
 10
1022.417206
 20
135.989362
 30
0.0
 11
1022.416851
 21
278.114196
 31
0.0
  0
LINE
  5
3FC
330
1F
100
AcDbEntity
  8
002
 62
    40
370
     9
100
AcDbLine
 10
969.398851
 20
278.114196
 30
0.0
 11
969.399206
 21
135.98923
 31
0.0
  0
LINE
  5
3FD
330
1F
100
AcDbEntity
  8
002
  6
HIDDEN
 62
    40
370
     9
100
AcDbLine
 10
1153.90693
 20
683.989291
 30
0.0
 11
1153.906978
 21
664.989291
 31
0.0
  0
LINE
  5
3FE
330
1F
100
AcDbEntity
  8
002
  6
HIDDEN
 62
    40
370
     9
100
AcDbLine
 10
1115.90693
 20
683.989196
 30
0.0
 11
1165.90693
 21
683.989321
 31
0.0
  0
LINE
  5
3FF
330
1F
100
AcDbEntity
  8
002
  6
HIDDEN
 62
    40
370
     9
100
AcDbLine
 10
1165.90693
 20
683.989321
 30
0.0
 11
1165.906928
 21
684.989321
 31
0.0
  0
LINE
  5
400
330
1F
100
AcDbEntity
  8
002
  6
HIDDEN
 62
    40
370
     9
100
AcDbLine
 10
1127.90693
 20
683.989226
 30
0.0
 11
1127.906978
 21
664.989226
 31
0.0
  0
LINE
  5
401
330
1F
100
AcDbEntity
  8
002
  6
HIDDEN
 62
    40
370
     9
100
AcDbLine
 10
1115.906928
 20
684.989196
 30
0.0
 11
1115.90693
 21
683.989196
 31
0.0
  0
LINE
  5
402
330
1F
100
AcDbEntity
  8
002
  6
HIDDEN
 62
    40
370
     9
100
AcDbLine
 10
931.90693
 20
683.988736
 30
0.0
 11
931.906978
 21
664.988736
 31
0.0
  0
LINE
  5
403
330
1F
100
AcDbEntity
  8
002
  6
HIDDEN
 62
    40
370
     9
100
AcDbLine
 10
943.90693
 20
683.988766
 30
0.0
 11
893.90693
 21
683.988641
 31
0.0
  0
LINE
  5
404
330
1F
100
AcDbEntity
  8
002
  6
HIDDEN
 62
    40
370
     9
100
AcDbLine
 10
943.90693
 20
683.988766
 30
0.0
 11
943.906928
 21
684.988766
 31
0.0
  0
LINE
  5
405
330
1F
100
AcDbEntity
  8
002
  6
HIDDEN
 62
    40
370
     9
100
AcDbLine
 10
905.90693
 20
683.988671
 30
0.0
 11
905.906978
 21
664.988671
 31
0.0
  0
LINE
  5
406
330
1F
100
AcDbEntity
  8
002
  6
HIDDEN
 62
    40
370
     9
100
AcDbLine
 10
893.90693
 20
683.988641
 30
0.0
 11
893.906928
 21
684.988641
 31
0.0
  0
LINE
  5
407
330
1F
100
AcDbEntity
  8
002
 62
     3
370
    30
100
AcDbLine
 10
974.811006
 20
464.113896
 30
0.0
 11
974.811006
 21
451.208096
 31
0.0
  0
LINE
  5
408
330
1F
100
AcDbEntity
  8
002
 62
     3
370
    30
100
AcDbLine
 10
971.476006
 20
454.568996
 30
0.0
 11
983.407006
 21
442.591196
 31
0.0
  0
LINE
  5
409
330
1F
100
AcDbEntity
  8
002
 62
     3
370
    30
100
AcDbLine
 10
983.407006
 20
444.303796
 30
0.0
 11
1008.407006
 21
419.187196
 31
0.0
  0
LINE
  5
40A
330
1F
100
AcDbEntity
  8
002
 62
     3
370
    30
100
AcDbLine
 10
1008.406006
 20
417.491396
 30
0.0
 11
1029.310006
 21
396.504996
 31
0.0
  0
ARC
  5
40B
330
1F
100
AcDbEntity
  8
002
 62
     3
370
    30
100
AcDbCircle
 10
1024.801006
 20
392.105496
 30
0.0
 40
6.299766234551814
100
AcDbArc
 50
224.884251
 51
45.481693
  0
LINE
  5
40C
330
1F
100
AcDbEntity
  8
002
 62
     3
370
    30
100
AcDbLine
 10
1020.337006
 20
387.659296
 30
0.0
 11
1008.406006
 21
399.637096
 31
0.0
  0
LINE
  5
40D
330
1F
100
AcDbEntity
  8
002
 62
     3
370
    30
100
AcDbLine
 10
1008.406006
 20
397.924496
 30
0.0
 11
983.406006
 21
423.041096
 31
0.0
  0
LINE
  5
40E
330
1F
100
AcDbEntity
  8
002
 62
     3
370
    30
100
AcDbLine
 10
983.407006
 20
424.736796
 30
0.0
 11
962.503006
 21
445.723196
 31
0.0
  0
ARC
  5
40F
330
1F
100
AcDbEntity
  8
002
 62
     3
370
    30
100
AcDbCircle
 10
967.012006
 20
450.122796
 30
0.0
 40
6.299766234551814
100
AcDbArc
 50
44.884251
 51
225.481693
  0
LINE
  5
410
330
1F
100
AcDbEntity
  8
002
 62
     3
370
    30
100
AcDbLine
 10
974.811006
 20
433.426296
 30
0.0
 11
974.811006
 21
387.072696
 31
0.0
  0
ARC
  5
411
330
1F
100
AcDbEntity
  8
002
 62
     3
370
    30
100
AcDbCircle
 10
967.012006
 20
386.122596
 30
0.0
 40
6.299766234551814
100
AcDbArc
 50
44.884251
 51
225.481693
  0
LINE
  5
412
330
1F
100
AcDbEntity
  8
002
 62
     3
370
    30
100
AcDbLine
 10
962.503006
 20
381.722996
 30
0.0
 11
983.407006
 21
360.736596
 31
0.0
  0
LINE
  5
413
330
1F
100
AcDbEntity
  8
002
 62
     3
370
    30
100
AcDbLine
 10
983.406006
 20
359.040796
 30
0.0
 11
1008.406006
 21
333.924296
 31
0.0
  0
LINE
  5
414
330
1F
100
AcDbEntity
  8
002
 62
     3
370
    30
100
AcDbLine
 10
1008.406006
 20
335.636796
 30
0.0
 11
1020.337006
 21
323.658996
 31
0.0
  0
ARC
  5
415
330
1F
100
AcDbEntity
  8
002
 62
     3
370
    30
100
AcDbCircle
 10
1024.801006
 20
328.105196
 30
0.0
 40
6.299766234551814
100
AcDbArc
 50
224.883607
 51
45.481693
  0
LINE
  5
416
330
1F
100
AcDbEntity
  8
002
 62
     3
370
    30
100
AcDbLine
 10
1029.310006
 20
332.504796
 30
0.0
 11
1008.406006
 21
353.491196
 31
0.0
  0
LINE
  5
417
330
1F
100
AcDbEntity
  8
002
 62
     3
370
    30
100
AcDbLine
 10
1008.406006
 20
355.186996
 30
0.0
 11
983.407006
 21
380.303596
 31
0.0
  0
LINE
  5
418
330
1F
100
AcDbEntity
  8
002
 62
     3
370
    30
100
AcDbLine
 10
983.406006
 20
378.590896
 30
0.0
 11
971.476006
 21
390.568696
 31
0.0
  0
LINE
  5
419
330
1F
100
AcDbEntity
  8
002
 62
     3
370
    30
100
AcDbLine
 10
992.906006
 20
389.613996
 30
0.0
 11
993.906006
 21
389.613996
 31
0.0
  0
LINE
  5
41A
330
1F
100
AcDbEntity
  8
002
 62
     3
370
    30
100
AcDbLine
 10
993.906006
 20
389.614096
 30
0.0
 11
994.857006
 21
390.163096
 31
0.0
  0
LINE
  5
41B
330
1F
100
AcDbEntity
  8
002
 62
     3
370
    30
100
AcDbLine
 10
994.857006
 20
390.163096
 30
0.0
 11
995.406006
 21
391.113996
 31
0.0
  0
LINE
  5
41C
330
1F
100
AcDbEntity
  8
002
 62
     3
370
    30
100
AcDbLine
 10
995.406006
 20
391.114096
 30
0.0
 11
995.406006
 21
392.113996
 31
0.0
  0
LINE
  5
41D
330
1F
100
AcDbEntity
  8
002
 62
     3
370
    30
100
AcDbLine
 10
995.406006
 20
392.113996
 30
0.0
 11
996.406006
 21
392.113996
 31
0.0
  0
LINE
  5
41E
330
1F
100
AcDbEntity
  8
002
 62
     3
370
    30
100
AcDbLine
 10
996.406006
 20
392.113996
 30
0.0
 11
996.406006
 21
391.114096
 31
0.0
  0
LINE
  5
41F
330
1F
100
AcDbEntity
  8
002
 62
     3
370
    30
100
AcDbLine
 10
996.406006
 20
391.114096
 30
0.0
 11
996.955006
 21
390.163096
 31
0.0
  0
LINE
  5
420
330
1F
100
AcDbEntity
  8
002
 62
     3
370
    30
100
AcDbLine
 10
996.955006
 20
390.163096
 30
0.0
 11
997.906006
 21
389.614096
 31
0.0
  0
LINE
  5
421
330
1F
100
AcDbEntity
  8
002
 62
     3
370
    30
100
AcDbLine
 10
997.906006
 20
389.613996
 30
0.0
 11
998.906006
 21
389.613996
 31
0.0
  0
LINE
  5
422
330
1F
100
AcDbEntity
  8
002
 62
     3
370
    30
100
AcDbLine
 10
998.906006
 20
389.613996
 30
0.0
 11
998.906006
 21
388.614096
 31
0.0
  0
LINE
  5
423
330
1F
100
AcDbEntity
  8
002
 62
     3
370
    30
100
AcDbLine
 10
998.906006
 20
388.614096
 30
0.0
 11
997.906006
 21
388.614096
 31
0.0
  0
LINE
  5
424
330
1F
100
AcDbEntity
  8
002
 62
     3
370
    30
100
AcDbLine
 10
997.906006
 20
388.613996
 30
0.0
 11
996.955006
 21
388.064996
 31
0.0
  0
LINE
  5
425
330
1F
100
AcDbEntity
  8
002
 62
     3
370
    30
100
AcDbLine
 10
996.955006
 20
388.064996
 30
0.0
 11
996.406006
 21
387.114096
 31
0.0
  0
LINE
  5
426
330
1F
100
AcDbEntity
  8
002
 62
     3
370
    30
100
AcDbLine
 10
996.406006
 20
387.113996
 30
0.0
 11
996.406006
 21
386.113996
 31
0.0
  0
LINE
  5
427
330
1F
100
AcDbEntity
  8
002
 62
     3
370
    30
100
AcDbLine
 10
996.406006
 20
386.113996
 30
0.0
 11
995.406006
 21
386.113996
 31
0.0
  0
LINE
  5
428
330
1F
100
AcDbEntity
  8
002
 62
     3
370
    30
100
AcDbLine
 10
995.406006
 20
386.113996
 30
0.0
 11
995.406006
 21
387.113996
 31
0.0
  0
LINE
  5
429
330
1F
100
AcDbEntity
  8
002
 62
     3
370
    30
100
AcDbLine
 10
995.406006
 20
387.113996
 30
0.0
 11
994.857006
 21
388.064996
 31
0.0
  0
LINE
  5
42A
330
1F
100
AcDbEntity
  8
002
 62
     3
370
    30
100
AcDbLine
 10
994.857006
 20
388.064996
 30
0.0
 11
993.906006
 21
388.613996
 31
0.0
  0
LINE
  5
42B
330
1F
100
AcDbEntity
  8
002
 62
     3
370
    30
100
AcDbLine
 10
993.906006
 20
388.614096
 30
0.0
 11
992.906006
 21
388.614096
 31
0.0
  0
LINE
  5
42C
330
1F
100
AcDbEntity
  8
002
 62
     3
370
    30
100
AcDbLine
 10
992.906006
 20
388.614096
 30
0.0
 11
992.906006
 21
389.613996
 31
0.0
  0
CIRCLE
  5
42D
330
1F
100
AcDbEntity
  8
002
 62
     3
370
    30
100
AcDbCircle
 10
995.906006
 20
389.113996
 30
0.0
 40
5.249999
  0
LINE
  5
42E
330
1F
100
AcDbEntity
  8
002
 62
     3
370
    30
100
AcDbLine
 10
1017.001006
 20
391.007896
 30
0.0
 11
1017.001006
 21
344.801796
 31
0.0
  0
LINE
  5
42F
330
1F
100
AcDbEntity
  8
002
 62
     3
370
    30
100
AcDbLine
 10
1017.001006
 20
327.007596
 30
0.0
 11
1017.001006
 21
313.114196
 31
0.0
  0
LINE
  5
430
330
1F
100
AcDbEntity
  8
002
 62
     3
370
    30
100
AcDbLine
 10
1008.406006
 20
318.113996
 30
0.0
 11
1008.406006
 21
460.114296
 31
0.0
  0
ARC
  5
431
330
1F
100
AcDbEntity
  8
002
 62
     3
370
    30
100
AcDbCircle
 10
1006.406006
 20
460.113996
 30
0.0
 40
2.0
100
AcDbArc
 50
0.0
 51
90.0
  0
LINE
  5
432
330
1F
100
AcDbEntity
  8
002
 62
     3
370
    30
100
AcDbLine
 10
1006.406006
 20
462.113996
 30
0.0
 11
985.406006
 21
462.113996
 31
0.0
  0
ARC
  5
433
330
1F
100
AcDbEntity
  8
002
 62
     3
370
    30
100
AcDbCircle
 10
985.406006
 20
460.113996
 30
0.0
 40
2.0
100
AcDbArc
 50
90.0
 51
180.0
  0
LINE
  5
434
330
1F
100
AcDbEntity
  8
002
 62
     3
370
    30
100
AcDbLine
 10
983.406006
 20
460.113996
 30
0.0
 11
983.406006
 21
318.113796
 31
0.0
  0
ARC
  5
435
330
1F
100
AcDbEntity
  8
002
 62
     3
370
    30
100
AcDbCircle
 10
985.406006
 20
318.113996
 30
0.0
 40
2.0
100
AcDbArc
 50
180.0
 51
270.0
  0
LINE
  5
436
330
1F
100
AcDbEntity
  8
002
 62
     3
370
    30
100
AcDbLine
 10
985.406006
 20
316.113996
 30
0.0
 11
1006.406006
 21
316.113996
 31
0.0
  0
ARC
  5
437
330
1F
100
AcDbEntity
  8
002
 62
     3
370
    30
100
AcDbCircle
 10
1006.406006
 20
318.113996
 30
0.0
 40
2.0
100
AcDbArc
 50
270.0
 51
0.0
  0
CIRCLE
  5
438
330
1F
100
AcDbEntity
  8
002
 62
     3
370
    30
100
AcDbCircle
 10
995.906006
 20
325.114296
 30
0.0
 40
5.249999
  0
LINE
  5
439
330
1F
100
AcDbEntity
  8
002
 62
     3
370
    30
100
AcDbLine
 10
998.906006
 20
325.614296
 30
0.0
 11
998.906006
 21
324.614296
 31
0.0
  0
LINE
  5
43A
330
1F
100
AcDbEntity
  8
002
 62
     3
370
    30
100
AcDbLine
 10
998.906006
 20
324.614296
 30
0.0
 11
997.906006
 21
324.614296
 31
0.0
  0
LINE
  5
43B
330
1F
100
AcDbEntity
  8
002
 62
     3
370
    30
100
AcDbLine
 10
997.906006
 20
324.614296
 30
0.0
 11
996.956006
 21
324.065296
 31
0.0
  0
LINE
  5
43C
330
1F
100
AcDbEntity
  8
002
 62
     3
370
    30
100
AcDbLine
 10
996.955006
 20
324.065296
 30
0.0
 11
996.406006
 21
323.114296
 31
0.0
  0
LINE
  5
43D
330
1F
100
AcDbEntity
  8
002
 62
     3
370
    30
100
AcDbLine
 10
996.406006
 20
323.114296
 30
0.0
 11
996.406006
 21
322.114296
 31
0.0
  0
LINE
  5
43E
330
1F
100
AcDbEntity
  8
002
 62
     3
370
    30
100
AcDbLine
 10
996.406006
 20
322.114296
 30
0.0
 11
995.406006
 21
322.114296
 31
0.0
  0
LINE
  5
43F
330
1F
100
AcDbEntity
  8
002
 62
     3
370
    30
100
AcDbLine
 10
995.406006
 20
322.114296
 30
0.0
 11
995.406006
 21
323.114296
 31
0.0
  0
LINE
  5
440
330
1F
100
AcDbEntity
  8
002
 62
     3
370
    30
100
AcDbLine
 10
995.406006
 20
323.114296
 30
0.0
 11
994.857006
 21
324.065296
 31
0.0
  0
LINE
  5
441
330
1F
100
AcDbEntity
  8
002
 62
     3
370
    30
100
AcDbLine
 10
994.857006
 20
324.065296
 30
0.0
 11
993.906006
 21
324.614296
 31
0.0
  0
LINE
  5
442
330
1F
100
AcDbEntity
  8
002
 62
     3
370
    30
100
AcDbLine
 10
993.906006
 20
324.614296
 30
0.0
 11
992.906006
 21
324.614296
 31
0.0
  0
LINE
  5
443
330
1F
100
AcDbEntity
  8
002
 62
     3
370
    30
100
AcDbLine
 10
992.906006
 20
324.614296
 30
0.0
 11
992.906006
 21
325.614296
 31
0.0
  0
LINE
  5
444
330
1F
100
AcDbEntity
  8
002
 62
     3
370
    30
100
AcDbLine
 10
992.906006
 20
325.614296
 30
0.0
 11
993.906006
 21
325.614296
 31
0.0
  0
LINE
  5
445
330
1F
100
AcDbEntity
  8
002
 62
     3
370
    30
100
AcDbLine
 10
993.906006
 20
325.614296
 30
0.0
 11
994.857006
 21
326.163296
 31
0.0
  0
LINE
  5
446
330
1F
100
AcDbEntity
  8
002
 62
     3
370
    30
100
AcDbLine
 10
994.857006
 20
326.163196
 30
0.0
 11
995.406006
 21
327.114196
 31
0.0
  0
LINE
  5
447
330
1F
100
AcDbEntity
  8
002
 62
     3
370
    30
100
AcDbLine
 10
995.406006
 20
327.114296
 30
0.0
 11
995.406006
 21
328.114296
 31
0.0
  0
LINE
  5
448
330
1F
100
AcDbEntity
  8
002
 62
     3
370
    30
100
AcDbLine
 10
995.406006
 20
328.114296
 30
0.0
 11
996.406006
 21
328.114296
 31
0.0
  0
LINE
  5
449
330
1F
100
AcDbEntity
  8
002
 62
     3
370
    30
100
AcDbLine
 10
996.406006
 20
328.114296
 30
0.0
 11
996.406006
 21
327.114296
 31
0.0
  0
LINE
  5
44A
330
1F
100
AcDbEntity
  8
002
 62
     3
370
    30
100
AcDbLine
 10
996.406006
 20
327.114296
 30
0.0
 11
996.955006
 21
326.163296
 31
0.0
  0
LINE
  5
44B
330
1F
100
AcDbEntity
  8
002
 62
     3
370
    30
100
AcDbLine
 10
996.955006
 20
326.163296
 30
0.0
 11
997.906006
 21
325.614196
 31
0.0
  0
LINE
  5
44C
330
1F
100
AcDbEntity
  8
002
 62
     3
370
    30
100
AcDbLine
 10
997.906006
 20
325.614296
 30
0.0
 11
998.906006
 21
325.614296
 31
0.0
  0
LINE
  5
44D
330
1F
100
AcDbEntity
  8
002
 62
     3
370
    30
100
AcDbLine
 10
974.811006
 20
313.114196
 30
0.0
 11
974.811006
 21
369.232296
 31
0.0
  0
LINE
  5
44E
330
1F
100
AcDbEntity
  8
002
 62
     3
370
    30
100
AcDbLine
 10
1017.001006
 20
408.988996
 30
0.0
 11
1017.001006
 21
464.113896
 31
0.0
  0
LINE
  5
44F
330
1F
100
AcDbEntity
  8
002
 62
     3
370
    30
100
AcDbLine
 10
1017.002006
 20
464.114996
 30
0.0
 11
1016.425006
 21
465.113996
 31
0.0
  0
LINE
  5
450
330
1F
100
AcDbEntity
  8
002
 62
     3
370
    30
100
AcDbLine
 10
1042.906006
 20
465.113896
 30
0.0
 11
1042.906006
 21
313.114796
 31
0.0
  0
LINE
  5
451
330
1F
100
AcDbEntity
  8
002
 62
     3
370
    30
100
AcDbLine
 10
948.906006
 20
313.114796
 30
0.0
 11
948.906006
 21
465.113896
 31
0.0
  0
LINE
  5
452
330
1F
100
AcDbEntity
  8
002
 62
     3
370
    30
100
AcDbLine
 10
948.906006
 20
465.113896
 30
0.0
 11
1042.906006
 21
465.113896
 31
0.0
  0
CIRCLE
  5
453
330
1F
100
AcDbEntity
  8
002
 62
     3
370
    30
100
AcDbCircle
 10
995.906006
 20
453.114296
 30
0.0
 40
5.249999
  0
LINE
  5
454
330
1F
100
AcDbEntity
  8
002
 62
     3
370
    30
100
AcDbLine
 10
998.906006
 20
453.614196
 30
0.0
 11
998.906006
 21
452.614296
 31
0.0
  0
LINE
  5
455
330
1F
100
AcDbEntity
  8
002
 62
     3
370
    30
100
AcDbLine
 10
998.906006
 20
452.614296
 30
0.0
 11
997.906006
 21
452.614296
 31
0.0
  0
LINE
  5
456
330
1F
100
AcDbEntity
  8
002
 62
     3
370
    30
100
AcDbLine
 10
997.906006
 20
452.614196
 30
0.0
 11
996.955006
 21
452.065196
 31
0.0
  0
LINE
  5
457
330
1F
100
AcDbEntity
  8
002
 62
     3
370
    30
100
AcDbLine
 10
996.955006
 20
452.065196
 30
0.0
 11
996.406006
 21
451.114296
 31
0.0
  0
LINE
  5
458
330
1F
100
AcDbEntity
  8
002
 62
     3
370
    30
100
AcDbLine
 10
996.406006
 20
451.114196
 30
0.0
 11
996.406006
 21
450.114296
 31
0.0
  0
LINE
  5
459
330
1F
100
AcDbEntity
  8
002
 62
     3
370
    30
100
AcDbLine
 10
996.406006
 20
450.114296
 30
0.0
 11
995.406006
 21
450.114296
 31
0.0
  0
LINE
  5
45A
330
1F
100
AcDbEntity
  8
002
 62
     3
370
    30
100
AcDbLine
 10
995.406006
 20
450.114296
 30
0.0
 11
995.406006
 21
451.114196
 31
0.0
  0
LINE
  5
45B
330
1F
100
AcDbEntity
  8
002
 62
     3
370
    30
100
AcDbLine
 10
995.406006
 20
451.114296
 30
0.0
 11
994.857006
 21
452.065196
 31
0.0
  0
LINE
  5
45C
330
1F
100
AcDbEntity
  8
002
 62
     3
370
    30
100
AcDbLine
 10
994.857006
 20
452.065196
 30
0.0
 11
993.906006
 21
452.614196
 31
0.0
  0
LINE
  5
45D
330
1F
100
AcDbEntity
  8
002
 62
     3
370
    30
100
AcDbLine
 10
993.906006
 20
452.614296
 30
0.0
 11
992.906006
 21
452.614296
 31
0.0
  0
LINE
  5
45E
330
1F
100
AcDbEntity
  8
002
 62
     3
370
    30
100
AcDbLine
 10
992.906006
 20
452.614296
 30
0.0
 11
992.906006
 21
453.614196
 31
0.0
  0
LINE
  5
45F
330
1F
100
AcDbEntity
  8
002
 62
     3
370
    30
100
AcDbLine
 10
992.906006
 20
453.614196
 30
0.0
 11
993.906006
 21
453.614196
 31
0.0
  0
LINE
  5
460
330
1F
100
AcDbEntity
  8
002
 62
     3
370
    30
100
AcDbLine
 10
993.906006
 20
453.614296
 30
0.0
 11
994.857006
 21
454.163296
 31
0.0
  0
LINE
  5
461
330
1F
100
AcDbEntity
  8
002
 62
     3
370
    30
100
AcDbLine
 10
994.857006
 20
454.163396
 30
0.0
 11
995.406006
 21
455.114296
 31
0.0
  0
LINE
  5
462
330
1F
100
AcDbEntity
  8
002
 62
     3
370
    30
100
AcDbLine
 10
995.406006
 20
455.114296
 30
0.0
 11
995.406006
 21
456.114196
 31
0.0
  0
LINE
  5
463
330
1F
100
AcDbEntity
  8
002
 62
     3
370
    30
100
AcDbLine
 10
995.406006
 20
456.114196
 30
0.0
 11
996.406006
 21
456.114196
 31
0.0
  0
LINE
  5
464
330
1F
100
AcDbEntity
  8
002
 62
     3
370
    30
100
AcDbLine
 10
996.406006
 20
456.114196
 30
0.0
 11
996.406006
 21
455.114296
 31
0.0
  0
LINE
  5
465
330
1F
100
AcDbEntity
  8
002
 62
     3
370
    30
100
AcDbLine
 10
996.406006
 20
455.114296
 30
0.0
 11
996.955006
 21
454.163296
 31
0.0
  0
LINE
  5
466
330
1F
100
AcDbEntity
  8
002
 62
     3
370
    30
100
AcDbLine
 10
996.955006
 20
454.163296
 30
0.0
 11
997.906006
 21
453.614296
 31
0.0
  0
LINE
  5
467
330
1F
100
AcDbEntity
  8
002
 62
     3
370
    30
100
AcDbLine
 10
997.906006
 20
453.614196
 30
0.0
 11
998.906006
 21
453.614196
 31
0.0
  0
LINE
  5
468
330
1F
100
AcDbEntity
  8
002
 62
     3
370
    30
100
AcDbLine
 10
975.389006
 20
465.113896
 30
0.0
 11
974.812006
 21
464.114296
 31
0.0
  0
LINE
  5
469
330
1F
100
AcDbEntity
  8
002
 62
     3
370
    30
100
AcDbLine
 10
1095.907096
 20
313.114196
 30
0.0
 11
895.907096
 21
313.114196
 31
0.0
  0
LINE
  5
46A
330
1F
100
AcDbEntity
  8
002
  6
PHANTOM
 62
    40
370
     9
100
AcDbLine
 10
983.407006
 20
369.663696
 30
0.0
 11
962.566006
 21
390.586296
 31
0.0
  0
LINE
  5
46B
330
1F
100
AcDbEntity
  8
002
  6
PHANTOM
 62
    40
370
     9
100
AcDbLine
 10
983.407006
 20
433.663996
 30
0.0
 11
962.566006
 21
454.586596
 31
0.0
  0
LINE
  5
46C
330
1F
100
AcDbEntity
  8
002
  6
PHANTOM
 62
    40
370
     9
100
AcDbLine
 10
1008.406006
 20
408.564296
 30
0.0
 11
1029.246006
 21
387.641696
 31
0.0
  0
LINE
  5
46D
330
1F
100
AcDbEntity
  8
002
  6
PHANTOM
 62
    40
370
     9
100
AcDbLine
 10
1008.406006
 20
344.563996
 30
0.0
 11
1029.246006
 21
323.641396
 31
0.0
  0
LINE
  5
46E
330
1F
100
AcDbEntity
  8
002
 62
     3
370
    30
100
AcDbLine
 10
1095.90714
 20
278.114196
 30
0.0
 11
895.90714
 21
278.114196
 31
0.0
  0
LINE
  5
46F
330
1F
100
AcDbEntity
  8
002
 62
     3
370
    30
100
AcDbLine
 10
1095.907096
 20
313.114509
 30
0.0
 11
1095.90714
 21
278.114196
 31
0.0
  0
LINE
  5
470
330
1F
100
AcDbEntity
  8
002
 62
     3
370
    30
100
AcDbLine
 10
895.907096
 20
313.114196
 30
0.0
 11
895.90714
 21
278.114196
 31
0.0
  0
LINE
  5
471
330
1F
100
AcDbEntity
  8
002
  6
CENTER
 62
    40
370
     9
100
AcDbLine
 10
918.40709
 20
318.114196
 30
0.0
 11
918.407146
 21
273.114196
 31
0.0
  0
LINE
  5
472
330
1F
100
AcDbEntity
  8
002
  6
CENTER
 62
    40
370
     9
100
AcDbLine
 10
1073.40709
 20
318.114196
 30
0.0
 11
1073.407146
 21
273.114196
 31
0.0
  0
LINE
  5
473
330
1F
100
AcDbEntity
  8
002
 62
     3
370
    30
100
AcDbLine
 10
413.320368
 20
256.871928
 30
0.0
 11
405.320368
 21
256.871928
 31
0.0
  0
LINE
  5
474
330
1F
100
AcDbEntity
  8
002
 62
     3
370
    30
100
AcDbLine
 10
405.320368
 20
263.871928
 30
0.0
 11
413.320368
 21
263.871928
 31
0.0
  0
LINE
  5
475
330
1F
100
AcDbEntity
  8
002
 62
     3
370
    30
100
AcDbLine
 10
413.320368
 20
263.871928
 30
0.0
 11
413.320368
 21
256.871928
 31
0.0
  0
LINE
  5
476
330
1F
100
AcDbEntity
  8
002
 62
     3
370
    30
100
AcDbLine
 10
405.320368
 20
263.871928
 30
0.0
 11
405.320368
 21
256.871928
 31
0.0
  0
ARC
  5
477
330
1F
100
AcDbEntity
  8
002
 62
     3
370
    30
100
AcDbCircle
 10
409.320368
 20
248.371928
 30
0.0
 40
12.5
100
AcDbArc
 50
108.662925
 51
71.337075
  0
ARC
  5
478
330
1F
100
AcDbEntity
  8
002
 62
     3
370
    30
100
AcDbCircle
 10
409.320368
 20
248.371928
 30
0.0
 40
13.99995961279885
100
AcDbArc
 50
106.601599
 51
73.398401
  0
LINE
  5
479
330
1F
100
AcDbEntity
  8
002
 62
     3
370
    30
100
AcDbLine
 10
1072.906765
 20
758.489079
 30
0.0
 11
1064.906765
 21
758.489079
 31
0.0
  0
LINE
  5
47A
330
1F
100
AcDbEntity
  8
002
 62
     3
370
    30
100
AcDbLine
 10
1064.906765
 20
765.489079
 30
0.0
 11
1072.906765
 21
765.489079
 31
0.0
  0
LINE
  5
47B
330
1F
100
AcDbEntity
  8
002
 62
     3
370
    30
100
AcDbLine
 10
1072.906765
 20
765.489079
 30
0.0
 11
1072.906765
 21
758.489079
 31
0.0
  0
LINE
  5
47C
330
1F
100
AcDbEntity
  8
002
 62
     3
370
    30
100
AcDbLine
 10
1064.906765
 20
765.489079
 30
0.0
 11
1064.906765
 21
758.489079
 31
0.0
  0
ARC
  5
47D
330
1F
100
AcDbEntity
  8
002
 62
     3
370
    30
100
AcDbCircle
 10
1068.906765
 20
749.989079
 30
0.0
 40
12.5
100
AcDbArc
 50
108.662925
 51
71.337075
  0
ARC
  5
47E
330
1F
100
AcDbEntity
  8
002
 62
     3
370
    30
100
AcDbCircle
 10
1068.906765
 20
749.989079
 30
0.0
 40
13.99995961279885
100
AcDbArc
 50
106.601599
 51
73.398401
  0
CIRCLE
  5
47F
330
1F
100
AcDbEntity
  8
002
 62
     3
370
    30
100
AcDbCircle
 10
336.320368
 20
1929.871928
 30
0.0
 40
67.0
  0
LINE
  5
480
330
1F
100
AcDbEntity
  8
002
 62
     3
370
    30
100
AcDbLine
 10
610.320068
 20
674.370828
 30
0.0
 11
610.320068
 21
522.371628
 31
0.0
  0
LINE
  5
481
330
1F
100
AcDbEntity
  8
002
 62
     3
370
    30
100
AcDbLine
 10
610.320068
 20
522.371628
 30
0.0
 11
706.320068
 21
522.371628
 31
0.0
  0
LINE
  5
482
330
1F
100
AcDbEntity
  8
002
 62
     3
370
    30
100
AcDbLine
 10
706.320068
 20
674.370828
 30
0.0
 11
706.320068
 21
522.371628
 31
0.0
  0
LINE
  5
483
330
1F
100
AcDbEntity
  8
002
 62
     3
370
    30
100
AcDbLine
 10
551.320368
 20
180.371928
 30
0.0
 11
551.320368
 21
163.371928
 31
0.0
  0
LINE
  5
484
330
1F
100
AcDbEntity
  8
002
 62
     3
370
    30
100
AcDbLine
 10
551.320368
 20
163.371928
 30
0.0
 11
833.320068
 21
163.371928
 31
0.0
  0
LINE
  5
485
330
1F
100
AcDbEntity
  8
002
 62
     3
370
    30
100
AcDbLine
 10
833.320068
 20
163.371928
 30
0.0
 11
833.320068
 21
180.371928
 31
0.0
  0
ARC
  5
486
330
1F
100
AcDbEntity
  8
002
 62
     3
370
    30
100
AcDbCircle
 10
830.320068
 20
180.371928
 30
0.0
 40
3.0
100
AcDbArc
 50
0.0
 51
90.0
  0
LINE
  5
487
330
1F
100
AcDbEntity
  8
002
 62
     3
370
    30
100
AcDbLine
 10
830.320068
 20
183.371928
 30
0.0
 11
554.320368
 21
183.371928
 31
0.0
  0
ARC
  5
488
330
1F
100
AcDbEntity
  8
002
 62
     3
370
    30
100
AcDbCircle
 10
554.320368
 20
180.371928
 30
0.0
 40
3.0
100
AcDbArc
 50
90.0
 51
180.0
  0
ARC
  5
489
330
1F
100
AcDbEntity
  8
002
 62
     3
370
    30
100
AcDbCircle
 10
575.320368
 20
186.371928
 30
0.0
 40
3.0
100
AcDbArc
 50
270.0
 51
0.0
  0
LINE
  5
48A
330
1F
100
AcDbEntity
  8
002
 62
     3
370
    30
100
AcDbLine
 10
578.320368
 20
186.371928
 30
0.0
 11
578.320368
 21
218.371928
 31
0.0
  0
ARC
  5
48B
330
1F
100
AcDbEntity
  8
002
 62
     3
370
    30
100
AcDbCircle
 10
573.320368
 20
218.371928
 30
0.0
 40
5.0
100
AcDbArc
 50
0.0
 51
90.0
  0
LINE
  5
48C
330
1F
100
AcDbEntity
  8
002
 62
     3
370
    30
100
AcDbLine
 10
573.320368
 20
223.371928
 30
0.0
 11
573.320368
 21
269.176228
 31
0.0
  0
ARC
  5
48D
330
1F
100
AcDbEntity
  8
002
 62
     3
370
    30
100
AcDbCircle
 10
568.320368
 20
269.176228
 30
0.0
 40
5.000069689514357
100
AcDbArc
 50
0.0
 51
75.000157
  0
LINE
  5
48E
330
1F
100
AcDbEntity
  8
002
 62
     3
370
    30
100
AcDbLine
 10
569.614468
 20
274.005928
 30
0.0
 11
557.026268
 21
277.378928
 31
0.0
  0
LINE
  5
48F
330
1F
100
AcDbEntity
  8
002
 62
     3
370
    30
100
AcDbLine
 10
557.026268
 20
278.371928
 30
0.0
 11
686.420068
 21
278.371928
 31
0.0
  0
LINE
  5
490
330
1F
100
AcDbEntity
  8
002
 62
     3
370
    30
100
AcDbLine
 10
683.270068
 20
273.012928
 30
0.0
 11
685.955068
 21
271.673128
 31
0.0
  0
LINE
  5
491
330
1F
100
AcDbEntity
  8
002
 62
     3
370
    30
100
AcDbLine
 10
685.955068
 20
271.673128
 30
0.0
 11
582.326968
 21
271.673128
 31
0.0
  0
LINE
  5
492
330
1F
100
AcDbEntity
  8
002
 62
     3
370
    30
100
AcDbLine
 10
582.326968
 20
268.012928
 30
0.0
 11
582.326968
 21
248.371928
 31
0.0
  0
LINE
  5
493
330
1F
100
AcDbEntity
  8
002
 62
     3
370
    30
100
AcDbLine
 10
573.320368
 20
231.703828
 30
0.0
 11
565.320368
 21
231.453828
 31
0.0
  0
LINE
  5
494
330
1F
100
AcDbEntity
  8
002
 62
     3
370
    30
100
AcDbLine
 10
565.320368
 20
231.453828
 30
0.0
 11
565.320368
 21
265.289928
 31
0.0
  0
LINE
  5
495
330
1F
100
AcDbEntity
  8
002
 62
     3
370
    30
100
AcDbLine
 10
565.320368
 20
265.289928
 30
0.0
 11
573.320368
 21
265.039928
 31
0.0
  0
LINE
  5
496
330
1F
100
AcDbEntity
  8
002
 62
     3
370
    30
100
AcDbLine
 10
573.320368
 20
273.012928
 30
0.0
 11
577.326968
 21
273.012928
 31
0.0
  0
ARC
  5
497
330
1F
100
AcDbEntity
  8
002
 62
     3
370
    30
100
AcDbCircle
 10
577.326968
 20
268.012928
 30
0.0
 40
4.999914375266868
100
AcDbArc
 50
0.0
 51
65.701717
  0
LINE
  5
498
330
1F
100
AcDbEntity
  8
002
 62
     3
370
    30
100
AcDbLine
 10
594.158368
 20
271.673128
 30
0.0
 11
594.158368
 21
183.371928
 31
0.0
  0
LINE
  5
499
330
1F
100
AcDbEntity
  8
002
 62
     3
370
    30
100
AcDbLine
 10
609.702068
 20
183.371928
 30
0.0
 11
609.702068
 21
271.673128
 31
0.0
  0
LINE
  5
49A
330
1F
100
AcDbEntity
  8
002
 62
     3
370
    30
100
AcDbLine
 10
565.320368
 20
257.871928
 30
0.0
 11
553.320368
 21
257.371928
 31
0.0
  0
LINE
  5
49B
330
1F
100
AcDbEntity
  8
002
 62
     3
370
    30
100
AcDbLine
 10
553.320368
 20
257.371928
 30
0.0
 11
553.320368
 21
239.371928
 31
0.0
  0
LINE
  5
49C
330
1F
100
AcDbEntity
  8
002
 62
     3
370
    30
100
AcDbLine
 10
553.320368
 20
239.371928
 30
0.0
 11
565.320368
 21
238.871928
 31
0.0
  0
ARC
  5
49D
330
1F
100
AcDbEntity
  8
002
 62
     3
370
    30
100
AcDbCircle
 10
382.652068
 20
259.771428
 30
0.0
 40
200.0000357256468
100
AcDbArc
 50
348.053544
 51
356.732514
  0
LINE
  5
49E
330
1F
100
AcDbEntity
  8
002
 62
     3
370
    30
100
AcDbLine
 10
553.320368
 20
282.208528
 30
0.0
 11
553.320368
 21
322.371928
 31
0.0
  0
LINE
  5
49F
330
1F
100
AcDbEntity
  8
002
 62
     3
370
    30
100
AcDbLine
 10
553.320368
 20
322.371928
 30
0.0
 11
763.320068
 21
322.371928
 31
0.0
  0
LINE
  5
4A0
330
1F
100
AcDbEntity
  8
002
 62
     3
370
    30
100
AcDbLine
 10
763.320068
 20
322.371928
 30
0.0
 11
763.320068
 21
290.407628
 31
0.0
  0
ARC
  5
4A1
330
1F
100
AcDbEntity
  8
002
 62
     3
370
    30
100
AcDbCircle
 10
768.320068
 20
290.407628
 30
0.0
 40
4.999631910450926
100
AcDbArc
 50
180.0
 51
228.65064
  0
LINE
  5
4A2
330
1F
100
AcDbEntity
  8
002
 62
     3
370
    30
100
AcDbLine
 10
771.320068
 20
280.010428
 30
0.0
 11
771.320068
 21
216.733328
 31
0.0
  0
ARC
  5
4A3
330
1F
100
AcDbEntity
  8
002
 62
     3
370
    30
100
AcDbCircle
 10
757.320068
 20
223.472128
 30
0.0
 40
15.0
100
AcDbArc
 50
338.769945
 51
0.0
  0
CIRCLE
  5
4A4
330
1F
100
AcDbEntity
  8
002
 62
     3
370
    30
100
AcDbCircle
 10
731.320068
 20
248.371928
 30
0.0
 40
29.0
  0
LINE
  5
4A5
330
1F
100
AcDbEntity
  8
002
 62
     3
370
    30
100
AcDbLine
 10
780.320068
 20
259.326328
 30
0.0
 11
780.320068
 21
186.371928
 31
0.0
  0
ARC
  5
4A6
330
1F
100
AcDbEntity
  8
002
 62
     3
370
    30
100
AcDbCircle
 10
783.320068
 20
186.371928
 30
0.0
 40
3.0
100
AcDbArc
 50
180.0
 51
270.0
  0
LINE
  5
4A7
330
1F
100
AcDbEntity
  8
002
 62
     3
370
    30
100
AcDbLine
 10
772.320068
 20
186.371928
 30
0.0
 11
772.320068
 21
271.175428
 31
0.0
  0
ARC
  5
4A8
330
1F
100
AcDbEntity
  8
002
 62
     3
370
    30
100
AcDbCircle
 10
752.320068
 20
271.175428
 30
0.0
 40
20.00000062499999
100
AcDbArc
 50
0.0
 51
18.194878
  0
ARC
  5
4A9
330
1F
100
AcDbEntity
  8
002
 62
     3
370
    30
100
AcDbCircle
 10
779.173068
 20
271.156228
 30
0.0
 40
2.0
100
AcDbArc
 50
205.458173
 51
270.0
  0
LINE
  5
4AA
330
1F
100
AcDbEntity
  8
002
 62
     3
370
    30
100
AcDbLine
 10
779.173068
 20
269.156228
 30
0.0
 11
780.075068
 21
269.156228
 31
0.0
  0
LINE
  5
4AB
330
1F
100
AcDbEntity
  8
002
 62
     3
370
    30
100
AcDbLine
 10
780.075068
 20
269.156228
 30
0.0
 11
810.100068
 21
186.661828
 31
0.0
  0
ARC
  5
4AC
330
1F
100
AcDbEntity
  8
002
 62
     3
370
    30
100
AcDbCircle
 10
814.799068
 20
188.371928
 30
0.0
 40
5.0
100
AcDbArc
 50
199.997888
 51
270.0
  0
ARC
  5
4AD
330
1F
100
AcDbEntity
  8
002
 62
     3
370
    30
100
AcDbCircle
 10
775.320068
 20
186.371928
 30
0.0
 40
3.0
100
AcDbArc
 50
180.0
 51
270.0
  0
LINE
  5
4AE
330
1F
100
AcDbEntity
  8
002
 62
     3
370
    30
100
AcDbLine
 10
680.320068
 20
248.371928
 30
0.0
 11
680.320068
 21
186.371928
 31
0.0
  0
ARC
  5
4AF
330
1F
100
AcDbEntity
  8
002
 62
     3
370
    30
100
AcDbCircle
 10
677.320068
 20
186.371928
 30
0.0
 40
3.0
100
AcDbArc
 50
270.0
 51
0.0
  0
LINE
  5
4B0
330
1F
100
AcDbEntity
  8
002
 62
     3
370
    30
100
AcDbLine
 10
689.211068
 20
147.371928
 30
0.0
 11
689.211068
 21
157.371928
 31
0.0
  0
LINE
  5
4B1
330
1F
100
AcDbEntity
  8
002
 62
     3
370
    30
100
AcDbLine
 10
705.211068
 20
147.371928
 30
0.0
 11
689.211068
 21
147.371928
 31
0.0
  0
LINE
  5
4B2
330
1F
100
AcDbEntity
  8
002
 62
     3
370
    30
100
AcDbLine
 10
702.870068
 20
147.371928
 30
0.0
 11
702.870068
 21
98.371928
 31
0.0
  0
LINE
  5
4B3
330
1F
100
AcDbEntity
  8
002
 62
     3
370
    30
100
AcDbLine
 10
702.870068
 20
98.371928
 30
0.0
 11
613.770068
 21
98.371928
 31
0.0
  0
LINE
  5
4B4
330
1F
100
AcDbEntity
  8
002
 62
     3
370
    30
100
AcDbLine
 10
613.770068
 20
98.371928
 30
0.0
 11
613.770068
 21
147.371928
 31
0.0
  0
LINE
  5
4B5
330
1F
100
AcDbEntity
  8
002
 62
     3
370
    30
100
AcDbLine
 10
627.429068
 20
147.371928
 30
0.0
 11
627.429068
 21
157.371928
 31
0.0
  0
LINE
  5
4B6
330
1F
100
AcDbEntity
  8
002
 62
     3
370
    30
100
AcDbLine
 10
627.429068
 20
147.371928
 30
0.0
 11
611.429068
 21
147.371928
 31
0.0
  0
LINE
  5
4B7
330
1F
100
AcDbEntity
  8
002
 62
     3
370
    30
100
AcDbLine
 10
611.429068
 20
147.371928
 30
0.0
 11
611.429068
 21
157.371928
 31
0.0
  0
LINE
  5
4B8
330
1F
100
AcDbEntity
  8
002
 62
     3
370
    30
100
AcDbLine
 10
591.320368
 20
157.371928
 30
0.0
 11
725.320068
 21
157.371928
 31
0.0
  0
LINE
  5
4B9
330
1F
100
AcDbEntity
  8
002
 62
     3
370
    30
100
AcDbLine
 10
725.320068
 20
157.371928
 30
0.0
 11
725.320068
 21
163.371928
 31
0.0
  0
LINE
  5
4BA
330
1F
100
AcDbEntity
  8
002
 62
     3
370
    30
100
AcDbLine
 10
705.211068
 20
147.371928
 30
0.0
 11
705.211068
 21
157.371928
 31
0.0
  0
LINE
  5
4BB
330
1F
100
AcDbEntity
  8
002
 62
     3
370
    30
100
AcDbLine
 10
661.207068
 20
243.371928
 30
0.0
 11
664.094068
 21
248.371928
 31
0.0
  0
LINE
  5
4BC
330
1F
100
AcDbEntity
  8
002
 62
     3
370
    30
100
AcDbLine
 10
664.094068
 20
248.371928
 30
0.0
 11
661.207068
 21
253.371928
 31
0.0
  0
LINE
  5
4BD
330
1F
100
AcDbEntity
  8
002
 62
     3
370
    30
100
AcDbLine
 10
661.207068
 20
253.371928
 30
0.0
 11
655.434068
 21
253.371928
 31
0.0
  0
LINE
  5
4BE
330
1F
100
AcDbEntity
  8
002
 62
     3
370
    30
100
AcDbLine
 10
655.434068
 20
253.371928
 30
0.0
 11
652.547068
 21
248.371928
 31
0.0
  0
LINE
  5
4BF
330
1F
100
AcDbEntity
  8
002
 62
     3
370
    30
100
AcDbLine
 10
652.547068
 20
248.371928
 30
0.0
 11
655.434068
 21
243.371928
 31
0.0
  0
LINE
  5
4C0
330
1F
100
AcDbEntity
  8
002
 62
     3
370
    30
100
AcDbLine
 10
655.434068
 20
243.371928
 30
0.0
 11
661.207068
 21
243.371928
 31
0.0
  0
CIRCLE
  5
4C1
330
1F
100
AcDbEntity
  8
002
 62
     3
370
    30
100
AcDbCircle
 10
658.320068
 20
248.371928
 30
0.0
 40
3.25
  0
CIRCLE
  5
4C2
330
1F
100
AcDbEntity
  8
002
 62
     3
370
    30
100
AcDbCircle
 10
658.320068
 20
248.371928
 30
0.0
 40
2.5
  0
CIRCLE
  5
4C3
330
1F
100
AcDbEntity
  8
002
 62
     3
370
    30
100
AcDbCircle
 10
658.320068
 20
248.371928
 30
0.0
 40
0.75
  0
CIRCLE
  5
4C4
330
1F
100
AcDbEntity
  8
002
 62
     3
370
    30
100
AcDbCircle
 10
658.320068
 20
248.371928
 30
0.0
 40
5.0
  0
CIRCLE
  5
4C5
330
1F
100
AcDbEntity
  8
002
 62
     3
370
    30
100
AcDbCircle
 10
658.320068
 20
248.371928
 30
0.0
 40
10.0
  0
LINE
  5
4C6
330
1F
100
AcDbEntity
  8
002
 62
     3
370
    30
100
AcDbLine
 10
710.703068
 20
295.018928
 30
0.0
 11
710.703068
 21
298.281328
 31
0.0
  0
ARC
  5
4C7
330
1F
100
AcDbEntity
  8
002
 62
     3
370
    30
100
AcDbCircle
 10
731.320068
 20
248.371928
 30
0.0
 40
53.9998276015766
100
AcDbArc
 50
112.444958
 51
152.850343
  0
LINE
  5
4C8
330
1F
100
AcDbEntity
  8
002
 62
     3
370
    30
100
AcDbLine
 10
763.320068
 20
308.371928
 30
0.0
 11
553.320368
 21
308.371928
 31
0.0
  0
LINE
  5
4C9
330
1F
100
AcDbEntity
  8
002
 62
     3
370
    30
100
AcDbLine
 10
562.386968
 20
322.371928
 30
0.0
 11
562.386968
 21
334.371928
 31
0.0
  0
LINE
  5
4CA
330
1F
100
AcDbEntity
  8
002
 62
     3
370
    30
100
AcDbLine
 10
580.386968
 20
334.371928
 30
0.0
 11
580.386968
 21
322.371928
 31
0.0
  0
LINE
  5
4CB
330
1F
100
AcDbEntity
  8
002
 62
     3
370
    30
100
AcDbLine
 10
582.320368
 20
322.371928
 30
0.0
 11
582.320368
 21
323.371928
 31
0.0
  0
LINE
  5
4CC
330
1F
100
AcDbEntity
  8
002
 62
     3
370
    30
100
AcDbLine
 10
582.320368
 20
323.371928
 30
0.0
 11
585.680768
 21
323.371928
 31
0.0
  0
LINE
  5
4CD
330
1F
100
AcDbEntity
  8
002
 62
     3
370
    30
100
AcDbLine
 10
585.680768
 20
322.371928
 30
0.0
 11
585.680768
 21
334.371928
 31
0.0
  0
LINE
  5
4CE
330
1F
100
AcDbEntity
  8
002
 62
     3
370
    30
100
AcDbLine
 10
603.681068
 20
334.371928
 30
0.0
 11
585.680768
 21
334.371928
 31
0.0
  0
LINE
  5
4CF
330
1F
100
AcDbEntity
  8
002
 62
     3
370
    30
100
AcDbLine
 10
580.386968
 20
334.371928
 30
0.0
 11
562.386968
 21
334.371928
 31
0.0
  0
LINE
  5
4D0
330
1F
100
AcDbEntity
  8
002
 62
     3
370
    30
100
AcDbLine
 10
591.320368
 20
334.371928
 30
0.0
 11
591.320368
 21
338.371928
 31
0.0
  0
LINE
  5
4D1
330
1F
100
AcDbEntity
  8
002
 62
     3
370
    30
100
AcDbLine
 10
591.320368
 20
338.371928
 30
0.0
 11
725.320068
 21
338.371928
 31
0.0
  0
LINE
  5
4D2
330
1F
100
AcDbEntity
  8
002
 62
     3
370
    30
100
AcDbLine
 10
725.320068
 20
338.371928
 30
0.0
 11
725.320068
 21
334.371928
 31
0.0
  0
LINE
  5
4D3
330
1F
100
AcDbEntity
  8
002
 62
     3
370
    30
100
AcDbLine
 10
712.960068
 20
334.371928
 30
0.0
 11
712.960068
 21
322.371928
 31
0.0
  0
LINE
  5
4D4
330
1F
100
AcDbEntity
  8
002
 62
     3
370
    30
100
AcDbLine
 10
712.960068
 20
323.371928
 30
0.0
 11
690.614068
 21
323.371928
 31
0.0
  0
LINE
  5
4D5
330
1F
100
AcDbEntity
  8
002
 62
     3
370
    30
100
AcDbLine
 10
690.614068
 20
322.371928
 30
0.0
 11
690.614068
 21
334.371928
 31
0.0
  0
LINE
  5
4D6
330
1F
100
AcDbEntity
  8
002
 62
     3
370
    30
100
AcDbLine
 10
672.614068
 20
334.371928
 30
0.0
 11
690.614068
 21
334.371928
 31
0.0
  0
LINE
  5
4D7
330
1F
100
AcDbEntity
  8
002
 62
     3
370
    30
100
AcDbLine
 10
693.320068
 20
338.371928
 30
0.0
 11
693.320068
 21
351.371928
 31
0.0
  0
LINE
  5
4D8
330
1F
100
AcDbEntity
  8
002
 62
     3
370
    30
100
AcDbLine
 10
693.320068
 20
351.371928
 30
0.0
 11
623.320068
 21
351.371928
 31
0.0
  0
LINE
  5
4D9
330
1F
100
AcDbEntity
  8
002
 62
     3
370
    30
100
AcDbLine
 10
623.320068
 20
351.371928
 30
0.0
 11
623.320068
 21
338.371928
 31
0.0
  0
LINE
  5
4DA
330
1F
100
AcDbEntity
  8
002
 62
     3
370
    30
100
AcDbLine
 10
644.027068
 20
334.371928
 30
0.0
 11
644.027068
 21
322.371928
 31
0.0
  0
LINE
  5
4DB
330
1F
100
AcDbEntity
  8
002
 62
     3
370
    30
100
AcDbLine
 10
644.027068
 20
323.371928
 30
0.0
 11
672.614068
 21
323.371928
 31
0.0
  0
LINE
  5
4DC
330
1F
100
AcDbEntity
  8
002
 62
     3
370
    30
100
AcDbLine
 10
672.614068
 20
322.371928
 30
0.0
 11
672.614068
 21
334.371928
 31
0.0
  0
LINE
  5
4DD
330
1F
100
AcDbEntity
  8
002
 62
     3
370
    30
100
AcDbLine
 10
637.225068
 20
674.371428
 30
0.0
 11
637.225068
 21
660.478028
 31
0.0
  0
LINE
  5
4DE
330
1F
100
AcDbEntity
  8
002
 62
     3
370
    30
100
AcDbLine
 10
633.889068
 20
663.826528
 30
0.0
 11
645.820068
 21
651.848728
 31
0.0
  0
LINE
  5
4DF
330
1F
100
AcDbEntity
  8
002
 62
     3
370
    30
100
AcDbLine
 10
645.820068
 20
653.561328
 30
0.0
 11
670.820068
 21
628.444728
 31
0.0
  0
LINE
  5
4E0
330
1F
100
AcDbEntity
  8
002
 62
     3
370
    30
100
AcDbLine
 10
670.820068
 20
626.749028
 30
0.0
 11
691.723068
 21
605.762528
 31
0.0
  0
ARC
  5
4E1
330
1F
100
AcDbEntity
  8
002
 62
     3
370
    30
100
AcDbCircle
 10
687.214068
 20
601.363028
 30
0.0
 40
6.299766234551814
100
AcDbArc
 50
224.884251
 51
45.481693
  0
LINE
  5
4E2
330
1F
100
AcDbEntity
  8
002
 62
     3
370
    30
100
AcDbLine
 10
682.750068
 20
596.916828
 30
0.0
 11
670.820068
 21
608.894728
 31
0.0
  0
LINE
  5
4E3
330
1F
100
AcDbEntity
  8
002
 62
     3
370
    30
100
AcDbLine
 10
670.820068
 20
607.182028
 30
0.0
 11
645.820068
 21
632.298628
 31
0.0
  0
LINE
  5
4E4
330
1F
100
AcDbEntity
  8
002
 62
     3
370
    30
100
AcDbLine
 10
645.820068
 20
633.994428
 30
0.0
 11
624.916068
 21
654.980828
 31
0.0
  0
ARC
  5
4E5
330
1F
100
AcDbEntity
  8
002
 62
     3
370
    30
100
AcDbCircle
 10
629.425068
 20
659.380328
 30
0.0
 40
6.299766234551974
100
AcDbArc
 50
44.884251
 51
225.481693
  0
LINE
  5
4E6
330
1F
100
AcDbEntity
  8
002
 62
     3
370
    30
100
AcDbLine
 10
637.225068
 20
642.683728
 30
0.0
 11
637.225068
 21
596.477628
 31
0.0
  0
ARC
  5
4E7
330
1F
100
AcDbEntity
  8
002
 62
     3
370
    30
100
AcDbCircle
 10
629.425068
 20
595.380128
 30
0.0
 40
6.299766234552055
100
AcDbArc
 50
44.883607
 51
225.481693
  0
LINE
  5
4E8
330
1F
100
AcDbEntity
  8
002
 62
     3
370
    30
100
AcDbLine
 10
624.916068
 20
590.980628
 30
0.0
 11
645.820068
 21
569.994128
 31
0.0
  0
LINE
  5
4E9
330
1F
100
AcDbEntity
  8
002
 62
     3
370
    30
100
AcDbLine
 10
645.820068
 20
568.298328
 30
0.0
 11
670.820068
 21
543.181828
 31
0.0
  0
LINE
  5
4EA
330
1F
100
AcDbEntity
  8
002
 62
     3
370
    30
100
AcDbLine
 10
670.820068
 20
544.894428
 30
0.0
 11
682.750068
 21
532.916628
 31
0.0
  0
ARC
  5
4EB
330
1F
100
AcDbEntity
  8
002
 62
     3
370
    30
100
AcDbCircle
 10
687.214068
 20
537.362728
 30
0.0
 40
6.299766234551814
100
AcDbArc
 50
224.884251
 51
45.481693
  0
LINE
  5
4EC
330
1F
100
AcDbEntity
  8
002
 62
     3
370
    30
100
AcDbLine
 10
691.723068
 20
541.762428
 30
0.0
 11
670.820068
 21
562.748828
 31
0.0
  0
LINE
  5
4ED
330
1F
100
AcDbEntity
  8
002
 62
     3
370
    30
100
AcDbLine
 10
670.820068
 20
564.444528
 30
0.0
 11
645.820068
 21
589.561128
 31
0.0
  0
LINE
  5
4EE
330
1F
100
AcDbEntity
  8
002
 62
     3
370
    30
100
AcDbLine
 10
645.820068
 20
587.848528
 30
0.0
 11
633.889068
 21
599.826328
 31
0.0
  0
CIRCLE
  5
4EF
330
1F
100
AcDbEntity
  8
002
 62
     3
370
    30
100
AcDbCircle
 10
658.320068
 20
598.371528
 30
0.0
 40
5.249999
  0
LINE
  5
4F0
330
1F
100
AcDbEntity
  8
002
 62
     3
370
    30
100
AcDbLine
 10
655.320068
 20
597.871528
 30
0.0
 11
655.320068
 21
598.871528
 31
0.0
  0
LINE
  5
4F1
330
1F
100
AcDbEntity
  8
002
 62
     3
370
    30
100
AcDbLine
 10
655.320068
 20
598.871528
 30
0.0
 11
656.320068
 21
598.871528
 31
0.0
  0
LINE
  5
4F2
330
1F
100
AcDbEntity
  8
002
 62
     3
370
    30
100
AcDbLine
 10
656.320068
 20
598.871528
 30
0.0
 11
657.271068
 21
599.420628
 31
0.0
  0
LINE
  5
4F3
330
1F
100
AcDbEntity
  8
002
 62
     3
370
    30
100
AcDbLine
 10
657.271068
 20
599.420628
 30
0.0
 11
657.820068
 21
600.371528
 31
0.0
  0
LINE
  5
4F4
330
1F
100
AcDbEntity
  8
002
 62
     3
370
    30
100
AcDbLine
 10
657.820068
 20
600.371528
 30
0.0
 11
657.820068
 21
601.371528
 31
0.0
  0
LINE
  5
4F5
330
1F
100
AcDbEntity
  8
002
 62
     3
370
    30
100
AcDbLine
 10
657.820068
 20
601.371528
 30
0.0
 11
658.820068
 21
601.371528
 31
0.0
  0
LINE
  5
4F6
330
1F
100
AcDbEntity
  8
002
 62
     3
370
    30
100
AcDbLine
 10
658.820068
 20
601.371528
 30
0.0
 11
658.820068
 21
600.371528
 31
0.0
  0
LINE
  5
4F7
330
1F
100
AcDbEntity
  8
002
 62
     3
370
    30
100
AcDbLine
 10
658.820068
 20
600.371528
 30
0.0
 11
659.369068
 21
599.420628
 31
0.0
  0
LINE
  5
4F8
330
1F
100
AcDbEntity
  8
002
 62
     3
370
    30
100
AcDbLine
 10
659.369068
 20
599.420628
 30
0.0
 11
660.320068
 21
598.871528
 31
0.0
  0
LINE
  5
4F9
330
1F
100
AcDbEntity
  8
002
 62
     3
370
    30
100
AcDbLine
 10
660.320068
 20
598.871528
 30
0.0
 11
661.320068
 21
598.871528
 31
0.0
  0
LINE
  5
4FA
330
1F
100
AcDbEntity
  8
002
 62
     3
370
    30
100
AcDbLine
 10
661.320068
 20
598.871528
 30
0.0
 11
661.320068
 21
597.871528
 31
0.0
  0
LINE
  5
4FB
330
1F
100
AcDbEntity
  8
002
 62
     3
370
    30
100
AcDbLine
 10
661.320068
 20
597.871528
 30
0.0
 11
660.320068
 21
597.871528
 31
0.0
  0
LINE
  5
4FC
330
1F
100
AcDbEntity
  8
002
 62
     3
370
    30
100
AcDbLine
 10
660.320068
 20
597.871528
 30
0.0
 11
659.369068
 21
597.322528
 31
0.0
  0
LINE
  5
4FD
330
1F
100
AcDbEntity
  8
002
 62
     3
370
    30
100
AcDbLine
 10
659.369068
 20
597.322528
 30
0.0
 11
658.820068
 21
596.371528
 31
0.0
  0
LINE
  5
4FE
330
1F
100
AcDbEntity
  8
002
 62
     3
370
    30
100
AcDbLine
 10
658.820068
 20
596.371528
 30
0.0
 11
658.820068
 21
595.371528
 31
0.0
  0
LINE
  5
4FF
330
1F
100
AcDbEntity
  8
002
 62
     3
370
    30
100
AcDbLine
 10
658.820068
 20
595.371528
 30
0.0
 11
657.820068
 21
595.371528
 31
0.0
  0
LINE
  5
500
330
1F
100
AcDbEntity
  8
002
 62
     3
370
    30
100
AcDbLine
 10
657.820068
 20
595.371528
 30
0.0
 11
657.820068
 21
596.371528
 31
0.0
  0
LINE
  5
501
330
1F
100
AcDbEntity
  8
002
 62
     3
370
    30
100
AcDbLine
 10
657.820068
 20
596.371528
 30
0.0
 11
657.271068
 21
597.322528
 31
0.0
  0
LINE
  5
502
330
1F
100
AcDbEntity
  8
002
 62
     3
370
    30
100
AcDbLine
 10
657.271068
 20
597.322528
 30
0.0
 11
656.320068
 21
597.871528
 31
0.0
  0
LINE
  5
503
330
1F
100
AcDbEntity
  8
002
 62
     3
370
    30
100
AcDbLine
 10
656.320068
 20
597.871528
 30
0.0
 11
655.320068
 21
597.871528
 31
0.0
  0
LINE
  5
504
330
1F
100
AcDbEntity
  8
002
 62
     3
370
    30
100
AcDbLine
 10
679.415068
 20
600.412928
 30
0.0
 11
679.415068
 21
554.059328
 31
0.0
  0
LINE
  5
505
330
1F
100
AcDbEntity
  8
002
 62
     3
370
    30
100
AcDbLine
 10
679.415068
 20
536.277528
 30
0.0
 11
679.415068
 21
523.371628
 31
0.0
  0
LINE
  5
506
330
1F
100
AcDbEntity
  8
002
 62
     3
370
    30
100
AcDbLine
 10
679.414068
 20
523.371228
 30
0.0
 11
678.837068
 21
522.371628
 31
0.0
  0
LINE
  5
507
330
1F
100
AcDbEntity
  8
002
 62
     3
370
    30
100
AcDbLine
 10
670.820068
 20
527.371528
 30
0.0
 11
670.820068
 21
669.371828
 31
0.0
  0
ARC
  5
508
330
1F
100
AcDbEntity
  8
002
 62
     3
370
    30
100
AcDbCircle
 10
668.820068
 20
669.371528
 30
0.0
 40
2.0
100
AcDbArc
 50
0.0
 51
90.0
  0
LINE
  5
509
330
1F
100
AcDbEntity
  8
002
 62
     3
370
    30
100
AcDbLine
 10
668.820068
 20
671.371528
 30
0.0
 11
647.820068
 21
671.371528
 31
0.0
  0
ARC
  5
50A
330
1F
100
AcDbEntity
  8
002
 62
     3
370
    30
100
AcDbCircle
 10
647.820068
 20
669.371528
 30
0.0
 40
2.0
100
AcDbArc
 50
90.0
 51
180.0
  0
LINE
  5
50B
330
1F
100
AcDbEntity
  8
002
 62
     3
370
    30
100
AcDbLine
 10
645.820068
 20
669.371528
 30
0.0
 11
645.820068
 21
527.371328
 31
0.0
  0
ARC
  5
50C
330
1F
100
AcDbEntity
  8
002
 62
     3
370
    30
100
AcDbCircle
 10
647.820068
 20
527.371528
 30
0.0
 40
2.0
100
AcDbArc
 50
180.0
 51
270.0
  0
LINE
  5
50D
330
1F
100
AcDbEntity
  8
002
 62
     3
370
    30
100
AcDbLine
 10
647.820068
 20
525.371528
 30
0.0
 11
668.820068
 21
525.371528
 31
0.0
  0
ARC
  5
50E
330
1F
100
AcDbEntity
  8
002
 62
     3
370
    30
100
AcDbCircle
 10
668.820068
 20
527.371528
 30
0.0
 40
2.0
100
AcDbArc
 50
270.0
 51
0.0
  0
LINE
  5
50F
330
1F
100
AcDbEntity
  8
002
 62
     3
370
    30
100
AcDbLine
 10
661.320068
 20
533.871328
 30
0.0
 11
661.320068
 21
534.871328
 31
0.0
  0
LINE
  5
510
330
1F
100
AcDbEntity
  8
002
 62
     3
370
    30
100
AcDbLine
 10
661.320068
 20
534.871328
 30
0.0
 11
660.320068
 21
534.871328
 31
0.0
  0
LINE
  5
511
330
1F
100
AcDbEntity
  8
002
 62
     3
370
    30
100
AcDbLine
 10
660.320068
 20
534.871328
 30
0.0
 11
659.369068
 21
535.420428
 31
0.0
  0
LINE
  5
512
330
1F
100
AcDbEntity
  8
002
 62
     3
370
    30
100
AcDbLine
 10
659.369068
 20
535.420328
 30
0.0
 11
658.820068
 21
536.371328
 31
0.0
  0
LINE
  5
513
330
1F
100
AcDbEntity
  8
002
 62
     3
370
    30
100
AcDbLine
 10
658.820068
 20
536.371328
 30
0.0
 11
658.820068
 21
537.371328
 31
0.0
  0
LINE
  5
514
330
1F
100
AcDbEntity
  8
002
 62
     3
370
    30
100
AcDbLine
 10
658.820068
 20
537.371328
 30
0.0
 11
657.820068
 21
537.371328
 31
0.0
  0
LINE
  5
515
330
1F
100
AcDbEntity
  8
002
 62
     3
370
    30
100
AcDbLine
 10
657.820068
 20
537.371328
 30
0.0
 11
657.820068
 21
536.371328
 31
0.0
  0
LINE
  5
516
330
1F
100
AcDbEntity
  8
002
 62
     3
370
    30
100
AcDbLine
 10
657.820068
 20
536.371328
 30
0.0
 11
657.271068
 21
535.420428
 31
0.0
  0
LINE
  5
517
330
1F
100
AcDbEntity
  8
002
 62
     3
370
    30
100
AcDbLine
 10
657.271068
 20
535.420328
 30
0.0
 11
656.320068
 21
534.871328
 31
0.0
  0
LINE
  5
518
330
1F
100
AcDbEntity
  8
002
 62
     3
370
    30
100
AcDbLine
 10
656.320068
 20
534.871328
 30
0.0
 11
655.320068
 21
534.871328
 31
0.0
  0
LINE
  5
519
330
1F
100
AcDbEntity
  8
002
 62
     3
370
    30
100
AcDbLine
 10
655.320068
 20
534.871328
 30
0.0
 11
655.320068
 21
533.871328
 31
0.0
  0
LINE
  5
51A
330
1F
100
AcDbEntity
  8
002
 62
     3
370
    30
100
AcDbLine
 10
655.320068
 20
533.871328
 30
0.0
 11
656.320068
 21
533.871328
 31
0.0
  0
LINE
  5
51B
330
1F
100
AcDbEntity
  8
002
 62
     3
370
    30
100
AcDbLine
 10
656.320068
 20
533.871328
 30
0.0
 11
657.271068
 21
533.322328
 31
0.0
  0
LINE
  5
51C
330
1F
100
AcDbEntity
  8
002
 62
     3
370
    30
100
AcDbLine
 10
657.271068
 20
533.322228
 30
0.0
 11
657.820068
 21
532.371328
 31
0.0
  0
LINE
  5
51D
330
1F
100
AcDbEntity
  8
002
 62
     3
370
    30
100
AcDbLine
 10
657.820068
 20
532.371328
 30
0.0
 11
657.820068
 21
531.371328
 31
0.0
  0
LINE
  5
51E
330
1F
100
AcDbEntity
  8
002
 62
     3
370
    30
100
AcDbLine
 10
657.820068
 20
531.371328
 30
0.0
 11
658.820068
 21
531.371328
 31
0.0
  0
LINE
  5
51F
330
1F
100
AcDbEntity
  8
002
 62
     3
370
    30
100
AcDbLine
 10
658.820068
 20
531.371328
 30
0.0
 11
658.820068
 21
532.371328
 31
0.0
  0
LINE
  5
520
330
1F
100
AcDbEntity
  8
002
 62
     3
370
    30
100
AcDbLine
 10
658.820068
 20
532.371328
 30
0.0
 11
659.369068
 21
533.322228
 31
0.0
  0
LINE
  5
521
330
1F
100
AcDbEntity
  8
002
 62
     3
370
    30
100
AcDbLine
 10
659.369068
 20
533.322328
 30
0.0
 11
660.320068
 21
533.871328
 31
0.0
  0
LINE
  5
522
330
1F
100
AcDbEntity
  8
002
 62
     3
370
    30
100
AcDbLine
 10
660.320068
 20
533.871328
 30
0.0
 11
661.320068
 21
533.871328
 31
0.0
  0
CIRCLE
  5
523
330
1F
100
AcDbEntity
  8
002
 62
     3
370
    30
100
AcDbCircle
 10
658.320068
 20
534.371328
 30
0.0
 40
5.249999
  0
LINE
  5
524
330
1F
100
AcDbEntity
  8
002
 62
     3
370
    30
100
AcDbLine
 10
637.225068
 20
523.371628
 30
0.0
 11
637.225068
 21
578.496628
 31
0.0
  0
LINE
  5
525
330
1F
100
AcDbEntity
  8
002
 62
     3
370
    30
100
AcDbLine
 10
637.225068
 20
523.370528
 30
0.0
 11
637.801068
 21
522.371628
 31
0.0
  0
LINE
  5
526
330
1F
100
AcDbEntity
  8
002
 62
     3
370
    30
100
AcDbLine
 10
679.415068
 20
674.371428
 30
0.0
 11
679.415068
 21
618.253228
 31
0.0
  0
LINE
  5
527
330
1F
100
AcDbEntity
  8
002
 62
     3
370
    30
100
AcDbLine
 10
658.820068
 20
659.371228
 30
0.0
 11
657.820068
 21
659.371228
 31
0.0
  0
LINE
  5
528
330
1F
100
AcDbEntity
  8
002
 62
     3
370
    30
100
AcDbLine
 10
657.820068
 20
659.371228
 30
0.0
 11
657.820068
 21
660.371328
 31
0.0
  0
LINE
  5
529
330
1F
100
AcDbEntity
  8
002
 62
     3
370
    30
100
AcDbLine
 10
657.820068
 20
660.371328
 30
0.0
 11
657.271068
 21
661.322328
 31
0.0
  0
LINE
  5
52A
330
1F
100
AcDbEntity
  8
002
 62
     3
370
    30
100
AcDbLine
 10
657.271068
 20
661.322328
 30
0.0
 11
656.320068
 21
661.871328
 31
0.0
  0
LINE
  5
52B
330
1F
100
AcDbEntity
  8
002
 62
     3
370
    30
100
AcDbLine
 10
656.320068
 20
661.871228
 30
0.0
 11
655.320068
 21
661.871228
 31
0.0
  0
LINE
  5
52C
330
1F
100
AcDbEntity
  8
002
 62
     3
370
    30
100
AcDbLine
 10
655.320068
 20
661.871228
 30
0.0
 11
655.320068
 21
662.871328
 31
0.0
  0
LINE
  5
52D
330
1F
100
AcDbEntity
  8
002
 62
     3
370
    30
100
AcDbLine
 10
655.320068
 20
662.871328
 30
0.0
 11
656.320068
 21
662.871328
 31
0.0
  0
LINE
  5
52E
330
1F
100
AcDbEntity
  8
002
 62
     3
370
    30
100
AcDbLine
 10
656.320068
 20
662.871328
 30
0.0
 11
657.271068
 21
663.420328
 31
0.0
  0
LINE
  5
52F
330
1F
100
AcDbEntity
  8
002
 62
     3
370
    30
100
AcDbLine
 10
657.271068
 20
663.420328
 30
0.0
 11
657.820068
 21
664.371228
 31
0.0
  0
LINE
  5
530
330
1F
100
AcDbEntity
  8
002
 62
     3
370
    30
100
AcDbLine
 10
657.820068
 20
664.371228
 30
0.0
 11
657.820068
 21
665.371328
 31
0.0
  0
LINE
  5
531
330
1F
100
AcDbEntity
  8
002
 62
     3
370
    30
100
AcDbLine
 10
657.820068
 20
665.371328
 30
0.0
 11
658.820068
 21
665.371328
 31
0.0
  0
LINE
  5
532
330
1F
100
AcDbEntity
  8
002
 62
     3
370
    30
100
AcDbLine
 10
658.820068
 20
665.371328
 30
0.0
 11
658.820068
 21
664.371228
 31
0.0
  0
LINE
  5
533
330
1F
100
AcDbEntity
  8
002
 62
     3
370
    30
100
AcDbLine
 10
658.820068
 20
664.371328
 30
0.0
 11
659.369068
 21
663.420328
 31
0.0
  0
LINE
  5
534
330
1F
100
AcDbEntity
  8
002
 62
     3
370
    30
100
AcDbLine
 10
659.369068
 20
663.420328
 30
0.0
 11
660.320068
 21
662.871328
 31
0.0
  0
LINE
  5
535
330
1F
100
AcDbEntity
  8
002
 62
     3
370
    30
100
AcDbLine
 10
660.320068
 20
662.871328
 30
0.0
 11
661.320068
 21
662.871328
 31
0.0
  0
LINE
  5
536
330
1F
100
AcDbEntity
  8
002
 62
     3
370
    30
100
AcDbLine
 10
661.320068
 20
662.871328
 30
0.0
 11
661.320068
 21
661.871228
 31
0.0
  0
LINE
  5
537
330
1F
100
AcDbEntity
  8
002
 62
     3
370
    30
100
AcDbLine
 10
661.320068
 20
661.871228
 30
0.0
 11
660.320068
 21
661.871228
 31
0.0
  0
LINE
  5
538
330
1F
100
AcDbEntity
  8
002
 62
     3
370
    30
100
AcDbLine
 10
660.320068
 20
661.871328
 30
0.0
 11
659.369068
 21
661.322328
 31
0.0
  0
LINE
  5
539
330
1F
100
AcDbEntity
  8
002
 62
     3
370
    30
100
AcDbLine
 10
659.369068
 20
661.322328
 30
0.0
 11
658.820068
 21
660.371428
 31
0.0
  0
LINE
  5
53A
330
1F
100
AcDbEntity
  8
002
 62
     3
370
    30
100
AcDbLine
 10
658.820068
 20
660.371328
 30
0.0
 11
658.820068
 21
659.371228
 31
0.0
  0
CIRCLE
  5
53B
330
1F
100
AcDbEntity
  8
002
 62
     3
370
    30
100
AcDbCircle
 10
658.320068
 20
662.371328
 30
0.0
 40
5.249999
  0
LINE
  5
53C
330
1F
100
AcDbEntity
  8
002
 62
     3
370
    30
100
AcDbLine
 10
758.320068
 20
674.371428
 30
0.0
 11
558.320068
 21
674.371428
 31
0.0
  0
LINE
  5
53D
330
1F
100
AcDbEntity
  8
002
 62
     3
370
    30
100
AcDbLine
 10
626.027068
 20
334.371928
 30
0.0
 11
644.027068
 21
334.371928
 31
0.0
  0
LINE
  5
53E
330
1F
100
AcDbEntity
  8
002
 62
     3
370
    30
100
AcDbLine
 10
626.027068
 20
334.371928
 30
0.0
 11
626.027068
 21
322.371928
 31
0.0
  0
LINE
  5
53F
330
1F
100
AcDbEntity
  8
002
 62
     3
370
    30
100
AcDbLine
 10
626.027068
 20
323.371928
 30
0.0
 11
603.681068
 21
323.371928
 31
0.0
  0
LINE
  5
540
330
1F
100
AcDbEntity
  8
002
 62
     3
370
    30
100
AcDbLine
 10
603.681068
 20
322.371928
 30
0.0
 11
603.681068
 21
334.371928
 31
0.0
  0
ARC
  5
541
330
1F
100
AcDbEntity
  8
002
 62
     3
370
    30
100
AcDbCircle
 10
558.320368
 20
282.208528
 30
0.0
 40
4.999973096927584
100
AcDbArc
 50
180.0
 51
254.999861
  0
LINE
  5
542
330
1F
100
AcDbEntity
  8
002
 62
     3
370
    30
100
AcDbLine
 10
591.320368
 20
163.371928
 30
0.0
 11
591.320368
 21
157.371928
 31
0.0
  0
LINE
  5
543
330
1F
100
AcDbEntity
  8
002
 62
     3
370
    30
100
AcDbLine
 10
712.960068
 20
334.371928
 30
0.0
 11
730.960068
 21
334.371928
 31
0.0
  0
LINE
  5
544
330
1F
100
AcDbEntity
  8
002
 62
     3
370
    30
100
AcDbLine
 10
730.960068
 20
334.371928
 30
0.0
 11
730.960068
 21
322.371928
 31
0.0
  0
LINE
  5
545
330
1F
100
AcDbEntity
  8
002
 62
     3
370
    30
100
AcDbLine
 10
730.960068
 20
323.371928
 30
0.0
 11
734.320068
 21
323.371928
 31
0.0
  0
LINE
  5
546
330
1F
100
AcDbEntity
  8
002
 62
     3
370
    30
100
AcDbLine
 10
734.320068
 20
323.371928
 30
0.0
 11
734.320068
 21
322.371928
 31
0.0
  0
LINE
  5
547
330
1F
100
AcDbEntity
  8
002
 62
     3
370
    30
100
AcDbLine
 10
736.254068
 20
322.371928
 30
0.0
 11
736.254068
 21
334.371928
 31
0.0
  0
LINE
  5
548
330
1F
100
AcDbEntity
  8
002
 62
     3
370
    30
100
AcDbLine
 10
754.254068
 20
334.371928
 30
0.0
 11
754.254068
 21
322.371928
 31
0.0
  0
LINE
  5
549
330
1F
100
AcDbEntity
  8
002
 62
     3
370
    30
100
AcDbLine
 10
754.254068
 20
334.371928
 30
0.0
 11
736.254068
 21
334.371928
 31
0.0
  0
ARC
  5
54A
330
1F
100
AcDbEntity
  8
002
 62
     3
370
    30
100
AcDbCircle
 10
731.320068
 20
248.371928
 30
0.0
 40
51.00000990156767
100
AcDbArc
 50
20.693372
 51
321.657237
  0
ARC
  5
54B
330
1F
100
AcDbEntity
  8
002
 62
     3
370
    30
100
AcDbCircle
 10
760.320068
 20
259.326328
 30
0.0
 40
20.00030606665812
100
AcDbArc
 50
0.0
 51
20.693247
  0
LINE
  5
54C
330
1F
100
AcDbEntity
  8
002
  6
CENTER
 62
    40
370
     9
100
AcDbLine
 10
581.320368
 20
154.262728
 30
0.0
 11
581.320368
 21
189.727428
 31
0.0
  0
LINE
  5
54D
330
1F
100
AcDbEntity
  8
002
 62
    40
370
     9
100
AcDbLine
 10
573.320368
 20
233.144228
 30
0.0
 11
565.320368
 21
232.894228
 31
0.0
  0
LINE
  5
54E
330
1F
100
AcDbEntity
  8
002
 62
    40
370
     9
100
AcDbLine
 10
565.320368
 20
238.871928
 30
0.0
 11
553.320368
 21
257.371928
 31
0.0
  0
LINE
  5
54F
330
1F
100
AcDbEntity
  8
002
  6
CENTER
 62
    40
370
     9
100
AcDbLine
 10
550.756968
 20
248.371928
 30
0.0
 11
809.966068
 21
248.371928
 31
0.0
  0
LINE
  5
550
330
1F
100
AcDbEntity
  8
002
  6
CENTER
 62
    40
370
     9
100
AcDbLine
 10
803.320068
 20
154.262728
 30
0.0
 11
803.320068
 21
189.727428
 31
0.0
  0
LINE
  5
551
330
1F
100
AcDbEntity
  8
002
  6
CENTER
 62
    40
370
     9
100
AcDbLine
 10
731.320068
 20
183.371928
 30
0.0
 11
731.320068
 21
308.371928
 31
0.0
  0
LINE
  5
552
330
1F
100
AcDbEntity
  8
002
  6
CENTER
 62
    40
370
     9
100
AcDbLine
 10
721.960068
 20
305.487728
 30
0.0
 11
721.960068
 21
340.342828
 31
0.0
  0
LINE
  5
553
330
1F
100
AcDbEntity
  8
002
  6
CENTER
 62
    40
370
     9
100
AcDbLine
 10
745.254068
 20
340.342828
 30
0.0
 11
745.254068
 21
305.487728
 31
0.0
  0
LINE
  5
554
330
1F
100
AcDbEntity
  8
002
  6
CENTER
 62
    40
370
     9
100
AcDbLine
 10
681.614068
 20
305.487728
 30
0.0
 11
681.614068
 21
340.342828
 31
0.0
  0
LINE
  5
555
330
1F
100
AcDbEntity
  8
002
  6
PHANTOM
 62
    40
370
     9
100
AcDbLine
 10
624.980068
 20
663.844128
 30
0.0
 11
645.820068
 21
642.921528
 31
0.0
  0
LINE
  5
556
330
1F
100
AcDbEntity
  8
002
  6
PHANTOM
 62
    40
370
     9
100
AcDbLine
 10
670.820068
 20
617.821828
 30
0.0
 11
691.660068
 21
596.899228
 31
0.0
  0
LINE
  5
557
330
1F
100
AcDbEntity
  8
002
  6
PHANTOM
 62
    40
370
     9
100
AcDbLine
 10
670.820068
 20
553.821528
 30
0.0
 11
691.660068
 21
532.898928
 31
0.0
  0
LINE
  5
558
330
1F
100
AcDbEntity
  8
002
  6
PHANTOM
 62
    40
370
     9
100
AcDbLine
 10
645.820068
 20
578.921328
 30
0.0
 11
624.980068
 21
599.843928
 31
0.0
  0
LINE
  5
559
330
1F
100
AcDbEntity
  8
002
  6
CENTER
 62
    40
370
     9
100
AcDbLine
 10
635.027068
 20
340.342828
 30
0.0
 11
635.027068
 21
305.487728
 31
0.0
  0
LINE
  5
55A
330
1F
100
AcDbEntity
  8
002
  6
CENTER
 62
    40
370
     9
100
AcDbLine
 10
594.680768
 20
305.487728
 30
0.0
 11
594.680768
 21
340.342828
 31
0.0
  0
LINE
  5
55B
330
1F
100
AcDbEntity
  8
002
  6
CENTER
 62
    40
370
     9
100
AcDbLine
 10
571.386968
 20
340.342828
 30
0.0
 11
571.386968
 21
305.487728
 31
0.0
  0
LINE
  5
55C
330
1F
100
AcDbEntity
  8
002
 62
    40
370
     9
100
AcDbLine
 10
573.320368
 20
263.599528
 30
0.0
 11
565.320368
 21
263.849528
 31
0.0
  0
LINE
  5
55D
330
1F
100
AcDbEntity
  8
002
 62
    40
370
     9
100
AcDbLine
 10
565.320368
 20
257.871928
 30
0.0
 11
553.320368
 21
239.371928
 31
0.0
  0
LINE
  5
55E
330
1F
100
AcDbEntity
  8
002
  6
CENTER
 62
    40
370
     9
100
AcDbLine
 10
619.429068
 20
165.480428
 30
0.0
 11
619.429068
 21
139.854728
 31
0.0
  0
LINE
  5
55F
330
1F
100
AcDbEntity
  8
002
  6
CENTER
 62
    40
370
     9
100
AcDbLine
 10
697.211068
 20
165.480428
 30
0.0
 11
697.211068
 21
139.854728
 31
0.0
  0
LINE
  5
560
330
1F
100
AcDbEntity
  8
002
 62
     3
370
    30
100
AcDbLine
 10
688.321068
 20
709.371428
 30
0.0
 11
688.321068
 21
862.371928
 31
0.0
  0
LINE
  5
561
330
1F
100
AcDbEntity
  8
002
 62
     3
370
    30
100
AcDbLine
 10
688.321068
 20
862.371928
 30
0.0
 11
628.321068
 21
862.371928
 31
0.0
  0
LINE
  5
562
330
1F
100
AcDbEntity
  8
002
 62
     3
370
    30
100
AcDbLine
 10
628.321068
 20
862.371928
 30
0.0
 11
628.321068
 21
709.371428
 31
0.0
  0
LINE
  5
563
330
1F
100
AcDbEntity
  8
002
 62
     3
370
    30
100
AcDbLine
 10
635.821068
 20
862.372028
 30
0.0
 11
635.821068
 21
933.371928
 31
0.0
  0
LINE
  5
564
330
1F
100
AcDbEntity
  8
002
 62
     3
370
    30
100
AcDbLine
 10
635.821068
 20
933.371928
 30
0.0
 11
680.821068
 21
933.371928
 31
0.0
  0
LINE
  5
565
330
1F
100
AcDbEntity
  8
002
 62
     3
370
    30
100
AcDbLine
 10
680.821068
 20
933.371928
 30
0.0
 11
680.821068
 21
862.371928
 31
0.0
  0
LINE
  5
566
330
1F
100
AcDbEntity
  8
002
 62
    40
370
     9
100
AcDbLine
 10
631.811068
 20
709.371428
 30
0.0
 11
631.811068
 21
862.371928
 31
0.0
  0
LINE
  5
567
330
1F
100
AcDbEntity
  8
002
 62
    40
370
     9
100
AcDbLine
 10
684.829068
 20
862.371928
 30
0.0
 11
684.829068
 21
709.371428
 31
0.0
  0
LINE
  5
568
330
1F
100
AcDbEntity
  8
002
  6
HIDDEN
 62
    40
370
     9
100
AcDbLine
 10
816.320068
 20
182.371928
 30
0.0
 11
816.320068
 21
163.371928
 31
0.0
  0
LINE
  5
569
330
1F
100
AcDbEntity
  8
002
  6
HIDDEN
 62
    40
370
     9
100
AcDbLine
 10
778.320068
 20
182.371928
 30
0.0
 11
828.320068
 21
182.371928
 31
0.0
  0
LINE
  5
56A
330
1F
100
AcDbEntity
  8
002
  6
HIDDEN
 62
    40
370
     9
100
AcDbLine
 10
828.320068
 20
182.371928
 30
0.0
 11
828.320068
 21
183.371928
 31
0.0
  0
LINE
  5
56B
330
1F
100
AcDbEntity
  8
002
  6
HIDDEN
 62
    40
370
     9
100
AcDbLine
 10
790.320068
 20
182.371928
 30
0.0
 11
790.320068
 21
163.371928
 31
0.0
  0
LINE
  5
56C
330
1F
100
AcDbEntity
  8
002
  6
HIDDEN
 62
    40
370
     9
100
AcDbLine
 10
778.320068
 20
183.371928
 30
0.0
 11
778.320068
 21
182.371928
 31
0.0
  0
LINE
  5
56D
330
1F
100
AcDbEntity
  8
002
  6
HIDDEN
 62
    40
370
     9
100
AcDbLine
 10
594.320368
 20
182.371928
 30
0.0
 11
594.320368
 21
163.371928
 31
0.0
  0
LINE
  5
56E
330
1F
100
AcDbEntity
  8
002
  6
HIDDEN
 62
    40
370
     9
100
AcDbLine
 10
556.320368
 20
182.371928
 30
0.0
 11
606.320068
 21
182.371928
 31
0.0
  0
LINE
  5
56F
330
1F
100
AcDbEntity
  8
002
  6
HIDDEN
 62
    40
370
     9
100
AcDbLine
 10
606.320068
 20
182.371928
 30
0.0
 11
606.320068
 21
183.371928
 31
0.0
  0
LINE
  5
570
330
1F
100
AcDbEntity
  8
002
  6
HIDDEN
 62
    40
370
     9
100
AcDbLine
 10
568.320368
 20
163.371928
 30
0.0
 11
568.320368
 21
182.371928
 31
0.0
  0
LINE
  5
571
330
1F
100
AcDbEntity
  8
002
  6
HIDDEN
 62
    40
370
     9
100
AcDbLine
 10
556.320368
 20
182.371928
 30
0.0
 11
556.320368
 21
183.371928
 31
0.0
  0
LINE
  5
572
330
1F
100
AcDbEntity
  8
002
 62
     3
370
    30
100
AcDbLine
 10
758.320068
 20
709.371428
 30
0.0
 11
558.320068
 21
709.371428
 31
0.0
  0
LINE
  5
573
330
1F
100
AcDbEntity
  8
002
 62
     3
370
    30
100
AcDbLine
 10
558.320068
 20
709.371428
 30
0.0
 11
558.320068
 21
674.371428
 31
0.0
  0
LINE
  5
574
330
1F
100
AcDbEntity
  8
002
 62
     3
370
    30
100
AcDbLine
 10
758.320068
 20
709.371428
 30
0.0
 11
758.320068
 21
674.371428
 31
0.0
  0
LINE
  5
575
330
1F
100
AcDbEntity
  8
002
  6
CENTER
 62
    40
370
     9
100
AcDbLine
 10
580.820068
 20
714.371428
 30
0.0
 11
580.820068
 21
669.371428
 31
0.0
  0
LINE
  5
576
330
1F
100
AcDbEntity
  8
002
  6
CENTER
 62
    40
370
     9
100
AcDbLine
 10
735.820068
 20
714.371428
 30
0.0
 11
735.820068
 21
669.371428
 31
0.0
  0
LINE
  5
577
330
1F
100
AcDbEntity
  8
002
 62
     3
370
    30
100
AcDbLine
 10
735.320068
 20
256.871928
 30
0.0
 11
727.320068
 21
256.871928
 31
0.0
  0
LINE
  5
578
330
1F
100
AcDbEntity
  8
002
 62
     3
370
    30
100
AcDbLine
 10
727.320068
 20
263.871928
 30
0.0
 11
735.320068
 21
263.871928
 31
0.0
  0
LINE
  5
579
330
1F
100
AcDbEntity
  8
002
 62
     3
370
    30
100
AcDbLine
 10
735.320068
 20
263.871928
 30
0.0
 11
735.320068
 21
256.871928
 31
0.0
  0
LINE
  5
57A
330
1F
100
AcDbEntity
  8
002
 62
     3
370
    30
100
AcDbLine
 10
727.320068
 20
263.871928
 30
0.0
 11
727.320068
 21
256.871928
 31
0.0
  0
ARC
  5
57B
330
1F
100
AcDbEntity
  8
002
 62
     3
370
    30
100
AcDbCircle
 10
731.320068
 20
248.371928
 30
0.0
 40
12.5
100
AcDbArc
 50
108.662925
 51
71.337075
  0
ARC
  5
57C
330
1F
100
AcDbEntity
  8
002
 62
     3
370
    30
100
AcDbCircle
 10
731.320068
 20
248.371928
 30
0.0
 40
13.99995961279885
100
AcDbArc
 50
106.601599
 51
73.398401
  0
LINE
  5
57D
330
1F
100
AcDbEntity
  8
002
 62
     3
370
    30
100
AcDbLine
 10
1382.456378
 20
904.989512
 30
0.0
 11
1382.4565
 21
855.989512
 31
0.0
  0
LINE
  5
57E
330
1F
100
AcDbEntity
  8
002
 62
     3
370
    30
100
AcDbLine
 10
1384.7965
 20
855.989518
 30
0.0
 11
1368.7965
 21
855.989478
 31
0.0
  0
LINE
  5
57F
330
1F
100
AcDbEntity
  8
002
 62
     3
370
    30
100
AcDbLine
 10
1384.7965
 20
855.989518
 30
0.0
 11
1384.796525
 21
845.989718
 31
0.0
  0
LINE
  5
580
330
1F
100
AcDbEntity
  8
002
 62
     3
370
    30
100
AcDbLine
 10
1368.7965
 20
855.989478
 30
0.0
 11
1368.796525
 21
845.989678
 31
0.0
  0
LINE
  5
581
330
1F
100
AcDbEntity
  8
002
 62
     3
370
    30
100
AcDbLine
 10
1370.19955
 20
835.989682
 30
0.0
 11
1352.19955
 21
835.989637
 31
0.0
  0
LINE
  5
582
330
1F
100
AcDbEntity
  8
002
 62
     3
370
    30
100
AcDbLine
 10
1352.19955
 20
835.989637
 30
0.0
 11
1352.19958
 21
823.989637
 31
0.0
  0
LINE
  5
583
330
1F
100
AcDbEntity
  8
002
 62
     3
370
    30
100
AcDbLine
 10
1352.199578
 20
824.989637
 30
0.0
 11
1323.612578
 21
824.989565
 31
0.0
  0
LINE
  5
584
330
1F
100
AcDbEntity
  8
002
 62
     3
370
    30
100
AcDbLine
 10
1323.61258
 20
823.989565
 30
0.0
 11
1323.61255
 21
835.989565
 31
0.0
  0
LINE
  5
585
330
1F
100
AcDbEntity
  8
002
 62
     3
370
    30
100
AcDbLine
 10
1305.61255
 20
835.98952
 30
0.0
 11
1305.61258
 21
823.98952
 31
0.0
  0
LINE
  5
586
330
1F
100
AcDbEntity
  8
002
 62
     3
370
    30
100
AcDbLine
 10
1305.612578
 20
824.98952
 30
0.0
 11
1283.266578
 21
824.989464
 31
0.0
  0
LINE
  5
587
330
1F
100
AcDbEntity
  8
002
 62
     3
370
    30
100
AcDbLine
 10
1283.26658
 20
823.989464
 30
0.0
 11
1283.26655
 21
835.989464
 31
0.0
  0
LINE
  5
588
330
1F
100
AcDbEntity
  8
002
 62
     3
370
    30
100
AcDbLine
 10
1265.26655
 20
835.989419
 30
0.0
 11
1265.26658
 21
823.989419
 31
0.0
  0
LINE
  5
589
330
1F
100
AcDbEntity
  8
002
 62
     3
370
    30
100
AcDbLine
 10
1265.266578
 20
824.989419
 30
0.0
 11
1261.906578
 21
824.989411
 31
0.0
  0
LINE
  5
58A
330
1F
100
AcDbEntity
  8
002
 62
     3
370
    30
100
AcDbLine
 10
1261.906578
 20
824.989411
 30
0.0
 11
1261.90658
 21
823.989411
 31
0.0
  0
LINE
  5
58B
330
1F
100
AcDbEntity
  8
002
 62
     3
370
    30
100
AcDbLine
 10
1259.97258
 20
823.989406
 30
0.0
 11
1259.97255
 21
835.989406
 31
0.0
  0
LINE
  5
58C
330
1F
100
AcDbEntity
  8
002
 62
     3
370
    30
100
AcDbLine
 10
1241.97255
 20
835.989361
 30
0.0
 11
1241.97258
 21
823.989361
 31
0.0
  0
LINE
  5
58D
330
1F
100
AcDbEntity
  8
002
 62
     3
370
    30
100
AcDbLine
 10
1232.90658
 20
823.989339
 30
0.0
 11
1232.906681
 21
783.825939
 31
0.0
  0
LINE
  5
58E
330
1F
100
AcDbEntity
  8
002
 62
     3
370
    30
100
AcDbLine
 10
1236.61169
 20
779.989348
 30
0.0
 11
1366.00669
 21
779.989671
 31
0.0
  0
ARC
  5
58F
330
1F
100
AcDbEntity
  8
002
 62
     3
370
    30
100
AcDbCircle
 10
1410.906765
 20
749.989783
 30
0.0
 40
54.00008238290003
100
AcDbArc
 50
112.445101
 51
152.85097
  0
LINE
  5
590
330
1F
100
AcDbEntity
  8
002
 62
     3
370
    30
100
AcDbLine
 10
1390.28964
 20
799.899132
 30
0.0
 11
1390.289649
 21
796.636732
 31
0.0
  0
LINE
  5
591
330
1F
100
AcDbEntity
  8
002
 62
     3
370
    30
100
AcDbLine
 10
1365.540707
 20
773.29087
 30
0.0
 11
1261.912707
 21
773.290611
 31
0.0
  0
ARC
  5
592
330
1F
100
AcDbEntity
  8
002
 62
     3
370
    30
100
AcDbCircle
 10
1256.912716
 20
769.630399
 30
0.0
 40
5.0
100
AcDbArc
 50
0.000143
 51
65.695594
  0
LINE
  5
593
330
1F
100
AcDbEntity
  8
002
 62
     3
370
    30
100
AcDbLine
 10
1261.912716
 20
769.630411
 30
0.0
 11
1261.912765
 21
749.989411
 31
0.0
  0
ARC
  5
594
330
1F
100
AcDbEntity
  8
002
 62
     3
370
    30
100
AcDbCircle
 10
1062.237737
 20
761.388412
 30
0.0
 40
200.0006904019332
100
AcDbArc
 50
348.053729
 51
356.732658
  0
LINE
  5
595
330
1F
100
AcDbEntity
  8
002
 62
     3
370
    30
100
AcDbLine
 10
1257.90684
 20
719.989401
 30
0.0
 11
1257.90692
 21
687.989401
 31
0.0
  0
ARC
  5
596
330
1F
100
AcDbEntity
  8
002
 62
     3
370
    30
100
AcDbCircle
 10
1254.90692
 20
687.989394
 30
0.0
 40
3.0
100
AcDbArc
 50
270.000143
 51
0.000143
  0
LINE
  5
597
330
1F
100
AcDbEntity
  8
002
 62
     3
370
    30
100
AcDbLine
 10
1273.744928
 20
684.989441
 30
0.0
 11
1273.744707
 21
773.290641
 31
0.0
  0
LINE
  5
598
330
1F
100
AcDbEntity
  8
002
 62
     3
370
    30
100
AcDbLine
 10
1289.288707
 20
773.290679
 30
0.0
 11
1289.288928
 21
684.989479
 31
0.0
  0
LINE
  5
599
330
1F
100
AcDbEntity
  8
002
 62
     3
370
    30
100
AcDbLine
 10
1302.906978
 20
664.989513
 30
0.0
 11
1302.907023
 21
646.989513
 31
0.0
  0
LINE
  5
59A
330
1F
100
AcDbEntity
  8
002
 62
     3
370
    30
100
AcDbLine
 10
1302.907023
 20
646.989513
 30
0.0
 11
1372.907023
 21
646.989688
 31
0.0
  0
LINE
  5
59B
330
1F
100
AcDbEntity
  8
002
 62
     3
370
    30
100
AcDbLine
 10
1372.907023
 20
646.989688
 30
0.0
 11
1372.906978
 21
664.989688
 31
0.0
  0
LINE
  5
59C
330
1F
100
AcDbEntity
  8
002
 62
     3
370
    30
100
AcDbLine
 10
1359.90692
 20
687.989656
 30
0.0
 11
1359.906765
 21
749.989656
 31
0.0
  0
CIRCLE
  5
59D
330
1F
100
AcDbEntity
  8
002
 62
     3
370
    30
100
AcDbCircle
 10
1410.906765
 20
749.989783
 30
0.0
 40
29.0
  0
ARC
  5
59E
330
1F
100
AcDbEntity
  8
002
 62
     3
370
    30
100
AcDbCircle
 10
1410.906765
 20
749.989783
 30
0.0
 40
50.99935250804688
100
AcDbArc
 50
20.693912
 51
321.65738
  0
ARC
  5
59F
330
1F
100
AcDbEntity
  8
002
 62
     3
370
    30
100
AcDbCircle
 10
1439.906738
 20
760.944256
 30
0.0
 40
20.0
100
AcDbArc
 50
0.000143
 51
20.694403
  0
LINE
  5
5A0
330
1F
100
AcDbEntity
  8
002
 62
     3
370
    30
100
AcDbLine
 10
1459.906738
 20
760.944306
 30
0.0
 11
1459.90692
 21
687.989906
 31
0.0
  0
ARC
  5
5A1
330
1F
100
AcDbEntity
  8
002
 62
     3
370
    30
100
AcDbCircle
 10
1462.90692
 20
687.989913
 30
0.0
 40
3.0
100
AcDbArc
 50
180.000143
 51
270.000143
  0
ARC
  5
5A2
330
1F
100
AcDbEntity
  8
002
 62
     3
370
    30
100
AcDbCircle
 10
1454.90692
 20
687.989893
 30
0.0
 40
3.0
100
AcDbArc
 50
180.000143
 51
270.000143
  0
LINE
  5
5A3
330
1F
100
AcDbEntity
  8
002
 62
     3
370
    30
100
AcDbLine
 10
1451.90692
 20
687.989886
 30
0.0
 11
1451.906708
 21
772.793386
 31
0.0
  0
ARC
  5
5A4
330
1F
100
AcDbEntity
  8
002
 62
     3
370
    30
100
AcDbCircle
 10
1431.906708
 20
772.793336
 30
0.0
 40
20.0
100
AcDbArc
 50
0.000143
 51
18.195021
  0
LINE
  5
5A5
330
1F
100
AcDbEntity
  8
002
 62
     3
370
    30
100
AcDbLine
 10
1458.758713
 20
770.774203
 30
0.0
 11
1459.660713
 21
770.774205
 31
0.0
  0
LINE
  5
5A6
330
1F
100
AcDbEntity
  8
002
 62
     3
370
    30
100
AcDbLine
 10
1459.660713
 20
770.774205
 30
0.0
 11
1489.686919
 21
688.27988
 31
0.0
  0
ARC
  5
5A7
330
1F
100
AcDbEntity
  8
002
 62
     3
370
    30
100
AcDbCircle
 10
1494.384915
 20
689.989992
 30
0.0
 40
4.999564582040998
100
AcDbArc
 50
200.001951
 51
270.000143
  0
LINE
  5
5A8
330
1F
100
AcDbEntity
  8
002
 62
     3
370
    30
100
AcDbLine
 10
1509.906928
 20
684.990031
 30
0.0
 11
1233.906928
 21
684.989341
 31
0.0
  0
ARC
  5
5A9
330
1F
100
AcDbEntity
  8
002
 62
     3
370
    30
100
AcDbCircle
 10
1233.906935
 20
681.989341
 30
0.0
 40
3.0
100
AcDbArc
 50
90.000143
 51
180.000143
  0
LINE
  5
5AA
330
1F
100
AcDbEntity
  8
002
 62
     3
370
    30
100
AcDbLine
 10
1230.906935
 20
681.989334
 30
0.0
 11
1230.906978
 21
664.989334
 31
0.0
  0
LINE
  5
5AB
330
1F
100
AcDbEntity
  8
002
 62
     3
370
    30
100
AcDbLine
 10
1230.906978
 20
664.989334
 30
0.0
 11
1512.906978
 21
664.990038
 31
0.0
  0
LINE
  5
5AC
330
1F
100
AcDbEntity
  8
002
 62
     3
370
    30
100
AcDbLine
 10
1512.906978
 20
664.990038
 30
0.0
 11
1512.906935
 21
681.990038
 31
0.0
  0
ARC
  5
5AD
330
1F
100
AcDbEntity
  8
002
 62
     3
370
    30
100
AcDbCircle
 10
1509.906935
 20
681.990031
 30
0.0
 40
3.0
100
AcDbArc
 50
0.000143
 51
90.000143
  0
LINE
  5
5AE
330
1F
100
AcDbEntity
  8
002
 62
     3
370
    30
100
AcDbLine
 10
1450.906844
 20
718.351283
 30
0.0
 11
1450.906686
 21
781.628383
 31
0.0
  0
ARC
  5
5AF
330
1F
100
AcDbEntity
  8
002
 62
     3
370
    30
100
AcDbCircle
 10
1447.90666
 20
792.025576
 30
0.0
 40
5.0
100
AcDbArc
 50
180.000143
 51
228.642181
  0
LINE
  5
5B0
330
1F
100
AcDbEntity
  8
002
 62
     3
370
    30
100
AcDbLine
 10
1442.90666
 20
792.025563
 30
0.0
 11
1442.90658
 21
823.989863
 31
0.0
  0
LINE
  5
5B1
330
1F
100
AcDbEntity
  8
002
 62
     3
370
    30
100
AcDbLine
 10
1442.90658
 20
823.989863
 30
0.0
 11
1232.90658
 21
823.989339
 31
0.0
  0
LINE
  5
5B2
330
1F
100
AcDbEntity
  8
002
 62
     3
370
    30
100
AcDbLine
 10
1232.906615
 20
809.989339
 30
0.0
 11
1442.906615
 21
809.989863
 31
0.0
  0
LINE
  5
5B3
330
1F
100
AcDbEntity
  8
002
 62
     3
370
    30
100
AcDbLine
 10
1433.83958
 20
823.989841
 30
0.0
 11
1433.83955
 21
835.989841
 31
0.0
  0
LINE
  5
5B4
330
1F
100
AcDbEntity
  8
002
 62
     3
370
    30
100
AcDbLine
 10
1415.83955
 20
835.989796
 30
0.0
 11
1415.83958
 21
823.989796
 31
0.0
  0
LINE
  5
5B5
330
1F
100
AcDbEntity
  8
002
 62
     3
370
    30
100
AcDbLine
 10
1413.90658
 20
823.989791
 30
0.0
 11
1413.906578
 21
824.989791
 31
0.0
  0
LINE
  5
5B6
330
1F
100
AcDbEntity
  8
002
 62
     3
370
    30
100
AcDbLine
 10
1413.906578
 20
824.989791
 30
0.0
 11
1410.545578
 21
824.989782
 31
0.0
  0
LINE
  5
5B7
330
1F
100
AcDbEntity
  8
002
 62
     3
370
    30
100
AcDbLine
 10
1410.54558
 20
823.989782
 30
0.0
 11
1410.54555
 21
835.989782
 31
0.0
  0
LINE
  5
5B8
330
1F
100
AcDbEntity
  8
002
 62
     3
370
    30
100
AcDbLine
 10
1392.54555
 20
835.989738
 30
0.0
 11
1392.54558
 21
823.989738
 31
0.0
  0
LINE
  5
5B9
330
1F
100
AcDbEntity
  8
002
 62
     3
370
    30
100
AcDbLine
 10
1392.545578
 20
824.989738
 30
0.0
 11
1370.199578
 21
824.989682
 31
0.0
  0
LINE
  5
5BA
330
1F
100
AcDbEntity
  8
002
 62
     3
370
    30
100
AcDbLine
 10
1370.19958
 20
823.989682
 30
0.0
 11
1370.19955
 21
835.989682
 31
0.0
  0
LINE
  5
5BB
330
1F
100
AcDbEntity
  8
002
 62
     3
370
    30
100
AcDbLine
 10
1392.54555
 20
835.989738
 30
0.0
 11
1410.54555
 21
835.989782
 31
0.0
  0
LINE
  5
5BC
330
1F
100
AcDbEntity
  8
002
 62
     3
370
    30
100
AcDbLine
 10
1415.83955
 20
835.989796
 30
0.0
 11
1433.83955
 21
835.989841
 31
0.0
  0
LINE
  5
5BD
330
1F
100
AcDbEntity
  8
002
 62
     3
370
    30
100
AcDbLine
 10
1404.90655
 20
835.989768
 30
0.0
 11
1404.906525
 21
845.989768
 31
0.0
  0
LINE
  5
5BE
330
1F
100
AcDbEntity
  8
002
 62
     3
370
    30
100
AcDbLine
 10
1404.906525
 20
845.989768
 30
0.0
 11
1270.906525
 21
845.989433
 31
0.0
  0
LINE
  5
5BF
330
1F
100
AcDbEntity
  8
002
 62
     3
370
    30
100
AcDbLine
 10
1270.906525
 20
845.989433
 30
0.0
 11
1270.90655
 21
835.989433
 31
0.0
  0
LINE
  5
5C0
330
1F
100
AcDbEntity
  8
002
 62
     3
370
    30
100
AcDbLine
 10
1270.90654
 20
839.989433
 30
0.0
 11
1404.90654
 21
839.989768
 31
0.0
  0
ARC
  5
5C1
330
1F
100
AcDbEntity
  8
002
 62
     3
370
    30
100
AcDbCircle
 10
1458.758708
 20
772.774203
 30
0.0
 40
2.000222997568036
100
AcDbArc
 50
205.458316
 51
270.000143
  0
ARC
  5
5C2
330
1F
100
AcDbEntity
  8
002
 62
     3
370
    30
100
AcDbCircle
 10
1436.906827
 20
725.090048
 30
0.0
 40
14.99998962966351
100
AcDbArc
 50
338.770088
 51
0.000143
  0
ARC
  5
5C3
330
1F
100
AcDbEntity
  8
002
 62
     3
370
    30
100
AcDbCircle
 10
1356.90692
 20
687.989648
 30
0.0
 40
3.0
100
AcDbArc
 50
270.000143
 51
0.000143
  0
LINE
  5
5C4
330
1F
100
AcDbEntity
  8
002
 62
     3
370
    30
100
AcDbLine
 10
1340.792778
 20
744.989608
 30
0.0
 11
1335.019778
 21
744.989594
 31
0.0
  0
LINE
  5
5C5
330
1F
100
AcDbEntity
  8
002
 62
     3
370
    30
100
AcDbLine
 10
1335.019778
 20
744.989594
 30
0.0
 11
1332.132765
 21
749.989587
 31
0.0
  0
LINE
  5
5C6
330
1F
100
AcDbEntity
  8
002
 62
     3
370
    30
100
AcDbLine
 10
1332.132765
 20
749.989587
 30
0.0
 11
1335.019753
 21
754.989594
 31
0.0
  0
LINE
  5
5C7
330
1F
100
AcDbEntity
  8
002
 62
     3
370
    30
100
AcDbLine
 10
1335.019753
 20
754.989594
 30
0.0
 11
1340.792753
 21
754.989608
 31
0.0
  0
LINE
  5
5C8
330
1F
100
AcDbEntity
  8
002
 62
     3
370
    30
100
AcDbLine
 10
1340.792753
 20
754.989608
 30
0.0
 11
1343.679765
 21
749.989615
 31
0.0
  0
LINE
  5
5C9
330
1F
100
AcDbEntity
  8
002
 62
     3
370
    30
100
AcDbLine
 10
1343.679765
 20
749.989615
 30
0.0
 11
1340.792778
 21
744.989608
 31
0.0
  0
CIRCLE
  5
5CA
330
1F
100
AcDbEntity
  8
002
 62
     3
370
    30
100
AcDbCircle
 10
1337.906765
 20
749.989601
 30
0.0
 40
0.75
  0
CIRCLE
  5
5CB
330
1F
100
AcDbEntity
  8
002
 62
     3
370
    30
100
AcDbCircle
 10
1337.906765
 20
749.989601
 30
0.0
 40
2.5
  0
CIRCLE
  5
5CC
330
1F
100
AcDbEntity
  8
002
 62
     3
370
    30
100
AcDbCircle
 10
1337.906765
 20
749.989601
 30
0.0
 40
3.25
  0
CIRCLE
  5
5CD
330
1F
100
AcDbEntity
  8
002
 62
     3
370
    30
100
AcDbCircle
 10
1337.906765
 20
749.989601
 30
0.0
 40
5.0
  0
CIRCLE
  5
5CE
330
1F
100
AcDbEntity
  8
002
 62
     3
370
    30
100
AcDbCircle
 10
1337.906765
 20
749.989601
 30
0.0
 40
10.0
  0
LINE
  5
5CF
330
1F
100
AcDbEntity
  8
002
 62
     3
370
    30
100
AcDbLine
 10
1362.855704
 20
774.630663
 30
0.0
 11
1365.540707
 21
773.29087
 31
0.0
  0
LINE
  5
5D0
330
1F
100
AcDbEntity
  8
002
 62
     3
370
    30
100
AcDbLine
 10
1323.61255
 20
835.989565
 30
0.0
 11
1305.61255
 21
835.98952
 31
0.0
  0
LINE
  5
5D1
330
1F
100
AcDbEntity
  8
002
 62
     3
370
    30
100
AcDbLine
 10
1307.015525
 20
845.989524
 30
0.0
 11
1307.0155
 21
855.989324
 31
0.0
  0
LINE
  5
5D2
330
1F
100
AcDbEntity
  8
002
 62
     3
370
    30
100
AcDbLine
 10
1291.0155
 20
855.989284
 30
0.0
 11
1307.0155
 21
855.989324
 31
0.0
  0
LINE
  5
5D3
330
1F
100
AcDbEntity
  8
002
 62
     3
370
    30
100
AcDbLine
 10
1293.3565
 20
855.98929
 30
0.0
 11
1293.356378
 21
904.98929
 31
0.0
  0
LINE
  5
5D4
330
1F
100
AcDbEntity
  8
002
 62
     3
370
    30
100
AcDbLine
 10
1293.356378
 20
904.98929
 30
0.0
 11
1382.456378
 21
904.989512
 31
0.0
  0
LINE
  5
5D5
330
1F
100
AcDbEntity
  8
002
 62
     3
370
    30
100
AcDbLine
 10
1291.0155
 20
855.989284
 30
0.0
 11
1291.015525
 21
845.989484
 31
0.0
  0
LINE
  5
5D6
330
1F
100
AcDbEntity
  8
002
 62
     3
370
    30
100
AcDbLine
 10
1283.26655
 20
835.989464
 30
0.0
 11
1265.26655
 21
835.989419
 31
0.0
  0
LINE
  5
5D7
330
1F
100
AcDbEntity
  8
002
 62
     3
370
    30
100
AcDbLine
 10
1259.97255
 20
835.989406
 30
0.0
 11
1241.97255
 21
835.989361
 31
0.0
  0
LINE
  5
5D8
330
1F
100
AcDbEntity
  8
002
 62
     3
370
    30
100
AcDbLine
 10
1236.611693
 20
778.996348
 30
0.0
 11
1249.200701
 21
775.623379
 31
0.0
  0
ARC
  5
5D9
330
1F
100
AcDbEntity
  8
002
 62
     3
370
    30
100
AcDbCircle
 10
1247.906713
 20
770.793676
 30
0.0
 40
5.0
100
AcDbArc
 50
0.000143
 51
75.001407
  0
LINE
  5
5DA
330
1F
100
AcDbEntity
  8
002
 62
     3
370
    30
100
AcDbLine
 10
1252.906713
 20
770.793689
 30
0.0
 11
1252.906828
 21
724.989389
 31
0.0
  0
ARC
  5
5DB
330
1F
100
AcDbEntity
  8
002
 62
     3
370
    30
100
AcDbCircle
 10
1252.90684
 20
719.989389
 30
0.0
 40
5.0
100
AcDbArc
 50
0.000143
 51
90.000143
  0
LINE
  5
5DC
330
1F
100
AcDbEntity
  8
002
 62
     3
370
    30
100
AcDbLine
 10
1252.906807
 20
733.321289
 30
0.0
 11
1244.906807
 21
733.071269
 31
0.0
  0
LINE
  5
5DD
330
1F
100
AcDbEntity
  8
002
 62
     3
370
    30
100
AcDbLine
 10
1244.906807
 20
733.071269
 30
0.0
 11
1244.906723
 21
766.907369
 31
0.0
  0
LINE
  5
5DE
330
1F
100
AcDbEntity
  8
002
 62
     3
370
    30
100
AcDbLine
 10
1244.906723
 20
766.907369
 30
0.0
 11
1252.906724
 21
766.657389
 31
0.0
  0
LINE
  5
5DF
330
1F
100
AcDbEntity
  8
002
 62
     3
370
    30
100
AcDbLine
 10
1252.906704
 20
774.630389
 30
0.0
 11
1256.912704
 21
774.630399
 31
0.0
  0
LINE
  5
5E0
330
1F
100
AcDbEntity
  8
002
 62
     3
370
    30
100
AcDbLine
 10
1244.906741
 20
759.489369
 30
0.0
 11
1232.906743
 21
758.989339
 31
0.0
  0
LINE
  5
5E1
330
1F
100
AcDbEntity
  8
002
 62
     3
370
    30
100
AcDbLine
 10
1232.906743
 20
758.989339
 30
0.0
 11
1232.906788
 21
740.989339
 31
0.0
  0
LINE
  5
5E2
330
1F
100
AcDbEntity
  8
002
 62
     3
370
    30
100
AcDbLine
 10
1232.906788
 20
740.989339
 30
0.0
 11
1244.906789
 21
740.489369
 31
0.0
  0
ARC
  5
5E3
330
1F
100
AcDbEntity
  8
002
 62
     3
370
    30
100
AcDbCircle
 10
1237.906681
 20
783.825951
 30
0.0
 40
5.0
100
AcDbArc
 50
180.000143
 51
254.990043
  0
LINE
  5
5E4
330
1F
100
AcDbEntity
  8
002
  6
CENTER
 62
    40
370
     9
100
AcDbLine
 10
1260.907
 20
655.880209
 30
0.0
 11
1260.906912
 21
691.344909
 31
0.0
  0
LINE
  5
5E5
330
1F
100
AcDbEntity
  8
002
 62
    40
370
     9
100
AcDbLine
 10
1252.906803
 20
734.761689
 30
0.0
 11
1244.906804
 21
734.511669
 31
0.0
  0
LINE
  5
5E6
330
1F
100
AcDbEntity
  8
002
 62
    40
370
     9
100
AcDbLine
 10
1244.906789
 20
740.489369
 30
0.0
 11
1232.906743
 21
758.989339
 31
0.0
  0
LINE
  5
5E7
330
1F
100
AcDbEntity
  8
002
  6
CENTER
 62
    40
370
     9
100
AcDbLine
 10
1230.342765
 20
749.989332
 30
0.0
 11
1489.551765
 21
749.98998
 31
0.0
  0
LINE
  5
5E8
330
1F
100
AcDbEntity
  8
002
  6
CENTER
 62
    40
370
     9
100
AcDbLine
 10
1424.839622
 20
807.105618
 30
0.0
 11
1424.839535
 21
841.960718
 31
0.0
  0
LINE
  5
5E9
330
1F
100
AcDbEntity
  8
002
  6
CENTER
 62
    40
370
     9
100
AcDbLine
 10
1401.545535
 20
841.96066
 30
0.0
 11
1401.545622
 21
807.10556
 31
0.0
  0
LINE
  5
5EA
330
1F
100
AcDbEntity
  8
002
  6
CENTER
 62
    40
370
     9
100
AcDbLine
 10
1410.906615
 20
809.989783
 30
0.0
 11
1410.906928
 21
684.989783
 31
0.0
  0
LINE
  5
5EB
330
1F
100
AcDbEntity
  8
002
  6
CENTER
 62
    40
370
     9
100
AcDbLine
 10
1361.199622
 20
807.105459
 30
0.0
 11
1361.199535
 21
841.960559
 31
0.0
  0
LINE
  5
5EC
330
1F
100
AcDbEntity
  8
002
  6
CENTER
 62
    40
370
     9
100
AcDbLine
 10
1376.796546
 20
837.881198
 30
0.0
 11
1376.796481
 21
863.506498
 31
0.0
  0
LINE
  5
5ED
330
1F
100
AcDbEntity
  8
002
  6
CENTER
 62
    40
370
     9
100
AcDbLine
 10
1314.612535
 20
841.960443
 30
0.0
 11
1314.612622
 21
807.105343
 31
0.0
  0
LINE
  5
5EE
330
1F
100
AcDbEntity
  8
002
  6
CENTER
 62
    40
370
     9
100
AcDbLine
 10
1299.015546
 20
837.881004
 30
0.0
 11
1299.015481
 21
863.506304
 31
0.0
  0
LINE
  5
5EF
330
1F
100
AcDbEntity
  8
002
  6
CENTER
 62
    40
370
     9
100
AcDbLine
 10
1274.266535
 20
841.960342
 30
0.0
 11
1274.266622
 21
807.105242
 31
0.0
  0
LINE
  5
5F0
330
1F
100
AcDbEntity
  8
002
  6
CENTER
 62
    40
370
     9
100
AcDbLine
 10
1250.972622
 20
807.105184
 30
0.0
 11
1250.972535
 21
841.960284
 31
0.0
  0
LINE
  5
5F1
330
1F
100
AcDbEntity
  8
002
 62
    40
370
     9
100
AcDbLine
 10
1244.906726
 20
765.466969
 30
0.0
 11
1252.906727
 21
765.216989
 31
0.0
  0
LINE
  5
5F2
330
1F
100
AcDbEntity
  8
002
 62
    40
370
     9
100
AcDbLine
 10
1244.906741
 20
759.489369
 30
0.0
 11
1232.906788
 21
740.989339
 31
0.0
  0
LINE
  5
5F3
330
1F
100
AcDbEntity
  8
002
  6
CENTER
 62
    40
370
     9
100
AcDbLine
 10
1482.907
 20
655.880763
 30
0.0
 11
1482.906912
 21
691.345463
 31
0.0
  0
LINE
  5
5F4
330
1F
100
AcDbEntity
  8
002
 62
     3
370
    30
100
AcDbLine
 10
1307.907851
 20
278.114901
 30
0.0
 11
1307.908206
 21
135.989926
 31
0.0
  0
LINE
  5
5F5
330
1F
100
AcDbEntity
  8
002
 62
     3
370
    30
100
AcDbLine
 10
1307.908206
 20
135.989926
 30
0.0
 11
1367.908206
 21
135.990076
 31
0.0
  0
LINE
  5
5F6
330
1F
100
AcDbEntity
  8
002
 62
     3
370
    30
100
AcDbLine
 10
1367.908206
 20
135.990076
 30
0.0
 11
1367.907851
 21
278.114901
 31
0.0
  0
LINE
  5
5F7
330
1F
100
AcDbEntity
  8
002
 62
     3
370
    30
100
AcDbLine
 10
1360.408206
 20
135.990057
 30
0.0
 11
1360.408383
 21
64.989657
 31
0.0
  0
LINE
  5
5F8
330
1F
100
AcDbEntity
  8
002
 62
     3
370
    30
100
AcDbLine
 10
1360.408383
 20
64.989657
 30
0.0
 11
1315.408383
 21
64.989545
 31
0.0
  0
LINE
  5
5F9
330
1F
100
AcDbEntity
  8
002
 62
     3
370
    30
100
AcDbLine
 10
1315.408383
 20
64.989545
 30
0.0
 11
1315.408206
 21
135.989945
 31
0.0
  0
LINE
  5
5FA
330
1F
100
AcDbEntity
  8
002
 62
    40
370
     9
100
AcDbLine
 10
1364.417206
 20
135.990067
 30
0.0
 11
1364.416851
 21
278.114901
 31
0.0
  0
LINE
  5
5FB
330
1F
100
AcDbEntity
  8
002
 62
    40
370
     9
100
AcDbLine
 10
1311.398851
 20
278.114901
 30
0.0
 11
1311.399206
 21
135.989935
 31
0.0
  0
LINE
  5
5FC
330
1F
100
AcDbEntity
  8
002
  6
HIDDEN
 62
    40
370
     9
100
AcDbLine
 10
1495.90693
 20
683.989996
 30
0.0
 11
1495.906978
 21
664.989996
 31
0.0
  0
LINE
  5
5FD
330
1F
100
AcDbEntity
  8
002
  6
HIDDEN
 62
    40
370
     9
100
AcDbLine
 10
1457.90693
 20
683.989901
 30
0.0
 11
1507.90693
 21
683.990026
 31
0.0
  0
LINE
  5
5FE
330
1F
100
AcDbEntity
  8
002
  6
HIDDEN
 62
    40
370
     9
100
AcDbLine
 10
1507.90693
 20
683.990026
 30
0.0
 11
1507.906928
 21
684.990026
 31
0.0
  0
LINE
  5
5FF
330
1F
100
AcDbEntity
  8
002
  6
HIDDEN
 62
    40
370
     9
100
AcDbLine
 10
1469.90693
 20
683.989931
 30
0.0
 11
1469.906978
 21
664.989931
 31
0.0
  0
LINE
  5
600
330
1F
100
AcDbEntity
  8
002
  6
HIDDEN
 62
    40
370
     9
100
AcDbLine
 10
1457.906928
 20
684.989901
 30
0.0
 11
1457.90693
 21
683.989901
 31
0.0
  0
LINE
  5
601
330
1F
100
AcDbEntity
  8
002
  6
HIDDEN
 62
    40
370
     9
100
AcDbLine
 10
1273.90693
 20
683.989441
 30
0.0
 11
1273.906978
 21
664.989441
 31
0.0
  0
LINE
  5
602
330
1F
100
AcDbEntity
  8
002
  6
HIDDEN
 62
    40
370
     9
100
AcDbLine
 10
1285.90693
 20
683.989471
 30
0.0
 11
1235.90693
 21
683.989346
 31
0.0
  0
LINE
  5
603
330
1F
100
AcDbEntity
  8
002
  6
HIDDEN
 62
    40
370
     9
100
AcDbLine
 10
1285.90693
 20
683.989471
 30
0.0
 11
1285.906928
 21
684.989471
 31
0.0
  0
LINE
  5
604
330
1F
100
AcDbEntity
  8
002
  6
HIDDEN
 62
    40
370
     9
100
AcDbLine
 10
1247.90693
 20
683.989376
 30
0.0
 11
1247.906978
 21
664.989376
 31
0.0
  0
LINE
  5
605
330
1F
100
AcDbEntity
  8
002
  6
HIDDEN
 62
    40
370
     9
100
AcDbLine
 10
1235.90693
 20
683.989346
 30
0.0
 11
1235.906928
 21
684.989346
 31
0.0
  0
LINE
  5
606
330
1F
100
AcDbEntity
  8
002
 62
     3
370
    30
100
AcDbLine
 10
1359.003041
 20
279.114901
 30
0.0
 11
1359.003041
 21
292.020701
 31
0.0
  0
LINE
  5
607
330
1F
100
AcDbEntity
  8
002
 62
     3
370
    30
100
AcDbLine
 10
1362.338041
 20
288.659801
 30
0.0
 11
1350.407041
 21
300.637601
 31
0.0
  0
LINE
  5
608
330
1F
100
AcDbEntity
  8
002
 62
     3
370
    30
100
AcDbLine
 10
1350.407041
 20
298.925001
 30
0.0
 11
1325.407041
 21
324.041601
 31
0.0
  0
LINE
  5
609
330
1F
100
AcDbEntity
  8
002
 62
     3
370
    30
100
AcDbLine
 10
1325.408041
 20
325.737401
 30
0.0
 11
1304.504041
 21
346.723801
 31
0.0
  0
ARC
  5
60A
330
1F
100
AcDbEntity
  8
002
 62
     3
370
    30
100
AcDbCircle
 10
1309.013041
 20
351.123301
 30
0.0
 40
6.299766234551814
100
AcDbArc
 50
44.884251
 51
225.481693
  0
LINE
  5
60B
330
1F
100
AcDbEntity
  8
002
 62
     3
370
    30
100
AcDbLine
 10
1313.477041
 20
355.569501
 30
0.0
 11
1325.408041
 21
343.591701
 31
0.0
  0
LINE
  5
60C
330
1F
100
AcDbEntity
  8
002
 62
     3
370
    30
100
AcDbLine
 10
1325.408041
 20
345.304301
 30
0.0
 11
1350.408041
 21
320.187701
 31
0.0
  0
LINE
  5
60D
330
1F
100
AcDbEntity
  8
002
 62
     3
370
    30
100
AcDbLine
 10
1350.407041
 20
318.492001
 30
0.0
 11
1371.311041
 21
297.505601
 31
0.0
  0
ARC
  5
60E
330
1F
100
AcDbEntity
  8
002
 62
     3
370
    30
100
AcDbCircle
 10
1366.802041
 20
293.106001
 30
0.0
 40
6.299766234551814
100
AcDbArc
 50
224.884251
 51
45.481693
  0
LINE
  5
60F
330
1F
100
AcDbEntity
  8
002
 62
     3
370
    30
100
AcDbLine
 10
1359.003041
 20
309.802501
 30
0.0
 11
1359.003041
 21
356.156101
 31
0.0
  0
ARC
  5
610
330
1F
100
AcDbEntity
  8
002
 62
     3
370
    30
100
AcDbCircle
 10
1366.802041
 20
357.106201
 30
0.0
 40
6.299766234551814
100
AcDbArc
 50
224.884251
 51
45.481693
  0
LINE
  5
611
330
1F
100
AcDbEntity
  8
002
 62
     3
370
    30
100
AcDbLine
 10
1371.311041
 20
361.505801
 30
0.0
 11
1350.407041
 21
382.492201
 31
0.0
  0
LINE
  5
612
330
1F
100
AcDbEntity
  8
002
 62
     3
370
    30
100
AcDbLine
 10
1350.408041
 20
384.188001
 30
0.0
 11
1325.408041
 21
409.304501
 31
0.0
  0
LINE
  5
613
330
1F
100
AcDbEntity
  8
002
 62
     3
370
    30
100
AcDbLine
 10
1325.408041
 20
407.592001
 30
0.0
 11
1313.477041
 21
419.569801
 31
0.0
  0
ARC
  5
614
330
1F
100
AcDbEntity
  8
002
 62
     3
370
    30
100
AcDbCircle
 10
1309.013041
 20
415.123601
 30
0.0
 40
6.299766234551814
100
AcDbArc
 50
44.883607
 51
225.481693
  0
LINE
  5
615
330
1F
100
AcDbEntity
  8
002
 62
     3
370
    30
100
AcDbLine
 10
1304.504041
 20
410.724001
 30
0.0
 11
1325.408041
 21
389.737601
 31
0.0
  0
LINE
  5
616
330
1F
100
AcDbEntity
  8
002
 62
     3
370
    30
100
AcDbLine
 10
1325.408041
 20
388.041801
 30
0.0
 11
1350.407041
 21
362.925201
 31
0.0
  0
LINE
  5
617
330
1F
100
AcDbEntity
  8
002
 62
     3
370
    30
100
AcDbLine
 10
1350.408041
 20
364.637901
 30
0.0
 11
1362.338041
 21
352.660101
 31
0.0
  0
LINE
  5
618
330
1F
100
AcDbEntity
  8
002
 62
     3
370
    30
100
AcDbLine
 10
1340.908041
 20
353.614801
 30
0.0
 11
1339.908041
 21
353.614801
 31
0.0
  0
LINE
  5
619
330
1F
100
AcDbEntity
  8
002
 62
     3
370
    30
100
AcDbLine
 10
1339.908041
 20
353.614701
 30
0.0
 11
1338.957041
 21
353.065701
 31
0.0
  0
LINE
  5
61A
330
1F
100
AcDbEntity
  8
002
 62
     3
370
    30
100
AcDbLine
 10
1338.957041
 20
353.065701
 30
0.0
 11
1338.408041
 21
352.114801
 31
0.0
  0
LINE
  5
61B
330
1F
100
AcDbEntity
  8
002
 62
     3
370
    30
100
AcDbLine
 10
1338.408041
 20
352.114701
 30
0.0
 11
1338.408041
 21
351.114801
 31
0.0
  0
LINE
  5
61C
330
1F
100
AcDbEntity
  8
002
 62
     3
370
    30
100
AcDbLine
 10
1338.408041
 20
351.114801
 30
0.0
 11
1337.408041
 21
351.114801
 31
0.0
  0
LINE
  5
61D
330
1F
100
AcDbEntity
  8
002
 62
     3
370
    30
100
AcDbLine
 10
1337.408041
 20
351.114801
 30
0.0
 11
1337.408041
 21
352.114701
 31
0.0
  0
LINE
  5
61E
330
1F
100
AcDbEntity
  8
002
 62
     3
370
    30
100
AcDbLine
 10
1337.408041
 20
352.114701
 30
0.0
 11
1336.859041
 21
353.065701
 31
0.0
  0
LINE
  5
61F
330
1F
100
AcDbEntity
  8
002
 62
     3
370
    30
100
AcDbLine
 10
1336.859041
 20
353.065701
 30
0.0
 11
1335.908041
 21
353.614701
 31
0.0
  0
LINE
  5
620
330
1F
100
AcDbEntity
  8
002
 62
     3
370
    30
100
AcDbLine
 10
1335.908041
 20
353.614801
 30
0.0
 11
1334.908041
 21
353.614801
 31
0.0
  0
LINE
  5
621
330
1F
100
AcDbEntity
  8
002
 62
     3
370
    30
100
AcDbLine
 10
1334.908041
 20
353.614801
 30
0.0
 11
1334.908041
 21
354.614701
 31
0.0
  0
LINE
  5
622
330
1F
100
AcDbEntity
  8
002
 62
     3
370
    30
100
AcDbLine
 10
1334.908041
 20
354.614701
 30
0.0
 11
1335.908041
 21
354.614701
 31
0.0
  0
LINE
  5
623
330
1F
100
AcDbEntity
  8
002
 62
     3
370
    30
100
AcDbLine
 10
1335.908041
 20
354.614801
 30
0.0
 11
1336.859041
 21
355.163801
 31
0.0
  0
LINE
  5
624
330
1F
100
AcDbEntity
  8
002
 62
     3
370
    30
100
AcDbLine
 10
1336.859041
 20
355.163801
 30
0.0
 11
1337.408041
 21
356.114701
 31
0.0
  0
LINE
  5
625
330
1F
100
AcDbEntity
  8
002
 62
     3
370
    30
100
AcDbLine
 10
1337.408041
 20
356.114801
 30
0.0
 11
1337.408041
 21
357.114801
 31
0.0
  0
LINE
  5
626
330
1F
100
AcDbEntity
  8
002
 62
     3
370
    30
100
AcDbLine
 10
1337.408041
 20
357.114801
 30
0.0
 11
1338.408041
 21
357.114801
 31
0.0
  0
LINE
  5
627
330
1F
100
AcDbEntity
  8
002
 62
     3
370
    30
100
AcDbLine
 10
1338.408041
 20
357.114801
 30
0.0
 11
1338.408041
 21
356.114801
 31
0.0
  0
LINE
  5
628
330
1F
100
AcDbEntity
  8
002
 62
     3
370
    30
100
AcDbLine
 10
1338.408041
 20
356.114801
 30
0.0
 11
1338.957041
 21
355.163801
 31
0.0
  0
LINE
  5
629
330
1F
100
AcDbEntity
  8
002
 62
     3
370
    30
100
AcDbLine
 10
1338.957041
 20
355.163801
 30
0.0
 11
1339.908041
 21
354.614801
 31
0.0
  0
LINE
  5
62A
330
1F
100
AcDbEntity
  8
002
 62
     3
370
    30
100
AcDbLine
 10
1339.908041
 20
354.614701
 30
0.0
 11
1340.908041
 21
354.614701
 31
0.0
  0
LINE
  5
62B
330
1F
100
AcDbEntity
  8
002
 62
     3
370
    30
100
AcDbLine
 10
1340.908041
 20
354.614701
 30
0.0
 11
1340.908041
 21
353.614801
 31
0.0
  0
CIRCLE
  5
62C
330
1F
100
AcDbEntity
  8
002
 62
     3
370
    30
100
AcDbCircle
 10
1337.908041
 20
354.114801
 30
0.0
 40
5.249999
  0
LINE
  5
62D
330
1F
100
AcDbEntity
  8
002
 62
     3
370
    30
100
AcDbLine
 10
1316.813041
 20
352.220901
 30
0.0
 11
1316.813041
 21
398.427001
 31
0.0
  0
LINE
  5
62E
330
1F
100
AcDbEntity
  8
002
 62
     3
370
    30
100
AcDbLine
 10
1316.813041
 20
416.221201
 30
0.0
 11
1316.813041
 21
430.114601
 31
0.0
  0
LINE
  5
62F
330
1F
100
AcDbEntity
  8
002
 62
     3
370
    30
100
AcDbLine
 10
1325.408041
 20
425.114801
 30
0.0
 11
1325.408041
 21
283.114501
 31
0.0
  0
ARC
  5
630
330
1F
100
AcDbEntity
  8
002
 62
     3
370
    30
100
AcDbCircle
 10
1327.408041
 20
283.114801
 30
0.0
 40
2.0
100
AcDbArc
 50
180.0
 51
270.0
  0
LINE
  5
631
330
1F
100
AcDbEntity
  8
002
 62
     3
370
    30
100
AcDbLine
 10
1327.408041
 20
281.114801
 30
0.0
 11
1348.408041
 21
281.114801
 31
0.0
  0
ARC
  5
632
330
1F
100
AcDbEntity
  8
002
 62
     3
370
    30
100
AcDbCircle
 10
1348.408041
 20
283.114801
 30
0.0
 40
2.0
100
AcDbArc
 50
270.0
 51
0.0
  0
LINE
  5
633
330
1F
100
AcDbEntity
  8
002
 62
     3
370
    30
100
AcDbLine
 10
1350.408041
 20
283.114801
 30
0.0
 11
1350.408041
 21
425.115001
 31
0.0
  0
ARC
  5
634
330
1F
100
AcDbEntity
  8
002
 62
     3
370
    30
100
AcDbCircle
 10
1348.408041
 20
425.114801
 30
0.0
 40
2.0
100
AcDbArc
 50
0.0
 51
90.0
  0
LINE
  5
635
330
1F
100
AcDbEntity
  8
002
 62
     3
370
    30
100
AcDbLine
 10
1348.408041
 20
427.114801
 30
0.0
 11
1327.408041
 21
427.114801
 31
0.0
  0
ARC
  5
636
330
1F
100
AcDbEntity
  8
002
 62
     3
370
    30
100
AcDbCircle
 10
1327.408041
 20
425.114801
 30
0.0
 40
2.0
100
AcDbArc
 50
90.0
 51
180.0
  0
CIRCLE
  5
637
330
1F
100
AcDbEntity
  8
002
 62
     3
370
    30
100
AcDbCircle
 10
1337.908041
 20
418.114501
 30
0.0
 40
5.249999
  0
LINE
  5
638
330
1F
100
AcDbEntity
  8
002
 62
     3
370
    30
100
AcDbLine
 10
1334.908041
 20
417.614501
 30
0.0
 11
1334.908041
 21
418.614501
 31
0.0
  0
LINE
  5
639
330
1F
100
AcDbEntity
  8
002
 62
     3
370
    30
100
AcDbLine
 10
1334.908041
 20
418.614501
 30
0.0
 11
1335.908041
 21
418.614501
 31
0.0
  0
LINE
  5
63A
330
1F
100
AcDbEntity
  8
002
 62
     3
370
    30
100
AcDbLine
 10
1335.908041
 20
418.614501
 30
0.0
 11
1336.858041
 21
419.163501
 31
0.0
  0
LINE
  5
63B
330
1F
100
AcDbEntity
  8
002
 62
     3
370
    30
100
AcDbLine
 10
1336.859041
 20
419.163501
 30
0.0
 11
1337.408041
 21
420.114501
 31
0.0
  0
LINE
  5
63C
330
1F
100
AcDbEntity
  8
002
 62
     3
370
    30
100
AcDbLine
 10
1337.408041
 20
420.114501
 30
0.0
 11
1337.408041
 21
421.114501
 31
0.0
  0
LINE
  5
63D
330
1F
100
AcDbEntity
  8
002
 62
     3
370
    30
100
AcDbLine
 10
1337.408041
 20
421.114501
 30
0.0
 11
1338.408041
 21
421.114501
 31
0.0
  0
LINE
  5
63E
330
1F
100
AcDbEntity
  8
002
 62
     3
370
    30
100
AcDbLine
 10
1338.408041
 20
421.114501
 30
0.0
 11
1338.408041
 21
420.114501
 31
0.0
  0
LINE
  5
63F
330
1F
100
AcDbEntity
  8
002
 62
     3
370
    30
100
AcDbLine
 10
1338.408041
 20
420.114501
 30
0.0
 11
1338.957041
 21
419.163501
 31
0.0
  0
LINE
  5
640
330
1F
100
AcDbEntity
  8
002
 62
     3
370
    30
100
AcDbLine
 10
1338.957041
 20
419.163501
 30
0.0
 11
1339.908041
 21
418.614501
 31
0.0
  0
LINE
  5
641
330
1F
100
AcDbEntity
  8
002
 62
     3
370
    30
100
AcDbLine
 10
1339.908041
 20
418.614501
 30
0.0
 11
1340.908041
 21
418.614501
 31
0.0
  0
LINE
  5
642
330
1F
100
AcDbEntity
  8
002
 62
     3
370
    30
100
AcDbLine
 10
1340.908041
 20
418.614501
 30
0.0
 11
1340.908041
 21
417.614501
 31
0.0
  0
LINE
  5
643
330
1F
100
AcDbEntity
  8
002
 62
     3
370
    30
100
AcDbLine
 10
1340.908041
 20
417.614501
 30
0.0
 11
1339.908041
 21
417.614501
 31
0.0
  0
LINE
  5
644
330
1F
100
AcDbEntity
  8
002
 62
     3
370
    30
100
AcDbLine
 10
1339.908041
 20
417.614501
 30
0.0
 11
1338.957041
 21
417.065501
 31
0.0
  0
LINE
  5
645
330
1F
100
AcDbEntity
  8
002
 62
     3
370
    30
100
AcDbLine
 10
1338.957041
 20
417.065601
 30
0.0
 11
1338.408041
 21
416.114601
 31
0.0
  0
LINE
  5
646
330
1F
100
AcDbEntity
  8
002
 62
     3
370
    30
100
AcDbLine
 10
1338.408041
 20
416.114501
 30
0.0
 11
1338.408041
 21
415.114501
 31
0.0
  0
LINE
  5
647
330
1F
100
AcDbEntity
  8
002
 62
     3
370
    30
100
AcDbLine
 10
1338.408041
 20
415.114501
 30
0.0
 11
1337.408041
 21
415.114501
 31
0.0
  0
LINE
  5
648
330
1F
100
AcDbEntity
  8
002
 62
     3
370
    30
100
AcDbLine
 10
1337.408041
 20
415.114501
 30
0.0
 11
1337.408041
 21
416.114501
 31
0.0
  0
LINE
  5
649
330
1F
100
AcDbEntity
  8
002
 62
     3
370
    30
100
AcDbLine
 10
1337.408041
 20
416.114501
 30
0.0
 11
1336.859041
 21
417.065501
 31
0.0
  0
LINE
  5
64A
330
1F
100
AcDbEntity
  8
002
 62
     3
370
    30
100
AcDbLine
 10
1336.859041
 20
417.065501
 30
0.0
 11
1335.908041
 21
417.614601
 31
0.0
  0
LINE
  5
64B
330
1F
100
AcDbEntity
  8
002
 62
     3
370
    30
100
AcDbLine
 10
1335.908041
 20
417.614501
 30
0.0
 11
1334.908041
 21
417.614501
 31
0.0
  0
LINE
  5
64C
330
1F
100
AcDbEntity
  8
002
 62
     3
370
    30
100
AcDbLine
 10
1359.003041
 20
430.114601
 30
0.0
 11
1359.003041
 21
373.996501
 31
0.0
  0
LINE
  5
64D
330
1F
100
AcDbEntity
  8
002
 62
     3
370
    30
100
AcDbLine
 10
1316.813041
 20
334.239801
 30
0.0
 11
1316.813041
 21
279.114901
 31
0.0
  0
LINE
  5
64E
330
1F
100
AcDbEntity
  8
002
 62
     3
370
    30
100
AcDbLine
 10
1316.812041
 20
279.113801
 30
0.0
 11
1317.389041
 21
278.114801
 31
0.0
  0
LINE
  5
64F
330
1F
100
AcDbEntity
  8
002
 62
     3
370
    30
100
AcDbLine
 10
1290.908041
 20
278.114901
 30
0.0
 11
1290.908041
 21
430.114001
 31
0.0
  0
LINE
  5
650
330
1F
100
AcDbEntity
  8
002
 62
     3
370
    30
100
AcDbLine
 10
1384.908041
 20
430.114001
 30
0.0
 11
1384.908041
 21
278.114901
 31
0.0
  0
LINE
  5
651
330
1F
100
AcDbEntity
  8
002
 62
     3
370
    30
100
AcDbLine
 10
1384.908041
 20
278.114901
 30
0.0
 11
1290.908041
 21
278.114901
 31
0.0
  0
CIRCLE
  5
652
330
1F
100
AcDbEntity
  8
002
 62
     3
370
    30
100
AcDbCircle
 10
1337.908041
 20
290.114501
 30
0.0
 40
5.249999
  0
LINE
  5
653
330
1F
100
AcDbEntity
  8
002
 62
     3
370
    30
100
AcDbLine
 10
1334.908041
 20
289.614601
 30
0.0
 11
1334.908041
 21
290.614501
 31
0.0
  0
LINE
  5
654
330
1F
100
AcDbEntity
  8
002
 62
     3
370
    30
100
AcDbLine
 10
1334.908041
 20
290.614501
 30
0.0
 11
1335.908041
 21
290.614501
 31
0.0
  0
LINE
  5
655
330
1F
100
AcDbEntity
  8
002
 62
     3
370
    30
100
AcDbLine
 10
1335.908041
 20
290.614601
 30
0.0
 11
1336.859041
 21
291.163601
 31
0.0
  0
LINE
  5
656
330
1F
100
AcDbEntity
  8
002
 62
     3
370
    30
100
AcDbLine
 10
1336.859041
 20
291.163601
 30
0.0
 11
1337.408041
 21
292.114501
 31
0.0
  0
LINE
  5
657
330
1F
100
AcDbEntity
  8
002
 62
     3
370
    30
100
AcDbLine
 10
1337.408041
 20
292.114601
 30
0.0
 11
1337.408041
 21
293.114501
 31
0.0
  0
LINE
  5
658
330
1F
100
AcDbEntity
  8
002
 62
     3
370
    30
100
AcDbLine
 10
1337.408041
 20
293.114501
 30
0.0
 11
1338.408041
 21
293.114501
 31
0.0
  0
LINE
  5
659
330
1F
100
AcDbEntity
  8
002
 62
     3
370
    30
100
AcDbLine
 10
1338.408041
 20
293.114501
 30
0.0
 11
1338.408041
 21
292.114601
 31
0.0
  0
LINE
  5
65A
330
1F
100
AcDbEntity
  8
002
 62
     3
370
    30
100
AcDbLine
 10
1338.408041
 20
292.114501
 30
0.0
 11
1338.957041
 21
291.163601
 31
0.0
  0
LINE
  5
65B
330
1F
100
AcDbEntity
  8
002
 62
     3
370
    30
100
AcDbLine
 10
1338.957041
 20
291.163601
 30
0.0
 11
1339.908041
 21
290.614601
 31
0.0
  0
LINE
  5
65C
330
1F
100
AcDbEntity
  8
002
 62
     3
370
    30
100
AcDbLine
 10
1339.908041
 20
290.614501
 30
0.0
 11
1340.908041
 21
290.614501
 31
0.0
  0
LINE
  5
65D
330
1F
100
AcDbEntity
  8
002
 62
     3
370
    30
100
AcDbLine
 10
1340.908041
 20
290.614501
 30
0.0
 11
1340.908041
 21
289.614601
 31
0.0
  0
LINE
  5
65E
330
1F
100
AcDbEntity
  8
002
 62
     3
370
    30
100
AcDbLine
 10
1340.908041
 20
289.614601
 30
0.0
 11
1339.908041
 21
289.614601
 31
0.0
  0
LINE
  5
65F
330
1F
100
AcDbEntity
  8
002
 62
     3
370
    30
100
AcDbLine
 10
1339.908041
 20
289.614501
 30
0.0
 11
1338.957041
 21
289.065501
 31
0.0
  0
LINE
  5
660
330
1F
100
AcDbEntity
  8
002
 62
     3
370
    30
100
AcDbLine
 10
1338.957041
 20
289.065401
 30
0.0
 11
1338.408041
 21
288.114501
 31
0.0
  0
LINE
  5
661
330
1F
100
AcDbEntity
  8
002
 62
     3
370
    30
100
AcDbLine
 10
1338.408041
 20
288.114501
 30
0.0
 11
1338.408041
 21
287.114601
 31
0.0
  0
LINE
  5
662
330
1F
100
AcDbEntity
  8
002
 62
     3
370
    30
100
AcDbLine
 10
1338.408041
 20
287.114601
 30
0.0
 11
1337.408041
 21
287.114601
 31
0.0
  0
LINE
  5
663
330
1F
100
AcDbEntity
  8
002
 62
     3
370
    30
100
AcDbLine
 10
1337.408041
 20
287.114601
 30
0.0
 11
1337.408041
 21
288.114501
 31
0.0
  0
LINE
  5
664
330
1F
100
AcDbEntity
  8
002
 62
     3
370
    30
100
AcDbLine
 10
1337.408041
 20
288.114501
 30
0.0
 11
1336.859041
 21
289.065501
 31
0.0
  0
LINE
  5
665
330
1F
100
AcDbEntity
  8
002
 62
     3
370
    30
100
AcDbLine
 10
1336.859041
 20
289.065501
 30
0.0
 11
1335.908041
 21
289.614501
 31
0.0
  0
LINE
  5
666
330
1F
100
AcDbEntity
  8
002
 62
     3
370
    30
100
AcDbLine
 10
1335.908041
 20
289.614601
 30
0.0
 11
1334.908041
 21
289.614601
 31
0.0
  0
LINE
  5
667
330
1F
100
AcDbEntity
  8
002
 62
     3
370
    30
100
AcDbLine
 10
1358.425041
 20
278.114901
 30
0.0
 11
1359.002041
 21
279.114501
 31
0.0
  0
LINE
  5
668
330
1F
100
AcDbEntity
  8
002
 62
     3
370
    30
100
AcDbLine
 10
1237.90695
 20
430.114601
 30
0.0
 11
1437.90695
 21
430.114601
 31
0.0
  0
LINE
  5
669
330
1F
100
AcDbEntity
  8
002
  6
PHANTOM
 62
    40
370
     9
100
AcDbLine
 10
1350.407041
 20
373.565101
 30
0.0
 11
1371.248041
 21
352.642501
 31
0.0
  0
LINE
  5
66A
330
1F
100
AcDbEntity
  8
002
  6
PHANTOM
 62
    40
370
     9
100
AcDbLine
 10
1350.407041
 20
309.564801
 30
0.0
 11
1371.248041
 21
288.642201
 31
0.0
  0
LINE
  5
66B
330
1F
100
AcDbEntity
  8
002
  6
PHANTOM
 62
    40
370
     9
100
AcDbLine
 10
1325.408041
 20
334.664501
 30
0.0
 11
1304.568041
 21
355.587101
 31
0.0
  0
LINE
  5
66C
330
1F
100
AcDbEntity
  8
002
  6
PHANTOM
 62
    40
370
     9
100
AcDbLine
 10
1325.408041
 20
398.664801
 30
0.0
 11
1304.568041
 21
419.587401
 31
0.0
  0
LINE
  5
66D
330
1F
100
AcDbEntity
  8
002
 62
     3
370
    30
100
AcDbLine
 10
1237.906907
 20
465.114601
 30
0.0
 11
1437.906907
 21
465.114601
 31
0.0
  0
LINE
  5
66E
330
1F
100
AcDbEntity
  8
002
 62
     3
370
    30
100
AcDbLine
 10
1237.90695
 20
430.114289
 30
0.0
 11
1237.906907
 21
465.114601
 31
0.0
  0
LINE
  5
66F
330
1F
100
AcDbEntity
  8
002
 62
     3
370
    30
100
AcDbLine
 10
1437.90695
 20
430.114601
 30
0.0
 11
1437.906907
 21
465.114601
 31
0.0
  0
LINE
  5
670
330
1F
100
AcDbEntity
  8
002
  6
CENTER
 62
    40
370
     9
100
AcDbLine
 10
1415.406957
 20
425.114601
 30
0.0
 11
1415.4069
 21
470.114601
 31
0.0
  0
LINE
  5
671
330
1F
100
AcDbEntity
  8
002
  6
CENTER
 62
    40
370
     9
100
AcDbLine
 10
1260.406957
 20
425.114601
 30
0.0
 11
1260.4069
 21
470.114601
 31
0.0
  0
LINE
  5
672
330
1F
100
AcDbEntity
  8
002
 62
     3
370
    30
100
AcDbLine
 10
1414.906765
 20
758.489783
 30
0.0
 11
1406.906765
 21
758.489783
 31
0.0
  0
LINE
  5
673
330
1F
100
AcDbEntity
  8
002
 62
     3
370
    30
100
AcDbLine
 10
1406.906765
 20
765.489783
 30
0.0
 11
1414.906765
 21
765.489783
 31
0.0
  0
LINE
  5
674
330
1F
100
AcDbEntity
  8
002
 62
     3
370
    30
100
AcDbLine
 10
1414.906765
 20
765.489783
 30
0.0
 11
1414.906765
 21
758.489783
 31
0.0
  0
LINE
  5
675
330
1F
100
AcDbEntity
  8
002
 62
     3
370
    30
100
AcDbLine
 10
1406.906765
 20
765.489783
 30
0.0
 11
1406.906765
 21
758.489783
 31
0.0
  0
ARC
  5
676
330
1F
100
AcDbEntity
  8
002
 62
     3
370
    30
100
AcDbCircle
 10
1410.906765
 20
749.989783
 30
0.0
 40
12.5
100
AcDbArc
 50
108.662925
 51
71.337075
  0
ARC
  5
677
330
1F
100
AcDbEntity
  8
002
 62
     3
370
    30
100
AcDbCircle
 10
1410.906765
 20
749.989783
 30
0.0
 40
13.99995961279885
100
AcDbArc
 50
106.601599
 51
73.398401
  0
LINE
  5
678
330
1F
100
AcDbEntity
  8
002
 62
     3
370
    30
100
AcDbLine
 10
258.320368
 20
1824.871928
 30
0.0
 11
395.320368
 21
1824.871928
 31
0.0
  0
LINE
  5
679
330
1F
100
AcDbEntity
  8
002
 62
     3
370
    30
100
AcDbLine
 10
395.320368
 20
2034.871928
 30
0.0
 11
258.320368
 21
2034.871928
 31
0.0
  0
LINE
  5
67A
330
1F
100
AcDbEntity
  8
002
  6
CENTER
 62
    40
370
     9
100
AcDbLine
 10
369.320368
 20
2023.989494
 30
0.0
 11
369.320368
 21
2040.716395
 31
0.0
  0
LINE
  5
67B
330
1F
100
AcDbEntity
  8
002
  6
CENTER
 62
    40
370
     9
100
AcDbLine
 10
369.320368
 20
1835.754362
 30
0.0
 11
369.320368
 21
1819.027461
 31
0.0
  0
POLYLINE
  5
67C
330
1F
100
AcDbEntity
  8
002
 62
     3
370
     9
100
AcDb2dPolyline
 66
     1
 10
0.0
 20
0.0
 30
0.0
  0
VERTEX
  5
67E
330
67C
100
AcDbEntity
  8
002
 62
     3
370
     9
100
AcDbVertex
100
AcDb2dVertex
 10
306.321368
 20
426.871778
 30
0.0
  0
VERTEX
  5
67F
330
67C
100
AcDbEntity
  8
002
 62
     3
370
     9
100
AcDbVertex
100
AcDb2dVertex
 10
309.321368
 20
423.911778
 30
0.0
  0
VERTEX
  5
680
330
67C
100
AcDbEntity
  8
002
 62
     3
370
     9
100
AcDbVertex
100
AcDb2dVertex
 10
312.321368
 20
421.191778
 30
0.0
  0
VERTEX
  5
681
330
67C
100
AcDbEntity
  8
002
 62
     3
370
     9
100
AcDbVertex
100
AcDb2dVertex
 10
315.321368
 20
418.951778
 30
0.0
  0
VERTEX
  5
682
330
67C
100
AcDbEntity
  8
002
 62
     3
370
     9
100
AcDbVertex
100
AcDb2dVertex
 10
318.321368
 20
417.431778
 30
0.0
  0
VERTEX
  5
683
330
67C
100
AcDbEntity
  8
002
 62
     3
370
     9
100
AcDbVertex
100
AcDb2dVertex
 10
321.321368
 20
416.871778
 30
0.0
  0
VERTEX
  5
684
330
67C
100
AcDbEntity
  8
002
 62
     3
370
     9
100
AcDbVertex
100
AcDb2dVertex
 10
324.321368
 20
417.431778
 30
0.0
  0
VERTEX
  5
685
330
67C
100
AcDbEntity
  8
002
 62
     3
370
     9
100
AcDbVertex
100
AcDb2dVertex
 10
327.321368
 20
418.951778
 30
0.0
  0
VERTEX
  5
686
330
67C
100
AcDbEntity
  8
002
 62
     3
370
     9
100
AcDbVertex
100
AcDb2dVertex
 10
330.321368
 20
421.191778
 30
0.0
  0
VERTEX
  5
687
330
67C
100
AcDbEntity
  8
002
 62
     3
370
     9
100
AcDbVertex
100
AcDb2dVertex
 10
333.321368
 20
423.911778
 30
0.0
  0
VERTEX
  5
688
330
67C
100
AcDbEntity
  8
002
 62
     3
370
     9
100
AcDbVertex
100
AcDb2dVertex
 10
336.321368
 20
426.871778
 30
0.0
  0
VERTEX
  5
689
330
67C
100
AcDbEntity
  8
002
 62
     3
370
     9
100
AcDbVertex
100
AcDb2dVertex
 10
339.321368
 20
429.831778
 30
0.0
  0
VERTEX
  5
68A
330
67C
100
AcDbEntity
  8
002
 62
     3
370
     9
100
AcDbVertex
100
AcDb2dVertex
 10
342.321368
 20
432.551778
 30
0.0
  0
VERTEX
  5
68B
330
67C
100
AcDbEntity
  8
002
 62
     3
370
     9
100
AcDbVertex
100
AcDb2dVertex
 10
345.321368
 20
434.791778
 30
0.0
  0
VERTEX
  5
68C
330
67C
100
AcDbEntity
  8
002
 62
     3
370
     9
100
AcDbVertex
100
AcDb2dVertex
 10
348.321368
 20
436.311778
 30
0.0
  0
VERTEX
  5
68D
330
67C
100
AcDbEntity
  8
002
 62
     3
370
     9
100
AcDbVertex
100
AcDb2dVertex
 10
351.321368
 20
436.871778
 30
0.0
  0
VERTEX
  5
68E
330
67C
100
AcDbEntity
  8
002
 62
     3
370
     9
100
AcDbVertex
100
AcDb2dVertex
 10
354.321368
 20
436.311778
 30
0.0
  0
VERTEX
  5
68F
330
67C
100
AcDbEntity
  8
002
 62
     3
370
     9
100
AcDbVertex
100
AcDb2dVertex
 10
357.321368
 20
434.791778
 30
0.0
  0
VERTEX
  5
690
330
67C
100
AcDbEntity
  8
002
 62
     3
370
     9
100
AcDbVertex
100
AcDb2dVertex
 10
360.321368
 20
432.551778
 30
0.0
  0
VERTEX
  5
691
330
67C
100
AcDbEntity
  8
002
 62
     3
370
     9
100
AcDbVertex
100
AcDb2dVertex
 10
363.321368
 20
429.831778
 30
0.0
  0
VERTEX
  5
692
330
67C
100
AcDbEntity
  8
002
 62
     3
370
     9
100
AcDbVertex
100
AcDb2dVertex
 10
366.321368
 20
426.871778
 30
0.0
  0
SEQEND
  5
67D
330
67C
100
AcDbEntity
  8
002
370
     9
  0
POLYLINE
  5
693
330
1F
100
AcDbEntity
  8
002
 62
     3
370
     9
100
AcDb2dPolyline
 66
     1
 10
0.0
 20
0.0
 30
0.0
  0
VERTEX
  5
695
330
693
100
AcDbEntity
  8
002
 62
     3
370
     9
100
AcDbVertex
100
AcDb2dVertex
 10
306.321368
 20
446.871778
 30
0.0
  0
VERTEX
  5
696
330
693
100
AcDbEntity
  8
002
 62
     3
370
     9
100
AcDbVertex
100
AcDb2dVertex
 10
309.321368
 20
443.911778
 30
0.0
  0
VERTEX
  5
697
330
693
100
AcDbEntity
  8
002
 62
     3
370
     9
100
AcDbVertex
100
AcDb2dVertex
 10
312.321368
 20
441.191778
 30
0.0
  0
VERTEX
  5
698
330
693
100
AcDbEntity
  8
002
 62
     3
370
     9
100
AcDbVertex
100
AcDb2dVertex
 10
315.321368
 20
438.951778
 30
0.0
  0
VERTEX
  5
699
330
693
100
AcDbEntity
  8
002
 62
     3
370
     9
100
AcDbVertex
100
AcDb2dVertex
 10
318.321368
 20
437.431778
 30
0.0
  0
VERTEX
  5
69A
330
693
100
AcDbEntity
  8
002
 62
     3
370
     9
100
AcDbVertex
100
AcDb2dVertex
 10
321.321368
 20
436.871778
 30
0.0
  0
VERTEX
  5
69B
330
693
100
AcDbEntity
  8
002
 62
     3
370
     9
100
AcDbVertex
100
AcDb2dVertex
 10
324.321368
 20
437.431778
 30
0.0
  0
VERTEX
  5
69C
330
693
100
AcDbEntity
  8
002
 62
     3
370
     9
100
AcDbVertex
100
AcDb2dVertex
 10
327.321368
 20
438.951778
 30
0.0
  0
VERTEX
  5
69D
330
693
100
AcDbEntity
  8
002
 62
     3
370
     9
100
AcDbVertex
100
AcDb2dVertex
 10
330.321368
 20
441.191778
 30
0.0
  0
VERTEX
  5
69E
330
693
100
AcDbEntity
  8
002
 62
     3
370
     9
100
AcDbVertex
100
AcDb2dVertex
 10
333.321368
 20
443.911778
 30
0.0
  0
VERTEX
  5
69F
330
693
100
AcDbEntity
  8
002
 62
     3
370
     9
100
AcDbVertex
100
AcDb2dVertex
 10
336.321368
 20
446.871778
 30
0.0
  0
VERTEX
  5
6A0
330
693
100
AcDbEntity
  8
002
 62
     3
370
     9
100
AcDbVertex
100
AcDb2dVertex
 10
339.321368
 20
449.831778
 30
0.0
  0
VERTEX
  5
6A1
330
693
100
AcDbEntity
  8
002
 62
     3
370
     9
100
AcDbVertex
100
AcDb2dVertex
 10
342.321368
 20
452.551778
 30
0.0
  0
VERTEX
  5
6A2
330
693
100
AcDbEntity
  8
002
 62
     3
370
     9
100
AcDbVertex
100
AcDb2dVertex
 10
345.321368
 20
454.791778
 30
0.0
  0
VERTEX
  5
6A3
330
693
100
AcDbEntity
  8
002
 62
     3
370
     9
100
AcDbVertex
100
AcDb2dVertex
 10
348.321368
 20
456.311778
 30
0.0
  0
VERTEX
  5
6A4
330
693
100
AcDbEntity
  8
002
 62
     3
370
     9
100
AcDbVertex
100
AcDb2dVertex
 10
351.321368
 20
456.871778
 30
0.0
  0
VERTEX
  5
6A5
330
693
100
AcDbEntity
  8
002
 62
     3
370
     9
100
AcDbVertex
100
AcDb2dVertex
 10
354.321368
 20
456.311778
 30
0.0
  0
VERTEX
  5
6A6
330
693
100
AcDbEntity
  8
002
 62
     3
370
     9
100
AcDbVertex
100
AcDb2dVertex
 10
357.321368
 20
454.791778
 30
0.0
  0
VERTEX
  5
6A7
330
693
100
AcDbEntity
  8
002
 62
     3
370
     9
100
AcDbVertex
100
AcDb2dVertex
 10
360.321368
 20
452.551778
 30
0.0
  0
VERTEX
  5
6A8
330
693
100
AcDbEntity
  8
002
 62
     3
370
     9
100
AcDbVertex
100
AcDb2dVertex
 10
363.321368
 20
449.831778
 30
0.0
  0
VERTEX
  5
6A9
330
693
100
AcDbEntity
  8
002
 62
     3
370
     9
100
AcDbVertex
100
AcDb2dVertex
 10
366.321368
 20
446.871778
 30
0.0
  0
SEQEND
  5
694
330
693
100
AcDbEntity
  8
002
370
     9
  0
LINE
  5
6AA
330
1F
100
AcDbEntity
  8
002
 62
     3
370
    30
100
AcDbLine
 10
366.321368
 20
351.371928
 30
0.0
 11
366.321368
 21
426.871778
 31
0.0
  0
LINE
  5
6AB
330
1F
100
AcDbEntity
  8
002
 62
     3
370
    30
100
AcDbLine
 10
366.321368
 20
446.871778
 30
0.0
 11
366.321368
 21
522.371628
 31
0.0
  0
LINE
  5
6AC
330
1F
100
AcDbEntity
  8
002
 62
     3
370
    30
100
AcDbLine
 10
306.321368
 20
522.371628
 30
0.0
 11
306.321368
 21
446.871778
 31
0.0
  0
LINE
  5
6AD
330
1F
100
AcDbEntity
  8
002
 62
     3
370
    30
100
AcDbLine
 10
306.321368
 20
426.871778
 30
0.0
 11
306.321368
 21
351.371928
 31
0.0
  0
LINE
  5
6AE
330
1F
100
AcDbEntity
  8
002
 62
    40
370
     9
100
AcDbLine
 10
362.829368
 20
351.371928
 30
0.0
 11
362.829368
 21
430.300694
 31
0.0
  0
LINE
  5
6AF
330
1F
100
AcDbEntity
  8
002
 62
    40
370
     9
100
AcDbLine
 10
362.829368
 20
450.300694
 30
0.0
 11
362.829368
 21
522.371628
 31
0.0
  0
LINE
  5
6B0
330
1F
100
AcDbEntity
  8
002
 62
    40
370
     9
100
AcDbLine
 10
309.811368
 20
522.371628
 30
0.0
 11
309.811368
 21
443.444754
 31
0.0
  0
LINE
  5
6B1
330
1F
100
AcDbEntity
  8
002
 62
    40
370
     9
100
AcDbLine
 10
309.811368
 20
423.444754
 30
0.0
 11
309.811368
 21
351.371928
 31
0.0
  0
POLYLINE
  5
6B2
330
1F
100
AcDbEntity
  8
002
 62
     3
370
     9
100
AcDb2dPolyline
 66
     1
 10
0.0
 20
0.0
 30
0.0
  0
VERTEX
  5
6B4
330
6B2
100
AcDbEntity
  8
002
 62
     3
370
     9
100
AcDbVertex
100
AcDb2dVertex
 10
628.321068
 20
426.871778
 30
0.0
  0
VERTEX
  5
6B5
330
6B2
100
AcDbEntity
  8
002
 62
     3
370
     9
100
AcDbVertex
100
AcDb2dVertex
 10
631.321068
 20
423.911778
 30
0.0
  0
VERTEX
  5
6B6
330
6B2
100
AcDbEntity
  8
002
 62
     3
370
     9
100
AcDbVertex
100
AcDb2dVertex
 10
634.321068
 20
421.191778
 30
0.0
  0
VERTEX
  5
6B7
330
6B2
100
AcDbEntity
  8
002
 62
     3
370
     9
100
AcDbVertex
100
AcDb2dVertex
 10
637.321068
 20
418.951778
 30
0.0
  0
VERTEX
  5
6B8
330
6B2
100
AcDbEntity
  8
002
 62
     3
370
     9
100
AcDbVertex
100
AcDb2dVertex
 10
640.321068
 20
417.431778
 30
0.0
  0
VERTEX
  5
6B9
330
6B2
100
AcDbEntity
  8
002
 62
     3
370
     9
100
AcDbVertex
100
AcDb2dVertex
 10
643.321068
 20
416.871778
 30
0.0
  0
VERTEX
  5
6BA
330
6B2
100
AcDbEntity
  8
002
 62
     3
370
     9
100
AcDbVertex
100
AcDb2dVertex
 10
646.321068
 20
417.431778
 30
0.0
  0
VERTEX
  5
6BB
330
6B2
100
AcDbEntity
  8
002
 62
     3
370
     9
100
AcDbVertex
100
AcDb2dVertex
 10
649.321068
 20
418.951778
 30
0.0
  0
VERTEX
  5
6BC
330
6B2
100
AcDbEntity
  8
002
 62
     3
370
     9
100
AcDbVertex
100
AcDb2dVertex
 10
652.321068
 20
421.191778
 30
0.0
  0
VERTEX
  5
6BD
330
6B2
100
AcDbEntity
  8
002
 62
     3
370
     9
100
AcDbVertex
100
AcDb2dVertex
 10
655.321068
 20
423.911778
 30
0.0
  0
VERTEX
  5
6BE
330
6B2
100
AcDbEntity
  8
002
 62
     3
370
     9
100
AcDbVertex
100
AcDb2dVertex
 10
658.321068
 20
426.871778
 30
0.0
  0
VERTEX
  5
6BF
330
6B2
100
AcDbEntity
  8
002
 62
     3
370
     9
100
AcDbVertex
100
AcDb2dVertex
 10
661.321068
 20
429.831778
 30
0.0
  0
VERTEX
  5
6C0
330
6B2
100
AcDbEntity
  8
002
 62
     3
370
     9
100
AcDbVertex
100
AcDb2dVertex
 10
664.321068
 20
432.551778
 30
0.0
  0
VERTEX
  5
6C1
330
6B2
100
AcDbEntity
  8
002
 62
     3
370
     9
100
AcDbVertex
100
AcDb2dVertex
 10
667.321068
 20
434.791778
 30
0.0
  0
VERTEX
  5
6C2
330
6B2
100
AcDbEntity
  8
002
 62
     3
370
     9
100
AcDbVertex
100
AcDb2dVertex
 10
670.321068
 20
436.311778
 30
0.0
  0
VERTEX
  5
6C3
330
6B2
100
AcDbEntity
  8
002
 62
     3
370
     9
100
AcDbVertex
100
AcDb2dVertex
 10
673.321068
 20
436.871778
 30
0.0
  0
VERTEX
  5
6C4
330
6B2
100
AcDbEntity
  8
002
 62
     3
370
     9
100
AcDbVertex
100
AcDb2dVertex
 10
676.321068
 20
436.311778
 30
0.0
  0
VERTEX
  5
6C5
330
6B2
100
AcDbEntity
  8
002
 62
     3
370
     9
100
AcDbVertex
100
AcDb2dVertex
 10
679.321068
 20
434.791778
 30
0.0
  0
VERTEX
  5
6C6
330
6B2
100
AcDbEntity
  8
002
 62
     3
370
     9
100
AcDbVertex
100
AcDb2dVertex
 10
682.321068
 20
432.551778
 30
0.0
  0
VERTEX
  5
6C7
330
6B2
100
AcDbEntity
  8
002
 62
     3
370
     9
100
AcDbVertex
100
AcDb2dVertex
 10
685.321068
 20
429.831778
 30
0.0
  0
VERTEX
  5
6C8
330
6B2
100
AcDbEntity
  8
002
 62
     3
370
     9
100
AcDbVertex
100
AcDb2dVertex
 10
688.321068
 20
426.871778
 30
0.0
  0
SEQEND
  5
6B3
330
6B2
100
AcDbEntity
  8
002
370
     9
  0
POLYLINE
  5
6C9
330
1F
100
AcDbEntity
  8
002
 62
     3
370
     9
100
AcDb2dPolyline
 66
     1
 10
0.0
 20
0.0
 30
0.0
  0
VERTEX
  5
6CB
330
6C9
100
AcDbEntity
  8
002
 62
     3
370
     9
100
AcDbVertex
100
AcDb2dVertex
 10
628.321068
 20
446.871778
 30
0.0
  0
VERTEX
  5
6CC
330
6C9
100
AcDbEntity
  8
002
 62
     3
370
     9
100
AcDbVertex
100
AcDb2dVertex
 10
631.321068
 20
443.911778
 30
0.0
  0
VERTEX
  5
6CD
330
6C9
100
AcDbEntity
  8
002
 62
     3
370
     9
100
AcDbVertex
100
AcDb2dVertex
 10
634.321068
 20
441.191778
 30
0.0
  0
VERTEX
  5
6CE
330
6C9
100
AcDbEntity
  8
002
 62
     3
370
     9
100
AcDbVertex
100
AcDb2dVertex
 10
637.321068
 20
438.951778
 30
0.0
  0
VERTEX
  5
6CF
330
6C9
100
AcDbEntity
  8
002
 62
     3
370
     9
100
AcDbVertex
100
AcDb2dVertex
 10
640.321068
 20
437.431778
 30
0.0
  0
VERTEX
  5
6D0
330
6C9
100
AcDbEntity
  8
002
 62
     3
370
     9
100
AcDbVertex
100
AcDb2dVertex
 10
643.321068
 20
436.871778
 30
0.0
  0
VERTEX
  5
6D1
330
6C9
100
AcDbEntity
  8
002
 62
     3
370
     9
100
AcDbVertex
100
AcDb2dVertex
 10
646.321068
 20
437.431778
 30
0.0
  0
VERTEX
  5
6D2
330
6C9
100
AcDbEntity
  8
002
 62
     3
370
     9
100
AcDbVertex
100
AcDb2dVertex
 10
649.321068
 20
438.951778
 30
0.0
  0
VERTEX
  5
6D3
330
6C9
100
AcDbEntity
  8
002
 62
     3
370
     9
100
AcDbVertex
100
AcDb2dVertex
 10
652.321068
 20
441.191778
 30
0.0
  0
VERTEX
  5
6D4
330
6C9
100
AcDbEntity
  8
002
 62
     3
370
     9
100
AcDbVertex
100
AcDb2dVertex
 10
655.321068
 20
443.911778
 30
0.0
  0
VERTEX
  5
6D5
330
6C9
100
AcDbEntity
  8
002
 62
     3
370
     9
100
AcDbVertex
100
AcDb2dVertex
 10
658.321068
 20
446.871778
 30
0.0
  0
VERTEX
  5
6D6
330
6C9
100
AcDbEntity
  8
002
 62
     3
370
     9
100
AcDbVertex
100
AcDb2dVertex
 10
661.321068
 20
449.831778
 30
0.0
  0
VERTEX
  5
6D7
330
6C9
100
AcDbEntity
  8
002
 62
     3
370
     9
100
AcDbVertex
100
AcDb2dVertex
 10
664.321068
 20
452.551778
 30
0.0
  0
VERTEX
  5
6D8
330
6C9
100
AcDbEntity
  8
002
 62
     3
370
     9
100
AcDbVertex
100
AcDb2dVertex
 10
667.321068
 20
454.791778
 30
0.0
  0
VERTEX
  5
6D9
330
6C9
100
AcDbEntity
  8
002
 62
     3
370
     9
100
AcDbVertex
100
AcDb2dVertex
 10
670.321068
 20
456.311778
 30
0.0
  0
VERTEX
  5
6DA
330
6C9
100
AcDbEntity
  8
002
 62
     3
370
     9
100
AcDbVertex
100
AcDb2dVertex
 10
673.321068
 20
456.871778
 30
0.0
  0
VERTEX
  5
6DB
330
6C9
100
AcDbEntity
  8
002
 62
     3
370
     9
100
AcDbVertex
100
AcDb2dVertex
 10
676.321068
 20
456.311778
 30
0.0
  0
VERTEX
  5
6DC
330
6C9
100
AcDbEntity
  8
002
 62
     3
370
     9
100
AcDbVertex
100
AcDb2dVertex
 10
679.321068
 20
454.791778
 30
0.0
  0
VERTEX
  5
6DD
330
6C9
100
AcDbEntity
  8
002
 62
     3
370
     9
100
AcDbVertex
100
AcDb2dVertex
 10
682.321068
 20
452.551778
 30
0.0
  0
VERTEX
  5
6DE
330
6C9
100
AcDbEntity
  8
002
 62
     3
370
     9
100
AcDbVertex
100
AcDb2dVertex
 10
685.321068
 20
449.831778
 30
0.0
  0
VERTEX
  5
6DF
330
6C9
100
AcDbEntity
  8
002
 62
     3
370
     9
100
AcDbVertex
100
AcDb2dVertex
 10
688.321068
 20
446.871778
 30
0.0
  0
SEQEND
  5
6CA
330
6C9
100
AcDbEntity
  8
002
370
     9
  0
LINE
  5
6E0
330
1F
100
AcDbEntity
  8
002
 62
     3
370
    30
100
AcDbLine
 10
688.321068
 20
351.371928
 30
0.0
 11
688.321068
 21
426.871778
 31
0.0
  0
LINE
  5
6E1
330
1F
100
AcDbEntity
  8
002
 62
     3
370
    30
100
AcDbLine
 10
688.321068
 20
446.871778
 30
0.0
 11
688.321068
 21
522.371628
 31
0.0
  0
LINE
  5
6E2
330
1F
100
AcDbEntity
  8
002
 62
     3
370
    30
100
AcDbLine
 10
628.321068
 20
522.371628
 30
0.0
 11
628.321068
 21
446.871778
 31
0.0
  0
LINE
  5
6E3
330
1F
100
AcDbEntity
  8
002
 62
     3
370
    30
100
AcDbLine
 10
628.321068
 20
426.871778
 30
0.0
 11
628.321068
 21
351.371928
 31
0.0
  0
LINE
  5
6E4
330
1F
100
AcDbEntity
  8
002
 62
    40
370
     9
100
AcDbLine
 10
684.829068
 20
351.371928
 30
0.0
 11
684.829068
 21
430.300694
 31
0.0
  0
LINE
  5
6E5
330
1F
100
AcDbEntity
  8
002
 62
    40
370
     9
100
AcDbLine
 10
684.829068
 20
450.300694
 30
0.0
 11
684.829068
 21
522.371628
 31
0.0
  0
LINE
  5
6E6
330
1F
100
AcDbEntity
  8
002
 62
    40
370
     9
100
AcDbLine
 10
631.811068
 20
522.371628
 30
0.0
 11
631.811068
 21
443.444754
 31
0.0
  0
LINE
  5
6E7
330
1F
100
AcDbEntity
  8
002
 62
    40
370
     9
100
AcDbLine
 10
631.811068
 20
423.444754
 30
0.0
 11
631.811068
 21
351.371928
 31
0.0
  0
POLYLINE
  5
6E8
330
1F
100
AcDbEntity
  8
002
 62
     3
370
     9
100
AcDb2dPolyline
 66
     1
 10
0.0
 20
0.0
 30
0.0
  0
VERTEX
  5
6EA
330
6E8
100
AcDbEntity
  8
002
 62
     3
370
     9
100
AcDbVertex
100
AcDb2dVertex
 10
965.90725
 20
546.051171
 30
0.0
  0
VERTEX
  5
6EB
330
6E8
100
AcDbEntity
  8
002
 62
     3
370
     9
100
AcDbVertex
100
AcDb2dVertex
 10
968.90725
 20
543.091171
 30
0.0
  0
VERTEX
  5
6EC
330
6E8
100
AcDbEntity
  8
002
 62
     3
370
     9
100
AcDbVertex
100
AcDb2dVertex
 10
971.90725
 20
540.371171
 30
0.0
  0
VERTEX
  5
6ED
330
6E8
100
AcDbEntity
  8
002
 62
     3
370
     9
100
AcDbVertex
100
AcDb2dVertex
 10
974.90725
 20
538.131171
 30
0.0
  0
VERTEX
  5
6EE
330
6E8
100
AcDbEntity
  8
002
 62
     3
370
     9
100
AcDbVertex
100
AcDb2dVertex
 10
977.90725
 20
536.611171
 30
0.0
  0
VERTEX
  5
6EF
330
6E8
100
AcDbEntity
  8
002
 62
     3
370
     9
100
AcDbVertex
100
AcDb2dVertex
 10
980.90725
 20
536.051171
 30
0.0
  0
VERTEX
  5
6F0
330
6E8
100
AcDbEntity
  8
002
 62
     3
370
     9
100
AcDbVertex
100
AcDb2dVertex
 10
983.90725
 20
536.611171
 30
0.0
  0
VERTEX
  5
6F1
330
6E8
100
AcDbEntity
  8
002
 62
     3
370
     9
100
AcDbVertex
100
AcDb2dVertex
 10
986.90725
 20
538.131171
 30
0.0
  0
VERTEX
  5
6F2
330
6E8
100
AcDbEntity
  8
002
 62
     3
370
     9
100
AcDbVertex
100
AcDb2dVertex
 10
989.90725
 20
540.371171
 30
0.0
  0
VERTEX
  5
6F3
330
6E8
100
AcDbEntity
  8
002
 62
     3
370
     9
100
AcDbVertex
100
AcDb2dVertex
 10
992.90725
 20
543.091171
 30
0.0
  0
VERTEX
  5
6F4
330
6E8
100
AcDbEntity
  8
002
 62
     3
370
     9
100
AcDbVertex
100
AcDb2dVertex
 10
995.90725
 20
546.051171
 30
0.0
  0
VERTEX
  5
6F5
330
6E8
100
AcDbEntity
  8
002
 62
     3
370
     9
100
AcDbVertex
100
AcDb2dVertex
 10
998.90725
 20
549.011171
 30
0.0
  0
VERTEX
  5
6F6
330
6E8
100
AcDbEntity
  8
002
 62
     3
370
     9
100
AcDbVertex
100
AcDb2dVertex
 10
1001.90725
 20
551.731171
 30
0.0
  0
VERTEX
  5
6F7
330
6E8
100
AcDbEntity
  8
002
 62
     3
370
     9
100
AcDbVertex
100
AcDb2dVertex
 10
1004.90725
 20
553.971171
 30
0.0
  0
VERTEX
  5
6F8
330
6E8
100
AcDbEntity
  8
002
 62
     3
370
     9
100
AcDbVertex
100
AcDb2dVertex
 10
1007.90725
 20
555.491171
 30
0.0
  0
VERTEX
  5
6F9
330
6E8
100
AcDbEntity
  8
002
 62
     3
370
     9
100
AcDbVertex
100
AcDb2dVertex
 10
1010.90725
 20
556.051171
 30
0.0
  0
VERTEX
  5
6FA
330
6E8
100
AcDbEntity
  8
002
 62
     3
370
     9
100
AcDbVertex
100
AcDb2dVertex
 10
1013.90725
 20
555.491171
 30
0.0
  0
VERTEX
  5
6FB
330
6E8
100
AcDbEntity
  8
002
 62
     3
370
     9
100
AcDbVertex
100
AcDb2dVertex
 10
1016.90725
 20
553.971171
 30
0.0
  0
VERTEX
  5
6FC
330
6E8
100
AcDbEntity
  8
002
 62
     3
370
     9
100
AcDbVertex
100
AcDb2dVertex
 10
1019.90725
 20
551.731171
 30
0.0
  0
VERTEX
  5
6FD
330
6E8
100
AcDbEntity
  8
002
 62
     3
370
     9
100
AcDbVertex
100
AcDb2dVertex
 10
1022.90725
 20
549.011171
 30
0.0
  0
VERTEX
  5
6FE
330
6E8
100
AcDbEntity
  8
002
 62
     3
370
     9
100
AcDbVertex
100
AcDb2dVertex
 10
1025.90725
 20
546.051171
 30
0.0
  0
SEQEND
  5
6E9
330
6E8
100
AcDbEntity
  8
002
370
     9
  0
POLYLINE
  5
6FF
330
1F
100
AcDbEntity
  8
002
 62
     3
370
     9
100
AcDb2dPolyline
 66
     1
 10
0.0
 20
0.0
 30
0.0
  0
VERTEX
  5
701
330
6FF
100
AcDbEntity
  8
002
 62
     3
370
     9
100
AcDbVertex
100
AcDb2dVertex
 10
965.90725
 20
566.051171
 30
0.0
  0
VERTEX
  5
702
330
6FF
100
AcDbEntity
  8
002
 62
     3
370
     9
100
AcDbVertex
100
AcDb2dVertex
 10
968.90725
 20
563.091171
 30
0.0
  0
VERTEX
  5
703
330
6FF
100
AcDbEntity
  8
002
 62
     3
370
     9
100
AcDbVertex
100
AcDb2dVertex
 10
971.90725
 20
560.371171
 30
0.0
  0
VERTEX
  5
704
330
6FF
100
AcDbEntity
  8
002
 62
     3
370
     9
100
AcDbVertex
100
AcDb2dVertex
 10
974.90725
 20
558.131171
 30
0.0
  0
VERTEX
  5
705
330
6FF
100
AcDbEntity
  8
002
 62
     3
370
     9
100
AcDbVertex
100
AcDb2dVertex
 10
977.90725
 20
556.611171
 30
0.0
  0
VERTEX
  5
706
330
6FF
100
AcDbEntity
  8
002
 62
     3
370
     9
100
AcDbVertex
100
AcDb2dVertex
 10
980.90725
 20
556.051171
 30
0.0
  0
VERTEX
  5
707
330
6FF
100
AcDbEntity
  8
002
 62
     3
370
     9
100
AcDbVertex
100
AcDb2dVertex
 10
983.90725
 20
556.611171
 30
0.0
  0
VERTEX
  5
708
330
6FF
100
AcDbEntity
  8
002
 62
     3
370
     9
100
AcDbVertex
100
AcDb2dVertex
 10
986.90725
 20
558.131171
 30
0.0
  0
VERTEX
  5
709
330
6FF
100
AcDbEntity
  8
002
 62
     3
370
     9
100
AcDbVertex
100
AcDb2dVertex
 10
989.90725
 20
560.371171
 30
0.0
  0
VERTEX
  5
70A
330
6FF
100
AcDbEntity
  8
002
 62
     3
370
     9
100
AcDbVertex
100
AcDb2dVertex
 10
992.90725
 20
563.091171
 30
0.0
  0
VERTEX
  5
70B
330
6FF
100
AcDbEntity
  8
002
 62
     3
370
     9
100
AcDbVertex
100
AcDb2dVertex
 10
995.90725
 20
566.051171
 30
0.0
  0
VERTEX
  5
70C
330
6FF
100
AcDbEntity
  8
002
 62
     3
370
     9
100
AcDbVertex
100
AcDb2dVertex
 10
998.90725
 20
569.011171
 30
0.0
  0
VERTEX
  5
70D
330
6FF
100
AcDbEntity
  8
002
 62
     3
370
     9
100
AcDbVertex
100
AcDb2dVertex
 10
1001.90725
 20
571.731171
 30
0.0
  0
VERTEX
  5
70E
330
6FF
100
AcDbEntity
  8
002
 62
     3
370
     9
100
AcDbVertex
100
AcDb2dVertex
 10
1004.90725
 20
573.971171
 30
0.0
  0
VERTEX
  5
70F
330
6FF
100
AcDbEntity
  8
002
 62
     3
370
     9
100
AcDbVertex
100
AcDb2dVertex
 10
1007.90725
 20
575.491171
 30
0.0
  0
VERTEX
  5
710
330
6FF
100
AcDbEntity
  8
002
 62
     3
370
     9
100
AcDbVertex
100
AcDb2dVertex
 10
1010.90725
 20
576.051171
 30
0.0
  0
VERTEX
  5
711
330
6FF
100
AcDbEntity
  8
002
 62
     3
370
     9
100
AcDbVertex
100
AcDb2dVertex
 10
1013.90725
 20
575.491171
 30
0.0
  0
VERTEX
  5
712
330
6FF
100
AcDbEntity
  8
002
 62
     3
370
     9
100
AcDbVertex
100
AcDb2dVertex
 10
1016.90725
 20
573.971171
 30
0.0
  0
VERTEX
  5
713
330
6FF
100
AcDbEntity
  8
002
 62
     3
370
     9
100
AcDbVertex
100
AcDb2dVertex
 10
1019.90725
 20
571.731171
 30
0.0
  0
VERTEX
  5
714
330
6FF
100
AcDbEntity
  8
002
 62
     3
370
     9
100
AcDbVertex
100
AcDb2dVertex
 10
1022.90725
 20
569.011171
 30
0.0
  0
VERTEX
  5
715
330
6FF
100
AcDbEntity
  8
002
 62
     3
370
     9
100
AcDbVertex
100
AcDb2dVertex
 10
1025.90725
 20
566.051171
 30
0.0
  0
SEQEND
  5
700
330
6FF
100
AcDbEntity
  8
002
370
     9
  0
LINE
  5
716
330
1F
100
AcDbEntity
  8
002
 62
     3
370
    30
100
AcDbLine
 10
1025.907023
 20
646.988971
 30
0.0
 11
1025.907225
 21
566.051196
 31
0.0
  0
LINE
  5
717
330
1F
100
AcDbEntity
  8
002
 62
     3
370
    30
100
AcDbLine
 10
1025.907275
 20
546.051146
 30
0.0
 11
1025.907477
 21
465.113671
 31
0.0
  0
LINE
  5
718
330
1F
100
AcDbEntity
  8
002
 62
     3
370
    30
100
AcDbLine
 10
965.907477
 20
465.113521
 30
0.0
 11
965.907275
 21
546.051171
 31
0.0
  0
LINE
  5
719
330
1F
100
AcDbEntity
  8
002
 62
     3
370
    30
100
AcDbLine
 10
965.907225
 20
566.051196
 30
0.0
 11
965.907023
 21
646.988821
 31
0.0
  0
LINE
  5
71A
330
1F
100
AcDbEntity
  8
002
 62
    40
370
     9
100
AcDbLine
 10
1022.416477
 20
465.113662
 30
0.0
 11
1022.416266
 21
549.479126
 31
0.0
  0
LINE
  5
71B
330
1F
100
AcDbEntity
  8
002
 62
    40
370
     9
100
AcDbLine
 10
1022.416216
 20
569.479173
 30
0.0
 11
1022.416023
 21
646.988962
 31
0.0
  0
LINE
  5
71C
330
1F
100
AcDbEntity
  8
002
 62
    40
370
     9
100
AcDbLine
 10
969.398023
 20
646.98883
 30
0.0
 11
969.398233
 21
562.623216
 31
0.0
  0
LINE
  5
71D
330
1F
100
AcDbEntity
  8
002
 62
    40
370
     9
100
AcDbLine
 10
969.398283
 20
542.623169
 30
0.0
 11
969.398477
 21
465.11353
 31
0.0
  0
POLYLINE
  5
71E
330
1F
100
AcDbEntity
  8
002
 62
     3
370
     9
100
AcDb2dPolyline
 66
     1
 10
0.0
 20
0.0
 30
0.0
  0
VERTEX
  5
720
330
71E
100
AcDbEntity
  8
002
 62
     3
370
     9
100
AcDbVertex
100
AcDb2dVertex
 10
1307.90725
 20
546.051876
 30
0.0
  0
VERTEX
  5
721
330
71E
100
AcDbEntity
  8
002
 62
     3
370
     9
100
AcDbVertex
100
AcDb2dVertex
 10
1310.90725
 20
543.091876
 30
0.0
  0
VERTEX
  5
722
330
71E
100
AcDbEntity
  8
002
 62
     3
370
     9
100
AcDbVertex
100
AcDb2dVertex
 10
1313.90725
 20
540.371876
 30
0.0
  0
VERTEX
  5
723
330
71E
100
AcDbEntity
  8
002
 62
     3
370
     9
100
AcDbVertex
100
AcDb2dVertex
 10
1316.90725
 20
538.131876
 30
0.0
  0
VERTEX
  5
724
330
71E
100
AcDbEntity
  8
002
 62
     3
370
     9
100
AcDbVertex
100
AcDb2dVertex
 10
1319.90725
 20
536.611876
 30
0.0
  0
VERTEX
  5
725
330
71E
100
AcDbEntity
  8
002
 62
     3
370
     9
100
AcDbVertex
100
AcDb2dVertex
 10
1322.90725
 20
536.051876
 30
0.0
  0
VERTEX
  5
726
330
71E
100
AcDbEntity
  8
002
 62
     3
370
     9
100
AcDbVertex
100
AcDb2dVertex
 10
1325.90725
 20
536.611876
 30
0.0
  0
VERTEX
  5
727
330
71E
100
AcDbEntity
  8
002
 62
     3
370
     9
100
AcDbVertex
100
AcDb2dVertex
 10
1328.90725
 20
538.131876
 30
0.0
  0
VERTEX
  5
728
330
71E
100
AcDbEntity
  8
002
 62
     3
370
     9
100
AcDbVertex
100
AcDb2dVertex
 10
1331.90725
 20
540.371876
 30
0.0
  0
VERTEX
  5
729
330
71E
100
AcDbEntity
  8
002
 62
     3
370
     9
100
AcDbVertex
100
AcDb2dVertex
 10
1334.90725
 20
543.091876
 30
0.0
  0
VERTEX
  5
72A
330
71E
100
AcDbEntity
  8
002
 62
     3
370
     9
100
AcDbVertex
100
AcDb2dVertex
 10
1337.90725
 20
546.051876
 30
0.0
  0
VERTEX
  5
72B
330
71E
100
AcDbEntity
  8
002
 62
     3
370
     9
100
AcDbVertex
100
AcDb2dVertex
 10
1340.90725
 20
549.011876
 30
0.0
  0
VERTEX
  5
72C
330
71E
100
AcDbEntity
  8
002
 62
     3
370
     9
100
AcDbVertex
100
AcDb2dVertex
 10
1343.90725
 20
551.731876
 30
0.0
  0
VERTEX
  5
72D
330
71E
100
AcDbEntity
  8
002
 62
     3
370
     9
100
AcDbVertex
100
AcDb2dVertex
 10
1346.90725
 20
553.971876
 30
0.0
  0
VERTEX
  5
72E
330
71E
100
AcDbEntity
  8
002
 62
     3
370
     9
100
AcDbVertex
100
AcDb2dVertex
 10
1349.90725
 20
555.491876
 30
0.0
  0
VERTEX
  5
72F
330
71E
100
AcDbEntity
  8
002
 62
     3
370
     9
100
AcDbVertex
100
AcDb2dVertex
 10
1352.90725
 20
556.051876
 30
0.0
  0
VERTEX
  5
730
330
71E
100
AcDbEntity
  8
002
 62
     3
370
     9
100
AcDbVertex
100
AcDb2dVertex
 10
1355.90725
 20
555.491876
 30
0.0
  0
VERTEX
  5
731
330
71E
100
AcDbEntity
  8
002
 62
     3
370
     9
100
AcDbVertex
100
AcDb2dVertex
 10
1358.90725
 20
553.971876
 30
0.0
  0
VERTEX
  5
732
330
71E
100
AcDbEntity
  8
002
 62
     3
370
     9
100
AcDbVertex
100
AcDb2dVertex
 10
1361.90725
 20
551.731876
 30
0.0
  0
VERTEX
  5
733
330
71E
100
AcDbEntity
  8
002
 62
     3
370
     9
100
AcDbVertex
100
AcDb2dVertex
 10
1364.90725
 20
549.011876
 30
0.0
  0
VERTEX
  5
734
330
71E
100
AcDbEntity
  8
002
 62
     3
370
     9
100
AcDbVertex
100
AcDb2dVertex
 10
1367.90725
 20
546.051876
 30
0.0
  0
SEQEND
  5
71F
330
71E
100
AcDbEntity
  8
002
370
     9
  0
POLYLINE
  5
735
330
1F
100
AcDbEntity
  8
002
 62
     3
370
     9
100
AcDb2dPolyline
 66
     1
 10
0.0
 20
0.0
 30
0.0
  0
VERTEX
  5
737
330
735
100
AcDbEntity
  8
002
 62
     3
370
     9
100
AcDbVertex
100
AcDb2dVertex
 10
1307.90725
 20
566.051876
 30
0.0
  0
VERTEX
  5
738
330
735
100
AcDbEntity
  8
002
 62
     3
370
     9
100
AcDbVertex
100
AcDb2dVertex
 10
1310.90725
 20
563.091876
 30
0.0
  0
VERTEX
  5
739
330
735
100
AcDbEntity
  8
002
 62
     3
370
     9
100
AcDbVertex
100
AcDb2dVertex
 10
1313.90725
 20
560.371876
 30
0.0
  0
VERTEX
  5
73A
330
735
100
AcDbEntity
  8
002
 62
     3
370
     9
100
AcDbVertex
100
AcDb2dVertex
 10
1316.90725
 20
558.131876
 30
0.0
  0
VERTEX
  5
73B
330
735
100
AcDbEntity
  8
002
 62
     3
370
     9
100
AcDbVertex
100
AcDb2dVertex
 10
1319.90725
 20
556.611876
 30
0.0
  0
VERTEX
  5
73C
330
735
100
AcDbEntity
  8
002
 62
     3
370
     9
100
AcDbVertex
100
AcDb2dVertex
 10
1322.90725
 20
556.051876
 30
0.0
  0
VERTEX
  5
73D
330
735
100
AcDbEntity
  8
002
 62
     3
370
     9
100
AcDbVertex
100
AcDb2dVertex
 10
1325.90725
 20
556.611876
 30
0.0
  0
VERTEX
  5
73E
330
735
100
AcDbEntity
  8
002
 62
     3
370
     9
100
AcDbVertex
100
AcDb2dVertex
 10
1328.90725
 20
558.131876
 30
0.0
  0
VERTEX
  5
73F
330
735
100
AcDbEntity
  8
002
 62
     3
370
     9
100
AcDbVertex
100
AcDb2dVertex
 10
1331.90725
 20
560.371876
 30
0.0
  0
VERTEX
  5
740
330
735
100
AcDbEntity
  8
002
 62
     3
370
     9
100
AcDbVertex
100
AcDb2dVertex
 10
1334.90725
 20
563.091876
 30
0.0
  0
VERTEX
  5
741
330
735
100
AcDbEntity
  8
002
 62
     3
370
     9
100
AcDbVertex
100
AcDb2dVertex
 10
1337.90725
 20
566.051876
 30
0.0
  0
VERTEX
  5
742
330
735
100
AcDbEntity
  8
002
 62
     3
370
     9
100
AcDbVertex
100
AcDb2dVertex
 10
1340.90725
 20
569.011876
 30
0.0
  0
VERTEX
  5
743
330
735
100
AcDbEntity
  8
002
 62
     3
370
     9
100
AcDbVertex
100
AcDb2dVertex
 10
1343.90725
 20
571.731876
 30
0.0
  0
VERTEX
  5
744
330
735
100
AcDbEntity
  8
002
 62
     3
370
     9
100
AcDbVertex
100
AcDb2dVertex
 10
1346.90725
 20
573.971876
 30
0.0
  0
VERTEX
  5
745
330
735
100
AcDbEntity
  8
002
 62
     3
370
     9
100
AcDbVertex
100
AcDb2dVertex
 10
1349.90725
 20
575.491876
 30
0.0
  0
VERTEX
  5
746
330
735
100
AcDbEntity
  8
002
 62
     3
370
     9
100
AcDbVertex
100
AcDb2dVertex
 10
1352.90725
 20
576.051876
 30
0.0
  0
VERTEX
  5
747
330
735
100
AcDbEntity
  8
002
 62
     3
370
     9
100
AcDbVertex
100
AcDb2dVertex
 10
1355.90725
 20
575.491876
 30
0.0
  0
VERTEX
  5
748
330
735
100
AcDbEntity
  8
002
 62
     3
370
     9
100
AcDbVertex
100
AcDb2dVertex
 10
1358.90725
 20
573.971876
 30
0.0
  0
VERTEX
  5
749
330
735
100
AcDbEntity
  8
002
 62
     3
370
     9
100
AcDbVertex
100
AcDb2dVertex
 10
1361.90725
 20
571.731876
 30
0.0
  0
VERTEX
  5
74A
330
735
100
AcDbEntity
  8
002
 62
     3
370
     9
100
AcDbVertex
100
AcDb2dVertex
 10
1364.90725
 20
569.011876
 30
0.0
  0
VERTEX
  5
74B
330
735
100
AcDbEntity
  8
002
 62
     3
370
     9
100
AcDbVertex
100
AcDb2dVertex
 10
1367.90725
 20
566.051876
 30
0.0
  0
SEQEND
  5
736
330
735
100
AcDbEntity
  8
002
370
     9
  0
LINE
  5
74C
330
1F
100
AcDbEntity
  8
002
 62
     3
370
    30
100
AcDbLine
 10
1367.907023
 20
646.989676
 30
0.0
 11
1367.907225
 21
566.051901
 31
0.0
  0
LINE
  5
74D
330
1F
100
AcDbEntity
  8
002
 62
     3
370
    30
100
AcDbLine
 10
1367.907275
 20
546.051851
 30
0.0
 11
1367.907477
 21
465.114376
 31
0.0
  0
LINE
  5
74E
330
1F
100
AcDbEntity
  8
002
 62
     3
370
    30
100
AcDbLine
 10
1307.907477
 20
465.114226
 30
0.0
 11
1307.907275
 21
546.051876
 31
0.0
  0
LINE
  5
74F
330
1F
100
AcDbEntity
  8
002
 62
     3
370
    30
100
AcDbLine
 10
1307.907225
 20
566.051901
 30
0.0
 11
1307.907023
 21
646.989526
 31
0.0
  0
LINE
  5
750
330
1F
100
AcDbEntity
  8
002
 62
    40
370
     9
100
AcDbLine
 10
1364.416477
 20
465.114367
 30
0.0
 11
1364.416266
 21
549.479831
 31
0.0
  0
LINE
  5
751
330
1F
100
AcDbEntity
  8
002
 62
    40
370
     9
100
AcDbLine
 10
1364.416216
 20
569.479878
 30
0.0
 11
1364.416023
 21
646.989667
 31
0.0
  0
LINE
  5
752
330
1F
100
AcDbEntity
  8
002
 62
    40
370
     9
100
AcDbLine
 10
1311.398023
 20
646.989535
 30
0.0
 11
1311.398233
 21
562.623921
 31
0.0
  0
LINE
  5
753
330
1F
100
AcDbEntity
  8
002
 62
    40
370
     9
100
AcDbLine
 10
1311.398283
 20
542.623874
 30
0.0
 11
1311.398477
 21
465.114235
 31
0.0
  0
LINE
  5
754
330
1F
100
AcDbEntity
  8
002
  6
CENTER
 62
    40
370
     9
100
AcDbLine
 10
1337.906345
 20
914.410081
 30
0.0
 11
1337.907423
 21
51.866049
 31
0.0
  0
LINE
  5
755
330
1F
100
AcDbEntity
  8
002
  6
CENTER
 62
    40
370
     9
100
AcDbLine
 10
995.906345
 20
914.409376
 30
0.0
 11
995.907423
 21
51.865344
 31
0.0
  0
LINE
  5
756
330
1F
100
AcDbEntity
  8
002
  6
CENTER
 62
    40
370
     9
100
AcDbLine
 10
658.320068
 20
83.562928
 30
0.0
 11
658.320068
 21
948.371928
 31
0.0
  0
LINE
  5
757
330
1F
100
AcDbEntity
  8
002
  6
CENTER
 62
    40
370
     9
100
AcDbLine
 10
336.320368
 20
83.562928
 30
0.0
 11
336.320368
 21
948.371928
 31
0.0
  0
LINE
  5
758
330
1F
100
AcDbEntity
  8
002
  6
CENTER
 62
    40
370
     9
100
AcDbLine
 10
443.099368
 20
214.592228
 30
0.0
 11
432.046368
 21
225.645928
 31
0.0
  0
LINE
  5
759
330
1F
100
AcDbEntity
  8
002
  6
CENTER
 62
    40
370
     9
100
AcDbLine
 10
386.594368
 20
225.645928
 30
0.0
 11
375.540368
 21
214.592228
 31
0.0
  0
CIRCLE
  5
75A
330
1F
100
AcDbEntity
  8
002
  6
CENTER
 62
    40
370
     9
100
AcDbCircle
 10
409.320368
 20
248.371928
 30
0.0
 40
40.0
  0
LINE
  5
75B
330
1F
100
AcDbEntity
  8
002
  6
CENTER
 62
    40
370
     9
100
AcDbLine
 10
386.594368
 20
271.097928
 30
0.0
 11
375.540368
 21
282.151628
 31
0.0
  0
LINE
  5
75C
330
1F
100
AcDbEntity
  8
002
  6
CENTER
 62
    40
370
     9
100
AcDbLine
 10
443.099368
 20
282.151628
 30
0.0
 11
432.046368
 21
271.097928
 31
0.0
  0
LINE
  5
75D
330
1F
100
AcDbEntity
  8
002
  6
CENTER
 62
    40
370
     9
100
AcDbLine
 10
765.099068
 20
214.592228
 30
0.0
 11
754.046068
 21
225.645928
 31
0.0
  0
LINE
  5
75E
330
1F
100
AcDbEntity
  8
002
  6
CENTER
 62
    40
370
     9
100
AcDbLine
 10
708.594068
 20
225.645928
 30
0.0
 11
697.540068
 21
214.592228
 31
0.0
  0
CIRCLE
  5
75F
330
1F
100
AcDbEntity
  8
002
  6
CENTER
 62
    40
370
     9
100
AcDbCircle
 10
731.320068
 20
248.371928
 30
0.0
 40
40.0
  0
LINE
  5
760
330
1F
100
AcDbEntity
  8
002
  6
CENTER
 62
    40
370
     9
100
AcDbLine
 10
708.594068
 20
271.097928
 30
0.0
 11
697.540068
 21
282.151628
 31
0.0
  0
LINE
  5
761
330
1F
100
AcDbEntity
  8
002
  6
CENTER
 62
    40
370
     9
100
AcDbLine
 10
765.099068
 20
282.151628
 30
0.0
 11
754.046068
 21
271.097928
 31
0.0
  0
LINE
  5
762
330
1F
100
AcDbEntity
  8
002
  6
CENTER
 62
    40
370
     9
100
AcDbLine
 10
1102.685765
 20
716.209379
 30
0.0
 11
1091.632765
 21
727.263079
 31
0.0
  0
LINE
  5
763
330
1F
100
AcDbEntity
  8
002
  6
CENTER
 62
    40
370
     9
100
AcDbLine
 10
1046.180765
 20
727.263079
 30
0.0
 11
1035.126765
 21
716.209379
 31
0.0
  0
CIRCLE
  5
764
330
1F
100
AcDbEntity
  8
002
  6
CENTER
 62
    40
370
     9
100
AcDbCircle
 10
1068.906765
 20
749.989079
 30
0.0
 40
40.0
  0
LINE
  5
765
330
1F
100
AcDbEntity
  8
002
  6
CENTER
 62
    40
370
     9
100
AcDbLine
 10
1046.180765
 20
772.715079
 30
0.0
 11
1035.126765
 21
783.768779
 31
0.0
  0
LINE
  5
766
330
1F
100
AcDbEntity
  8
002
  6
CENTER
 62
    40
370
     9
100
AcDbLine
 10
1102.685765
 20
783.768779
 30
0.0
 11
1091.632765
 21
772.715079
 31
0.0
  0
LINE
  5
767
330
1F
100
AcDbEntity
  8
002
  6
CENTER
 62
    40
370
     9
100
AcDbLine
 10
1444.685765
 20
716.210083
 30
0.0
 11
1433.632765
 21
727.263783
 31
0.0
  0
LINE
  5
768
330
1F
100
AcDbEntity
  8
002
  6
CENTER
 62
    40
370
     9
100
AcDbLine
 10
1388.180765
 20
727.263783
 30
0.0
 11
1377.126765
 21
716.210083
 31
0.0
  0
CIRCLE
  5
769
330
1F
100
AcDbEntity
  8
002
  6
CENTER
 62
    40
370
     9
100
AcDbCircle
 10
1410.906765
 20
749.989783
 30
0.0
 40
40.0
  0
LINE
  5
76A
330
1F
100
AcDbEntity
  8
002
  6
CENTER
 62
    40
370
     9
100
AcDbLine
 10
1388.180765
 20
772.715783
 30
0.0
 11
1377.126765
 21
783.769483
 31
0.0
  0
LINE
  5
76B
330
1F
100
AcDbEntity
  8
002
  6
CENTER
 62
    40
370
     9
100
AcDbLine
 10
1444.685765
 20
783.769483
 30
0.0
 11
1433.632765
 21
772.715783
 31
0.0
  0
ENDSEC
  0
SECTION
  2
OBJECTS
  0
DICTIONARY
  5
C
330
0
100
AcDbDictionary
281
     1
  3
ACAD_GROUP
350
D
  3
ACAD_LAYOUT
350
1A
  3
ACAD_MLEADERSTYLE
350
76E
  3
ACAD_MLINESTYLE
350
17
  3
ACAD_PLOTSETTINGS
350
19
  3
ACAD_PLOTSTYLENAME
350
E
  3
ACAD_VISUALSTYLE
350
2A
  3
AcDbVariableDictionary
350
76C
  0
DICTIONARY
  5
D
102
{ACAD_REACTORS
330
C
102
}
330
C
100
AcDbDictionary
281
     1
  0
DICTIONARY
  5
1A
102
{ACAD_REACTORS
330
C
102
}
330
C
100
AcDbDictionary
281
     1
  3
Layout1
350
1E
  3
Layout2
350
26
  3
Model
350
22
  0
DICTIONARY
  5
76E
102
{ACAD_REACTORS
330
C
102
}
330
C
100
AcDbDictionary
281
     1
  0
DICTIONARY
  5
17
102
{ACAD_REACTORS
330
C
102
}
330
C
100
AcDbDictionary
281
     1
  3
Standard
350
18
  0
DICTIONARY
  5
19
102
{ACAD_REACTORS
330
C
102
}
330
C
100
AcDbDictionary
281
     1
  0
ACDBDICTIONARYWDFLT
  5
E
102
{ACAD_REACTORS
330
C
102
}
330
C
100
AcDbDictionary
281
     1
  3
Normal
350
F
100
AcDbDictionaryWithDefault
340
F
  0
DICTIONARY
  5
2A
102
{ACAD_REACTORS
330
C
102
}
330
C
100
AcDbDictionary
281
     1
  3
2dWireframe
350
2F
  3
3D Hidden
350
31
  3
3dWireframe
350
30
  3
Basic
350
32
  3
Brighten
350
36
  3
ColorChange
350
3A
  3
Conceptual
350
34
  3
Dim
350
35
  3
Facepattern
350
39
  3
Flat
350
2B
  3
FlatWithEdges
350
2C
  3
Gouraud
350
2D
  3
GouraudWithEdges
350
2E
  3
Linepattern
350
38
  3
Realistic
350
33
  3
Thicken
350
37
  0
DICTIONARY
  5
76C
102
{ACAD_REACTORS
330
C
102
}
330
C
100
AcDbDictionary
281
     1
  3
PSOLHEIGHT
350
770
  3
PSOLWIDTH
350
76F
  0
LAYOUT
  5
1E
102
{ACAD_REACTORS
330
1A
102
}
330
1A
100
AcDbPlotSettings
  1

  2
none_device
  4

  6

 40
0.0
 41
0.0
 42
0.0
 43
0.0
 44
0.0
 45
0.0
 46
0.0
 47
0.0
 48
0.0
 49
0.0
140
0.0
141
0.0
142
1.0
143
1.0
 70
   688
 72
     0
 73
     0
 74
     5
  7

 75
    16
147
1.0
148
0.0
149
0.0
100
AcDbLayout
  1
Layout1
 70
     1
 71
     1
 10
0.0
 20
0.0
 11
12.0
 21
9.0
 12
0.0
 22
0.0
 32
0.0
 14
1.000000E+20
 24
1.000000E+20
 34
0.0
 15
-1.000000E+20
 25
-1.000000E+20
 35
0.0
146
0.0
 13
0.0
 23
0.0
 33
0.0
 16
1.0
 26
0.0
 36
0.0
 17
0.0
 27
1.0
 37
0.0
 76
     0
330
1B
  0
LAYOUT
  5
26
102
{ACAD_REACTORS
330
1A
102
}
330
1A
100
AcDbPlotSettings
  1

  2
none_device
  4

  6

 40
0.0
 41
0.0
 42
0.0
 43
0.0
 44
0.0
 45
0.0
 46
0.0
 47
0.0
 48
0.0
 49
0.0
140
0.0
141
0.0
142
1.0
143
1.0
 70
   688
 72
     0
 73
     0
 74
     5
  7

 75
    16
147
1.0
148
0.0
149
0.0
100
AcDbLayout
  1
Layout2
 70
     1
 71
     2
 10
0.0
 20
0.0
 11
0.0
 21
0.0
 12
0.0
 22
0.0
 32
0.0
 14
0.0
 24
0.0
 34
0.0
 15
0.0
 25
0.0
 35
0.0
146
0.0
 13
0.0
 23
0.0
 33
0.0
 16
1.0
 26
0.0
 36
0.0
 17
0.0
 27
1.0
 37
0.0
 76
     0
330
23
  0
LAYOUT
  5
22
102
{ACAD_REACTORS
330
1A
102
}
330
1A
100
AcDbPlotSettings
  1

  2
none_device
  4

  6

 40
0.0
 41
0.0
 42
0.0
 43
0.0
 44
0.0
 45
0.0
 46
0.0
 47
0.0
 48
0.0
 49
0.0
140
0.0
141
0.0
142
1.0
143
1.0
 70
  1712
 72
     0
 73
     0
 74
     0
  7

 75
     0
147
1.0
148
0.0
149
0.0
100
AcDbLayout
  1
Model
 70
     1
 71
     0
 10
0.0
 20
0.0
 11
12.0
 21
9.0
 12
0.0
 22
0.0
 32
0.0
 14
216.127319
 24
51.865295
 34
0.0
 15
1512.906982
 25
2085.344971
 35
0.0
146
0.0
 13
0.0
 23
0.0
 33
0.0
 16
1.0
 26
0.0
 36
0.0
 17
0.0
 27
1.0
 37
0.0
 76
     0
330
1F
331
29
  0
MLINESTYLE
  5
18
102
{ACAD_REACTORS
330
17
102
}
330
17
100
AcDbMlineStyle
  2
Standard
 70
     0
  3

 62
   256
 51
90.0
 52
90.0
 71
     2
 49
0.5
 62
   256
  6
BYLAYER
 49
-0.5
 62
   256
  6
BYLAYER
  0
ACDBPLACEHOLDER
  5
F
102
{ACAD_REACTORS
330
E
102
}
330
E
  0
VISUALSTYLE
  5
2F
102
{ACAD_REACTORS
330
2A
102
}
330
2A
100
AcDbVisualStyle
  2
2dWireframe
 70
     4
 71
     0
 72
     2
 73
     0
 90
        0
 40
-0.6
 41
-30.0
 62
     5
 63
     7
 74
     1
 91
        4
 64
     7
 65
   257
 75
     1
175
     1
 42
1.0
 92
        0
 66
   257
 43
1.0
 76
     1
 77
     6
 78
     2
 67
     7
 79
     5
170
     0
171
     0
290
     0
174
     0
 93
        1
 44
0.0
173
     0
291
     0
 45
0.0
1001
ACAD
1000
AcDbSavedByObjectVersion
1070
     0
  0
VISUALSTYLE
  5
31
102
{ACAD_REACTORS
330
2A
102
}
330
2A
100
AcDbVisualStyle
  2
3D Hidden
 70
     6
 71
     1
 72
     2
 73
     2
 90
        0
 40
-0.6
 41
-30.0
 62
     5
 63
     7
 74
     2
 91
        2
 64
     7
 65
   257
 75
     2
175
     1
 42
40.0
 92
        0
 66
   257
 43
1.0
 76
     1
 77
     6
 78
     2
 67
     7
 79
     3
170
     0
171
     0
290
     0
174
     0
 93
        1
 44
0.0
173
     0
291
     0
 45
0.0
1001
ACAD
1000
AcDbSavedByObjectVersion
1070
     0
  0
VISUALSTYLE
  5
30
102
{ACAD_REACTORS
330
2A
102
}
330
2A
100
AcDbVisualStyle
  2
3dWireframe
 70
     5
 71
     0
 72
     2
 73
     0
 90
        0
 40
-0.6
 41
-30.0
 62
     5
 63
     7
 74
     1
 91
        4
 64
     7
 65
   257
 75
     1
175
     1
 42
1.0
 92
        0
 66
   257
 43
1.0
 76
     1
 77
     6
 78
     2
 67
     7
 79
     5
170
     0
171
     0
290
     0
174
     0
 93
        1
 44
0.0
173
     0
291
     0
 45
0.0
1001
ACAD
1000
AcDbSavedByObjectVersion
1070
     0
  0
VISUALSTYLE
  5
32
102
{ACAD_REACTORS
330
2A
102
}
330
2A
100
AcDbVisualStyle
  2
Basic
 70
     7
 71
     1
 72
     0
 73
     1
 90
        0
 40
-0.6
 41
-30.0
 62
     5
 63
     7
 74
     0
 91
        4
 64
     7
 65
   257
 75
     1
175
     1
 42
1.0
 92
        8
 66
     7
 43
1.0
 76
     1
 77
     6
 78
     2
 67
     7
 79
     5
170
     0
171
     0
290
     0
174
     0
 93
        1
 44
0.0
173
     0
291
     1
 45
0.0
1001
ACAD
1000
AcDbSavedByObjectVersion
1070
     0
  0
VISUALSTYLE
  5
36
102
{ACAD_REACTORS
330
2A
102
}
330
2A
100
AcDbVisualStyle
  2
Brighten
 70
    12
 71
     2
 72
     2
 73
     0
 90
        0
 40
-0.6
 41
-30.0
 62
     5
 63
     7
 74
     1
 91
        4
 64
     7
 65
   257
 75
     1
175
     1
 42
1.0
 92
        8
 66
     7
 43
1.0
 76
     1
 77
     6
 78
     2
 67
     7
 79
     5
170
     0
171
     0
290
     0
174
     0
 93
        1
 44
50.0
173
     0
291
     1
 45
0.0
1001
ACAD
1000
AcDbSavedByObjectVersion
1070
     0
  0
VISUALSTYLE
  5
3A
102
{ACAD_REACTORS
330
2A
102
}
330
2A
100
AcDbVisualStyle
  2
ColorChange
 70
    16
 71
     2
 72
     2
 73
     3
 90
        0
 40
-0.6
 41
-30.0
 62
     5
 63
     8
 74
     1
 91
        4
 64
     7
 65
   257
 75
     1
175
     1
 42
1.0
 92
        8
 66
     8
 43
1.0
 76
     1
 77
     6
 78
     2
 67
     7
 79
     5
170
     0
171
     0
290
     0
174
     0
 93
        1
 44
0.0
173
     0
291
     1
 45
0.0
1001
ACAD
1000
AcDbSavedByObjectVersion
1070
     0
  0
VISUALSTYLE
  5
34
102
{ACAD_REACTORS
330
2A
102
}
330
2A
100
AcDbVisualStyle
  2
Conceptual
 70
     9
 71
     3
 72
     2
 73
     0
 90
        0
 40
-0.6
 41
-30.0
 62
     5
 63
     7
 74
     2
 91
        2
 64
     7
 65
   257
 75
     1
175
     1
 42
40.0
 92
        8
 66
     7
 43
1.0
 76
     1
 77
     6
 78
     2
 67
     7
 79
     3
170
     0
171
     0
290
     0
174
     0
 93
        1
 44
0.0
173
     0
291
     0
 45
0.0
1001
ACAD
1000
AcDbSavedByObjectVersion
1070
     0
  0
VISUALSTYLE
  5
35
102
{ACAD_REACTORS
330
2A
102
}
330
2A
100
AcDbVisualStyle
  2
Dim
 70
    11
 71
     2
 72
     2
 73
     0
 90
        0
 40
-0.6
 41
-30.0
 62
     5
 63
     7
 74
     1
 91
        4
 64
     7
 65
   257
 75
     1
175
     1
 42
1.0
 92
        8
 66
     7
 43
1.0
 76
     1
 77
     6
 78
     2
 67
     7
 79
     5
170
     0
171
     0
290
     0
174
     0
 93
        1
 44
-50.0
173
     0
291
     1
 45
0.0
1001
ACAD
1000
AcDbSavedByObjectVersion
1070
     0
  0
VISUALSTYLE
  5
39
102
{ACAD_REACTORS
330
2A
102
}
330
2A
100
AcDbVisualStyle
  2
Facepattern
 70
    15
 71
     2
 72
     2
 73
     0
 90
        0
 40
-0.6
 41
-30.0
 62
     5
 63
     7
 74
     1
 91
        4
 64
     7
 65
   257
 75
     1
175
     1
 42
1.0
 92
        8
 66
     7
 43
1.0
 76
     1
 77
     6
 78
     2
 67
     7
 79
     5
170
     0
171
     0
290
     0
174
     0
 93
        1
 44
0.0
173
     0
291
     1
 45
0.0
1001
ACAD
1000
AcDbSavedByObjectVersion
1070
     0
  0
VISUALSTYLE
  5
2B
102
{ACAD_REACTORS
330
2A
102
}
330
2A
100
AcDbVisualStyle
  2
Flat
 70
     0
 71
     2
 72
     1
 73
     1
 90
        2
 40
-0.6
 41
30.0
 62
     5
 63
     7
 74
     0
 91
        4
 64
     7
 65
   257
 75
     1
175
     1
 42
1.0
 92
        8
 66
     7
 43
1.0
 76
     1
 77
     6
 78
     2
 67
     7
 79
     5
170
     0
171
     0
290
     0
174
     0
 93
       13
 44
0.0
173
     0
291
     1
 45
0.0
1001
ACAD
1000
AcDbSavedByObjectVersion
1070
     0
  0
VISUALSTYLE
  5
2C
102
{ACAD_REACTORS
330
2A
102
}
330
2A
100
AcDbVisualStyle
  2
FlatWithEdges
 70
     1
 71
     2
 72
     1
 73
     1
 90
        2
 40
-0.6
 41
30.0
 62
     5
 63
     7
 74
     1
 91
        4
 64
     7
 65
   257
 75
     1
175
     1
 42
1.0
 92
        0
 66
   257
 43
1.0
 76
     1
 77
     6
 78
     2
 67
     7
 79
     5
170
     0
171
     0
290
     0
174
     0
 93
       13
 44
0.0
173
     0
291
     1
 45
0.0
1001
ACAD
1000
AcDbSavedByObjectVersion
1070
     0
  0
VISUALSTYLE
  5
2D
102
{ACAD_REACTORS
330
2A
102
}
330
2A
100
AcDbVisualStyle
  2
Gouraud
 70
     2
 71
     2
 72
     2
 73
     1
 90
        2
 40
-0.6
 41
30.0
 62
     5
 63
     7
 74
     0
 91
        4
 64
     7
 65
   257
 75
     1
175
     1
 42
1.0
 92
        0
 66
     7
 43
1.0
 76
     1
 77
     6
 78
     2
 67
     7
 79
     5
170
     0
171
     0
290
     0
174
     0
 93
       13
 44
0.0
173
     0
291
     1
 45
0.0
1001
ACAD
1000
AcDbSavedByObjectVersion
1070
     0
  0
VISUALSTYLE
  5
2E
102
{ACAD_REACTORS
330
2A
102
}
330
2A
100
AcDbVisualStyle
  2
GouraudWithEdges
 70
     3
 71
     2
 72
     2
 73
     1
 90
        2
 40
-0.6
 41
30.0
 62
     5
 63
     7
 74
     1
 91
        4
 64
     7
 65
   257
 75
     1
175
     1
 42
1.0
 92
        0
 66
   257
 43
1.0
 76
     1
 77
     6
 78
     2
 67
     7
 79
     5
170
     0
171
     0
290
     0
174
     0
 93
       13
 44
0.0
173
     0
291
     1
 45
0.0
1001
ACAD
1000
AcDbSavedByObjectVersion
1070
     0
  0
VISUALSTYLE
  5
38
102
{ACAD_REACTORS
330
2A
102
}
330
2A
100
AcDbVisualStyle
  2
Linepattern
 70
    14
 71
     2
 72
     2
 73
     0
 90
        0
 40
-0.6
 41
-30.0
 62
     5
 63
     7
 74
     1
 91
        4
 64
     7
 65
   257
 75
     7
175
     7
 42
1.0
 92
        8
 66
     7
 43
1.0
 76
     1
 77
     6
 78
     2
 67
     7
 79
     5
170
     0
171
     0
290
     0
174
     0
 93
        1
 44
0.0
173
     0
291
     1
 45
0.0
1001
ACAD
1000
AcDbSavedByObjectVersion
1070
     0
  0
VISUALSTYLE
  5
33
102
{ACAD_REACTORS
330
2A
102
}
330
2A
100
AcDbVisualStyle
  2
Realistic
 70
     8
 71
     2
 72
     2
 73
     0
 90
        0
 40
-0.6
 41
-30.0
 62
     5
 63
     7
 74
     1
 91
        0
 64
     7
 65
   257
 75
     1
175
     1
 42
1.0
 92
        8
 66
     8
 43
1.0
 76
     1
 77
     6
 78
     2
 67
     7
 79
     5
170
     0
171
     0
290
     0
174
     0
 93
       13
 44
0.0
173
     0
291
     0
 45
0.0
1001
ACAD
1000
AcDbSavedByObjectVersion
1070
     0
  0
VISUALSTYLE
  5
37
102
{ACAD_REACTORS
330
2A
102
}
330
2A
100
AcDbVisualStyle
  2
Thicken
 70
    13
 71
     2
 72
     2
 73
     0
 90
        0
 40
-0.6
 41
-30.0
 62
     5
 63
     7
 74
     1
 91
        4
 64
     7
 65
   257
 75
     1
175
     1
 42
1.0
 92
       12
 66
     7
 43
1.0
 76
     1
 77
     6
 78
     2
 67
     7
 79
     5
170
     0
171
     0
290
     0
174
     0
 93
        1
 44
0.0
173
     0
291
     1
 45
0.0
1001
ACAD
1000
AcDbSavedByObjectVersion
1070
     0
  0
DICTIONARYVAR
  5
770
102
{ACAD_REACTORS
330
76C
102
}
330
76C
100
DictionaryVariables
280
     0
  1
80.000000
  0
DICTIONARYVAR
  5
76F
102
{ACAD_REACTORS
330
76C
102
}
330
76C
100
DictionaryVariables
280
     0
  1
5.000000
  0
ENDSEC
  0
EOF
