  0
SECTION
  2
HEADER
  9
$ACADVER
  1
AC1015
  9
$ACADMAINTVER
 70
     6
  9
$DWGCODEPAGE
  3
ANSI_932
  9
$INSBASE
 10
0.0
 20
0.0
 30
0.0
  9
$EXTMIN
 10
195.687927
 20
137.317627
 30
0.0
  9
$EXTMAX
 10
2190.188232
 20
2184.276855
 30
0.0
  9
$LIMMIN
 10
0.0
 20
0.0
  9
$LIMMAX
 10
12.0
 20
9.0
  9
$ORTHOMODE
 70
     0
  9
$REGENMODE
 70
     1
  9
$FILLMODE
 70
     1
  9
$QTEXTMODE
 70
     0
  9
$MIRRTEXT
 70
     1
  9
$LTSCALE
 40
28.579842
  9
$ATTMODE
 70
     1
  9
$TEXTSIZE
 40
3.2
  9
$TRACEWID
 40
1.0
  9
$TEXTSTYLE
  7
Standard
  9
$CLAYER
  8
0
  9
$CELTYPE
  6
ByLayer
  9
$CECOLOR
 62
   256
  9
$CELTSCALE
 40
1.0
  9
$DISPSILH
 70
     0
  9
$DIMSCALE
 40
1.0
  9
$DIMASZ
 40
2.5
  9
$DIMEXO
 40
0.625
  9
$DIMDLI
 40
3.75
  9
$DIMRND
 40
0.0
  9
$DIMDLE
 40
0.0
  9
$DIMEXE
 40
1.25
  9
$DIMTP
 40
0.0
  9
$DIMTM
 40
0.0
  9
$DIMTXT
 40
2.5
  9
$DIMCEN
 40
0.09
  9
$DIMTSZ
 40
0.0
  9
$DIMTOL
 70
     0
  9
$DIMLIM
 70
     0
  9
$DIMTIH
 70
     0
  9
$DIMTOH
 70
     0
  9
$DIMSE1
 70
     0
  9
$DIMSE2
 70
     0
  9
$DIMTAD
 70
     0
  9
$DIMZIN
 70
     8
  9
$DIMBLK
  1

  9
$DIMASO
 70
     1
  9
$DIMSHO
 70
     0
  9
$DIMPOST
  1

  9
$DIMAPOST
  1

  9
$DIMALT
 70
     0
  9
$DIMALTD
 70
     3
  9
$DIMALTF
 40
0.03937
  9
$DIMLFAC
 40
1.0
  9
$DIMTOFL
 70
     1
  9
$DIMTVP
 40
0.0
  9
$DIMTIX
 70
     0
  9
$DIMSOXD
 70
     0
  9
$DIMSAH
 70
     0
  9
$DIMBLK1
  1

  9
$DIMBLK2
  1

  9
$DIMSTYLE
  2
ISO-25
  9
$DIMCLRD
 70
     0
  9
$DIMCLRE
 70
     0
  9
$DIMCLRT
 70
     0
  9
$DIMTFAC
 40
1.0
  9
$DIMGAP
 40
0.625
  9
$DIMJUST
 70
     0
  9
$DIMSD1
 70
     0
  9
$DIMSD2
 70
     0
  9
$DIMTOLJ
 70
     0
  9
$DIMTZIN
 70
     8
  9
$DIMALTZ
 70
     0
  9
$DIMALTTZ
 70
     0
  9
$DIMUPT
 70
     0
  9
$DIMDEC
 70
     2
  9
$DIMTDEC
 70
     2
  9
$DIMALTU
 70
     2
  9
$DIMALTTD
 70
     3
  9
$DIMTXSTY
  7
Standard
  9
$DIMAUNIT
 70
     0
  9
$DIMADEC
 70
     0
  9
$DIMALTRND
 40
0.0
  9
$DIMAZIN
 70
     0
  9
$DIMDSEP
 70
    44
  9
$DIMATFIT
 70
     3
  9
$DIMFRAC
 70
     0
  9
$DIMLDRBLK
  1

  9
$DIMLUNIT
 70
     2
  9
$DIMLWD
 70
    -2
  9
$DIMLWE
 70
    -2
  9
$DIMTMOVE
 70
     0
  9
$LUNITS
 70
     2
  9
$LUPREC
 70
     4
  9
$SKETCHINC
 40
1.0
  9
$FILLETRAD
 40
0.0
  9
$AUNITS
 70
     0
  9
$AUPREC
 70
     0
  9
$MENU
  1
.
  9
$ELEVATION
 40
0.0
  9
$PELEVATION
 40
0.0
  9
$THICKNESS
 40
0.0
  9
$LIMCHECK
 70
     0
  9
$CHAMFERA
 40
10.0
  9
$CHAMFERB
 40
10.0
  9
$CHAMFERC
 40
20.0
  9
$CHAMFERD
 40
0.0
  9
$SKPOLY
 70
     0
  9
$TDCREATE
 40
2455649.657777952
  9
$TDUCREATE
 40
2455649.282777952
  9
$TDUPDATE
 40
2455649.657777963
  9
$TDUUPDATE
 40
2455649.282777963
  9
$TDINDWG
 40
0.0000000116
  9
$TDUSRTIMER
 40
0.0000000116
  9
$USRTIMER
 70
     1
  9
$ANGBASE
 50
0.0
  9
$ANGDIR
 70
     0
  9
$PDMODE
 70
     0
  9
$PDSIZE
 40
0.0
  9
$PLINEWID
 40
0.0
  9
$SPLFRAME
 70
     0
  9
$SPLINETYPE
 70
     6
  9
$SPLINESEGS
 70
     8
  9
$HANDSEED
  5
7AE
  9
$SURFTAB1
 70
     6
  9
$SURFTAB2
 70
     6
  9
$SURFTYPE
 70
     6
  9
$SURFU
 70
     6
  9
$SURFV
 70
     6
  9
$UCSBASE
  2

  9
$UCSNAME
  2

  9
$UCSORG
 10
0.0
 20
0.0
 30
0.0
  9
$UCSXDIR
 10
1.0
 20
0.0
 30
0.0
  9
$UCSYDIR
 10
0.0
 20
1.0
 30
0.0
  9
$UCSORTHOREF
  2

  9
$UCSORTHOVIEW
 70
     0
  9
$UCSORGTOP
 10
0.0
 20
0.0
 30
0.0
  9
$UCSORGBOTTOM
 10
0.0
 20
0.0
 30
0.0
  9
$UCSORGLEFT
 10
0.0
 20
0.0
 30
0.0
  9
$UCSORGRIGHT
 10
0.0
 20
0.0
 30
0.0
  9
$UCSORGFRONT
 10
0.0
 20
0.0
 30
0.0
  9
$UCSORGBACK
 10
0.0
 20
0.0
 30
0.0
  9
$PUCSBASE
  2

  9
$PUCSNAME
  2

  9
$PUCSORG
 10
0.0
 20
0.0
 30
0.0
  9
$PUCSXDIR
 10
1.0
 20
0.0
 30
0.0
  9
$PUCSYDIR
 10
0.0
 20
1.0
 30
0.0
  9
$PUCSORTHOREF
  2

  9
$PUCSORTHOVIEW
 70
     0
  9
$PUCSORGTOP
 10
0.0
 20
0.0
 30
0.0
  9
$PUCSORGBOTTOM
 10
0.0
 20
0.0
 30
0.0
  9
$PUCSORGLEFT
 10
0.0
 20
0.0
 30
0.0
  9
$PUCSORGRIGHT
 10
0.0
 20
0.0
 30
0.0
  9
$PUCSORGFRONT
 10
0.0
 20
0.0
 30
0.0
  9
$PUCSORGBACK
 10
0.0
 20
0.0
 30
0.0
  9
$USERI1
 70
     0
  9
$USERI2
 70
     0
  9
$USERI3
 70
     0
  9
$USERI4
 70
     0
  9
$USERI5
 70
     0
  9
$USERR1
 40
0.0
  9
$USERR2
 40
0.0
  9
$USERR3
 40
0.0
  9
$USERR4
 40
0.0
  9
$USERR5
 40
0.0
  9
$WORLDVIEW
 70
     1
  9
$SHADEDGE
 70
     3
  9
$SHADEDIF
 70
    70
  9
$TILEMODE
 70
     1
  9
$MAXACTVP
 70
    64
  9
$PINSBASE
 10
0.0
 20
0.0
 30
0.0
  9
$PLIMCHECK
 70
     0
  9
$PEXTMIN
 10
1.000000E+20
 20
1.000000E+20
 30
0.0
  9
$PEXTMAX
 10
-1.000000E+20
 20
-1.000000E+20
 30
0.0
  9
$PLIMMIN
 10
0.0
 20
0.0
  9
$PLIMMAX
 10
12.0
 20
9.0
  9
$UNITMODE
 70
     0
  9
$VISRETAIN
 70
     1
  9
$PLINEGEN
 70
     0
  9
$PSLTSCALE
 70
     1
  9
$TREEDEPTH
 70
  3020
  9
$CMLSTYLE
  2
Standard
  9
$CMLJUST
 70
     0
  9
$CMLSCALE
 40
20.0
  9
$PROXYGRAPHICS
 70
     1
  9
$MEASUREMENT
 70
     1
  9
$CELWEIGHT
370
    -1
  9
$ENDCAPS
280
     0
  9
$JOINSTYLE
280
     0
  9
$LWDISPLAY
290
     0
  9
$INSUNITS
 70
     4
  9
$HYPERLINKBASE
  1

  9
$STYLESHEET
  1

  9
$XEDIT
290
     1
  9
$CEPSNTYPE
380
     0
  9
$PSTYLEMODE
290
     1
  9
$FINGERPRINTGUID
  2
{7188F1A3-9CD7-4593-B933-39D7C12E70F9}
  9
$VERSIONGUID
  2
{FAEB1C32-E019-11D5-929B-00C0DF256EC4}
  9
$EXTNAMES
290
     1
  9
$PSVPSCALE
 40
0.0
  9
$OLESTARTUP
290
     0
  0
ENDSEC
  0
SECTION
  2
CLASSES
  0
CLASS
  1
ACDBDICTIONARYWDFLT
  2
AcDbDictionaryWithDefault
  3
ObjectDBX Classes
 90
        0
280
     0
281
     0
  0
CLASS
  1
VISUALSTYLE
  2
AcDbVisualStyle
  3
ObjectDBX Classes
 90
     4095
280
     0
281
     0
  0
CLASS
  1
DICTIONARYVAR
  2
AcDbDictionaryVar
  3
ObjectDBX Classes
 90
        0
280
     0
281
     0
  0
CLASS
  1
ACDBPLACEHOLDER
  2
AcDbPlaceHolder
  3
ObjectDBX Classes
 90
        0
280
     0
281
     0
  0
CLASS
  1
LAYOUT
  2
AcDbLayout
  3
ObjectDBX Classes
 90
        0
280
     0
281
     0
  0
ENDSEC
  0
SECTION
  2
TABLES
  0
TABLE
  2
VPORT
  5
8
330
0
100
AcDbSymbolTable
 70
     1
  0
VPORT
  5
29
330
8
100
AcDbSymbolTableRecord
100
AcDbViewportTableRecord
  2
*Active
 70
     0
 10
0.0
 20
0.0
 11
1.0
 21
1.0
 12
1192.93808
 22
1160.797241
 13
0.0
 23
0.0
 14
1.0
 24
1.0
 15
0.0
 25
0.0
 16
0.0
 26
0.0
 36
1.0
 17
0.0
 27
0.0
 37
0.0
 40
2067.428821
 41
1.691288
 42
50.0
 43
0.0
 44
0.0
 50
0.0
 51
0.0
 71
     0
 72
   100
 73
     1
 74
     3
 75
     0
 76
     0
 77
     0
 78
     0
281
     0
 65
     1
110
0.0
120
0.0
130
0.0
111
1.0
121
0.0
131
0.0
112
0.0
122
1.0
132
0.0
 79
     0
146
0.0
  0
ENDTAB
  0
TABLE
  2
LTYPE
  5
5
330
0
100
AcDbSymbolTable
 70
     5
  0
LTYPE
  5
14
330
5
100
AcDbSymbolTableRecord
100
AcDbLinetypeTableRecord
  2
ByBlock
 70
     0
  3

 72
    65
 73
     0
 40
0.0
  0
LTYPE
  5
15
330
5
100
AcDbSymbolTableRecord
100
AcDbLinetypeTableRecord
  2
ByLayer
 70
     0
  3

 72
    65
 73
     0
 40
0.0
  0
LTYPE
  5
16
330
5
100
AcDbSymbolTableRecord
100
AcDbLinetypeTableRecord
  2
Continuous
 70
     0
  3
Solid line
 72
    65
 73
     0
 40
0.0
  0
LTYPE
  5
3B
330
5
100
AcDbSymbolTableRecord
100
AcDbLinetypeTableRecord
  2
DASHED
 70
     0
  3
DASHED
 72
    83
 73
     2
 40
0.75
 49
0.5
 74
     0
 49
-0.25
 74
     0
  0
LTYPE
  5
3C
330
5
100
AcDbSymbolTableRecord
100
AcDbLinetypeTableRecord
  2
HIDDEN
 70
     0
  3
HIDDEN
 72
    83
 73
     2
 40
0.375
 49
0.25
 74
     0
 49
-0.125
 74
     0
  0
LTYPE
  5
3D
330
5
100
AcDbSymbolTableRecord
100
AcDbLinetypeTableRecord
  2
CENTER
 70
     0
  3
CENTER
 72
    83
 73
     4
 40
2.0
 49
1.25
 74
     0
 49
-0.25
 74
     0
 49
0.25
 74
     0
 49
-0.25
 74
     0
  0
LTYPE
  5
3E
330
5
100
AcDbSymbolTableRecord
100
AcDbLinetypeTableRecord
  2
PHANTOM
 70
     0
  3
PHANTOM
 72
    83
 73
     6
 40
2.5
 49
1.25
 74
     0
 49
-0.25
 74
     0
 49
0.25
 74
     0
 49
-0.25
 74
     0
 49
0.25
 74
     0
 49
-0.25
 74
     0
  0
ENDTAB
  0
TABLE
  2
LAYER
  5
2
330
0
100
AcDbSymbolTable
 70
     3
  0
LAYER
  5
10
330
2
100
AcDbSymbolTableRecord
100
AcDbLayerTableRecord
  2
0
 70
     0
 62
     7
  6
Continuous
370
    -3
390
F
  0
LAYER
  5
3F
330
2
100
AcDbSymbolTableRecord
100
AcDbLayerTableRecord
  2
002
 70
     0
 62
     7
  6
Continuous
370
    -3
390
F
  0
LAYER
  5
40
330
2
100
AcDbSymbolTableRecord
100
AcDbLayerTableRecord
  2
003
 70
     0
 62
     7
  6
Continuous
370
    -3
390
F
  0
ENDTAB
  0
TABLE
  2
STYLE
  5
3
330
0
100
AcDbSymbolTable
 70
     2
  0
STYLE
  5
11
330
3
100
AcDbSymbolTableRecord
100
AcDbTextStyleTableRecord
  2
Standard
 70
     0
 40
0.0
 41
1.0
 50
0.0
 71
     0
 42
0.2
  3
TXT
  4
BIGFONT
  0
STYLE
  5
41
330
3
100
AcDbSymbolTableRecord
100
AcDbTextStyleTableRecord
  2
TATEGAKI
 70
     4
 40
1.0
 41
1.0
 50
0.0
 71
     0
 42
0.2
  3
TXT
  4
BIGFONT
  0
ENDTAB
  0
TABLE
  2
VIEW
  5
6
330
0
100
AcDbSymbolTable
 70
     0
  0
ENDTAB
  0
TABLE
  2
UCS
  5
7
330
0
100
AcDbSymbolTable
 70
     0
  0
ENDTAB
  0
TABLE
  2
APPID
  5
9
330
0
100
AcDbSymbolTable
 70
     1
  0
APPID
  5
12
330
9
100
AcDbSymbolTableRecord
100
AcDbRegAppTableRecord
  2
ACAD
 70
     0
  0
ENDTAB
  0
TABLE
  2
DIMSTYLE
  5
A
330
0
100
AcDbSymbolTable
 70
     2
100
AcDbDimStyleTable
  0
DIMSTYLE
105
27
330
A
100
AcDbSymbolTableRecord
100
AcDbDimStyleTableRecord
  2
ISO-25
 70
     0
 41
2.5
 42
0.625
 43
3.75
 44
1.25
 73
     0
 74
     0
 77
     1
 78
     8
140
2.5
141
2.5
143
0.03937
147
0.625
171
     3
172
     1
271
     2
272
     2
274
     3
278
    44
283
     0
284
     8
340
11
  0
DIMSTYLE
105
42
330
A
100
AcDbSymbolTableRecord
100
AcDbDimStyleTableRecord
  2
Standard
 70
     0
 41
3.0
 42
0.5
 44
0.7
 73
     0
 74
     0
 77
     1
 78
     8
 79
     2
140
4.0
146
0.65
147
1.0
172
     1
179
     3
271
     3
283
     2
340
11
  0
ENDTAB
  0
TABLE
  2
BLOCK_RECORD
  5
1
330
0
100
AcDbSymbolTable
 70
    35
  0
BLOCK_RECORD
  5
1F
330
1
100
AcDbSymbolTableRecord
100
AcDbBlockTableRecord
  2
*Model_Space
340
22
  0
BLOCK_RECORD
  5
1B
330
1
100
AcDbSymbolTableRecord
100
AcDbBlockTableRecord
  2
*Paper_Space
340
1E
  0
BLOCK_RECORD
  5
23
330
1
100
AcDbSymbolTableRecord
100
AcDbBlockTableRecord
  2
*Paper_Space0
340
26
  0
BLOCK_RECORD
  5
43
330
1
100
AcDbSymbolTableRecord
100
AcDbBlockTableRecord
  2
JZB-1
340
0
102
{BLKREFS
331
1C1
102
}
  0
BLOCK_RECORD
  5
54
330
1
100
AcDbSymbolTableRecord
100
AcDbBlockTableRecord
  2
JZB-2
340
0
102
{BLKREFS
331
1C2
102
}
  0
BLOCK_RECORD
  5
65
330
1
100
AcDbSymbolTableRecord
100
AcDbBlockTableRecord
  2
JZB-3
340
0
102
{BLKREFS
331
1C3
102
}
  0
BLOCK_RECORD
  5
76
330
1
100
AcDbSymbolTableRecord
100
AcDbBlockTableRecord
  2
JZB-4
340
0
102
{BLKREFS
331
1C4
102
}
  0
BLOCK_RECORD
  5
87
330
1
100
AcDbSymbolTableRecord
100
AcDbBlockTableRecord
  2
JZB-5
340
0
102
{BLKREFS
331
1C5
102
}
  0
BLOCK_RECORD
  5
98
330
1
100
AcDbSymbolTableRecord
100
AcDbBlockTableRecord
  2
JZB-6
340
0
102
{BLKREFS
331
1C6
102
}
  0
BLOCK_RECORD
  5
A9
330
1
100
AcDbSymbolTableRecord
100
AcDbBlockTableRecord
  2
JZB-7
340
0
102
{BLKREFS
331
1C7
102
}
  0
BLOCK_RECORD
  5
B3
330
1
100
AcDbSymbolTableRecord
100
AcDbBlockTableRecord
  2
JZB-8
340
0
102
{BLKREFS
331
1C8
102
}
  0
BLOCK_RECORD
  5
BD
330
1
100
AcDbSymbolTableRecord
100
AcDbBlockTableRecord
  2
JZB-9
340
0
102
{BLKREFS
331
1C9
102
}
  0
BLOCK_RECORD
  5
C7
330
1
100
AcDbSymbolTableRecord
100
AcDbBlockTableRecord
  2
JZB-10
340
0
102
{BLKREFS
331
1CA
102
}
  0
BLOCK_RECORD
  5
D1
330
1
100
AcDbSymbolTableRecord
100
AcDbBlockTableRecord
  2
JZB-11
340
0
102
{BLKREFS
331
1CB
102
}
  0
BLOCK_RECORD
  5
DB
330
1
100
AcDbSymbolTableRecord
100
AcDbBlockTableRecord
  2
JZB-12
340
0
102
{BLKREFS
331
1CC
102
}
  0
BLOCK_RECORD
  5
E5
330
1
100
AcDbSymbolTableRecord
100
AcDbBlockTableRecord
  2
JZB-13
340
0
102
{BLKREFS
331
1CD
102
}
  0
BLOCK_RECORD
  5
EF
330
1
100
AcDbSymbolTableRecord
100
AcDbBlockTableRecord
  2
JZB-14
340
0
102
{BLKREFS
331
1CE
102
}
  0
BLOCK_RECORD
  5
F9
330
1
100
AcDbSymbolTableRecord
100
AcDbBlockTableRecord
  2
JZB-15
340
0
102
{BLKREFS
331
1CF
102
}
  0
BLOCK_RECORD
  5
103
330
1
100
AcDbSymbolTableRecord
100
AcDbBlockTableRecord
  2
JZB-16
340
0
102
{BLKREFS
331
1D0
102
}
  0
BLOCK_RECORD
  5
10D
330
1
100
AcDbSymbolTableRecord
100
AcDbBlockTableRecord
  2
JZB-17
340
0
102
{BLKREFS
331
1D1
102
}
  0
BLOCK_RECORD
  5
117
330
1
100
AcDbSymbolTableRecord
100
AcDbBlockTableRecord
  2
JZB-18
340
0
102
{BLKREFS
331
1D2
102
}
  0
BLOCK_RECORD
  5
121
330
1
100
AcDbSymbolTableRecord
100
AcDbBlockTableRecord
  2
JZB-19
340
0
102
{BLKREFS
331
1D3
102
}
  0
BLOCK_RECORD
  5
12B
330
1
100
AcDbSymbolTableRecord
100
AcDbBlockTableRecord
  2
JZB-20
340
0
102
{BLKREFS
331
1D4
102
}
  0
BLOCK_RECORD
  5
135
330
1
100
AcDbSymbolTableRecord
100
AcDbBlockTableRecord
  2
JZB-21
340
0
102
{BLKREFS
331
1D5
102
}
  0
BLOCK_RECORD
  5
13F
330
1
100
AcDbSymbolTableRecord
100
AcDbBlockTableRecord
  2
JZB-22
340
0
102
{BLKREFS
331
1D6
102
}
  0
BLOCK_RECORD
  5
149
330
1
100
AcDbSymbolTableRecord
100
AcDbBlockTableRecord
  2
JZB-23
340
0
102
{BLKREFS
331
1D7
102
}
  0
BLOCK_RECORD
  5
153
330
1
100
AcDbSymbolTableRecord
100
AcDbBlockTableRecord
  2
JZB-24
340
0
102
{BLKREFS
331
1D8
102
}
  0
BLOCK_RECORD
  5
15D
330
1
100
AcDbSymbolTableRecord
100
AcDbBlockTableRecord
  2
JZB-25
340
0
102
{BLKREFS
331
1D9
102
}
  0
BLOCK_RECORD
  5
167
330
1
100
AcDbSymbolTableRecord
100
AcDbBlockTableRecord
  2
JZB-26
340
0
102
{BLKREFS
331
1DA
102
}
  0
BLOCK_RECORD
  5
171
330
1
100
AcDbSymbolTableRecord
100
AcDbBlockTableRecord
  2
JZB-27
340
0
102
{BLKREFS
331
1DB
102
}
  0
BLOCK_RECORD
  5
17B
330
1
100
AcDbSymbolTableRecord
100
AcDbBlockTableRecord
  2
JZB-28
340
0
102
{BLKREFS
331
1DC
102
}
  0
BLOCK_RECORD
  5
185
330
1
100
AcDbSymbolTableRecord
100
AcDbBlockTableRecord
  2
JZB-29
340
0
102
{BLKREFS
331
1DD
102
}
  0
BLOCK_RECORD
  5
18F
330
1
100
AcDbSymbolTableRecord
100
AcDbBlockTableRecord
  2
JZB-30
340
0
102
{BLKREFS
331
1DE
102
}
  0
BLOCK_RECORD
  5
199
330
1
100
AcDbSymbolTableRecord
100
AcDbBlockTableRecord
  2
JZB-31
340
0
102
{BLKREFS
331
1DF
102
}
  0
BLOCK_RECORD
  5
1A3
330
1
100
AcDbSymbolTableRecord
100
AcDbBlockTableRecord
  2
JZB-32
340
0
102
{BLKREFS
331
1E0
102
}
  0
BLOCK_RECORD
  5
1AD
330
1
100
AcDbSymbolTableRecord
100
AcDbBlockTableRecord
  2
JZB-33
340
0
102
{BLKREFS
331
1E1
102
}
  0
BLOCK_RECORD
  5
1B7
330
1
100
AcDbSymbolTableRecord
100
AcDbBlockTableRecord
  2
JZB-34
340
0
102
{BLKREFS
331
1E2
102
}
  0
ENDTAB
  0
ENDSEC
  0
SECTION
  2
BLOCKS
  0
BLOCK
  5
20
330
1F
100
AcDbEntity
  8
0
100
AcDbBlockBegin
  2
*Model_Space
 70
     0
 10
0.0
 20
0.0
 30
0.0
  3
*Model_Space
  1

  0
ENDBLK
  5
21
330
1F
100
AcDbEntity
  8
0
100
AcDbBlockEnd
  0
BLOCK
  5
1C
330
1B
100
AcDbEntity
 67
     1
  8
0
100
AcDbBlockBegin
  2
*Paper_Space
 70
     0
 10
0.0
 20
0.0
 30
0.0
  3
*Paper_Space
  1

  0
ENDBLK
  5
1D
330
1B
100
AcDbEntity
 67
     1
  8
0
100
AcDbBlockEnd
  0
BLOCK
  5
24
330
23
100
AcDbEntity
  8
0
100
AcDbBlockBegin
  2
*Paper_Space0
 70
     0
 10
0.0
 20
0.0
 30
0.0
  3
*Paper_Space0
  1

  0
ENDBLK
  5
25
330
23
100
AcDbEntity
  8
0
100
AcDbBlockEnd
  0
BLOCK
  5
44
330
43
100
AcDbEntity
  8
0
100
AcDbBlockBegin
  2
JZB-1
 70
     0
 10
0.0
 20
0.0
 30
0.0
  3
JZB-1
  1

  0
LINE
  5
46
330
43
100
AcDbEntity
  8
003
 62
     3
370
    30
100
AcDbLine
 10
463.285889
 20
1864.283583
 30
0.0
 11
463.285889
 21
1869.090752
 31
0.0
  0
LINE
  5
47
330
43
100
AcDbEntity
  8
003
 62
     3
370
    30
100
AcDbLine
 10
462.085889
 20
1863.590763
 30
0.0
 11
449.485889
 21
1863.590763
 31
0.0
  0
LINE
  5
48
330
43
100
AcDbEntity
  8
003
 62
     3
370
    30
100
AcDbLine
 10
463.285889
 20
1869.090752
 30
0.0
 11
448.285889
 21
1869.090752
 31
0.0
  0
LINE
  5
49
330
43
100
AcDbEntity
  8
003
 62
     3
370
    30
100
AcDbLine
 10
462.085889
 20
1863.590763
 30
0.0
 11
463.285889
 21
1864.283583
 31
0.0
  0
LINE
  5
4A
330
43
100
AcDbEntity
  8
003
 62
     3
370
    30
100
AcDbLine
 10
449.485889
 20
1863.590763
 30
0.0
 11
448.285889
 21
1864.283583
 31
0.0
  0
LINE
  5
4B
330
43
100
AcDbEntity
  8
003
 62
     3
370
    30
100
AcDbLine
 10
448.285889
 20
1864.283583
 30
0.0
 11
448.285889
 21
1869.090752
 31
0.0
  0
LINE
  5
4C
330
43
100
AcDbEntity
  8
003
 62
     3
370
    30
100
AcDbLine
 10
459.535889
 20
1869.090752
 30
0.0
 11
459.535889
 21
1864.283583
 31
0.0
  0
LINE
  5
4D
330
43
100
AcDbEntity
  8
003
 62
     3
370
    30
100
AcDbLine
 10
452.035889
 20
1869.090752
 30
0.0
 11
452.035889
 21
1864.283583
 31
0.0
  0
ARC
  5
4E
330
43
100
AcDbEntity
  8
003
 62
     3
370
    30
100
AcDbCircle
 10
450.160889
 20
1866.474357
 30
0.0
 40
2.883593961663502
100
AcDbArc
 50
270.0
 51
310.558963
  0
ARC
  5
4F
330
43
100
AcDbEntity
  8
003
 62
     3
370
    30
100
AcDbCircle
 10
461.410889
 20
1866.474357
 30
0.0
 40
2.883593961663502
100
AcDbArc
 50
229.441037
 51
270.0
  0
ARC
  5
50
330
43
100
AcDbEntity
  8
003
 62
     3
370
    30
100
AcDbCircle
 10
455.785889
 20
1874.085908
 30
0.0
 40
10.4951453621126
100
AcDbArc
 50
249.065034
 51
290.934966
  0
LINE
  5
51
330
43
100
AcDbEntity
  8
003
 62
     3
370
    30
100
AcDbLine
 10
455.785883
 20
1869.090763
 30
0.0
 11
455.785883
 21
1869.090752
 31
0.0
  0
LINE
  5
52
330
43
100
AcDbEntity
  8
003
 62
     3
370
    30
100
AcDbLine
 10
455.785883
 20
1869.090763
 30
0.0
 11
455.785894
 21
1869.090763
 31
0.0
  0
LINE
  5
53
330
43
100
AcDbEntity
  8
003
 62
     3
370
    30
100
AcDbLine
 10
455.785894
 20
1869.090763
 30
0.0
 11
455.785894
 21
1869.090752
 31
0.0
  0
ENDBLK
  5
45
330
43
100
AcDbEntity
  8
0
100
AcDbBlockEnd
  0
BLOCK
  5
55
330
54
100
AcDbEntity
  8
0
100
AcDbBlockBegin
  2
JZB-2
 70
     0
 10
0.0
 20
0.0
 30
0.0
  3
JZB-2
  1

  0
LINE
  5
57
330
54
100
AcDbEntity
  8
003
 62
     3
370
    30
100
AcDbLine
 10
500.762809
 20
1864.283583
 30
0.0
 11
500.762809
 21
1869.090752
 31
0.0
  0
LINE
  5
58
330
54
100
AcDbEntity
  8
003
 62
     3
370
    30
100
AcDbLine
 10
499.562809
 20
1863.590763
 30
0.0
 11
486.962809
 21
1863.590763
 31
0.0
  0
LINE
  5
59
330
54
100
AcDbEntity
  8
003
 62
     3
370
    30
100
AcDbLine
 10
500.762809
 20
1869.090752
 30
0.0
 11
485.762809
 21
1869.090752
 31
0.0
  0
LINE
  5
5A
330
54
100
AcDbEntity
  8
003
 62
     3
370
    30
100
AcDbLine
 10
499.562809
 20
1863.590763
 30
0.0
 11
500.762809
 21
1864.283583
 31
0.0
  0
LINE
  5
5B
330
54
100
AcDbEntity
  8
003
 62
     3
370
    30
100
AcDbLine
 10
486.962809
 20
1863.590763
 30
0.0
 11
485.762809
 21
1864.283583
 31
0.0
  0
LINE
  5
5C
330
54
100
AcDbEntity
  8
003
 62
     3
370
    30
100
AcDbLine
 10
485.762809
 20
1864.283583
 30
0.0
 11
485.762809
 21
1869.090752
 31
0.0
  0
LINE
  5
5D
330
54
100
AcDbEntity
  8
003
 62
     3
370
    30
100
AcDbLine
 10
497.012809
 20
1869.090752
 30
0.0
 11
497.012809
 21
1864.283583
 31
0.0
  0
LINE
  5
5E
330
54
100
AcDbEntity
  8
003
 62
     3
370
    30
100
AcDbLine
 10
489.512809
 20
1869.090752
 30
0.0
 11
489.512809
 21
1864.283583
 31
0.0
  0
ARC
  5
5F
330
54
100
AcDbEntity
  8
003
 62
     3
370
    30
100
AcDbCircle
 10
487.637809
 20
1866.474357
 30
0.0
 40
2.883593961663502
100
AcDbArc
 50
270.0
 51
310.558963
  0
ARC
  5
60
330
54
100
AcDbEntity
  8
003
 62
     3
370
    30
100
AcDbCircle
 10
498.887809
 20
1866.474357
 30
0.0
 40
2.883593961663502
100
AcDbArc
 50
229.441037
 51
270.0
  0
ARC
  5
61
330
54
100
AcDbEntity
  8
003
 62
     3
370
    30
100
AcDbCircle
 10
493.262809
 20
1874.085908
 30
0.0
 40
10.4951453621126
100
AcDbArc
 50
249.065034
 51
290.934966
  0
LINE
  5
62
330
54
100
AcDbEntity
  8
003
 62
     3
370
    30
100
AcDbLine
 10
493.262804
 20
1869.090763
 30
0.0
 11
493.262804
 21
1869.090752
 31
0.0
  0
LINE
  5
63
330
54
100
AcDbEntity
  8
003
 62
     3
370
    30
100
AcDbLine
 10
493.262804
 20
1869.090763
 30
0.0
 11
493.262815
 21
1869.090763
 31
0.0
  0
LINE
  5
64
330
54
100
AcDbEntity
  8
003
 62
     3
370
    30
100
AcDbLine
 10
493.262815
 20
1869.090763
 30
0.0
 11
493.262815
 21
1869.090752
 31
0.0
  0
ENDBLK
  5
56
330
54
100
AcDbEntity
  8
0
100
AcDbBlockEnd
  0
BLOCK
  5
66
330
65
100
AcDbEntity
  8
0
100
AcDbBlockBegin
  2
JZB-3
 70
     0
 10
0.0
 20
0.0
 30
0.0
  3
JZB-3
  1

  0
LINE
  5
68
330
65
100
AcDbEntity
  8
003
 62
     3
370
    30
100
AcDbLine
 10
425.808968
 20
1864.283583
 30
0.0
 11
425.808968
 21
1869.090752
 31
0.0
  0
LINE
  5
69
330
65
100
AcDbEntity
  8
003
 62
     3
370
    30
100
AcDbLine
 10
424.608968
 20
1863.590763
 30
0.0
 11
412.008968
 21
1863.590763
 31
0.0
  0
LINE
  5
6A
330
65
100
AcDbEntity
  8
003
 62
     3
370
    30
100
AcDbLine
 10
424.608968
 20
1863.590763
 30
0.0
 11
425.808968
 21
1864.283583
 31
0.0
  0
LINE
  5
6B
330
65
100
AcDbEntity
  8
003
 62
     3
370
    30
100
AcDbLine
 10
412.008968
 20
1863.590763
 30
0.0
 11
410.808968
 21
1864.283583
 31
0.0
  0
LINE
  5
6C
330
65
100
AcDbEntity
  8
003
 62
     3
370
    30
100
AcDbLine
 10
422.058968
 20
1869.090752
 30
0.0
 11
422.058968
 21
1864.283583
 31
0.0
  0
ARC
  5
6D
330
65
100
AcDbEntity
  8
003
 62
     3
370
    30
100
AcDbCircle
 10
412.683968
 20
1866.474357
 30
0.0
 40
2.883593961663502
100
AcDbArc
 50
270.0
 51
310.558963
  0
ARC
  5
6E
330
65
100
AcDbEntity
  8
003
 62
     3
370
    30
100
AcDbCircle
 10
423.933968
 20
1866.474357
 30
0.0
 40
2.883593961663502
100
AcDbArc
 50
229.441037
 51
270.0
  0
ARC
  5
6F
330
65
100
AcDbEntity
  8
003
 62
     3
370
    30
100
AcDbCircle
 10
418.308968
 20
1874.085908
 30
0.0
 40
10.4951453621126
100
AcDbArc
 50
249.065034
 51
290.934966
  0
LINE
  5
70
330
65
100
AcDbEntity
  8
003
 62
     3
370
    30
100
AcDbLine
 10
418.308962
 20
1869.090763
 30
0.0
 11
418.308962
 21
1869.090752
 31
0.0
  0
LINE
  5
71
330
65
100
AcDbEntity
  8
003
 62
     3
370
    30
100
AcDbLine
 10
418.308962
 20
1869.090763
 30
0.0
 11
418.308973
 21
1869.090763
 31
0.0
  0
LINE
  5
72
330
65
100
AcDbEntity
  8
003
 62
     3
370
    30
100
AcDbLine
 10
418.308973
 20
1869.090763
 30
0.0
 11
418.308973
 21
1869.090752
 31
0.0
  0
LINE
  5
73
330
65
100
AcDbEntity
  8
003
 62
     3
370
    30
100
AcDbLine
 10
414.558968
 20
1868.353409
 30
0.0
 11
414.558968
 21
1864.283583
 31
0.0
  0
LINE
  5
74
330
65
100
AcDbEntity
  8
003
 62
     3
370
    30
100
AcDbLine
 10
410.808968
 20
1864.283583
 30
0.0
 11
410.808968
 21
1866.777876
 31
0.0
  0
LINE
  5
75
330
65
100
AcDbEntity
  8
003
 62
     3
370
    30
100
AcDbLine
 10
425.808968
 20
1869.090752
 30
0.0
 11
416.211509
 21
1869.090752
 31
0.0
  0
ENDBLK
  5
67
330
65
100
AcDbEntity
  8
0
100
AcDbBlockEnd
  0
BLOCK
  5
77
330
76
100
AcDbEntity
  8
0
100
AcDbBlockBegin
  2
JZB-4
 70
     0
 10
0.0
 20
0.0
 30
0.0
  3
JZB-4
  1

  0
LINE
  5
79
330
76
100
AcDbEntity
  8
003
 62
     3
370
    30
100
AcDbLine
 10
463.285889
 20
2117.897921
 30
0.0
 11
463.285889
 21
2113.090752
 31
0.0
  0
LINE
  5
7A
330
76
100
AcDbEntity
  8
003
 62
     3
370
    30
100
AcDbLine
 10
462.085889
 20
2118.590741
 30
0.0
 11
449.485889
 21
2118.590741
 31
0.0
  0
LINE
  5
7B
330
76
100
AcDbEntity
  8
003
 62
     3
370
    30
100
AcDbLine
 10
463.285889
 20
2113.090752
 30
0.0
 11
448.285889
 21
2113.090752
 31
0.0
  0
LINE
  5
7C
330
76
100
AcDbEntity
  8
003
 62
     3
370
    30
100
AcDbLine
 10
462.085889
 20
2118.590741
 30
0.0
 11
463.285889
 21
2117.897921
 31
0.0
  0
LINE
  5
7D
330
76
100
AcDbEntity
  8
003
 62
     3
370
    30
100
AcDbLine
 10
449.485889
 20
2118.590741
 30
0.0
 11
448.285889
 21
2117.897921
 31
0.0
  0
LINE
  5
7E
330
76
100
AcDbEntity
  8
003
 62
     3
370
    30
100
AcDbLine
 10
448.285889
 20
2117.897921
 30
0.0
 11
448.285889
 21
2113.090752
 31
0.0
  0
LINE
  5
7F
330
76
100
AcDbEntity
  8
003
 62
     3
370
    30
100
AcDbLine
 10
459.535889
 20
2113.090752
 30
0.0
 11
459.535889
 21
2117.897921
 31
0.0
  0
LINE
  5
80
330
76
100
AcDbEntity
  8
003
 62
     3
370
    30
100
AcDbLine
 10
452.035889
 20
2113.090752
 30
0.0
 11
452.035889
 21
2117.897921
 31
0.0
  0
ARC
  5
81
330
76
100
AcDbEntity
  8
003
 62
     3
370
    30
100
AcDbCircle
 10
450.160889
 20
2115.707147
 30
0.0
 40
2.883593961663502
100
AcDbArc
 50
49.441037
 51
90.0
  0
ARC
  5
82
330
76
100
AcDbEntity
  8
003
 62
     3
370
    30
100
AcDbCircle
 10
461.410889
 20
2115.707147
 30
0.0
 40
2.883593961663502
100
AcDbArc
 50
90.0
 51
130.558963
  0
ARC
  5
83
330
76
100
AcDbEntity
  8
003
 62
     3
370
    30
100
AcDbCircle
 10
455.785889
 20
2108.095596
 30
0.0
 40
10.4951453621126
100
AcDbArc
 50
69.065034
 51
110.934966
  0
LINE
  5
84
330
76
100
AcDbEntity
  8
003
 62
     3
370
    30
100
AcDbLine
 10
455.785883
 20
2113.090741
 30
0.0
 11
455.785883
 21
2113.090752
 31
0.0
  0
LINE
  5
85
330
76
100
AcDbEntity
  8
003
 62
     3
370
    30
100
AcDbLine
 10
455.785883
 20
2113.090741
 30
0.0
 11
455.785894
 21
2113.090741
 31
0.0
  0
LINE
  5
86
330
76
100
AcDbEntity
  8
003
 62
     3
370
    30
100
AcDbLine
 10
455.785894
 20
2113.090741
 30
0.0
 11
455.785894
 21
2113.090752
 31
0.0
  0
ENDBLK
  5
78
330
76
100
AcDbEntity
  8
0
100
AcDbBlockEnd
  0
BLOCK
  5
88
330
87
100
AcDbEntity
  8
0
100
AcDbBlockBegin
  2
JZB-5
 70
     0
 10
0.0
 20
0.0
 30
0.0
  3
JZB-5
  1

  0
LINE
  5
8A
330
87
100
AcDbEntity
  8
003
 62
     3
370
    30
100
AcDbLine
 10
500.762809
 20
2117.897921
 30
0.0
 11
500.762809
 21
2113.090752
 31
0.0
  0
LINE
  5
8B
330
87
100
AcDbEntity
  8
003
 62
     3
370
    30
100
AcDbLine
 10
499.562809
 20
2118.590741
 30
0.0
 11
486.962809
 21
2118.590741
 31
0.0
  0
LINE
  5
8C
330
87
100
AcDbEntity
  8
003
 62
     3
370
    30
100
AcDbLine
 10
500.762809
 20
2113.090752
 30
0.0
 11
485.762809
 21
2113.090752
 31
0.0
  0
LINE
  5
8D
330
87
100
AcDbEntity
  8
003
 62
     3
370
    30
100
AcDbLine
 10
499.562809
 20
2118.590741
 30
0.0
 11
500.762809
 21
2117.897921
 31
0.0
  0
LINE
  5
8E
330
87
100
AcDbEntity
  8
003
 62
     3
370
    30
100
AcDbLine
 10
486.962809
 20
2118.590741
 30
0.0
 11
485.762809
 21
2117.897921
 31
0.0
  0
LINE
  5
8F
330
87
100
AcDbEntity
  8
003
 62
     3
370
    30
100
AcDbLine
 10
485.762809
 20
2117.897921
 30
0.0
 11
485.762809
 21
2113.090752
 31
0.0
  0
LINE
  5
90
330
87
100
AcDbEntity
  8
003
 62
     3
370
    30
100
AcDbLine
 10
497.012809
 20
2113.090752
 30
0.0
 11
497.012809
 21
2117.897921
 31
0.0
  0
LINE
  5
91
330
87
100
AcDbEntity
  8
003
 62
     3
370
    30
100
AcDbLine
 10
489.512809
 20
2113.090752
 30
0.0
 11
489.512809
 21
2117.897921
 31
0.0
  0
ARC
  5
92
330
87
100
AcDbEntity
  8
003
 62
     3
370
    30
100
AcDbCircle
 10
487.637809
 20
2115.707147
 30
0.0
 40
2.883593961663502
100
AcDbArc
 50
49.441037
 51
90.0
  0
ARC
  5
93
330
87
100
AcDbEntity
  8
003
 62
     3
370
    30
100
AcDbCircle
 10
498.887809
 20
2115.707147
 30
0.0
 40
2.883593961663502
100
AcDbArc
 50
90.0
 51
130.558963
  0
ARC
  5
94
330
87
100
AcDbEntity
  8
003
 62
     3
370
    30
100
AcDbCircle
 10
493.262809
 20
2108.095596
 30
0.0
 40
10.4951453621126
100
AcDbArc
 50
69.065034
 51
110.934966
  0
LINE
  5
95
330
87
100
AcDbEntity
  8
003
 62
     3
370
    30
100
AcDbLine
 10
493.262804
 20
2113.090741
 30
0.0
 11
493.262804
 21
2113.090752
 31
0.0
  0
LINE
  5
96
330
87
100
AcDbEntity
  8
003
 62
     3
370
    30
100
AcDbLine
 10
493.262804
 20
2113.090741
 30
0.0
 11
493.262815
 21
2113.090741
 31
0.0
  0
LINE
  5
97
330
87
100
AcDbEntity
  8
003
 62
     3
370
    30
100
AcDbLine
 10
493.262815
 20
2113.090741
 30
0.0
 11
493.262815
 21
2113.090752
 31
0.0
  0
ENDBLK
  5
89
330
87
100
AcDbEntity
  8
0
100
AcDbBlockEnd
  0
BLOCK
  5
99
330
98
100
AcDbEntity
  8
0
100
AcDbBlockBegin
  2
JZB-6
 70
     0
 10
0.0
 20
0.0
 30
0.0
  3
JZB-6
  1

  0
LINE
  5
9B
330
98
100
AcDbEntity
  8
003
 62
     3
370
    30
100
AcDbLine
 10
425.808968
 20
2117.897921
 30
0.0
 11
425.808968
 21
2113.090752
 31
0.0
  0
LINE
  5
9C
330
98
100
AcDbEntity
  8
003
 62
     3
370
    30
100
AcDbLine
 10
424.608968
 20
2118.590741
 30
0.0
 11
412.008968
 21
2118.590741
 31
0.0
  0
LINE
  5
9D
330
98
100
AcDbEntity
  8
003
 62
     3
370
    30
100
AcDbLine
 10
424.608968
 20
2118.590741
 30
0.0
 11
425.808968
 21
2117.897921
 31
0.0
  0
LINE
  5
9E
330
98
100
AcDbEntity
  8
003
 62
     3
370
    30
100
AcDbLine
 10
412.008968
 20
2118.590741
 30
0.0
 11
410.808968
 21
2117.897921
 31
0.0
  0
LINE
  5
9F
330
98
100
AcDbEntity
  8
003
 62
     3
370
    30
100
AcDbLine
 10
422.058968
 20
2113.090752
 30
0.0
 11
422.058968
 21
2117.897921
 31
0.0
  0
ARC
  5
A0
330
98
100
AcDbEntity
  8
003
 62
     3
370
    30
100
AcDbCircle
 10
412.683968
 20
2115.707147
 30
0.0
 40
2.883593961663502
100
AcDbArc
 50
49.441037
 51
90.0
  0
ARC
  5
A1
330
98
100
AcDbEntity
  8
003
 62
     3
370
    30
100
AcDbCircle
 10
423.933968
 20
2115.707147
 30
0.0
 40
2.883593961663502
100
AcDbArc
 50
90.0
 51
130.558963
  0
ARC
  5
A2
330
98
100
AcDbEntity
  8
003
 62
     3
370
    30
100
AcDbCircle
 10
418.308968
 20
2108.095596
 30
0.0
 40
10.4951453621126
100
AcDbArc
 50
69.065034
 51
110.934966
  0
LINE
  5
A3
330
98
100
AcDbEntity
  8
003
 62
     3
370
    30
100
AcDbLine
 10
418.308962
 20
2113.090741
 30
0.0
 11
418.308962
 21
2113.090752
 31
0.0
  0
LINE
  5
A4
330
98
100
AcDbEntity
  8
003
 62
     3
370
    30
100
AcDbLine
 10
418.308962
 20
2113.090741
 30
0.0
 11
418.308973
 21
2113.090741
 31
0.0
  0
LINE
  5
A5
330
98
100
AcDbEntity
  8
003
 62
     3
370
    30
100
AcDbLine
 10
418.308973
 20
2113.090741
 30
0.0
 11
418.308973
 21
2113.090752
 31
0.0
  0
LINE
  5
A6
330
98
100
AcDbEntity
  8
003
 62
     3
370
    30
100
AcDbLine
 10
414.558968
 20
2113.828095
 30
0.0
 11
414.558968
 21
2117.897921
 31
0.0
  0
LINE
  5
A7
330
98
100
AcDbEntity
  8
003
 62
     3
370
    30
100
AcDbLine
 10
410.808968
 20
2117.897921
 30
0.0
 11
410.808968
 21
2115.403627
 31
0.0
  0
LINE
  5
A8
330
98
100
AcDbEntity
  8
003
 62
     3
370
    30
100
AcDbLine
 10
425.808968
 20
2113.090752
 30
0.0
 11
416.211509
 21
2113.090752
 31
0.0
  0
ENDBLK
  5
9A
330
98
100
AcDbEntity
  8
0
100
AcDbBlockEnd
  0
BLOCK
  5
AA
330
A9
100
AcDbEntity
  8
0
100
AcDbBlockBegin
  2
JZB-7
 70
     0
 10
0.0
 20
0.0
 30
0.0
  3
JZB-7
  1

  0
LINE
  5
AC
330
A9
100
AcDbEntity
  8
002
 62
     3
370
    30
100
AcDbLine
 10
2058.688362
 20
592.558882
 30
0.0
 11
2058.688663
 21
600.064436
 31
0.0
  0
LINE
  5
AD
330
A9
100
AcDbEntity
  8
002
 62
     3
370
    30
100
AcDbLine
 10
2071.688362
 20
592.55836
 30
0.0
 11
2071.688663
 21
600.063913
 31
0.0
  0
LINE
  5
AE
330
A9
100
AcDbEntity
  8
002
 62
     3
370
    30
100
AcDbLine
 10
2065.188211
 20
588.805844
 30
0.0
 11
2071.688362
 21
592.55836
 31
0.0
  0
LINE
  5
AF
330
A9
100
AcDbEntity
  8
002
 62
     3
370
    30
100
AcDbLine
 10
2065.188814
 20
603.816951
 30
0.0
 11
2058.688663
 21
600.064436
 31
0.0
  0
LINE
  5
B0
330
A9
100
AcDbEntity
  8
002
 62
     3
370
    30
100
AcDbLine
 10
2071.688663
 20
600.063913
 30
0.0
 11
2065.188814
 21
603.816951
 31
0.0
  0
LINE
  5
B1
330
A9
100
AcDbEntity
  8
002
 62
     3
370
    30
100
AcDbLine
 10
2058.688362
 20
592.558882
 30
0.0
 11
2065.188211
 21
588.805844
 31
0.0
  0
CIRCLE
  5
B2
330
A9
100
AcDbEntity
  8
002
 62
     3
370
    30
100
AcDbCircle
 10
2065.188512
 20
596.311398
 30
0.0
 40
6.5
  0
ENDBLK
  5
AB
330
A9
100
AcDbEntity
  8
0
100
AcDbBlockEnd
  0
BLOCK
  5
B4
330
B3
100
AcDbEntity
  8
0
100
AcDbBlockBegin
  2
JZB-8
 70
     0
 10
0.0
 20
0.0
 30
0.0
  3
JZB-8
  1

  0
LINE
  5
B6
330
B3
100
AcDbEntity
  8
002
 62
     3
370
    30
100
AcDbLine
 10
2025.768873
 20
573.538589
 30
0.0
 11
2020.461859
 21
578.84603
 31
0.0
  0
LINE
  5
B7
330
B3
100
AcDbEntity
  8
002
 62
     3
370
    30
100
AcDbLine
 10
2034.961631
 20
582.730608
 30
0.0
 11
2029.654616
 21
588.038049
 31
0.0
  0
LINE
  5
B8
330
B3
100
AcDbEntity
  8
002
 62
     3
370
    30
100
AcDbLine
 10
2033.018759
 20
575.480878
 30
0.0
 11
2034.961631
 21
582.730608
 31
0.0
  0
LINE
  5
B9
330
B3
100
AcDbEntity
  8
002
 62
     3
370
    30
100
AcDbLine
 10
2022.40473
 20
586.09576
 30
0.0
 11
2020.461859
 21
578.84603
 31
0.0
  0
LINE
  5
BA
330
B3
100
AcDbEntity
  8
002
 62
     3
370
    30
100
AcDbLine
 10
2029.654616
 20
588.038049
 30
0.0
 11
2022.40473
 21
586.09576
 31
0.0
  0
LINE
  5
BB
330
B3
100
AcDbEntity
  8
002
 62
     3
370
    30
100
AcDbLine
 10
2025.768873
 20
573.538589
 30
0.0
 11
2033.018759
 21
575.480878
 31
0.0
  0
CIRCLE
  5
BC
330
B3
100
AcDbEntity
  8
002
 62
     3
370
    30
100
AcDbCircle
 10
2027.711745
 20
580.788319
 30
0.0
 40
6.5
  0
ENDBLK
  5
B5
330
B3
100
AcDbEntity
  8
0
100
AcDbBlockEnd
  0
BLOCK
  5
BE
330
BD
100
AcDbEntity
  8
0
100
AcDbBlockBegin
  2
JZB-9
 70
     0
 10
0.0
 20
0.0
 30
0.0
  3
JZB-9
  1

  0
LINE
  5
C0
330
BD
100
AcDbEntity
  8
002
 62
     3
370
    30
100
AcDbLine
 10
2015.940658
 20
536.811617
 30
0.0
 11
2008.435105
 21
536.811918
 31
0.0
  0
LINE
  5
C1
330
BD
100
AcDbEntity
  8
002
 62
     3
370
    30
100
AcDbLine
 10
2015.94118
 20
549.811617
 30
0.0
 11
2008.435627
 21
549.811918
 31
0.0
  0
LINE
  5
C2
330
BD
100
AcDbEntity
  8
002
 62
     3
370
    30
100
AcDbLine
 10
2019.693696
 20
543.311466
 30
0.0
 11
2015.94118
 21
549.811617
 31
0.0
  0
LINE
  5
C3
330
BD
100
AcDbEntity
  8
002
 62
     3
370
    30
100
AcDbLine
 10
2004.682589
 20
543.312069
 30
0.0
 11
2008.435105
 21
536.811918
 31
0.0
  0
LINE
  5
C4
330
BD
100
AcDbEntity
  8
002
 62
     3
370
    30
100
AcDbLine
 10
2008.435627
 20
549.811918
 30
0.0
 11
2004.682589
 21
543.312069
 31
0.0
  0
LINE
  5
C5
330
BD
100
AcDbEntity
  8
002
 62
     3
370
    30
100
AcDbLine
 10
2015.940658
 20
536.811617
 30
0.0
 11
2019.693696
 21
543.311466
 31
0.0
  0
CIRCLE
  5
C6
330
BD
100
AcDbEntity
  8
002
 62
     3
370
    30
100
AcDbCircle
 10
2012.188143
 20
543.311767
 30
0.0
 40
6.5
  0
ENDBLK
  5
BF
330
BD
100
AcDbEntity
  8
0
100
AcDbBlockEnd
  0
BLOCK
  5
C8
330
C7
100
AcDbEntity
  8
0
100
AcDbBlockBegin
  2
JZB-10
 70
     0
 10
0.0
 20
0.0
 30
0.0
  3
JZB-10
  1

  0
LINE
  5
CA
330
C7
100
AcDbEntity
  8
002
 62
     3
370
    30
100
AcDbLine
 10
2034.960952
 20
503.892128
 30
0.0
 11
2029.653511
 21
498.585114
 31
0.0
  0
LINE
  5
CB
330
C7
100
AcDbEntity
  8
002
 62
     3
370
    30
100
AcDbLine
 10
2025.768933
 20
513.084886
 30
0.0
 11
2020.461492
 21
507.777871
 31
0.0
  0
LINE
  5
CC
330
C7
100
AcDbEntity
  8
002
 62
     3
370
    30
100
AcDbLine
 10
2033.018663
 20
511.142014
 30
0.0
 11
2025.768933
 21
513.084886
 31
0.0
  0
LINE
  5
CD
330
C7
100
AcDbEntity
  8
002
 62
     3
370
    30
100
AcDbLine
 10
2022.403781
 20
500.527985
 30
0.0
 11
2029.653511
 21
498.585114
 31
0.0
  0
LINE
  5
CE
330
C7
100
AcDbEntity
  8
002
 62
     3
370
    30
100
AcDbLine
 10
2020.461492
 20
507.777871
 30
0.0
 11
2022.403781
 21
500.527985
 31
0.0
  0
LINE
  5
CF
330
C7
100
AcDbEntity
  8
002
 62
     3
370
    30
100
AcDbLine
 10
2034.960952
 20
503.892128
 30
0.0
 11
2033.018663
 21
511.142014
 31
0.0
  0
CIRCLE
  5
D0
330
C7
100
AcDbEntity
  8
002
 62
     3
370
    30
100
AcDbCircle
 10
2027.711222
 20
505.835
 30
0.0
 40
6.5
  0
ENDBLK
  5
C9
330
C7
100
AcDbEntity
  8
0
100
AcDbBlockEnd
  0
BLOCK
  5
D2
330
D1
100
AcDbEntity
  8
0
100
AcDbBlockBegin
  2
JZB-11
 70
     0
 10
0.0
 20
0.0
 30
0.0
  3
JZB-11
  1

  0
LINE
  5
D4
330
D1
100
AcDbEntity
  8
002
 62
     3
370
    30
100
AcDbLine
 10
2071.687924
 20
494.063913
 30
0.0
 11
2071.687622
 21
486.55836
 31
0.0
  0
LINE
  5
D5
330
D1
100
AcDbEntity
  8
002
 62
     3
370
    30
100
AcDbLine
 10
2058.687924
 20
494.064436
 30
0.0
 11
2058.687622
 21
486.558882
 31
0.0
  0
LINE
  5
D6
330
D1
100
AcDbEntity
  8
002
 62
     3
370
    30
100
AcDbLine
 10
2065.188074
 20
497.816951
 30
0.0
 11
2058.687924
 21
494.064436
 31
0.0
  0
LINE
  5
D7
330
D1
100
AcDbEntity
  8
002
 62
     3
370
    30
100
AcDbLine
 10
2065.187472
 20
482.805844
 30
0.0
 11
2071.687622
 21
486.55836
 31
0.0
  0
LINE
  5
D8
330
D1
100
AcDbEntity
  8
002
 62
     3
370
    30
100
AcDbLine
 10
2058.687622
 20
486.558882
 30
0.0
 11
2065.187472
 21
482.805844
 31
0.0
  0
LINE
  5
D9
330
D1
100
AcDbEntity
  8
002
 62
     3
370
    30
100
AcDbLine
 10
2071.687924
 20
494.063913
 30
0.0
 11
2065.188074
 21
497.816951
 31
0.0
  0
CIRCLE
  5
DA
330
D1
100
AcDbEntity
  8
002
 62
     3
370
    30
100
AcDbCircle
 10
2065.187773
 20
490.311398
 30
0.0
 40
6.5
  0
ENDBLK
  5
D3
330
D1
100
AcDbEntity
  8
0
100
AcDbBlockEnd
  0
BLOCK
  5
DC
330
DB
100
AcDbEntity
  8
0
100
AcDbBlockBegin
  2
JZB-12
 70
     0
 10
0.0
 20
0.0
 30
0.0
  3
JZB-12
  1

  0
LINE
  5
DE
330
DB
100
AcDbEntity
  8
002
 62
     3
370
    30
100
AcDbLine
 10
2104.607412
 20
513.084207
 30
0.0
 11
2109.914427
 21
507.776766
 31
0.0
  0
LINE
  5
DF
330
DB
100
AcDbEntity
  8
002
 62
     3
370
    30
100
AcDbLine
 10
2095.414655
 20
503.892188
 30
0.0
 11
2100.721669
 21
498.584747
 31
0.0
  0
LINE
  5
E0
330
DB
100
AcDbEntity
  8
002
 62
     3
370
    30
100
AcDbLine
 10
2097.357526
 20
511.141918
 30
0.0
 11
2095.414655
 21
503.892188
 31
0.0
  0
LINE
  5
E1
330
DB
100
AcDbEntity
  8
002
 62
     3
370
    30
100
AcDbLine
 10
2107.971555
 20
500.527036
 30
0.0
 11
2109.914427
 21
507.776766
 31
0.0
  0
LINE
  5
E2
330
DB
100
AcDbEntity
  8
002
 62
     3
370
    30
100
AcDbLine
 10
2100.721669
 20
498.584747
 30
0.0
 11
2107.971555
 21
500.527036
 31
0.0
  0
LINE
  5
E3
330
DB
100
AcDbEntity
  8
002
 62
     3
370
    30
100
AcDbLine
 10
2104.607412
 20
513.084207
 30
0.0
 11
2097.357526
 21
511.141918
 31
0.0
  0
CIRCLE
  5
E4
330
DB
100
AcDbEntity
  8
002
 62
     3
370
    30
100
AcDbCircle
 10
2102.664541
 20
505.834477
 30
0.0
 40
6.5
  0
ENDBLK
  5
DD
330
DB
100
AcDbEntity
  8
0
100
AcDbBlockEnd
  0
BLOCK
  5
E6
330
E5
100
AcDbEntity
  8
0
100
AcDbBlockBegin
  2
JZB-13
 70
     0
 10
0.0
 20
0.0
 30
0.0
  3
JZB-13
  1

  0
LINE
  5
E8
330
E5
100
AcDbEntity
  8
002
 62
     3
370
    30
100
AcDbLine
 10
2095.415334
 20
582.730667
 30
0.0
 11
2100.722774
 21
588.037682
 31
0.0
  0
LINE
  5
E9
330
E5
100
AcDbEntity
  8
002
 62
     3
370
    30
100
AcDbLine
 10
2104.607353
 20
573.53791
 30
0.0
 11
2109.914793
 21
578.844924
 31
0.0
  0
LINE
  5
EA
330
E5
100
AcDbEntity
  8
002
 62
     3
370
    30
100
AcDbLine
 10
2097.357623
 20
575.480781
 30
0.0
 11
2104.607353
 21
573.53791
 31
0.0
  0
LINE
  5
EB
330
E5
100
AcDbEntity
  8
002
 62
     3
370
    30
100
AcDbLine
 10
2107.972504
 20
586.09481
 30
0.0
 11
2100.722774
 21
588.037682
 31
0.0
  0
LINE
  5
EC
330
E5
100
AcDbEntity
  8
002
 62
     3
370
    30
100
AcDbLine
 10
2109.914793
 20
578.844924
 30
0.0
 11
2107.972504
 21
586.09481
 31
0.0
  0
LINE
  5
ED
330
E5
100
AcDbEntity
  8
002
 62
     3
370
    30
100
AcDbLine
 10
2095.415334
 20
582.730667
 30
0.0
 11
2097.357623
 21
575.480781
 31
0.0
  0
CIRCLE
  5
EE
330
E5
100
AcDbEntity
  8
002
 62
     3
370
    30
100
AcDbCircle
 10
2102.665063
 20
580.787796
 30
0.0
 40
6.5
  0
ENDBLK
  5
E7
330
E5
100
AcDbEntity
  8
0
100
AcDbBlockEnd
  0
BLOCK
  5
F0
330
EF
100
AcDbEntity
  8
0
100
AcDbBlockBegin
  2
JZB-14
 70
     0
 10
0.0
 20
0.0
 30
0.0
  3
JZB-14
  1

  0
LINE
  5
F2
330
EF
100
AcDbEntity
  8
002
 62
     3
370
    30
100
AcDbLine
 10
1568.688362
 20
592.558882
 30
0.0
 11
1568.688663
 21
600.064436
 31
0.0
  0
LINE
  5
F3
330
EF
100
AcDbEntity
  8
002
 62
     3
370
    30
100
AcDbLine
 10
1581.688362
 20
592.55836
 30
0.0
 11
1581.688663
 21
600.063913
 31
0.0
  0
LINE
  5
F4
330
EF
100
AcDbEntity
  8
002
 62
     3
370
    30
100
AcDbLine
 10
1575.188211
 20
588.805844
 30
0.0
 11
1581.688362
 21
592.55836
 31
0.0
  0
LINE
  5
F5
330
EF
100
AcDbEntity
  8
002
 62
     3
370
    30
100
AcDbLine
 10
1575.188814
 20
603.816951
 30
0.0
 11
1568.688663
 21
600.064436
 31
0.0
  0
LINE
  5
F6
330
EF
100
AcDbEntity
  8
002
 62
     3
370
    30
100
AcDbLine
 10
1581.688663
 20
600.063913
 30
0.0
 11
1575.188814
 21
603.816951
 31
0.0
  0
LINE
  5
F7
330
EF
100
AcDbEntity
  8
002
 62
     3
370
    30
100
AcDbLine
 10
1568.688362
 20
592.558882
 30
0.0
 11
1575.188211
 21
588.805844
 31
0.0
  0
CIRCLE
  5
F8
330
EF
100
AcDbEntity
  8
002
 62
     3
370
    30
100
AcDbCircle
 10
1575.188512
 20
596.311398
 30
0.0
 40
6.5
  0
ENDBLK
  5
F1
330
EF
100
AcDbEntity
  8
0
100
AcDbBlockEnd
  0
BLOCK
  5
FA
330
F9
100
AcDbEntity
  8
0
100
AcDbBlockBegin
  2
JZB-15
 70
     0
 10
0.0
 20
0.0
 30
0.0
  3
JZB-15
  1

  0
LINE
  5
FC
330
F9
100
AcDbEntity
  8
002
 62
     3
370
    30
100
AcDbLine
 10
1535.768873
 20
573.538589
 30
0.0
 11
1530.461859
 21
578.84603
 31
0.0
  0
LINE
  5
FD
330
F9
100
AcDbEntity
  8
002
 62
     3
370
    30
100
AcDbLine
 10
1544.961631
 20
582.730608
 30
0.0
 11
1539.654616
 21
588.038049
 31
0.0
  0
LINE
  5
FE
330
F9
100
AcDbEntity
  8
002
 62
     3
370
    30
100
AcDbLine
 10
1543.018759
 20
575.480878
 30
0.0
 11
1544.961631
 21
582.730608
 31
0.0
  0
LINE
  5
FF
330
F9
100
AcDbEntity
  8
002
 62
     3
370
    30
100
AcDbLine
 10
1532.40473
 20
586.09576
 30
0.0
 11
1530.461859
 21
578.84603
 31
0.0
  0
LINE
  5
100
330
F9
100
AcDbEntity
  8
002
 62
     3
370
    30
100
AcDbLine
 10
1539.654616
 20
588.038049
 30
0.0
 11
1532.40473
 21
586.09576
 31
0.0
  0
LINE
  5
101
330
F9
100
AcDbEntity
  8
002
 62
     3
370
    30
100
AcDbLine
 10
1535.768873
 20
573.538589
 30
0.0
 11
1543.018759
 21
575.480878
 31
0.0
  0
CIRCLE
  5
102
330
F9
100
AcDbEntity
  8
002
 62
     3
370
    30
100
AcDbCircle
 10
1537.711745
 20
580.788319
 30
0.0
 40
6.5
  0
ENDBLK
  5
FB
330
F9
100
AcDbEntity
  8
0
100
AcDbBlockEnd
  0
BLOCK
  5
104
330
103
100
AcDbEntity
  8
0
100
AcDbBlockBegin
  2
JZB-16
 70
     0
 10
0.0
 20
0.0
 30
0.0
  3
JZB-16
  1

  0
LINE
  5
106
330
103
100
AcDbEntity
  8
002
 62
     3
370
    30
100
AcDbLine
 10
1525.940658
 20
536.811617
 30
0.0
 11
1518.435105
 21
536.811918
 31
0.0
  0
LINE
  5
107
330
103
100
AcDbEntity
  8
002
 62
     3
370
    30
100
AcDbLine
 10
1525.94118
 20
549.811617
 30
0.0
 11
1518.435627
 21
549.811918
 31
0.0
  0
LINE
  5
108
330
103
100
AcDbEntity
  8
002
 62
     3
370
    30
100
AcDbLine
 10
1529.693696
 20
543.311466
 30
0.0
 11
1525.94118
 21
549.811617
 31
0.0
  0
LINE
  5
109
330
103
100
AcDbEntity
  8
002
 62
     3
370
    30
100
AcDbLine
 10
1514.682589
 20
543.312069
 30
0.0
 11
1518.435105
 21
536.811918
 31
0.0
  0
LINE
  5
10A
330
103
100
AcDbEntity
  8
002
 62
     3
370
    30
100
AcDbLine
 10
1518.435627
 20
549.811918
 30
0.0
 11
1514.682589
 21
543.312069
 31
0.0
  0
LINE
  5
10B
330
103
100
AcDbEntity
  8
002
 62
     3
370
    30
100
AcDbLine
 10
1525.940658
 20
536.811617
 30
0.0
 11
1529.693696
 21
543.311466
 31
0.0
  0
CIRCLE
  5
10C
330
103
100
AcDbEntity
  8
002
 62
     3
370
    30
100
AcDbCircle
 10
1522.188143
 20
543.311767
 30
0.0
 40
6.5
  0
ENDBLK
  5
105
330
103
100
AcDbEntity
  8
0
100
AcDbBlockEnd
  0
BLOCK
  5
10E
330
10D
100
AcDbEntity
  8
0
100
AcDbBlockBegin
  2
JZB-17
 70
     0
 10
0.0
 20
0.0
 30
0.0
  3
JZB-17
  1

  0
LINE
  5
110
330
10D
100
AcDbEntity
  8
002
 62
     3
370
    30
100
AcDbLine
 10
1544.960952
 20
503.892128
 30
0.0
 11
1539.653511
 21
498.585114
 31
0.0
  0
LINE
  5
111
330
10D
100
AcDbEntity
  8
002
 62
     3
370
    30
100
AcDbLine
 10
1535.768933
 20
513.084886
 30
0.0
 11
1530.461492
 21
507.777871
 31
0.0
  0
LINE
  5
112
330
10D
100
AcDbEntity
  8
002
 62
     3
370
    30
100
AcDbLine
 10
1543.018663
 20
511.142014
 30
0.0
 11
1535.768933
 21
513.084886
 31
0.0
  0
LINE
  5
113
330
10D
100
AcDbEntity
  8
002
 62
     3
370
    30
100
AcDbLine
 10
1532.403781
 20
500.527985
 30
0.0
 11
1539.653511
 21
498.585114
 31
0.0
  0
LINE
  5
114
330
10D
100
AcDbEntity
  8
002
 62
     3
370
    30
100
AcDbLine
 10
1530.461492
 20
507.777871
 30
0.0
 11
1532.403781
 21
500.527985
 31
0.0
  0
LINE
  5
115
330
10D
100
AcDbEntity
  8
002
 62
     3
370
    30
100
AcDbLine
 10
1544.960952
 20
503.892128
 30
0.0
 11
1543.018663
 21
511.142014
 31
0.0
  0
CIRCLE
  5
116
330
10D
100
AcDbEntity
  8
002
 62
     3
370
    30
100
AcDbCircle
 10
1537.711222
 20
505.835
 30
0.0
 40
6.5
  0
ENDBLK
  5
10F
330
10D
100
AcDbEntity
  8
0
100
AcDbBlockEnd
  0
BLOCK
  5
118
330
117
100
AcDbEntity
  8
0
100
AcDbBlockBegin
  2
JZB-18
 70
     0
 10
0.0
 20
0.0
 30
0.0
  3
JZB-18
  1

  0
LINE
  5
11A
330
117
100
AcDbEntity
  8
002
 62
     3
370
    30
100
AcDbLine
 10
1581.687924
 20
494.063913
 30
0.0
 11
1581.687622
 21
486.55836
 31
0.0
  0
LINE
  5
11B
330
117
100
AcDbEntity
  8
002
 62
     3
370
    30
100
AcDbLine
 10
1568.687924
 20
494.064436
 30
0.0
 11
1568.687622
 21
486.558882
 31
0.0
  0
LINE
  5
11C
330
117
100
AcDbEntity
  8
002
 62
     3
370
    30
100
AcDbLine
 10
1575.188074
 20
497.816951
 30
0.0
 11
1568.687924
 21
494.064436
 31
0.0
  0
LINE
  5
11D
330
117
100
AcDbEntity
  8
002
 62
     3
370
    30
100
AcDbLine
 10
1575.187472
 20
482.805844
 30
0.0
 11
1581.687622
 21
486.55836
 31
0.0
  0
LINE
  5
11E
330
117
100
AcDbEntity
  8
002
 62
     3
370
    30
100
AcDbLine
 10
1568.687622
 20
486.558882
 30
0.0
 11
1575.187472
 21
482.805844
 31
0.0
  0
LINE
  5
11F
330
117
100
AcDbEntity
  8
002
 62
     3
370
    30
100
AcDbLine
 10
1581.687924
 20
494.063913
 30
0.0
 11
1575.188074
 21
497.816951
 31
0.0
  0
CIRCLE
  5
120
330
117
100
AcDbEntity
  8
002
 62
     3
370
    30
100
AcDbCircle
 10
1575.187773
 20
490.311398
 30
0.0
 40
6.5
  0
ENDBLK
  5
119
330
117
100
AcDbEntity
  8
0
100
AcDbBlockEnd
  0
BLOCK
  5
122
330
121
100
AcDbEntity
  8
0
100
AcDbBlockBegin
  2
JZB-19
 70
     0
 10
0.0
 20
0.0
 30
0.0
  3
JZB-19
  1

  0
LINE
  5
124
330
121
100
AcDbEntity
  8
002
 62
     3
370
    30
100
AcDbLine
 10
1614.607412
 20
513.084207
 30
0.0
 11
1619.914427
 21
507.776766
 31
0.0
  0
LINE
  5
125
330
121
100
AcDbEntity
  8
002
 62
     3
370
    30
100
AcDbLine
 10
1605.414655
 20
503.892188
 30
0.0
 11
1610.721669
 21
498.584747
 31
0.0
  0
LINE
  5
126
330
121
100
AcDbEntity
  8
002
 62
     3
370
    30
100
AcDbLine
 10
1607.357526
 20
511.141918
 30
0.0
 11
1605.414655
 21
503.892188
 31
0.0
  0
LINE
  5
127
330
121
100
AcDbEntity
  8
002
 62
     3
370
    30
100
AcDbLine
 10
1617.971555
 20
500.527036
 30
0.0
 11
1619.914427
 21
507.776766
 31
0.0
  0
LINE
  5
128
330
121
100
AcDbEntity
  8
002
 62
     3
370
    30
100
AcDbLine
 10
1610.721669
 20
498.584747
 30
0.0
 11
1617.971555
 21
500.527036
 31
0.0
  0
LINE
  5
129
330
121
100
AcDbEntity
  8
002
 62
     3
370
    30
100
AcDbLine
 10
1614.607412
 20
513.084207
 30
0.0
 11
1607.357526
 21
511.141918
 31
0.0
  0
CIRCLE
  5
12A
330
121
100
AcDbEntity
  8
002
 62
     3
370
    30
100
AcDbCircle
 10
1612.664541
 20
505.834477
 30
0.0
 40
6.5
  0
ENDBLK
  5
123
330
121
100
AcDbEntity
  8
0
100
AcDbBlockEnd
  0
BLOCK
  5
12C
330
12B
100
AcDbEntity
  8
0
100
AcDbBlockBegin
  2
JZB-20
 70
     0
 10
0.0
 20
0.0
 30
0.0
  3
JZB-20
  1

  0
LINE
  5
12E
330
12B
100
AcDbEntity
  8
002
 62
     3
370
    30
100
AcDbLine
 10
1605.415334
 20
582.730667
 30
0.0
 11
1610.722774
 21
588.037682
 31
0.0
  0
LINE
  5
12F
330
12B
100
AcDbEntity
  8
002
 62
     3
370
    30
100
AcDbLine
 10
1614.607353
 20
573.53791
 30
0.0
 11
1619.914793
 21
578.844924
 31
0.0
  0
LINE
  5
130
330
12B
100
AcDbEntity
  8
002
 62
     3
370
    30
100
AcDbLine
 10
1607.357623
 20
575.480781
 30
0.0
 11
1614.607353
 21
573.53791
 31
0.0
  0
LINE
  5
131
330
12B
100
AcDbEntity
  8
002
 62
     3
370
    30
100
AcDbLine
 10
1617.972504
 20
586.09481
 30
0.0
 11
1610.722774
 21
588.037682
 31
0.0
  0
LINE
  5
132
330
12B
100
AcDbEntity
  8
002
 62
     3
370
    30
100
AcDbLine
 10
1619.914793
 20
578.844924
 30
0.0
 11
1617.972504
 21
586.09481
 31
0.0
  0
LINE
  5
133
330
12B
100
AcDbEntity
  8
002
 62
     3
370
    30
100
AcDbLine
 10
1605.415334
 20
582.730667
 30
0.0
 11
1607.357623
 21
575.480781
 31
0.0
  0
CIRCLE
  5
134
330
12B
100
AcDbEntity
  8
002
 62
     3
370
    30
100
AcDbCircle
 10
1612.665063
 20
580.787796
 30
0.0
 40
6.5
  0
ENDBLK
  5
12D
330
12B
100
AcDbEntity
  8
0
100
AcDbBlockEnd
  0
BLOCK
  5
136
330
135
100
AcDbEntity
  8
0
100
AcDbBlockBegin
  2
JZB-21
 70
     0
 10
0.0
 20
0.0
 30
0.0
  3
JZB-21
  1

  0
LINE
  5
138
330
135
100
AcDbEntity
  8
002
 62
     3
370
    30
100
AcDbLine
 10
1142.268734
 20
592.558882
 30
0.0
 11
1142.269035
 21
600.064436
 31
0.0
  0
LINE
  5
139
330
135
100
AcDbEntity
  8
002
 62
     3
370
    30
100
AcDbLine
 10
1155.268734
 20
592.55836
 30
0.0
 11
1155.269035
 21
600.063913
 31
0.0
  0
LINE
  5
13A
330
135
100
AcDbEntity
  8
002
 62
     3
370
    30
100
AcDbLine
 10
1148.768583
 20
588.805844
 30
0.0
 11
1155.268734
 21
592.55836
 31
0.0
  0
LINE
  5
13B
330
135
100
AcDbEntity
  8
002
 62
     3
370
    30
100
AcDbLine
 10
1148.769186
 20
603.816951
 30
0.0
 11
1142.269035
 21
600.064436
 31
0.0
  0
LINE
  5
13C
330
135
100
AcDbEntity
  8
002
 62
     3
370
    30
100
AcDbLine
 10
1155.269035
 20
600.063913
 30
0.0
 11
1148.769186
 21
603.816951
 31
0.0
  0
LINE
  5
13D
330
135
100
AcDbEntity
  8
002
 62
     3
370
    30
100
AcDbLine
 10
1142.268734
 20
592.558882
 30
0.0
 11
1148.768583
 21
588.805844
 31
0.0
  0
CIRCLE
  5
13E
330
135
100
AcDbEntity
  8
002
 62
     3
370
    30
100
AcDbCircle
 10
1148.768884
 20
596.311398
 30
0.0
 40
6.5
  0
ENDBLK
  5
137
330
135
100
AcDbEntity
  8
0
100
AcDbBlockEnd
  0
BLOCK
  5
140
330
13F
100
AcDbEntity
  8
0
100
AcDbBlockBegin
  2
JZB-22
 70
     0
 10
0.0
 20
0.0
 30
0.0
  3
JZB-22
  1

  0
LINE
  5
142
330
13F
100
AcDbEntity
  8
002
 62
     3
370
    30
100
AcDbLine
 10
1109.349245
 20
573.538589
 30
0.0
 11
1104.042231
 21
578.84603
 31
0.0
  0
LINE
  5
143
330
13F
100
AcDbEntity
  8
002
 62
     3
370
    30
100
AcDbLine
 10
1118.542003
 20
582.730608
 30
0.0
 11
1113.234988
 21
588.038049
 31
0.0
  0
LINE
  5
144
330
13F
100
AcDbEntity
  8
002
 62
     3
370
    30
100
AcDbLine
 10
1116.599131
 20
575.480878
 30
0.0
 11
1118.542003
 21
582.730608
 31
0.0
  0
LINE
  5
145
330
13F
100
AcDbEntity
  8
002
 62
     3
370
    30
100
AcDbLine
 10
1105.985102
 20
586.09576
 30
0.0
 11
1104.042231
 21
578.84603
 31
0.0
  0
LINE
  5
146
330
13F
100
AcDbEntity
  8
002
 62
     3
370
    30
100
AcDbLine
 10
1113.234988
 20
588.038049
 30
0.0
 11
1105.985102
 21
586.09576
 31
0.0
  0
LINE
  5
147
330
13F
100
AcDbEntity
  8
002
 62
     3
370
    30
100
AcDbLine
 10
1109.349245
 20
573.538589
 30
0.0
 11
1116.599131
 21
575.480878
 31
0.0
  0
CIRCLE
  5
148
330
13F
100
AcDbEntity
  8
002
 62
     3
370
    30
100
AcDbCircle
 10
1111.292117
 20
580.788319
 30
0.0
 40
6.5
  0
ENDBLK
  5
141
330
13F
100
AcDbEntity
  8
0
100
AcDbBlockEnd
  0
BLOCK
  5
14A
330
149
100
AcDbEntity
  8
0
100
AcDbBlockBegin
  2
JZB-23
 70
     0
 10
0.0
 20
0.0
 30
0.0
  3
JZB-23
  1

  0
LINE
  5
14C
330
149
100
AcDbEntity
  8
002
 62
     3
370
    30
100
AcDbLine
 10
1099.52103
 20
536.811617
 30
0.0
 11
1092.015477
 21
536.811918
 31
0.0
  0
LINE
  5
14D
330
149
100
AcDbEntity
  8
002
 62
     3
370
    30
100
AcDbLine
 10
1099.521552
 20
549.811617
 30
0.0
 11
1092.015999
 21
549.811918
 31
0.0
  0
LINE
  5
14E
330
149
100
AcDbEntity
  8
002
 62
     3
370
    30
100
AcDbLine
 10
1103.274068
 20
543.311466
 30
0.0
 11
1099.521552
 21
549.811617
 31
0.0
  0
LINE
  5
14F
330
149
100
AcDbEntity
  8
002
 62
     3
370
    30
100
AcDbLine
 10
1088.262961
 20
543.312069
 30
0.0
 11
1092.015477
 21
536.811918
 31
0.0
  0
LINE
  5
150
330
149
100
AcDbEntity
  8
002
 62
     3
370
    30
100
AcDbLine
 10
1092.015999
 20
549.811918
 30
0.0
 11
1088.262961
 21
543.312069
 31
0.0
  0
LINE
  5
151
330
149
100
AcDbEntity
  8
002
 62
     3
370
    30
100
AcDbLine
 10
1099.52103
 20
536.811617
 30
0.0
 11
1103.274068
 21
543.311466
 31
0.0
  0
CIRCLE
  5
152
330
149
100
AcDbEntity
  8
002
 62
     3
370
    30
100
AcDbCircle
 10
1095.768515
 20
543.311767
 30
0.0
 40
6.5
  0
ENDBLK
  5
14B
330
149
100
AcDbEntity
  8
0
100
AcDbBlockEnd
  0
BLOCK
  5
154
330
153
100
AcDbEntity
  8
0
100
AcDbBlockBegin
  2
JZB-24
 70
     0
 10
0.0
 20
0.0
 30
0.0
  3
JZB-24
  1

  0
LINE
  5
156
330
153
100
AcDbEntity
  8
002
 62
     3
370
    30
100
AcDbLine
 10
1118.541324
 20
503.892128
 30
0.0
 11
1113.233883
 21
498.585114
 31
0.0
  0
LINE
  5
157
330
153
100
AcDbEntity
  8
002
 62
     3
370
    30
100
AcDbLine
 10
1109.349305
 20
513.084886
 30
0.0
 11
1104.041864
 21
507.777871
 31
0.0
  0
LINE
  5
158
330
153
100
AcDbEntity
  8
002
 62
     3
370
    30
100
AcDbLine
 10
1116.599035
 20
511.142014
 30
0.0
 11
1109.349305
 21
513.084886
 31
0.0
  0
LINE
  5
159
330
153
100
AcDbEntity
  8
002
 62
     3
370
    30
100
AcDbLine
 10
1105.984153
 20
500.527985
 30
0.0
 11
1113.233883
 21
498.585114
 31
0.0
  0
LINE
  5
15A
330
153
100
AcDbEntity
  8
002
 62
     3
370
    30
100
AcDbLine
 10
1104.041864
 20
507.777871
 30
0.0
 11
1105.984153
 21
500.527985
 31
0.0
  0
LINE
  5
15B
330
153
100
AcDbEntity
  8
002
 62
     3
370
    30
100
AcDbLine
 10
1118.541324
 20
503.892128
 30
0.0
 11
1116.599035
 21
511.142014
 31
0.0
  0
CIRCLE
  5
15C
330
153
100
AcDbEntity
  8
002
 62
     3
370
    30
100
AcDbCircle
 10
1111.291594
 20
505.835
 30
0.0
 40
6.5
  0
ENDBLK
  5
155
330
153
100
AcDbEntity
  8
0
100
AcDbBlockEnd
  0
BLOCK
  5
15E
330
15D
100
AcDbEntity
  8
0
100
AcDbBlockBegin
  2
JZB-25
 70
     0
 10
0.0
 20
0.0
 30
0.0
  3
JZB-25
  1

  0
LINE
  5
160
330
15D
100
AcDbEntity
  8
002
 62
     3
370
    30
100
AcDbLine
 10
1155.268296
 20
494.063913
 30
0.0
 11
1155.267994
 21
486.55836
 31
0.0
  0
LINE
  5
161
330
15D
100
AcDbEntity
  8
002
 62
     3
370
    30
100
AcDbLine
 10
1142.268296
 20
494.064436
 30
0.0
 11
1142.267994
 21
486.558882
 31
0.0
  0
LINE
  5
162
330
15D
100
AcDbEntity
  8
002
 62
     3
370
    30
100
AcDbLine
 10
1148.768446
 20
497.816951
 30
0.0
 11
1142.268296
 21
494.064436
 31
0.0
  0
LINE
  5
163
330
15D
100
AcDbEntity
  8
002
 62
     3
370
    30
100
AcDbLine
 10
1148.767844
 20
482.805844
 30
0.0
 11
1155.267994
 21
486.55836
 31
0.0
  0
LINE
  5
164
330
15D
100
AcDbEntity
  8
002
 62
     3
370
    30
100
AcDbLine
 10
1142.267994
 20
486.558882
 30
0.0
 11
1148.767844
 21
482.805844
 31
0.0
  0
LINE
  5
165
330
15D
100
AcDbEntity
  8
002
 62
     3
370
    30
100
AcDbLine
 10
1155.268296
 20
494.063913
 30
0.0
 11
1148.768446
 21
497.816951
 31
0.0
  0
CIRCLE
  5
166
330
15D
100
AcDbEntity
  8
002
 62
     3
370
    30
100
AcDbCircle
 10
1148.768145
 20
490.311398
 30
0.0
 40
6.5
  0
ENDBLK
  5
15F
330
15D
100
AcDbEntity
  8
0
100
AcDbBlockEnd
  0
BLOCK
  5
168
330
167
100
AcDbEntity
  8
0
100
AcDbBlockBegin
  2
JZB-26
 70
     0
 10
0.0
 20
0.0
 30
0.0
  3
JZB-26
  1

  0
LINE
  5
16A
330
167
100
AcDbEntity
  8
002
 62
     3
370
    30
100
AcDbLine
 10
1188.187784
 20
513.084207
 30
0.0
 11
1193.494799
 21
507.776766
 31
0.0
  0
LINE
  5
16B
330
167
100
AcDbEntity
  8
002
 62
     3
370
    30
100
AcDbLine
 10
1178.995027
 20
503.892188
 30
0.0
 11
1184.302041
 21
498.584747
 31
0.0
  0
LINE
  5
16C
330
167
100
AcDbEntity
  8
002
 62
     3
370
    30
100
AcDbLine
 10
1180.937898
 20
511.141918
 30
0.0
 11
1178.995027
 21
503.892188
 31
0.0
  0
LINE
  5
16D
330
167
100
AcDbEntity
  8
002
 62
     3
370
    30
100
AcDbLine
 10
1191.551927
 20
500.527036
 30
0.0
 11
1193.494799
 21
507.776766
 31
0.0
  0
LINE
  5
16E
330
167
100
AcDbEntity
  8
002
 62
     3
370
    30
100
AcDbLine
 10
1184.302041
 20
498.584747
 30
0.0
 11
1191.551927
 21
500.527036
 31
0.0
  0
LINE
  5
16F
330
167
100
AcDbEntity
  8
002
 62
     3
370
    30
100
AcDbLine
 10
1188.187784
 20
513.084207
 30
0.0
 11
1180.937898
 21
511.141918
 31
0.0
  0
CIRCLE
  5
170
330
167
100
AcDbEntity
  8
002
 62
     3
370
    30
100
AcDbCircle
 10
1186.244913
 20
505.834477
 30
0.0
 40
6.5
  0
ENDBLK
  5
169
330
167
100
AcDbEntity
  8
0
100
AcDbBlockEnd
  0
BLOCK
  5
172
330
171
100
AcDbEntity
  8
0
100
AcDbBlockBegin
  2
JZB-27
 70
     0
 10
0.0
 20
0.0
 30
0.0
  3
JZB-27
  1

  0
LINE
  5
174
330
171
100
AcDbEntity
  8
002
 62
     3
370
    30
100
AcDbLine
 10
1178.995706
 20
582.730667
 30
0.0
 11
1184.303146
 21
588.037682
 31
0.0
  0
LINE
  5
175
330
171
100
AcDbEntity
  8
002
 62
     3
370
    30
100
AcDbLine
 10
1188.187725
 20
573.53791
 30
0.0
 11
1193.495165
 21
578.844924
 31
0.0
  0
LINE
  5
176
330
171
100
AcDbEntity
  8
002
 62
     3
370
    30
100
AcDbLine
 10
1180.937995
 20
575.480781
 30
0.0
 11
1188.187725
 21
573.53791
 31
0.0
  0
LINE
  5
177
330
171
100
AcDbEntity
  8
002
 62
     3
370
    30
100
AcDbLine
 10
1191.552876
 20
586.09481
 30
0.0
 11
1184.303146
 21
588.037682
 31
0.0
  0
LINE
  5
178
330
171
100
AcDbEntity
  8
002
 62
     3
370
    30
100
AcDbLine
 10
1193.495165
 20
578.844924
 30
0.0
 11
1191.552876
 21
586.09481
 31
0.0
  0
LINE
  5
179
330
171
100
AcDbEntity
  8
002
 62
     3
370
    30
100
AcDbLine
 10
1178.995706
 20
582.730667
 30
0.0
 11
1180.937995
 21
575.480781
 31
0.0
  0
CIRCLE
  5
17A
330
171
100
AcDbEntity
  8
002
 62
     3
370
    30
100
AcDbCircle
 10
1186.245435
 20
580.787796
 30
0.0
 40
6.5
  0
ENDBLK
  5
173
330
171
100
AcDbEntity
  8
0
100
AcDbBlockEnd
  0
BLOCK
  5
17C
330
17B
100
AcDbEntity
  8
0
100
AcDbBlockBegin
  2
JZB-28
 70
     0
 10
0.0
 20
0.0
 30
0.0
  3
JZB-28
  1

  0
LINE
  5
17E
330
17B
100
AcDbEntity
  8
002
 62
     3
370
    30
100
AcDbLine
 10
449.286102
 20
592.558882
 30
0.0
 11
449.286403
 21
600.064436
 31
0.0
  0
LINE
  5
17F
330
17B
100
AcDbEntity
  8
002
 62
     3
370
    30
100
AcDbLine
 10
462.286102
 20
592.55836
 30
0.0
 11
462.286403
 21
600.063913
 31
0.0
  0
LINE
  5
180
330
17B
100
AcDbEntity
  8
002
 62
     3
370
    30
100
AcDbLine
 10
455.785951
 20
588.805844
 30
0.0
 11
462.286102
 21
592.55836
 31
0.0
  0
LINE
  5
181
330
17B
100
AcDbEntity
  8
002
 62
     3
370
    30
100
AcDbLine
 10
455.786554
 20
603.816951
 30
0.0
 11
449.286403
 21
600.064436
 31
0.0
  0
LINE
  5
182
330
17B
100
AcDbEntity
  8
002
 62
     3
370
    30
100
AcDbLine
 10
462.286403
 20
600.063913
 30
0.0
 11
455.786554
 21
603.816951
 31
0.0
  0
LINE
  5
183
330
17B
100
AcDbEntity
  8
002
 62
     3
370
    30
100
AcDbLine
 10
449.286102
 20
592.558882
 30
0.0
 11
455.785951
 21
588.805844
 31
0.0
  0
CIRCLE
  5
184
330
17B
100
AcDbEntity
  8
002
 62
     3
370
    30
100
AcDbCircle
 10
455.786253
 20
596.311398
 30
0.0
 40
6.5
  0
ENDBLK
  5
17D
330
17B
100
AcDbEntity
  8
0
100
AcDbBlockEnd
  0
BLOCK
  5
186
330
185
100
AcDbEntity
  8
0
100
AcDbBlockBegin
  2
JZB-29
 70
     0
 10
0.0
 20
0.0
 30
0.0
  3
JZB-29
  1

  0
LINE
  5
188
330
185
100
AcDbEntity
  8
002
 62
     3
370
    30
100
AcDbLine
 10
416.366614
 20
573.538589
 30
0.0
 11
411.059599
 21
578.84603
 31
0.0
  0
LINE
  5
189
330
185
100
AcDbEntity
  8
002
 62
     3
370
    30
100
AcDbLine
 10
425.559371
 20
582.730608
 30
0.0
 11
420.252356
 21
588.038049
 31
0.0
  0
LINE
  5
18A
330
185
100
AcDbEntity
  8
002
 62
     3
370
    30
100
AcDbLine
 10
423.6165
 20
575.480878
 30
0.0
 11
425.559371
 21
582.730608
 31
0.0
  0
LINE
  5
18B
330
185
100
AcDbEntity
  8
002
 62
     3
370
    30
100
AcDbLine
 10
413.00247
 20
586.09576
 30
0.0
 11
411.059599
 21
578.84603
 31
0.0
  0
LINE
  5
18C
330
185
100
AcDbEntity
  8
002
 62
     3
370
    30
100
AcDbLine
 10
420.252356
 20
588.038049
 30
0.0
 11
413.00247
 21
586.09576
 31
0.0
  0
LINE
  5
18D
330
185
100
AcDbEntity
  8
002
 62
     3
370
    30
100
AcDbLine
 10
416.366614
 20
573.538589
 30
0.0
 11
423.6165
 21
575.480878
 31
0.0
  0
CIRCLE
  5
18E
330
185
100
AcDbEntity
  8
002
 62
     3
370
    30
100
AcDbCircle
 10
418.309485
 20
580.788319
 30
0.0
 40
6.5
  0
ENDBLK
  5
187
330
185
100
AcDbEntity
  8
0
100
AcDbBlockEnd
  0
BLOCK
  5
190
330
18F
100
AcDbEntity
  8
0
100
AcDbBlockBegin
  2
JZB-30
 70
     0
 10
0.0
 20
0.0
 30
0.0
  3
JZB-30
  1

  0
LINE
  5
192
330
18F
100
AcDbEntity
  8
002
 62
     3
370
    30
100
AcDbLine
 10
406.538399
 20
536.811617
 30
0.0
 11
399.032845
 21
536.811918
 31
0.0
  0
LINE
  5
193
330
18F
100
AcDbEntity
  8
002
 62
     3
370
    30
100
AcDbLine
 10
406.538921
 20
549.811617
 30
0.0
 11
399.033367
 21
549.811918
 31
0.0
  0
LINE
  5
194
330
18F
100
AcDbEntity
  8
002
 62
     3
370
    30
100
AcDbLine
 10
410.291437
 20
543.311466
 30
0.0
 11
406.538921
 21
549.811617
 31
0.0
  0
LINE
  5
195
330
18F
100
AcDbEntity
  8
002
 62
     3
370
    30
100
AcDbLine
 10
395.28033
 20
543.312069
 30
0.0
 11
399.032845
 21
536.811918
 31
0.0
  0
LINE
  5
196
330
18F
100
AcDbEntity
  8
002
 62
     3
370
    30
100
AcDbLine
 10
399.033367
 20
549.811918
 30
0.0
 11
395.28033
 21
543.312069
 31
0.0
  0
LINE
  5
197
330
18F
100
AcDbEntity
  8
002
 62
     3
370
    30
100
AcDbLine
 10
406.538399
 20
536.811617
 30
0.0
 11
410.291437
 21
543.311466
 31
0.0
  0
CIRCLE
  5
198
330
18F
100
AcDbEntity
  8
002
 62
     3
370
    30
100
AcDbCircle
 10
402.785883
 20
543.311767
 30
0.0
 40
6.5
  0
ENDBLK
  5
191
330
18F
100
AcDbEntity
  8
0
100
AcDbBlockEnd
  0
BLOCK
  5
19A
330
199
100
AcDbEntity
  8
0
100
AcDbBlockBegin
  2
JZB-31
 70
     0
 10
0.0
 20
0.0
 30
0.0
  3
JZB-31
  1

  0
LINE
  5
19C
330
199
100
AcDbEntity
  8
002
 62
     3
370
    30
100
AcDbLine
 10
425.558692
 20
503.892128
 30
0.0
 11
420.251251
 21
498.585114
 31
0.0
  0
LINE
  5
19D
330
199
100
AcDbEntity
  8
002
 62
     3
370
    30
100
AcDbLine
 10
416.366673
 20
513.084886
 30
0.0
 11
411.059232
 21
507.777871
 31
0.0
  0
LINE
  5
19E
330
199
100
AcDbEntity
  8
002
 62
     3
370
    30
100
AcDbLine
 10
423.616403
 20
511.142014
 30
0.0
 11
416.366673
 21
513.084886
 31
0.0
  0
LINE
  5
19F
330
199
100
AcDbEntity
  8
002
 62
     3
370
    30
100
AcDbLine
 10
413.001521
 20
500.527985
 30
0.0
 11
420.251251
 21
498.585114
 31
0.0
  0
LINE
  5
1A0
330
199
100
AcDbEntity
  8
002
 62
     3
370
    30
100
AcDbLine
 10
411.059232
 20
507.777871
 30
0.0
 11
413.001521
 21
500.527985
 31
0.0
  0
LINE
  5
1A1
330
199
100
AcDbEntity
  8
002
 62
     3
370
    30
100
AcDbLine
 10
425.558692
 20
503.892128
 30
0.0
 11
423.616403
 21
511.142014
 31
0.0
  0
CIRCLE
  5
1A2
330
199
100
AcDbEntity
  8
002
 62
     3
370
    30
100
AcDbCircle
 10
418.308962
 20
505.835
 30
0.0
 40
6.5
  0
ENDBLK
  5
19B
330
199
100
AcDbEntity
  8
0
100
AcDbBlockEnd
  0
BLOCK
  5
1A4
330
1A3
100
AcDbEntity
  8
0
100
AcDbBlockBegin
  2
JZB-32
 70
     0
 10
0.0
 20
0.0
 30
0.0
  3
JZB-32
  1

  0
LINE
  5
1A6
330
1A3
100
AcDbEntity
  8
002
 62
     3
370
    30
100
AcDbLine
 10
462.285664
 20
494.063913
 30
0.0
 11
462.285363
 21
486.55836
 31
0.0
  0
LINE
  5
1A7
330
1A3
100
AcDbEntity
  8
002
 62
     3
370
    30
100
AcDbLine
 10
449.285664
 20
494.064436
 30
0.0
 11
449.285363
 21
486.558882
 31
0.0
  0
LINE
  5
1A8
330
1A3
100
AcDbEntity
  8
002
 62
     3
370
    30
100
AcDbLine
 10
455.785815
 20
497.816951
 30
0.0
 11
449.285664
 21
494.064436
 31
0.0
  0
LINE
  5
1A9
330
1A3
100
AcDbEntity
  8
002
 62
     3
370
    30
100
AcDbLine
 10
455.785212
 20
482.805844
 30
0.0
 11
462.285363
 21
486.55836
 31
0.0
  0
LINE
  5
1AA
330
1A3
100
AcDbEntity
  8
002
 62
     3
370
    30
100
AcDbLine
 10
449.285363
 20
486.558882
 30
0.0
 11
455.785212
 21
482.805844
 31
0.0
  0
LINE
  5
1AB
330
1A3
100
AcDbEntity
  8
002
 62
     3
370
    30
100
AcDbLine
 10
462.285664
 20
494.063913
 30
0.0
 11
455.785815
 21
497.816951
 31
0.0
  0
CIRCLE
  5
1AC
330
1A3
100
AcDbEntity
  8
002
 62
     3
370
    30
100
AcDbCircle
 10
455.785513
 20
490.311398
 30
0.0
 40
6.5
  0
ENDBLK
  5
1A5
330
1A3
100
AcDbEntity
  8
0
100
AcDbBlockEnd
  0
BLOCK
  5
1AE
330
1AD
100
AcDbEntity
  8
0
100
AcDbBlockBegin
  2
JZB-33
 70
     0
 10
0.0
 20
0.0
 30
0.0
  3
JZB-33
  1

  0
LINE
  5
1B0
330
1AD
100
AcDbEntity
  8
002
 62
     3
370
    30
100
AcDbLine
 10
495.205152
 20
513.084207
 30
0.0
 11
500.512167
 21
507.776766
 31
0.0
  0
LINE
  5
1B1
330
1AD
100
AcDbEntity
  8
002
 62
     3
370
    30
100
AcDbLine
 10
486.012395
 20
503.892188
 30
0.0
 11
491.31941
 21
498.584747
 31
0.0
  0
LINE
  5
1B2
330
1AD
100
AcDbEntity
  8
002
 62
     3
370
    30
100
AcDbLine
 10
487.955266
 20
511.141918
 30
0.0
 11
486.012395
 21
503.892188
 31
0.0
  0
LINE
  5
1B3
330
1AD
100
AcDbEntity
  8
002
 62
     3
370
    30
100
AcDbLine
 10
498.569296
 20
500.527036
 30
0.0
 11
500.512167
 21
507.776766
 31
0.0
  0
LINE
  5
1B4
330
1AD
100
AcDbEntity
  8
002
 62
     3
370
    30
100
AcDbLine
 10
491.31941
 20
498.584747
 30
0.0
 11
498.569296
 21
500.527036
 31
0.0
  0
LINE
  5
1B5
330
1AD
100
AcDbEntity
  8
002
 62
     3
370
    30
100
AcDbLine
 10
495.205152
 20
513.084207
 30
0.0
 11
487.955266
 21
511.141918
 31
0.0
  0
CIRCLE
  5
1B6
330
1AD
100
AcDbEntity
  8
002
 62
     3
370
    30
100
AcDbCircle
 10
493.262281
 20
505.834477
 30
0.0
 40
6.5
  0
ENDBLK
  5
1AF
330
1AD
100
AcDbEntity
  8
0
100
AcDbBlockEnd
  0
BLOCK
  5
1B8
330
1B7
100
AcDbEntity
  8
0
100
AcDbBlockBegin
  2
JZB-34
 70
     0
 10
0.0
 20
0.0
 30
0.0
  3
JZB-34
  1

  0
LINE
  5
1BA
330
1B7
100
AcDbEntity
  8
002
 62
     3
370
    30
100
AcDbLine
 10
486.013074
 20
582.730667
 30
0.0
 11
491.320515
 21
588.037682
 31
0.0
  0
LINE
  5
1BB
330
1B7
100
AcDbEntity
  8
002
 62
     3
370
    30
100
AcDbLine
 10
495.205093
 20
573.53791
 30
0.0
 11
500.512534
 21
578.844924
 31
0.0
  0
LINE
  5
1BC
330
1B7
100
AcDbEntity
  8
002
 62
     3
370
    30
100
AcDbLine
 10
487.955363
 20
575.480781
 30
0.0
 11
495.205093
 21
573.53791
 31
0.0
  0
LINE
  5
1BD
330
1B7
100
AcDbEntity
  8
002
 62
     3
370
    30
100
AcDbLine
 10
498.570245
 20
586.09481
 30
0.0
 11
491.320515
 21
588.037682
 31
0.0
  0
LINE
  5
1BE
330
1B7
100
AcDbEntity
  8
002
 62
     3
370
    30
100
AcDbLine
 10
500.512534
 20
578.844924
 30
0.0
 11
498.570245
 21
586.09481
 31
0.0
  0
LINE
  5
1BF
330
1B7
100
AcDbEntity
  8
002
 62
     3
370
    30
100
AcDbLine
 10
486.013074
 20
582.730667
 30
0.0
 11
487.955363
 21
575.480781
 31
0.0
  0
CIRCLE
  5
1C0
330
1B7
100
AcDbEntity
  8
002
 62
     3
370
    30
100
AcDbCircle
 10
493.262804
 20
580.787796
 30
0.0
 40
6.5
  0
ENDBLK
  5
1B9
330
1B7
100
AcDbEntity
  8
0
100
AcDbBlockEnd
  0
ENDSEC
  0
SECTION
  2
ENTITIES
  0
INSERT
  5
1C1
330
1F
100
AcDbEntity
  8
003
  6
ByBlock
 62
     0
370
    -2
100
AcDbBlockReference
  2
JZB-1
 10
0.0
 20
0.0
 30
0.0
  0
INSERT
  5
1C2
330
1F
100
AcDbEntity
  8
003
  6
ByBlock
 62
     0
370
    -2
100
AcDbBlockReference
  2
JZB-2
 10
0.0
 20
0.0
 30
0.0
  0
INSERT
  5
1C3
330
1F
100
AcDbEntity
  8
003
  6
ByBlock
 62
     0
370
    -2
100
AcDbBlockReference
  2
JZB-3
 10
0.0
 20
0.0
 30
0.0
  0
INSERT
  5
1C4
330
1F
100
AcDbEntity
  8
003
  6
ByBlock
 62
     0
370
    -2
100
AcDbBlockReference
  2
JZB-4
 10
0.0
 20
0.0
 30
0.0
  0
INSERT
  5
1C5
330
1F
100
AcDbEntity
  8
003
  6
ByBlock
 62
     0
370
    -2
100
AcDbBlockReference
  2
JZB-5
 10
0.0
 20
0.0
 30
0.0
  0
INSERT
  5
1C6
330
1F
100
AcDbEntity
  8
003
  6
ByBlock
 62
     0
370
    -2
100
AcDbBlockReference
  2
JZB-6
 10
0.0
 20
0.0
 30
0.0
  0
INSERT
  5
1C7
330
1F
100
AcDbEntity
  8
002
  6
ByBlock
 62
     0
370
    -2
100
AcDbBlockReference
  2
JZB-7
 10
0.0
 20
0.0
 30
0.0
  0
INSERT
  5
1C8
330
1F
100
AcDbEntity
  8
002
  6
ByBlock
 62
     0
370
    -2
100
AcDbBlockReference
  2
JZB-8
 10
0.0
 20
0.0
 30
0.0
  0
INSERT
  5
1C9
330
1F
100
AcDbEntity
  8
002
  6
ByBlock
 62
     0
370
    -2
100
AcDbBlockReference
  2
JZB-9
 10
0.0
 20
0.0
 30
0.0
  0
INSERT
  5
1CA
330
1F
100
AcDbEntity
  8
002
  6
ByBlock
 62
     0
370
    -2
100
AcDbBlockReference
  2
JZB-10
 10
0.0
 20
0.0
 30
0.0
  0
INSERT
  5
1CB
330
1F
100
AcDbEntity
  8
002
  6
ByBlock
 62
     0
370
    -2
100
AcDbBlockReference
  2
JZB-11
 10
0.0
 20
0.0
 30
0.0
  0
INSERT
  5
1CC
330
1F
100
AcDbEntity
  8
002
  6
ByBlock
 62
     0
370
    -2
100
AcDbBlockReference
  2
JZB-12
 10
0.0
 20
0.0
 30
0.0
  0
INSERT
  5
1CD
330
1F
100
AcDbEntity
  8
002
  6
ByBlock
 62
     0
370
    -2
100
AcDbBlockReference
  2
JZB-13
 10
0.0
 20
0.0
 30
0.0
  0
INSERT
  5
1CE
330
1F
100
AcDbEntity
  8
002
  6
ByBlock
 62
     0
370
    -2
100
AcDbBlockReference
  2
JZB-14
 10
0.0
 20
0.0
 30
0.0
  0
INSERT
  5
1CF
330
1F
100
AcDbEntity
  8
002
  6
ByBlock
 62
     0
370
    -2
100
AcDbBlockReference
  2
JZB-15
 10
0.0
 20
0.0
 30
0.0
  0
INSERT
  5
1D0
330
1F
100
AcDbEntity
  8
002
  6
ByBlock
 62
     0
370
    -2
100
AcDbBlockReference
  2
JZB-16
 10
0.0
 20
0.0
 30
0.0
  0
INSERT
  5
1D1
330
1F
100
AcDbEntity
  8
002
  6
ByBlock
 62
     0
370
    -2
100
AcDbBlockReference
  2
JZB-17
 10
0.0
 20
0.0
 30
0.0
  0
INSERT
  5
1D2
330
1F
100
AcDbEntity
  8
002
  6
ByBlock
 62
     0
370
    -2
100
AcDbBlockReference
  2
JZB-18
 10
0.0
 20
0.0
 30
0.0
  0
INSERT
  5
1D3
330
1F
100
AcDbEntity
  8
002
  6
ByBlock
 62
     0
370
    -2
100
AcDbBlockReference
  2
JZB-19
 10
0.0
 20
0.0
 30
0.0
  0
INSERT
  5
1D4
330
1F
100
AcDbEntity
  8
002
  6
ByBlock
 62
     0
370
    -2
100
AcDbBlockReference
  2
JZB-20
 10
0.0
 20
0.0
 30
0.0
  0
INSERT
  5
1D5
330
1F
100
AcDbEntity
  8
002
  6
ByBlock
 62
     0
370
    -2
100
AcDbBlockReference
  2
JZB-21
 10
0.0
 20
0.0
 30
0.0
  0
INSERT
  5
1D6
330
1F
100
AcDbEntity
  8
002
  6
ByBlock
 62
     0
370
    -2
100
AcDbBlockReference
  2
JZB-22
 10
0.0
 20
0.0
 30
0.0
  0
INSERT
  5
1D7
330
1F
100
AcDbEntity
  8
002
  6
ByBlock
 62
     0
370
    -2
100
AcDbBlockReference
  2
JZB-23
 10
0.0
 20
0.0
 30
0.0
  0
INSERT
  5
1D8
330
1F
100
AcDbEntity
  8
002
  6
ByBlock
 62
     0
370
    -2
100
AcDbBlockReference
  2
JZB-24
 10
0.0
 20
0.0
 30
0.0
  0
INSERT
  5
1D9
330
1F
100
AcDbEntity
  8
002
  6
ByBlock
 62
     0
370
    -2
100
AcDbBlockReference
  2
JZB-25
 10
0.0
 20
0.0
 30
0.0
  0
INSERT
  5
1DA
330
1F
100
AcDbEntity
  8
002
  6
ByBlock
 62
     0
370
    -2
100
AcDbBlockReference
  2
JZB-26
 10
0.0
 20
0.0
 30
0.0
  0
INSERT
  5
1DB
330
1F
100
AcDbEntity
  8
002
  6
ByBlock
 62
     0
370
    -2
100
AcDbBlockReference
  2
JZB-27
 10
0.0
 20
0.0
 30
0.0
  0
INSERT
  5
1DC
330
1F
100
AcDbEntity
  8
002
  6
ByBlock
 62
     0
370
    -2
100
AcDbBlockReference
  2
JZB-28
 10
0.0
 20
0.0
 30
0.0
  0
INSERT
  5
1DD
330
1F
100
AcDbEntity
  8
002
  6
ByBlock
 62
     0
370
    -2
100
AcDbBlockReference
  2
JZB-29
 10
0.0
 20
0.0
 30
0.0
  0
INSERT
  5
1DE
330
1F
100
AcDbEntity
  8
002
  6
ByBlock
 62
     0
370
    -2
100
AcDbBlockReference
  2
JZB-30
 10
0.0
 20
0.0
 30
0.0
  0
INSERT
  5
1DF
330
1F
100
AcDbEntity
  8
002
  6
ByBlock
 62
     0
370
    -2
100
AcDbBlockReference
  2
JZB-31
 10
0.0
 20
0.0
 30
0.0
  0
INSERT
  5
1E0
330
1F
100
AcDbEntity
  8
002
  6
ByBlock
 62
     0
370
    -2
100
AcDbBlockReference
  2
JZB-32
 10
0.0
 20
0.0
 30
0.0
  0
INSERT
  5
1E1
330
1F
100
AcDbEntity
  8
002
  6
ByBlock
 62
     0
370
    -2
100
AcDbBlockReference
  2
JZB-33
 10
0.0
 20
0.0
 30
0.0
  0
INSERT
  5
1E2
330
1F
100
AcDbEntity
  8
002
  6
ByBlock
 62
     0
370
    -2
100
AcDbBlockReference
  2
JZB-34
 10
0.0
 20
0.0
 30
0.0
  0
LINE
  5
1E3
330
1F
100
AcDbEntity
  8
002
 62
     3
370
    30
100
AcDbLine
 10
450.785883
 20
1440.247752
 30
0.0
 11
450.785883
 21
1448.247752
 31
0.0
  0
LINE
  5
1E4
330
1F
100
AcDbEntity
  8
002
 62
     3
370
    30
100
AcDbLine
 10
450.785883
 20
1448.247752
 30
0.0
 11
460.785883
 21
1448.247752
 31
0.0
  0
LINE
  5
1E5
330
1F
100
AcDbEntity
  8
002
 62
     3
370
    30
100
AcDbLine
 10
460.785883
 20
1448.247752
 30
0.0
 11
460.785883
 21
1440.247752
 31
0.0
  0
LINE
  5
1E6
330
1F
100
AcDbEntity
  8
002
 62
     3
370
    30
100
AcDbLine
 10
460.785883
 20
1440.247752
 30
0.0
 11
450.785883
 21
1440.247752
 31
0.0
  0
LINE
  5
1E7
330
1F
100
AcDbEntity
  8
002
 62
     3
370
    30
100
AcDbLine
 10
450.785883
 20
2171.090752
 30
0.0
 11
450.785883
 21
2127.090752
 31
0.0
  0
LINE
  5
1E8
330
1F
100
AcDbEntity
  8
002
 62
     3
370
    30
100
AcDbLine
 10
450.785883
 20
2127.090752
 30
0.0
 11
460.785883
 21
2127.090752
 31
0.0
  0
LINE
  5
1E9
330
1F
100
AcDbEntity
  8
002
 62
     3
370
    30
100
AcDbLine
 10
460.785883
 20
2127.090752
 30
0.0
 11
460.785883
 21
2171.090752
 31
0.0
  0
LINE
  5
1EA
330
1F
100
AcDbEntity
  8
002
 62
     3
370
    30
100
AcDbLine
 10
473.285883
 20
2171.090752
 30
0.0
 11
473.285883
 21
2121.090752
 31
0.0
  0
LINE
  5
1EB
330
1F
100
AcDbEntity
  8
002
 62
     3
370
    30
100
AcDbLine
 10
474.785883
 20
2121.090752
 30
0.0
 11
474.785883
 21
2113.090752
 31
0.0
  0
LINE
  5
1EC
330
1F
100
AcDbEntity
  8
002
 62
     3
370
    30
100
AcDbLine
 10
438.285883
 20
2121.090752
 30
0.0
 11
438.285883
 21
2171.090752
 31
0.0
  0
LINE
  5
1ED
330
1F
100
AcDbEntity
  8
002
 62
     3
370
    30
100
AcDbLine
 10
438.285883
 20
2171.090752
 30
0.0
 11
473.285883
 21
2171.090752
 31
0.0
  0
ARC
  5
1EE
330
1F
100
AcDbEntity
  8
002
 62
     3
370
    30
100
AcDbCircle
 10
455.785883
 20
2127.090752
 30
0.0
 40
5.0
100
AcDbArc
 50
180.0
 51
0.0
  0
LINE
  5
1EF
330
1F
100
AcDbEntity
  8
002
 62
     3
370
    30
100
AcDbLine
 10
436.785883
 20
2121.090752
 30
0.0
 11
436.785883
 21
2113.090752
 31
0.0
  0
LINE
  5
1F0
330
1F
100
AcDbEntity
  8
002
 62
     3
370
    30
100
AcDbLine
 10
431.212883
 20
2105.090752
 30
0.0
 11
509.785883
 21
2105.090752
 31
0.0
  0
LINE
  5
1F1
330
1F
100
AcDbEntity
  8
002
 62
     3
370
    30
100
AcDbLine
 10
509.785883
 20
2113.090752
 30
0.0
 11
416.211883
 21
2113.090752
 31
0.0
  0
CIRCLE
  5
1F2
330
1F
100
AcDbEntity
  8
002
 62
     3
370
    30
100
AcDbCircle
 10
419.785883
 20
2093.281752
 30
0.0
 40
10.5
  0
LINE
  5
1F3
330
1F
100
AcDbEntity
  8
002
 62
     3
370
    30
100
AcDbLine
 10
416.321883
 20
2099.281752
 30
0.0
 11
412.857883
 21
2093.281752
 31
0.0
  0
LINE
  5
1F4
330
1F
100
AcDbEntity
  8
002
 62
     3
370
    30
100
AcDbLine
 10
412.857883
 20
2093.281752
 30
0.0
 11
416.321883
 21
2087.281752
 31
0.0
  0
LINE
  5
1F5
330
1F
100
AcDbEntity
  8
002
 62
     3
370
    30
100
AcDbLine
 10
416.321883
 20
2087.281752
 30
0.0
 11
423.249883
 21
2087.281752
 31
0.0
  0
LINE
  5
1F6
330
1F
100
AcDbEntity
  8
002
 62
     3
370
    30
100
AcDbLine
 10
423.249883
 20
2087.281752
 30
0.0
 11
426.713883
 21
2093.281752
 31
0.0
  0
LINE
  5
1F7
330
1F
100
AcDbEntity
  8
002
 62
     3
370
    30
100
AcDbLine
 10
426.713883
 20
2093.281752
 30
0.0
 11
423.249883
 21
2099.281752
 31
0.0
  0
LINE
  5
1F8
330
1F
100
AcDbEntity
  8
002
 62
     3
370
    30
100
AcDbLine
 10
423.249883
 20
2099.281752
 30
0.0
 11
416.321883
 21
2099.281752
 31
0.0
  0
LINE
  5
1F9
330
1F
100
AcDbEntity
  8
002
 62
     3
370
    30
100
AcDbLine
 10
393.281883
 20
2121.090752
 30
0.0
 11
545.785883
 21
2121.090752
 31
0.0
  0
CIRCLE
  5
1FA
330
1F
100
AcDbEntity
  8
002
 62
     3
370
    30
100
AcDbCircle
 10
545.785883
 20
2086.090752
 30
0.0
 40
32.5
  0
CIRCLE
  5
1FB
330
1F
100
AcDbEntity
  8
002
 62
     3
370
    30
100
AcDbCircle
 10
545.785883
 20
2086.090752
 30
0.0
 40
16.5
  0
LINE
  5
1FC
330
1F
100
AcDbEntity
  8
002
 62
     3
370
    30
100
AcDbLine
 10
509.785883
 20
2113.090752
 30
0.0
 11
509.785883
 21
2086.090752
 31
0.0
  0
ARC
  5
1FD
330
1F
100
AcDbEntity
  8
002
 62
     3
370
    30
100
AcDbCircle
 10
545.785883
 20
2086.090752
 30
0.0
 40
36.00013888862104
100
AcDbArc
 50
180.0
 51
223.761974
  0
LINE
  5
1FE
330
1F
100
AcDbEntity
  8
002
 62
     3
370
    30
100
AcDbLine
 10
519.785883
 20
2061.190752
 30
0.0
 11
519.785883
 21
2057.177752
 31
0.0
  0
ARC
  5
1FF
330
1F
100
AcDbEntity
  8
002
 62
     3
370
    30
100
AcDbCircle
 10
524.785883
 20
2057.177752
 30
0.0
 40
4.999919999359997
100
AcDbArc
 50
180.0
 51
260.002641
  0
LINE
  5
200
330
1F
100
AcDbEntity
  8
002
 62
     3
370
    30
100
AcDbLine
 10
523.917883
 20
2052.253752
 30
0.0
 11
573.310883
 21
2043.543752
 31
0.0
  0
LINE
  5
201
330
1F
100
AcDbEntity
  8
002
 62
     3
370
    30
100
AcDbLine
 10
572.785883
 20
2043.590752
 30
0.0
 11
512.824883
 21
2043.590752
 31
0.0
  0
LINE
  5
202
330
1F
100
AcDbEntity
  8
002
 62
     3
370
    30
100
AcDbLine
 10
512.194883
 20
2045.825752
 30
0.0
 11
519.785883
 21
2052.981752
 31
0.0
  0
ARC
  5
203
330
1F
100
AcDbEntity
  8
002
 62
     3
370
    30
100
AcDbCircle
 10
516.349883
 20
2040.590752
 30
0.0
 40
3.0
100
AcDbArc
 50
90.0
 51
180.0
  0
LINE
  5
204
330
1F
100
AcDbEntity
  8
002
 62
     3
370
    30
100
AcDbLine
 10
513.349883
 20
2040.590752
 30
0.0
 11
513.349883
 21
1941.590752
 31
0.0
  0
ARC
  5
205
330
1F
100
AcDbEntity
  8
002
 62
     3
370
    30
100
AcDbCircle
 10
516.349883
 20
1941.590752
 30
0.0
 40
3.0
100
AcDbArc
 50
180.0
 51
270.0
  0
LINE
  5
206
330
1F
100
AcDbEntity
  8
002
 62
     3
370
    30
100
AcDbLine
 10
512.824883
 20
1938.590752
 30
0.0
 11
572.785883
 21
1938.590752
 31
0.0
  0
ARC
  5
207
330
1F
100
AcDbEntity
  8
002
 62
     3
370
    30
100
AcDbCircle
 10
572.785883
 20
1941.590752
 30
0.0
 40
3.0
100
AcDbArc
 50
270.0
 51
0.0
  0
LINE
  5
208
330
1F
100
AcDbEntity
  8
002
 62
     3
370
    30
100
AcDbLine
 10
575.785883
 20
1941.590752
 30
0.0
 11
575.785883
 21
2040.590752
 31
0.0
  0
ARC
  5
209
330
1F
100
AcDbEntity
  8
002
 62
     3
370
    30
100
AcDbCircle
 10
572.785883
 20
2040.590752
 30
0.0
 40
3.0
100
AcDbArc
 50
0.0
 51
90.0
  0
ARC
  5
20A
330
1F
100
AcDbEntity
  8
002
 62
     3
370
    30
100
AcDbCircle
 10
545.785883
 20
2086.090752
 30
0.0
 40
35.0
100
AcDbArc
 50
0.0
 51
90.0
  0
LINE
  5
20B
330
1F
100
AcDbEntity
  8
002
 62
     3
370
    30
100
AcDbLine
 10
580.785883
 20
2086.090752
 30
0.0
 11
580.785883
 21
1896.090752
 31
0.0
  0
CIRCLE
  5
20C
330
1F
100
AcDbEntity
  8
002
 62
     3
370
    30
100
AcDbCircle
 10
545.785883
 20
1896.090752
 30
0.0
 40
16.5
  0
CIRCLE
  5
20D
330
1F
100
AcDbEntity
  8
002
 62
     3
370
    30
100
AcDbCircle
 10
545.785883
 20
1896.090752
 30
0.0
 40
32.5
  0
LINE
  5
20E
330
1F
100
AcDbEntity
  8
002
 62
     3
370
    30
100
AcDbLine
 10
523.917883
 20
1929.927752
 30
0.0
 11
573.310883
 21
1938.636752
 31
0.0
  0
ARC
  5
20F
330
1F
100
AcDbEntity
  8
002
 62
     3
370
    30
100
AcDbCircle
 10
524.785883
 20
1925.003752
 30
0.0
 40
5.0
100
AcDbArc
 50
99.997359
 51
180.0
  0
LINE
  5
210
330
1F
100
AcDbEntity
  8
002
 62
     3
370
    30
100
AcDbLine
 10
519.785883
 20
1925.003752
 30
0.0
 11
519.785883
 21
1920.989752
 31
0.0
  0
ARC
  5
211
330
1F
100
AcDbEntity
  8
002
 62
     3
370
    30
100
AcDbCircle
 10
545.785883
 20
1896.090752
 30
0.0
 40
36.0
100
AcDbArc
 50
136.239176
 51
180.0
  0
LINE
  5
212
330
1F
100
AcDbEntity
  8
002
 62
     3
370
    30
100
AcDbLine
 10
509.785883
 20
1896.090752
 30
0.0
 11
509.785883
 21
1869.090752
 31
0.0
  0
LINE
  5
213
330
1F
100
AcDbEntity
  8
002
 62
     3
370
    30
100
AcDbLine
 10
509.785883
 20
1869.090752
 30
0.0
 11
416.211883
 21
1869.090752
 31
0.0
  0
LINE
  5
214
330
1F
100
AcDbEntity
  8
002
 62
     3
370
    30
100
AcDbLine
 10
416.321883
 20
1882.899752
 30
0.0
 11
423.249883
 21
1882.899752
 31
0.0
  0
LINE
  5
215
330
1F
100
AcDbEntity
  8
002
 62
     3
370
    30
100
AcDbLine
 10
423.249883
 20
1882.899752
 30
0.0
 11
426.713883
 21
1888.899752
 31
0.0
  0
LINE
  5
216
330
1F
100
AcDbEntity
  8
002
 62
     3
370
    30
100
AcDbLine
 10
426.713883
 20
1888.899752
 30
0.0
 11
423.249883
 21
1894.899752
 31
0.0
  0
LINE
  5
217
330
1F
100
AcDbEntity
  8
002
 62
     3
370
    30
100
AcDbLine
 10
423.249883
 20
1894.899752
 30
0.0
 11
416.321883
 21
1894.899752
 31
0.0
  0
LINE
  5
218
330
1F
100
AcDbEntity
  8
002
 62
     3
370
    30
100
AcDbLine
 10
416.321883
 20
1894.899752
 30
0.0
 11
412.857883
 21
1888.899752
 31
0.0
  0
LINE
  5
219
330
1F
100
AcDbEntity
  8
002
 62
     3
370
    30
100
AcDbLine
 10
412.857883
 20
1888.899752
 30
0.0
 11
416.321883
 21
1882.899752
 31
0.0
  0
CIRCLE
  5
21A
330
1F
100
AcDbEntity
  8
002
 62
     3
370
    30
100
AcDbCircle
 10
419.785883
 20
1888.899752
 30
0.0
 40
10.5
  0
LINE
  5
21B
330
1F
100
AcDbEntity
  8
002
 62
     3
370
    30
100
AcDbLine
 10
431.212883
 20
1877.090752
 30
0.0
 11
509.785883
 21
1877.090752
 31
0.0
  0
LINE
  5
21C
330
1F
100
AcDbEntity
  8
002
 62
     3
370
    30
100
AcDbLine
 10
474.785883
 20
1869.090752
 30
0.0
 11
474.785883
 21
1861.090752
 31
0.0
  0
LINE
  5
21D
330
1F
100
AcDbEntity
  8
002
 62
     3
370
    30
100
AcDbLine
 10
473.285883
 20
1861.090752
 30
0.0
 11
473.285883
 21
1811.090752
 31
0.0
  0
LINE
  5
21E
330
1F
100
AcDbEntity
  8
002
 62
     3
370
    30
100
AcDbLine
 10
473.285883
 20
1811.090752
 30
0.0
 11
438.285883
 21
1811.090752
 31
0.0
  0
LINE
  5
21F
330
1F
100
AcDbEntity
  8
002
 62
     3
370
    30
100
AcDbLine
 10
438.285883
 20
1811.090752
 30
0.0
 11
438.285883
 21
1861.090752
 31
0.0
  0
LINE
  5
220
330
1F
100
AcDbEntity
  8
002
 62
     3
370
    30
100
AcDbLine
 10
460.785883
 20
1855.090752
 30
0.0
 11
450.785883
 21
1855.090752
 31
0.0
  0
LINE
  5
221
330
1F
100
AcDbEntity
  8
002
 62
     3
370
    30
100
AcDbLine
 10
450.785883
 20
1855.090752
 30
0.0
 11
450.785883
 21
1811.090752
 31
0.0
  0
LINE
  5
222
330
1F
100
AcDbEntity
  8
002
 62
     3
370
    30
100
AcDbLine
 10
460.785883
 20
1811.090752
 30
0.0
 11
460.785883
 21
1855.090752
 31
0.0
  0
ARC
  5
223
330
1F
100
AcDbEntity
  8
002
 62
     3
370
    30
100
AcDbCircle
 10
455.785883
 20
1855.090752
 30
0.0
 40
5.0
100
AcDbArc
 50
0.0
 51
180.0
  0
LINE
  5
224
330
1F
100
AcDbEntity
  8
002
 62
     3
370
    30
100
AcDbLine
 10
436.785883
 20
1861.090752
 30
0.0
 11
436.785883
 21
1869.090752
 31
0.0
  0
LINE
  5
225
330
1F
100
AcDbEntity
  8
002
 62
     3
370
    30
100
AcDbLine
 10
393.281883
 20
1861.090752
 30
0.0
 11
545.785883
 21
1861.090752
 31
0.0
  0
ARC
  5
226
330
1F
100
AcDbEntity
  8
002
 62
     3
370
    30
100
AcDbCircle
 10
545.785883
 20
1896.090752
 30
0.0
 40
35.0
100
AcDbArc
 50
270.0
 51
0.0
  0
LINE
  5
227
330
1F
100
AcDbEntity
  8
002
 62
     3
370
    30
100
AcDbLine
 10
519.785883
 20
1929.198752
 30
0.0
 11
512.194883
 21
1936.355752
 31
0.0
  0
ARC
  5
228
330
1F
100
AcDbEntity
  8
002
 62
     3
370
    30
100
AcDbCircle
 10
512.824883
 20
1935.590752
 30
0.0
 40
3.0
100
AcDbArc
 50
90.0
 51
180.0
  0
LINE
  5
229
330
1F
100
AcDbEntity
  8
002
 62
     3
370
    30
100
AcDbLine
 10
509.824883
 20
1938.590752
 30
0.0
 11
509.824883
 21
2043.590752
 31
0.0
  0
ARC
  5
22A
330
1F
100
AcDbEntity
  8
002
 62
     3
370
    30
100
AcDbCircle
 10
512.824883
 20
2046.590752
 30
0.0
 40
3.0
100
AcDbArc
 50
180.0
 51
270.0
  0
LINE
  5
22B
330
1F
100
AcDbEntity
  8
002
 62
     3
370
    30
100
AcDbLine
 10
468.976883
 20
2046.626752
 30
0.0
 11
468.976883
 21
2053.554752
 31
0.0
  0
LINE
  5
22C
330
1F
100
AcDbEntity
  8
002
 62
     3
370
    30
100
AcDbLine
 10
468.976883
 20
2053.554752
 30
0.0
 11
462.976883
 21
2057.018752
 31
0.0
  0
LINE
  5
22D
330
1F
100
AcDbEntity
  8
002
 62
     3
370
    30
100
AcDbLine
 10
462.976883
 20
2057.018752
 30
0.0
 11
456.976883
 21
2053.554752
 31
0.0
  0
LINE
  5
22E
330
1F
100
AcDbEntity
  8
002
 62
     3
370
    30
100
AcDbLine
 10
456.976883
 20
2053.554752
 30
0.0
 11
456.976883
 21
2046.626752
 31
0.0
  0
LINE
  5
22F
330
1F
100
AcDbEntity
  8
002
 62
     3
370
    30
100
AcDbLine
 10
456.976883
 20
2046.626752
 30
0.0
 11
462.976883
 21
2043.161752
 31
0.0
  0
LINE
  5
230
330
1F
100
AcDbEntity
  8
002
 62
     3
370
    30
100
AcDbLine
 10
462.976883
 20
2043.161752
 30
0.0
 11
468.976883
 21
2046.626752
 31
0.0
  0
CIRCLE
  5
231
330
1F
100
AcDbEntity
  8
002
 62
     3
370
    30
100
AcDbCircle
 10
462.976883
 20
2050.090752
 30
0.0
 40
10.5
  0
CIRCLE
  5
232
330
1F
100
AcDbEntity
  8
002
 62
     3
370
    30
100
AcDbCircle
 10
478.785883
 20
1991.090752
 30
0.0
 40
10.5
  0
LINE
  5
233
330
1F
100
AcDbEntity
  8
002
 62
     3
370
    30
100
AcDbLine
 10
475.321883
 20
1997.090752
 30
0.0
 11
471.857883
 21
1991.090752
 31
0.0
  0
LINE
  5
234
330
1F
100
AcDbEntity
  8
002
 62
     3
370
    30
100
AcDbLine
 10
471.857883
 20
1991.090752
 30
0.0
 11
475.321883
 21
1985.090752
 31
0.0
  0
LINE
  5
235
330
1F
100
AcDbEntity
  8
002
 62
     3
370
    30
100
AcDbLine
 10
475.321883
 20
1985.090752
 30
0.0
 11
482.249883
 21
1985.090752
 31
0.0
  0
LINE
  5
236
330
1F
100
AcDbEntity
  8
002
 62
     3
370
    30
100
AcDbLine
 10
482.249883
 20
1985.090752
 30
0.0
 11
485.713883
 21
1991.090752
 31
0.0
  0
LINE
  5
237
330
1F
100
AcDbEntity
  8
002
 62
     3
370
    30
100
AcDbLine
 10
485.713883
 20
1991.090752
 30
0.0
 11
482.249883
 21
1997.090752
 31
0.0
  0
LINE
  5
238
330
1F
100
AcDbEntity
  8
002
 62
     3
370
    30
100
AcDbLine
 10
482.249883
 20
1997.090752
 30
0.0
 11
475.321883
 21
1997.090752
 31
0.0
  0
CIRCLE
  5
239
330
1F
100
AcDbEntity
  8
002
 62
     3
370
    30
100
AcDbCircle
 10
462.976883
 20
1932.090752
 30
0.0
 40
10.5
  0
LINE
  5
23A
330
1F
100
AcDbEntity
  8
002
 62
     3
370
    30
100
AcDbLine
 10
462.976883
 20
1939.018752
 30
0.0
 11
456.976883
 21
1935.554752
 31
0.0
  0
LINE
  5
23B
330
1F
100
AcDbEntity
  8
002
 62
     3
370
    30
100
AcDbLine
 10
456.976883
 20
1935.554752
 30
0.0
 11
456.976883
 21
1928.626752
 31
0.0
  0
LINE
  5
23C
330
1F
100
AcDbEntity
  8
002
 62
     3
370
    30
100
AcDbLine
 10
456.976883
 20
1928.626752
 30
0.0
 11
462.976883
 21
1925.161752
 31
0.0
  0
LINE
  5
23D
330
1F
100
AcDbEntity
  8
002
 62
     3
370
    30
100
AcDbLine
 10
462.976883
 20
1925.161752
 30
0.0
 11
468.976883
 21
1928.626752
 31
0.0
  0
LINE
  5
23E
330
1F
100
AcDbEntity
  8
002
 62
     3
370
    30
100
AcDbLine
 10
468.976883
 20
1928.626752
 30
0.0
 11
468.976883
 21
1935.554752
 31
0.0
  0
LINE
  5
23F
330
1F
100
AcDbEntity
  8
002
 62
     3
370
    30
100
AcDbLine
 10
468.976883
 20
1935.554752
 30
0.0
 11
462.976883
 21
1939.018752
 31
0.0
  0
CIRCLE
  5
240
330
1F
100
AcDbEntity
  8
002
 62
     3
370
    30
100
AcDbCircle
 10
360.785883
 20
1873.090752
 30
0.0
 40
10.5
  0
LINE
  5
241
330
1F
100
AcDbEntity
  8
002
 62
     3
370
    30
100
AcDbLine
 10
360.785883
 20
1880.018752
 30
0.0
 11
366.785883
 21
1876.554752
 31
0.0
  0
LINE
  5
242
330
1F
100
AcDbEntity
  8
002
 62
     3
370
    30
100
AcDbLine
 10
366.785883
 20
1876.554752
 30
0.0
 11
366.785883
 21
1869.626752
 31
0.0
  0
LINE
  5
243
330
1F
100
AcDbEntity
  8
002
 62
     3
370
    30
100
AcDbLine
 10
366.785883
 20
1869.626752
 30
0.0
 11
360.785883
 21
1866.161752
 31
0.0
  0
LINE
  5
244
330
1F
100
AcDbEntity
  8
002
 62
     3
370
    30
100
AcDbLine
 10
360.785883
 20
1866.161752
 30
0.0
 11
354.785883
 21
1869.626752
 31
0.0
  0
LINE
  5
245
330
1F
100
AcDbEntity
  8
002
 62
     3
370
    30
100
AcDbLine
 10
354.785883
 20
1869.626752
 30
0.0
 11
354.785883
 21
1876.554752
 31
0.0
  0
LINE
  5
246
330
1F
100
AcDbEntity
  8
002
 62
     3
370
    30
100
AcDbLine
 10
354.785883
 20
1876.554752
 30
0.0
 11
360.785883
 21
1880.018752
 31
0.0
  0
LINE
  5
247
330
1F
100
AcDbEntity
  8
002
 62
     3
370
    30
100
AcDbLine
 10
328.289883
 20
1861.090752
 30
0.0
 11
265.785883
 21
1861.090752
 31
0.0
  0
LINE
  5
248
330
1F
100
AcDbEntity
  8
002
 62
     3
370
    30
100
AcDbLine
 10
298.321883
 20
1882.899752
 30
0.0
 11
305.249883
 21
1882.899752
 31
0.0
  0
LINE
  5
249
330
1F
100
AcDbEntity
  8
002
 62
     3
370
    30
100
AcDbLine
 10
305.249883
 20
1882.899752
 30
0.0
 11
308.713883
 21
1888.899752
 31
0.0
  0
LINE
  5
24A
330
1F
100
AcDbEntity
  8
002
 62
     3
370
    30
100
AcDbLine
 10
308.713883
 20
1888.899752
 30
0.0
 11
305.249883
 21
1894.899752
 31
0.0
  0
LINE
  5
24B
330
1F
100
AcDbEntity
  8
002
 62
     3
370
    30
100
AcDbLine
 10
305.249883
 20
1894.899752
 30
0.0
 11
298.321883
 21
1894.899752
 31
0.0
  0
LINE
  5
24C
330
1F
100
AcDbEntity
  8
002
 62
     3
370
    30
100
AcDbLine
 10
298.321883
 20
1894.899752
 30
0.0
 11
294.857883
 21
1888.899752
 31
0.0
  0
LINE
  5
24D
330
1F
100
AcDbEntity
  8
002
 62
     3
370
    30
100
AcDbLine
 10
294.857883
 20
1888.899752
 30
0.0
 11
298.321883
 21
1882.899752
 31
0.0
  0
CIRCLE
  5
24E
330
1F
100
AcDbEntity
  8
002
 62
     3
370
    30
100
AcDbCircle
 10
301.785883
 20
1888.899752
 30
0.0
 40
10.5
  0
LINE
  5
24F
330
1F
100
AcDbEntity
  8
002
 62
     3
370
    30
100
AcDbLine
 10
264.594883
 20
1928.626752
 30
0.0
 11
258.594883
 21
1925.161752
 31
0.0
  0
LINE
  5
250
330
1F
100
AcDbEntity
  8
002
 62
     3
370
    30
100
AcDbLine
 10
258.594883
 20
1925.161752
 30
0.0
 11
252.594883
 21
1928.626752
 31
0.0
  0
LINE
  5
251
330
1F
100
AcDbEntity
  8
002
 62
     3
370
    30
100
AcDbLine
 10
252.594883
 20
1928.626752
 30
0.0
 11
252.594883
 21
1935.554752
 31
0.0
  0
LINE
  5
252
330
1F
100
AcDbEntity
  8
002
 62
     3
370
    30
100
AcDbLine
 10
252.594883
 20
1935.554752
 30
0.0
 11
258.594883
 21
1939.018752
 31
0.0
  0
LINE
  5
253
330
1F
100
AcDbEntity
  8
002
 62
     3
370
    30
100
AcDbLine
 10
258.594883
 20
1939.018752
 30
0.0
 11
264.594883
 21
1935.554752
 31
0.0
  0
LINE
  5
254
330
1F
100
AcDbEntity
  8
002
 62
     3
370
    30
100
AcDbLine
 10
264.594883
 20
1935.554752
 30
0.0
 11
264.594883
 21
1928.626752
 31
0.0
  0
CIRCLE
  5
255
330
1F
100
AcDbEntity
  8
002
 62
     3
370
    30
100
AcDbCircle
 10
258.594883
 20
1932.090752
 30
0.0
 40
10.5
  0
ARC
  5
256
330
1F
100
AcDbEntity
  8
002
 62
     3
370
    30
100
AcDbCircle
 10
265.785883
 20
1896.090752
 30
0.0
 40
32.50035969031735
100
AcDbArc
 50
127.432294
 51
322.568777
  0
ARC
  5
257
330
1F
100
AcDbEntity
  8
002
 62
     3
370
    30
100
AcDbCircle
 10
265.785883
 20
1896.090752
 30
0.0
 40
16.50012657527214
100
AcDbArc
 50
130.260421
 51
319.73693
  0
ARC
  5
258
330
1F
100
AcDbEntity
  8
002
 62
     3
370
    30
100
AcDbCircle
 10
265.785883
 20
1896.090752
 30
0.0
 40
35.00000000000023
100
AcDbArc
 50
180.0
 51
270.0
  0
LINE
  5
259
330
1F
100
AcDbEntity
  8
002
 62
     3
370
    30
100
AcDbLine
 10
230.785883
 20
1896.090752
 30
0.0
 11
230.785883
 21
1958.594752
 31
0.0
  0
LINE
  5
25A
330
1F
100
AcDbEntity
  8
002
 62
     3
370
    30
100
AcDbLine
 10
227.120883
 20
1981.617752
 30
0.0
 11
215.785883
 21
1982.090752
 31
0.0
  0
LINE
  5
25B
330
1F
100
AcDbEntity
  8
002
 62
     3
370
    30
100
AcDbLine
 10
215.785883
 20
1982.090752
 30
0.0
 11
215.785883
 21
2000.090752
 31
0.0
  0
LINE
  5
25C
330
1F
100
AcDbEntity
  8
002
 62
     3
370
    30
100
AcDbLine
 10
215.785883
 20
2000.090752
 30
0.0
 11
227.120883
 21
2000.562752
 31
0.0
  0
LINE
  5
25D
330
1F
100
AcDbEntity
  8
002
 62
     3
370
    30
100
AcDbLine
 10
239.321883
 20
1997.090752
 30
0.0
 11
235.857883
 21
1991.090752
 31
0.0
  0
LINE
  5
25E
330
1F
100
AcDbEntity
  8
002
 62
     3
370
    30
100
AcDbLine
 10
235.857883
 20
1991.090752
 30
0.0
 11
239.321883
 21
1985.090752
 31
0.0
  0
LINE
  5
25F
330
1F
100
AcDbEntity
  8
002
 62
     3
370
    30
100
AcDbLine
 10
239.321883
 20
1985.090752
 30
0.0
 11
246.249883
 21
1985.090752
 31
0.0
  0
LINE
  5
260
330
1F
100
AcDbEntity
  8
002
 62
     3
370
    30
100
AcDbLine
 10
246.249883
 20
1985.090752
 30
0.0
 11
249.713883
 21
1991.090752
 31
0.0
  0
LINE
  5
261
330
1F
100
AcDbEntity
  8
002
 62
     3
370
    30
100
AcDbLine
 10
249.713883
 20
1991.090752
 30
0.0
 11
246.249883
 21
1997.090752
 31
0.0
  0
LINE
  5
262
330
1F
100
AcDbEntity
  8
002
 62
     3
370
    30
100
AcDbLine
 10
246.249883
 20
1997.090752
 30
0.0
 11
239.321883
 21
1997.090752
 31
0.0
  0
CIRCLE
  5
263
330
1F
100
AcDbEntity
  8
002
 62
     3
370
    30
100
AcDbCircle
 10
242.785883
 20
1991.090752
 30
0.0
 40
10.5
  0
LINE
  5
264
330
1F
100
AcDbEntity
  8
002
 62
     3
370
    30
100
AcDbLine
 10
230.785883
 20
2023.586752
 30
0.0
 11
230.785883
 21
2086.090752
 31
0.0
  0
CIRCLE
  5
265
330
1F
100
AcDbEntity
  8
002
 62
     3
370
    30
100
AcDbCircle
 10
258.594883
 20
2050.090752
 30
0.0
 40
10.5
  0
LINE
  5
266
330
1F
100
AcDbEntity
  8
002
 62
     3
370
    30
100
AcDbLine
 10
258.594883
 20
2057.018752
 30
0.0
 11
252.594883
 21
2053.554752
 31
0.0
  0
LINE
  5
267
330
1F
100
AcDbEntity
  8
002
 62
     3
370
    30
100
AcDbLine
 10
252.594883
 20
2053.554752
 30
0.0
 11
252.594883
 21
2046.626752
 31
0.0
  0
LINE
  5
268
330
1F
100
AcDbEntity
  8
002
 62
     3
370
    30
100
AcDbLine
 10
252.594883
 20
2046.626752
 30
0.0
 11
258.594883
 21
2043.161752
 31
0.0
  0
LINE
  5
269
330
1F
100
AcDbEntity
  8
002
 62
     3
370
    30
100
AcDbLine
 10
258.594883
 20
2043.161752
 30
0.0
 11
264.594883
 21
2046.626752
 31
0.0
  0
LINE
  5
26A
330
1F
100
AcDbEntity
  8
002
 62
     3
370
    30
100
AcDbLine
 10
264.594883
 20
2046.626752
 30
0.0
 11
264.594883
 21
2053.554752
 31
0.0
  0
LINE
  5
26B
330
1F
100
AcDbEntity
  8
002
 62
     3
370
    30
100
AcDbLine
 10
264.594883
 20
2053.554752
 30
0.0
 11
258.594883
 21
2057.018752
 31
0.0
  0
ARC
  5
26C
330
1F
100
AcDbEntity
  8
002
 62
     3
370
    30
100
AcDbCircle
 10
265.785883
 20
2086.090752
 30
0.0
 40
16.50024342244692
100
AcDbArc
 50
40.260421
 51
229.741824
  0
LINE
  5
26D
330
1F
100
AcDbEntity
  8
002
 62
     3
370
    30
100
AcDbLine
 10
294.857883
 20
2093.281752
 30
0.0
 11
298.321883
 21
2099.281752
 31
0.0
  0
LINE
  5
26E
330
1F
100
AcDbEntity
  8
002
 62
     3
370
    30
100
AcDbLine
 10
298.321883
 20
2099.281752
 30
0.0
 11
305.249883
 21
2099.281752
 31
0.0
  0
LINE
  5
26F
330
1F
100
AcDbEntity
  8
002
 62
     3
370
    30
100
AcDbLine
 10
305.249883
 20
2099.281752
 30
0.0
 11
308.713883
 21
2093.281752
 31
0.0
  0
LINE
  5
270
330
1F
100
AcDbEntity
  8
002
 62
     3
370
    30
100
AcDbLine
 10
308.713883
 20
2093.281752
 30
0.0
 11
305.249883
 21
2087.281752
 31
0.0
  0
LINE
  5
271
330
1F
100
AcDbEntity
  8
002
 62
     3
370
    30
100
AcDbLine
 10
305.249883
 20
2087.281752
 30
0.0
 11
298.321883
 21
2087.281752
 31
0.0
  0
LINE
  5
272
330
1F
100
AcDbEntity
  8
002
 62
     3
370
    30
100
AcDbLine
 10
298.321883
 20
2087.281752
 30
0.0
 11
294.857883
 21
2093.281752
 31
0.0
  0
CIRCLE
  5
273
330
1F
100
AcDbEntity
  8
002
 62
     3
370
    30
100
AcDbCircle
 10
301.785883
 20
2093.281752
 30
0.0
 40
10.5
  0
ARC
  5
274
330
1F
100
AcDbEntity
  8
002
 62
     3
370
    30
100
AcDbCircle
 10
265.785883
 20
2086.090752
 30
0.0
 40
32.50035969031721
100
AcDbArc
 50
37.429823
 51
232.568777
  0
LINE
  5
275
330
1F
100
AcDbEntity
  8
002
 62
     3
370
    30
100
AcDbLine
 10
265.785883
 20
2121.090752
 30
0.0
 11
328.289883
 21
2121.090752
 31
0.0
  0
LINE
  5
276
330
1F
100
AcDbEntity
  8
002
 62
     3
370
    30
100
AcDbLine
 10
354.785883
 20
2112.554752
 30
0.0
 11
354.785883
 21
2105.626752
 31
0.0
  0
LINE
  5
277
330
1F
100
AcDbEntity
  8
002
 62
     3
370
    30
100
AcDbLine
 10
354.785883
 20
2105.626752
 30
0.0
 11
360.785883
 21
2102.161752
 31
0.0
  0
LINE
  5
278
330
1F
100
AcDbEntity
  8
002
 62
     3
370
    30
100
AcDbLine
 10
360.785883
 20
2102.161752
 30
0.0
 11
366.785883
 21
2105.626752
 31
0.0
  0
LINE
  5
279
330
1F
100
AcDbEntity
  8
002
 62
     3
370
    30
100
AcDbLine
 10
366.785883
 20
2105.626752
 30
0.0
 11
366.785883
 21
2112.554752
 31
0.0
  0
LINE
  5
27A
330
1F
100
AcDbEntity
  8
002
 62
     3
370
    30
100
AcDbLine
 10
366.785883
 20
2112.554752
 30
0.0
 11
360.785883
 21
2116.018752
 31
0.0
  0
LINE
  5
27B
330
1F
100
AcDbEntity
  8
002
 62
     3
370
    30
100
AcDbLine
 10
360.785883
 20
2116.018752
 30
0.0
 11
354.785883
 21
2112.554752
 31
0.0
  0
CIRCLE
  5
27C
330
1F
100
AcDbEntity
  8
002
 62
     3
370
    30
100
AcDbCircle
 10
360.785883
 20
2109.090752
 30
0.0
 40
10.5
  0
CIRCLE
  5
27D
330
1F
100
AcDbEntity
  8
002
 62
     3
370
    30
100
AcDbCircle
 10
360.785883
 20
1991.090752
 30
0.0
 40
134.0
  0
ARC
  5
27E
330
1F
100
AcDbEntity
  8
002
 62
     3
370
    30
100
AcDbCircle
 10
265.785883
 20
2086.090752
 30
0.0
 40
35.0
100
AcDbArc
 50
90.0
 51
180.0
  0
CIRCLE
  5
27F
330
1F
100
AcDbEntity
  8
002
 62
     3
370
    30
100
AcDbCircle
 10
360.785883
 20
1991.090752
 30
0.0
 40
42.5
  0
CIRCLE
  5
280
330
1F
100
AcDbEntity
  8
002
 62
     3
370
    30
100
AcDbCircle
 10
360.785883
 20
1991.090752
 30
0.0
 40
30.0
  0
LINE
  5
281
330
1F
100
AcDbEntity
  8
002
  6
CENTER
 62
    40
370
     9
100
AcDbLine
 10
607.952883
 20
1991.090752
 30
0.0
 11
195.687883
 21
1991.090752
 31
0.0
  0
LINE
  5
282
330
1F
100
AcDbEntity
  8
002
  6
CENTER
 62
    40
370
     9
100
AcDbLine
 10
545.785883
 20
2039.157752
 30
0.0
 11
545.785883
 21
2131.058752
 31
0.0
  0
LINE
  5
283
330
1F
100
AcDbEntity
  8
002
  6
CENTER
 62
    40
370
     9
100
AcDbLine
 10
590.201883
 20
2086.090752
 30
0.0
 11
498.014883
 21
2086.090752
 31
0.0
  0
LINE
  5
284
330
1F
100
AcDbEntity
  8
002
  6
CENTER
 62
    40
370
     9
100
AcDbLine
 10
545.785883
 20
1851.121752
 30
0.0
 11
545.785883
 21
1943.022752
 31
0.0
  0
LINE
  5
285
330
1F
100
AcDbEntity
  8
002
  6
CENTER
 62
    40
370
     9
100
AcDbLine
 10
498.014883
 20
1896.090752
 30
0.0
 11
590.201883
 21
1896.090752
 31
0.0
  0
LINE
  5
286
330
1F
100
AcDbEntity
  8
002
  6
CENTER
 62
    40
370
     9
100
AcDbLine
 10
455.785883
 20
2184.27697
 30
0.0
 11
455.785883
 21
1796.62513
 31
0.0
  0
CIRCLE
  5
287
330
1F
100
AcDbEntity
  8
002
  6
CENTER
 62
    40
370
     9
100
AcDbCircle
 10
360.785883
 20
1991.090752
 30
0.0
 40
118.0
  0
LINE
  5
288
330
1F
100
AcDbEntity
  8
002
  6
CENTER
 62
    40
370
     9
100
AcDbLine
 10
474.577883
 20
2056.788752
 30
0.0
 11
451.321883
 21
2043.361752
 31
0.0
  0
LINE
  5
289
330
1F
100
AcDbEntity
  8
002
  6
CENTER
 62
    40
370
     9
100
AcDbLine
 10
413.056883
 20
2081.625752
 30
0.0
 11
426.483883
 21
2104.882752
 31
0.0
  0
LINE
  5
28A
330
1F
100
AcDbEntity
  8
002
  6
CENTER
 62
    40
370
     9
100
AcDbLine
 10
360.785883
 20
2143.082752
 30
0.0
 11
360.785883
 21
1839.610752
 31
0.0
  0
LINE
  5
28B
330
1F
100
AcDbEntity
  8
002
  6
CENTER
 62
    40
370
     9
100
AcDbLine
 10
451.321883
 20
1938.819752
 30
0.0
 11
474.577883
 21
1925.392752
 31
0.0
  0
LINE
  5
28C
330
1F
100
AcDbEntity
  8
002
  6
CENTER
 62
    40
370
     9
100
AcDbLine
 10
426.483883
 20
1877.298752
 30
0.0
 11
413.056883
 21
1900.554752
 31
0.0
  0
CIRCLE
  5
28D
330
1F
100
AcDbEntity
  8
002
 62
    40
370
     9
100
AcDbCircle
 10
360.785883
 20
1991.090752
 30
0.0
 40
29.0
  0
LINE
  5
28E
330
1F
100
AcDbEntity
  8
002
  6
CENTER
 62
    40
370
     9
100
AcDbLine
 10
295.087883
 20
1877.298752
 30
0.0
 11
308.514883
 21
1900.554752
 31
0.0
  0
LINE
  5
28F
330
1F
100
AcDbEntity
  8
002
  6
CENTER
 62
    40
370
     9
100
AcDbLine
 10
246.993883
 20
1925.392752
 30
0.0
 11
270.249883
 21
1938.819752
 31
0.0
  0
LINE
  5
290
330
1F
100
AcDbEntity
  8
002
  6
CENTER
 62
    40
370
     9
100
AcDbLine
 10
265.785883
 20
1913.162752
 30
0.0
 11
265.785883
 21
1851.121752
 31
0.0
  0
LINE
  5
291
330
1F
100
AcDbEntity
  8
002
  6
CENTER
 62
    40
370
     9
100
AcDbLine
 10
284.725883
 20
1896.090752
 30
0.0
 11
218.014883
 21
1896.090752
 31
0.0
  0
LINE
  5
292
330
1F
100
AcDbEntity
  8
002
 62
    40
370
     9
100
AcDbLine
 10
215.785883
 20
2000.090752
 30
0.0
 11
227.046883
 21
1982.729752
 31
0.0
  0
LINE
  5
293
330
1F
100
AcDbEntity
  8
002
 62
    40
370
     9
100
AcDbLine
 10
215.785883
 20
1982.090752
 30
0.0
 11
227.046883
 21
1999.451752
 31
0.0
  0
LINE
  5
294
330
1F
100
AcDbEntity
  8
002
  6
CENTER
 62
    40
370
     9
100
AcDbLine
 10
246.993883
 20
2056.788752
 30
0.0
 11
270.249883
 21
2043.361752
 31
0.0
  0
LINE
  5
295
330
1F
100
AcDbEntity
  8
002
  6
CENTER
 62
    40
370
     9
100
AcDbLine
 10
295.087883
 20
2104.882752
 30
0.0
 11
308.514883
 21
2081.625752
 31
0.0
  0
LINE
  5
296
330
1F
100
AcDbEntity
  8
002
  6
CENTER
 62
    40
370
     9
100
AcDbLine
 10
265.785883
 20
2069.017752
 30
0.0
 11
265.785883
 21
2131.058752
 31
0.0
  0
LINE
  5
297
330
1F
100
AcDbEntity
  8
002
  6
CENTER
 62
    40
370
     9
100
AcDbLine
 10
284.725883
 20
2086.090752
 30
0.0
 11
218.014883
 21
2086.090752
 31
0.0
  0
LINE
  5
298
330
1F
100
AcDbEntity
  8
002
  6
CENTER
 62
    40
370
     9
100
AcDbLine
 10
455.785883
 20
1404.435752
 30
0.0
 11
455.785883
 21
1454.707752
 31
0.0
  0
LINE
  5
299
330
1F
100
AcDbEntity
  8
002
  6
CENTER
 62
    40
370
     9
100
AcDbLine
 10
431.057883
 20
1427.747752
 30
0.0
 11
481.600883
 21
1427.747752
 31
0.0
  0
LINE
  5
29A
330
1F
100
AcDbEntity
  8
002
 62
     3
370
    30
100
AcDbLine
 10
1528.00181
 20
1546.759936
 30
0.0
 11
1438.00181
 21
1546.759936
 31
0.0
  0
LINE
  5
29B
330
1F
100
AcDbEntity
  8
002
  6
CENTER
 62
    40
370
     9
100
AcDbLine
 10
1559.50181
 20
1620.823969
 30
0.0
 11
1559.50181
 21
1573.488337
 31
0.0
  0
LINE
  5
29C
330
1F
100
AcDbEntity
  8
002
  6
CENTER
 62
    40
370
     9
100
AcDbLine
 10
1406.50181
 20
1620.823969
 30
0.0
 11
1406.50181
 21
1573.488337
 31
0.0
  0
LINE
  5
29D
330
1F
100
AcDbEntity
  8
002
 62
     3
370
    30
100
AcDbLine
 10
1438.00181
 20
1546.759936
 30
0.0
 11
1438.00181
 21
1589.759936
 31
0.0
  0
LINE
  5
29E
330
1F
100
AcDbEntity
  8
002
 62
     3
370
    30
100
AcDbLine
 10
1528.00181
 20
1546.759936
 30
0.0
 11
1528.00181
 21
1589.759936
 31
0.0
  0
LINE
  5
29F
330
1F
100
AcDbEntity
  8
002
 62
     3
370
    30
100
AcDbLine
 10
1375.00181
 20
1610.759936
 30
0.0
 11
1591.00181
 21
1610.759936
 31
0.0
  0
LINE
  5
2A0
330
1F
100
AcDbEntity
  8
002
 62
     3
370
    30
100
AcDbLine
 10
1591.00181
 20
1610.759936
 30
0.0
 11
1591.00181
 21
1591.759936
 31
0.0
  0
LINE
  5
2A1
330
1F
100
AcDbEntity
  8
002
 62
     3
370
    30
100
AcDbLine
 10
1375.00181
 20
1591.759936
 30
0.0
 11
1375.00181
 21
1610.759936
 31
0.0
  0
CIRCLE
  5
2A2
330
1F
100
AcDbEntity
  8
002
  6
CENTER
 62
    40
370
     9
100
AcDbCircle
 10
1483.00181
 20
1953.291936
 30
0.0
 40
76.5
  0
CIRCLE
  5
2A3
330
1F
100
AcDbEntity
  8
002
 62
    40
370
     9
100
AcDbCircle
 10
1483.00181
 20
1953.291936
 30
0.0
 40
29.0
  0
CIRCLE
  5
2A4
330
1F
100
AcDbEntity
  8
002
 62
     3
370
    30
100
AcDbCircle
 10
1483.00181
 20
1953.291936
 30
0.0
 40
108.0
  0
CIRCLE
  5
2A5
330
1F
100
AcDbEntity
  8
002
 62
     3
370
    30
100
AcDbCircle
 10
1483.00181
 20
1953.291936
 30
0.0
 40
30.0
  0
CIRCLE
  5
2A6
330
1F
100
AcDbEntity
  8
002
 62
     3
370
    30
100
AcDbCircle
 10
1483.00181
 20
2029.791936
 30
0.0
 40
16.0
  0
CIRCLE
  5
2A7
330
1F
100
AcDbEntity
  8
002
 62
     3
370
    30
100
AcDbCircle
 10
1406.50181
 20
1953.291936
 30
0.0
 40
16.0
  0
CIRCLE
  5
2A8
330
1F
100
AcDbEntity
  8
002
 62
     3
370
    30
100
AcDbCircle
 10
1483.00181
 20
1876.791936
 30
0.0
 40
16.0
  0
CIRCLE
  5
2A9
330
1F
100
AcDbEntity
  8
002
 62
     3
370
    30
100
AcDbCircle
 10
1559.50181
 20
1953.291936
 30
0.0
 40
16.0
  0
ARC
  5
2AA
330
1F
100
AcDbEntity
  8
002
 62
     3
370
    30
100
AcDbCircle
 10
1530.00181
 20
1589.759936
 30
0.0
 40
2.0
100
AcDbArc
 50
90.0
 51
180.0
  0
ARC
  5
2AB
330
1F
100
AcDbEntity
  8
002
 62
     3
370
    30
100
AcDbCircle
 10
1436.00181
 20
1589.759936
 30
0.0
 40
2.0
100
AcDbArc
 50
0.0
 51
90.0
  0
LINE
  5
2AC
330
1F
100
AcDbEntity
  8
002
 62
     3
370
    30
100
AcDbLine
 10
1375.00181
 20
1591.759936
 30
0.0
 11
1591.00181
 21
1591.759936
 31
0.0
  0
LINE
  5
2AD
330
1F
100
AcDbEntity
  8
002
  6
CENTER
 62
    40
370
     9
100
AcDbLine
 10
1483.00181
 20
1815.291936
 30
0.0
 11
1483.00181
 21
2091.291936
 31
0.0
  0
LINE
  5
2AE
330
1F
100
AcDbEntity
  8
002
  6
CENTER
 62
    40
370
     9
100
AcDbLine
 10
1345.00181
 20
1953.291936
 30
0.0
 11
1621.00181
 21
1953.291936
 31
0.0
  0
LINE
  5
2AF
330
1F
100
AcDbEntity
  8
002
 62
     3
370
    30
100
AcDbLine
 10
1053.40878
 20
1546.759936
 30
0.0
 11
1055.40878
 21
1548.759936
 31
0.0
  0
LINE
  5
2B0
330
1F
100
AcDbEntity
  8
002
 62
     3
370
    30
100
AcDbLine
 10
967.40878
 20
1546.759936
 30
0.0
 11
1053.40878
 21
1546.759936
 31
0.0
  0
LINE
  5
2B1
330
1F
100
AcDbEntity
  8
002
 62
     3
370
    30
100
AcDbLine
 10
1055.40878
 20
1548.759936
 30
0.0
 11
1055.40878
 21
1751.759936
 31
0.0
  0
LINE
  5
2B2
330
1F
100
AcDbEntity
  8
002
 62
     3
370
    30
100
AcDbLine
 10
965.40878
 20
1751.759936
 30
0.0
 11
965.40878
 21
1548.759936
 31
0.0
  0
LINE
  5
2B3
330
1F
100
AcDbEntity
  8
002
 62
     3
370
    30
100
AcDbLine
 10
967.40878
 20
1546.759936
 30
0.0
 11
965.40878
 21
1548.759936
 31
0.0
  0
LINE
  5
2B4
330
1F
100
AcDbEntity
  8
002
 62
     3
370
    30
100
AcDbLine
 10
965.40878
 20
1548.759936
 30
0.0
 11
1055.40878
 21
1548.759936
 31
0.0
  0
LINE
  5
2B5
330
1F
100
AcDbEntity
  8
002
 62
     3
370
    30
100
AcDbLine
 10
1037.36808
 20
1626.759936
 30
0.0
 11
983.44958
 21
1626.759936
 31
0.0
  0
ARC
  5
2B6
330
1F
100
AcDbEntity
  8
002
 62
     3
370
    30
100
AcDbCircle
 10
983.44958
 20
1636.759936
 30
0.0
 40
10.00003980442079
100
AcDbArc
 50
209.999868
 51
270.0
  0
LINE
  5
2B7
330
1F
100
AcDbEntity
  8
002
 62
     3
370
    30
100
AcDbLine
 10
974.78928
 20
1631.759936
 30
0.0
 11
974.78928
 21
1751.759936
 31
0.0
  0
CIRCLE
  5
2B8
330
1F
100
AcDbEntity
  8
002
 62
     3
370
    30
100
AcDbCircle
 10
1010.40878
 20
1696.759936
 30
0.0
 40
25.0
  0
LINE
  5
2B9
330
1F
100
AcDbEntity
  8
002
 62
     3
370
    30
100
AcDbLine
 10
974.78928
 20
1631.759936
 30
0.0
 11
1046.02838
 21
1631.759936
 31
0.0
  0
ARC
  5
2BA
330
1F
100
AcDbEntity
  8
002
 62
     3
370
    30
100
AcDbCircle
 10
1037.36808
 20
1636.759936
 30
0.0
 40
10.0
100
AcDbArc
 50
270.0
 51
330.000132
  0
CIRCLE
  5
2BB
330
1F
100
AcDbEntity
  8
002
 62
     3
370
    30
100
AcDbCircle
 10
1010.40878
 20
1953.291936
 30
0.0
 40
45.0
  0
LINE
  5
2BC
330
1F
100
AcDbEntity
  8
002
 62
     3
370
    30
100
AcDbLine
 10
974.78928
 20
1925.791936
 30
0.0
 11
1046.02838
 21
1925.791936
 31
0.0
  0
ARC
  5
2BD
330
1F
100
AcDbEntity
  8
002
 62
     3
370
    30
100
AcDbCircle
 10
1010.40878
 20
1953.291936
 30
0.0
 40
34.99997829085041
100
AcDbArc
 50
128.213166
 51
231.786834
  0
LINE
  5
2BE
330
1F
100
AcDbEntity
  8
002
 62
     3
370
    30
100
AcDbLine
 10
1046.02838
 20
1980.791936
 30
0.0
 11
974.78928
 21
1980.791936
 31
0.0
  0
ARC
  5
2BF
330
1F
100
AcDbEntity
  8
002
 62
     3
370
    30
100
AcDbCircle
 10
1010.40878
 20
1953.291936
 30
0.0
 40
35.0000401498341
100
AcDbArc
 50
308.213294
 51
51.786706
  0
LINE
  5
2C0
330
1F
100
AcDbEntity
  8
002
 62
     3
370
    30
100
AcDbLine
 10
974.78928
 20
1751.759936
 30
0.0
 11
965.40878
 21
1751.759936
 31
0.0
  0
LINE
  5
2C1
330
1F
100
AcDbEntity
  8
002
 62
     3
370
    30
100
AcDbLine
 10
974.78928
 20
1751.759936
 30
0.0
 11
988.75818
 21
1761.759936
 31
0.0
  0
LINE
  5
2C2
330
1F
100
AcDbEntity
  8
002
 62
     3
370
    30
100
AcDbLine
 10
975.40878
 20
1761.759936
 30
0.0
 11
965.40878
 21
1751.759936
 31
0.0
  0
LINE
  5
2C3
330
1F
100
AcDbEntity
  8
002
 62
     3
370
    30
100
AcDbLine
 10
1045.40878
 20
1761.759936
 30
0.0
 11
975.40878
 21
1761.759936
 31
0.0
  0
LINE
  5
2C4
330
1F
100
AcDbEntity
  8
002
 62
     3
370
    30
100
AcDbLine
 10
1046.02838
 20
1631.759936
 30
0.0
 11
1046.02838
 21
1751.759936
 31
0.0
  0
LINE
  5
2C5
330
1F
100
AcDbEntity
  8
002
 62
     3
370
    30
100
AcDbLine
 10
1046.02838
 20
1751.759936
 30
0.0
 11
1032.05948
 21
1761.759936
 31
0.0
  0
LINE
  5
2C6
330
1F
100
AcDbEntity
  8
002
 62
     3
370
    30
100
AcDbLine
 10
1046.02838
 20
1751.759936
 30
0.0
 11
1055.40878
 21
1751.759936
 31
0.0
  0
LINE
  5
2C7
330
1F
100
AcDbEntity
  8
002
 62
     3
370
    30
100
AcDbLine
 10
1055.40878
 20
1751.759936
 30
0.0
 11
1045.40878
 21
1761.759936
 31
0.0
  0
LINE
  5
2C8
330
1F
100
AcDbEntity
  8
003
  6
HIDDEN
 62
    40
370
     9
100
AcDbLine
 10
1035.40878
 20
1980.791936
 30
0.0
 11
1035.40878
 21
1925.791936
 31
0.0
  0
LINE
  5
2C9
330
1F
100
AcDbEntity
  8
003
  6
HIDDEN
 62
    40
370
     9
100
AcDbLine
 10
985.40878
 20
1925.791936
 30
0.0
 11
985.40878
 21
1980.791936
 31
0.0
  0
LINE
  5
2CA
330
1F
100
AcDbEntity
  8
003
  6
CENTER
 62
    40
370
     9
100
AcDbLine
 10
1010.40878
 20
1896.734936
 30
0.0
 11
1010.40878
 21
2009.341936
 31
0.0
  0
LINE
  5
2CB
330
1F
100
AcDbEntity
  8
003
  6
CENTER
 62
    40
370
     9
100
AcDbLine
 10
1067.41918
 20
1953.291936
 30
0.0
 11
954.05068
 21
1953.291936
 31
0.0
  0
LINE
  5
2CC
330
1F
100
AcDbEntity
  8
003
  6
CENTER
 62
    40
370
     9
100
AcDbLine
 10
1065.89738
 20
1696.759936
 30
0.0
 11
954.81148
 21
1696.759936
 31
0.0
  0
ARC
  5
2CD
330
1F
100
AcDbEntity
  8
002
 62
     3
370
    30
100
AcDbCircle
 10
455.785883
 20
1427.747752
 30
0.0
 40
17.49951142175116
100
AcDbArc
 50
106.602027
 51
73.397973
  0
LINE
  5
2CE
330
1F
100
AcDbEntity
  8
002
  6
CENTER
 62
    40
370
     9
100
AcDbLine
 10
1010.40878
 20
1773.516825
 30
0.0
 11
1010.40878
 21
1453.723644
 31
0.0
  0
LINE
  5
2CF
330
1F
100
AcDbEntity
  8
002
  6
HIDDEN
 62
    40
370
     9
100
AcDbLine
 10
1040.40878
 20
1608.759936
 30
0.0
 11
980.40878
 21
1608.759936
 31
0.0
  0
LINE
  5
2D0
330
1F
100
AcDbEntity
  8
002
  6
HIDDEN
 62
    40
370
     9
100
AcDbLine
 10
980.40878
 20
1608.759936
 30
0.0
 11
980.40878
 21
1551.759936
 31
0.0
  0
LINE
  5
2D1
330
1F
100
AcDbEntity
  8
002
  6
HIDDEN
 62
    40
370
     9
100
AcDbLine
 10
980.40878
 20
1551.759936
 30
0.0
 11
1040.40878
 21
1551.759936
 31
0.0
  0
LINE
  5
2D2
330
1F
100
AcDbEntity
  8
002
  6
HIDDEN
 62
    40
370
     9
100
AcDbLine
 10
1040.40878
 20
1551.759936
 30
0.0
 11
1040.40878
 21
1608.759936
 31
0.0
  0
LINE
  5
2D3
330
1F
100
AcDbEntity
  8
002
  6
HIDDEN
 62
    40
370
     9
100
AcDbLine
 10
1038.40878
 20
1551.759936
 30
0.0
 11
1038.40878
 21
1546.759936
 31
0.0
  0
LINE
  5
2D4
330
1F
100
AcDbEntity
  8
002
  6
HIDDEN
 62
    40
370
     9
100
AcDbLine
 10
982.40878
 20
1546.759936
 30
0.0
 11
982.40878
 21
1551.759936
 31
0.0
  0
LINE
  5
2D5
330
1F
100
AcDbEntity
  8
002
  6
HIDDEN
 62
    40
370
     9
100
AcDbLine
 10
981.49178
 20
1608.759936
 30
0.0
 11
981.49178
 21
1551.759936
 31
0.0
  0
LINE
  5
2D6
330
1F
100
AcDbEntity
  8
002
  6
HIDDEN
 62
    40
370
     9
100
AcDbLine
 10
1039.32578
 20
1551.759936
 30
0.0
 11
1039.32578
 21
1608.759936
 31
0.0
  0
LINE
  5
2D7
330
1F
100
AcDbEntity
  8
002
  6
CENTER
 62
    40
370
     9
100
AcDbLine
 10
1483.00181
 20
1640.759936
 30
0.0
 11
1483.00181
 21
1453.723644
 31
0.0
  0
LINE
  5
2D8
330
1F
100
AcDbEntity
  8
002
  6
HIDDEN
 62
    40
370
     9
100
AcDbLine
 10
1513.00181
 20
1608.759936
 30
0.0
 11
1453.00181
 21
1608.759936
 31
0.0
  0
LINE
  5
2D9
330
1F
100
AcDbEntity
  8
002
  6
HIDDEN
 62
    40
370
     9
100
AcDbLine
 10
1453.00181
 20
1608.759936
 30
0.0
 11
1453.00181
 21
1551.759936
 31
0.0
  0
LINE
  5
2DA
330
1F
100
AcDbEntity
  8
002
  6
HIDDEN
 62
    40
370
     9
100
AcDbLine
 10
1453.00181
 20
1551.759936
 30
0.0
 11
1513.00181
 21
1551.759936
 31
0.0
  0
LINE
  5
2DB
330
1F
100
AcDbEntity
  8
002
  6
HIDDEN
 62
    40
370
     9
100
AcDbLine
 10
1513.00181
 20
1551.759936
 30
0.0
 11
1513.00181
 21
1608.759936
 31
0.0
  0
LINE
  5
2DC
330
1F
100
AcDbEntity
  8
002
  6
HIDDEN
 62
    40
370
     9
100
AcDbLine
 10
1511.00181
 20
1551.759936
 30
0.0
 11
1511.00181
 21
1546.759936
 31
0.0
  0
LINE
  5
2DD
330
1F
100
AcDbEntity
  8
002
  6
HIDDEN
 62
    40
370
     9
100
AcDbLine
 10
1455.00181
 20
1546.759936
 30
0.0
 11
1455.00181
 21
1551.759936
 31
0.0
  0
LINE
  5
2DE
330
1F
100
AcDbEntity
  8
002
  6
HIDDEN
 62
    40
370
     9
100
AcDbLine
 10
1454.08481
 20
1608.759936
 30
0.0
 11
1454.08481
 21
1551.759936
 31
0.0
  0
LINE
  5
2DF
330
1F
100
AcDbEntity
  8
002
  6
HIDDEN
 62
    40
370
     9
100
AcDbLine
 10
1511.91881
 20
1551.759936
 30
0.0
 11
1511.91881
 21
1608.759936
 31
0.0
  0
LINE
  5
2E0
330
1F
100
AcDbEntity
  8
002
 62
     3
370
    30
100
AcDbLine
 10
266.785883
 20
886.311198
 30
0.0
 11
266.785883
 21
651.311198
 31
0.0
  0
LINE
  5
2E1
330
1F
100
AcDbEntity
  8
002
 62
     3
370
    30
100
AcDbLine
 10
269.094883
 20
651.311198
 30
0.0
 11
269.094883
 21
637.311198
 31
0.0
  0
LINE
  5
2E2
330
1F
100
AcDbEntity
  8
002
 62
     3
370
    30
100
AcDbLine
 10
269.094883
 20
638.311198
 30
0.0
 11
291.285883
 21
638.311198
 31
0.0
  0
LINE
  5
2E3
330
1F
100
AcDbEntity
  8
002
 62
     3
370
    30
100
AcDbLine
 10
291.285883
 20
637.311198
 30
0.0
 11
291.285883
 21
651.311198
 31
0.0
  0
LINE
  5
2E4
330
1F
100
AcDbEntity
  8
002
 62
     3
370
    30
100
AcDbLine
 10
291.285883
 20
651.311198
 30
0.0
 11
312.285883
 21
651.311198
 31
0.0
  0
LINE
  5
2E5
330
1F
100
AcDbEntity
  8
002
 62
     3
370
    30
100
AcDbLine
 10
312.285883
 20
651.311198
 30
0.0
 11
312.285883
 21
637.311198
 31
0.0
  0
LINE
  5
2E6
330
1F
100
AcDbEntity
  8
002
 62
     3
370
    30
100
AcDbLine
 10
312.285883
 20
638.311198
 30
0.0
 11
350.285883
 21
638.311198
 31
0.0
  0
LINE
  5
2E7
330
1F
100
AcDbEntity
  8
002
 62
     3
370
    30
100
AcDbLine
 10
350.285883
 20
637.311198
 30
0.0
 11
350.285883
 21
651.311198
 31
0.0
  0
LINE
  5
2E8
330
1F
100
AcDbEntity
  8
002
 62
     3
370
    30
100
AcDbLine
 10
350.285883
 20
651.311198
 30
0.0
 11
371.285883
 21
651.311198
 31
0.0
  0
LINE
  5
2E9
330
1F
100
AcDbEntity
  8
002
 62
     3
370
    30
100
AcDbLine
 10
371.285883
 20
651.311198
 30
0.0
 11
371.285883
 21
637.311198
 31
0.0
  0
LINE
  5
2EA
330
1F
100
AcDbEntity
  8
002
 62
     3
370
    30
100
AcDbLine
 10
371.285883
 20
638.311198
 30
0.0
 11
409.285883
 21
638.311198
 31
0.0
  0
LINE
  5
2EB
330
1F
100
AcDbEntity
  8
002
 62
     3
370
    30
100
AcDbLine
 10
409.285883
 20
637.311198
 30
0.0
 11
409.285883
 21
651.311198
 31
0.0
  0
LINE
  5
2EC
330
1F
100
AcDbEntity
  8
002
 62
     3
370
    30
100
AcDbLine
 10
409.285883
 20
651.311198
 30
0.0
 11
430.285883
 21
651.311198
 31
0.0
  0
LINE
  5
2ED
330
1F
100
AcDbEntity
  8
002
 62
     3
370
    30
100
AcDbLine
 10
430.285883
 20
651.311198
 30
0.0
 11
430.285883
 21
637.311198
 31
0.0
  0
LINE
  5
2EE
330
1F
100
AcDbEntity
  8
002
 62
     3
370
    30
100
AcDbLine
 10
430.285883
 20
638.311198
 30
0.0
 11
452.476883
 21
638.311198
 31
0.0
  0
LINE
  5
2EF
330
1F
100
AcDbEntity
  8
002
 62
     3
370
    30
100
AcDbLine
 10
452.476883
 20
637.311198
 30
0.0
 11
452.476883
 21
651.311198
 31
0.0
  0
LINE
  5
2F0
330
1F
100
AcDbEntity
  8
002
 62
     3
370
    30
100
AcDbLine
 10
452.476883
 20
651.311198
 30
0.0
 11
489.285883
 21
651.311198
 31
0.0
  0
LINE
  5
2F1
330
1F
100
AcDbEntity
  8
002
 62
     3
370
    30
100
AcDbLine
 10
454.785883
 20
651.311198
 30
0.0
 11
454.785883
 21
886.311198
 31
0.0
  0
LINE
  5
2F2
330
1F
100
AcDbEntity
  8
002
 62
     3
370
    30
100
AcDbLine
 10
454.785883
 20
886.311198
 30
0.0
 11
266.785883
 21
886.311198
 31
0.0
  0
LINE
  5
2F3
330
1F
100
AcDbEntity
  8
002
 62
     3
370
    30
100
AcDbLine
 10
363.672883
 20
846.311198
 30
0.0
 11
357.899883
 21
846.311198
 31
0.0
  0
LINE
  5
2F4
330
1F
100
AcDbEntity
  8
002
 62
     3
370
    30
100
AcDbLine
 10
357.899883
 20
846.311198
 30
0.0
 11
355.012883
 21
841.311198
 31
0.0
  0
LINE
  5
2F5
330
1F
100
AcDbEntity
  8
002
 62
     3
370
    30
100
AcDbLine
 10
355.012883
 20
841.311198
 30
0.0
 11
357.899883
 21
836.311198
 31
0.0
  0
LINE
  5
2F6
330
1F
100
AcDbEntity
  8
002
 62
     3
370
    30
100
AcDbLine
 10
357.899883
 20
836.311198
 30
0.0
 11
363.672883
 21
836.311198
 31
0.0
  0
LINE
  5
2F7
330
1F
100
AcDbEntity
  8
002
 62
     3
370
    30
100
AcDbLine
 10
363.672883
 20
836.311198
 30
0.0
 11
366.559883
 21
841.311198
 31
0.0
  0
LINE
  5
2F8
330
1F
100
AcDbEntity
  8
002
 62
     3
370
    30
100
AcDbLine
 10
366.559883
 20
841.311198
 30
0.0
 11
363.672883
 21
846.311198
 31
0.0
  0
CIRCLE
  5
2F9
330
1F
100
AcDbEntity
  8
002
 62
     3
370
    30
100
AcDbCircle
 10
360.785883
 20
841.311198
 30
0.0
 40
3.25
  0
CIRCLE
  5
2FA
330
1F
100
AcDbEntity
  8
002
 62
     3
370
    30
100
AcDbCircle
 10
360.785883
 20
841.311198
 30
0.0
 40
2.5
  0
CIRCLE
  5
2FB
330
1F
100
AcDbEntity
  8
002
 62
     3
370
    30
100
AcDbCircle
 10
360.785883
 20
841.311198
 30
0.0
 40
0.75
  0
CIRCLE
  5
2FC
330
1F
100
AcDbEntity
  8
002
 62
     3
370
    30
100
AcDbCircle
 10
360.785883
 20
841.311198
 30
0.0
 40
5.0
  0
LINE
  5
2FD
330
1F
100
AcDbEntity
  8
002
 62
     3
370
    30
100
AcDbLine
 10
580.785883
 20
443.311398
 30
0.0
 11
230.785883
 21
443.311398
 31
0.0
  0
LINE
  5
2FE
330
1F
100
AcDbEntity
  8
002
 62
     3
370
    30
100
AcDbLine
 10
230.785883
 20
443.311398
 30
0.0
 11
230.785883
 21
467.311398
 31
0.0
  0
LINE
  5
2FF
330
1F
100
AcDbEntity
  8
002
 62
     3
370
    30
100
AcDbLine
 10
232.785883
 20
469.311398
 30
0.0
 11
578.785883
 21
469.311398
 31
0.0
  0
LINE
  5
300
330
1F
100
AcDbEntity
  8
002
 62
     3
370
    30
100
AcDbLine
 10
580.785883
 20
467.311398
 30
0.0
 11
580.785883
 21
443.311398
 31
0.0
  0
ARC
  5
301
330
1F
100
AcDbEntity
  8
002
 62
     3
370
    30
100
AcDbCircle
 10
578.785883
 20
467.311398
 30
0.0
 40
2.0
100
AcDbArc
 50
0.0
 51
90.0
  0
LINE
  5
302
330
1F
100
AcDbEntity
  8
002
 62
     3
370
    30
100
AcDbLine
 10
574.342883
 20
471.813998
 30
0.0
 11
513.349883
 21
577.601198
 31
0.0
  0
LINE
  5
303
330
1F
100
AcDbEntity
  8
002
 62
     3
370
    30
100
AcDbLine
 10
513.349883
 20
577.601198
 30
0.0
 11
511.449883
 21
577.601198
 31
0.0
  0
ARC
  5
304
330
1F
100
AcDbEntity
  8
002
 62
     3
370
    30
100
AcDbCircle
 10
511.449883
 20
580.601198
 30
0.0
 40
3.0
100
AcDbArc
 50
213.811928
 51
270.0
  0
LINE
  5
305
330
1F
100
AcDbEntity
  8
002
 62
     3
370
    30
100
AcDbLine
 10
509.785883
 20
575.249198
 30
0.0
 11
509.785883
 21
469.311398
 31
0.0
  0
LINE
  5
306
330
1F
100
AcDbEntity
  8
002
 62
     3
370
    30
100
AcDbLine
 10
519.785883
 20
469.311398
 30
0.0
 11
519.785883
 21
543.311398
 31
0.0
  0
ARC
  5
307
330
1F
100
AcDbEntity
  8
002
 62
     3
370
    30
100
AcDbCircle
 10
455.785883
 20
543.311398
 30
0.0
 40
64.00045221723057
100
AcDbArc
 50
0.0
 51
325.22837
  0
ARC
  5
308
330
1F
100
AcDbEntity
  8
002
 62
     3
370
    30
100
AcDbCircle
 10
501.785883
 20
511.373998
 30
0.0
 40
8.0
100
AcDbArc
 50
325.230338
 51
0.0
  0
LINE
  5
309
330
1F
100
AcDbEntity
  8
002
 62
     3
370
    30
100
AcDbLine
 10
391.785883
 20
543.311398
 30
0.0
 11
391.785883
 21
474.311398
 31
0.0
  0
ARC
  5
30A
330
1F
100
AcDbEntity
  8
002
 62
     3
370
    30
100
AcDbCircle
 10
386.785883
 20
474.311398
 30
0.0
 40
5.0
100
AcDbArc
 50
270.0
 51
0.0
  0
LINE
  5
30B
330
1F
100
AcDbEntity
  8
002
 62
     3
370
    30
100
AcDbLine
 10
368.785883
 20
437.311398
 30
0.0
 11
368.785883
 21
427.311398
 31
0.0
  0
LINE
  5
30C
330
1F
100
AcDbEntity
  8
002
 62
     3
370
    30
100
AcDbLine
 10
352.785883
 20
427.311398
 30
0.0
 11
368.785883
 21
427.311398
 31
0.0
  0
LINE
  5
30D
330
1F
100
AcDbEntity
  8
002
 62
     3
370
    30
100
AcDbLine
 10
352.785883
 20
427.311398
 30
0.0
 11
352.785883
 21
437.311398
 31
0.0
  0
LINE
  5
30E
330
1F
100
AcDbEntity
  8
002
 62
     3
370
    30
100
AcDbLine
 10
430.285883
 20
437.311398
 30
0.0
 11
430.285883
 21
427.311398
 31
0.0
  0
LINE
  5
30F
330
1F
100
AcDbEntity
  8
002
 62
     3
370
    30
100
AcDbLine
 10
446.285883
 20
427.311398
 30
0.0
 11
430.285883
 21
427.311398
 31
0.0
  0
LINE
  5
310
330
1F
100
AcDbEntity
  8
002
 62
     3
370
    30
100
AcDbLine
 10
446.285883
 20
427.311398
 30
0.0
 11
446.285883
 21
437.311398
 31
0.0
  0
LINE
  5
311
330
1F
100
AcDbEntity
  8
002
 62
     3
370
    30
100
AcDbLine
 10
448.285883
 20
437.311398
 30
0.0
 11
448.285883
 21
443.311398
 31
0.0
  0
LINE
  5
312
330
1F
100
AcDbEntity
  8
002
 62
     3
370
    30
100
AcDbLine
 10
448.285883
 20
437.311398
 30
0.0
 11
273.285883
 21
437.311398
 31
0.0
  0
LINE
  5
313
330
1F
100
AcDbEntity
  8
002
 62
     3
370
    30
100
AcDbLine
 10
273.285883
 20
437.311398
 30
0.0
 11
273.285883
 21
443.311398
 31
0.0
  0
LINE
  5
314
330
1F
100
AcDbEntity
  8
002
 62
     3
370
    30
100
AcDbLine
 10
275.285883
 20
437.311398
 30
0.0
 11
275.285883
 21
427.311398
 31
0.0
  0
LINE
  5
315
330
1F
100
AcDbEntity
  8
002
 62
     3
370
    30
100
AcDbLine
 10
291.285883
 20
427.311398
 30
0.0
 11
275.285883
 21
427.311398
 31
0.0
  0
LINE
  5
316
330
1F
100
AcDbEntity
  8
002
 62
     3
370
    30
100
AcDbLine
 10
291.285883
 20
427.311398
 30
0.0
 11
291.285883
 21
437.311398
 31
0.0
  0
ARC
  5
317
330
1F
100
AcDbEntity
  8
002
 62
     3
370
    30
100
AcDbCircle
 10
295.783883
 20
474.311398
 30
0.0
 40
5.0
100
AcDbArc
 50
270.0
 51
0.0
  0
LINE
  5
318
330
1F
100
AcDbEntity
  8
002
 62
     3
370
    30
100
AcDbLine
 10
300.783883
 20
474.311398
 30
0.0
 11
300.783883
 21
585.311198
 31
0.0
  0
ARC
  5
319
330
1F
100
AcDbEntity
  8
002
 62
     3
370
    30
100
AcDbCircle
 10
295.783883
 20
585.311198
 30
0.0
 40
5.0
100
AcDbArc
 50
0.0
 51
90.0
  0
LINE
  5
31A
330
1F
100
AcDbEntity
  8
002
 62
     3
370
    30
100
AcDbLine
 10
295.783883
 20
590.311198
 30
0.0
 11
271.214883
 21
590.311198
 31
0.0
  0
ARC
  5
31B
330
1F
100
AcDbEntity
  8
002
 62
     3
370
    30
100
AcDbCircle
 10
271.214883
 20
585.311198
 30
0.0
 40
5.0
100
AcDbArc
 50
90.0
 51
180.0
  0
LINE
  5
31C
330
1F
100
AcDbEntity
  8
002
 62
     3
370
    30
100
AcDbLine
 10
266.214883
 20
585.311198
 30
0.0
 11
266.214883
 21
474.311398
 31
0.0
  0
ARC
  5
31D
330
1F
100
AcDbEntity
  8
002
 62
     3
370
    30
100
AcDbCircle
 10
261.214883
 20
474.311398
 30
0.0
 40
5.0
100
AcDbArc
 50
270.0
 51
0.0
  0
LINE
  5
31E
330
1F
100
AcDbEntity
  8
002
 62
     3
370
    30
100
AcDbLine
 10
248.785883
 20
474.311398
 30
0.0
 11
248.785883
 21
496.910198
 31
0.0
  0
ARC
  5
31F
330
1F
100
AcDbEntity
  8
002
 62
     3
370
    30
100
AcDbCircle
 10
238.785883
 20
496.910198
 30
0.0
 40
10.0001595392274
100
AcDbArc
 50
0.0
 51
65.908597
  0
LINE
  5
320
330
1F
100
AcDbEntity
  8
002
 62
     3
370
    30
100
AcDbLine
 10
242.867883
 20
506.039298
 30
0.0
 11
237.785883
 21
508.311398
 31
0.0
  0
LINE
  5
321
330
1F
100
AcDbEntity
  8
002
 62
     3
370
    30
100
AcDbLine
 10
237.785883
 20
508.311398
 30
0.0
 11
237.785883
 21
583.311198
 31
0.0
  0
ARC
  5
322
330
1F
100
AcDbEntity
  8
002
 62
     3
370
    30
100
AcDbCircle
 10
227.785883
 20
583.311198
 30
0.0
 40
10.0
100
AcDbArc
 50
0.0
 51
90.0
  0
LINE
  5
323
330
1F
100
AcDbEntity
  8
002
 62
     3
370
    30
100
AcDbLine
 10
226.785883
 20
593.311198
 30
0.0
 11
226.785883
 21
637.311198
 31
0.0
  0
LINE
  5
324
330
1F
100
AcDbEntity
  8
002
 62
     3
370
    30
100
AcDbLine
 10
226.785883
 20
637.311198
 30
0.0
 11
494.785883
 21
637.311198
 31
0.0
  0
ARC
  5
325
330
1F
100
AcDbEntity
  8
002
 62
     3
370
    30
100
AcDbCircle
 10
501.785883
 20
575.249198
 30
0.0
 40
8.000189247761748
100
AcDbArc
 50
0.0
 51
34.76672
  0
LINE
  5
326
330
1F
100
AcDbEntity
  8
002
 62
     3
370
    30
100
AcDbLine
 10
494.785883
 20
623.311198
 30
0.0
 11
226.785883
 21
623.311198
 31
0.0
  0
LINE
  5
327
330
1F
100
AcDbEntity
  8
002
 62
     3
370
    30
100
AcDbLine
 10
232.285883
 20
637.311198
 30
0.0
 11
232.285883
 21
651.311198
 31
0.0
  0
LINE
  5
328
330
1F
100
AcDbEntity
  8
002
 62
     3
370
    30
100
AcDbLine
 10
232.285883
 20
651.311198
 30
0.0
 11
269.094883
 21
651.311198
 31
0.0
  0
LINE
  5
329
330
1F
100
AcDbEntity
  8
002
 62
     3
370
    30
100
AcDbLine
 10
248.094883
 20
651.311198
 30
0.0
 11
248.094883
 21
637.311198
 31
0.0
  0
LINE
  5
32A
330
1F
100
AcDbEntity
  8
002
 62
     3
370
    30
100
AcDbLine
 10
473.476883
 20
651.311198
 30
0.0
 11
473.476883
 21
637.311198
 31
0.0
  0
LINE
  5
32B
330
1F
100
AcDbEntity
  8
002
 62
     3
370
    30
100
AcDbLine
 10
489.285883
 20
637.311198
 30
0.0
 11
489.285883
 21
651.311198
 31
0.0
  0
LINE
  5
32C
330
1F
100
AcDbEntity
  8
002
 62
     3
370
    30
100
AcDbLine
 10
431.213883
 20
602.406198
 30
0.0
 11
431.213883
 21
605.642198
 31
0.0
  0
ARC
  5
32D
330
1F
100
AcDbEntity
  8
002
 62
     3
370
    30
100
AcDbCircle
 10
455.785883
 20
543.311398
 30
0.0
 40
66.99971346237237
100
AcDbArc
 50
111.515313
 51
131.731799
  0
LINE
  5
32E
330
1F
100
AcDbEntity
  8
002
 62
     3
370
    30
100
AcDbLine
 10
411.187883
 20
593.311198
 30
0.0
 11
226.785883
 21
593.311198
 31
0.0
  0
LINE
  5
32F
330
1F
100
AcDbEntity
  8
002
 62
     3
370
    30
100
AcDbLine
 10
256.141883
 20
583.311198
 30
0.0
 11
256.141883
 21
543.311398
 31
0.0
  0
LINE
  5
330
330
1F
100
AcDbEntity
  8
002
 62
     3
370
    30
100
AcDbLine
 10
237.785883
 20
559.917198
 30
0.0
 11
227.785883
 21
560.229198
 31
0.0
  0
LINE
  5
331
330
1F
100
AcDbEntity
  8
002
 62
     3
370
    30
100
AcDbLine
 10
227.785883
 20
560.229198
 30
0.0
 11
227.785883
 21
526.393398
 31
0.0
  0
LINE
  5
332
330
1F
100
AcDbEntity
  8
002
 62
     3
370
    30
100
AcDbLine
 10
227.785883
 20
526.393398
 30
0.0
 11
237.785883
 21
526.705898
 31
0.0
  0
LINE
  5
333
330
1F
100
AcDbEntity
  8
002
 62
     3
370
    30
100
AcDbLine
 10
227.785883
 20
533.811398
 30
0.0
 11
215.785883
 21
534.311398
 31
0.0
  0
LINE
  5
334
330
1F
100
AcDbEntity
  8
002
 62
     3
370
    30
100
AcDbLine
 10
215.785883
 20
534.311398
 30
0.0
 11
215.785883
 21
552.311198
 31
0.0
  0
LINE
  5
335
330
1F
100
AcDbEntity
  8
002
 62
     3
370
    30
100
AcDbLine
 10
215.785883
 20
552.311198
 30
0.0
 11
227.785883
 21
552.811198
 31
0.0
  0
ARC
  5
336
330
1F
100
AcDbEntity
  8
002
 62
     3
370
    30
100
AcDbCircle
 10
246.141883
 20
583.311198
 30
0.0
 40
9.999694045319641
100
AcDbArc
 50
0.0
 51
44.428722
  0
LINE
  5
337
330
1F
100
AcDbEntity
  8
002
 62
     3
370
    30
100
AcDbLine
 10
268.783883
 20
582.639198
 30
0.0
 11
298.783883
 21
582.639198
 31
0.0
  0
LINE
  5
338
330
1F
100
AcDbEntity
  8
002
 62
     3
370
    30
100
AcDbLine
 10
357.899883
 20
548.311198
 30
0.0
 11
363.672883
 21
548.311198
 31
0.0
  0
LINE
  5
339
330
1F
100
AcDbEntity
  8
002
 62
     3
370
    30
100
AcDbLine
 10
363.672883
 20
548.311198
 30
0.0
 11
366.559883
 21
543.311398
 31
0.0
  0
LINE
  5
33A
330
1F
100
AcDbEntity
  8
002
 62
     3
370
    30
100
AcDbLine
 10
366.559883
 20
543.311398
 30
0.0
 11
363.672883
 21
538.311398
 31
0.0
  0
LINE
  5
33B
330
1F
100
AcDbEntity
  8
002
 62
     3
370
    30
100
AcDbLine
 10
363.672883
 20
538.311398
 30
0.0
 11
357.899883
 21
538.311398
 31
0.0
  0
LINE
  5
33C
330
1F
100
AcDbEntity
  8
002
 62
     3
370
    30
100
AcDbLine
 10
357.899883
 20
538.311398
 30
0.0
 11
355.012883
 21
543.311398
 31
0.0
  0
LINE
  5
33D
330
1F
100
AcDbEntity
  8
002
 62
     3
370
    30
100
AcDbLine
 10
355.012883
 20
543.311398
 30
0.0
 11
357.899883
 21
548.311198
 31
0.0
  0
CIRCLE
  5
33E
330
1F
100
AcDbEntity
  8
002
 62
     3
370
    30
100
AcDbCircle
 10
360.785883
 20
543.311398
 30
0.0
 40
0.75
  0
CIRCLE
  5
33F
330
1F
100
AcDbEntity
  8
002
 62
     3
370
    30
100
AcDbCircle
 10
360.785883
 20
543.311398
 30
0.0
 40
2.5
  0
CIRCLE
  5
340
330
1F
100
AcDbEntity
  8
002
 62
     3
370
    30
100
AcDbCircle
 10
360.785883
 20
543.311398
 30
0.0
 40
3.25
  0
CIRCLE
  5
341
330
1F
100
AcDbEntity
  8
002
 62
     3
370
    30
100
AcDbCircle
 10
360.785883
 20
543.311398
 30
0.0
 40
5.0
  0
CIRCLE
  5
342
330
1F
100
AcDbEntity
  8
002
 62
     3
370
    30
100
AcDbCircle
 10
360.785883
 20
543.311398
 30
0.0
 40
15.0
  0
ARC
  5
343
330
1F
100
AcDbEntity
  8
002
 62
     3
370
    30
100
AcDbCircle
 10
578.674883
 20
474.311398
 30
0.0
 40
5.0
100
AcDbArc
 50
209.963469
 51
270.0
  0
ARC
  5
344
330
1F
100
AcDbEntity
  8
002
 62
     3
370
    30
100
AcDbCircle
 10
106.303483
 20
550.283198
 30
0.0
 40
150.0005070318096
100
AcDbArc
 50
341.783936
 51
357.336018
  0
ARC
  5
345
330
1F
100
AcDbEntity
  8
002
 62
     3
370
    30
100
AcDbCircle
 10
243.785883
 20
474.311398
 30
0.0
 40
5.0
100
AcDbArc
 50
270.0
 51
0.0
  0
ARC
  5
346
330
1F
100
AcDbEntity
  8
002
 62
     3
370
    30
100
AcDbCircle
 10
232.785883
 20
467.311398
 30
0.0
 40
2.0
100
AcDbArc
 50
90.0
 51
180.0
  0
LINE
  5
347
330
1F
100
AcDbEntity
  8
002
  6
CENTER
 62
    40
370
     9
100
AcDbLine
 10
353.326883
 20
841.311198
 30
0.0
 11
367.821883
 21
841.311198
 31
0.0
  0
LINE
  5
348
330
1F
100
AcDbEntity
  8
002
  6
CENTER
 62
    40
370
     9
100
AcDbLine
 10
242.785883
 20
657.282198
 30
0.0
 11
242.785883
 21
615.900198
 31
0.0
  0
LINE
  5
349
330
1F
100
AcDbEntity
  8
002
  6
CENTER
 62
    40
370
     9
100
AcDbLine
 10
258.594883
 20
615.900198
 30
0.0
 11
258.594883
 21
657.282198
 31
0.0
  0
LINE
  5
34A
330
1F
100
AcDbEntity
  8
002
  6
CENTER
 62
    40
370
     9
100
AcDbLine
 10
301.785883
 20
657.282198
 30
0.0
 11
301.785883
 21
615.900198
 31
0.0
  0
LINE
  5
34B
330
1F
100
AcDbEntity
  8
002
 62
    40
370
     9
100
AcDbLine
 10
237.785883
 20
558.476198
 30
0.0
 11
227.785883
 21
558.789198
 31
0.0
  0
LINE
  5
34C
330
1F
100
AcDbEntity
  8
002
 62
    40
370
     9
100
AcDbLine
 10
227.785883
 20
552.811198
 30
0.0
 11
215.785883
 21
534.311398
 31
0.0
  0
LINE
  5
34D
330
1F
100
AcDbEntity
  8
002
 62
    40
370
     9
100
AcDbLine
 10
227.785883
 20
533.811398
 30
0.0
 11
215.785883
 21
552.311198
 31
0.0
  0
LINE
  5
34E
330
1F
100
AcDbEntity
  8
002
  6
CENTER
 62
    40
370
     9
100
AcDbLine
 10
196.862883
 20
543.311398
 30
0.0
 11
545.785883
 21
543.311398
 31
0.0
  0
LINE
  5
34F
330
1F
100
AcDbEntity
  8
002
  6
DASHED
 62
    40
370
     9
100
AcDbLine
 10
513.285883
 20
469.311398
 30
0.0
 11
513.285883
 21
468.311398
 31
0.0
  0
LINE
  5
350
330
1F
100
AcDbEntity
  8
002
  6
DASHED
 62
    40
370
     9
100
AcDbLine
 10
578.285883
 20
468.311398
 30
0.0
 11
578.285883
 21
469.311398
 31
0.0
  0
LINE
  5
351
330
1F
100
AcDbEntity
  8
002
  6
CENTER
 62
    40
370
     9
100
AcDbLine
 10
545.785883
 20
432.374198
 30
0.0
 11
545.785883
 21
476.472098
 31
0.0
  0
LINE
  5
352
330
1F
100
AcDbEntity
  8
002
  6
CENTER
 62
    40
370
     9
100
AcDbLine
 10
462.976883
 20
615.900198
 30
0.0
 11
462.976883
 21
657.282198
 31
0.0
  0
LINE
  5
353
330
1F
100
AcDbEntity
  8
002
  6
CENTER
 62
    40
370
     9
100
AcDbLine
 10
478.785883
 20
657.282198
 30
0.0
 11
478.785883
 21
615.900198
 31
0.0
  0
LINE
  5
354
330
1F
100
AcDbEntity
  8
002
  6
CENTER
 62
    40
370
     9
100
AcDbLine
 10
419.785883
 20
615.900198
 30
0.0
 11
419.785883
 21
657.282198
 31
0.0
  0
LINE
  5
355
330
1F
100
AcDbEntity
  8
002
  6
CENTER
 62
    40
370
     9
100
AcDbLine
 10
438.285883
 20
455.020098
 30
0.0
 11
438.285883
 21
424.331998
 31
0.0
  0
LINE
  5
356
330
1F
100
AcDbEntity
  8
002
  6
DASHED
 62
    40
370
     9
100
AcDbLine
 10
233.285883
 20
468.311398
 30
0.0
 11
233.285883
 21
469.311398
 31
0.0
  0
LINE
  5
357
330
1F
100
AcDbEntity
  8
002
  6
CENTER
 62
    40
370
     9
100
AcDbLine
 10
265.785883
 20
432.374198
 30
0.0
 11
265.785883
 21
476.472098
 31
0.0
  0
LINE
  5
358
330
1F
100
AcDbEntity
  8
002
  6
CENTER
 62
    40
370
     9
100
AcDbLine
 10
283.285883
 20
455.020098
 30
0.0
 11
283.285883
 21
424.331998
 31
0.0
  0
LINE
  5
359
330
1F
100
AcDbEntity
  8
002
  6
DASHED
 62
    40
370
     9
100
AcDbLine
 10
298.285883
 20
468.311398
 30
0.0
 11
298.285883
 21
469.311398
 31
0.0
  0
LINE
  5
35A
330
1F
100
AcDbEntity
  8
002
 62
    40
370
     9
100
AcDbLine
 10
237.785883
 20
528.146198
 30
0.0
 11
227.785883
 21
527.833698
 31
0.0
  0
LINE
  5
35B
330
1F
100
AcDbEntity
  8
002
  6
HIDDEN
 62
    40
370
     9
100
AcDbLine
 10
298.285883
 20
468.311398
 30
0.0
 11
233.285883
 21
468.311398
 31
0.0
  0
LINE
  5
35C
330
1F
100
AcDbEntity
  8
002
  6
HIDDEN
 62
    40
370
     9
100
AcDbLine
 10
249.285883
 20
468.311398
 30
0.0
 11
249.285883
 21
443.311398
 31
0.0
  0
LINE
  5
35D
330
1F
100
AcDbEntity
  8
002
  6
HIDDEN
 62
    40
370
     9
100
AcDbLine
 10
282.285883
 20
468.311398
 30
0.0
 11
282.285883
 21
443.311398
 31
0.0
  0
LINE
  5
35E
330
1F
100
AcDbEntity
  8
002
  6
HIDDEN
 62
    40
370
     9
100
AcDbLine
 10
513.285883
 20
468.311398
 30
0.0
 11
578.285883
 21
468.311398
 31
0.0
  0
LINE
  5
35F
330
1F
100
AcDbEntity
  8
002
  6
HIDDEN
 62
    40
370
     9
100
AcDbLine
 10
529.285883
 20
468.311398
 30
0.0
 11
529.285883
 21
443.311398
 31
0.0
  0
LINE
  5
360
330
1F
100
AcDbEntity
  8
002
  6
HIDDEN
 62
    40
370
     9
100
AcDbLine
 10
562.285883
 20
468.311398
 30
0.0
 11
562.285883
 21
443.311398
 31
0.0
  0
LINE
  5
361
330
1F
100
AcDbEntity
  8
002
 62
     3
370
    30
100
AcDbLine
 10
303.635883
 20
168.311398
 30
0.0
 11
417.935883
 21
168.311398
 31
0.0
  0
LINE
  5
362
330
1F
100
AcDbEntity
  8
002
 62
     3
370
    30
100
AcDbLine
 10
320.785883
 20
1061.311398
 30
0.0
 11
400.786883
 21
1061.311398
 31
0.0
  0
LINE
  5
363
330
1F
100
AcDbEntity
  8
002
 62
     3
370
    30
100
AcDbLine
 10
332.286883
 20
1061.311398
 30
0.0
 11
332.286883
 21
1064.811398
 31
0.0
  0
LINE
  5
364
330
1F
100
AcDbEntity
  8
002
 62
     3
370
    30
100
AcDbLine
 10
330.786883
 20
1064.811398
 30
0.0
 11
390.786883
 21
1064.811398
 31
0.0
  0
LINE
  5
365
330
1F
100
AcDbEntity
  8
002
 62
     3
370
    30
100
AcDbLine
 10
390.786883
 20
1064.811398
 30
0.0
 11
390.786883
 21
1123.311398
 31
0.0
  0
LINE
  5
366
330
1F
100
AcDbEntity
  8
002
 62
     3
370
    30
100
AcDbLine
 10
390.786883
 20
1123.311398
 30
0.0
 11
330.786883
 21
1123.311398
 31
0.0
  0
LINE
  5
367
330
1F
100
AcDbEntity
  8
002
 62
     3
370
    30
100
AcDbLine
 10
330.786883
 20
1123.311398
 30
0.0
 11
330.786883
 21
1064.811398
 31
0.0
  0
LINE
  5
368
330
1F
100
AcDbEntity
  8
002
 62
     3
370
    30
100
AcDbLine
 10
389.285883
 20
1064.811398
 30
0.0
 11
389.285883
 21
1061.311398
 31
0.0
  0
LINE
  5
369
330
1F
100
AcDbEntity
  8
002
 62
    40
370
     9
100
AcDbLine
 10
332.186883
 20
1123.311398
 30
0.0
 11
332.186883
 21
1064.811398
 31
0.0
  0
LINE
  5
36A
330
1F
100
AcDbEntity
  8
002
 62
    40
370
     9
100
AcDbLine
 10
389.386883
 20
1064.811398
 30
0.0
 11
389.386883
 21
1123.311398
 31
0.0
  0
LINE
  5
36B
330
1F
100
AcDbEntity
  8
002
 62
     3
370
    30
100
AcDbLine
 10
320.785883
 20
1036.311398
 30
0.0
 11
400.786883
 21
1036.311398
 31
0.0
  0
LINE
  5
36C
330
1F
100
AcDbEntity
  8
002
 62
     3
370
    30
100
AcDbLine
 10
1700.188143
 20
467.311398
 30
0.0
 11
1700.188143
 21
443.311398
 31
0.0
  0
LINE
  5
36D
330
1F
100
AcDbEntity
  8
002
 62
     3
370
    30
100
AcDbLine
 10
1700.188143
 20
443.311398
 30
0.0
 11
1350.188143
 21
443.311398
 31
0.0
  0
LINE
  5
36E
330
1F
100
AcDbEntity
  8
002
 62
     3
370
    30
100
AcDbLine
 10
1350.188143
 20
443.311398
 30
0.0
 11
1350.188143
 21
467.311398
 31
0.0
  0
ARC
  5
36F
330
1F
100
AcDbEntity
  8
002
 62
     3
370
    30
100
AcDbCircle
 10
1352.188143
 20
467.311398
 30
0.0
 40
2.0
100
AcDbArc
 50
90.0
 51
180.0
  0
LINE
  5
370
330
1F
100
AcDbEntity
  8
002
 62
     3
370
    30
100
AcDbLine
 10
1352.188143
 20
469.311398
 30
0.0
 11
1698.188143
 21
469.311398
 31
0.0
  0
ARC
  5
371
330
1F
100
AcDbEntity
  8
002
 62
     3
370
    30
100
AcDbCircle
 10
1698.188143
 20
467.311398
 30
0.0
 40
2.0
100
AcDbArc
 50
0.0
 51
90.0
  0
ARC
  5
372
330
1F
100
AcDbEntity
  8
002
 62
     3
370
    30
100
AcDbCircle
 10
1698.077143
 20
474.311398
 30
0.0
 40
4.999456746487718
100
AcDbArc
 50
209.969193
 51
270.0
  0
LINE
  5
373
330
1F
100
AcDbEntity
  8
002
 62
     3
370
    30
100
AcDbLine
 10
1693.746143
 20
471.813998
 30
0.0
 11
1632.752143
 21
577.601198
 31
0.0
  0
LINE
  5
374
330
1F
100
AcDbEntity
  8
002
 62
     3
370
    30
100
AcDbLine
 10
1632.752143
 20
577.601198
 30
0.0
 11
1630.852143
 21
577.601198
 31
0.0
  0
ARC
  5
375
330
1F
100
AcDbEntity
  8
002
 62
     3
370
    30
100
AcDbCircle
 10
1630.852143
 20
580.601198
 30
0.0
 40
2.999270744697995
100
AcDbArc
 50
213.811928
 51
270.0
  0
ARC
  5
376
330
1F
100
AcDbEntity
  8
002
 62
     3
370
    30
100
AcDbCircle
 10
1621.188143
 20
575.249198
 30
0.0
 40
8.0
100
AcDbArc
 50
0.0
 51
34.76672
  0
LINE
  5
377
330
1F
100
AcDbEntity
  8
002
 62
     3
370
    30
100
AcDbLine
 10
1629.188143
 20
575.249198
 30
0.0
 11
1629.188143
 21
469.311398
 31
0.0
  0
LINE
  5
378
330
1F
100
AcDbEntity
  8
002
 62
     3
370
    30
100
AcDbLine
 10
1639.188143
 20
469.311398
 30
0.0
 11
1639.188143
 21
543.311398
 31
0.0
  0
ARC
  5
379
330
1F
100
AcDbEntity
  8
002
 62
     3
370
    30
100
AcDbCircle
 10
1621.188143
 20
511.373998
 30
0.0
 40
8.000474376560526
100
AcDbArc
 50
325.230338
 51
0.0
  0
ARC
  5
37A
330
1F
100
AcDbEntity
  8
002
 62
     3
370
    30
100
AcDbCircle
 10
1575.188143
 20
543.311398
 30
0.0
 40
64.0
100
AcDbArc
 50
0.0
 51
325.22837
  0
LINE
  5
37B
330
1F
100
AcDbEntity
  8
002
 62
     3
370
    30
100
AcDbLine
 10
1511.188143
 20
543.311398
 30
0.0
 11
1511.188143
 21
474.311398
 31
0.0
  0
ARC
  5
37C
330
1F
100
AcDbEntity
  8
002
 62
     3
370
    30
100
AcDbCircle
 10
1506.188143
 20
474.311398
 30
0.0
 40
5.0
100
AcDbArc
 50
270.0
 51
0.0
  0
LINE
  5
37D
330
1F
100
AcDbEntity
  8
002
 62
     3
370
    30
100
AcDbLine
 10
1420.186143
 20
474.311398
 30
0.0
 11
1420.186143
 21
585.311198
 31
0.0
  0
LINE
  5
37E
330
1F
100
AcDbEntity
  8
002
 62
     3
370
    30
100
AcDbLine
 10
1418.186143
 20
582.639198
 30
0.0
 11
1388.186143
 21
582.639198
 31
0.0
  0
LINE
  5
37F
330
1F
100
AcDbEntity
  8
002
 62
     3
370
    30
100
AcDbLine
 10
1385.617143
 20
585.311198
 30
0.0
 11
1385.617143
 21
474.311398
 31
0.0
  0
ARC
  5
380
330
1F
100
AcDbEntity
  8
002
 62
     3
370
    30
100
AcDbCircle
 10
1380.617143
 20
474.311398
 30
0.0
 40
5.0
100
AcDbArc
 50
270.0
 51
0.0
  0
LINE
  5
381
330
1F
100
AcDbEntity
  8
002
 62
     3
370
    30
100
AcDbLine
 10
1368.188143
 20
474.311398
 30
0.0
 11
1368.188143
 21
496.910198
 31
0.0
  0
LINE
  5
382
330
1F
100
AcDbEntity
  8
002
 62
     3
370
    30
100
AcDbLine
 10
1362.270143
 20
506.039298
 30
0.0
 11
1357.188143
 21
508.311398
 31
0.0
  0
LINE
  5
383
330
1F
100
AcDbEntity
  8
002
 62
     3
370
    30
100
AcDbLine
 10
1357.188143
 20
508.311398
 30
0.0
 11
1357.188143
 21
583.311198
 31
0.0
  0
ARC
  5
384
330
1F
100
AcDbEntity
  8
002
 62
     3
370
    30
100
AcDbCircle
 10
1347.188143
 20
583.311198
 30
0.0
 40
10.0
100
AcDbArc
 50
0.0
 51
90.0
  0
LINE
  5
385
330
1F
100
AcDbEntity
  8
002
 62
     3
370
    30
100
AcDbLine
 10
1346.188143
 20
593.311198
 30
0.0
 11
1346.188143
 21
637.311198
 31
0.0
  0
LINE
  5
386
330
1F
100
AcDbEntity
  8
002
 62
     3
370
    30
100
AcDbLine
 10
1346.188143
 20
637.311198
 30
0.0
 11
1614.188143
 21
637.311198
 31
0.0
  0
LINE
  5
387
330
1F
100
AcDbEntity
  8
002
 62
     3
370
    30
100
AcDbLine
 10
1530.590143
 20
593.311198
 30
0.0
 11
1346.188143
 21
593.311198
 31
0.0
  0
ARC
  5
388
330
1F
100
AcDbEntity
  8
002
 62
     3
370
    30
100
AcDbCircle
 10
1365.544143
 20
583.311198
 30
0.0
 40
10.0
100
AcDbArc
 50
0.0
 51
44.428722
  0
LINE
  5
389
330
1F
100
AcDbEntity
  8
002
 62
     3
370
    30
100
AcDbLine
 10
1375.544143
 20
583.311198
 30
0.0
 11
1375.544143
 21
543.311398
 31
0.0
  0
ARC
  5
38A
330
1F
100
AcDbEntity
  8
002
 62
     3
370
    30
100
AcDbCircle
 10
1225.706143
 20
550.283198
 30
0.0
 40
149.9993393385784
100
AcDbArc
 50
341.783888
 51
357.336011
  0
ARC
  5
38B
330
1F
100
AcDbEntity
  8
002
 62
     3
370
    30
100
AcDbCircle
 10
1358.188143
 20
496.910198
 30
0.0
 40
10.0
100
AcDbArc
 50
0.0
 51
65.908597
  0
ARC
  5
38C
330
1F
100
AcDbEntity
  8
002
 62
     3
370
    30
100
AcDbCircle
 10
1363.188143
 20
474.311398
 30
0.0
 40
5.0
100
AcDbArc
 50
270.0
 51
0.0
  0
ARC
  5
38D
330
1F
100
AcDbEntity
  8
002
 62
     3
370
    30
100
AcDbCircle
 10
1415.186143
 20
474.311398
 30
0.0
 40
5.0
100
AcDbArc
 50
270.0
 51
0.0
  0
LINE
  5
38E
330
1F
100
AcDbEntity
  8
002
 62
     3
370
    30
100
AcDbLine
 10
1357.188143
 20
526.705898
 30
0.0
 11
1347.188143
 21
526.393398
 31
0.0
  0
LINE
  5
38F
330
1F
100
AcDbEntity
  8
002
 62
     3
370
    30
100
AcDbLine
 10
1347.188143
 20
526.393398
 30
0.0
 11
1347.188143
 21
560.229198
 31
0.0
  0
LINE
  5
390
330
1F
100
AcDbEntity
  8
002
 62
     3
370
    30
100
AcDbLine
 10
1347.188143
 20
560.229198
 30
0.0
 11
1357.188143
 21
559.917198
 31
0.0
  0
LINE
  5
391
330
1F
100
AcDbEntity
  8
002
 62
     3
370
    30
100
AcDbLine
 10
1347.188143
 20
552.811198
 30
0.0
 11
1335.188143
 21
552.311198
 31
0.0
  0
LINE
  5
392
330
1F
100
AcDbEntity
  8
002
 62
     3
370
    30
100
AcDbLine
 10
1335.188143
 20
552.311198
 30
0.0
 11
1335.188143
 21
534.311398
 31
0.0
  0
LINE
  5
393
330
1F
100
AcDbEntity
  8
002
 62
     3
370
    30
100
AcDbLine
 10
1335.188143
 20
534.311398
 30
0.0
 11
1347.188143
 21
533.811398
 31
0.0
  0
ARC
  5
394
330
1F
100
AcDbEntity
  8
002
 62
     3
370
    30
100
AcDbCircle
 10
1390.617143
 20
585.311198
 30
0.0
 40
5.0
100
AcDbArc
 50
90.0
 51
180.0
  0
LINE
  5
395
330
1F
100
AcDbEntity
  8
002
 62
     3
370
    30
100
AcDbLine
 10
1390.617143
 20
590.311198
 30
0.0
 11
1415.186143
 21
590.311198
 31
0.0
  0
ARC
  5
396
330
1F
100
AcDbEntity
  8
002
 62
     3
370
    30
100
AcDbCircle
 10
1415.186143
 20
585.311198
 30
0.0
 40
5.0
100
AcDbArc
 50
0.0
 51
90.0
  0
LINE
  5
397
330
1F
100
AcDbEntity
  8
002
 62
     3
370
    30
100
AcDbLine
 10
1410.688143
 20
637.311198
 30
0.0
 11
1410.688143
 21
651.311198
 31
0.0
  0
LINE
  5
398
330
1F
100
AcDbEntity
  8
002
 62
     3
370
    30
100
AcDbLine
 10
1410.688143
 20
651.311198
 30
0.0
 11
1431.688143
 21
651.311198
 31
0.0
  0
LINE
  5
399
330
1F
100
AcDbEntity
  8
002
 62
     3
370
    30
100
AcDbLine
 10
1431.688143
 20
651.311198
 30
0.0
 11
1431.688143
 21
637.311198
 31
0.0
  0
LINE
  5
39A
330
1F
100
AcDbEntity
  8
002
 62
     3
370
    30
100
AcDbLine
 10
1431.688143
 20
638.311198
 30
0.0
 11
1469.688143
 21
638.311198
 31
0.0
  0
LINE
  5
39B
330
1F
100
AcDbEntity
  8
002
 62
     3
370
    30
100
AcDbLine
 10
1469.688143
 20
637.311198
 30
0.0
 11
1469.688143
 21
651.311198
 31
0.0
  0
LINE
  5
39C
330
1F
100
AcDbEntity
  8
002
 62
     3
370
    30
100
AcDbLine
 10
1469.688143
 20
651.311198
 30
0.0
 11
1490.688143
 21
651.311198
 31
0.0
  0
LINE
  5
39D
330
1F
100
AcDbEntity
  8
002
 62
     3
370
    30
100
AcDbLine
 10
1490.688143
 20
651.311198
 30
0.0
 11
1490.688143
 21
637.311198
 31
0.0
  0
LINE
  5
39E
330
1F
100
AcDbEntity
  8
002
 62
     3
370
    30
100
AcDbLine
 10
1490.688143
 20
638.311198
 30
0.0
 11
1528.688143
 21
638.311198
 31
0.0
  0
LINE
  5
39F
330
1F
100
AcDbEntity
  8
002
 62
     3
370
    30
100
AcDbLine
 10
1528.688143
 20
637.311198
 30
0.0
 11
1528.688143
 21
651.311198
 31
0.0
  0
LINE
  5
3A0
330
1F
100
AcDbEntity
  8
002
 62
     3
370
    30
100
AcDbLine
 10
1528.688143
 20
651.311198
 30
0.0
 11
1549.688143
 21
651.311198
 31
0.0
  0
LINE
  5
3A1
330
1F
100
AcDbEntity
  8
002
 62
     3
370
    30
100
AcDbLine
 10
1549.688143
 20
651.311198
 30
0.0
 11
1549.688143
 21
637.311198
 31
0.0
  0
LINE
  5
3A2
330
1F
100
AcDbEntity
  8
002
 62
     3
370
    30
100
AcDbLine
 10
1549.688143
 20
638.311198
 30
0.0
 11
1571.879143
 21
638.311198
 31
0.0
  0
LINE
  5
3A3
330
1F
100
AcDbEntity
  8
002
 62
     3
370
    30
100
AcDbLine
 10
1571.879143
 20
637.311198
 30
0.0
 11
1571.879143
 21
651.311198
 31
0.0
  0
LINE
  5
3A4
330
1F
100
AcDbEntity
  8
002
 62
     3
370
    30
100
AcDbLine
 10
1571.879143
 20
651.311198
 30
0.0
 11
1608.688143
 21
651.311198
 31
0.0
  0
LINE
  5
3A5
330
1F
100
AcDbEntity
  8
002
 62
     3
370
    30
100
AcDbLine
 10
1574.188143
 20
651.311198
 30
0.0
 11
1574.188143
 21
886.311198
 31
0.0
  0
LINE
  5
3A6
330
1F
100
AcDbEntity
  8
002
 62
     3
370
    30
100
AcDbLine
 10
1574.188143
 20
886.311198
 30
0.0
 11
1386.188143
 21
886.311198
 31
0.0
  0
LINE
  5
3A7
330
1F
100
AcDbEntity
  8
002
 62
     3
370
    30
100
AcDbLine
 10
1386.188143
 20
886.311198
 30
0.0
 11
1386.188143
 21
651.311198
 31
0.0
  0
LINE
  5
3A8
330
1F
100
AcDbEntity
  8
002
 62
     3
370
    30
100
AcDbLine
 10
1388.497143
 20
651.311198
 30
0.0
 11
1388.497143
 21
637.311198
 31
0.0
  0
LINE
  5
3A9
330
1F
100
AcDbEntity
  8
002
 62
     3
370
    30
100
AcDbLine
 10
1388.497143
 20
638.311198
 30
0.0
 11
1410.688143
 21
638.311198
 31
0.0
  0
LINE
  5
3AA
330
1F
100
AcDbEntity
  8
002
 62
     3
370
    30
100
AcDbLine
 10
1592.879143
 20
651.311198
 30
0.0
 11
1592.879143
 21
637.311198
 31
0.0
  0
LINE
  5
3AB
330
1F
100
AcDbEntity
  8
002
 62
     3
370
    30
100
AcDbLine
 10
1608.688143
 20
637.311198
 30
0.0
 11
1608.688143
 21
651.311198
 31
0.0
  0
LINE
  5
3AC
330
1F
100
AcDbEntity
  8
002
 62
     3
370
    30
100
AcDbLine
 10
1614.188143
 20
623.311198
 30
0.0
 11
1346.188143
 21
623.311198
 31
0.0
  0
LINE
  5
3AD
330
1F
100
AcDbEntity
  8
002
 62
     3
370
    30
100
AcDbLine
 10
1351.688143
 20
637.311198
 30
0.0
 11
1351.688143
 21
651.311198
 31
0.0
  0
LINE
  5
3AE
330
1F
100
AcDbEntity
  8
002
 62
     3
370
    30
100
AcDbLine
 10
1351.688143
 20
651.311198
 30
0.0
 11
1388.497143
 21
651.311198
 31
0.0
  0
LINE
  5
3AF
330
1F
100
AcDbEntity
  8
002
 62
     3
370
    30
100
AcDbLine
 10
1367.497143
 20
651.311198
 30
0.0
 11
1367.497143
 21
637.311198
 31
0.0
  0
CIRCLE
  5
3B0
330
1F
100
AcDbEntity
  8
002
 62
     3
370
    30
100
AcDbCircle
 10
1480.188143
 20
543.311398
 30
0.0
 40
15.0
  0
LINE
  5
3B1
330
1F
100
AcDbEntity
  8
002
 62
     3
370
    30
100
AcDbLine
 10
1474.415143
 20
543.311398
 30
0.0
 11
1477.302143
 21
538.311398
 31
0.0
  0
LINE
  5
3B2
330
1F
100
AcDbEntity
  8
002
 62
     3
370
    30
100
AcDbLine
 10
1477.302143
 20
538.311398
 30
0.0
 11
1483.075143
 21
538.311398
 31
0.0
  0
LINE
  5
3B3
330
1F
100
AcDbEntity
  8
002
 62
     3
370
    30
100
AcDbLine
 10
1483.075143
 20
538.311398
 30
0.0
 11
1485.962143
 21
543.311398
 31
0.0
  0
LINE
  5
3B4
330
1F
100
AcDbEntity
  8
002
 62
     3
370
    30
100
AcDbLine
 10
1485.962143
 20
543.311398
 30
0.0
 11
1483.075143
 21
548.311198
 31
0.0
  0
LINE
  5
3B5
330
1F
100
AcDbEntity
  8
002
 62
     3
370
    30
100
AcDbLine
 10
1483.075143
 20
548.311198
 30
0.0
 11
1477.302143
 21
548.311198
 31
0.0
  0
LINE
  5
3B6
330
1F
100
AcDbEntity
  8
002
 62
     3
370
    30
100
AcDbLine
 10
1477.302143
 20
548.311198
 30
0.0
 11
1474.415143
 21
543.311398
 31
0.0
  0
CIRCLE
  5
3B7
330
1F
100
AcDbEntity
  8
002
 62
     3
370
    30
100
AcDbCircle
 10
1480.188143
 20
543.311398
 30
0.0
 40
5.0
  0
CIRCLE
  5
3B8
330
1F
100
AcDbEntity
  8
002
 62
     3
370
    30
100
AcDbCircle
 10
1480.188143
 20
543.311398
 30
0.0
 40
3.25
  0
CIRCLE
  5
3B9
330
1F
100
AcDbEntity
  8
002
 62
     3
370
    30
100
AcDbCircle
 10
1480.188143
 20
543.311398
 30
0.0
 40
2.5
  0
CIRCLE
  5
3BA
330
1F
100
AcDbEntity
  8
002
 62
     3
370
    30
100
AcDbCircle
 10
1480.188143
 20
543.311398
 30
0.0
 40
0.75
  0
ARC
  5
3BB
330
1F
100
AcDbEntity
  8
002
 62
     3
370
    30
100
AcDbCircle
 10
1575.188143
 20
543.311398
 30
0.0
 40
66.9993418821409
100
AcDbArc
 50
111.515313
 51
131.731799
  0
LINE
  5
3BC
330
1F
100
AcDbEntity
  8
002
 62
     3
370
    30
100
AcDbLine
 10
1550.616143
 20
605.642198
 30
0.0
 11
1550.616143
 21
602.406198
 31
0.0
  0
LINE
  5
3BD
330
1F
100
AcDbEntity
  8
002
 62
     3
370
    30
100
AcDbLine
 10
1483.075143
 20
836.311198
 30
0.0
 11
1477.302143
 21
836.311198
 31
0.0
  0
LINE
  5
3BE
330
1F
100
AcDbEntity
  8
002
 62
     3
370
    30
100
AcDbLine
 10
1477.302143
 20
836.311198
 30
0.0
 11
1474.415143
 21
841.311198
 31
0.0
  0
LINE
  5
3BF
330
1F
100
AcDbEntity
  8
002
 62
     3
370
    30
100
AcDbLine
 10
1474.415143
 20
841.311198
 30
0.0
 11
1477.302143
 21
846.311198
 31
0.0
  0
LINE
  5
3C0
330
1F
100
AcDbEntity
  8
002
 62
     3
370
    30
100
AcDbLine
 10
1477.302143
 20
846.311198
 30
0.0
 11
1483.075143
 21
846.311198
 31
0.0
  0
LINE
  5
3C1
330
1F
100
AcDbEntity
  8
002
 62
     3
370
    30
100
AcDbLine
 10
1483.075143
 20
846.311198
 30
0.0
 11
1485.962143
 21
841.311198
 31
0.0
  0
LINE
  5
3C2
330
1F
100
AcDbEntity
  8
002
 62
     3
370
    30
100
AcDbLine
 10
1485.962143
 20
841.311198
 30
0.0
 11
1483.075143
 21
836.311198
 31
0.0
  0
CIRCLE
  5
3C3
330
1F
100
AcDbEntity
  8
002
 62
     3
370
    30
100
AcDbCircle
 10
1480.188143
 20
841.311198
 30
0.0
 40
0.75
  0
CIRCLE
  5
3C4
330
1F
100
AcDbEntity
  8
002
 62
     3
370
    30
100
AcDbCircle
 10
1480.188143
 20
841.311198
 30
0.0
 40
2.5
  0
CIRCLE
  5
3C5
330
1F
100
AcDbEntity
  8
002
 62
     3
370
    30
100
AcDbCircle
 10
1480.188143
 20
841.311198
 30
0.0
 40
3.25
  0
CIRCLE
  5
3C6
330
1F
100
AcDbEntity
  8
002
 62
     3
370
    30
100
AcDbCircle
 10
1480.188143
 20
841.311198
 30
0.0
 40
5.0
  0
LINE
  5
3C7
330
1F
100
AcDbEntity
  8
002
 62
     3
370
    30
100
AcDbLine
 10
1392.688143
 20
892.311198
 30
0.0
 11
1567.688143
 21
892.311198
 31
0.0
  0
LINE
  5
3C8
330
1F
100
AcDbEntity
  8
002
 62
     3
370
    30
100
AcDbLine
 10
1567.688143
 20
892.311198
 30
0.0
 11
1567.688143
 21
886.311198
 31
0.0
  0
LINE
  5
3C9
330
1F
100
AcDbEntity
  8
002
 62
     3
370
    30
100
AcDbLine
 10
1392.688143
 20
892.311198
 30
0.0
 11
1392.688143
 21
886.311198
 31
0.0
  0
LINE
  5
3CA
330
1F
100
AcDbEntity
  8
002
  6
CENTER
 62
    40
370
     9
100
AcDbLine
 10
1539.188143
 20
615.900198
 30
0.0
 11
1539.188143
 21
657.282198
 31
0.0
  0
LINE
  5
3CB
330
1F
100
AcDbEntity
  8
002
  6
CENTER
 62
    40
370
     9
100
AcDbLine
 10
1582.379143
 20
657.282198
 30
0.0
 11
1582.379143
 21
615.900198
 31
0.0
  0
LINE
  5
3CC
330
1F
100
AcDbEntity
  8
002
  6
CENTER
 62
    40
370
     9
100
AcDbLine
 10
1575.188143
 20
615.623198
 30
0.0
 11
1575.188143
 21
469.311398
 31
0.0
  0
LINE
  5
3CD
330
1F
100
AcDbEntity
  8
002
  6
DASHED
 62
    40
370
     9
100
AcDbLine
 10
1632.688143
 20
469.311398
 30
0.0
 11
1632.688143
 21
468.311398
 31
0.0
  0
LINE
  5
3CE
330
1F
100
AcDbEntity
  8
002
  6
DASHED
 62
    40
370
     9
100
AcDbLine
 10
1697.688143
 20
468.311398
 30
0.0
 11
1697.688143
 21
469.311398
 31
0.0
  0
LINE
  5
3CF
330
1F
100
AcDbEntity
  8
002
  6
CENTER
 62
    40
370
     9
100
AcDbLine
 10
1665.188143
 20
432.374198
 30
0.0
 11
1665.188143
 21
476.472098
 31
0.0
  0
LINE
  5
3D0
330
1F
100
AcDbEntity
  8
002
  6
CENTER
 62
    40
370
     9
100
AcDbLine
 10
1665.188143
 20
543.311398
 30
0.0
 11
1316.265143
 21
543.311398
 31
0.0
  0
LINE
  5
3D1
330
1F
100
AcDbEntity
  8
002
 62
    40
370
     9
100
AcDbLine
 10
1335.188143
 20
534.311398
 30
0.0
 11
1347.188143
 21
552.811198
 31
0.0
  0
LINE
  5
3D2
330
1F
100
AcDbEntity
  8
002
 62
    40
370
     9
100
AcDbLine
 10
1347.188143
 20
558.789198
 30
0.0
 11
1357.188143
 21
558.476198
 31
0.0
  0
LINE
  5
3D3
330
1F
100
AcDbEntity
  8
002
 62
    40
370
     9
100
AcDbLine
 10
1335.188143
 20
552.311198
 30
0.0
 11
1347.188143
 21
533.811398
 31
0.0
  0
LINE
  5
3D4
330
1F
100
AcDbEntity
  8
002
 62
    40
370
     9
100
AcDbLine
 10
1347.188143
 20
527.833698
 30
0.0
 11
1357.188143
 21
528.146198
 31
0.0
  0
LINE
  5
3D5
330
1F
100
AcDbEntity
  8
002
  6
CENTER
 62
    40
370
     9
100
AcDbLine
 10
1385.188143
 20
476.472098
 30
0.0
 11
1385.188143
 21
432.374198
 31
0.0
  0
LINE
  5
3D6
330
1F
100
AcDbEntity
  8
002
  6
DASHED
 62
    40
370
     9
100
AcDbLine
 10
1417.688143
 20
468.311398
 30
0.0
 11
1417.688143
 21
469.311398
 31
0.0
  0
LINE
  5
3D7
330
1F
100
AcDbEntity
  8
002
  6
DASHED
 62
    40
370
     9
100
AcDbLine
 10
1352.688143
 20
468.311398
 30
0.0
 11
1352.688143
 21
469.311398
 31
0.0
  0
LINE
  5
3D8
330
1F
100
AcDbEntity
  8
002
  6
CENTER
 62
    40
370
     9
100
AcDbLine
 10
1362.188143
 20
615.900198
 30
0.0
 11
1362.188143
 21
657.282198
 31
0.0
  0
LINE
  5
3D9
330
1F
100
AcDbEntity
  8
002
  6
CENTER
 62
    40
370
     9
100
AcDbLine
 10
1377.997143
 20
657.282198
 30
0.0
 11
1377.997143
 21
615.900198
 31
0.0
  0
LINE
  5
3DA
330
1F
100
AcDbEntity
  8
002
  6
CENTER
 62
    40
370
     9
100
AcDbLine
 10
1421.188143
 20
615.900198
 30
0.0
 11
1421.188143
 21
657.282198
 31
0.0
  0
LINE
  5
3DB
330
1F
100
AcDbEntity
  8
002
  6
CENTER
 62
    40
370
     9
100
AcDbLine
 10
1598.188143
 20
657.282198
 30
0.0
 11
1598.188143
 21
615.900198
 31
0.0
  0
LINE
  5
3DC
330
1F
100
AcDbEntity
  8
002
  6
CENTER
 62
    40
370
     9
100
AcDbLine
 10
1487.648143
 20
841.311198
 30
0.0
 11
1473.153143
 21
841.311198
 31
0.0
  0
LINE
  5
3DD
330
1F
100
AcDbEntity
  8
002
 62
     3
370
    30
100
AcDbLine
 10
1526.188143
 20
892.311198
 30
0.0
 11
1526.188143
 21
902.311198
 31
0.0
  0
LINE
  5
3DE
330
1F
100
AcDbEntity
  8
002
 62
     3
370
    30
100
AcDbLine
 10
1526.188143
 20
902.311198
 30
0.0
 11
1542.188143
 21
902.311198
 31
0.0
  0
LINE
  5
3DF
330
1F
100
AcDbEntity
  8
002
 62
     3
370
    30
100
AcDbLine
 10
1542.188143
 20
902.311198
 30
0.0
 11
1542.188143
 21
892.311198
 31
0.0
  0
LINE
  5
3E0
330
1F
100
AcDbEntity
  8
002
  6
CENTER
 62
    40
370
     9
100
AcDbLine
 10
1534.188143
 20
905.591023
 30
0.0
 11
1534.188143
 21
883.142369
 31
0.0
  0
LINE
  5
3E1
330
1F
100
AcDbEntity
  8
002
 62
     3
370
    30
100
AcDbLine
 10
1418.188143
 20
892.311198
 30
0.0
 11
1418.188143
 21
902.311198
 31
0.0
  0
LINE
  5
3E2
330
1F
100
AcDbEntity
  8
002
 62
     3
370
    30
100
AcDbLine
 10
1418.188143
 20
902.311198
 30
0.0
 11
1434.188143
 21
902.311198
 31
0.0
  0
LINE
  5
3E3
330
1F
100
AcDbEntity
  8
002
 62
     3
370
    30
100
AcDbLine
 10
1434.188143
 20
902.311198
 30
0.0
 11
1434.188143
 21
892.311198
 31
0.0
  0
LINE
  5
3E4
330
1F
100
AcDbEntity
  8
002
  6
CENTER
 62
    40
370
     9
100
AcDbLine
 10
1426.188143
 20
908.264157
 30
0.0
 11
1426.188143
 21
882.971577
 31
0.0
  0
LINE
  5
3E5
330
1F
100
AcDbEntity
  8
002
  6
HIDDEN
 62
    40
370
     9
100
AcDbLine
 10
1368.688143
 20
443.311398
 30
0.0
 11
1368.688143
 21
468.311398
 31
0.0
  0
LINE
  5
3E6
330
1F
100
AcDbEntity
  8
002
  6
HIDDEN
 62
    40
370
     9
100
AcDbLine
 10
1352.688143
 20
468.311398
 30
0.0
 11
1417.688143
 21
468.311398
 31
0.0
  0
LINE
  5
3E7
330
1F
100
AcDbEntity
  8
002
  6
HIDDEN
 62
    40
370
     9
100
AcDbLine
 10
1401.688143
 20
468.311398
 30
0.0
 11
1401.688143
 21
443.311398
 31
0.0
  0
LINE
  5
3E8
330
1F
100
AcDbEntity
  8
002
  6
HIDDEN
 62
    40
370
     9
100
AcDbLine
 10
1648.688143
 20
468.311398
 30
0.0
 11
1648.688143
 21
443.311398
 31
0.0
  0
LINE
  5
3E9
330
1F
100
AcDbEntity
  8
002
  6
HIDDEN
 62
    40
370
     9
100
AcDbLine
 10
1632.688143
 20
468.311398
 30
0.0
 11
1697.688143
 21
468.311398
 31
0.0
  0
LINE
  5
3EA
330
1F
100
AcDbEntity
  8
002
  6
HIDDEN
 62
    40
370
     9
100
AcDbLine
 10
1681.688143
 20
468.311398
 30
0.0
 11
1681.688143
 21
443.311398
 31
0.0
  0
LINE
  5
3EB
330
1F
100
AcDbEntity
  8
002
 62
     3
370
    30
100
AcDbLine
 10
1537.338143
 20
1161.311398
 30
0.0
 11
1423.038143
 21
1161.311398
 31
0.0
  0
LINE
  5
3EC
330
1F
100
AcDbEntity
  8
002
 62
     3
370
    30
100
AcDbLine
 10
1520.189143
 20
265.311598
 30
0.0
 11
1440.189143
 21
265.311598
 31
0.0
  0
LINE
  5
3ED
330
1F
100
AcDbEntity
  8
002
 62
     3
370
    30
100
AcDbLine
 10
1508.689143
 20
265.311798
 30
0.0
 11
1508.689143
 21
261.811498
 31
0.0
  0
LINE
  5
3EE
330
1F
100
AcDbEntity
  8
002
 62
     3
370
    30
100
AcDbLine
 10
1510.189143
 20
261.811498
 30
0.0
 11
1510.189143
 21
203.311398
 31
0.0
  0
LINE
  5
3EF
330
1F
100
AcDbEntity
  8
002
 62
     3
370
    30
100
AcDbLine
 10
1510.189143
 20
203.311398
 30
0.0
 11
1450.189143
 21
203.311398
 31
0.0
  0
LINE
  5
3F0
330
1F
100
AcDbEntity
  8
002
 62
     3
370
    30
100
AcDbLine
 10
1450.189143
 20
203.311398
 30
0.0
 11
1450.189143
 21
261.811498
 31
0.0
  0
LINE
  5
3F1
330
1F
100
AcDbEntity
  8
002
 62
     3
370
    30
100
AcDbLine
 10
1450.189143
 20
261.811398
 30
0.0
 11
1510.189143
 21
261.811398
 31
0.0
  0
LINE
  5
3F2
330
1F
100
AcDbEntity
  8
002
 62
     3
370
    30
100
AcDbLine
 10
1451.689143
 20
261.811498
 30
0.0
 11
1451.689143
 21
265.311798
 31
0.0
  0
LINE
  5
3F3
330
1F
100
AcDbEntity
  8
002
 62
    40
370
     9
100
AcDbLine
 10
1508.789143
 20
203.311498
 30
0.0
 11
1508.789143
 21
261.811498
 31
0.0
  0
LINE
  5
3F4
330
1F
100
AcDbEntity
  8
002
 62
    40
370
     9
100
AcDbLine
 10
1451.589143
 20
261.811498
 30
0.0
 11
1451.589143
 21
203.311498
 31
0.0
  0
LINE
  5
3F5
330
1F
100
AcDbEntity
  8
002
 62
     3
370
    30
100
AcDbLine
 10
1520.189143
 20
290.311598
 30
0.0
 11
1440.189143
 21
290.311598
 31
0.0
  0
LINE
  5
3F6
330
1F
100
AcDbEntity
  8
002
 62
     3
370
    30
100
AcDbLine
 10
959.768515
 20
886.311198
 30
0.0
 11
959.768515
 21
651.311198
 31
0.0
  0
LINE
  5
3F7
330
1F
100
AcDbEntity
  8
002
 62
     3
370
    30
100
AcDbLine
 10
962.077515
 20
651.311198
 30
0.0
 11
962.077515
 21
637.311198
 31
0.0
  0
LINE
  5
3F8
330
1F
100
AcDbEntity
  8
002
 62
     3
370
    30
100
AcDbLine
 10
962.077515
 20
638.311198
 30
0.0
 11
984.268515
 21
638.311198
 31
0.0
  0
LINE
  5
3F9
330
1F
100
AcDbEntity
  8
002
 62
     3
370
    30
100
AcDbLine
 10
984.268515
 20
637.311198
 30
0.0
 11
984.268515
 21
651.311198
 31
0.0
  0
LINE
  5
3FA
330
1F
100
AcDbEntity
  8
002
 62
     3
370
    30
100
AcDbLine
 10
984.268515
 20
651.311198
 30
0.0
 11
1005.268515
 21
651.311198
 31
0.0
  0
LINE
  5
3FB
330
1F
100
AcDbEntity
  8
002
 62
     3
370
    30
100
AcDbLine
 10
1005.268515
 20
651.311198
 30
0.0
 11
1005.268515
 21
637.311198
 31
0.0
  0
LINE
  5
3FC
330
1F
100
AcDbEntity
  8
002
 62
     3
370
    30
100
AcDbLine
 10
1005.268515
 20
638.311198
 30
0.0
 11
1043.268515
 21
638.311198
 31
0.0
  0
LINE
  5
3FD
330
1F
100
AcDbEntity
  8
002
 62
     3
370
    30
100
AcDbLine
 10
1043.268515
 20
637.311198
 30
0.0
 11
1043.268515
 21
651.311198
 31
0.0
  0
LINE
  5
3FE
330
1F
100
AcDbEntity
  8
002
 62
     3
370
    30
100
AcDbLine
 10
1043.268515
 20
651.311198
 30
0.0
 11
1064.268515
 21
651.311198
 31
0.0
  0
LINE
  5
3FF
330
1F
100
AcDbEntity
  8
002
 62
     3
370
    30
100
AcDbLine
 10
1064.268515
 20
651.311198
 30
0.0
 11
1064.268515
 21
637.311198
 31
0.0
  0
LINE
  5
400
330
1F
100
AcDbEntity
  8
002
 62
     3
370
    30
100
AcDbLine
 10
1064.268515
 20
638.311198
 30
0.0
 11
1102.268515
 21
638.311198
 31
0.0
  0
LINE
  5
401
330
1F
100
AcDbEntity
  8
002
 62
     3
370
    30
100
AcDbLine
 10
1102.268515
 20
637.311198
 30
0.0
 11
1102.268515
 21
651.311198
 31
0.0
  0
LINE
  5
402
330
1F
100
AcDbEntity
  8
002
 62
     3
370
    30
100
AcDbLine
 10
1102.268515
 20
651.311198
 30
0.0
 11
1123.268515
 21
651.311198
 31
0.0
  0
LINE
  5
403
330
1F
100
AcDbEntity
  8
002
 62
     3
370
    30
100
AcDbLine
 10
1123.268515
 20
651.311198
 30
0.0
 11
1123.268515
 21
637.311198
 31
0.0
  0
LINE
  5
404
330
1F
100
AcDbEntity
  8
002
 62
     3
370
    30
100
AcDbLine
 10
1123.268515
 20
638.311198
 30
0.0
 11
1145.459515
 21
638.311198
 31
0.0
  0
LINE
  5
405
330
1F
100
AcDbEntity
  8
002
 62
     3
370
    30
100
AcDbLine
 10
1145.459515
 20
637.311198
 30
0.0
 11
1145.459515
 21
651.311198
 31
0.0
  0
LINE
  5
406
330
1F
100
AcDbEntity
  8
002
 62
     3
370
    30
100
AcDbLine
 10
1145.459515
 20
651.311198
 30
0.0
 11
1182.268515
 21
651.311198
 31
0.0
  0
LINE
  5
407
330
1F
100
AcDbEntity
  8
002
 62
     3
370
    30
100
AcDbLine
 10
1147.768515
 20
651.311198
 30
0.0
 11
1147.768515
 21
886.311198
 31
0.0
  0
LINE
  5
408
330
1F
100
AcDbEntity
  8
002
 62
     3
370
    30
100
AcDbLine
 10
1147.768515
 20
886.311198
 30
0.0
 11
959.768515
 21
886.311198
 31
0.0
  0
LINE
  5
409
330
1F
100
AcDbEntity
  8
002
 62
     3
370
    30
100
AcDbLine
 10
1056.655515
 20
846.311198
 30
0.0
 11
1050.882515
 21
846.311198
 31
0.0
  0
LINE
  5
40A
330
1F
100
AcDbEntity
  8
002
 62
     3
370
    30
100
AcDbLine
 10
1050.882515
 20
846.311198
 30
0.0
 11
1047.995515
 21
841.311198
 31
0.0
  0
LINE
  5
40B
330
1F
100
AcDbEntity
  8
002
 62
     3
370
    30
100
AcDbLine
 10
1047.995515
 20
841.311198
 30
0.0
 11
1050.882515
 21
836.311198
 31
0.0
  0
LINE
  5
40C
330
1F
100
AcDbEntity
  8
002
 62
     3
370
    30
100
AcDbLine
 10
1050.882515
 20
836.311198
 30
0.0
 11
1056.655515
 21
836.311198
 31
0.0
  0
LINE
  5
40D
330
1F
100
AcDbEntity
  8
002
 62
     3
370
    30
100
AcDbLine
 10
1056.655515
 20
836.311198
 30
0.0
 11
1059.542515
 21
841.311198
 31
0.0
  0
LINE
  5
40E
330
1F
100
AcDbEntity
  8
002
 62
     3
370
    30
100
AcDbLine
 10
1059.542515
 20
841.311198
 30
0.0
 11
1056.655515
 21
846.311198
 31
0.0
  0
CIRCLE
  5
40F
330
1F
100
AcDbEntity
  8
002
 62
     3
370
    30
100
AcDbCircle
 10
1053.768515
 20
841.311198
 30
0.0
 40
3.25
  0
CIRCLE
  5
410
330
1F
100
AcDbEntity
  8
002
 62
     3
370
    30
100
AcDbCircle
 10
1053.768515
 20
841.311198
 30
0.0
 40
2.5
  0
CIRCLE
  5
411
330
1F
100
AcDbEntity
  8
002
 62
     3
370
    30
100
AcDbCircle
 10
1053.768515
 20
841.311198
 30
0.0
 40
0.75
  0
CIRCLE
  5
412
330
1F
100
AcDbEntity
  8
002
 62
     3
370
    30
100
AcDbCircle
 10
1053.768515
 20
841.311198
 30
0.0
 40
5.0
  0
LINE
  5
413
330
1F
100
AcDbEntity
  8
002
 62
     3
370
    30
100
AcDbLine
 10
1273.768515
 20
443.311398
 30
0.0
 11
923.768515
 21
443.311398
 31
0.0
  0
LINE
  5
414
330
1F
100
AcDbEntity
  8
002
 62
     3
370
    30
100
AcDbLine
 10
923.768515
 20
443.311398
 30
0.0
 11
923.768515
 21
467.311398
 31
0.0
  0
LINE
  5
415
330
1F
100
AcDbEntity
  8
002
 62
     3
370
    30
100
AcDbLine
 10
925.768515
 20
469.311398
 30
0.0
 11
1271.768515
 21
469.311398
 31
0.0
  0
LINE
  5
416
330
1F
100
AcDbEntity
  8
002
 62
     3
370
    30
100
AcDbLine
 10
1273.768515
 20
467.311398
 30
0.0
 11
1273.768515
 21
443.311398
 31
0.0
  0
ARC
  5
417
330
1F
100
AcDbEntity
  8
002
 62
     3
370
    30
100
AcDbCircle
 10
1271.768515
 20
467.311398
 30
0.0
 40
2.0
100
AcDbArc
 50
0.0
 51
90.0
  0
LINE
  5
418
330
1F
100
AcDbEntity
  8
002
 62
     3
370
    30
100
AcDbLine
 10
1267.325515
 20
471.813998
 30
0.0
 11
1206.332515
 21
577.601198
 31
0.0
  0
LINE
  5
419
330
1F
100
AcDbEntity
  8
002
 62
     3
370
    30
100
AcDbLine
 10
1206.332515
 20
577.601198
 30
0.0
 11
1204.432515
 21
577.601198
 31
0.0
  0
ARC
  5
41A
330
1F
100
AcDbEntity
  8
002
 62
     3
370
    30
100
AcDbCircle
 10
1204.432515
 20
580.601198
 30
0.0
 40
3.0
100
AcDbArc
 50
213.811928
 51
270.0
  0
LINE
  5
41B
330
1F
100
AcDbEntity
  8
002
 62
     3
370
    30
100
AcDbLine
 10
1202.768515
 20
575.249198
 30
0.0
 11
1202.768515
 21
469.311398
 31
0.0
  0
LINE
  5
41C
330
1F
100
AcDbEntity
  8
002
 62
     3
370
    30
100
AcDbLine
 10
1212.768515
 20
469.311398
 30
0.0
 11
1212.768515
 21
543.311398
 31
0.0
  0
ARC
  5
41D
330
1F
100
AcDbEntity
  8
002
 62
     3
370
    30
100
AcDbCircle
 10
1148.768515
 20
543.311398
 30
0.0
 40
64.00045221723057
100
AcDbArc
 50
0.0
 51
325.22837
  0
ARC
  5
41E
330
1F
100
AcDbEntity
  8
002
 62
     3
370
    30
100
AcDbCircle
 10
1194.768515
 20
511.373998
 30
0.0
 40
8.0
100
AcDbArc
 50
325.230338
 51
0.0
  0
LINE
  5
41F
330
1F
100
AcDbEntity
  8
002
 62
     3
370
    30
100
AcDbLine
 10
1084.768515
 20
543.311398
 30
0.0
 11
1084.768515
 21
474.311398
 31
0.0
  0
ARC
  5
420
330
1F
100
AcDbEntity
  8
002
 62
     3
370
    30
100
AcDbCircle
 10
1079.768515
 20
474.311398
 30
0.0
 40
5.0
100
AcDbArc
 50
270.0
 51
0.0
  0
LINE
  5
421
330
1F
100
AcDbEntity
  8
002
 62
     3
370
    30
100
AcDbLine
 10
1061.768515
 20
437.311398
 30
0.0
 11
1061.768515
 21
427.311398
 31
0.0
  0
LINE
  5
422
330
1F
100
AcDbEntity
  8
002
 62
     3
370
    30
100
AcDbLine
 10
1045.768515
 20
427.311398
 30
0.0
 11
1061.768515
 21
427.311398
 31
0.0
  0
LINE
  5
423
330
1F
100
AcDbEntity
  8
002
 62
     3
370
    30
100
AcDbLine
 10
1045.768515
 20
427.311398
 30
0.0
 11
1045.768515
 21
437.311398
 31
0.0
  0
LINE
  5
424
330
1F
100
AcDbEntity
  8
002
 62
     3
370
    30
100
AcDbLine
 10
1123.268515
 20
437.311398
 30
0.0
 11
1123.268515
 21
427.311398
 31
0.0
  0
LINE
  5
425
330
1F
100
AcDbEntity
  8
002
 62
     3
370
    30
100
AcDbLine
 10
1139.268515
 20
427.311398
 30
0.0
 11
1123.268515
 21
427.311398
 31
0.0
  0
LINE
  5
426
330
1F
100
AcDbEntity
  8
002
 62
     3
370
    30
100
AcDbLine
 10
1139.268515
 20
427.311398
 30
0.0
 11
1139.268515
 21
437.311398
 31
0.0
  0
LINE
  5
427
330
1F
100
AcDbEntity
  8
002
 62
     3
370
    30
100
AcDbLine
 10
1141.268515
 20
437.311398
 30
0.0
 11
1141.268515
 21
443.311398
 31
0.0
  0
LINE
  5
428
330
1F
100
AcDbEntity
  8
002
 62
     3
370
    30
100
AcDbLine
 10
1141.268515
 20
437.311398
 30
0.0
 11
966.268515
 21
437.311398
 31
0.0
  0
LINE
  5
429
330
1F
100
AcDbEntity
  8
002
 62
     3
370
    30
100
AcDbLine
 10
966.268515
 20
437.311398
 30
0.0
 11
966.268515
 21
443.311398
 31
0.0
  0
LINE
  5
42A
330
1F
100
AcDbEntity
  8
002
 62
     3
370
    30
100
AcDbLine
 10
968.268515
 20
437.311398
 30
0.0
 11
968.268515
 21
427.311398
 31
0.0
  0
LINE
  5
42B
330
1F
100
AcDbEntity
  8
002
 62
     3
370
    30
100
AcDbLine
 10
984.268515
 20
427.311398
 30
0.0
 11
968.268515
 21
427.311398
 31
0.0
  0
LINE
  5
42C
330
1F
100
AcDbEntity
  8
002
 62
     3
370
    30
100
AcDbLine
 10
984.268515
 20
427.311398
 30
0.0
 11
984.268515
 21
437.311398
 31
0.0
  0
ARC
  5
42D
330
1F
100
AcDbEntity
  8
002
 62
     3
370
    30
100
AcDbCircle
 10
988.766515
 20
474.311398
 30
0.0
 40
5.0
100
AcDbArc
 50
270.0
 51
0.0
  0
LINE
  5
42E
330
1F
100
AcDbEntity
  8
002
 62
     3
370
    30
100
AcDbLine
 10
993.766515
 20
474.311398
 30
0.0
 11
993.766515
 21
585.311198
 31
0.0
  0
ARC
  5
42F
330
1F
100
AcDbEntity
  8
002
 62
     3
370
    30
100
AcDbCircle
 10
988.766515
 20
585.311198
 30
0.0
 40
5.0
100
AcDbArc
 50
0.0
 51
90.0
  0
LINE
  5
430
330
1F
100
AcDbEntity
  8
002
 62
     3
370
    30
100
AcDbLine
 10
988.766515
 20
590.311198
 30
0.0
 11
964.197515
 21
590.311198
 31
0.0
  0
ARC
  5
431
330
1F
100
AcDbEntity
  8
002
 62
     3
370
    30
100
AcDbCircle
 10
964.197515
 20
585.311198
 30
0.0
 40
5.0
100
AcDbArc
 50
90.0
 51
180.0
  0
LINE
  5
432
330
1F
100
AcDbEntity
  8
002
 62
     3
370
    30
100
AcDbLine
 10
959.197515
 20
585.311198
 30
0.0
 11
959.197515
 21
474.311398
 31
0.0
  0
ARC
  5
433
330
1F
100
AcDbEntity
  8
002
 62
     3
370
    30
100
AcDbCircle
 10
954.197515
 20
474.311398
 30
0.0
 40
5.0
100
AcDbArc
 50
270.0
 51
0.0
  0
LINE
  5
434
330
1F
100
AcDbEntity
  8
002
 62
     3
370
    30
100
AcDbLine
 10
941.768515
 20
474.311398
 30
0.0
 11
941.768515
 21
496.910198
 31
0.0
  0
ARC
  5
435
330
1F
100
AcDbEntity
  8
002
 62
     3
370
    30
100
AcDbCircle
 10
931.768515
 20
496.910198
 30
0.0
 40
10.0001595392274
100
AcDbArc
 50
0.0
 51
65.908597
  0
LINE
  5
436
330
1F
100
AcDbEntity
  8
002
 62
     3
370
    30
100
AcDbLine
 10
935.850515
 20
506.039298
 30
0.0
 11
930.768515
 21
508.311398
 31
0.0
  0
LINE
  5
437
330
1F
100
AcDbEntity
  8
002
 62
     3
370
    30
100
AcDbLine
 10
930.768515
 20
508.311398
 30
0.0
 11
930.768515
 21
583.311198
 31
0.0
  0
ARC
  5
438
330
1F
100
AcDbEntity
  8
002
 62
     3
370
    30
100
AcDbCircle
 10
920.768515
 20
583.311198
 30
0.0
 40
10.0
100
AcDbArc
 50
0.0
 51
90.0
  0
LINE
  5
439
330
1F
100
AcDbEntity
  8
002
 62
     3
370
    30
100
AcDbLine
 10
919.768515
 20
593.311198
 30
0.0
 11
919.768515
 21
637.311198
 31
0.0
  0
LINE
  5
43A
330
1F
100
AcDbEntity
  8
002
 62
     3
370
    30
100
AcDbLine
 10
919.768515
 20
637.311198
 30
0.0
 11
1187.768515
 21
637.311198
 31
0.0
  0
ARC
  5
43B
330
1F
100
AcDbEntity
  8
002
 62
     3
370
    30
100
AcDbCircle
 10
1194.768515
 20
575.249198
 30
0.0
 40
8.000189247761748
100
AcDbArc
 50
0.0
 51
34.76672
  0
LINE
  5
43C
330
1F
100
AcDbEntity
  8
002
 62
     3
370
    30
100
AcDbLine
 10
1187.768515
 20
623.311198
 30
0.0
 11
919.768515
 21
623.311198
 31
0.0
  0
LINE
  5
43D
330
1F
100
AcDbEntity
  8
002
 62
     3
370
    30
100
AcDbLine
 10
925.268515
 20
637.311198
 30
0.0
 11
925.268515
 21
651.311198
 31
0.0
  0
LINE
  5
43E
330
1F
100
AcDbEntity
  8
002
 62
     3
370
    30
100
AcDbLine
 10
925.268515
 20
651.311198
 30
0.0
 11
962.077515
 21
651.311198
 31
0.0
  0
LINE
  5
43F
330
1F
100
AcDbEntity
  8
002
 62
     3
370
    30
100
AcDbLine
 10
941.077515
 20
651.311198
 30
0.0
 11
941.077515
 21
637.311198
 31
0.0
  0
LINE
  5
440
330
1F
100
AcDbEntity
  8
002
 62
     3
370
    30
100
AcDbLine
 10
1166.459515
 20
651.311198
 30
0.0
 11
1166.459515
 21
637.311198
 31
0.0
  0
LINE
  5
441
330
1F
100
AcDbEntity
  8
002
 62
     3
370
    30
100
AcDbLine
 10
1182.268515
 20
637.311198
 30
0.0
 11
1182.268515
 21
651.311198
 31
0.0
  0
LINE
  5
442
330
1F
100
AcDbEntity
  8
002
 62
     3
370
    30
100
AcDbLine
 10
1124.196515
 20
602.406198
 30
0.0
 11
1124.196515
 21
605.642198
 31
0.0
  0
ARC
  5
443
330
1F
100
AcDbEntity
  8
002
 62
     3
370
    30
100
AcDbCircle
 10
1148.768515
 20
543.311398
 30
0.0
 40
66.99971346237237
100
AcDbArc
 50
111.515313
 51
131.731799
  0
LINE
  5
444
330
1F
100
AcDbEntity
  8
002
 62
     3
370
    30
100
AcDbLine
 10
1104.170515
 20
593.311198
 30
0.0
 11
919.768515
 21
593.311198
 31
0.0
  0
LINE
  5
445
330
1F
100
AcDbEntity
  8
002
 62
     3
370
    30
100
AcDbLine
 10
949.124515
 20
583.311198
 30
0.0
 11
949.124515
 21
543.311398
 31
0.0
  0
LINE
  5
446
330
1F
100
AcDbEntity
  8
002
 62
     3
370
    30
100
AcDbLine
 10
930.768515
 20
559.917198
 30
0.0
 11
920.768515
 21
560.229198
 31
0.0
  0
LINE
  5
447
330
1F
100
AcDbEntity
  8
002
 62
     3
370
    30
100
AcDbLine
 10
920.768515
 20
560.229198
 30
0.0
 11
920.768515
 21
526.393398
 31
0.0
  0
LINE
  5
448
330
1F
100
AcDbEntity
  8
002
 62
     3
370
    30
100
AcDbLine
 10
920.768515
 20
526.393398
 30
0.0
 11
930.768515
 21
526.705898
 31
0.0
  0
LINE
  5
449
330
1F
100
AcDbEntity
  8
002
 62
     3
370
    30
100
AcDbLine
 10
920.768515
 20
533.811398
 30
0.0
 11
908.768515
 21
534.311398
 31
0.0
  0
LINE
  5
44A
330
1F
100
AcDbEntity
  8
002
 62
     3
370
    30
100
AcDbLine
 10
908.768515
 20
534.311398
 30
0.0
 11
908.768515
 21
552.311198
 31
0.0
  0
LINE
  5
44B
330
1F
100
AcDbEntity
  8
002
 62
     3
370
    30
100
AcDbLine
 10
908.768515
 20
552.311198
 30
0.0
 11
920.768515
 21
552.811198
 31
0.0
  0
ARC
  5
44C
330
1F
100
AcDbEntity
  8
002
 62
     3
370
    30
100
AcDbCircle
 10
939.124515
 20
583.311198
 30
0.0
 40
9.999694045319641
100
AcDbArc
 50
0.0
 51
44.428722
  0
LINE
  5
44D
330
1F
100
AcDbEntity
  8
002
 62
     3
370
    30
100
AcDbLine
 10
961.766515
 20
582.639198
 30
0.0
 11
991.766515
 21
582.639198
 31
0.0
  0
LINE
  5
44E
330
1F
100
AcDbEntity
  8
002
 62
     3
370
    30
100
AcDbLine
 10
1050.882515
 20
548.311198
 30
0.0
 11
1056.655515
 21
548.311198
 31
0.0
  0
LINE
  5
44F
330
1F
100
AcDbEntity
  8
002
 62
     3
370
    30
100
AcDbLine
 10
1056.655515
 20
548.311198
 30
0.0
 11
1059.542515
 21
543.311398
 31
0.0
  0
LINE
  5
450
330
1F
100
AcDbEntity
  8
002
 62
     3
370
    30
100
AcDbLine
 10
1059.542515
 20
543.311398
 30
0.0
 11
1056.655515
 21
538.311398
 31
0.0
  0
LINE
  5
451
330
1F
100
AcDbEntity
  8
002
 62
     3
370
    30
100
AcDbLine
 10
1056.655515
 20
538.311398
 30
0.0
 11
1050.882515
 21
538.311398
 31
0.0
  0
LINE
  5
452
330
1F
100
AcDbEntity
  8
002
 62
     3
370
    30
100
AcDbLine
 10
1050.882515
 20
538.311398
 30
0.0
 11
1047.995515
 21
543.311398
 31
0.0
  0
LINE
  5
453
330
1F
100
AcDbEntity
  8
002
 62
     3
370
    30
100
AcDbLine
 10
1047.995515
 20
543.311398
 30
0.0
 11
1050.882515
 21
548.311198
 31
0.0
  0
CIRCLE
  5
454
330
1F
100
AcDbEntity
  8
002
 62
     3
370
    30
100
AcDbCircle
 10
1053.768515
 20
543.311398
 30
0.0
 40
0.75
  0
CIRCLE
  5
455
330
1F
100
AcDbEntity
  8
002
 62
     3
370
    30
100
AcDbCircle
 10
1053.768515
 20
543.311398
 30
0.0
 40
2.5
  0
CIRCLE
  5
456
330
1F
100
AcDbEntity
  8
002
 62
     3
370
    30
100
AcDbCircle
 10
1053.768515
 20
543.311398
 30
0.0
 40
3.25
  0
CIRCLE
  5
457
330
1F
100
AcDbEntity
  8
002
 62
     3
370
    30
100
AcDbCircle
 10
1053.768515
 20
543.311398
 30
0.0
 40
5.0
  0
CIRCLE
  5
458
330
1F
100
AcDbEntity
  8
002
 62
     3
370
    30
100
AcDbCircle
 10
1053.768515
 20
543.311398
 30
0.0
 40
15.0
  0
ARC
  5
459
330
1F
100
AcDbEntity
  8
002
 62
     3
370
    30
100
AcDbCircle
 10
1271.657515
 20
474.311398
 30
0.0
 40
5.0
100
AcDbArc
 50
209.963469
 51
270.0
  0
ARC
  5
45A
330
1F
100
AcDbEntity
  8
002
 62
     3
370
    30
100
AcDbCircle
 10
799.286115
 20
550.283198
 30
0.0
 40
150.0005070318096
100
AcDbArc
 50
341.783936
 51
357.336018
  0
ARC
  5
45B
330
1F
100
AcDbEntity
  8
002
 62
     3
370
    30
100
AcDbCircle
 10
936.768515
 20
474.311398
 30
0.0
 40
5.0
100
AcDbArc
 50
270.0
 51
0.0
  0
ARC
  5
45C
330
1F
100
AcDbEntity
  8
002
 62
     3
370
    30
100
AcDbCircle
 10
925.768515
 20
467.311398
 30
0.0
 40
2.0
100
AcDbArc
 50
90.0
 51
180.0
  0
LINE
  5
45D
330
1F
100
AcDbEntity
  8
002
  6
CENTER
 62
    40
370
     9
100
AcDbLine
 10
1046.309515
 20
841.311198
 30
0.0
 11
1060.804515
 21
841.311198
 31
0.0
  0
LINE
  5
45E
330
1F
100
AcDbEntity
  8
002
  6
CENTER
 62
    40
370
     9
100
AcDbLine
 10
935.768515
 20
657.282198
 30
0.0
 11
935.768515
 21
615.900198
 31
0.0
  0
LINE
  5
45F
330
1F
100
AcDbEntity
  8
002
  6
CENTER
 62
    40
370
     9
100
AcDbLine
 10
951.577515
 20
615.900198
 30
0.0
 11
951.577515
 21
657.282198
 31
0.0
  0
LINE
  5
460
330
1F
100
AcDbEntity
  8
002
  6
CENTER
 62
    40
370
     9
100
AcDbLine
 10
994.768515
 20
657.282198
 30
0.0
 11
994.768515
 21
615.900198
 31
0.0
  0
LINE
  5
461
330
1F
100
AcDbEntity
  8
002
 62
    40
370
     9
100
AcDbLine
 10
930.768515
 20
558.476198
 30
0.0
 11
920.768515
 21
558.789198
 31
0.0
  0
LINE
  5
462
330
1F
100
AcDbEntity
  8
002
 62
    40
370
     9
100
AcDbLine
 10
920.768515
 20
552.811198
 30
0.0
 11
908.768515
 21
534.311398
 31
0.0
  0
LINE
  5
463
330
1F
100
AcDbEntity
  8
002
 62
    40
370
     9
100
AcDbLine
 10
920.768515
 20
533.811398
 30
0.0
 11
908.768515
 21
552.311198
 31
0.0
  0
LINE
  5
464
330
1F
100
AcDbEntity
  8
002
  6
CENTER
 62
    40
370
     9
100
AcDbLine
 10
889.845515
 20
543.311398
 30
0.0
 11
1238.768515
 21
543.311398
 31
0.0
  0
LINE
  5
465
330
1F
100
AcDbEntity
  8
002
  6
DASHED
 62
    40
370
     9
100
AcDbLine
 10
1206.268515
 20
469.311398
 30
0.0
 11
1206.268515
 21
468.311398
 31
0.0
  0
LINE
  5
466
330
1F
100
AcDbEntity
  8
002
  6
DASHED
 62
    40
370
     9
100
AcDbLine
 10
1271.268515
 20
468.311398
 30
0.0
 11
1271.268515
 21
469.311398
 31
0.0
  0
LINE
  5
467
330
1F
100
AcDbEntity
  8
002
  6
CENTER
 62
    40
370
     9
100
AcDbLine
 10
1238.768515
 20
432.374198
 30
0.0
 11
1238.768515
 21
476.472098
 31
0.0
  0
LINE
  5
468
330
1F
100
AcDbEntity
  8
002
  6
CENTER
 62
    40
370
     9
100
AcDbLine
 10
1148.768515
 20
469.311398
 30
0.0
 11
1148.768515
 21
615.623198
 31
0.0
  0
LINE
  5
469
330
1F
100
AcDbEntity
  8
002
  6
CENTER
 62
    40
370
     9
100
AcDbLine
 10
1155.959515
 20
615.900198
 30
0.0
 11
1155.959515
 21
657.282198
 31
0.0
  0
LINE
  5
46A
330
1F
100
AcDbEntity
  8
002
  6
CENTER
 62
    40
370
     9
100
AcDbLine
 10
1171.768515
 20
657.282198
 30
0.0
 11
1171.768515
 21
615.900198
 31
0.0
  0
LINE
  5
46B
330
1F
100
AcDbEntity
  8
002
  6
CENTER
 62
    40
370
     9
100
AcDbLine
 10
1112.768515
 20
615.900198
 30
0.0
 11
1112.768515
 21
657.282198
 31
0.0
  0
LINE
  5
46C
330
1F
100
AcDbEntity
  8
002
  6
CENTER
 62
    40
370
     9
100
AcDbLine
 10
1131.268515
 20
455.020098
 30
0.0
 11
1131.268515
 21
424.331998
 31
0.0
  0
LINE
  5
46D
330
1F
100
AcDbEntity
  8
002
  6
DASHED
 62
    40
370
     9
100
AcDbLine
 10
926.268515
 20
468.311398
 30
0.0
 11
926.268515
 21
469.311398
 31
0.0
  0
LINE
  5
46E
330
1F
100
AcDbEntity
  8
002
  6
CENTER
 62
    40
370
     9
100
AcDbLine
 10
958.768515
 20
432.374198
 30
0.0
 11
958.768515
 21
476.472098
 31
0.0
  0
LINE
  5
46F
330
1F
100
AcDbEntity
  8
002
  6
CENTER
 62
    40
370
     9
100
AcDbLine
 10
976.268515
 20
455.020098
 30
0.0
 11
976.268515
 21
424.331998
 31
0.0
  0
LINE
  5
470
330
1F
100
AcDbEntity
  8
002
  6
DASHED
 62
    40
370
     9
100
AcDbLine
 10
991.268515
 20
468.311398
 30
0.0
 11
991.268515
 21
469.311398
 31
0.0
  0
LINE
  5
471
330
1F
100
AcDbEntity
  8
002
 62
    40
370
     9
100
AcDbLine
 10
930.768515
 20
528.146198
 30
0.0
 11
920.768515
 21
527.833698
 31
0.0
  0
LINE
  5
472
330
1F
100
AcDbEntity
  8
002
 62
     3
370
    30
100
AcDbLine
 10
966.268515
 20
886.311198
 30
0.0
 11
966.268515
 21
888.611198
 31
0.0
  0
LINE
  5
473
330
1F
100
AcDbEntity
  8
002
 62
     3
370
    30
100
AcDbLine
 10
966.268515
 20
888.611198
 30
0.0
 11
1141.268515
 21
888.611198
 31
0.0
  0
LINE
  5
474
330
1F
100
AcDbEntity
  8
002
 62
     3
370
    30
100
AcDbLine
 10
1141.268515
 20
888.611198
 30
0.0
 11
1141.268515
 21
886.311198
 31
0.0
  0
LINE
  5
475
330
1F
100
AcDbEntity
  8
002
 62
     3
370
    30
100
AcDbLine
 10
1115.768515
 20
888.611198
 30
0.0
 11
1115.768515
 21
898.611198
 31
0.0
  0
LINE
  5
476
330
1F
100
AcDbEntity
  8
002
 62
     3
370
    30
100
AcDbLine
 10
1099.768515
 20
898.611198
 30
0.0
 11
1099.768515
 21
888.611198
 31
0.0
  0
LINE
  5
477
330
1F
100
AcDbEntity
  8
002
 62
     3
370
    30
100
AcDbLine
 10
1099.768515
 20
898.611198
 30
0.0
 11
1115.768515
 21
898.611198
 31
0.0
  0
ARC
  5
478
330
1F
100
AcDbEntity
  8
002
 62
     3
370
    30
100
AcDbCircle
 10
1122.768515
 20
916.311198
 30
0.0
 40
1.000163611615539
100
AcDbArc
 50
279.989728
 51
80.010272
  0
LINE
  5
479
330
1F
100
AcDbEntity
  8
002
 62
     3
370
    30
100
AcDbLine
 10
1122.942015
 20
917.296198
 30
0.0
 11
1104.595015
 21
920.326198
 31
0.0
  0
ARC
  5
47A
330
1F
100
AcDbEntity
  8
002
 62
     3
370
    30
100
AcDbCircle
 10
1104.768515
 20
921.311198
 30
0.0
 40
1.000163611615743
100
AcDbArc
 50
99.989728
 51
260.010272
  0
LINE
  5
47B
330
1F
100
AcDbEntity
  8
002
 62
     3
370
    30
100
AcDbLine
 10
1104.595015
 20
922.296198
 30
0.0
 11
1122.942015
 21
925.326198
 31
0.0
  0
ARC
  5
47C
330
1F
100
AcDbEntity
  8
002
 62
     3
370
    30
100
AcDbCircle
 10
1122.768515
 20
926.311198
 30
0.0
 40
1.000163611615539
100
AcDbArc
 50
279.989728
 51
80.010272
  0
LINE
  5
47D
330
1F
100
AcDbEntity
  8
002
 62
     3
370
    30
100
AcDbLine
 10
1122.942015
 20
927.296198
 30
0.0
 11
1104.595015
 21
930.326198
 31
0.0
  0
LINE
  5
47E
330
1F
100
AcDbEntity
  8
002
 62
     3
370
    30
100
AcDbLine
 10
1104.595015
 20
932.296198
 30
0.0
 11
1122.942015
 21
935.326198
 31
0.0
  0
ARC
  5
47F
330
1F
100
AcDbEntity
  8
002
 62
     3
370
    30
100
AcDbCircle
 10
1122.768515
 20
936.311198
 30
0.0
 40
1.000163611615539
100
AcDbArc
 50
279.989728
 51
80.010272
  0
LINE
  5
480
330
1F
100
AcDbEntity
  8
002
 62
     3
370
    30
100
AcDbLine
 10
1122.942015
 20
937.296198
 30
0.0
 11
1104.595015
 21
940.326198
 31
0.0
  0
ARC
  5
481
330
1F
100
AcDbEntity
  8
002
 62
     3
370
    30
100
AcDbCircle
 10
1104.768515
 20
941.311198
 30
0.0
 40
1.000163611615743
100
AcDbArc
 50
180.0
 51
260.010272
  0
LINE
  5
482
330
1F
100
AcDbEntity
  8
002
 62
     3
370
    30
100
AcDbLine
 10
1102.768515
 20
941.311198
 30
0.0
 11
1004.768515
 21
941.311198
 31
0.0
  0
LINE
  5
483
330
1F
100
AcDbEntity
  8
002
 62
     3
370
    30
100
AcDbLine
 10
1002.942015
 20
940.326198
 30
0.0
 11
984.595015
 21
937.296198
 31
0.0
  0
ARC
  5
484
330
1F
100
AcDbEntity
  8
002
 62
     3
370
    30
100
AcDbCircle
 10
984.768515
 20
936.311198
 30
0.0
 40
1.000163611615743
100
AcDbArc
 50
99.989728
 51
260.010272
  0
LINE
  5
485
330
1F
100
AcDbEntity
  8
002
 62
     3
370
    30
100
AcDbLine
 10
984.595015
 20
935.326198
 30
0.0
 11
1002.942015
 21
932.296198
 31
0.0
  0
LINE
  5
486
330
1F
100
AcDbEntity
  8
002
 62
     3
370
    30
100
AcDbLine
 10
1002.942015
 20
930.326198
 30
0.0
 11
984.595015
 21
927.296198
 31
0.0
  0
ARC
  5
487
330
1F
100
AcDbEntity
  8
002
 62
     3
370
    30
100
AcDbCircle
 10
984.768515
 20
926.311198
 30
0.0
 40
1.000163611615743
100
AcDbArc
 50
99.989728
 51
260.010272
  0
LINE
  5
488
330
1F
100
AcDbEntity
  8
002
 62
     3
370
    30
100
AcDbLine
 10
984.595015
 20
925.326198
 30
0.0
 11
1002.942015
 21
922.296198
 31
0.0
  0
ARC
  5
489
330
1F
100
AcDbEntity
  8
002
 62
     3
370
    30
100
AcDbCircle
 10
1002.768515
 20
921.311198
 30
0.0
 40
1.000163611615519
100
AcDbArc
 50
279.989728
 51
80.010272
  0
LINE
  5
48A
330
1F
100
AcDbEntity
  8
002
 62
     3
370
    30
100
AcDbLine
 10
1002.942015
 20
920.326198
 30
0.0
 11
984.595015
 21
917.296198
 31
0.0
  0
ARC
  5
48B
330
1F
100
AcDbEntity
  8
002
 62
     3
370
    30
100
AcDbCircle
 10
984.768515
 20
916.311198
 30
0.0
 40
1.000163611615743
100
AcDbArc
 50
99.989728
 51
260.010272
  0
LINE
  5
48C
330
1F
100
AcDbEntity
  8
002
 62
     3
370
    30
100
AcDbLine
 10
984.595015
 20
915.326198
 30
0.0
 11
995.568515
 21
911.311198
 31
0.0
  0
LINE
  5
48D
330
1F
100
AcDbEntity
  8
002
 62
     3
370
    30
100
AcDbLine
 10
995.568515
 20
911.311198
 30
0.0
 11
995.568515
 21
910.311198
 31
0.0
  0
LINE
  5
48E
330
1F
100
AcDbEntity
  8
002
 62
     3
370
    30
100
AcDbLine
 10
994.968515
 20
910.311198
 30
0.0
 11
994.968515
 21
898.611198
 31
0.0
  0
LINE
  5
48F
330
1F
100
AcDbEntity
  8
002
 62
     3
370
    30
100
AcDbLine
 10
1007.768515
 20
896.311198
 30
0.0
 11
1053.768515
 21
896.311198
 31
0.0
  0
LINE
  5
490
330
1F
100
AcDbEntity
  8
002
 62
     3
370
    30
100
AcDbLine
 10
991.768515
 20
898.611198
 30
0.0
 11
991.768515
 21
888.611198
 31
0.0
  0
LINE
  5
491
330
1F
100
AcDbEntity
  8
002
 62
     3
370
    30
100
AcDbLine
 10
991.768515
 20
898.611198
 30
0.0
 11
1007.768515
 21
898.611198
 31
0.0
  0
LINE
  5
492
330
1F
100
AcDbEntity
  8
002
 62
     3
370
    30
100
AcDbLine
 10
1007.768515
 20
898.611198
 30
0.0
 11
1007.768515
 21
888.611198
 31
0.0
  0
ARC
  5
493
330
1F
100
AcDbEntity
  8
002
 62
     3
370
    30
100
AcDbCircle
 10
986.968515
 20
899.311198
 30
0.0
 40
2.0
100
AcDbArc
 50
180.0
 51
270.0
  0
LINE
  5
494
330
1F
100
AcDbEntity
  8
002
 62
     3
370
    30
100
AcDbLine
 10
984.968515
 20
899.311198
 30
0.0
 11
984.968515
 21
908.311198
 31
0.0
  0
LINE
  5
495
330
1F
100
AcDbEntity
  8
002
 62
     3
370
    30
100
AcDbLine
 10
986.968515
 20
910.311198
 30
0.0
 11
1112.568515
 21
910.311198
 31
0.0
  0
LINE
  5
496
330
1F
100
AcDbEntity
  8
002
 62
     3
370
    30
100
AcDbLine
 10
1112.568515
 20
910.311198
 30
0.0
 11
1112.568515
 21
898.611198
 31
0.0
  0
LINE
  5
497
330
1F
100
AcDbEntity
  8
002
 62
     3
370
    30
100
AcDbLine
 10
1099.768515
 20
897.311198
 30
0.0
 11
1053.768515
 21
897.311198
 31
0.0
  0
LINE
  5
498
330
1F
100
AcDbEntity
  8
002
 62
     3
370
    30
100
AcDbLine
 10
1053.768515
 20
896.311198
 30
0.0
 11
1099.768515
 21
896.311198
 31
0.0
  0
LINE
  5
499
330
1F
100
AcDbEntity
  8
002
 62
     3
370
    30
100
AcDbLine
 10
1111.968515
 20
910.311198
 30
0.0
 11
1111.968515
 21
911.311198
 31
0.0
  0
LINE
  5
49A
330
1F
100
AcDbEntity
  8
002
 62
     3
370
    30
100
AcDbLine
 10
1111.968515
 20
911.311198
 30
0.0
 11
1122.942015
 21
915.326198
 31
0.0
  0
LINE
  5
49B
330
1F
100
AcDbEntity
  8
002
 62
     3
370
    30
100
AcDbLine
 10
1122.768515
 20
916.311198
 30
0.0
 11
984.768515
 21
916.311198
 31
0.0
  0
ARC
  5
49C
330
1F
100
AcDbEntity
  8
002
 62
     3
370
    30
100
AcDbCircle
 10
986.968515
 20
908.311198
 30
0.0
 40
2.0
100
AcDbArc
 50
90.0
 51
180.0
  0
CIRCLE
  5
49D
330
1F
100
AcDbEntity
  8
002
 62
     3
370
    30
100
AcDbCircle
 10
989.968515
 20
903.811198
 30
0.0
 40
1.0
  0
LINE
  5
49E
330
1F
100
AcDbEntity
  8
002
 62
     3
370
    30
100
AcDbLine
 10
995.568515
 20
911.311198
 30
0.0
 11
1111.968515
 21
911.311198
 31
0.0
  0
LINE
  5
49F
330
1F
100
AcDbEntity
  8
002
 62
     3
370
    30
100
AcDbLine
 10
1102.768515
 20
921.311198
 30
0.0
 11
1004.768515
 21
921.311198
 31
0.0
  0
ARC
  5
4A0
330
1F
100
AcDbEntity
  8
002
 62
     3
370
    30
100
AcDbCircle
 10
1002.768515
 20
931.311198
 30
0.0
 40
1.000163611615519
100
AcDbArc
 50
279.989728
 51
80.010272
  0
LINE
  5
4A1
330
1F
100
AcDbEntity
  8
002
 62
     3
370
    30
100
AcDbLine
 10
1004.768515
 20
931.311198
 30
0.0
 11
1102.768515
 21
931.311198
 31
0.0
  0
ARC
  5
4A2
330
1F
100
AcDbEntity
  8
002
 62
     3
370
    30
100
AcDbCircle
 10
1104.768515
 20
931.311198
 30
0.0
 40
1.000163611615743
100
AcDbArc
 50
99.989728
 51
260.010272
  0
LINE
  5
4A3
330
1F
100
AcDbEntity
  8
002
 62
     3
370
    30
100
AcDbLine
 10
1122.768515
 20
926.311198
 30
0.0
 11
984.768515
 21
926.311198
 31
0.0
  0
LINE
  5
4A4
330
1F
100
AcDbEntity
  8
002
 62
     3
370
    30
100
AcDbLine
 10
984.768515
 20
936.311198
 30
0.0
 11
1122.768515
 21
936.311198
 31
0.0
  0
ARC
  5
4A5
330
1F
100
AcDbEntity
  8
002
 62
     3
370
    30
100
AcDbCircle
 10
1002.768515
 20
941.311198
 30
0.0
 40
1.0
100
AcDbArc
 50
279.989728
 51
0.0
  0
LINE
  5
4A6
330
1F
100
AcDbEntity
  8
002
  6
CENTER
 62
    40
370
     9
100
AcDbLine
 10
989.968515
 20
905.538198
 30
0.0
 11
989.968515
 21
902.227198
 31
0.0
  0
LINE
  5
4A7
330
1F
100
AcDbEntity
  8
002
  6
CENTER
 62
    40
370
     9
100
AcDbLine
 10
988.292915
 20
903.811198
 30
0.0
 11
991.771315
 21
903.811198
 31
0.0
  0
LINE
  5
4A8
330
1F
100
AcDbEntity
  8
002
  6
PHANTOM
 62
    40
370
     9
100
AcDbLine
 10
1123.768515
 20
936.311198
 30
0.0
 11
1123.768515
 21
1010.311398
 31
0.0
  0
LINE
  5
4A9
330
1F
100
AcDbEntity
  8
002
  6
PHANTOM
 62
    40
370
     9
100
AcDbLine
 10
1103.768515
 20
1005.311398
 30
0.0
 11
1103.768515
 21
941.311198
 31
0.0
  0
LINE
  5
4AA
330
1F
100
AcDbEntity
  8
002
  6
PHANTOM
 62
    40
370
     9
100
AcDbLine
 10
1003.768515
 20
941.311198
 30
0.0
 11
1003.768515
 21
1005.311398
 31
0.0
  0
LINE
  5
4AB
330
1F
100
AcDbEntity
  8
002
  6
PHANTOM
 62
    40
370
     9
100
AcDbLine
 10
983.768515
 20
1010.311398
 30
0.0
 11
983.768515
 21
936.311198
 31
0.0
  0
LINE
  5
4AC
330
1F
100
AcDbEntity
  8
002
 62
     3
370
    30
100
AcDbLine
 10
1007.768515
 20
897.311198
 30
0.0
 11
1053.768515
 21
897.311198
 31
0.0
  0
LINE
  5
4AD
330
1F
100
AcDbEntity
  8
002
 62
     3
370
    30
100
AcDbLine
 10
991.768515
 20
897.311198
 30
0.0
 11
986.968515
 21
897.311198
 31
0.0
  0
LINE
  5
4AE
330
1F
100
AcDbEntity
  8
002
  6
HIDDEN
 62
    40
370
     9
100
AcDbLine
 10
991.268515
 20
468.311398
 30
0.0
 11
926.268515
 21
468.311398
 31
0.0
  0
LINE
  5
4AF
330
1F
100
AcDbEntity
  8
002
  6
HIDDEN
 62
    40
370
     9
100
AcDbLine
 10
942.268515
 20
468.311398
 30
0.0
 11
942.268515
 21
443.311398
 31
0.0
  0
LINE
  5
4B0
330
1F
100
AcDbEntity
  8
002
  6
HIDDEN
 62
    40
370
     9
100
AcDbLine
 10
975.268515
 20
468.311398
 30
0.0
 11
975.268515
 21
443.311398
 31
0.0
  0
LINE
  5
4B1
330
1F
100
AcDbEntity
  8
002
  6
HIDDEN
 62
    40
370
     9
100
AcDbLine
 10
1222.268515
 20
468.311398
 30
0.0
 11
1222.268515
 21
443.311398
 31
0.0
  0
LINE
  5
4B2
330
1F
100
AcDbEntity
  8
002
  6
HIDDEN
 62
    40
370
     9
100
AcDbLine
 10
1206.268515
 20
468.311398
 30
0.0
 11
1271.268515
 21
468.311398
 31
0.0
  0
LINE
  5
4B3
330
1F
100
AcDbEntity
  8
002
  6
HIDDEN
 62
    40
370
     9
100
AcDbLine
 10
1255.268515
 20
468.311398
 30
0.0
 11
1255.268515
 21
443.311398
 31
0.0
  0
LINE
  5
4B4
330
1F
100
AcDbEntity
  8
002
 62
     3
370
    30
100
AcDbLine
 10
996.618515
 20
168.311398
 30
0.0
 11
1110.918515
 21
168.311398
 31
0.0
  0
LINE
  5
4B5
330
1F
100
AcDbEntity
  8
002
 62
     3
370
    30
100
AcDbLine
 10
1102.768515
 20
1005.311398
 30
0.0
 11
1004.768515
 21
1005.311398
 31
0.0
  0
ARC
  5
4B6
330
1F
100
AcDbEntity
  8
002
 62
     3
370
    30
100
AcDbCircle
 10
1002.768515
 20
1005.311398
 30
0.0
 40
1.000163611615519
100
AcDbArc
 50
0.0
 51
80.010272
  0
LINE
  5
4B7
330
1F
100
AcDbEntity
  8
002
 62
     3
370
    30
100
AcDbLine
 10
1002.942015
 20
1006.296398
 30
0.0
 11
984.595015
 21
1009.326398
 31
0.0
  0
LINE
  5
4B8
330
1F
100
AcDbEntity
  8
002
 62
     3
370
    30
100
AcDbLine
 10
984.768515
 20
1010.311398
 30
0.0
 11
1122.768515
 21
1010.311398
 31
0.0
  0
LINE
  5
4B9
330
1F
100
AcDbEntity
  8
002
 62
     3
370
    30
100
AcDbLine
 10
1122.942015
 20
1011.296398
 30
0.0
 11
1104.595015
 21
1014.326398
 31
0.0
  0
LINE
  5
4BA
330
1F
100
AcDbEntity
  8
002
 62
     3
370
    30
100
AcDbLine
 10
1104.595015
 20
1016.296398
 30
0.0
 11
1122.942015
 21
1019.326398
 31
0.0
  0
ARC
  5
4BB
330
1F
100
AcDbEntity
  8
002
 62
     3
370
    30
100
AcDbCircle
 10
1122.768515
 20
1020.311398
 30
0.0
 40
1.000163611615539
100
AcDbArc
 50
279.989728
 51
80.010272
  0
LINE
  5
4BC
330
1F
100
AcDbEntity
  8
002
 62
     3
370
    30
100
AcDbLine
 10
1122.942015
 20
1021.296398
 30
0.0
 11
1104.595015
 21
1024.326398
 31
0.0
  0
LINE
  5
4BD
330
1F
100
AcDbEntity
  8
002
 62
     3
370
    30
100
AcDbLine
 10
1104.595015
 20
1026.296398
 30
0.0
 11
1122.942015
 21
1029.326398
 31
0.0
  0
ARC
  5
4BE
330
1F
100
AcDbEntity
  8
002
 62
     3
370
    30
100
AcDbCircle
 10
1122.768515
 20
1030.311398
 30
0.0
 40
1.000163611615539
100
AcDbArc
 50
279.989728
 51
80.010272
  0
LINE
  5
4BF
330
1F
100
AcDbEntity
  8
002
 62
     3
370
    30
100
AcDbLine
 10
1122.942015
 20
1031.296398
 30
0.0
 11
1104.595015
 21
1034.326398
 31
0.0
  0
LINE
  5
4C0
330
1F
100
AcDbEntity
  8
002
 62
     3
370
    30
100
AcDbLine
 10
1104.595015
 20
1036.296398
 30
0.0
 11
1122.942015
 21
1039.326398
 31
0.0
  0
ARC
  5
4C1
330
1F
100
AcDbEntity
  8
002
 62
     3
370
    30
100
AcDbCircle
 10
1122.768515
 20
1040.311398
 30
0.0
 40
1.000163611615539
100
AcDbArc
 50
279.989728
 51
80.010272
  0
LINE
  5
4C2
330
1F
100
AcDbEntity
  8
002
 62
     3
370
    30
100
AcDbLine
 10
1122.942015
 20
1041.296398
 30
0.0
 11
1094.468515
 21
1045.311398
 31
0.0
  0
LINE
  5
4C3
330
1F
100
AcDbEntity
  8
002
 62
     3
370
    30
100
AcDbLine
 10
1094.468515
 20
1045.311398
 30
0.0
 11
1013.068515
 21
1045.311398
 31
0.0
  0
LINE
  5
4C4
330
1F
100
AcDbEntity
  8
002
 62
     3
370
    30
100
AcDbLine
 10
1013.068515
 20
1045.311398
 30
0.0
 11
984.595015
 21
1041.296398
 31
0.0
  0
ARC
  5
4C5
330
1F
100
AcDbEntity
  8
002
 62
     3
370
    30
100
AcDbCircle
 10
984.768515
 20
1040.311398
 30
0.0
 40
1.000163611615743
100
AcDbArc
 50
99.989728
 51
260.010272
  0
LINE
  5
4C6
330
1F
100
AcDbEntity
  8
002
 62
     3
370
    30
100
AcDbLine
 10
984.595015
 20
1039.326398
 30
0.0
 11
1002.942015
 21
1036.296398
 31
0.0
  0
LINE
  5
4C7
330
1F
100
AcDbEntity
  8
002
 62
     3
370
    30
100
AcDbLine
 10
1002.942015
 20
1034.326398
 30
0.0
 11
984.595015
 21
1031.296398
 31
0.0
  0
ARC
  5
4C8
330
1F
100
AcDbEntity
  8
002
 62
     3
370
    30
100
AcDbCircle
 10
984.768515
 20
1030.311398
 30
0.0
 40
1.000163611615743
100
AcDbArc
 50
99.989728
 51
260.010272
  0
LINE
  5
4C9
330
1F
100
AcDbEntity
  8
002
 62
     3
370
    30
100
AcDbLine
 10
984.595015
 20
1029.326398
 30
0.0
 11
1002.942015
 21
1026.296398
 31
0.0
  0
LINE
  5
4CA
330
1F
100
AcDbEntity
  8
002
 62
     3
370
    30
100
AcDbLine
 10
1002.942015
 20
1024.326398
 30
0.0
 11
984.595015
 21
1021.296398
 31
0.0
  0
ARC
  5
4CB
330
1F
100
AcDbEntity
  8
002
 62
     3
370
    30
100
AcDbCircle
 10
984.768515
 20
1020.311398
 30
0.0
 40
1.000163611615743
100
AcDbArc
 50
99.989728
 51
260.010272
  0
LINE
  5
4CC
330
1F
100
AcDbEntity
  8
002
 62
     3
370
    30
100
AcDbLine
 10
984.595015
 20
1019.326398
 30
0.0
 11
1002.942015
 21
1016.296398
 31
0.0
  0
LINE
  5
4CD
330
1F
100
AcDbEntity
  8
002
 62
     3
370
    30
100
AcDbLine
 10
1002.942015
 20
1014.326398
 30
0.0
 11
984.595015
 21
1011.296398
 31
0.0
  0
ARC
  5
4CE
330
1F
100
AcDbEntity
  8
002
 62
     3
370
    30
100
AcDbCircle
 10
984.768515
 20
1010.311398
 30
0.0
 40
1.000163611615743
100
AcDbArc
 50
99.989728
 51
260.010272
  0
LINE
  5
4CF
330
1F
100
AcDbEntity
  8
002
 62
     3
370
    30
100
AcDbLine
 10
984.768515
 20
1020.311398
 30
0.0
 11
1122.768515
 21
1020.311398
 31
0.0
  0
LINE
  5
4D0
330
1F
100
AcDbEntity
  8
002
 62
     3
370
    30
100
AcDbLine
 10
1122.768515
 20
1030.311398
 30
0.0
 11
984.768515
 21
1030.311398
 31
0.0
  0
LINE
  5
4D1
330
1F
100
AcDbEntity
  8
002
 62
     3
370
    30
100
AcDbLine
 10
984.768515
 20
1040.311398
 30
0.0
 11
1122.768515
 21
1040.311398
 31
0.0
  0
ARC
  5
4D2
330
1F
100
AcDbEntity
  8
002
 62
     3
370
    30
100
AcDbCircle
 10
1104.768515
 20
1035.311398
 30
0.0
 40
1.000163611615743
100
AcDbArc
 50
99.989728
 51
260.010272
  0
LINE
  5
4D3
330
1F
100
AcDbEntity
  8
002
 62
     3
370
    30
100
AcDbLine
 10
1102.768515
 20
1035.311398
 30
0.0
 11
1004.768515
 21
1035.311398
 31
0.0
  0
ARC
  5
4D4
330
1F
100
AcDbEntity
  8
002
 62
     3
370
    30
100
AcDbCircle
 10
1002.768515
 20
1035.311398
 30
0.0
 40
1.000163611615519
100
AcDbArc
 50
279.989728
 51
80.010272
  0
LINE
  5
4D5
330
1F
100
AcDbEntity
  8
002
 62
     3
370
    30
100
AcDbLine
 10
1004.468515
 20
1046.311398
 30
0.0
 11
1095.068515
 21
1046.311398
 31
0.0
  0
LINE
  5
4D6
330
1F
100
AcDbEntity
  8
002
 62
     3
370
    30
100
AcDbLine
 10
1095.068515
 20
1046.311398
 30
0.0
 11
1095.068515
 21
1059.311398
 31
0.0
  0
LINE
  5
4D7
330
1F
100
AcDbEntity
  8
002
 62
     3
370
    30
100
AcDbLine
 10
1095.068515
 20
1059.311398
 30
0.0
 11
1004.468515
 21
1059.311398
 31
0.0
  0
ARC
  5
4D8
330
1F
100
AcDbEntity
  8
002
 62
     3
370
    30
100
AcDbCircle
 10
1004.468515
 20
1057.311398
 30
0.0
 40
2.0
100
AcDbArc
 50
90.0
 51
180.0
  0
LINE
  5
4D9
330
1F
100
AcDbEntity
  8
002
 62
     3
370
    30
100
AcDbLine
 10
1002.468515
 20
1057.311398
 30
0.0
 11
1002.468515
 21
1048.311398
 31
0.0
  0
ARC
  5
4DA
330
1F
100
AcDbEntity
  8
002
 62
     3
370
    30
100
AcDbCircle
 10
1004.468515
 20
1048.311398
 30
0.0
 40
2.0
100
AcDbArc
 50
180.0
 51
270.0
  0
CIRCLE
  5
4DB
330
1F
100
AcDbEntity
  8
002
 62
     3
370
    30
100
AcDbCircle
 10
1007.468515
 20
1052.811398
 30
0.0
 40
1.0
  0
LINE
  5
4DC
330
1F
100
AcDbEntity
  8
002
 62
     3
370
    30
100
AcDbLine
 10
1012.468515
 20
1046.311398
 30
0.0
 11
1012.468515
 21
1059.311398
 31
0.0
  0
LINE
  5
4DD
330
1F
100
AcDbEntity
  8
002
 62
     3
370
    30
100
AcDbLine
 10
1013.068515
 20
1059.311398
 30
0.0
 11
1013.068515
 21
1061.311398
 31
0.0
  0
LINE
  5
4DE
330
1F
100
AcDbEntity
  8
002
 62
     3
370
    30
100
AcDbLine
 10
1094.468515
 20
1061.311398
 30
0.0
 11
1094.468515
 21
1059.311398
 31
0.0
  0
LINE
  5
4DF
330
1F
100
AcDbEntity
  8
002
 62
     3
370
    30
100
AcDbLine
 10
1094.468515
 20
1061.311398
 30
0.0
 11
1013.068515
 21
1061.311398
 31
0.0
  0
LINE
  5
4E0
330
1F
100
AcDbEntity
  8
002
 62
     3
370
    30
100
AcDbLine
 10
1023.768815
 20
1064.811398
 30
0.0
 11
1023.768815
 21
1123.311398
 31
0.0
  0
LINE
  5
4E1
330
1F
100
AcDbEntity
  8
002
 62
     3
370
    30
100
AcDbLine
 10
1023.768815
 20
1123.311398
 30
0.0
 11
1083.768815
 21
1123.311398
 31
0.0
  0
LINE
  5
4E2
330
1F
100
AcDbEntity
  8
002
 62
     3
370
    30
100
AcDbLine
 10
1083.768815
 20
1123.311398
 30
0.0
 11
1083.768815
 21
1064.811398
 31
0.0
  0
LINE
  5
4E3
330
1F
100
AcDbEntity
  8
002
 62
     3
370
    30
100
AcDbLine
 10
1083.768915
 20
1064.811398
 30
0.0
 11
1023.768915
 21
1064.811398
 31
0.0
  0
LINE
  5
4E4
330
1F
100
AcDbEntity
  8
002
 62
     3
370
    30
100
AcDbLine
 10
1025.268715
 20
1064.811398
 30
0.0
 11
1025.268715
 21
1061.311398
 31
0.0
  0
LINE
  5
4E5
330
1F
100
AcDbEntity
  8
002
 62
     3
370
    30
100
AcDbLine
 10
1013.068515
 20
1046.311398
 30
0.0
 11
1013.068515
 21
1045.311398
 31
0.0
  0
LINE
  5
4E6
330
1F
100
AcDbEntity
  8
002
 62
     3
370
    30
100
AcDbLine
 10
1004.768515
 20
1025.311398
 30
0.0
 11
1102.768515
 21
1025.311398
 31
0.0
  0
ARC
  5
4E7
330
1F
100
AcDbEntity
  8
002
 62
     3
370
    30
100
AcDbCircle
 10
1104.768515
 20
1025.311398
 30
0.0
 40
1.000163611615743
100
AcDbArc
 50
99.989728
 51
260.010272
  0
ARC
  5
4E8
330
1F
100
AcDbEntity
  8
002
 62
     3
370
    30
100
AcDbCircle
 10
1104.768515
 20
1015.311398
 30
0.0
 40
1.000163611615743
100
AcDbArc
 50
99.989728
 51
260.010272
  0
LINE
  5
4E9
330
1F
100
AcDbEntity
  8
002
 62
     3
370
    30
100
AcDbLine
 10
1102.768515
 20
1015.311398
 30
0.0
 11
1004.768515
 21
1015.311398
 31
0.0
  0
ARC
  5
4EA
330
1F
100
AcDbEntity
  8
002
 62
     3
370
    30
100
AcDbCircle
 10
1002.768515
 20
1015.311398
 30
0.0
 40
1.000163611615519
100
AcDbArc
 50
279.989728
 51
80.010272
  0
ARC
  5
4EB
330
1F
100
AcDbEntity
  8
002
 62
     3
370
    30
100
AcDbCircle
 10
1002.768515
 20
1025.311398
 30
0.0
 40
1.000163611615519
100
AcDbArc
 50
279.989728
 51
80.010272
  0
LINE
  5
4EC
330
1F
100
AcDbEntity
  8
002
 62
     3
370
    30
100
AcDbLine
 10
1082.268715
 20
1061.311398
 30
0.0
 11
1082.268715
 21
1064.811398
 31
0.0
  0
LINE
  5
4ED
330
1F
100
AcDbEntity
  8
002
 62
     3
370
    30
100
AcDbLine
 10
1094.468515
 20
1046.311398
 30
0.0
 11
1094.468515
 21
1045.311398
 31
0.0
  0
LINE
  5
4EE
330
1F
100
AcDbEntity
  8
002
 62
     3
370
    30
100
AcDbLine
 10
1104.595015
 20
1006.296398
 30
0.0
 11
1122.942015
 21
1009.326398
 31
0.0
  0
ARC
  5
4EF
330
1F
100
AcDbEntity
  8
002
 62
     3
370
    30
100
AcDbCircle
 10
1122.768515
 20
1010.311398
 30
0.0
 40
1.000163611615539
100
AcDbArc
 50
279.989728
 51
80.010272
  0
ARC
  5
4F0
330
1F
100
AcDbEntity
  8
002
 62
     3
370
    30
100
AcDbCircle
 10
1104.768515
 20
1005.311398
 30
0.0
 40
1.0
100
AcDbArc
 50
99.989728
 51
180.0
  0
LINE
  5
4F1
330
1F
100
AcDbEntity
  8
002
  6
CENTER
 62
    40
370
     9
100
AcDbLine
 10
1007.468515
 20
1049.559398
 30
0.0
 11
1007.468515
 21
1056.319398
 31
0.0
  0
LINE
  5
4F2
330
1F
100
AcDbEntity
  8
002
  6
CENTER
 62
    40
370
     9
100
AcDbLine
 10
1005.100715
 20
1052.811398
 30
0.0
 11
1010.125815
 21
1052.811398
 31
0.0
  0
LINE
  5
4F3
330
1F
100
AcDbEntity
  8
002
 62
    40
370
     9
100
AcDbLine
 10
1025.168715
 20
1064.811398
 30
0.0
 11
1025.168715
 21
1123.311398
 31
0.0
  0
LINE
  5
4F4
330
1F
100
AcDbEntity
  8
002
 62
    40
370
     9
100
AcDbLine
 10
1082.368715
 20
1123.311398
 30
0.0
 11
1082.368715
 21
1064.811398
 31
0.0
  0
LINE
  5
4F5
330
1F
100
AcDbEntity
  8
003
  6
CENTER
 62
    40
370
     9
100
AcDbLine
 10
999.768515
 20
902.073914
 30
0.0
 11
999.768515
 21
881.305508
 31
0.0
  0
LINE
  5
4F6
330
1F
100
AcDbEntity
  8
003
  6
CENTER
 62
    40
370
     9
100
AcDbLine
 10
1107.768515
 20
903.156052
 30
0.0
 11
1107.768515
 21
881.083312
 31
0.0
  0
CIRCLE
  5
4F7
330
1F
100
AcDbEntity
  8
002
 62
     3
370
    30
100
AcDbCircle
 10
360.785883
 20
1991.090752
 30
0.0
 40
94.0
  0
LINE
  5
4F8
330
1F
100
AcDbEntity
  8
002
 62
     3
370
    30
100
AcDbLine
 10
364.647883
 20
1897.215173
 30
0.0
 11
364.647883
 21
1896.090752
 31
0.0
  0
LINE
  5
4F9
330
1F
100
AcDbEntity
  8
002
 62
     3
370
    30
100
AcDbLine
 10
365.071883
 20
1896.090752
 30
0.0
 11
356.499883
 21
1896.090752
 31
0.0
  0
LINE
  5
4FA
330
1F
100
AcDbEntity
  8
002
 62
     3
370
    30
100
AcDbLine
 10
356.924883
 20
1896.090752
 30
0.0
 11
356.924883
 21
1897.215108
 31
0.0
  0
ARC
  5
4FB
330
1F
100
AcDbEntity
  8
002
 62
     3
370
    30
100
AcDbCircle
 10
356.455883
 20
1894.550752
 30
0.0
 40
1.540730021775364
100
AcDbArc
 50
20.516873
 51
110.551694
  0
LINE
  5
4FC
330
1F
100
AcDbEntity
  8
002
 62
     3
370
    30
100
AcDbLine
 10
355.012883
 20
1895.090752
 30
0.0
 11
355.914883
 21
1895.993752
 31
0.0
  0
ARC
  5
4FD
330
1F
100
AcDbEntity
  8
002
 62
     3
370
    30
100
AcDbCircle
 10
360.785883
 20
1891.424752
 30
0.0
 40
4.666296711526233
100
AcDbArc
 50
51.779327
 51
128.220673
  0
ARC
  5
4FE
330
1F
100
AcDbEntity
  8
002
 62
     3
370
    30
100
AcDbCircle
 10
365.115883
 20
1894.550752
 30
0.0
 40
1.541080789575903
100
AcDbArc
 50
69.448306
 51
159.483127
  0
LINE
  5
4FF
330
1F
100
AcDbEntity
  8
002
 62
     3
370
    30
100
AcDbLine
 10
366.559883
 20
1895.090752
 30
0.0
 11
365.656883
 21
1895.993752
 31
0.0
  0
LINE
  5
500
330
1F
100
AcDbEntity
  8
002
 62
     3
370
    30
100
AcDbLine
 10
366.559883
 20
1892.090752
 30
0.0
 11
366.559883
 21
1895.090752
 31
0.0
  0
LINE
  5
501
330
1F
100
AcDbEntity
  8
002
 62
     3
370
    30
100
AcDbLine
 10
363.645883
 20
1889.177752
 30
0.0
 11
366.559883
 21
1892.090752
 31
0.0
  0
LINE
  5
502
330
1F
100
AcDbEntity
  8
002
 62
     3
370
    30
100
AcDbLine
 10
363.672883
 20
1895.090752
 30
0.0
 11
363.672883
 21
1892.090752
 31
0.0
  0
ARC
  5
503
330
1F
100
AcDbEntity
  8
002
 62
     3
370
    30
100
AcDbCircle
 10
365.115883
 20
1892.631752
 30
0.0
 40
1.541080789575903
100
AcDbArc
 50
200.551694
 51
290.551694
  0
ARC
  5
504
330
1F
100
AcDbEntity
  8
002
 62
     3
370
    30
100
AcDbCircle
 10
360.785883
 20
1895.757752
 30
0.0
 40
4.667082386245079
100
AcDbArc
 50
231.786922
 51
308.213078
  0
LINE
  5
505
330
1F
100
AcDbEntity
  8
002
 62
     3
370
    30
100
AcDbLine
 10
357.898883
 20
1895.090752
 30
0.0
 11
357.898883
 21
1892.090752
 31
0.0
  0
LINE
  5
506
330
1F
100
AcDbEntity
  8
002
 62
     3
370
    30
100
AcDbLine
 10
355.012883
 20
1892.090752
 30
0.0
 11
355.012883
 21
1895.090752
 31
0.0
  0
ARC
  5
507
330
1F
100
AcDbEntity
  8
002
 62
     3
370
    30
100
AcDbCircle
 10
356.455883
 20
1892.631752
 30
0.0
 40
1.541080789575903
100
AcDbArc
 50
249.448306
 51
339.448306
  0
LINE
  5
508
330
1F
100
AcDbEntity
  8
002
 62
     3
370
    30
100
AcDbLine
 10
355.012883
 20
1892.090752
 30
0.0
 11
357.925883
 21
1889.177752
 31
0.0
  0
LINE
  5
509
330
1F
100
AcDbEntity
  8
002
 62
     3
370
    30
100
AcDbLine
 10
363.083883
 20
1888.614752
 30
0.0
 11
358.488883
 21
1888.614752
 31
0.0
  0
LINE
  5
50A
330
1F
100
AcDbEntity
  8
002
 62
     3
370
    30
100
AcDbLine
 10
358.285883
 20
1887.090752
 30
0.0
 11
363.285883
 21
1887.090752
 31
0.0
  0
ARC
  5
50B
330
1F
100
AcDbEntity
  8
002
 62
     3
370
    30
100
AcDbCircle
 10
357.218883
 20
1888.470752
 30
0.0
 40
1.000001999998141
100
AcDbArc
 50
327.994617
 51
45.0
  0
ARC
  5
50C
330
1F
100
AcDbEntity
  8
002
 62
     3
370
    30
100
AcDbCircle
 10
364.352883
 20
1888.470752
 30
0.0
 40
0.9998489885976084
100
AcDbArc
 50
135.0
 51
212.005383
  0
LINE
  5
50D
330
1F
100
AcDbEntity
  8
002
 62
     3
370
    30
100
AcDbLine
 10
364.035883
 20
1887.090752
 30
0.0
 11
363.504883
 21
1887.940752
 31
0.0
  0
LINE
  5
50E
330
1F
100
AcDbEntity
  8
002
 62
     3
370
    30
100
AcDbLine
 10
363.285883
 20
1884.090752
 30
0.0
 11
364.035883
 21
1887.090752
 31
0.0
  0
LINE
  5
50F
330
1F
100
AcDbEntity
  8
002
 62
     3
370
    30
100
AcDbLine
 10
358.285883
 20
1884.090752
 30
0.0
 11
363.285883
 21
1884.090752
 31
0.0
  0
ARC
  5
510
330
1F
100
AcDbEntity
  8
002
 62
     3
370
    30
100
AcDbCircle
 10
360.785883
 20
1884.752752
 30
0.0
 40
1.00037193083375
100
AcDbArc
 50
221.433771
 51
318.566229
  0
LINE
  5
511
330
1F
100
AcDbEntity
  8
002
 62
     3
370
    30
100
AcDbLine
 10
358.066883
 20
1887.940752
 30
0.0
 11
357.535883
 21
1887.090752
 31
0.0
  0
LINE
  5
512
330
1F
100
AcDbEntity
  8
002
 62
     3
370
    30
100
AcDbLine
 10
357.535883
 20
1887.090752
 30
0.0
 11
358.285883
 21
1884.090752
 31
0.0
  0
LINE
  5
513
330
1F
100
AcDbEntity
  8
002
 62
     3
370
    30
100
AcDbLine
 10
364.647883
 20
2084.966331
 30
0.0
 11
364.647883
 21
2086.090752
 31
0.0
  0
LINE
  5
514
330
1F
100
AcDbEntity
  8
002
 62
     3
370
    30
100
AcDbLine
 10
365.071883
 20
2086.090752
 30
0.0
 11
356.499883
 21
2086.090752
 31
0.0
  0
ARC
  5
515
330
1F
100
AcDbEntity
  8
002
 62
     3
370
    30
100
AcDbCircle
 10
365.115883
 20
2087.630752
 30
0.0
 40
1.541080789575903
100
AcDbArc
 50
200.516873
 51
290.551694
  0
ARC
  5
516
330
1F
100
AcDbEntity
  8
002
 62
     3
370
    30
100
AcDbCircle
 10
360.785883
 20
2090.756752
 30
0.0
 40
4.666296711526233
100
AcDbArc
 50
231.779327
 51
308.220673
  0
LINE
  5
517
330
1F
100
AcDbEntity
  8
002
 62
     3
370
    30
100
AcDbLine
 10
356.924883
 20
2086.090752
 30
0.0
 11
356.924883
 21
2084.966395
 31
0.0
  0
ARC
  5
518
330
1F
100
AcDbEntity
  8
002
 62
     3
370
    30
100
AcDbCircle
 10
356.455883
 20
2087.630752
 30
0.0
 40
1.540730021775364
100
AcDbArc
 50
249.448306
 51
339.483127
  0
LINE
  5
519
330
1F
100
AcDbEntity
  8
002
 62
     3
370
    30
100
AcDbLine
 10
355.012883
 20
2087.090752
 30
0.0
 11
355.914883
 21
2086.187752
 31
0.0
  0
LINE
  5
51A
330
1F
100
AcDbEntity
  8
002
 62
     3
370
    30
100
AcDbLine
 10
355.012883
 20
2090.090752
 30
0.0
 11
355.012883
 21
2087.090752
 31
0.0
  0
LINE
  5
51B
330
1F
100
AcDbEntity
  8
002
 62
     3
370
    30
100
AcDbLine
 10
366.559883
 20
2087.090752
 30
0.0
 11
365.656883
 21
2086.187752
 31
0.0
  0
LINE
  5
51C
330
1F
100
AcDbEntity
  8
002
 62
     3
370
    30
100
AcDbLine
 10
366.559883
 20
2090.090752
 30
0.0
 11
366.559883
 21
2087.090752
 31
0.0
  0
LINE
  5
51D
330
1F
100
AcDbEntity
  8
002
 62
     3
370
    30
100
AcDbLine
 10
363.672883
 20
2087.090752
 30
0.0
 11
363.672883
 21
2090.090752
 31
0.0
  0
LINE
  5
51E
330
1F
100
AcDbEntity
  8
002
 62
     3
370
    30
100
AcDbLine
 10
357.898883
 20
2087.090752
 30
0.0
 11
357.898883
 21
2090.090752
 31
0.0
  0
ARC
  5
51F
330
1F
100
AcDbEntity
  8
002
 62
     3
370
    30
100
AcDbCircle
 10
356.455883
 20
2089.549752
 30
0.0
 40
1.541080789575903
100
AcDbArc
 50
20.551694
 51
110.551694
  0
ARC
  5
520
330
1F
100
AcDbEntity
  8
002
 62
     3
370
    30
100
AcDbCircle
 10
360.785883
 20
2086.423752
 30
0.0
 40
4.667082386245079
100
AcDbArc
 50
51.786922
 51
128.213078
  0
ARC
  5
521
330
1F
100
AcDbEntity
  8
002
 62
     3
370
    30
100
AcDbCircle
 10
365.115883
 20
2089.549752
 30
0.0
 40
1.541080789575903
100
AcDbArc
 50
69.448306
 51
159.448306
  0
LINE
  5
522
330
1F
100
AcDbEntity
  8
002
 62
     3
370
    30
100
AcDbLine
 10
363.645883
 20
2093.003752
 30
0.0
 11
366.559883
 21
2090.090752
 31
0.0
  0
LINE
  5
523
330
1F
100
AcDbEntity
  8
002
 62
     3
370
    30
100
AcDbLine
 10
355.012883
 20
2090.090752
 30
0.0
 11
357.925883
 21
2093.003752
 31
0.0
  0
ARC
  5
524
330
1F
100
AcDbEntity
  8
002
 62
     3
370
    30
100
AcDbCircle
 10
357.218883
 20
2093.710752
 30
0.0
 40
1.000001999998141
100
AcDbArc
 50
315.0
 51
32.005383
  0
LINE
  5
525
330
1F
100
AcDbEntity
  8
002
 62
     3
370
    30
100
AcDbLine
 10
363.083883
 20
2093.566752
 30
0.0
 11
358.488883
 21
2093.566752
 31
0.0
  0
ARC
  5
526
330
1F
100
AcDbEntity
  8
002
 62
     3
370
    30
100
AcDbCircle
 10
364.352883
 20
2093.710752
 30
0.0
 40
0.9998489885976084
100
AcDbArc
 50
147.994617
 51
225.0
  0
LINE
  5
527
330
1F
100
AcDbEntity
  8
002
 62
     3
370
    30
100
AcDbLine
 10
364.035883
 20
2095.090752
 30
0.0
 11
363.504883
 21
2094.240752
 31
0.0
  0
LINE
  5
528
330
1F
100
AcDbEntity
  8
002
 62
     3
370
    30
100
AcDbLine
 10
363.285883
 20
2098.090752
 30
0.0
 11
364.035883
 21
2095.090752
 31
0.0
  0
LINE
  5
529
330
1F
100
AcDbEntity
  8
002
 62
     3
370
    30
100
AcDbLine
 10
358.285883
 20
2098.090752
 30
0.0
 11
363.285883
 21
2098.090752
 31
0.0
  0
ARC
  5
52A
330
1F
100
AcDbEntity
  8
002
 62
     3
370
    30
100
AcDbCircle
 10
360.785883
 20
2097.428752
 30
0.0
 40
1.00037193083375
100
AcDbArc
 50
41.433771
 51
138.566229
  0
LINE
  5
52B
330
1F
100
AcDbEntity
  8
002
 62
     3
370
    30
100
AcDbLine
 10
358.285883
 20
2095.090752
 30
0.0
 11
363.285883
 21
2095.090752
 31
0.0
  0
LINE
  5
52C
330
1F
100
AcDbEntity
  8
002
 62
     3
370
    30
100
AcDbLine
 10
358.066883
 20
2094.240752
 30
0.0
 11
357.535883
 21
2095.090752
 31
0.0
  0
LINE
  5
52D
330
1F
100
AcDbEntity
  8
002
 62
     3
370
    30
100
AcDbLine
 10
357.535883
 20
2095.090752
 30
0.0
 11
358.285883
 21
2098.090752
 31
0.0
  0
ARC
  5
52E
330
1F
100
AcDbEntity
  8
002
 62
     3
370
    30
100
AcDbCircle
 10
360.785883
 20
1991.090752
 30
0.0
 40
100.0
100
AcDbArc
 50
272.80489
 51
87.19511
  0
ARC
  5
52F
330
1F
100
AcDbEntity
  8
002
 62
     3
370
    30
100
AcDbCircle
 10
360.785883
 20
1991.090752
 30
0.0
 40
100.0
100
AcDbArc
 50
92.804469
 51
267.195531
  0
LINE
  5
530
330
1F
100
AcDbEntity
  8
002
 62
     3
370
    30
100
AcDbLine
 10
1614.188143
 20
637.311198
 30
0.0
 11
1614.188143
 21
594.055856
 31
0.0
  0
LINE
  5
531
330
1F
100
AcDbEntity
  8
002
 62
     3
370
    30
100
AcDbLine
 10
1187.768515
 20
637.311198
 30
0.0
 11
1187.768515
 21
594.056426
 31
0.0
  0
LINE
  5
532
330
1F
100
AcDbEntity
  8
002
 62
     3
370
    30
100
AcDbLine
 10
494.785883
 20
637.311198
 30
0.0
 11
494.785883
 21
594.056426
 31
0.0
  0
CIRCLE
  5
533
330
1F
100
AcDbEntity
  8
002
 62
     3
370
    30
100
AcDbCircle
 10
455.785883
 20
543.311398
 30
0.0
 40
25.0
  0
LINE
  5
534
330
1F
100
AcDbEntity
  8
002
 62
     3
370
    30
100
AcDbLine
 10
460.785883
 20
555.811398
 30
0.0
 11
450.785883
 21
555.811398
 31
0.0
  0
LINE
  5
535
330
1F
100
AcDbEntity
  8
002
 62
     3
370
    30
100
AcDbLine
 10
450.785883
 20
555.811398
 30
0.0
 11
450.785883
 21
563.811398
 31
0.0
  0
LINE
  5
536
330
1F
100
AcDbEntity
  8
002
 62
     3
370
    30
100
AcDbLine
 10
450.785883
 20
563.811398
 30
0.0
 11
460.785883
 21
563.811398
 31
0.0
  0
LINE
  5
537
330
1F
100
AcDbEntity
  8
002
 62
     3
370
    30
100
AcDbLine
 10
460.785883
 20
563.811398
 30
0.0
 11
460.785883
 21
555.811398
 31
0.0
  0
ARC
  5
538
330
1F
100
AcDbEntity
  8
002
 62
     3
370
    30
100
AcDbCircle
 10
455.785883
 20
543.311398
 30
0.0
 40
17.50046973655275
100
AcDbArc
 50
106.601091
 51
73.398909
  0
ARC
  5
539
330
1F
100
AcDbEntity
  8
002
 62
     3
370
    30
100
AcDbCircle
 10
455.785883
 20
543.311398
 30
0.0
 40
19.000672645988
100
AcDbArc
 50
105.25697
 51
74.74303
  0
CIRCLE
  5
53A
330
1F
100
AcDbEntity
  8
002
 62
     3
370
    30
100
AcDbCircle
 10
1148.768515
 20
543.311398
 30
0.0
 40
25.0
  0
LINE
  5
53B
330
1F
100
AcDbEntity
  8
002
 62
     3
370
    30
100
AcDbLine
 10
1153.768515
 20
555.811398
 30
0.0
 11
1143.768515
 21
555.811398
 31
0.0
  0
LINE
  5
53C
330
1F
100
AcDbEntity
  8
002
 62
     3
370
    30
100
AcDbLine
 10
1143.768515
 20
555.811398
 30
0.0
 11
1143.768515
 21
563.811398
 31
0.0
  0
LINE
  5
53D
330
1F
100
AcDbEntity
  8
002
 62
     3
370
    30
100
AcDbLine
 10
1143.768515
 20
563.811398
 30
0.0
 11
1153.768515
 21
563.811398
 31
0.0
  0
LINE
  5
53E
330
1F
100
AcDbEntity
  8
002
 62
     3
370
    30
100
AcDbLine
 10
1153.768515
 20
563.811398
 30
0.0
 11
1153.768515
 21
555.811398
 31
0.0
  0
ARC
  5
53F
330
1F
100
AcDbEntity
  8
002
 62
     3
370
    30
100
AcDbCircle
 10
1148.768515
 20
543.311398
 30
0.0
 40
17.50046973655275
100
AcDbArc
 50
106.601091
 51
73.398909
  0
ARC
  5
540
330
1F
100
AcDbEntity
  8
002
 62
     3
370
    30
100
AcDbCircle
 10
1148.768515
 20
543.311398
 30
0.0
 40
19.000672645988
100
AcDbArc
 50
105.25697
 51
74.74303
  0
CIRCLE
  5
541
330
1F
100
AcDbEntity
  8
002
 62
     3
370
    30
100
AcDbCircle
 10
1575.188143
 20
543.311398
 30
0.0
 40
25.0
  0
LINE
  5
542
330
1F
100
AcDbEntity
  8
002
 62
     3
370
    30
100
AcDbLine
 10
1580.188143
 20
555.811398
 30
0.0
 11
1570.188143
 21
555.811398
 31
0.0
  0
LINE
  5
543
330
1F
100
AcDbEntity
  8
002
 62
     3
370
    30
100
AcDbLine
 10
1570.188143
 20
555.811398
 30
0.0
 11
1570.188143
 21
563.811398
 31
0.0
  0
LINE
  5
544
330
1F
100
AcDbEntity
  8
002
 62
     3
370
    30
100
AcDbLine
 10
1570.188143
 20
563.811398
 30
0.0
 11
1580.188143
 21
563.811398
 31
0.0
  0
LINE
  5
545
330
1F
100
AcDbEntity
  8
002
 62
     3
370
    30
100
AcDbLine
 10
1580.188143
 20
563.811398
 30
0.0
 11
1580.188143
 21
555.811398
 31
0.0
  0
ARC
  5
546
330
1F
100
AcDbEntity
  8
002
 62
     3
370
    30
100
AcDbCircle
 10
1575.188143
 20
543.311398
 30
0.0
 40
17.50046973655275
100
AcDbArc
 50
106.601091
 51
73.398909
  0
ARC
  5
547
330
1F
100
AcDbEntity
  8
002
 62
     3
370
    30
100
AcDbCircle
 10
1575.188143
 20
543.311398
 30
0.0
 40
19.000672645988
100
AcDbArc
 50
105.25697
 51
74.74303
  0
LINE
  5
548
330
1F
100
AcDbEntity
  8
002
 62
     3
370
    30
100
AcDbLine
 10
1050.40978
 20
1546.759936
 30
0.0
 11
1050.40978
 21
1453.723644
 31
0.0
  0
LINE
  5
549
330
1F
100
AcDbEntity
  8
002
 62
    40
370
     9
100
AcDbLine
 10
1045.68778
 20
1453.723644
 30
0.0
 11
1045.68778
 21
1521.759936
 31
0.0
  0
LINE
  5
54A
330
1F
100
AcDbEntity
  8
002
 62
     3
370
    30
100
AcDbLine
 10
970.40878
 20
1453.723644
 30
0.0
 11
970.40878
 21
1546.759936
 31
0.0
  0
LINE
  5
54B
330
1F
100
AcDbEntity
  8
002
 62
    40
370
     9
100
AcDbLine
 10
975.13178
 20
1521.759936
 30
0.0
 11
975.13178
 21
1453.723644
 31
0.0
  0
LINE
  5
54C
330
1F
100
AcDbEntity
  8
002
 62
     3
370
    30
100
AcDbLine
 10
970.40878
 20
1521.759936
 30
0.0
 11
1050.40978
 21
1521.759936
 31
0.0
  0
LINE
  5
54D
330
1F
100
AcDbEntity
  8
002
 62
     3
370
    30
100
AcDbLine
 10
1523.00281
 20
1546.759936
 30
0.0
 11
1523.00281
 21
1453.723644
 31
0.0
  0
LINE
  5
54E
330
1F
100
AcDbEntity
  8
002
 62
    40
370
     9
100
AcDbLine
 10
1518.28081
 20
1453.723644
 30
0.0
 11
1518.28081
 21
1521.759936
 31
0.0
  0
LINE
  5
54F
330
1F
100
AcDbEntity
  8
002
 62
     3
370
    30
100
AcDbLine
 10
1443.00181
 20
1453.723644
 30
0.0
 11
1443.00181
 21
1546.759936
 31
0.0
  0
LINE
  5
550
330
1F
100
AcDbEntity
  8
002
 62
    40
370
     9
100
AcDbLine
 10
1447.72481
 20
1521.759936
 30
0.0
 11
1447.72481
 21
1453.723644
 31
0.0
  0
LINE
  5
551
330
1F
100
AcDbEntity
  8
002
 62
     3
370
    30
100
AcDbLine
 10
1443.00181
 20
1521.759936
 30
0.0
 11
1523.00281
 21
1521.759936
 31
0.0
  0
LINE
  5
552
330
1F
100
AcDbEntity
  8
002
 62
     3
370
    30
100
AcDbLine
 10
2190.188143
 20
467.311398
 30
0.0
 11
2190.188143
 21
443.311398
 31
0.0
  0
LINE
  5
553
330
1F
100
AcDbEntity
  8
002
 62
     3
370
    30
100
AcDbLine
 10
2190.188143
 20
443.311398
 30
0.0
 11
1840.188143
 21
443.311398
 31
0.0
  0
LINE
  5
554
330
1F
100
AcDbEntity
  8
002
 62
     3
370
    30
100
AcDbLine
 10
1840.188143
 20
443.311398
 30
0.0
 11
1840.188143
 21
467.311398
 31
0.0
  0
ARC
  5
555
330
1F
100
AcDbEntity
  8
002
 62
     3
370
    30
100
AcDbCircle
 10
1842.188143
 20
467.311398
 30
0.0
 40
2.0
100
AcDbArc
 50
90.0
 51
180.0
  0
LINE
  5
556
330
1F
100
AcDbEntity
  8
002
 62
     3
370
    30
100
AcDbLine
 10
1842.188143
 20
469.311398
 30
0.0
 11
2188.188143
 21
469.311398
 31
0.0
  0
ARC
  5
557
330
1F
100
AcDbEntity
  8
002
 62
     3
370
    30
100
AcDbCircle
 10
2188.188143
 20
467.311398
 30
0.0
 40
2.0
100
AcDbArc
 50
0.0
 51
90.0
  0
ARC
  5
558
330
1F
100
AcDbEntity
  8
002
 62
     3
370
    30
100
AcDbCircle
 10
2188.077143
 20
474.311398
 30
0.0
 40
4.999456746487718
100
AcDbArc
 50
209.969193
 51
270.0
  0
LINE
  5
559
330
1F
100
AcDbEntity
  8
002
 62
     3
370
    30
100
AcDbLine
 10
2183.746143
 20
471.813998
 30
0.0
 11
2122.752143
 21
577.601198
 31
0.0
  0
LINE
  5
55A
330
1F
100
AcDbEntity
  8
002
 62
     3
370
    30
100
AcDbLine
 10
2122.752143
 20
577.601198
 30
0.0
 11
2120.852143
 21
577.601198
 31
0.0
  0
ARC
  5
55B
330
1F
100
AcDbEntity
  8
002
 62
     3
370
    30
100
AcDbCircle
 10
2120.852143
 20
580.601198
 30
0.0
 40
2.999270744697995
100
AcDbArc
 50
213.811928
 51
270.0
  0
ARC
  5
55C
330
1F
100
AcDbEntity
  8
002
 62
     3
370
    30
100
AcDbCircle
 10
2111.188143
 20
575.249198
 30
0.0
 40
8.0
100
AcDbArc
 50
0.0
 51
34.76672
  0
LINE
  5
55D
330
1F
100
AcDbEntity
  8
002
 62
     3
370
    30
100
AcDbLine
 10
2119.188143
 20
575.249198
 30
0.0
 11
2119.188143
 21
469.311398
 31
0.0
  0
LINE
  5
55E
330
1F
100
AcDbEntity
  8
002
 62
     3
370
    30
100
AcDbLine
 10
2129.188143
 20
469.311398
 30
0.0
 11
2129.188143
 21
543.311398
 31
0.0
  0
ARC
  5
55F
330
1F
100
AcDbEntity
  8
002
 62
     3
370
    30
100
AcDbCircle
 10
2111.188143
 20
511.373998
 30
0.0
 40
8.000474376560526
100
AcDbArc
 50
325.230338
 51
0.0
  0
ARC
  5
560
330
1F
100
AcDbEntity
  8
002
 62
     3
370
    30
100
AcDbCircle
 10
2065.188143
 20
543.311398
 30
0.0
 40
64.0
100
AcDbArc
 50
0.0
 51
325.22837
  0
LINE
  5
561
330
1F
100
AcDbEntity
  8
002
 62
     3
370
    30
100
AcDbLine
 10
2001.188143
 20
543.311398
 30
0.0
 11
2001.188143
 21
474.311398
 31
0.0
  0
ARC
  5
562
330
1F
100
AcDbEntity
  8
002
 62
     3
370
    30
100
AcDbCircle
 10
1996.188143
 20
474.311398
 30
0.0
 40
5.0
100
AcDbArc
 50
270.0
 51
0.0
  0
LINE
  5
563
330
1F
100
AcDbEntity
  8
002
 62
     3
370
    30
100
AcDbLine
 10
1910.186143
 20
474.311398
 30
0.0
 11
1910.186143
 21
585.311198
 31
0.0
  0
LINE
  5
564
330
1F
100
AcDbEntity
  8
002
 62
     3
370
    30
100
AcDbLine
 10
1908.186143
 20
582.639198
 30
0.0
 11
1878.186143
 21
582.639198
 31
0.0
  0
LINE
  5
565
330
1F
100
AcDbEntity
  8
002
 62
     3
370
    30
100
AcDbLine
 10
1875.617143
 20
585.311198
 30
0.0
 11
1875.617143
 21
474.311398
 31
0.0
  0
ARC
  5
566
330
1F
100
AcDbEntity
  8
002
 62
     3
370
    30
100
AcDbCircle
 10
1870.617143
 20
474.311398
 30
0.0
 40
5.0
100
AcDbArc
 50
270.0
 51
0.0
  0
LINE
  5
567
330
1F
100
AcDbEntity
  8
002
 62
     3
370
    30
100
AcDbLine
 10
1858.188143
 20
474.311398
 30
0.0
 11
1858.188143
 21
496.910198
 31
0.0
  0
LINE
  5
568
330
1F
100
AcDbEntity
  8
002
 62
     3
370
    30
100
AcDbLine
 10
1852.270143
 20
506.039298
 30
0.0
 11
1847.188143
 21
508.311398
 31
0.0
  0
LINE
  5
569
330
1F
100
AcDbEntity
  8
002
 62
     3
370
    30
100
AcDbLine
 10
1847.188143
 20
508.311398
 30
0.0
 11
1847.188143
 21
583.311198
 31
0.0
  0
ARC
  5
56A
330
1F
100
AcDbEntity
  8
002
 62
     3
370
    30
100
AcDbCircle
 10
1837.188143
 20
583.311198
 30
0.0
 40
10.0
100
AcDbArc
 50
0.0
 51
90.0
  0
LINE
  5
56B
330
1F
100
AcDbEntity
  8
002
 62
     3
370
    30
100
AcDbLine
 10
1836.188143
 20
593.311198
 30
0.0
 11
1836.188143
 21
637.311198
 31
0.0
  0
LINE
  5
56C
330
1F
100
AcDbEntity
  8
002
 62
     3
370
    30
100
AcDbLine
 10
1836.188143
 20
637.311198
 30
0.0
 11
2104.188143
 21
637.311198
 31
0.0
  0
LINE
  5
56D
330
1F
100
AcDbEntity
  8
002
 62
     3
370
    30
100
AcDbLine
 10
2020.590143
 20
593.311198
 30
0.0
 11
1836.188143
 21
593.311198
 31
0.0
  0
ARC
  5
56E
330
1F
100
AcDbEntity
  8
002
 62
     3
370
    30
100
AcDbCircle
 10
1855.544143
 20
583.311198
 30
0.0
 40
10.0
100
AcDbArc
 50
0.0
 51
44.428722
  0
LINE
  5
56F
330
1F
100
AcDbEntity
  8
002
 62
     3
370
    30
100
AcDbLine
 10
1865.544143
 20
583.311198
 30
0.0
 11
1865.544143
 21
543.311398
 31
0.0
  0
ARC
  5
570
330
1F
100
AcDbEntity
  8
002
 62
     3
370
    30
100
AcDbCircle
 10
1715.706143
 20
550.283198
 30
0.0
 40
149.9993393385784
100
AcDbArc
 50
341.783888
 51
357.336011
  0
ARC
  5
571
330
1F
100
AcDbEntity
  8
002
 62
     3
370
    30
100
AcDbCircle
 10
1848.188143
 20
496.910198
 30
0.0
 40
10.0
100
AcDbArc
 50
0.0
 51
65.908597
  0
ARC
  5
572
330
1F
100
AcDbEntity
  8
002
 62
     3
370
    30
100
AcDbCircle
 10
1853.188143
 20
474.311398
 30
0.0
 40
5.0
100
AcDbArc
 50
270.0
 51
0.0
  0
ARC
  5
573
330
1F
100
AcDbEntity
  8
002
 62
     3
370
    30
100
AcDbCircle
 10
1905.186143
 20
474.311398
 30
0.0
 40
5.0
100
AcDbArc
 50
270.0
 51
0.0
  0
LINE
  5
574
330
1F
100
AcDbEntity
  8
002
 62
     3
370
    30
100
AcDbLine
 10
1847.188143
 20
526.705898
 30
0.0
 11
1837.188143
 21
526.393398
 31
0.0
  0
LINE
  5
575
330
1F
100
AcDbEntity
  8
002
 62
     3
370
    30
100
AcDbLine
 10
1837.188143
 20
526.393398
 30
0.0
 11
1837.188143
 21
560.229198
 31
0.0
  0
LINE
  5
576
330
1F
100
AcDbEntity
  8
002
 62
     3
370
    30
100
AcDbLine
 10
1837.188143
 20
560.229198
 30
0.0
 11
1847.188143
 21
559.917198
 31
0.0
  0
LINE
  5
577
330
1F
100
AcDbEntity
  8
002
 62
     3
370
    30
100
AcDbLine
 10
1837.188143
 20
552.811198
 30
0.0
 11
1825.188143
 21
552.311198
 31
0.0
  0
LINE
  5
578
330
1F
100
AcDbEntity
  8
002
 62
     3
370
    30
100
AcDbLine
 10
1825.188143
 20
552.311198
 30
0.0
 11
1825.188143
 21
534.311398
 31
0.0
  0
LINE
  5
579
330
1F
100
AcDbEntity
  8
002
 62
     3
370
    30
100
AcDbLine
 10
1825.188143
 20
534.311398
 30
0.0
 11
1837.188143
 21
533.811398
 31
0.0
  0
ARC
  5
57A
330
1F
100
AcDbEntity
  8
002
 62
     3
370
    30
100
AcDbCircle
 10
1880.617143
 20
585.311198
 30
0.0
 40
5.0
100
AcDbArc
 50
90.0
 51
180.0
  0
LINE
  5
57B
330
1F
100
AcDbEntity
  8
002
 62
     3
370
    30
100
AcDbLine
 10
1880.617143
 20
590.311198
 30
0.0
 11
1905.186143
 21
590.311198
 31
0.0
  0
ARC
  5
57C
330
1F
100
AcDbEntity
  8
002
 62
     3
370
    30
100
AcDbCircle
 10
1905.186143
 20
585.311198
 30
0.0
 40
5.0
100
AcDbArc
 50
0.0
 51
90.0
  0
LINE
  5
57D
330
1F
100
AcDbEntity
  8
002
 62
     3
370
    30
100
AcDbLine
 10
1900.688143
 20
637.311198
 30
0.0
 11
1900.688143
 21
651.311198
 31
0.0
  0
LINE
  5
57E
330
1F
100
AcDbEntity
  8
002
 62
     3
370
    30
100
AcDbLine
 10
1900.688143
 20
651.311198
 30
0.0
 11
1921.688143
 21
651.311198
 31
0.0
  0
LINE
  5
57F
330
1F
100
AcDbEntity
  8
002
 62
     3
370
    30
100
AcDbLine
 10
1921.688143
 20
651.311198
 30
0.0
 11
1921.688143
 21
637.311198
 31
0.0
  0
LINE
  5
580
330
1F
100
AcDbEntity
  8
002
 62
     3
370
    30
100
AcDbLine
 10
1921.688143
 20
638.311198
 30
0.0
 11
1959.688143
 21
638.311198
 31
0.0
  0
LINE
  5
581
330
1F
100
AcDbEntity
  8
002
 62
     3
370
    30
100
AcDbLine
 10
1959.688143
 20
637.311198
 30
0.0
 11
1959.688143
 21
651.311198
 31
0.0
  0
LINE
  5
582
330
1F
100
AcDbEntity
  8
002
 62
     3
370
    30
100
AcDbLine
 10
1959.688143
 20
651.311198
 30
0.0
 11
1980.688143
 21
651.311198
 31
0.0
  0
LINE
  5
583
330
1F
100
AcDbEntity
  8
002
 62
     3
370
    30
100
AcDbLine
 10
1980.688143
 20
651.311198
 30
0.0
 11
1980.688143
 21
637.311198
 31
0.0
  0
LINE
  5
584
330
1F
100
AcDbEntity
  8
002
 62
     3
370
    30
100
AcDbLine
 10
1980.688143
 20
638.311198
 30
0.0
 11
2018.688143
 21
638.311198
 31
0.0
  0
LINE
  5
585
330
1F
100
AcDbEntity
  8
002
 62
     3
370
    30
100
AcDbLine
 10
2018.688143
 20
637.311198
 30
0.0
 11
2018.688143
 21
651.311198
 31
0.0
  0
LINE
  5
586
330
1F
100
AcDbEntity
  8
002
 62
     3
370
    30
100
AcDbLine
 10
2018.688143
 20
651.311198
 30
0.0
 11
2039.688143
 21
651.311198
 31
0.0
  0
LINE
  5
587
330
1F
100
AcDbEntity
  8
002
 62
     3
370
    30
100
AcDbLine
 10
2039.688143
 20
651.311198
 30
0.0
 11
2039.688143
 21
637.311198
 31
0.0
  0
LINE
  5
588
330
1F
100
AcDbEntity
  8
002
 62
     3
370
    30
100
AcDbLine
 10
2039.688143
 20
638.311198
 30
0.0
 11
2061.879143
 21
638.311198
 31
0.0
  0
LINE
  5
589
330
1F
100
AcDbEntity
  8
002
 62
     3
370
    30
100
AcDbLine
 10
2061.879143
 20
637.311198
 30
0.0
 11
2061.879143
 21
651.311198
 31
0.0
  0
LINE
  5
58A
330
1F
100
AcDbEntity
  8
002
 62
     3
370
    30
100
AcDbLine
 10
2061.879143
 20
651.311198
 30
0.0
 11
2098.688143
 21
651.311198
 31
0.0
  0
LINE
  5
58B
330
1F
100
AcDbEntity
  8
002
 62
     3
370
    30
100
AcDbLine
 10
2064.188143
 20
651.311198
 30
0.0
 11
2064.188143
 21
886.311198
 31
0.0
  0
LINE
  5
58C
330
1F
100
AcDbEntity
  8
002
 62
     3
370
    30
100
AcDbLine
 10
2064.188143
 20
886.311198
 30
0.0
 11
1876.188143
 21
886.311198
 31
0.0
  0
LINE
  5
58D
330
1F
100
AcDbEntity
  8
002
 62
     3
370
    30
100
AcDbLine
 10
1876.188143
 20
886.311198
 30
0.0
 11
1876.188143
 21
651.311198
 31
0.0
  0
LINE
  5
58E
330
1F
100
AcDbEntity
  8
002
 62
     3
370
    30
100
AcDbLine
 10
1878.497143
 20
651.311198
 30
0.0
 11
1878.497143
 21
637.311198
 31
0.0
  0
LINE
  5
58F
330
1F
100
AcDbEntity
  8
002
 62
     3
370
    30
100
AcDbLine
 10
1878.497143
 20
638.311198
 30
0.0
 11
1900.688143
 21
638.311198
 31
0.0
  0
LINE
  5
590
330
1F
100
AcDbEntity
  8
002
 62
     3
370
    30
100
AcDbLine
 10
2082.879143
 20
651.311198
 30
0.0
 11
2082.879143
 21
637.311198
 31
0.0
  0
LINE
  5
591
330
1F
100
AcDbEntity
  8
002
 62
     3
370
    30
100
AcDbLine
 10
2098.688143
 20
637.311198
 30
0.0
 11
2098.688143
 21
651.311198
 31
0.0
  0
LINE
  5
592
330
1F
100
AcDbEntity
  8
002
 62
     3
370
    30
100
AcDbLine
 10
2104.188143
 20
623.311198
 30
0.0
 11
1836.188143
 21
623.311198
 31
0.0
  0
LINE
  5
593
330
1F
100
AcDbEntity
  8
002
 62
     3
370
    30
100
AcDbLine
 10
1841.688143
 20
637.311198
 30
0.0
 11
1841.688143
 21
651.311198
 31
0.0
  0
LINE
  5
594
330
1F
100
AcDbEntity
  8
002
 62
     3
370
    30
100
AcDbLine
 10
1841.688143
 20
651.311198
 30
0.0
 11
1878.497143
 21
651.311198
 31
0.0
  0
LINE
  5
595
330
1F
100
AcDbEntity
  8
002
 62
     3
370
    30
100
AcDbLine
 10
1857.497143
 20
651.311198
 30
0.0
 11
1857.497143
 21
637.311198
 31
0.0
  0
CIRCLE
  5
596
330
1F
100
AcDbEntity
  8
002
 62
     3
370
    30
100
AcDbCircle
 10
1970.188143
 20
543.311398
 30
0.0
 40
15.0
  0
LINE
  5
597
330
1F
100
AcDbEntity
  8
002
 62
     3
370
    30
100
AcDbLine
 10
1964.415143
 20
543.311398
 30
0.0
 11
1967.302143
 21
538.311398
 31
0.0
  0
LINE
  5
598
330
1F
100
AcDbEntity
  8
002
 62
     3
370
    30
100
AcDbLine
 10
1967.302143
 20
538.311398
 30
0.0
 11
1973.075143
 21
538.311398
 31
0.0
  0
LINE
  5
599
330
1F
100
AcDbEntity
  8
002
 62
     3
370
    30
100
AcDbLine
 10
1973.075143
 20
538.311398
 30
0.0
 11
1975.962143
 21
543.311398
 31
0.0
  0
LINE
  5
59A
330
1F
100
AcDbEntity
  8
002
 62
     3
370
    30
100
AcDbLine
 10
1975.962143
 20
543.311398
 30
0.0
 11
1973.075143
 21
548.311198
 31
0.0
  0
LINE
  5
59B
330
1F
100
AcDbEntity
  8
002
 62
     3
370
    30
100
AcDbLine
 10
1973.075143
 20
548.311198
 30
0.0
 11
1967.302143
 21
548.311198
 31
0.0
  0
LINE
  5
59C
330
1F
100
AcDbEntity
  8
002
 62
     3
370
    30
100
AcDbLine
 10
1967.302143
 20
548.311198
 30
0.0
 11
1964.415143
 21
543.311398
 31
0.0
  0
CIRCLE
  5
59D
330
1F
100
AcDbEntity
  8
002
 62
     3
370
    30
100
AcDbCircle
 10
1970.188143
 20
543.311398
 30
0.0
 40
5.0
  0
CIRCLE
  5
59E
330
1F
100
AcDbEntity
  8
002
 62
     3
370
    30
100
AcDbCircle
 10
1970.188143
 20
543.311398
 30
0.0
 40
3.25
  0
CIRCLE
  5
59F
330
1F
100
AcDbEntity
  8
002
 62
     3
370
    30
100
AcDbCircle
 10
1970.188143
 20
543.311398
 30
0.0
 40
2.5
  0
CIRCLE
  5
5A0
330
1F
100
AcDbEntity
  8
002
 62
     3
370
    30
100
AcDbCircle
 10
1970.188143
 20
543.311398
 30
0.0
 40
0.75
  0
ARC
  5
5A1
330
1F
100
AcDbEntity
  8
002
 62
     3
370
    30
100
AcDbCircle
 10
2065.188143
 20
543.311398
 30
0.0
 40
66.9993418821409
100
AcDbArc
 50
111.515313
 51
131.731799
  0
LINE
  5
5A2
330
1F
100
AcDbEntity
  8
002
 62
     3
370
    30
100
AcDbLine
 10
2040.616143
 20
605.642198
 30
0.0
 11
2040.616143
 21
602.406198
 31
0.0
  0
LINE
  5
5A3
330
1F
100
AcDbEntity
  8
002
 62
     3
370
    30
100
AcDbLine
 10
1973.075143
 20
836.311198
 30
0.0
 11
1967.302143
 21
836.311198
 31
0.0
  0
LINE
  5
5A4
330
1F
100
AcDbEntity
  8
002
 62
     3
370
    30
100
AcDbLine
 10
1967.302143
 20
836.311198
 30
0.0
 11
1964.415143
 21
841.311198
 31
0.0
  0
LINE
  5
5A5
330
1F
100
AcDbEntity
  8
002
 62
     3
370
    30
100
AcDbLine
 10
1964.415143
 20
841.311198
 30
0.0
 11
1967.302143
 21
846.311198
 31
0.0
  0
LINE
  5
5A6
330
1F
100
AcDbEntity
  8
002
 62
     3
370
    30
100
AcDbLine
 10
1967.302143
 20
846.311198
 30
0.0
 11
1973.075143
 21
846.311198
 31
0.0
  0
LINE
  5
5A7
330
1F
100
AcDbEntity
  8
002
 62
     3
370
    30
100
AcDbLine
 10
1973.075143
 20
846.311198
 30
0.0
 11
1975.962143
 21
841.311198
 31
0.0
  0
LINE
  5
5A8
330
1F
100
AcDbEntity
  8
002
 62
     3
370
    30
100
AcDbLine
 10
1975.962143
 20
841.311198
 30
0.0
 11
1973.075143
 21
836.311198
 31
0.0
  0
CIRCLE
  5
5A9
330
1F
100
AcDbEntity
  8
002
 62
     3
370
    30
100
AcDbCircle
 10
1970.188143
 20
841.311198
 30
0.0
 40
0.75
  0
CIRCLE
  5
5AA
330
1F
100
AcDbEntity
  8
002
 62
     3
370
    30
100
AcDbCircle
 10
1970.188143
 20
841.311198
 30
0.0
 40
2.5
  0
CIRCLE
  5
5AB
330
1F
100
AcDbEntity
  8
002
 62
     3
370
    30
100
AcDbCircle
 10
1970.188143
 20
841.311198
 30
0.0
 40
3.25
  0
CIRCLE
  5
5AC
330
1F
100
AcDbEntity
  8
002
 62
     3
370
    30
100
AcDbCircle
 10
1970.188143
 20
841.311198
 30
0.0
 40
5.0
  0
LINE
  5
5AD
330
1F
100
AcDbEntity
  8
002
 62
     3
370
    30
100
AcDbLine
 10
1882.688143
 20
892.311198
 30
0.0
 11
2057.688143
 21
892.311198
 31
0.0
  0
LINE
  5
5AE
330
1F
100
AcDbEntity
  8
002
 62
     3
370
    30
100
AcDbLine
 10
2057.688143
 20
892.311198
 30
0.0
 11
2057.688143
 21
886.311198
 31
0.0
  0
LINE
  5
5AF
330
1F
100
AcDbEntity
  8
002
 62
     3
370
    30
100
AcDbLine
 10
1882.688143
 20
892.311198
 30
0.0
 11
1882.688143
 21
886.311198
 31
0.0
  0
LINE
  5
5B0
330
1F
100
AcDbEntity
  8
002
  6
CENTER
 62
    40
370
     9
100
AcDbLine
 10
2029.188143
 20
615.900198
 30
0.0
 11
2029.188143
 21
657.282198
 31
0.0
  0
LINE
  5
5B1
330
1F
100
AcDbEntity
  8
002
  6
CENTER
 62
    40
370
     9
100
AcDbLine
 10
2072.379143
 20
657.282198
 30
0.0
 11
2072.379143
 21
615.900198
 31
0.0
  0
LINE
  5
5B2
330
1F
100
AcDbEntity
  8
002
  6
CENTER
 62
    40
370
     9
100
AcDbLine
 10
2065.188143
 20
615.623198
 30
0.0
 11
2065.188143
 21
469.311398
 31
0.0
  0
LINE
  5
5B3
330
1F
100
AcDbEntity
  8
002
  6
DASHED
 62
    40
370
     9
100
AcDbLine
 10
2122.688143
 20
469.311398
 30
0.0
 11
2122.688143
 21
468.311398
 31
0.0
  0
LINE
  5
5B4
330
1F
100
AcDbEntity
  8
002
  6
DASHED
 62
    40
370
     9
100
AcDbLine
 10
2187.688143
 20
468.311398
 30
0.0
 11
2187.688143
 21
469.311398
 31
0.0
  0
LINE
  5
5B5
330
1F
100
AcDbEntity
  8
002
  6
CENTER
 62
    40
370
     9
100
AcDbLine
 10
2155.188143
 20
432.374198
 30
0.0
 11
2155.188143
 21
476.472098
 31
0.0
  0
LINE
  5
5B6
330
1F
100
AcDbEntity
  8
002
  6
CENTER
 62
    40
370
     9
100
AcDbLine
 10
2155.188143
 20
543.311398
 30
0.0
 11
1806.265143
 21
543.311398
 31
0.0
  0
LINE
  5
5B7
330
1F
100
AcDbEntity
  8
002
 62
    40
370
     9
100
AcDbLine
 10
1825.188143
 20
534.311398
 30
0.0
 11
1837.188143
 21
552.811198
 31
0.0
  0
LINE
  5
5B8
330
1F
100
AcDbEntity
  8
002
 62
    40
370
     9
100
AcDbLine
 10
1837.188143
 20
558.789198
 30
0.0
 11
1847.188143
 21
558.476198
 31
0.0
  0
LINE
  5
5B9
330
1F
100
AcDbEntity
  8
002
 62
    40
370
     9
100
AcDbLine
 10
1825.188143
 20
552.311198
 30
0.0
 11
1837.188143
 21
533.811398
 31
0.0
  0
LINE
  5
5BA
330
1F
100
AcDbEntity
  8
002
 62
    40
370
     9
100
AcDbLine
 10
1837.188143
 20
527.833698
 30
0.0
 11
1847.188143
 21
528.146198
 31
0.0
  0
LINE
  5
5BB
330
1F
100
AcDbEntity
  8
002
  6
CENTER
 62
    40
370
     9
100
AcDbLine
 10
1875.188143
 20
476.472098
 30
0.0
 11
1875.188143
 21
432.374198
 31
0.0
  0
LINE
  5
5BC
330
1F
100
AcDbEntity
  8
002
  6
DASHED
 62
    40
370
     9
100
AcDbLine
 10
1907.688143
 20
468.311398
 30
0.0
 11
1907.688143
 21
469.311398
 31
0.0
  0
LINE
  5
5BD
330
1F
100
AcDbEntity
  8
002
  6
DASHED
 62
    40
370
     9
100
AcDbLine
 10
1842.688143
 20
468.311398
 30
0.0
 11
1842.688143
 21
469.311398
 31
0.0
  0
LINE
  5
5BE
330
1F
100
AcDbEntity
  8
002
  6
CENTER
 62
    40
370
     9
100
AcDbLine
 10
1852.188143
 20
615.900198
 30
0.0
 11
1852.188143
 21
657.282198
 31
0.0
  0
LINE
  5
5BF
330
1F
100
AcDbEntity
  8
002
  6
CENTER
 62
    40
370
     9
100
AcDbLine
 10
1867.997143
 20
657.282198
 30
0.0
 11
1867.997143
 21
615.900198
 31
0.0
  0
LINE
  5
5C0
330
1F
100
AcDbEntity
  8
002
  6
CENTER
 62
    40
370
     9
100
AcDbLine
 10
1911.188143
 20
615.900198
 30
0.0
 11
1911.188143
 21
657.282198
 31
0.0
  0
LINE
  5
5C1
330
1F
100
AcDbEntity
  8
002
  6
CENTER
 62
    40
370
     9
100
AcDbLine
 10
2088.188143
 20
657.282198
 30
0.0
 11
2088.188143
 21
615.900198
 31
0.0
  0
LINE
  5
5C2
330
1F
100
AcDbEntity
  8
002
  6
CENTER
 62
    40
370
     9
100
AcDbLine
 10
1977.648143
 20
841.311198
 30
0.0
 11
1963.153143
 21
841.311198
 31
0.0
  0
LINE
  5
5C3
330
1F
100
AcDbEntity
  8
002
 62
     3
370
    30
100
AcDbLine
 10
2016.188143
 20
892.311198
 30
0.0
 11
2016.188143
 21
902.311198
 31
0.0
  0
LINE
  5
5C4
330
1F
100
AcDbEntity
  8
002
 62
     3
370
    30
100
AcDbLine
 10
2016.188143
 20
902.311198
 30
0.0
 11
2032.188143
 21
902.311198
 31
0.0
  0
LINE
  5
5C5
330
1F
100
AcDbEntity
  8
002
 62
     3
370
    30
100
AcDbLine
 10
2032.188143
 20
902.311198
 30
0.0
 11
2032.188143
 21
892.311198
 31
0.0
  0
LINE
  5
5C6
330
1F
100
AcDbEntity
  8
002
  6
CENTER
 62
    40
370
     9
100
AcDbLine
 10
2024.188143
 20
905.591023
 30
0.0
 11
2024.188143
 21
883.142369
 31
0.0
  0
LINE
  5
5C7
330
1F
100
AcDbEntity
  8
002
 62
     3
370
    30
100
AcDbLine
 10
1908.188143
 20
892.311198
 30
0.0
 11
1908.188143
 21
902.311198
 31
0.0
  0
LINE
  5
5C8
330
1F
100
AcDbEntity
  8
002
 62
     3
370
    30
100
AcDbLine
 10
1908.188143
 20
902.311198
 30
0.0
 11
1924.188143
 21
902.311198
 31
0.0
  0
LINE
  5
5C9
330
1F
100
AcDbEntity
  8
002
 62
     3
370
    30
100
AcDbLine
 10
1924.188143
 20
902.311198
 30
0.0
 11
1924.188143
 21
892.311198
 31
0.0
  0
LINE
  5
5CA
330
1F
100
AcDbEntity
  8
002
  6
CENTER
 62
    40
370
     9
100
AcDbLine
 10
1916.188143
 20
908.264157
 30
0.0
 11
1916.188143
 21
882.971577
 31
0.0
  0
LINE
  5
5CB
330
1F
100
AcDbEntity
  8
002
  6
HIDDEN
 62
    40
370
     9
100
AcDbLine
 10
1858.688143
 20
443.311398
 30
0.0
 11
1858.688143
 21
468.311398
 31
0.0
  0
LINE
  5
5CC
330
1F
100
AcDbEntity
  8
002
  6
HIDDEN
 62
    40
370
     9
100
AcDbLine
 10
1842.688143
 20
468.311398
 30
0.0
 11
1907.688143
 21
468.311398
 31
0.0
  0
LINE
  5
5CD
330
1F
100
AcDbEntity
  8
002
  6
HIDDEN
 62
    40
370
     9
100
AcDbLine
 10
1891.688143
 20
468.311398
 30
0.0
 11
1891.688143
 21
443.311398
 31
0.0
  0
LINE
  5
5CE
330
1F
100
AcDbEntity
  8
002
  6
HIDDEN
 62
    40
370
     9
100
AcDbLine
 10
2138.688143
 20
468.311398
 30
0.0
 11
2138.688143
 21
443.311398
 31
0.0
  0
LINE
  5
5CF
330
1F
100
AcDbEntity
  8
002
  6
HIDDEN
 62
    40
370
     9
100
AcDbLine
 10
2122.688143
 20
468.311398
 30
0.0
 11
2187.688143
 21
468.311398
 31
0.0
  0
LINE
  5
5D0
330
1F
100
AcDbEntity
  8
002
  6
HIDDEN
 62
    40
370
     9
100
AcDbLine
 10
2171.688143
 20
468.311398
 30
0.0
 11
2171.688143
 21
443.311398
 31
0.0
  0
LINE
  5
5D1
330
1F
100
AcDbEntity
  8
002
 62
     3
370
    30
100
AcDbLine
 10
2027.338143
 20
1161.311398
 30
0.0
 11
1913.038143
 21
1161.311398
 31
0.0
  0
LINE
  5
5D2
330
1F
100
AcDbEntity
  8
002
 62
     3
370
    30
100
AcDbLine
 10
2104.188143
 20
637.311198
 30
0.0
 11
2104.188143
 21
594.055856
 31
0.0
  0
CIRCLE
  5
5D3
330
1F
100
AcDbEntity
  8
002
 62
     3
370
    30
100
AcDbCircle
 10
2065.188143
 20
543.311398
 30
0.0
 40
25.0
  0
LINE
  5
5D4
330
1F
100
AcDbEntity
  8
002
 62
     3
370
    30
100
AcDbLine
 10
2070.188143
 20
555.811398
 30
0.0
 11
2060.188143
 21
555.811398
 31
0.0
  0
LINE
  5
5D5
330
1F
100
AcDbEntity
  8
002
 62
     3
370
    30
100
AcDbLine
 10
2060.188143
 20
555.811398
 30
0.0
 11
2060.188143
 21
563.811398
 31
0.0
  0
LINE
  5
5D6
330
1F
100
AcDbEntity
  8
002
 62
     3
370
    30
100
AcDbLine
 10
2060.188143
 20
563.811398
 30
0.0
 11
2070.188143
 21
563.811398
 31
0.0
  0
LINE
  5
5D7
330
1F
100
AcDbEntity
  8
002
 62
     3
370
    30
100
AcDbLine
 10
2070.188143
 20
563.811398
 30
0.0
 11
2070.188143
 21
555.811398
 31
0.0
  0
ARC
  5
5D8
330
1F
100
AcDbEntity
  8
002
 62
     3
370
    30
100
AcDbCircle
 10
2065.188143
 20
543.311398
 30
0.0
 40
17.50046973655275
100
AcDbArc
 50
106.601091
 51
73.398909
  0
ARC
  5
5D9
330
1F
100
AcDbEntity
  8
002
 62
     3
370
    30
100
AcDbCircle
 10
2065.188143
 20
543.311398
 30
0.0
 40
19.000672645988
100
AcDbArc
 50
105.25697
 51
74.74303
  0
LINE
  5
5DA
330
1F
100
AcDbEntity
  8
002
 62
     3
370
    30
100
AcDbLine
 10
1882.688143
 20
443.311398
 30
0.0
 11
1882.688143
 21
441.011398
 31
0.0
  0
LINE
  5
5DB
330
1F
100
AcDbEntity
  8
002
 62
     3
370
    30
100
AcDbLine
 10
1882.688143
 20
441.011398
 30
0.0
 11
2057.688143
 21
441.011398
 31
0.0
  0
LINE
  5
5DC
330
1F
100
AcDbEntity
  8
002
 62
     3
370
    30
100
AcDbLine
 10
2057.688143
 20
441.011398
 30
0.0
 11
2057.688143
 21
443.311398
 31
0.0
  0
LINE
  5
5DD
330
1F
100
AcDbEntity
  8
002
 62
     3
370
    30
100
AcDbLine
 10
2032.188143
 20
441.011398
 30
0.0
 11
2032.188143
 21
431.011398
 31
0.0
  0
LINE
  5
5DE
330
1F
100
AcDbEntity
  8
002
 62
     3
370
    30
100
AcDbLine
 10
2016.188143
 20
431.011398
 30
0.0
 11
2016.188143
 21
441.011398
 31
0.0
  0
LINE
  5
5DF
330
1F
100
AcDbEntity
  8
002
 62
     3
370
    30
100
AcDbLine
 10
2016.188143
 20
431.011398
 30
0.0
 11
2032.188143
 21
431.011398
 31
0.0
  0
ARC
  5
5E0
330
1F
100
AcDbEntity
  8
002
 62
     3
370
    30
100
AcDbCircle
 10
2039.188143
 20
413.311398
 30
0.0
 40
1.000163611615539
100
AcDbArc
 50
279.989728
 51
80.010272
  0
LINE
  5
5E1
330
1F
100
AcDbEntity
  8
002
 62
     3
370
    30
100
AcDbLine
 10
2039.361643
 20
412.326398
 30
0.0
 11
2021.014643
 21
409.296398
 31
0.0
  0
ARC
  5
5E2
330
1F
100
AcDbEntity
  8
002
 62
     3
370
    30
100
AcDbCircle
 10
2021.188143
 20
408.311398
 30
0.0
 40
1.000163611615743
100
AcDbArc
 50
99.989728
 51
260.010272
  0
LINE
  5
5E3
330
1F
100
AcDbEntity
  8
002
 62
     3
370
    30
100
AcDbLine
 10
2021.014643
 20
407.326398
 30
0.0
 11
2039.361643
 21
404.296398
 31
0.0
  0
ARC
  5
5E4
330
1F
100
AcDbEntity
  8
002
 62
     3
370
    30
100
AcDbCircle
 10
2039.188143
 20
403.311398
 30
0.0
 40
1.000163611615539
100
AcDbArc
 50
279.989728
 51
80.010272
  0
LINE
  5
5E5
330
1F
100
AcDbEntity
  8
002
 62
     3
370
    30
100
AcDbLine
 10
2039.361643
 20
402.326398
 30
0.0
 11
2021.014643
 21
399.296398
 31
0.0
  0
LINE
  5
5E6
330
1F
100
AcDbEntity
  8
002
 62
     3
370
    30
100
AcDbLine
 10
2021.014643
 20
397.326398
 30
0.0
 11
2039.361643
 21
394.296398
 31
0.0
  0
ARC
  5
5E7
330
1F
100
AcDbEntity
  8
002
 62
     3
370
    30
100
AcDbCircle
 10
2039.188143
 20
393.311398
 30
0.0
 40
1.000163611615539
100
AcDbArc
 50
279.989728
 51
80.010272
  0
LINE
  5
5E8
330
1F
100
AcDbEntity
  8
002
 62
     3
370
    30
100
AcDbLine
 10
2039.361643
 20
392.326398
 30
0.0
 11
2021.014643
 21
389.296398
 31
0.0
  0
ARC
  5
5E9
330
1F
100
AcDbEntity
  8
002
 62
     3
370
    30
100
AcDbCircle
 10
2021.188143
 20
388.311398
 30
0.0
 40
1.000163611615743
100
AcDbArc
 50
99.989728
 51
180.0
  0
LINE
  5
5EA
330
1F
100
AcDbEntity
  8
002
 62
     3
370
    30
100
AcDbLine
 10
2019.188143
 20
388.311398
 30
0.0
 11
1921.188143
 21
388.311398
 31
0.0
  0
LINE
  5
5EB
330
1F
100
AcDbEntity
  8
002
 62
     3
370
    30
100
AcDbLine
 10
1919.361643
 20
389.296398
 30
0.0
 11
1901.014643
 21
392.326398
 31
0.0
  0
ARC
  5
5EC
330
1F
100
AcDbEntity
  8
002
 62
     3
370
    30
100
AcDbCircle
 10
1901.188143
 20
393.311398
 30
0.0
 40
1.000163611615743
100
AcDbArc
 50
99.989728
 51
260.010272
  0
LINE
  5
5ED
330
1F
100
AcDbEntity
  8
002
 62
     3
370
    30
100
AcDbLine
 10
1901.014643
 20
394.296398
 30
0.0
 11
1919.361643
 21
397.326398
 31
0.0
  0
LINE
  5
5EE
330
1F
100
AcDbEntity
  8
002
 62
     3
370
    30
100
AcDbLine
 10
1919.361643
 20
399.296398
 30
0.0
 11
1901.014643
 21
402.326398
 31
0.0
  0
ARC
  5
5EF
330
1F
100
AcDbEntity
  8
002
 62
     3
370
    30
100
AcDbCircle
 10
1901.188143
 20
403.311398
 30
0.0
 40
1.000163611615743
100
AcDbArc
 50
99.989728
 51
260.010272
  0
LINE
  5
5F0
330
1F
100
AcDbEntity
  8
002
 62
     3
370
    30
100
AcDbLine
 10
1901.014643
 20
404.296398
 30
0.0
 11
1919.361643
 21
407.326398
 31
0.0
  0
ARC
  5
5F1
330
1F
100
AcDbEntity
  8
002
 62
     3
370
    30
100
AcDbCircle
 10
1919.188143
 20
408.311398
 30
0.0
 40
1.000163611615519
100
AcDbArc
 50
279.989728
 51
80.010272
  0
LINE
  5
5F2
330
1F
100
AcDbEntity
  8
002
 62
     3
370
    30
100
AcDbLine
 10
1919.361643
 20
409.296398
 30
0.0
 11
1901.014643
 21
412.326398
 31
0.0
  0
ARC
  5
5F3
330
1F
100
AcDbEntity
  8
002
 62
     3
370
    30
100
AcDbCircle
 10
1901.188143
 20
413.311398
 30
0.0
 40
1.000163611615743
100
AcDbArc
 50
99.989728
 51
260.010272
  0
LINE
  5
5F4
330
1F
100
AcDbEntity
  8
002
 62
     3
370
    30
100
AcDbLine
 10
1901.014643
 20
414.296398
 30
0.0
 11
1911.988143
 21
418.311398
 31
0.0
  0
LINE
  5
5F5
330
1F
100
AcDbEntity
  8
002
 62
     3
370
    30
100
AcDbLine
 10
1911.988143
 20
418.311398
 30
0.0
 11
1911.988143
 21
419.311398
 31
0.0
  0
LINE
  5
5F6
330
1F
100
AcDbEntity
  8
002
 62
     3
370
    30
100
AcDbLine
 10
1911.388143
 20
419.311398
 30
0.0
 11
1911.388143
 21
431.011398
 31
0.0
  0
LINE
  5
5F7
330
1F
100
AcDbEntity
  8
002
 62
     3
370
    30
100
AcDbLine
 10
1924.188143
 20
433.311398
 30
0.0
 11
1970.188143
 21
433.311398
 31
0.0
  0
LINE
  5
5F8
330
1F
100
AcDbEntity
  8
002
 62
     3
370
    30
100
AcDbLine
 10
1908.188143
 20
431.011398
 30
0.0
 11
1908.188143
 21
441.011398
 31
0.0
  0
LINE
  5
5F9
330
1F
100
AcDbEntity
  8
002
 62
     3
370
    30
100
AcDbLine
 10
1908.188143
 20
431.011398
 30
0.0
 11
1924.188143
 21
431.011398
 31
0.0
  0
LINE
  5
5FA
330
1F
100
AcDbEntity
  8
002
 62
     3
370
    30
100
AcDbLine
 10
1924.188143
 20
431.011398
 30
0.0
 11
1924.188143
 21
441.011398
 31
0.0
  0
ARC
  5
5FB
330
1F
100
AcDbEntity
  8
002
 62
     3
370
    30
100
AcDbCircle
 10
1903.388143
 20
430.311398
 30
0.0
 40
2.0
100
AcDbArc
 50
90.0
 51
180.0
  0
LINE
  5
5FC
330
1F
100
AcDbEntity
  8
002
 62
     3
370
    30
100
AcDbLine
 10
1901.388143
 20
430.311398
 30
0.0
 11
1901.388143
 21
421.311398
 31
0.0
  0
LINE
  5
5FD
330
1F
100
AcDbEntity
  8
002
 62
     3
370
    30
100
AcDbLine
 10
1903.388143
 20
419.311398
 30
0.0
 11
2028.988143
 21
419.311398
 31
0.0
  0
LINE
  5
5FE
330
1F
100
AcDbEntity
  8
002
 62
     3
370
    30
100
AcDbLine
 10
2028.988143
 20
419.311398
 30
0.0
 11
2028.988143
 21
431.011398
 31
0.0
  0
LINE
  5
5FF
330
1F
100
AcDbEntity
  8
002
 62
     3
370
    30
100
AcDbLine
 10
2016.188143
 20
432.311398
 30
0.0
 11
1970.188143
 21
432.311398
 31
0.0
  0
LINE
  5
600
330
1F
100
AcDbEntity
  8
002
 62
     3
370
    30
100
AcDbLine
 10
1970.188143
 20
433.311398
 30
0.0
 11
2016.188143
 21
433.311398
 31
0.0
  0
LINE
  5
601
330
1F
100
AcDbEntity
  8
002
 62
     3
370
    30
100
AcDbLine
 10
2028.388143
 20
419.311398
 30
0.0
 11
2028.388143
 21
418.311398
 31
0.0
  0
LINE
  5
602
330
1F
100
AcDbEntity
  8
002
 62
     3
370
    30
100
AcDbLine
 10
2028.388143
 20
418.311398
 30
0.0
 11
2039.361643
 21
414.296398
 31
0.0
  0
LINE
  5
603
330
1F
100
AcDbEntity
  8
002
 62
     3
370
    30
100
AcDbLine
 10
2039.188143
 20
413.311398
 30
0.0
 11
1901.188143
 21
413.311398
 31
0.0
  0
ARC
  5
604
330
1F
100
AcDbEntity
  8
002
 62
     3
370
    30
100
AcDbCircle
 10
1903.388143
 20
421.311398
 30
0.0
 40
2.0
100
AcDbArc
 50
180.0
 51
270.0
  0
CIRCLE
  5
605
330
1F
100
AcDbEntity
  8
002
 62
     3
370
    30
100
AcDbCircle
 10
1906.388143
 20
425.811398
 30
0.0
 40
1.0
  0
LINE
  5
606
330
1F
100
AcDbEntity
  8
002
 62
     3
370
    30
100
AcDbLine
 10
1911.988143
 20
418.311398
 30
0.0
 11
2028.388143
 21
418.311398
 31
0.0
  0
LINE
  5
607
330
1F
100
AcDbEntity
  8
002
 62
     3
370
    30
100
AcDbLine
 10
2019.188143
 20
408.311398
 30
0.0
 11
1921.188143
 21
408.311398
 31
0.0
  0
ARC
  5
608
330
1F
100
AcDbEntity
  8
002
 62
     3
370
    30
100
AcDbCircle
 10
1919.188143
 20
398.311398
 30
0.0
 40
1.000163611615519
100
AcDbArc
 50
279.989728
 51
80.010272
  0
LINE
  5
609
330
1F
100
AcDbEntity
  8
002
 62
     3
370
    30
100
AcDbLine
 10
1921.188143
 20
398.311398
 30
0.0
 11
2019.188143
 21
398.311398
 31
0.0
  0
ARC
  5
60A
330
1F
100
AcDbEntity
  8
002
 62
     3
370
    30
100
AcDbCircle
 10
2021.188143
 20
398.311398
 30
0.0
 40
1.000163611615743
100
AcDbArc
 50
99.989728
 51
260.010272
  0
LINE
  5
60B
330
1F
100
AcDbEntity
  8
002
 62
     3
370
    30
100
AcDbLine
 10
2039.188143
 20
403.311398
 30
0.0
 11
1901.188143
 21
403.311398
 31
0.0
  0
LINE
  5
60C
330
1F
100
AcDbEntity
  8
002
 62
     3
370
    30
100
AcDbLine
 10
1901.188143
 20
393.311398
 30
0.0
 11
2039.188143
 21
393.311398
 31
0.0
  0
ARC
  5
60D
330
1F
100
AcDbEntity
  8
002
 62
     3
370
    30
100
AcDbCircle
 10
1919.188143
 20
388.311398
 30
0.0
 40
1.0
100
AcDbArc
 50
0.0
 51
80.010272
  0
LINE
  5
60E
330
1F
100
AcDbEntity
  8
002
  6
CENTER
 62
    40
370
     9
100
AcDbLine
 10
1906.388143
 20
424.084398
 30
0.0
 11
1906.388143
 21
427.395398
 31
0.0
  0
LINE
  5
60F
330
1F
100
AcDbEntity
  8
002
  6
CENTER
 62
    40
370
     9
100
AcDbLine
 10
1904.712543
 20
425.811398
 30
0.0
 11
1908.190943
 21
425.811398
 31
0.0
  0
LINE
  5
610
330
1F
100
AcDbEntity
  8
002
  6
PHANTOM
 62
    40
370
     9
100
AcDbLine
 10
2040.188143
 20
393.311398
 30
0.0
 11
2040.188143
 21
319.311198
 31
0.0
  0
LINE
  5
611
330
1F
100
AcDbEntity
  8
002
  6
PHANTOM
 62
    40
370
     9
100
AcDbLine
 10
2020.188143
 20
324.311198
 30
0.0
 11
2020.188143
 21
388.311398
 31
0.0
  0
LINE
  5
612
330
1F
100
AcDbEntity
  8
002
  6
PHANTOM
 62
    40
370
     9
100
AcDbLine
 10
1920.188143
 20
388.311398
 30
0.0
 11
1920.188143
 21
324.311198
 31
0.0
  0
LINE
  5
613
330
1F
100
AcDbEntity
  8
002
  6
PHANTOM
 62
    40
370
     9
100
AcDbLine
 10
1900.188143
 20
319.311198
 30
0.0
 11
1900.188143
 21
393.311398
 31
0.0
  0
LINE
  5
614
330
1F
100
AcDbEntity
  8
002
 62
     3
370
    30
100
AcDbLine
 10
1924.188143
 20
432.311398
 30
0.0
 11
1970.188143
 21
432.311398
 31
0.0
  0
LINE
  5
615
330
1F
100
AcDbEntity
  8
002
 62
     3
370
    30
100
AcDbLine
 10
1908.188143
 20
432.311398
 30
0.0
 11
1903.388143
 21
432.311398
 31
0.0
  0
LINE
  5
616
330
1F
100
AcDbEntity
  8
002
 62
     3
370
    30
100
AcDbLine
 10
2019.188143
 20
324.311198
 30
0.0
 11
1921.188143
 21
324.311198
 31
0.0
  0
ARC
  5
617
330
1F
100
AcDbEntity
  8
002
 62
     3
370
    30
100
AcDbCircle
 10
1919.188143
 20
324.311198
 30
0.0
 40
1.000163611615519
100
AcDbArc
 50
279.989728
 51
0.0
  0
LINE
  5
618
330
1F
100
AcDbEntity
  8
002
 62
     3
370
    30
100
AcDbLine
 10
1919.361643
 20
323.326198
 30
0.0
 11
1901.014643
 21
320.296198
 31
0.0
  0
LINE
  5
619
330
1F
100
AcDbEntity
  8
002
 62
     3
370
    30
100
AcDbLine
 10
1901.188143
 20
319.311198
 30
0.0
 11
2039.188143
 21
319.311198
 31
0.0
  0
LINE
  5
61A
330
1F
100
AcDbEntity
  8
002
 62
     3
370
    30
100
AcDbLine
 10
2039.361643
 20
318.326198
 30
0.0
 11
2021.014643
 21
315.296198
 31
0.0
  0
LINE
  5
61B
330
1F
100
AcDbEntity
  8
002
 62
     3
370
    30
100
AcDbLine
 10
2021.014643
 20
313.326198
 30
0.0
 11
2039.361643
 21
310.296198
 31
0.0
  0
ARC
  5
61C
330
1F
100
AcDbEntity
  8
002
 62
     3
370
    30
100
AcDbCircle
 10
2039.188143
 20
309.311198
 30
0.0
 40
1.000163611615539
100
AcDbArc
 50
279.989728
 51
80.010272
  0
LINE
  5
61D
330
1F
100
AcDbEntity
  8
002
 62
     3
370
    30
100
AcDbLine
 10
2039.361643
 20
308.326198
 30
0.0
 11
2021.014643
 21
305.296198
 31
0.0
  0
LINE
  5
61E
330
1F
100
AcDbEntity
  8
002
 62
     3
370
    30
100
AcDbLine
 10
2021.014643
 20
303.326198
 30
0.0
 11
2039.361643
 21
300.296198
 31
0.0
  0
ARC
  5
61F
330
1F
100
AcDbEntity
  8
002
 62
     3
370
    30
100
AcDbCircle
 10
2039.188143
 20
299.311198
 30
0.0
 40
1.000163611615539
100
AcDbArc
 50
279.989728
 51
80.010272
  0
LINE
  5
620
330
1F
100
AcDbEntity
  8
002
 62
     3
370
    30
100
AcDbLine
 10
2039.361643
 20
298.326198
 30
0.0
 11
2021.014643
 21
295.296198
 31
0.0
  0
LINE
  5
621
330
1F
100
AcDbEntity
  8
002
 62
     3
370
    30
100
AcDbLine
 10
2021.014643
 20
293.326198
 30
0.0
 11
2039.361643
 21
290.296198
 31
0.0
  0
ARC
  5
622
330
1F
100
AcDbEntity
  8
002
 62
     3
370
    30
100
AcDbCircle
 10
2039.188143
 20
289.311198
 30
0.0
 40
1.000163611615539
100
AcDbArc
 50
279.989728
 51
80.010272
  0
LINE
  5
623
330
1F
100
AcDbEntity
  8
002
 62
     3
370
    30
100
AcDbLine
 10
2039.361643
 20
288.326198
 30
0.0
 11
2010.888143
 21
284.311198
 31
0.0
  0
LINE
  5
624
330
1F
100
AcDbEntity
  8
002
 62
     3
370
    30
100
AcDbLine
 10
2010.888143
 20
284.311198
 30
0.0
 11
1929.488143
 21
284.311198
 31
0.0
  0
LINE
  5
625
330
1F
100
AcDbEntity
  8
002
 62
     3
370
    30
100
AcDbLine
 10
1929.488143
 20
284.311198
 30
0.0
 11
1901.014643
 21
288.326198
 31
0.0
  0
ARC
  5
626
330
1F
100
AcDbEntity
  8
002
 62
     3
370
    30
100
AcDbCircle
 10
1901.188143
 20
289.311198
 30
0.0
 40
1.000163611615743
100
AcDbArc
 50
99.989728
 51
260.010272
  0
LINE
  5
627
330
1F
100
AcDbEntity
  8
002
 62
     3
370
    30
100
AcDbLine
 10
1901.014643
 20
290.296198
 30
0.0
 11
1919.361643
 21
293.326198
 31
0.0
  0
LINE
  5
628
330
1F
100
AcDbEntity
  8
002
 62
     3
370
    30
100
AcDbLine
 10
1919.361643
 20
295.296198
 30
0.0
 11
1901.014643
 21
298.326198
 31
0.0
  0
ARC
  5
629
330
1F
100
AcDbEntity
  8
002
 62
     3
370
    30
100
AcDbCircle
 10
1901.188143
 20
299.311198
 30
0.0
 40
1.000163611615743
100
AcDbArc
 50
99.989728
 51
260.010272
  0
LINE
  5
62A
330
1F
100
AcDbEntity
  8
002
 62
     3
370
    30
100
AcDbLine
 10
1901.014643
 20
300.296198
 30
0.0
 11
1919.361643
 21
303.326198
 31
0.0
  0
LINE
  5
62B
330
1F
100
AcDbEntity
  8
002
 62
     3
370
    30
100
AcDbLine
 10
1919.361643
 20
305.296198
 30
0.0
 11
1901.014643
 21
308.326198
 31
0.0
  0
ARC
  5
62C
330
1F
100
AcDbEntity
  8
002
 62
     3
370
    30
100
AcDbCircle
 10
1901.188143
 20
309.311198
 30
0.0
 40
1.000163611615743
100
AcDbArc
 50
99.989728
 51
260.010272
  0
LINE
  5
62D
330
1F
100
AcDbEntity
  8
002
 62
     3
370
    30
100
AcDbLine
 10
1901.014643
 20
310.296198
 30
0.0
 11
1919.361643
 21
313.326198
 31
0.0
  0
LINE
  5
62E
330
1F
100
AcDbEntity
  8
002
 62
     3
370
    30
100
AcDbLine
 10
1919.361643
 20
315.296198
 30
0.0
 11
1901.014643
 21
318.326198
 31
0.0
  0
ARC
  5
62F
330
1F
100
AcDbEntity
  8
002
 62
     3
370
    30
100
AcDbCircle
 10
1901.188143
 20
319.311198
 30
0.0
 40
1.000163611615743
100
AcDbArc
 50
99.989728
 51
260.010272
  0
LINE
  5
630
330
1F
100
AcDbEntity
  8
002
 62
     3
370
    30
100
AcDbLine
 10
1901.188143
 20
309.311198
 30
0.0
 11
2039.188143
 21
309.311198
 31
0.0
  0
LINE
  5
631
330
1F
100
AcDbEntity
  8
002
 62
     3
370
    30
100
AcDbLine
 10
2039.188143
 20
299.311198
 30
0.0
 11
1901.188143
 21
299.311198
 31
0.0
  0
LINE
  5
632
330
1F
100
AcDbEntity
  8
002
 62
     3
370
    30
100
AcDbLine
 10
1901.188143
 20
289.311198
 30
0.0
 11
2039.188143
 21
289.311198
 31
0.0
  0
ARC
  5
633
330
1F
100
AcDbEntity
  8
002
 62
     3
370
    30
100
AcDbCircle
 10
2021.188143
 20
294.311198
 30
0.0
 40
1.000163611615743
100
AcDbArc
 50
99.989728
 51
260.010272
  0
LINE
  5
634
330
1F
100
AcDbEntity
  8
002
 62
     3
370
    30
100
AcDbLine
 10
2019.188143
 20
294.311198
 30
0.0
 11
1921.188143
 21
294.311198
 31
0.0
  0
ARC
  5
635
330
1F
100
AcDbEntity
  8
002
 62
     3
370
    30
100
AcDbCircle
 10
1919.188143
 20
294.311198
 30
0.0
 40
1.000163611615519
100
AcDbArc
 50
279.989728
 51
80.010272
  0
LINE
  5
636
330
1F
100
AcDbEntity
  8
002
 62
     3
370
    30
100
AcDbLine
 10
1920.888143
 20
283.311198
 30
0.0
 11
2011.488143
 21
283.311198
 31
0.0
  0
LINE
  5
637
330
1F
100
AcDbEntity
  8
002
 62
     3
370
    30
100
AcDbLine
 10
2011.488143
 20
283.311198
 30
0.0
 11
2011.488143
 21
270.311198
 31
0.0
  0
LINE
  5
638
330
1F
100
AcDbEntity
  8
002
 62
     3
370
    30
100
AcDbLine
 10
2011.488143
 20
270.311198
 30
0.0
 11
1920.888143
 21
270.311198
 31
0.0
  0
ARC
  5
639
330
1F
100
AcDbEntity
  8
002
 62
     3
370
    30
100
AcDbCircle
 10
1920.888143
 20
272.311198
 30
0.0
 40
2.0
100
AcDbArc
 50
180.0
 51
270.0
  0
LINE
  5
63A
330
1F
100
AcDbEntity
  8
002
 62
     3
370
    30
100
AcDbLine
 10
1918.888143
 20
272.311198
 30
0.0
 11
1918.888143
 21
281.311198
 31
0.0
  0
ARC
  5
63B
330
1F
100
AcDbEntity
  8
002
 62
     3
370
    30
100
AcDbCircle
 10
1920.888143
 20
281.311198
 30
0.0
 40
2.0
100
AcDbArc
 50
90.0
 51
180.0
  0
CIRCLE
  5
63C
330
1F
100
AcDbEntity
  8
002
 62
     3
370
    30
100
AcDbCircle
 10
1923.888143
 20
276.811198
 30
0.0
 40
1.0
  0
LINE
  5
63D
330
1F
100
AcDbEntity
  8
002
 62
     3
370
    30
100
AcDbLine
 10
1928.888143
 20
283.311198
 30
0.0
 11
1928.888143
 21
270.311198
 31
0.0
  0
LINE
  5
63E
330
1F
100
AcDbEntity
  8
002
 62
     3
370
    30
100
AcDbLine
 10
1929.488143
 20
270.311198
 30
0.0
 11
1929.488143
 21
268.311198
 31
0.0
  0
LINE
  5
63F
330
1F
100
AcDbEntity
  8
002
 62
     3
370
    30
100
AcDbLine
 10
2010.888143
 20
268.311198
 30
0.0
 11
2010.888143
 21
270.311198
 31
0.0
  0
LINE
  5
640
330
1F
100
AcDbEntity
  8
002
 62
     3
370
    30
100
AcDbLine
 10
2010.888143
 20
268.311198
 30
0.0
 11
1929.488143
 21
268.311198
 31
0.0
  0
LINE
  5
641
330
1F
100
AcDbEntity
  8
002
 62
     3
370
    30
100
AcDbLine
 10
1940.188443
 20
264.811198
 30
0.0
 11
1940.188443
 21
206.311198
 31
0.0
  0
LINE
  5
642
330
1F
100
AcDbEntity
  8
002
 62
     3
370
    30
100
AcDbLine
 10
1940.188443
 20
206.311198
 30
0.0
 11
2000.188443
 21
206.311198
 31
0.0
  0
LINE
  5
643
330
1F
100
AcDbEntity
  8
002
 62
     3
370
    30
100
AcDbLine
 10
2000.188443
 20
206.311198
 30
0.0
 11
2000.188443
 21
264.811198
 31
0.0
  0
LINE
  5
644
330
1F
100
AcDbEntity
  8
002
 62
     3
370
    30
100
AcDbLine
 10
2000.188543
 20
264.811198
 30
0.0
 11
1940.188543
 21
264.811198
 31
0.0
  0
LINE
  5
645
330
1F
100
AcDbEntity
  8
002
 62
     3
370
    30
100
AcDbLine
 10
1941.688343
 20
264.811198
 30
0.0
 11
1941.688343
 21
268.311198
 31
0.0
  0
LINE
  5
646
330
1F
100
AcDbEntity
  8
002
 62
     3
370
    30
100
AcDbLine
 10
1929.488143
 20
283.311198
 30
0.0
 11
1929.488143
 21
284.311198
 31
0.0
  0
LINE
  5
647
330
1F
100
AcDbEntity
  8
002
 62
     3
370
    30
100
AcDbLine
 10
1921.188143
 20
304.311198
 30
0.0
 11
2019.188143
 21
304.311198
 31
0.0
  0
ARC
  5
648
330
1F
100
AcDbEntity
  8
002
 62
     3
370
    30
100
AcDbCircle
 10
2021.188143
 20
304.311198
 30
0.0
 40
1.000163611615743
100
AcDbArc
 50
99.989728
 51
260.010272
  0
ARC
  5
649
330
1F
100
AcDbEntity
  8
002
 62
     3
370
    30
100
AcDbCircle
 10
2021.188143
 20
314.311198
 30
0.0
 40
1.000163611615743
100
AcDbArc
 50
99.989728
 51
260.010272
  0
LINE
  5
64A
330
1F
100
AcDbEntity
  8
002
 62
     3
370
    30
100
AcDbLine
 10
2019.188143
 20
314.311198
 30
0.0
 11
1921.188143
 21
314.311198
 31
0.0
  0
ARC
  5
64B
330
1F
100
AcDbEntity
  8
002
 62
     3
370
    30
100
AcDbCircle
 10
1919.188143
 20
314.311198
 30
0.0
 40
1.000163611615519
100
AcDbArc
 50
279.989728
 51
80.010272
  0
ARC
  5
64C
330
1F
100
AcDbEntity
  8
002
 62
     3
370
    30
100
AcDbCircle
 10
1919.188143
 20
304.311198
 30
0.0
 40
1.000163611615519
100
AcDbArc
 50
279.989728
 51
80.010272
  0
LINE
  5
64D
330
1F
100
AcDbEntity
  8
002
 62
     3
370
    30
100
AcDbLine
 10
1998.688343
 20
268.311198
 30
0.0
 11
1998.688343
 21
264.811198
 31
0.0
  0
LINE
  5
64E
330
1F
100
AcDbEntity
  8
002
 62
     3
370
    30
100
AcDbLine
 10
2010.888143
 20
283.311198
 30
0.0
 11
2010.888143
 21
284.311198
 31
0.0
  0
LINE
  5
64F
330
1F
100
AcDbEntity
  8
002
 62
     3
370
    30
100
AcDbLine
 10
2021.014643
 20
323.326198
 30
0.0
 11
2039.361643
 21
320.296198
 31
0.0
  0
ARC
  5
650
330
1F
100
AcDbEntity
  8
002
 62
     3
370
    30
100
AcDbCircle
 10
2039.188143
 20
319.311198
 30
0.0
 40
1.000163611615539
100
AcDbArc
 50
279.989728
 51
80.010272
  0
ARC
  5
651
330
1F
100
AcDbEntity
  8
002
 62
     3
370
    30
100
AcDbCircle
 10
2021.188143
 20
324.311198
 30
0.0
 40
1.0
100
AcDbArc
 50
180.0
 51
260.010272
  0
LINE
  5
652
330
1F
100
AcDbEntity
  8
002
  6
CENTER
 62
    40
370
     9
100
AcDbLine
 10
1923.888143
 20
280.063198
 30
0.0
 11
1923.888143
 21
273.303198
 31
0.0
  0
LINE
  5
653
330
1F
100
AcDbEntity
  8
002
  6
CENTER
 62
    40
370
     9
100
AcDbLine
 10
1921.520343
 20
276.811198
 30
0.0
 11
1926.545443
 21
276.811198
 31
0.0
  0
LINE
  5
654
330
1F
100
AcDbEntity
  8
002
 62
    40
370
     9
100
AcDbLine
 10
1941.588343
 20
264.811198
 30
0.0
 11
1941.588343
 21
206.311198
 31
0.0
  0
LINE
  5
655
330
1F
100
AcDbEntity
  8
002
 62
    40
370
     9
100
AcDbLine
 10
1998.788343
 20
206.311198
 30
0.0
 11
1998.788343
 21
264.811198
 31
0.0
  0
LINE
  5
656
330
1F
100
AcDbEntity
  8
003
  6
CENTER
 62
    40
370
     9
100
AcDbLine
 10
1916.188143
 20
427.548682
 30
0.0
 11
1916.188143
 21
448.317087
 31
0.0
  0
LINE
  5
657
330
1F
100
AcDbEntity
  8
003
  6
CENTER
 62
    40
370
     9
100
AcDbLine
 10
2024.188143
 20
426.466543
 30
0.0
 11
2024.188143
 21
448.539284
 31
0.0
  0
LINE
  5
658
330
1F
100
AcDbEntity
  8
002
  6
CENTER
 62
    40
370
     9
100
AcDbLine
 10
493.262804
 20
1855.201722
 30
0.0
 11
493.262804
 21
1879.666884
 31
0.0
  0
LINE
  5
659
330
1F
100
AcDbEntity
  8
002
  6
CENTER
 62
    40
370
     9
100
AcDbLine
 10
418.308962
 20
1855.201722
 30
0.0
 11
418.308962
 21
1879.666884
 31
0.0
  0
LINE
  5
65A
330
1F
100
AcDbEntity
  8
002
  6
CENTER
 62
    40
370
     9
100
AcDbLine
 10
493.262804
 20
2126.979782
 30
0.0
 11
493.262804
 21
2102.514619
 31
0.0
  0
LINE
  5
65B
330
1F
100
AcDbEntity
  8
002
  6
CENTER
 62
    40
370
     9
100
AcDbLine
 10
418.308962
 20
2126.979782
 30
0.0
 11
418.308962
 21
2102.514619
 31
0.0
  0
POLYLINE
  5
65C
330
1F
100
AcDbEntity
  8
002
 62
     3
370
     9
100
AcDb2dPolyline
 66
     1
 10
0.0
 20
0.0
 30
0.0
  0
VERTEX
  5
65E
330
65C
100
AcDbEntity
  8
002
 62
     3
370
     9
100
AcDbVertex
100
AcDb2dVertex
 10
320.785883
 20
961.811298
 30
0.0
  0
VERTEX
  5
65F
330
65C
100
AcDbEntity
  8
002
 62
     3
370
     9
100
AcDbVertex
100
AcDb2dVertex
 10
324.785933
 20
958.259298
 30
0.0
  0
VERTEX
  5
660
330
65C
100
AcDbEntity
  8
002
 62
     3
370
     9
100
AcDbVertex
100
AcDb2dVertex
 10
328.785983
 20
954.995298
 30
0.0
  0
VERTEX
  5
661
330
65C
100
AcDbEntity
  8
002
 62
     3
370
     9
100
AcDbVertex
100
AcDb2dVertex
 10
332.786033
 20
952.307298
 30
0.0
  0
VERTEX
  5
662
330
65C
100
AcDbEntity
  8
002
 62
     3
370
     9
100
AcDbVertex
100
AcDb2dVertex
 10
336.786083
 20
950.483298
 30
0.0
  0
VERTEX
  5
663
330
65C
100
AcDbEntity
  8
002
 62
     3
370
     9
100
AcDbVertex
100
AcDb2dVertex
 10
340.786133
 20
949.811298
 30
0.0
  0
VERTEX
  5
664
330
65C
100
AcDbEntity
  8
002
 62
     3
370
     9
100
AcDbVertex
100
AcDb2dVertex
 10
344.786183
 20
950.483298
 30
0.0
  0
VERTEX
  5
665
330
65C
100
AcDbEntity
  8
002
 62
     3
370
     9
100
AcDbVertex
100
AcDb2dVertex
 10
348.786233
 20
952.307298
 30
0.0
  0
VERTEX
  5
666
330
65C
100
AcDbEntity
  8
002
 62
     3
370
     9
100
AcDbVertex
100
AcDb2dVertex
 10
352.786283
 20
954.995298
 30
0.0
  0
VERTEX
  5
667
330
65C
100
AcDbEntity
  8
002
 62
     3
370
     9
100
AcDbVertex
100
AcDb2dVertex
 10
356.786333
 20
958.259298
 30
0.0
  0
VERTEX
  5
668
330
65C
100
AcDbEntity
  8
002
 62
     3
370
     9
100
AcDbVertex
100
AcDb2dVertex
 10
360.786383
 20
961.811298
 30
0.0
  0
VERTEX
  5
669
330
65C
100
AcDbEntity
  8
002
 62
     3
370
     9
100
AcDbVertex
100
AcDb2dVertex
 10
364.786433
 20
965.363298
 30
0.0
  0
VERTEX
  5
66A
330
65C
100
AcDbEntity
  8
002
 62
     3
370
     9
100
AcDbVertex
100
AcDb2dVertex
 10
368.786483
 20
968.627298
 30
0.0
  0
VERTEX
  5
66B
330
65C
100
AcDbEntity
  8
002
 62
     3
370
     9
100
AcDbVertex
100
AcDb2dVertex
 10
372.786533
 20
971.315298
 30
0.0
  0
VERTEX
  5
66C
330
65C
100
AcDbEntity
  8
002
 62
     3
370
     9
100
AcDbVertex
100
AcDb2dVertex
 10
376.786583
 20
973.139298
 30
0.0
  0
VERTEX
  5
66D
330
65C
100
AcDbEntity
  8
002
 62
     3
370
     9
100
AcDbVertex
100
AcDb2dVertex
 10
380.786633
 20
973.811298
 30
0.0
  0
VERTEX
  5
66E
330
65C
100
AcDbEntity
  8
002
 62
     3
370
     9
100
AcDbVertex
100
AcDb2dVertex
 10
384.786683
 20
973.139298
 30
0.0
  0
VERTEX
  5
66F
330
65C
100
AcDbEntity
  8
002
 62
     3
370
     9
100
AcDbVertex
100
AcDb2dVertex
 10
388.786733
 20
971.315298
 30
0.0
  0
VERTEX
  5
670
330
65C
100
AcDbEntity
  8
002
 62
     3
370
     9
100
AcDbVertex
100
AcDb2dVertex
 10
392.786783
 20
968.627298
 30
0.0
  0
VERTEX
  5
671
330
65C
100
AcDbEntity
  8
002
 62
     3
370
     9
100
AcDbVertex
100
AcDb2dVertex
 10
396.786833
 20
965.363298
 30
0.0
  0
VERTEX
  5
672
330
65C
100
AcDbEntity
  8
002
 62
     3
370
     9
100
AcDbVertex
100
AcDb2dVertex
 10
400.786883
 20
961.811298
 30
0.0
  0
SEQEND
  5
65D
330
65C
100
AcDbEntity
  8
002
370
     9
  0
POLYLINE
  5
673
330
1F
100
AcDbEntity
  8
002
 62
     3
370
     9
100
AcDb2dPolyline
 66
     1
 10
0.0
 20
0.0
 30
0.0
  0
VERTEX
  5
675
330
673
100
AcDbEntity
  8
002
 62
     3
370
     9
100
AcDbVertex
100
AcDb2dVertex
 10
320.785883
 20
985.811298
 30
0.0
  0
VERTEX
  5
676
330
673
100
AcDbEntity
  8
002
 62
     3
370
     9
100
AcDbVertex
100
AcDb2dVertex
 10
324.785933
 20
982.259298
 30
0.0
  0
VERTEX
  5
677
330
673
100
AcDbEntity
  8
002
 62
     3
370
     9
100
AcDbVertex
100
AcDb2dVertex
 10
328.785983
 20
978.995298
 30
0.0
  0
VERTEX
  5
678
330
673
100
AcDbEntity
  8
002
 62
     3
370
     9
100
AcDbVertex
100
AcDb2dVertex
 10
332.786033
 20
976.307298
 30
0.0
  0
VERTEX
  5
679
330
673
100
AcDbEntity
  8
002
 62
     3
370
     9
100
AcDbVertex
100
AcDb2dVertex
 10
336.786083
 20
974.483298
 30
0.0
  0
VERTEX
  5
67A
330
673
100
AcDbEntity
  8
002
 62
     3
370
     9
100
AcDbVertex
100
AcDb2dVertex
 10
340.786133
 20
973.811298
 30
0.0
  0
VERTEX
  5
67B
330
673
100
AcDbEntity
  8
002
 62
     3
370
     9
100
AcDbVertex
100
AcDb2dVertex
 10
344.786183
 20
974.483298
 30
0.0
  0
VERTEX
  5
67C
330
673
100
AcDbEntity
  8
002
 62
     3
370
     9
100
AcDbVertex
100
AcDb2dVertex
 10
348.786233
 20
976.307298
 30
0.0
  0
VERTEX
  5
67D
330
673
100
AcDbEntity
  8
002
 62
     3
370
     9
100
AcDbVertex
100
AcDb2dVertex
 10
352.786283
 20
978.995298
 30
0.0
  0
VERTEX
  5
67E
330
673
100
AcDbEntity
  8
002
 62
     3
370
     9
100
AcDbVertex
100
AcDb2dVertex
 10
356.786333
 20
982.259298
 30
0.0
  0
VERTEX
  5
67F
330
673
100
AcDbEntity
  8
002
 62
     3
370
     9
100
AcDbVertex
100
AcDb2dVertex
 10
360.786383
 20
985.811298
 30
0.0
  0
VERTEX
  5
680
330
673
100
AcDbEntity
  8
002
 62
     3
370
     9
100
AcDbVertex
100
AcDb2dVertex
 10
364.786433
 20
989.363298
 30
0.0
  0
VERTEX
  5
681
330
673
100
AcDbEntity
  8
002
 62
     3
370
     9
100
AcDbVertex
100
AcDb2dVertex
 10
368.786483
 20
992.627298
 30
0.0
  0
VERTEX
  5
682
330
673
100
AcDbEntity
  8
002
 62
     3
370
     9
100
AcDbVertex
100
AcDb2dVertex
 10
372.786533
 20
995.315298
 30
0.0
  0
VERTEX
  5
683
330
673
100
AcDbEntity
  8
002
 62
     3
370
     9
100
AcDbVertex
100
AcDb2dVertex
 10
376.786583
 20
997.139298
 30
0.0
  0
VERTEX
  5
684
330
673
100
AcDbEntity
  8
002
 62
     3
370
     9
100
AcDbVertex
100
AcDb2dVertex
 10
380.786633
 20
997.811298
 30
0.0
  0
VERTEX
  5
685
330
673
100
AcDbEntity
  8
002
 62
     3
370
     9
100
AcDbVertex
100
AcDb2dVertex
 10
384.786683
 20
997.139298
 30
0.0
  0
VERTEX
  5
686
330
673
100
AcDbEntity
  8
002
 62
     3
370
     9
100
AcDbVertex
100
AcDb2dVertex
 10
388.786733
 20
995.315298
 30
0.0
  0
VERTEX
  5
687
330
673
100
AcDbEntity
  8
002
 62
     3
370
     9
100
AcDbVertex
100
AcDb2dVertex
 10
392.786783
 20
992.627298
 30
0.0
  0
VERTEX
  5
688
330
673
100
AcDbEntity
  8
002
 62
     3
370
     9
100
AcDbVertex
100
AcDb2dVertex
 10
396.786833
 20
989.363298
 30
0.0
  0
VERTEX
  5
689
330
673
100
AcDbEntity
  8
002
 62
     3
370
     9
100
AcDbVertex
100
AcDb2dVertex
 10
400.786883
 20
985.811298
 30
0.0
  0
SEQEND
  5
674
330
673
100
AcDbEntity
  8
002
370
     9
  0
LINE
  5
68A
330
1F
100
AcDbEntity
  8
002
 62
     3
370
    30
100
AcDbLine
 10
320.785883
 20
886.311198
 30
0.0
 11
320.785883
 21
961.811298
 31
0.0
  0
LINE
  5
68B
330
1F
100
AcDbEntity
  8
002
 62
     3
370
    30
100
AcDbLine
 10
320.785883
 20
985.811298
 30
0.0
 11
320.785883
 21
1061.311398
 31
0.0
  0
LINE
  5
68C
330
1F
100
AcDbEntity
  8
002
 62
     3
370
    30
100
AcDbLine
 10
400.786883
 20
1061.311398
 30
0.0
 11
400.786883
 21
985.811298
 31
0.0
  0
LINE
  5
68D
330
1F
100
AcDbEntity
  8
002
 62
     3
370
    30
100
AcDbLine
 10
400.786883
 20
961.811298
 30
0.0
 11
400.786883
 21
886.311198
 31
0.0
  0
LINE
  5
68E
330
1F
100
AcDbEntity
  8
002
 62
    40
370
     9
100
AcDbLine
 10
325.508883
 20
1036.311398
 30
0.0
 11
325.508883
 21
981.639664
 31
0.0
  0
LINE
  5
68F
330
1F
100
AcDbEntity
  8
002
 62
    40
370
     9
100
AcDbLine
 10
325.508883
 20
957.639664
 30
0.0
 11
325.508883
 21
886.311198
 31
0.0
  0
LINE
  5
690
330
1F
100
AcDbEntity
  8
002
 62
    40
370
     9
100
AcDbLine
 10
396.064883
 20
886.311198
 30
0.0
 11
396.064883
 21
965.982082
 31
0.0
  0
LINE
  5
691
330
1F
100
AcDbEntity
  8
002
 62
    40
370
     9
100
AcDbLine
 10
396.064883
 20
989.982082
 30
0.0
 11
396.064883
 21
1036.311398
 31
0.0
  0
POLYLINE
  5
692
330
1F
100
AcDbEntity
  8
002
 62
     3
370
     9
100
AcDb2dPolyline
 66
     1
 10
0.0
 20
0.0
 30
0.0
  0
VERTEX
  5
694
330
692
100
AcDbEntity
  8
002
 62
     3
370
     9
100
AcDbVertex
100
AcDb2dVertex
 10
417.935883
 20
314.811398
 30
0.0
  0
VERTEX
  5
695
330
692
100
AcDbEntity
  8
002
 62
     3
370
     9
100
AcDbVertex
100
AcDb2dVertex
 10
412.220883
 20
318.363398
 30
0.0
  0
VERTEX
  5
696
330
692
100
AcDbEntity
  8
002
 62
     3
370
     9
100
AcDbVertex
100
AcDb2dVertex
 10
406.505883
 20
321.627398
 30
0.0
  0
VERTEX
  5
697
330
692
100
AcDbEntity
  8
002
 62
     3
370
     9
100
AcDbVertex
100
AcDb2dVertex
 10
400.790883
 20
324.315398
 30
0.0
  0
VERTEX
  5
698
330
692
100
AcDbEntity
  8
002
 62
     3
370
     9
100
AcDbVertex
100
AcDb2dVertex
 10
395.075883
 20
326.139398
 30
0.0
  0
VERTEX
  5
699
330
692
100
AcDbEntity
  8
002
 62
     3
370
     9
100
AcDbVertex
100
AcDb2dVertex
 10
389.360883
 20
326.811398
 30
0.0
  0
VERTEX
  5
69A
330
692
100
AcDbEntity
  8
002
 62
     3
370
     9
100
AcDbVertex
100
AcDb2dVertex
 10
383.645883
 20
326.139398
 30
0.0
  0
VERTEX
  5
69B
330
692
100
AcDbEntity
  8
002
 62
     3
370
     9
100
AcDbVertex
100
AcDb2dVertex
 10
377.930883
 20
324.315398
 30
0.0
  0
VERTEX
  5
69C
330
692
100
AcDbEntity
  8
002
 62
     3
370
     9
100
AcDbVertex
100
AcDb2dVertex
 10
372.215883
 20
321.627398
 30
0.0
  0
VERTEX
  5
69D
330
692
100
AcDbEntity
  8
002
 62
     3
370
     9
100
AcDbVertex
100
AcDb2dVertex
 10
366.500883
 20
318.363398
 30
0.0
  0
VERTEX
  5
69E
330
692
100
AcDbEntity
  8
002
 62
     3
370
     9
100
AcDbVertex
100
AcDb2dVertex
 10
360.785883
 20
314.811398
 30
0.0
  0
VERTEX
  5
69F
330
692
100
AcDbEntity
  8
002
 62
     3
370
     9
100
AcDbVertex
100
AcDb2dVertex
 10
355.070883
 20
311.259398
 30
0.0
  0
VERTEX
  5
6A0
330
692
100
AcDbEntity
  8
002
 62
     3
370
     9
100
AcDbVertex
100
AcDb2dVertex
 10
349.355883
 20
307.995398
 30
0.0
  0
VERTEX
  5
6A1
330
692
100
AcDbEntity
  8
002
 62
     3
370
     9
100
AcDbVertex
100
AcDb2dVertex
 10
343.640883
 20
305.307398
 30
0.0
  0
VERTEX
  5
6A2
330
692
100
AcDbEntity
  8
002
 62
     3
370
     9
100
AcDbVertex
100
AcDb2dVertex
 10
337.925883
 20
303.483398
 30
0.0
  0
VERTEX
  5
6A3
330
692
100
AcDbEntity
  8
002
 62
     3
370
     9
100
AcDbVertex
100
AcDb2dVertex
 10
332.210883
 20
302.811398
 30
0.0
  0
VERTEX
  5
6A4
330
692
100
AcDbEntity
  8
002
 62
     3
370
     9
100
AcDbVertex
100
AcDb2dVertex
 10
326.495883
 20
303.483398
 30
0.0
  0
VERTEX
  5
6A5
330
692
100
AcDbEntity
  8
002
 62
     3
370
     9
100
AcDbVertex
100
AcDb2dVertex
 10
320.780883
 20
305.307398
 30
0.0
  0
VERTEX
  5
6A6
330
692
100
AcDbEntity
  8
002
 62
     3
370
     9
100
AcDbVertex
100
AcDb2dVertex
 10
315.065883
 20
307.995398
 30
0.0
  0
VERTEX
  5
6A7
330
692
100
AcDbEntity
  8
002
 62
     3
370
     9
100
AcDbVertex
100
AcDb2dVertex
 10
309.350883
 20
311.259398
 30
0.0
  0
VERTEX
  5
6A8
330
692
100
AcDbEntity
  8
002
 62
     3
370
     9
100
AcDbVertex
100
AcDb2dVertex
 10
303.635883
 20
314.811398
 30
0.0
  0
SEQEND
  5
693
330
692
100
AcDbEntity
  8
002
370
     9
  0
POLYLINE
  5
6A9
330
1F
100
AcDbEntity
  8
002
 62
     3
370
     9
100
AcDb2dPolyline
 66
     1
 10
0.0
 20
0.0
 30
0.0
  0
VERTEX
  5
6AB
330
6A9
100
AcDbEntity
  8
002
 62
     3
370
     9
100
AcDbVertex
100
AcDb2dVertex
 10
417.935883
 20
290.811398
 30
0.0
  0
VERTEX
  5
6AC
330
6A9
100
AcDbEntity
  8
002
 62
     3
370
     9
100
AcDbVertex
100
AcDb2dVertex
 10
412.220883
 20
294.363398
 30
0.0
  0
VERTEX
  5
6AD
330
6A9
100
AcDbEntity
  8
002
 62
     3
370
     9
100
AcDbVertex
100
AcDb2dVertex
 10
406.505883
 20
297.627398
 30
0.0
  0
VERTEX
  5
6AE
330
6A9
100
AcDbEntity
  8
002
 62
     3
370
     9
100
AcDbVertex
100
AcDb2dVertex
 10
400.790883
 20
300.315398
 30
0.0
  0
VERTEX
  5
6AF
330
6A9
100
AcDbEntity
  8
002
 62
     3
370
     9
100
AcDbVertex
100
AcDb2dVertex
 10
395.075883
 20
302.139398
 30
0.0
  0
VERTEX
  5
6B0
330
6A9
100
AcDbEntity
  8
002
 62
     3
370
     9
100
AcDbVertex
100
AcDb2dVertex
 10
389.360883
 20
302.811398
 30
0.0
  0
VERTEX
  5
6B1
330
6A9
100
AcDbEntity
  8
002
 62
     3
370
     9
100
AcDbVertex
100
AcDb2dVertex
 10
383.645883
 20
302.139398
 30
0.0
  0
VERTEX
  5
6B2
330
6A9
100
AcDbEntity
  8
002
 62
     3
370
     9
100
AcDbVertex
100
AcDb2dVertex
 10
377.930883
 20
300.315398
 30
0.0
  0
VERTEX
  5
6B3
330
6A9
100
AcDbEntity
  8
002
 62
     3
370
     9
100
AcDbVertex
100
AcDb2dVertex
 10
372.215883
 20
297.627398
 30
0.0
  0
VERTEX
  5
6B4
330
6A9
100
AcDbEntity
  8
002
 62
     3
370
     9
100
AcDbVertex
100
AcDb2dVertex
 10
366.500883
 20
294.363398
 30
0.0
  0
VERTEX
  5
6B5
330
6A9
100
AcDbEntity
  8
002
 62
     3
370
     9
100
AcDbVertex
100
AcDb2dVertex
 10
360.785883
 20
290.811398
 30
0.0
  0
VERTEX
  5
6B6
330
6A9
100
AcDbEntity
  8
002
 62
     3
370
     9
100
AcDbVertex
100
AcDb2dVertex
 10
355.070883
 20
287.259398
 30
0.0
  0
VERTEX
  5
6B7
330
6A9
100
AcDbEntity
  8
002
 62
     3
370
     9
100
AcDbVertex
100
AcDb2dVertex
 10
349.355883
 20
283.995398
 30
0.0
  0
VERTEX
  5
6B8
330
6A9
100
AcDbEntity
  8
002
 62
     3
370
     9
100
AcDbVertex
100
AcDb2dVertex
 10
343.640883
 20
281.307398
 30
0.0
  0
VERTEX
  5
6B9
330
6A9
100
AcDbEntity
  8
002
 62
     3
370
     9
100
AcDbVertex
100
AcDb2dVertex
 10
337.925883
 20
279.483398
 30
0.0
  0
VERTEX
  5
6BA
330
6A9
100
AcDbEntity
  8
002
 62
     3
370
     9
100
AcDbVertex
100
AcDb2dVertex
 10
332.210883
 20
278.811398
 30
0.0
  0
VERTEX
  5
6BB
330
6A9
100
AcDbEntity
  8
002
 62
     3
370
     9
100
AcDbVertex
100
AcDb2dVertex
 10
326.495883
 20
279.483398
 30
0.0
  0
VERTEX
  5
6BC
330
6A9
100
AcDbEntity
  8
002
 62
     3
370
     9
100
AcDbVertex
100
AcDb2dVertex
 10
320.780883
 20
281.307398
 30
0.0
  0
VERTEX
  5
6BD
330
6A9
100
AcDbEntity
  8
002
 62
     3
370
     9
100
AcDbVertex
100
AcDb2dVertex
 10
315.065883
 20
283.995398
 30
0.0
  0
VERTEX
  5
6BE
330
6A9
100
AcDbEntity
  8
002
 62
     3
370
     9
100
AcDbVertex
100
AcDb2dVertex
 10
309.350883
 20
287.259398
 30
0.0
  0
VERTEX
  5
6BF
330
6A9
100
AcDbEntity
  8
002
 62
     3
370
     9
100
AcDbVertex
100
AcDb2dVertex
 10
303.635883
 20
290.811398
 30
0.0
  0
SEQEND
  5
6AA
330
6A9
100
AcDbEntity
  8
002
370
     9
  0
LINE
  5
6C0
330
1F
100
AcDbEntity
  8
002
 62
     3
370
    30
100
AcDbLine
 10
303.635883
 20
437.311398
 30
0.0
 11
303.635883
 21
314.811398
 31
0.0
  0
LINE
  5
6C1
330
1F
100
AcDbEntity
  8
002
 62
     3
370
    30
100
AcDbLine
 10
303.635883
 20
290.811398
 30
0.0
 11
303.635883
 21
168.311398
 31
0.0
  0
LINE
  5
6C2
330
1F
100
AcDbEntity
  8
002
 62
     3
370
    30
100
AcDbLine
 10
417.935883
 20
168.311398
 30
0.0
 11
417.935883
 21
290.811398
 31
0.0
  0
LINE
  5
6C3
330
1F
100
AcDbEntity
  8
002
 62
     3
370
    30
100
AcDbLine
 10
417.935883
 20
314.811398
 30
0.0
 11
417.935883
 21
437.311398
 31
0.0
  0
POLYLINE
  5
6C4
330
1F
100
AcDbEntity
  8
002
 62
     3
370
     9
100
AcDb2dPolyline
 66
     1
 10
0.0
 20
0.0
 30
0.0
  0
VERTEX
  5
6C6
330
6C4
100
AcDbEntity
  8
002
 62
     3
370
     9
100
AcDbVertex
100
AcDb2dVertex
 10
996.618515
 20
290.811398
 30
0.0
  0
VERTEX
  5
6C7
330
6C4
100
AcDbEntity
  8
002
 62
     3
370
     9
100
AcDbVertex
100
AcDb2dVertex
 10
1002.333515
 20
287.259398
 30
0.0
  0
VERTEX
  5
6C8
330
6C4
100
AcDbEntity
  8
002
 62
     3
370
     9
100
AcDbVertex
100
AcDb2dVertex
 10
1008.048515
 20
283.995398
 30
0.0
  0
VERTEX
  5
6C9
330
6C4
100
AcDbEntity
  8
002
 62
     3
370
     9
100
AcDbVertex
100
AcDb2dVertex
 10
1013.763515
 20
281.307398
 30
0.0
  0
VERTEX
  5
6CA
330
6C4
100
AcDbEntity
  8
002
 62
     3
370
     9
100
AcDbVertex
100
AcDb2dVertex
 10
1019.478515
 20
279.483398
 30
0.0
  0
VERTEX
  5
6CB
330
6C4
100
AcDbEntity
  8
002
 62
     3
370
     9
100
AcDbVertex
100
AcDb2dVertex
 10
1025.193515
 20
278.811398
 30
0.0
  0
VERTEX
  5
6CC
330
6C4
100
AcDbEntity
  8
002
 62
     3
370
     9
100
AcDbVertex
100
AcDb2dVertex
 10
1030.908515
 20
279.483398
 30
0.0
  0
VERTEX
  5
6CD
330
6C4
100
AcDbEntity
  8
002
 62
     3
370
     9
100
AcDbVertex
100
AcDb2dVertex
 10
1036.623515
 20
281.307398
 30
0.0
  0
VERTEX
  5
6CE
330
6C4
100
AcDbEntity
  8
002
 62
     3
370
     9
100
AcDbVertex
100
AcDb2dVertex
 10
1042.338515
 20
283.995398
 30
0.0
  0
VERTEX
  5
6CF
330
6C4
100
AcDbEntity
  8
002
 62
     3
370
     9
100
AcDbVertex
100
AcDb2dVertex
 10
1048.053515
 20
287.259398
 30
0.0
  0
VERTEX
  5
6D0
330
6C4
100
AcDbEntity
  8
002
 62
     3
370
     9
100
AcDbVertex
100
AcDb2dVertex
 10
1053.768515
 20
290.811398
 30
0.0
  0
VERTEX
  5
6D1
330
6C4
100
AcDbEntity
  8
002
 62
     3
370
     9
100
AcDbVertex
100
AcDb2dVertex
 10
1059.483515
 20
294.363398
 30
0.0
  0
VERTEX
  5
6D2
330
6C4
100
AcDbEntity
  8
002
 62
     3
370
     9
100
AcDbVertex
100
AcDb2dVertex
 10
1065.198515
 20
297.627398
 30
0.0
  0
VERTEX
  5
6D3
330
6C4
100
AcDbEntity
  8
002
 62
     3
370
     9
100
AcDbVertex
100
AcDb2dVertex
 10
1070.913515
 20
300.315398
 30
0.0
  0
VERTEX
  5
6D4
330
6C4
100
AcDbEntity
  8
002
 62
     3
370
     9
100
AcDbVertex
100
AcDb2dVertex
 10
1076.628515
 20
302.139398
 30
0.0
  0
VERTEX
  5
6D5
330
6C4
100
AcDbEntity
  8
002
 62
     3
370
     9
100
AcDbVertex
100
AcDb2dVertex
 10
1082.343515
 20
302.811398
 30
0.0
  0
VERTEX
  5
6D6
330
6C4
100
AcDbEntity
  8
002
 62
     3
370
     9
100
AcDbVertex
100
AcDb2dVertex
 10
1088.058515
 20
302.139398
 30
0.0
  0
VERTEX
  5
6D7
330
6C4
100
AcDbEntity
  8
002
 62
     3
370
     9
100
AcDbVertex
100
AcDb2dVertex
 10
1093.773515
 20
300.315398
 30
0.0
  0
VERTEX
  5
6D8
330
6C4
100
AcDbEntity
  8
002
 62
     3
370
     9
100
AcDbVertex
100
AcDb2dVertex
 10
1099.488515
 20
297.627398
 30
0.0
  0
VERTEX
  5
6D9
330
6C4
100
AcDbEntity
  8
002
 62
     3
370
     9
100
AcDbVertex
100
AcDb2dVertex
 10
1105.203515
 20
294.363398
 30
0.0
  0
VERTEX
  5
6DA
330
6C4
100
AcDbEntity
  8
002
 62
     3
370
     9
100
AcDbVertex
100
AcDb2dVertex
 10
1110.918515
 20
290.811398
 30
0.0
  0
SEQEND
  5
6C5
330
6C4
100
AcDbEntity
  8
002
370
     9
  0
POLYLINE
  5
6DB
330
1F
100
AcDbEntity
  8
002
 62
     3
370
     9
100
AcDb2dPolyline
 66
     1
 10
0.0
 20
0.0
 30
0.0
  0
VERTEX
  5
6DD
330
6DB
100
AcDbEntity
  8
002
 62
     3
370
     9
100
AcDbVertex
100
AcDb2dVertex
 10
996.618515
 20
314.811398
 30
0.0
  0
VERTEX
  5
6DE
330
6DB
100
AcDbEntity
  8
002
 62
     3
370
     9
100
AcDbVertex
100
AcDb2dVertex
 10
1002.333515
 20
311.259398
 30
0.0
  0
VERTEX
  5
6DF
330
6DB
100
AcDbEntity
  8
002
 62
     3
370
     9
100
AcDbVertex
100
AcDb2dVertex
 10
1008.048515
 20
307.995398
 30
0.0
  0
VERTEX
  5
6E0
330
6DB
100
AcDbEntity
  8
002
 62
     3
370
     9
100
AcDbVertex
100
AcDb2dVertex
 10
1013.763515
 20
305.307398
 30
0.0
  0
VERTEX
  5
6E1
330
6DB
100
AcDbEntity
  8
002
 62
     3
370
     9
100
AcDbVertex
100
AcDb2dVertex
 10
1019.478515
 20
303.483398
 30
0.0
  0
VERTEX
  5
6E2
330
6DB
100
AcDbEntity
  8
002
 62
     3
370
     9
100
AcDbVertex
100
AcDb2dVertex
 10
1025.193515
 20
302.811398
 30
0.0
  0
VERTEX
  5
6E3
330
6DB
100
AcDbEntity
  8
002
 62
     3
370
     9
100
AcDbVertex
100
AcDb2dVertex
 10
1030.908515
 20
303.483398
 30
0.0
  0
VERTEX
  5
6E4
330
6DB
100
AcDbEntity
  8
002
 62
     3
370
     9
100
AcDbVertex
100
AcDb2dVertex
 10
1036.623515
 20
305.307398
 30
0.0
  0
VERTEX
  5
6E5
330
6DB
100
AcDbEntity
  8
002
 62
     3
370
     9
100
AcDbVertex
100
AcDb2dVertex
 10
1042.338515
 20
307.995398
 30
0.0
  0
VERTEX
  5
6E6
330
6DB
100
AcDbEntity
  8
002
 62
     3
370
     9
100
AcDbVertex
100
AcDb2dVertex
 10
1048.053515
 20
311.259398
 30
0.0
  0
VERTEX
  5
6E7
330
6DB
100
AcDbEntity
  8
002
 62
     3
370
     9
100
AcDbVertex
100
AcDb2dVertex
 10
1053.768515
 20
314.811398
 30
0.0
  0
VERTEX
  5
6E8
330
6DB
100
AcDbEntity
  8
002
 62
     3
370
     9
100
AcDbVertex
100
AcDb2dVertex
 10
1059.483515
 20
318.363398
 30
0.0
  0
VERTEX
  5
6E9
330
6DB
100
AcDbEntity
  8
002
 62
     3
370
     9
100
AcDbVertex
100
AcDb2dVertex
 10
1065.198515
 20
321.627398
 30
0.0
  0
VERTEX
  5
6EA
330
6DB
100
AcDbEntity
  8
002
 62
     3
370
     9
100
AcDbVertex
100
AcDb2dVertex
 10
1070.913515
 20
324.315398
 30
0.0
  0
VERTEX
  5
6EB
330
6DB
100
AcDbEntity
  8
002
 62
     3
370
     9
100
AcDbVertex
100
AcDb2dVertex
 10
1076.628515
 20
326.139398
 30
0.0
  0
VERTEX
  5
6EC
330
6DB
100
AcDbEntity
  8
002
 62
     3
370
     9
100
AcDbVertex
100
AcDb2dVertex
 10
1082.343515
 20
326.811398
 30
0.0
  0
VERTEX
  5
6ED
330
6DB
100
AcDbEntity
  8
002
 62
     3
370
     9
100
AcDbVertex
100
AcDb2dVertex
 10
1088.058515
 20
326.139398
 30
0.0
  0
VERTEX
  5
6EE
330
6DB
100
AcDbEntity
  8
002
 62
     3
370
     9
100
AcDbVertex
100
AcDb2dVertex
 10
1093.773515
 20
324.315398
 30
0.0
  0
VERTEX
  5
6EF
330
6DB
100
AcDbEntity
  8
002
 62
     3
370
     9
100
AcDbVertex
100
AcDb2dVertex
 10
1099.488515
 20
321.627398
 30
0.0
  0
VERTEX
  5
6F0
330
6DB
100
AcDbEntity
  8
002
 62
     3
370
     9
100
AcDbVertex
100
AcDb2dVertex
 10
1105.203515
 20
318.363398
 30
0.0
  0
VERTEX
  5
6F1
330
6DB
100
AcDbEntity
  8
002
 62
     3
370
     9
100
AcDbVertex
100
AcDb2dVertex
 10
1110.918515
 20
314.811398
 30
0.0
  0
SEQEND
  5
6DC
330
6DB
100
AcDbEntity
  8
002
370
     9
  0
LINE
  5
6F2
330
1F
100
AcDbEntity
  8
002
 62
     3
370
    30
100
AcDbLine
 10
996.618515
 20
437.311398
 30
0.0
 11
996.618515
 21
314.811398
 31
0.0
  0
LINE
  5
6F3
330
1F
100
AcDbEntity
  8
002
 62
     3
370
    30
100
AcDbLine
 10
996.618515
 20
290.811398
 30
0.0
 11
996.618515
 21
168.311398
 31
0.0
  0
LINE
  5
6F4
330
1F
100
AcDbEntity
  8
002
 62
     3
370
    30
100
AcDbLine
 10
1110.918515
 20
168.311398
 30
0.0
 11
1110.918515
 21
290.811398
 31
0.0
  0
LINE
  5
6F5
330
1F
100
AcDbEntity
  8
002
 62
     3
370
    30
100
AcDbLine
 10
1110.918515
 20
314.811398
 30
0.0
 11
1110.918515
 21
437.311398
 31
0.0
  0
POLYLINE
  5
6F6
330
1F
100
AcDbEntity
  8
002
 62
     3
370
     9
100
AcDb2dPolyline
 66
     1
 10
0.0
 20
0.0
 30
0.0
  0
VERTEX
  5
6F8
330
6F6
100
AcDbEntity
  8
002
 62
     3
370
     9
100
AcDbVertex
100
AcDb2dVertex
 10
1423.038143
 20
1019.811298
 30
0.0
  0
VERTEX
  5
6F9
330
6F6
100
AcDbEntity
  8
002
 62
     3
370
     9
100
AcDbVertex
100
AcDb2dVertex
 10
1428.753143
 20
1016.259298
 30
0.0
  0
VERTEX
  5
6FA
330
6F6
100
AcDbEntity
  8
002
 62
     3
370
     9
100
AcDbVertex
100
AcDb2dVertex
 10
1434.468143
 20
1012.995298
 30
0.0
  0
VERTEX
  5
6FB
330
6F6
100
AcDbEntity
  8
002
 62
     3
370
     9
100
AcDbVertex
100
AcDb2dVertex
 10
1440.183143
 20
1010.307298
 30
0.0
  0
VERTEX
  5
6FC
330
6F6
100
AcDbEntity
  8
002
 62
     3
370
     9
100
AcDbVertex
100
AcDb2dVertex
 10
1445.898143
 20
1008.483298
 30
0.0
  0
VERTEX
  5
6FD
330
6F6
100
AcDbEntity
  8
002
 62
     3
370
     9
100
AcDbVertex
100
AcDb2dVertex
 10
1451.613143
 20
1007.811298
 30
0.0
  0
VERTEX
  5
6FE
330
6F6
100
AcDbEntity
  8
002
 62
     3
370
     9
100
AcDbVertex
100
AcDb2dVertex
 10
1457.328143
 20
1008.483298
 30
0.0
  0
VERTEX
  5
6FF
330
6F6
100
AcDbEntity
  8
002
 62
     3
370
     9
100
AcDbVertex
100
AcDb2dVertex
 10
1463.043143
 20
1010.307298
 30
0.0
  0
VERTEX
  5
700
330
6F6
100
AcDbEntity
  8
002
 62
     3
370
     9
100
AcDbVertex
100
AcDb2dVertex
 10
1468.758143
 20
1012.995298
 30
0.0
  0
VERTEX
  5
701
330
6F6
100
AcDbEntity
  8
002
 62
     3
370
     9
100
AcDbVertex
100
AcDb2dVertex
 10
1474.473143
 20
1016.259298
 30
0.0
  0
VERTEX
  5
702
330
6F6
100
AcDbEntity
  8
002
 62
     3
370
     9
100
AcDbVertex
100
AcDb2dVertex
 10
1480.188143
 20
1019.811298
 30
0.0
  0
VERTEX
  5
703
330
6F6
100
AcDbEntity
  8
002
 62
     3
370
     9
100
AcDbVertex
100
AcDb2dVertex
 10
1485.903143
 20
1023.363298
 30
0.0
  0
VERTEX
  5
704
330
6F6
100
AcDbEntity
  8
002
 62
     3
370
     9
100
AcDbVertex
100
AcDb2dVertex
 10
1491.618143
 20
1026.627298
 30
0.0
  0
VERTEX
  5
705
330
6F6
100
AcDbEntity
  8
002
 62
     3
370
     9
100
AcDbVertex
100
AcDb2dVertex
 10
1497.333143
 20
1029.315298
 30
0.0
  0
VERTEX
  5
706
330
6F6
100
AcDbEntity
  8
002
 62
     3
370
     9
100
AcDbVertex
100
AcDb2dVertex
 10
1503.048143
 20
1031.139298
 30
0.0
  0
VERTEX
  5
707
330
6F6
100
AcDbEntity
  8
002
 62
     3
370
     9
100
AcDbVertex
100
AcDb2dVertex
 10
1508.763143
 20
1031.811298
 30
0.0
  0
VERTEX
  5
708
330
6F6
100
AcDbEntity
  8
002
 62
     3
370
     9
100
AcDbVertex
100
AcDb2dVertex
 10
1514.478143
 20
1031.139298
 30
0.0
  0
VERTEX
  5
709
330
6F6
100
AcDbEntity
  8
002
 62
     3
370
     9
100
AcDbVertex
100
AcDb2dVertex
 10
1520.193143
 20
1029.315298
 30
0.0
  0
VERTEX
  5
70A
330
6F6
100
AcDbEntity
  8
002
 62
     3
370
     9
100
AcDbVertex
100
AcDb2dVertex
 10
1525.908143
 20
1026.627298
 30
0.0
  0
VERTEX
  5
70B
330
6F6
100
AcDbEntity
  8
002
 62
     3
370
     9
100
AcDbVertex
100
AcDb2dVertex
 10
1531.623143
 20
1023.363298
 30
0.0
  0
VERTEX
  5
70C
330
6F6
100
AcDbEntity
  8
002
 62
     3
370
     9
100
AcDbVertex
100
AcDb2dVertex
 10
1537.338143
 20
1019.811298
 30
0.0
  0
SEQEND
  5
6F7
330
6F6
100
AcDbEntity
  8
002
370
     9
  0
POLYLINE
  5
70D
330
1F
100
AcDbEntity
  8
002
 62
     3
370
     9
100
AcDb2dPolyline
 66
     1
 10
0.0
 20
0.0
 30
0.0
  0
VERTEX
  5
70F
330
70D
100
AcDbEntity
  8
002
 62
     3
370
     9
100
AcDbVertex
100
AcDb2dVertex
 10
1423.038143
 20
1043.811298
 30
0.0
  0
VERTEX
  5
710
330
70D
100
AcDbEntity
  8
002
 62
     3
370
     9
100
AcDbVertex
100
AcDb2dVertex
 10
1428.753143
 20
1040.259298
 30
0.0
  0
VERTEX
  5
711
330
70D
100
AcDbEntity
  8
002
 62
     3
370
     9
100
AcDbVertex
100
AcDb2dVertex
 10
1434.468143
 20
1036.995298
 30
0.0
  0
VERTEX
  5
712
330
70D
100
AcDbEntity
  8
002
 62
     3
370
     9
100
AcDbVertex
100
AcDb2dVertex
 10
1440.183143
 20
1034.307298
 30
0.0
  0
VERTEX
  5
713
330
70D
100
AcDbEntity
  8
002
 62
     3
370
     9
100
AcDbVertex
100
AcDb2dVertex
 10
1445.898143
 20
1032.483298
 30
0.0
  0
VERTEX
  5
714
330
70D
100
AcDbEntity
  8
002
 62
     3
370
     9
100
AcDbVertex
100
AcDb2dVertex
 10
1451.613143
 20
1031.811298
 30
0.0
  0
VERTEX
  5
715
330
70D
100
AcDbEntity
  8
002
 62
     3
370
     9
100
AcDbVertex
100
AcDb2dVertex
 10
1457.328143
 20
1032.483298
 30
0.0
  0
VERTEX
  5
716
330
70D
100
AcDbEntity
  8
002
 62
     3
370
     9
100
AcDbVertex
100
AcDb2dVertex
 10
1463.043143
 20
1034.307298
 30
0.0
  0
VERTEX
  5
717
330
70D
100
AcDbEntity
  8
002
 62
     3
370
     9
100
AcDbVertex
100
AcDb2dVertex
 10
1468.758143
 20
1036.995298
 30
0.0
  0
VERTEX
  5
718
330
70D
100
AcDbEntity
  8
002
 62
     3
370
     9
100
AcDbVertex
100
AcDb2dVertex
 10
1474.473143
 20
1040.259298
 30
0.0
  0
VERTEX
  5
719
330
70D
100
AcDbEntity
  8
002
 62
     3
370
     9
100
AcDbVertex
100
AcDb2dVertex
 10
1480.188143
 20
1043.811298
 30
0.0
  0
VERTEX
  5
71A
330
70D
100
AcDbEntity
  8
002
 62
     3
370
     9
100
AcDbVertex
100
AcDb2dVertex
 10
1485.903143
 20
1047.363298
 30
0.0
  0
VERTEX
  5
71B
330
70D
100
AcDbEntity
  8
002
 62
     3
370
     9
100
AcDbVertex
100
AcDb2dVertex
 10
1491.618143
 20
1050.627298
 30
0.0
  0
VERTEX
  5
71C
330
70D
100
AcDbEntity
  8
002
 62
     3
370
     9
100
AcDbVertex
100
AcDb2dVertex
 10
1497.333143
 20
1053.315298
 30
0.0
  0
VERTEX
  5
71D
330
70D
100
AcDbEntity
  8
002
 62
     3
370
     9
100
AcDbVertex
100
AcDb2dVertex
 10
1503.048143
 20
1055.139298
 30
0.0
  0
VERTEX
  5
71E
330
70D
100
AcDbEntity
  8
002
 62
     3
370
     9
100
AcDbVertex
100
AcDb2dVertex
 10
1508.763143
 20
1055.811298
 30
0.0
  0
VERTEX
  5
71F
330
70D
100
AcDbEntity
  8
002
 62
     3
370
     9
100
AcDbVertex
100
AcDb2dVertex
 10
1514.478143
 20
1055.139298
 30
0.0
  0
VERTEX
  5
720
330
70D
100
AcDbEntity
  8
002
 62
     3
370
     9
100
AcDbVertex
100
AcDb2dVertex
 10
1520.193143
 20
1053.315298
 30
0.0
  0
VERTEX
  5
721
330
70D
100
AcDbEntity
  8
002
 62
     3
370
     9
100
AcDbVertex
100
AcDb2dVertex
 10
1525.908143
 20
1050.627298
 30
0.0
  0
VERTEX
  5
722
330
70D
100
AcDbEntity
  8
002
 62
     3
370
     9
100
AcDbVertex
100
AcDb2dVertex
 10
1531.623143
 20
1047.363298
 30
0.0
  0
VERTEX
  5
723
330
70D
100
AcDbEntity
  8
002
 62
     3
370
     9
100
AcDbVertex
100
AcDb2dVertex
 10
1537.338143
 20
1043.811298
 30
0.0
  0
SEQEND
  5
70E
330
70D
100
AcDbEntity
  8
002
370
     9
  0
LINE
  5
724
330
1F
100
AcDbEntity
  8
002
 62
     3
370
    30
100
AcDbLine
 10
1537.338143
 20
902.311198
 30
0.0
 11
1537.338143
 21
1019.811298
 31
0.0
  0
LINE
  5
725
330
1F
100
AcDbEntity
  8
002
 62
     3
370
    30
100
AcDbLine
 10
1537.338143
 20
1043.811298
 30
0.0
 11
1537.338143
 21
1161.311398
 31
0.0
  0
LINE
  5
726
330
1F
100
AcDbEntity
  8
002
 62
     3
370
    30
100
AcDbLine
 10
1423.038143
 20
1161.311398
 30
0.0
 11
1423.038143
 21
1043.811298
 31
0.0
  0
LINE
  5
727
330
1F
100
AcDbEntity
  8
002
 62
     3
370
    30
100
AcDbLine
 10
1423.038143
 20
1019.811298
 30
0.0
 11
1423.038143
 21
902.311198
 31
0.0
  0
POLYLINE
  5
728
330
1F
100
AcDbEntity
  8
002
 62
     3
370
     9
100
AcDb2dPolyline
 66
     1
 10
0.0
 20
0.0
 30
0.0
  0
VERTEX
  5
72A
330
728
100
AcDbEntity
  8
002
 62
     3
370
     9
100
AcDbVertex
100
AcDb2dVertex
 10
1520.189143
 20
365.811498
 30
0.0
  0
VERTEX
  5
72B
330
728
100
AcDbEntity
  8
002
 62
     3
370
     9
100
AcDbVertex
100
AcDb2dVertex
 10
1516.189143
 20
369.363498
 30
0.0
  0
VERTEX
  5
72C
330
728
100
AcDbEntity
  8
002
 62
     3
370
     9
100
AcDbVertex
100
AcDb2dVertex
 10
1512.189143
 20
372.627498
 30
0.0
  0
VERTEX
  5
72D
330
728
100
AcDbEntity
  8
002
 62
     3
370
     9
100
AcDbVertex
100
AcDb2dVertex
 10
1508.189143
 20
375.315498
 30
0.0
  0
VERTEX
  5
72E
330
728
100
AcDbEntity
  8
002
 62
     3
370
     9
100
AcDbVertex
100
AcDb2dVertex
 10
1504.189143
 20
377.139498
 30
0.0
  0
VERTEX
  5
72F
330
728
100
AcDbEntity
  8
002
 62
     3
370
     9
100
AcDbVertex
100
AcDb2dVertex
 10
1500.189143
 20
377.811498
 30
0.0
  0
VERTEX
  5
730
330
728
100
AcDbEntity
  8
002
 62
     3
370
     9
100
AcDbVertex
100
AcDb2dVertex
 10
1496.189143
 20
377.139498
 30
0.0
  0
VERTEX
  5
731
330
728
100
AcDbEntity
  8
002
 62
     3
370
     9
100
AcDbVertex
100
AcDb2dVertex
 10
1492.189143
 20
375.315498
 30
0.0
  0
VERTEX
  5
732
330
728
100
AcDbEntity
  8
002
 62
     3
370
     9
100
AcDbVertex
100
AcDb2dVertex
 10
1488.189143
 20
372.627498
 30
0.0
  0
VERTEX
  5
733
330
728
100
AcDbEntity
  8
002
 62
     3
370
     9
100
AcDbVertex
100
AcDb2dVertex
 10
1484.189143
 20
369.363498
 30
0.0
  0
VERTEX
  5
734
330
728
100
AcDbEntity
  8
002
 62
     3
370
     9
100
AcDbVertex
100
AcDb2dVertex
 10
1480.189143
 20
365.811498
 30
0.0
  0
VERTEX
  5
735
330
728
100
AcDbEntity
  8
002
 62
     3
370
     9
100
AcDbVertex
100
AcDb2dVertex
 10
1476.189143
 20
362.259498
 30
0.0
  0
VERTEX
  5
736
330
728
100
AcDbEntity
  8
002
 62
     3
370
     9
100
AcDbVertex
100
AcDb2dVertex
 10
1472.189143
 20
358.995498
 30
0.0
  0
VERTEX
  5
737
330
728
100
AcDbEntity
  8
002
 62
     3
370
     9
100
AcDbVertex
100
AcDb2dVertex
 10
1468.189143
 20
356.307498
 30
0.0
  0
VERTEX
  5
738
330
728
100
AcDbEntity
  8
002
 62
     3
370
     9
100
AcDbVertex
100
AcDb2dVertex
 10
1464.189143
 20
354.483498
 30
0.0
  0
VERTEX
  5
739
330
728
100
AcDbEntity
  8
002
 62
     3
370
     9
100
AcDbVertex
100
AcDb2dVertex
 10
1460.189143
 20
353.811498
 30
0.0
  0
VERTEX
  5
73A
330
728
100
AcDbEntity
  8
002
 62
     3
370
     9
100
AcDbVertex
100
AcDb2dVertex
 10
1456.189143
 20
354.483498
 30
0.0
  0
VERTEX
  5
73B
330
728
100
AcDbEntity
  8
002
 62
     3
370
     9
100
AcDbVertex
100
AcDb2dVertex
 10
1452.189143
 20
356.307498
 30
0.0
  0
VERTEX
  5
73C
330
728
100
AcDbEntity
  8
002
 62
     3
370
     9
100
AcDbVertex
100
AcDb2dVertex
 10
1448.189143
 20
358.995498
 30
0.0
  0
VERTEX
  5
73D
330
728
100
AcDbEntity
  8
002
 62
     3
370
     9
100
AcDbVertex
100
AcDb2dVertex
 10
1444.189143
 20
362.259498
 30
0.0
  0
VERTEX
  5
73E
330
728
100
AcDbEntity
  8
002
 62
     3
370
     9
100
AcDbVertex
100
AcDb2dVertex
 10
1440.189143
 20
365.811498
 30
0.0
  0
SEQEND
  5
729
330
728
100
AcDbEntity
  8
002
370
     9
  0
POLYLINE
  5
73F
330
1F
100
AcDbEntity
  8
002
 62
     3
370
     9
100
AcDb2dPolyline
 66
     1
 10
0.0
 20
0.0
 30
0.0
  0
VERTEX
  5
741
330
73F
100
AcDbEntity
  8
002
 62
     3
370
     9
100
AcDbVertex
100
AcDb2dVertex
 10
1520.189143
 20
341.811498
 30
0.0
  0
VERTEX
  5
742
330
73F
100
AcDbEntity
  8
002
 62
     3
370
     9
100
AcDbVertex
100
AcDb2dVertex
 10
1516.189143
 20
345.363498
 30
0.0
  0
VERTEX
  5
743
330
73F
100
AcDbEntity
  8
002
 62
     3
370
     9
100
AcDbVertex
100
AcDb2dVertex
 10
1512.189143
 20
348.627498
 30
0.0
  0
VERTEX
  5
744
330
73F
100
AcDbEntity
  8
002
 62
     3
370
     9
100
AcDbVertex
100
AcDb2dVertex
 10
1508.189143
 20
351.315498
 30
0.0
  0
VERTEX
  5
745
330
73F
100
AcDbEntity
  8
002
 62
     3
370
     9
100
AcDbVertex
100
AcDb2dVertex
 10
1504.189143
 20
353.139498
 30
0.0
  0
VERTEX
  5
746
330
73F
100
AcDbEntity
  8
002
 62
     3
370
     9
100
AcDbVertex
100
AcDb2dVertex
 10
1500.189143
 20
353.811498
 30
0.0
  0
VERTEX
  5
747
330
73F
100
AcDbEntity
  8
002
 62
     3
370
     9
100
AcDbVertex
100
AcDb2dVertex
 10
1496.189143
 20
353.139498
 30
0.0
  0
VERTEX
  5
748
330
73F
100
AcDbEntity
  8
002
 62
     3
370
     9
100
AcDbVertex
100
AcDb2dVertex
 10
1492.189143
 20
351.315498
 30
0.0
  0
VERTEX
  5
749
330
73F
100
AcDbEntity
  8
002
 62
     3
370
     9
100
AcDbVertex
100
AcDb2dVertex
 10
1488.189143
 20
348.627498
 30
0.0
  0
VERTEX
  5
74A
330
73F
100
AcDbEntity
  8
002
 62
     3
370
     9
100
AcDbVertex
100
AcDb2dVertex
 10
1484.189143
 20
345.363498
 30
0.0
  0
VERTEX
  5
74B
330
73F
100
AcDbEntity
  8
002
 62
     3
370
     9
100
AcDbVertex
100
AcDb2dVertex
 10
1480.189143
 20
341.811498
 30
0.0
  0
VERTEX
  5
74C
330
73F
100
AcDbEntity
  8
002
 62
     3
370
     9
100
AcDbVertex
100
AcDb2dVertex
 10
1476.189143
 20
338.259498
 30
0.0
  0
VERTEX
  5
74D
330
73F
100
AcDbEntity
  8
002
 62
     3
370
     9
100
AcDbVertex
100
AcDb2dVertex
 10
1472.189143
 20
334.995498
 30
0.0
  0
VERTEX
  5
74E
330
73F
100
AcDbEntity
  8
002
 62
     3
370
     9
100
AcDbVertex
100
AcDb2dVertex
 10
1468.189143
 20
332.307498
 30
0.0
  0
VERTEX
  5
74F
330
73F
100
AcDbEntity
  8
002
 62
     3
370
     9
100
AcDbVertex
100
AcDb2dVertex
 10
1464.189143
 20
330.483498
 30
0.0
  0
VERTEX
  5
750
330
73F
100
AcDbEntity
  8
002
 62
     3
370
     9
100
AcDbVertex
100
AcDb2dVertex
 10
1460.189143
 20
329.811498
 30
0.0
  0
VERTEX
  5
751
330
73F
100
AcDbEntity
  8
002
 62
     3
370
     9
100
AcDbVertex
100
AcDb2dVertex
 10
1456.189143
 20
330.483498
 30
0.0
  0
VERTEX
  5
752
330
73F
100
AcDbEntity
  8
002
 62
     3
370
     9
100
AcDbVertex
100
AcDb2dVertex
 10
1452.189143
 20
332.307498
 30
0.0
  0
VERTEX
  5
753
330
73F
100
AcDbEntity
  8
002
 62
     3
370
     9
100
AcDbVertex
100
AcDb2dVertex
 10
1448.189143
 20
334.995498
 30
0.0
  0
VERTEX
  5
754
330
73F
100
AcDbEntity
  8
002
 62
     3
370
     9
100
AcDbVertex
100
AcDb2dVertex
 10
1444.189143
 20
338.259498
 30
0.0
  0
VERTEX
  5
755
330
73F
100
AcDbEntity
  8
002
 62
     3
370
     9
100
AcDbVertex
100
AcDb2dVertex
 10
1440.189143
 20
341.811498
 30
0.0
  0
SEQEND
  5
740
330
73F
100
AcDbEntity
  8
002
370
     9
  0
LINE
  5
756
330
1F
100
AcDbEntity
  8
002
 62
     3
370
    30
100
AcDbLine
 10
1520.189143
 20
442.311398
 30
0.0
 11
1520.189143
 21
365.811498
 31
0.0
  0
LINE
  5
757
330
1F
100
AcDbEntity
  8
002
 62
     3
370
    30
100
AcDbLine
 10
1520.189143
 20
341.811498
 30
0.0
 11
1520.189143
 21
265.311598
 31
0.0
  0
LINE
  5
758
330
1F
100
AcDbEntity
  8
002
 62
     3
370
    30
100
AcDbLine
 10
1440.189143
 20
265.311598
 30
0.0
 11
1440.189143
 21
341.811498
 31
0.0
  0
LINE
  5
759
330
1F
100
AcDbEntity
  8
002
 62
     3
370
    30
100
AcDbLine
 10
1440.189143
 20
365.811498
 30
0.0
 11
1440.189143
 21
442.311398
 31
0.0
  0
LINE
  5
75A
330
1F
100
AcDbEntity
  8
002
 62
    40
370
     9
100
AcDbLine
 10
1515.467143
 20
290.311598
 30
0.0
 11
1515.467143
 21
345.982332
 31
0.0
  0
LINE
  5
75B
330
1F
100
AcDbEntity
  8
002
 62
    40
370
     9
100
AcDbLine
 10
1515.467143
 20
369.982332
 30
0.0
 11
1515.467143
 21
442.311398
 31
0.0
  0
LINE
  5
75C
330
1F
100
AcDbEntity
  8
002
 62
    40
370
     9
100
AcDbLine
 10
1444.911143
 20
442.311398
 30
0.0
 11
1444.911143
 21
361.640664
 31
0.0
  0
LINE
  5
75D
330
1F
100
AcDbEntity
  8
002
 62
    40
370
     9
100
AcDbLine
 10
1444.911143
 20
337.640664
 30
0.0
 11
1444.911143
 21
290.311598
 31
0.0
  0
POLYLINE
  5
75E
330
1F
100
AcDbEntity
  8
002
 62
     3
370
     9
100
AcDb2dPolyline
 66
     1
 10
0.0
 20
0.0
 30
0.0
  0
VERTEX
  5
760
330
75E
100
AcDbEntity
  8
002
 62
     3
370
     9
100
AcDbVertex
100
AcDb2dVertex
 10
1913.038143
 20
1019.811298
 30
0.0
  0
VERTEX
  5
761
330
75E
100
AcDbEntity
  8
002
 62
     3
370
     9
100
AcDbVertex
100
AcDb2dVertex
 10
1918.753143
 20
1016.259298
 30
0.0
  0
VERTEX
  5
762
330
75E
100
AcDbEntity
  8
002
 62
     3
370
     9
100
AcDbVertex
100
AcDb2dVertex
 10
1924.468143
 20
1012.995298
 30
0.0
  0
VERTEX
  5
763
330
75E
100
AcDbEntity
  8
002
 62
     3
370
     9
100
AcDbVertex
100
AcDb2dVertex
 10
1930.183143
 20
1010.307298
 30
0.0
  0
VERTEX
  5
764
330
75E
100
AcDbEntity
  8
002
 62
     3
370
     9
100
AcDbVertex
100
AcDb2dVertex
 10
1935.898143
 20
1008.483298
 30
0.0
  0
VERTEX
  5
765
330
75E
100
AcDbEntity
  8
002
 62
     3
370
     9
100
AcDbVertex
100
AcDb2dVertex
 10
1941.613143
 20
1007.811298
 30
0.0
  0
VERTEX
  5
766
330
75E
100
AcDbEntity
  8
002
 62
     3
370
     9
100
AcDbVertex
100
AcDb2dVertex
 10
1947.328143
 20
1008.483298
 30
0.0
  0
VERTEX
  5
767
330
75E
100
AcDbEntity
  8
002
 62
     3
370
     9
100
AcDbVertex
100
AcDb2dVertex
 10
1953.043143
 20
1010.307298
 30
0.0
  0
VERTEX
  5
768
330
75E
100
AcDbEntity
  8
002
 62
     3
370
     9
100
AcDbVertex
100
AcDb2dVertex
 10
1958.758143
 20
1012.995298
 30
0.0
  0
VERTEX
  5
769
330
75E
100
AcDbEntity
  8
002
 62
     3
370
     9
100
AcDbVertex
100
AcDb2dVertex
 10
1964.473143
 20
1016.259298
 30
0.0
  0
VERTEX
  5
76A
330
75E
100
AcDbEntity
  8
002
 62
     3
370
     9
100
AcDbVertex
100
AcDb2dVertex
 10
1970.188143
 20
1019.811298
 30
0.0
  0
VERTEX
  5
76B
330
75E
100
AcDbEntity
  8
002
 62
     3
370
     9
100
AcDbVertex
100
AcDb2dVertex
 10
1975.903143
 20
1023.363298
 30
0.0
  0
VERTEX
  5
76C
330
75E
100
AcDbEntity
  8
002
 62
     3
370
     9
100
AcDbVertex
100
AcDb2dVertex
 10
1981.618143
 20
1026.627298
 30
0.0
  0
VERTEX
  5
76D
330
75E
100
AcDbEntity
  8
002
 62
     3
370
     9
100
AcDbVertex
100
AcDb2dVertex
 10
1987.333143
 20
1029.315298
 30
0.0
  0
VERTEX
  5
76E
330
75E
100
AcDbEntity
  8
002
 62
     3
370
     9
100
AcDbVertex
100
AcDb2dVertex
 10
1993.048143
 20
1031.139298
 30
0.0
  0
VERTEX
  5
76F
330
75E
100
AcDbEntity
  8
002
 62
     3
370
     9
100
AcDbVertex
100
AcDb2dVertex
 10
1998.763143
 20
1031.811298
 30
0.0
  0
VERTEX
  5
770
330
75E
100
AcDbEntity
  8
002
 62
     3
370
     9
100
AcDbVertex
100
AcDb2dVertex
 10
2004.478143
 20
1031.139298
 30
0.0
  0
VERTEX
  5
771
330
75E
100
AcDbEntity
  8
002
 62
     3
370
     9
100
AcDbVertex
100
AcDb2dVertex
 10
2010.193143
 20
1029.315298
 30
0.0
  0
VERTEX
  5
772
330
75E
100
AcDbEntity
  8
002
 62
     3
370
     9
100
AcDbVertex
100
AcDb2dVertex
 10
2015.908143
 20
1026.627298
 30
0.0
  0
VERTEX
  5
773
330
75E
100
AcDbEntity
  8
002
 62
     3
370
     9
100
AcDbVertex
100
AcDb2dVertex
 10
2021.623143
 20
1023.363298
 30
0.0
  0
VERTEX
  5
774
330
75E
100
AcDbEntity
  8
002
 62
     3
370
     9
100
AcDbVertex
100
AcDb2dVertex
 10
2027.338143
 20
1019.811298
 30
0.0
  0
SEQEND
  5
75F
330
75E
100
AcDbEntity
  8
002
370
     9
  0
POLYLINE
  5
775
330
1F
100
AcDbEntity
  8
002
 62
     3
370
     9
100
AcDb2dPolyline
 66
     1
 10
0.0
 20
0.0
 30
0.0
  0
VERTEX
  5
777
330
775
100
AcDbEntity
  8
002
 62
     3
370
     9
100
AcDbVertex
100
AcDb2dVertex
 10
1913.038143
 20
1043.811298
 30
0.0
  0
VERTEX
  5
778
330
775
100
AcDbEntity
  8
002
 62
     3
370
     9
100
AcDbVertex
100
AcDb2dVertex
 10
1918.753143
 20
1040.259298
 30
0.0
  0
VERTEX
  5
779
330
775
100
AcDbEntity
  8
002
 62
     3
370
     9
100
AcDbVertex
100
AcDb2dVertex
 10
1924.468143
 20
1036.995298
 30
0.0
  0
VERTEX
  5
77A
330
775
100
AcDbEntity
  8
002
 62
     3
370
     9
100
AcDbVertex
100
AcDb2dVertex
 10
1930.183143
 20
1034.307298
 30
0.0
  0
VERTEX
  5
77B
330
775
100
AcDbEntity
  8
002
 62
     3
370
     9
100
AcDbVertex
100
AcDb2dVertex
 10
1935.898143
 20
1032.483298
 30
0.0
  0
VERTEX
  5
77C
330
775
100
AcDbEntity
  8
002
 62
     3
370
     9
100
AcDbVertex
100
AcDb2dVertex
 10
1941.613143
 20
1031.811298
 30
0.0
  0
VERTEX
  5
77D
330
775
100
AcDbEntity
  8
002
 62
     3
370
     9
100
AcDbVertex
100
AcDb2dVertex
 10
1947.328143
 20
1032.483298
 30
0.0
  0
VERTEX
  5
77E
330
775
100
AcDbEntity
  8
002
 62
     3
370
     9
100
AcDbVertex
100
AcDb2dVertex
 10
1953.043143
 20
1034.307298
 30
0.0
  0
VERTEX
  5
77F
330
775
100
AcDbEntity
  8
002
 62
     3
370
     9
100
AcDbVertex
100
AcDb2dVertex
 10
1958.758143
 20
1036.995298
 30
0.0
  0
VERTEX
  5
780
330
775
100
AcDbEntity
  8
002
 62
     3
370
     9
100
AcDbVertex
100
AcDb2dVertex
 10
1964.473143
 20
1040.259298
 30
0.0
  0
VERTEX
  5
781
330
775
100
AcDbEntity
  8
002
 62
     3
370
     9
100
AcDbVertex
100
AcDb2dVertex
 10
1970.188143
 20
1043.811298
 30
0.0
  0
VERTEX
  5
782
330
775
100
AcDbEntity
  8
002
 62
     3
370
     9
100
AcDbVertex
100
AcDb2dVertex
 10
1975.903143
 20
1047.363298
 30
0.0
  0
VERTEX
  5
783
330
775
100
AcDbEntity
  8
002
 62
     3
370
     9
100
AcDbVertex
100
AcDb2dVertex
 10
1981.618143
 20
1050.627298
 30
0.0
  0
VERTEX
  5
784
330
775
100
AcDbEntity
  8
002
 62
     3
370
     9
100
AcDbVertex
100
AcDb2dVertex
 10
1987.333143
 20
1053.315298
 30
0.0
  0
VERTEX
  5
785
330
775
100
AcDbEntity
  8
002
 62
     3
370
     9
100
AcDbVertex
100
AcDb2dVertex
 10
1993.048143
 20
1055.139298
 30
0.0
  0
VERTEX
  5
786
330
775
100
AcDbEntity
  8
002
 62
     3
370
     9
100
AcDbVertex
100
AcDb2dVertex
 10
1998.763143
 20
1055.811298
 30
0.0
  0
VERTEX
  5
787
330
775
100
AcDbEntity
  8
002
 62
     3
370
     9
100
AcDbVertex
100
AcDb2dVertex
 10
2004.478143
 20
1055.139298
 30
0.0
  0
VERTEX
  5
788
330
775
100
AcDbEntity
  8
002
 62
     3
370
     9
100
AcDbVertex
100
AcDb2dVertex
 10
2010.193143
 20
1053.315298
 30
0.0
  0
VERTEX
  5
789
330
775
100
AcDbEntity
  8
002
 62
     3
370
     9
100
AcDbVertex
100
AcDb2dVertex
 10
2015.908143
 20
1050.627298
 30
0.0
  0
VERTEX
  5
78A
330
775
100
AcDbEntity
  8
002
 62
     3
370
     9
100
AcDbVertex
100
AcDb2dVertex
 10
2021.623143
 20
1047.363298
 30
0.0
  0
VERTEX
  5
78B
330
775
100
AcDbEntity
  8
002
 62
     3
370
     9
100
AcDbVertex
100
AcDb2dVertex
 10
2027.338143
 20
1043.811298
 30
0.0
  0
SEQEND
  5
776
330
775
100
AcDbEntity
  8
002
370
     9
  0
LINE
  5
78C
330
1F
100
AcDbEntity
  8
002
 62
     3
370
    30
100
AcDbLine
 10
2027.338143
 20
902.311198
 30
0.0
 11
2027.338143
 21
1019.811298
 31
0.0
  0
LINE
  5
78D
330
1F
100
AcDbEntity
  8
002
 62
     3
370
    30
100
AcDbLine
 10
2027.338143
 20
1043.811298
 30
0.0
 11
2027.338143
 21
1161.311398
 31
0.0
  0
LINE
  5
78E
330
1F
100
AcDbEntity
  8
002
 62
     3
370
    30
100
AcDbLine
 10
1913.038143
 20
1161.311398
 30
0.0
 11
1913.038143
 21
1043.811298
 31
0.0
  0
LINE
  5
78F
330
1F
100
AcDbEntity
  8
002
 62
     3
370
    30
100
AcDbLine
 10
1913.038143
 20
1019.811298
 30
0.0
 11
1913.038143
 21
902.311198
 31
0.0
  0
LINE
  5
790
330
1F
100
AcDbEntity
  8
002
  6
CENTER
 62
    40
370
     9
100
AcDbLine
 10
360.785883
 20
1145.051198
 30
0.0
 11
360.785883
 21
143.653176
 31
0.0
  0
LINE
  5
791
330
1F
100
AcDbEntity
  8
002
  6
CENTER
 62
    40
370
     9
100
AcDbLine
 10
1053.768515
 20
1145.051198
 30
0.0
 11
1053.768515
 21
137.317666
 31
0.0
  0
LINE
  5
792
330
1F
100
AcDbEntity
  8
002
  6
CENTER
 62
    40
370
     9
100
AcDbLine
 10
1480.188143
 20
1170.151753
 30
0.0
 11
1480.188143
 21
196.701512
 31
0.0
  0
LINE
  5
793
330
1F
100
AcDbEntity
  8
002
  6
CENTER
 62
    40
370
     9
100
AcDbLine
 10
1970.188143
 20
1170.151753
 30
0.0
 11
1970.188143
 21
196.701512
 31
0.0
  0
LINE
  5
794
330
1F
100
AcDbEntity
  8
002
  6
CENTER
 62
    40
370
     9
100
AcDbLine
 10
2096.155143
 20
512.344498
 30
0.0
 11
2108.606143
 21
499.894198
 31
0.0
  0
LINE
  5
795
330
1F
100
AcDbEntity
  8
002
  6
CENTER
 62
    40
370
     9
100
AcDbLine
 10
2108.606143
 20
586.728198
 30
0.0
 11
2096.155143
 21
574.278198
 31
0.0
  0
LINE
  5
796
330
1F
100
AcDbEntity
  8
002
  6
CENTER
 62
    40
370
     9
100
AcDbLine
 10
2034.221143
 20
574.278198
 30
0.0
 11
2021.771143
 21
586.728198
 31
0.0
  0
LINE
  5
797
330
1F
100
AcDbEntity
  8
002
  6
CENTER
 62
    40
370
     9
100
AcDbLine
 10
2034.221143
 20
512.344498
 30
0.0
 11
2021.771143
 21
499.894198
 31
0.0
  0
LINE
  5
798
330
1F
100
AcDbEntity
  8
002
  6
CENTER
 62
    40
370
     9
100
AcDbLine
 10
1606.155143
 20
512.344498
 30
0.0
 11
1618.606143
 21
499.894198
 31
0.0
  0
LINE
  5
799
330
1F
100
AcDbEntity
  8
002
  6
CENTER
 62
    40
370
     9
100
AcDbLine
 10
1618.606143
 20
586.728198
 30
0.0
 11
1606.155143
 21
574.278198
 31
0.0
  0
LINE
  5
79A
330
1F
100
AcDbEntity
  8
002
  6
CENTER
 62
    40
370
     9
100
AcDbLine
 10
1544.221143
 20
574.278198
 30
0.0
 11
1531.771143
 21
586.728198
 31
0.0
  0
LINE
  5
79B
330
1F
100
AcDbEntity
  8
002
  6
CENTER
 62
    40
370
     9
100
AcDbLine
 10
1544.221143
 20
512.344498
 30
0.0
 11
1531.771143
 21
499.894198
 31
0.0
  0
LINE
  5
79C
330
1F
100
AcDbEntity
  8
002
  6
CENTER
 62
    40
370
     9
100
AcDbLine
 10
1179.735515
 20
512.344498
 30
0.0
 11
1192.186515
 21
499.894198
 31
0.0
  0
LINE
  5
79D
330
1F
100
AcDbEntity
  8
002
  6
CENTER
 62
    40
370
     9
100
AcDbLine
 10
1192.186515
 20
586.728198
 30
0.0
 11
1179.735515
 21
574.278198
 31
0.0
  0
LINE
  5
79E
330
1F
100
AcDbEntity
  8
002
  6
CENTER
 62
    40
370
     9
100
AcDbLine
 10
1117.801515
 20
574.278198
 30
0.0
 11
1105.351515
 21
586.728198
 31
0.0
  0
LINE
  5
79F
330
1F
100
AcDbEntity
  8
002
  6
CENTER
 62
    40
370
     9
100
AcDbLine
 10
1117.801515
 20
512.344498
 30
0.0
 11
1105.351515
 21
499.894198
 31
0.0
  0
CIRCLE
  5
7A0
330
1F
100
AcDbEntity
  8
002
  6
CENTER
 62
    40
370
     9
100
AcDbCircle
 10
2065.188143
 20
543.311398
 30
0.0
 40
53.0
  0
CIRCLE
  5
7A1
330
1F
100
AcDbEntity
  8
002
  6
CENTER
 62
    40
370
     9
100
AcDbCircle
 10
1575.188143
 20
543.311398
 30
0.0
 40
53.0
  0
CIRCLE
  5
7A2
330
1F
100
AcDbEntity
  8
002
  6
CENTER
 62
    40
370
     9
100
AcDbCircle
 10
1148.768515
 20
543.311398
 30
0.0
 40
53.0
  0
LINE
  5
7A3
330
1F
100
AcDbEntity
  8
002
  6
CENTER
 62
    40
370
     9
100
AcDbLine
 10
486.752883
 20
512.344498
 30
0.0
 11
499.203883
 21
499.894198
 31
0.0
  0
LINE
  5
7A4
330
1F
100
AcDbEntity
  8
002
  6
CENTER
 62
    40
370
     9
100
AcDbLine
 10
499.203883
 20
586.728198
 30
0.0
 11
486.752883
 21
574.278198
 31
0.0
  0
LINE
  5
7A5
330
1F
100
AcDbEntity
  8
002
  6
CENTER
 62
    40
370
     9
100
AcDbLine
 10
424.818883
 20
574.278198
 30
0.0
 11
412.368883
 21
586.728198
 31
0.0
  0
LINE
  5
7A6
330
1F
100
AcDbEntity
  8
002
  6
CENTER
 62
    40
370
     9
100
AcDbLine
 10
424.818883
 20
512.344498
 30
0.0
 11
412.368883
 21
499.894198
 31
0.0
  0
CIRCLE
  5
7A7
330
1F
100
AcDbEntity
  8
002
  6
CENTER
 62
    40
370
     9
100
AcDbCircle
 10
455.785883
 20
543.311398
 30
0.0
 40
53.0
  0
LINE
  5
7A8
330
1F
100
AcDbEntity
  8
002
  6
CENTER
 62
    40
370
     9
100
AcDbLine
 10
455.785883
 20
469.311398
 30
0.0
 11
455.785883
 21
615.623198
 31
0.0
  0
ENDSEC
  0
SECTION
  2
OBJECTS
  0
DICTIONARY
  5
C
330
0
100
AcDbDictionary
281
     1
  3
ACAD_GROUP
350
D
  3
ACAD_LAYOUT
350
1A
  3
ACAD_MLEADERSTYLE
350
7AB
  3
ACAD_MLINESTYLE
350
17
  3
ACAD_PLOTSETTINGS
350
19
  3
ACAD_PLOTSTYLENAME
350
E
  3
ACAD_VISUALSTYLE
350
2A
  3
AcDbVariableDictionary
350
7A9
  0
DICTIONARY
  5
D
102
{ACAD_REACTORS
330
C
102
}
330
C
100
AcDbDictionary
281
     1
  0
DICTIONARY
  5
1A
102
{ACAD_REACTORS
330
C
102
}
330
C
100
AcDbDictionary
281
     1
  3
Layout1
350
1E
  3
Layout2
350
26
  3
Model
350
22
  0
DICTIONARY
  5
7AB
102
{ACAD_REACTORS
330
C
102
}
330
C
100
AcDbDictionary
281
     1
  0
DICTIONARY
  5
17
102
{ACAD_REACTORS
330
C
102
}
330
C
100
AcDbDictionary
281
     1
  3
Standard
350
18
  0
DICTIONARY
  5
19
102
{ACAD_REACTORS
330
C
102
}
330
C
100
AcDbDictionary
281
     1
  0
ACDBDICTIONARYWDFLT
  5
E
102
{ACAD_REACTORS
330
C
102
}
330
C
100
AcDbDictionary
281
     1
  3
Normal
350
F
100
AcDbDictionaryWithDefault
340
F
  0
DICTIONARY
  5
2A
102
{ACAD_REACTORS
330
C
102
}
330
C
100
AcDbDictionary
281
     1
  3
2dWireframe
350
2F
  3
3D Hidden
350
31
  3
3dWireframe
350
30
  3
Basic
350
32
  3
Brighten
350
36
  3
ColorChange
350
3A
  3
Conceptual
350
34
  3
Dim
350
35
  3
Facepattern
350
39
  3
Flat
350
2B
  3
FlatWithEdges
350
2C
  3
Gouraud
350
2D
  3
GouraudWithEdges
350
2E
  3
Linepattern
350
38
  3
Realistic
350
33
  3
Thicken
350
37
  0
DICTIONARY
  5
7A9
102
{ACAD_REACTORS
330
C
102
}
330
C
100
AcDbDictionary
281
     1
  3
PSOLHEIGHT
350
7AD
  3
PSOLWIDTH
350
7AC
  0
LAYOUT
  5
1E
102
{ACAD_REACTORS
330
1A
102
}
330
1A
100
AcDbPlotSettings
  1

  2
none_device
  4

  6

 40
0.0
 41
0.0
 42
0.0
 43
0.0
 44
0.0
 45
0.0
 46
0.0
 47
0.0
 48
0.0
 49
0.0
140
0.0
141
0.0
142
1.0
143
1.0
 70
   688
 72
     0
 73
     0
 74
     5
  7

 75
    16
147
1.0
148
0.0
149
0.0
100
AcDbLayout
  1
Layout1
 70
     1
 71
     1
 10
0.0
 20
0.0
 11
12.0
 21
9.0
 12
0.0
 22
0.0
 32
0.0
 14
1.000000E+20
 24
1.000000E+20
 34
0.0
 15
-1.000000E+20
 25
-1.000000E+20
 35
0.0
146
0.0
 13
0.0
 23
0.0
 33
0.0
 16
1.0
 26
0.0
 36
0.0
 17
0.0
 27
1.0
 37
0.0
 76
     0
330
1B
  0
LAYOUT
  5
26
102
{ACAD_REACTORS
330
1A
102
}
330
1A
100
AcDbPlotSettings
  1

  2
none_device
  4

  6

 40
0.0
 41
0.0
 42
0.0
 43
0.0
 44
0.0
 45
0.0
 46
0.0
 47
0.0
 48
0.0
 49
0.0
140
0.0
141
0.0
142
1.0
143
1.0
 70
   688
 72
     0
 73
     0
 74
     5
  7

 75
    16
147
1.0
148
0.0
149
0.0
100
AcDbLayout
  1
Layout2
 70
     1
 71
     2
 10
0.0
 20
0.0
 11
0.0
 21
0.0
 12
0.0
 22
0.0
 32
0.0
 14
0.0
 24
0.0
 34
0.0
 15
0.0
 25
0.0
 35
0.0
146
0.0
 13
0.0
 23
0.0
 33
0.0
 16
1.0
 26
0.0
 36
0.0
 17
0.0
 27
1.0
 37
0.0
 76
     0
330
23
  0
LAYOUT
  5
22
102
{ACAD_REACTORS
330
1A
102
}
330
1A
100
AcDbPlotSettings
  1

  2
none_device
  4

  6

 40
0.0
 41
0.0
 42
0.0
 43
0.0
 44
0.0
 45
0.0
 46
0.0
 47
0.0
 48
0.0
 49
0.0
140
0.0
141
0.0
142
1.0
143
1.0
 70
  1712
 72
     0
 73
     0
 74
     0
  7

 75
     0
147
1.0
148
0.0
149
0.0
100
AcDbLayout
  1
Model
 70
     1
 71
     0
 10
0.0
 20
0.0
 11
12.0
 21
9.0
 12
0.0
 22
0.0
 32
0.0
 14
195.687927
 24
137.317627
 34
0.0
 15
2190.188232
 25
2184.276855
 35
0.0
146
0.0
 13
0.0
 23
0.0
 33
0.0
 16
1.0
 26
0.0
 36
0.0
 17
0.0
 27
1.0
 37
0.0
 76
     0
330
1F
331
29
  0
MLINESTYLE
  5
18
102
{ACAD_REACTORS
330
17
102
}
330
17
100
AcDbMlineStyle
  2
Standard
 70
     0
  3

 62
   256
 51
90.0
 52
90.0
 71
     2
 49
0.5
 62
   256
  6
BYLAYER
 49
-0.5
 62
   256
  6
BYLAYER
  0
ACDBPLACEHOLDER
  5
F
102
{ACAD_REACTORS
330
E
102
}
330
E
  0
VISUALSTYLE
  5
2F
102
{ACAD_REACTORS
330
2A
102
}
330
2A
100
AcDbVisualStyle
  2
2dWireframe
 70
     4
 71
     0
 72
     2
 73
     0
 90
        0
 40
-0.6
 41
-30.0
 62
     5
 63
     7
 74
     1
 91
        4
 64
     7
 65
   257
 75
     1
175
     1
 42
1.0
 92
        0
 66
   257
 43
1.0
 76
     1
 77
     6
 78
     2
 67
     7
 79
     5
170
     0
171
     0
290
     0
174
     0
 93
        1
 44
0.0
173
     0
291
     0
 45
0.0
1001
ACAD
1000
AcDbSavedByObjectVersion
1070
     0
  0
VISUALSTYLE
  5
31
102
{ACAD_REACTORS
330
2A
102
}
330
2A
100
AcDbVisualStyle
  2
3D Hidden
 70
     6
 71
     1
 72
     2
 73
     2
 90
        0
 40
-0.6
 41
-30.0
 62
     5
 63
     7
 74
     2
 91
        2
 64
     7
 65
   257
 75
     2
175
     1
 42
40.0
 92
        0
 66
   257
 43
1.0
 76
     1
 77
     6
 78
     2
 67
     7
 79
     3
170
     0
171
     0
290
     0
174
     0
 93
        1
 44
0.0
173
     0
291
     0
 45
0.0
1001
ACAD
1000
AcDbSavedByObjectVersion
1070
     0
  0
VISUALSTYLE
  5
30
102
{ACAD_REACTORS
330
2A
102
}
330
2A
100
AcDbVisualStyle
  2
3dWireframe
 70
     5
 71
     0
 72
     2
 73
     0
 90
        0
 40
-0.6
 41
-30.0
 62
     5
 63
     7
 74
     1
 91
        4
 64
     7
 65
   257
 75
     1
175
     1
 42
1.0
 92
        0
 66
   257
 43
1.0
 76
     1
 77
     6
 78
     2
 67
     7
 79
     5
170
     0
171
     0
290
     0
174
     0
 93
        1
 44
0.0
173
     0
291
     0
 45
0.0
1001
ACAD
1000
AcDbSavedByObjectVersion
1070
     0
  0
VISUALSTYLE
  5
32
102
{ACAD_REACTORS
330
2A
102
}
330
2A
100
AcDbVisualStyle
  2
Basic
 70
     7
 71
     1
 72
     0
 73
     1
 90
        0
 40
-0.6
 41
-30.0
 62
     5
 63
     7
 74
     0
 91
        4
 64
     7
 65
   257
 75
     1
175
     1
 42
1.0
 92
        8
 66
     7
 43
1.0
 76
     1
 77
     6
 78
     2
 67
     7
 79
     5
170
     0
171
     0
290
     0
174
     0
 93
        1
 44
0.0
173
     0
291
     1
 45
0.0
1001
ACAD
1000
AcDbSavedByObjectVersion
1070
     0
  0
VISUALSTYLE
  5
36
102
{ACAD_REACTORS
330
2A
102
}
330
2A
100
AcDbVisualStyle
  2
Brighten
 70
    12
 71
     2
 72
     2
 73
     0
 90
        0
 40
-0.6
 41
-30.0
 62
     5
 63
     7
 74
     1
 91
        4
 64
     7
 65
   257
 75
     1
175
     1
 42
1.0
 92
        8
 66
     7
 43
1.0
 76
     1
 77
     6
 78
     2
 67
     7
 79
     5
170
     0
171
     0
290
     0
174
     0
 93
        1
 44
50.0
173
     0
291
     1
 45
0.0
1001
ACAD
1000
AcDbSavedByObjectVersion
1070
     0
  0
VISUALSTYLE
  5
3A
102
{ACAD_REACTORS
330
2A
102
}
330
2A
100
AcDbVisualStyle
  2
ColorChange
 70
    16
 71
     2
 72
     2
 73
     3
 90
        0
 40
-0.6
 41
-30.0
 62
     5
 63
     8
 74
     1
 91
        4
 64
     7
 65
   257
 75
     1
175
     1
 42
1.0
 92
        8
 66
     8
 43
1.0
 76
     1
 77
     6
 78
     2
 67
     7
 79
     5
170
     0
171
     0
290
     0
174
     0
 93
        1
 44
0.0
173
     0
291
     1
 45
0.0
1001
ACAD
1000
AcDbSavedByObjectVersion
1070
     0
  0
VISUALSTYLE
  5
34
102
{ACAD_REACTORS
330
2A
102
}
330
2A
100
AcDbVisualStyle
  2
Conceptual
 70
     9
 71
     3
 72
     2
 73
     0
 90
        0
 40
-0.6
 41
-30.0
 62
     5
 63
     7
 74
     2
 91
        2
 64
     7
 65
   257
 75
     1
175
     1
 42
40.0
 92
        8
 66
     7
 43
1.0
 76
     1
 77
     6
 78
     2
 67
     7
 79
     3
170
     0
171
     0
290
     0
174
     0
 93
        1
 44
0.0
173
     0
291
     0
 45
0.0
1001
ACAD
1000
AcDbSavedByObjectVersion
1070
     0
  0
VISUALSTYLE
  5
35
102
{ACAD_REACTORS
330
2A
102
}
330
2A
100
AcDbVisualStyle
  2
Dim
 70
    11
 71
     2
 72
     2
 73
     0
 90
        0
 40
-0.6
 41
-30.0
 62
     5
 63
     7
 74
     1
 91
        4
 64
     7
 65
   257
 75
     1
175
     1
 42
1.0
 92
        8
 66
     7
 43
1.0
 76
     1
 77
     6
 78
     2
 67
     7
 79
     5
170
     0
171
     0
290
     0
174
     0
 93
        1
 44
-50.0
173
     0
291
     1
 45
0.0
1001
ACAD
1000
AcDbSavedByObjectVersion
1070
     0
  0
VISUALSTYLE
  5
39
102
{ACAD_REACTORS
330
2A
102
}
330
2A
100
AcDbVisualStyle
  2
Facepattern
 70
    15
 71
     2
 72
     2
 73
     0
 90
        0
 40
-0.6
 41
-30.0
 62
     5
 63
     7
 74
     1
 91
        4
 64
     7
 65
   257
 75
     1
175
     1
 42
1.0
 92
        8
 66
     7
 43
1.0
 76
     1
 77
     6
 78
     2
 67
     7
 79
     5
170
     0
171
     0
290
     0
174
     0
 93
        1
 44
0.0
173
     0
291
     1
 45
0.0
1001
ACAD
1000
AcDbSavedByObjectVersion
1070
     0
  0
VISUALSTYLE
  5
2B
102
{ACAD_REACTORS
330
2A
102
}
330
2A
100
AcDbVisualStyle
  2
Flat
 70
     0
 71
     2
 72
     1
 73
     1
 90
        2
 40
-0.6
 41
30.0
 62
     5
 63
     7
 74
     0
 91
        4
 64
     7
 65
   257
 75
     1
175
     1
 42
1.0
 92
        8
 66
     7
 43
1.0
 76
     1
 77
     6
 78
     2
 67
     7
 79
     5
170
     0
171
     0
290
     0
174
     0
 93
       13
 44
0.0
173
     0
291
     1
 45
0.0
1001
ACAD
1000
AcDbSavedByObjectVersion
1070
     0
  0
VISUALSTYLE
  5
2C
102
{ACAD_REACTORS
330
2A
102
}
330
2A
100
AcDbVisualStyle
  2
FlatWithEdges
 70
     1
 71
     2
 72
     1
 73
     1
 90
        2
 40
-0.6
 41
30.0
 62
     5
 63
     7
 74
     1
 91
        4
 64
     7
 65
   257
 75
     1
175
     1
 42
1.0
 92
        0
 66
   257
 43
1.0
 76
     1
 77
     6
 78
     2
 67
     7
 79
     5
170
     0
171
     0
290
     0
174
     0
 93
       13
 44
0.0
173
     0
291
     1
 45
0.0
1001
ACAD
1000
AcDbSavedByObjectVersion
1070
     0
  0
VISUALSTYLE
  5
2D
102
{ACAD_REACTORS
330
2A
102
}
330
2A
100
AcDbVisualStyle
  2
Gouraud
 70
     2
 71
     2
 72
     2
 73
     1
 90
        2
 40
-0.6
 41
30.0
 62
     5
 63
     7
 74
     0
 91
        4
 64
     7
 65
   257
 75
     1
175
     1
 42
1.0
 92
        0
 66
     7
 43
1.0
 76
     1
 77
     6
 78
     2
 67
     7
 79
     5
170
     0
171
     0
290
     0
174
     0
 93
       13
 44
0.0
173
     0
291
     1
 45
0.0
1001
ACAD
1000
AcDbSavedByObjectVersion
1070
     0
  0
VISUALSTYLE
  5
2E
102
{ACAD_REACTORS
330
2A
102
}
330
2A
100
AcDbVisualStyle
  2
GouraudWithEdges
 70
     3
 71
     2
 72
     2
 73
     1
 90
        2
 40
-0.6
 41
30.0
 62
     5
 63
     7
 74
     1
 91
        4
 64
     7
 65
   257
 75
     1
175
     1
 42
1.0
 92
        0
 66
   257
 43
1.0
 76
     1
 77
     6
 78
     2
 67
     7
 79
     5
170
     0
171
     0
290
     0
174
     0
 93
       13
 44
0.0
173
     0
291
     1
 45
0.0
1001
ACAD
1000
AcDbSavedByObjectVersion
1070
     0
  0
VISUALSTYLE
  5
38
102
{ACAD_REACTORS
330
2A
102
}
330
2A
100
AcDbVisualStyle
  2
Linepattern
 70
    14
 71
     2
 72
     2
 73
     0
 90
        0
 40
-0.6
 41
-30.0
 62
     5
 63
     7
 74
     1
 91
        4
 64
     7
 65
   257
 75
     7
175
     7
 42
1.0
 92
        8
 66
     7
 43
1.0
 76
     1
 77
     6
 78
     2
 67
     7
 79
     5
170
     0
171
     0
290
     0
174
     0
 93
        1
 44
0.0
173
     0
291
     1
 45
0.0
1001
ACAD
1000
AcDbSavedByObjectVersion
1070
     0
  0
VISUALSTYLE
  5
33
102
{ACAD_REACTORS
330
2A
102
}
330
2A
100
AcDbVisualStyle
  2
Realistic
 70
     8
 71
     2
 72
     2
 73
     0
 90
        0
 40
-0.6
 41
-30.0
 62
     5
 63
     7
 74
     1
 91
        0
 64
     7
 65
   257
 75
     1
175
     1
 42
1.0
 92
        8
 66
     8
 43
1.0
 76
     1
 77
     6
 78
     2
 67
     7
 79
     5
170
     0
171
     0
290
     0
174
     0
 93
       13
 44
0.0
173
     0
291
     0
 45
0.0
1001
ACAD
1000
AcDbSavedByObjectVersion
1070
     0
  0
VISUALSTYLE
  5
37
102
{ACAD_REACTORS
330
2A
102
}
330
2A
100
AcDbVisualStyle
  2
Thicken
 70
    13
 71
     2
 72
     2
 73
     0
 90
        0
 40
-0.6
 41
-30.0
 62
     5
 63
     7
 74
     1
 91
        4
 64
     7
 65
   257
 75
     1
175
     1
 42
1.0
 92
       12
 66
     7
 43
1.0
 76
     1
 77
     6
 78
     2
 67
     7
 79
     5
170
     0
171
     0
290
     0
174
     0
 93
        1
 44
0.0
173
     0
291
     1
 45
0.0
1001
ACAD
1000
AcDbSavedByObjectVersion
1070
     0
  0
DICTIONARYVAR
  5
7AD
102
{ACAD_REACTORS
330
7A9
102
}
330
7A9
100
DictionaryVariables
280
     0
  1
80.000000
  0
DICTIONARYVAR
  5
7AC
102
{ACAD_REACTORS
330
7A9
102
}
330
7A9
100
DictionaryVariables
280
     0
  1
5.000000
  0
ENDSEC
  0
EOF
