  0
SECTION
  2
HEADER
  9
$ACADVER
  1
AC1015
  9
$ACADMAINTVER
 70
     6
  9
$DWGCODEPAGE
  3
ANSI_932
  9
$INSBASE
 10
0.0
 20
0.0
 30
0.0
  9
$EXTMIN
 10
102.429199
 20
23.96582
 30
0.0
  9
$EXTMAX
 10
1836.235596
 20
2482.489746
 30
0.0
  9
$LIMMIN
 10
0.0
 20
0.0
  9
$LIMMAX
 10
12.0
 20
9.0
  9
$ORTHOMODE
 70
     0
  9
$REGENMODE
 70
     1
  9
$FILLMODE
 70
     1
  9
$QTEXTMODE
 70
     0
  9
$MIRRTEXT
 70
     1
  9
$LTSCALE
 40
30.083923
  9
$ATTMODE
 70
     1
  9
$TEXTSIZE
 40
3.2
  9
$TRACEWID
 40
1.0
  9
$TEXTSTYLE
  7
Standard
  9
$CLAYER
  8
0
  9
$CELTYPE
  6
ByLayer
  9
$CECOLOR
 62
   256
  9
$CELTSCALE
 40
1.0
  9
$DISPSILH
 70
     0
  9
$DIMSCALE
 40
1.0
  9
$DIMASZ
 40
2.5
  9
$DIMEXO
 40
0.625
  9
$DIMDLI
 40
3.75
  9
$DIMRND
 40
0.0
  9
$DIMDLE
 40
0.0
  9
$DIMEXE
 40
1.25
  9
$DIMTP
 40
0.0
  9
$DIMTM
 40
0.0
  9
$DIMTXT
 40
2.5
  9
$DIMCEN
 40
0.09
  9
$DIMTSZ
 40
0.0
  9
$DIMTOL
 70
     0
  9
$DIMLIM
 70
     0
  9
$DIMTIH
 70
     0
  9
$DIMTOH
 70
     0
  9
$DIMSE1
 70
     0
  9
$DIMSE2
 70
     0
  9
$DIMTAD
 70
     0
  9
$DIMZIN
 70
     8
  9
$DIMBLK
  1

  9
$DIMASO
 70
     1
  9
$DIMSHO
 70
     0
  9
$DIMPOST
  1

  9
$DIMAPOST
  1

  9
$DIMALT
 70
     0
  9
$DIMALTD
 70
     3
  9
$DIMALTF
 40
0.03937
  9
$DIMLFAC
 40
1.0
  9
$DIMTOFL
 70
     1
  9
$DIMTVP
 40
0.0
  9
$DIMTIX
 70
     0
  9
$DIMSOXD
 70
     0
  9
$DIMSAH
 70
     0
  9
$DIMBLK1
  1

  9
$DIMBLK2
  1

  9
$DIMSTYLE
  2
ISO-25
  9
$DIMCLRD
 70
     0
  9
$DIMCLRE
 70
     0
  9
$DIMCLRT
 70
     0
  9
$DIMTFAC
 40
1.0
  9
$DIMGAP
 40
0.625
  9
$DIMJUST
 70
     0
  9
$DIMSD1
 70
     0
  9
$DIMSD2
 70
     0
  9
$DIMTOLJ
 70
     0
  9
$DIMTZIN
 70
     8
  9
$DIMALTZ
 70
     0
  9
$DIMALTTZ
 70
     0
  9
$DIMUPT
 70
     0
  9
$DIMDEC
 70
     2
  9
$DIMTDEC
 70
     2
  9
$DIMALTU
 70
     2
  9
$DIMALTTD
 70
     3
  9
$DIMTXSTY
  7
Standard
  9
$DIMAUNIT
 70
     0
  9
$DIMADEC
 70
     0
  9
$DIMALTRND
 40
0.0
  9
$DIMAZIN
 70
     0
  9
$DIMDSEP
 70
    44
  9
$DIMATFIT
 70
     3
  9
$DIMFRAC
 70
     0
  9
$DIMLDRBLK
  1

  9
$DIMLUNIT
 70
     2
  9
$DIMLWD
 70
    -2
  9
$DIMLWE
 70
    -2
  9
$DIMTMOVE
 70
     0
  9
$LUNITS
 70
     2
  9
$LUPREC
 70
     4
  9
$SKETCHINC
 40
1.0
  9
$FILLETRAD
 40
0.0
  9
$AUNITS
 70
     0
  9
$AUPREC
 70
     0
  9
$MENU
  1
.
  9
$ELEVATION
 40
0.0
  9
$PELEVATION
 40
0.0
  9
$THICKNESS
 40
0.0
  9
$LIMCHECK
 70
     0
  9
$CHAMFERA
 40
10.0
  9
$CHAMFERB
 40
10.0
  9
$CHAMFERC
 40
20.0
  9
$CHAMFERD
 40
0.0
  9
$SKPOLY
 70
     0
  9
$TDCREATE
 40
2455649.657771806
  9
$TDUCREATE
 40
2455649.282771806
  9
$TDUPDATE
 40
2455649.657771817
  9
$TDUUPDATE
 40
2455649.282771817
  9
$TDINDWG
 40
0.0000000116
  9
$TDUSRTIMER
 40
0.0000000116
  9
$USRTIMER
 70
     1
  9
$ANGBASE
 50
0.0
  9
$ANGDIR
 70
     0
  9
$PDMODE
 70
     0
  9
$PDSIZE
 40
0.0
  9
$PLINEWID
 40
0.0
  9
$SPLFRAME
 70
     0
  9
$SPLINETYPE
 70
     6
  9
$SPLINESEGS
 70
     8
  9
$HANDSEED
  5
73B
  9
$SURFTAB1
 70
     6
  9
$SURFTAB2
 70
     6
  9
$SURFTYPE
 70
     6
  9
$SURFU
 70
     6
  9
$SURFV
 70
     6
  9
$UCSBASE
  2

  9
$UCSNAME
  2

  9
$UCSORG
 10
0.0
 20
0.0
 30
0.0
  9
$UCSXDIR
 10
1.0
 20
0.0
 30
0.0
  9
$UCSYDIR
 10
0.0
 20
1.0
 30
0.0
  9
$UCSORTHOREF
  2

  9
$UCSORTHOVIEW
 70
     0
  9
$UCSORGTOP
 10
0.0
 20
0.0
 30
0.0
  9
$UCSORGBOTTOM
 10
0.0
 20
0.0
 30
0.0
  9
$UCSORGLEFT
 10
0.0
 20
0.0
 30
0.0
  9
$UCSORGRIGHT
 10
0.0
 20
0.0
 30
0.0
  9
$UCSORGFRONT
 10
0.0
 20
0.0
 30
0.0
  9
$UCSORGBACK
 10
0.0
 20
0.0
 30
0.0
  9
$PUCSBASE
  2

  9
$PUCSNAME
  2

  9
$PUCSORG
 10
0.0
 20
0.0
 30
0.0
  9
$PUCSXDIR
 10
1.0
 20
0.0
 30
0.0
  9
$PUCSYDIR
 10
0.0
 20
1.0
 30
0.0
  9
$PUCSORTHOREF
  2

  9
$PUCSORTHOVIEW
 70
     0
  9
$PUCSORGTOP
 10
0.0
 20
0.0
 30
0.0
  9
$PUCSORGBOTTOM
 10
0.0
 20
0.0
 30
0.0
  9
$PUCSORGLEFT
 10
0.0
 20
0.0
 30
0.0
  9
$PUCSORGRIGHT
 10
0.0
 20
0.0
 30
0.0
  9
$PUCSORGFRONT
 10
0.0
 20
0.0
 30
0.0
  9
$PUCSORGBACK
 10
0.0
 20
0.0
 30
0.0
  9
$USERI1
 70
     0
  9
$USERI2
 70
     0
  9
$USERI3
 70
     0
  9
$USERI4
 70
     0
  9
$USERI5
 70
     0
  9
$USERR1
 40
0.0
  9
$USERR2
 40
0.0
  9
$USERR3
 40
0.0
  9
$USERR4
 40
0.0
  9
$USERR5
 40
0.0
  9
$WORLDVIEW
 70
     1
  9
$SHADEDGE
 70
     3
  9
$SHADEDIF
 70
    70
  9
$TILEMODE
 70
     1
  9
$MAXACTVP
 70
    64
  9
$PINSBASE
 10
0.0
 20
0.0
 30
0.0
  9
$PLIMCHECK
 70
     0
  9
$PEXTMIN
 10
1.000000E+20
 20
1.000000E+20
 30
0.0
  9
$PEXTMAX
 10
-1.000000E+20
 20
-1.000000E+20
 30
0.0
  9
$PLIMMIN
 10
0.0
 20
0.0
  9
$PLIMMAX
 10
12.0
 20
9.0
  9
$UNITMODE
 70
     0
  9
$VISRETAIN
 70
     1
  9
$PLINEGEN
 70
     0
  9
$PSLTSCALE
 70
     1
  9
$TREEDEPTH
 70
  3020
  9
$CMLSTYLE
  2
Standard
  9
$CMLJUST
 70
     0
  9
$CMLSCALE
 40
20.0
  9
$PROXYGRAPHICS
 70
     1
  9
$MEASUREMENT
 70
     1
  9
$CELWEIGHT
370
    -1
  9
$ENDCAPS
280
     0
  9
$JOINSTYLE
280
     0
  9
$LWDISPLAY
290
     0
  9
$INSUNITS
 70
     4
  9
$HYPERLINKBASE
  1

  9
$STYLESHEET
  1

  9
$XEDIT
290
     1
  9
$CEPSNTYPE
380
     0
  9
$PSTYLEMODE
290
     1
  9
$FINGERPRINTGUID
  2
{E6EFC4DF-B62B-4687-87CC-8F4557EAC0A6}
  9
$VERSIONGUID
  2
{FAEB1C32-E019-11D5-929B-00C0DF256EC4}
  9
$EXTNAMES
290
     1
  9
$PSVPSCALE
 40
0.0
  9
$OLESTARTUP
290
     0
  0
ENDSEC
  0
SECTION
  2
CLASSES
  0
CLASS
  1
ACDBDICTIONARYWDFLT
  2
AcDbDictionaryWithDefault
  3
ObjectDBX Classes
 90
        0
280
     0
281
     0
  0
CLASS
  1
VISUALSTYLE
  2
AcDbVisualStyle
  3
ObjectDBX Classes
 90
     4095
280
     0
281
     0
  0
CLASS
  1
DICTIONARYVAR
  2
AcDbDictionaryVar
  3
ObjectDBX Classes
 90
        0
280
     0
281
     0
  0
CLASS
  1
ACDBPLACEHOLDER
  2
AcDbPlaceHolder
  3
ObjectDBX Classes
 90
        0
280
     0
281
     0
  0
CLASS
  1
LAYOUT
  2
AcDbLayout
  3
ObjectDBX Classes
 90
        0
280
     0
281
     0
  0
ENDSEC
  0
SECTION
  2
TABLES
  0
TABLE
  2
VPORT
  5
8
330
0
100
AcDbSymbolTable
 70
     1
  0
VPORT
  5
29
330
8
100
AcDbSymbolTableRecord
100
AcDbViewportTableRecord
  2
*Active
 70
     0
 10
0.0
 20
0.0
 11
1.0
 21
1.0
 12
969.332397
 22
1253.227783
 13
0.0
 23
0.0
 14
1.0
 24
1.0
 15
0.0
 25
0.0
 16
0.0
 26
0.0
 36
1.0
 17
0.0
 27
0.0
 37
0.0
 40
2483.109165
 41
1.691288
 42
50.0
 43
0.0
 44
0.0
 50
0.0
 51
0.0
 71
     0
 72
   100
 73
     1
 74
     3
 75
     0
 76
     0
 77
     0
 78
     0
281
     0
 65
     1
110
0.0
120
0.0
130
0.0
111
1.0
121
0.0
131
0.0
112
0.0
122
1.0
132
0.0
 79
     0
146
0.0
  0
ENDTAB
  0
TABLE
  2
LTYPE
  5
5
330
0
100
AcDbSymbolTable
 70
     5
  0
LTYPE
  5
14
330
5
100
AcDbSymbolTableRecord
100
AcDbLinetypeTableRecord
  2
ByBlock
 70
     0
  3

 72
    65
 73
     0
 40
0.0
  0
LTYPE
  5
15
330
5
100
AcDbSymbolTableRecord
100
AcDbLinetypeTableRecord
  2
ByLayer
 70
     0
  3

 72
    65
 73
     0
 40
0.0
  0
LTYPE
  5
16
330
5
100
AcDbSymbolTableRecord
100
AcDbLinetypeTableRecord
  2
Continuous
 70
     0
  3
Solid line
 72
    65
 73
     0
 40
0.0
  0
LTYPE
  5
3B
330
5
100
AcDbSymbolTableRecord
100
AcDbLinetypeTableRecord
  2
DASHED
 70
     0
  3
DASHED
 72
    83
 73
     2
 40
0.75
 49
0.5
 74
     0
 49
-0.25
 74
     0
  0
LTYPE
  5
3C
330
5
100
AcDbSymbolTableRecord
100
AcDbLinetypeTableRecord
  2
HIDDEN
 70
     0
  3
HIDDEN
 72
    83
 73
     2
 40
0.375
 49
0.25
 74
     0
 49
-0.125
 74
     0
  0
LTYPE
  5
3D
330
5
100
AcDbSymbolTableRecord
100
AcDbLinetypeTableRecord
  2
CENTER
 70
     0
  3
CENTER
 72
    83
 73
     4
 40
2.0
 49
1.25
 74
     0
 49
-0.25
 74
     0
 49
0.25
 74
     0
 49
-0.25
 74
     0
  0
LTYPE
  5
3E
330
5
100
AcDbSymbolTableRecord
100
AcDbLinetypeTableRecord
  2
PHANTOM
 70
     0
  3
PHANTOM
 72
    83
 73
     6
 40
2.5
 49
1.25
 74
     0
 49
-0.25
 74
     0
 49
0.25
 74
     0
 49
-0.25
 74
     0
 49
0.25
 74
     0
 49
-0.25
 74
     0
  0
ENDTAB
  0
TABLE
  2
LAYER
  5
2
330
0
100
AcDbSymbolTable
 70
     3
  0
LAYER
  5
10
330
2
100
AcDbSymbolTableRecord
100
AcDbLayerTableRecord
  2
0
 70
     0
 62
     7
  6
Continuous
370
    -3
390
F
  0
LAYER
  5
3F
330
2
100
AcDbSymbolTableRecord
100
AcDbLayerTableRecord
  2
002
 70
     0
 62
     7
  6
Continuous
370
    -3
390
F
  0
LAYER
  5
40
330
2
100
AcDbSymbolTableRecord
100
AcDbLayerTableRecord
  2
003
 70
     0
 62
     7
  6
Continuous
370
    -3
390
F
  0
ENDTAB
  0
TABLE
  2
STYLE
  5
3
330
0
100
AcDbSymbolTable
 70
     2
  0
STYLE
  5
11
330
3
100
AcDbSymbolTableRecord
100
AcDbTextStyleTableRecord
  2
Standard
 70
     0
 40
0.0
 41
1.0
 50
0.0
 71
     0
 42
0.2
  3
TXT
  4
BIGFONT
  0
STYLE
  5
41
330
3
100
AcDbSymbolTableRecord
100
AcDbTextStyleTableRecord
  2
TATEGAKI
 70
     4
 40
1.0
 41
1.0
 50
0.0
 71
     0
 42
0.2
  3
TXT
  4
BIGFONT
  0
ENDTAB
  0
TABLE
  2
VIEW
  5
6
330
0
100
AcDbSymbolTable
 70
     0
  0
ENDTAB
  0
TABLE
  2
UCS
  5
7
330
0
100
AcDbSymbolTable
 70
     0
  0
ENDTAB
  0
TABLE
  2
APPID
  5
9
330
0
100
AcDbSymbolTable
 70
     1
  0
APPID
  5
12
330
9
100
AcDbSymbolTableRecord
100
AcDbRegAppTableRecord
  2
ACAD
 70
     0
  0
ENDTAB
  0
TABLE
  2
DIMSTYLE
  5
A
330
0
100
AcDbSymbolTable
 70
     2
100
AcDbDimStyleTable
  0
DIMSTYLE
105
27
330
A
100
AcDbSymbolTableRecord
100
AcDbDimStyleTableRecord
  2
ISO-25
 70
     0
 41
2.5
 42
0.625
 43
3.75
 44
1.25
 73
     0
 74
     0
 77
     1
 78
     8
140
2.5
141
2.5
143
0.03937
147
0.625
171
     3
172
     1
271
     2
272
     2
274
     3
278
    44
283
     0
284
     8
340
11
  0
DIMSTYLE
105
42
330
A
100
AcDbSymbolTableRecord
100
AcDbDimStyleTableRecord
  2
Standard
 70
     0
 41
3.0
 42
0.5
 44
0.7
 73
     0
 74
     0
 77
     1
 78
     8
 79
     2
140
4.0
146
0.65
147
1.0
172
     1
179
     3
271
     3
283
     2
340
11
  0
ENDTAB
  0
TABLE
  2
BLOCK_RECORD
  5
1
330
0
100
AcDbSymbolTable
 70
    35
  0
BLOCK_RECORD
  5
1F
330
1
100
AcDbSymbolTableRecord
100
AcDbBlockTableRecord
  2
*Model_Space
340
22
  0
BLOCK_RECORD
  5
1B
330
1
100
AcDbSymbolTableRecord
100
AcDbBlockTableRecord
  2
*Paper_Space
340
1E
  0
BLOCK_RECORD
  5
23
330
1
100
AcDbSymbolTableRecord
100
AcDbBlockTableRecord
  2
*Paper_Space0
340
26
  0
BLOCK_RECORD
  5
43
330
1
100
AcDbSymbolTableRecord
100
AcDbBlockTableRecord
  2
JZB-1
340
0
102
{BLKREFS
331
1C1
102
}
  0
BLOCK_RECORD
  5
54
330
1
100
AcDbSymbolTableRecord
100
AcDbBlockTableRecord
  2
JZB-2
340
0
102
{BLKREFS
331
1C2
102
}
  0
BLOCK_RECORD
  5
65
330
1
100
AcDbSymbolTableRecord
100
AcDbBlockTableRecord
  2
JZB-3
340
0
102
{BLKREFS
331
1C3
102
}
  0
BLOCK_RECORD
  5
76
330
1
100
AcDbSymbolTableRecord
100
AcDbBlockTableRecord
  2
JZB-4
340
0
102
{BLKREFS
331
1C4
102
}
  0
BLOCK_RECORD
  5
87
330
1
100
AcDbSymbolTableRecord
100
AcDbBlockTableRecord
  2
JZB-5
340
0
102
{BLKREFS
331
1C5
102
}
  0
BLOCK_RECORD
  5
98
330
1
100
AcDbSymbolTableRecord
100
AcDbBlockTableRecord
  2
JZB-6
340
0
102
{BLKREFS
331
1C6
102
}
  0
BLOCK_RECORD
  5
A9
330
1
100
AcDbSymbolTableRecord
100
AcDbBlockTableRecord
  2
JZB-7
340
0
102
{BLKREFS
331
1C7
102
}
  0
BLOCK_RECORD
  5
B3
330
1
100
AcDbSymbolTableRecord
100
AcDbBlockTableRecord
  2
JZB-8
340
0
102
{BLKREFS
331
1C8
102
}
  0
BLOCK_RECORD
  5
BD
330
1
100
AcDbSymbolTableRecord
100
AcDbBlockTableRecord
  2
JZB-9
340
0
102
{BLKREFS
331
1C9
102
}
  0
BLOCK_RECORD
  5
C7
330
1
100
AcDbSymbolTableRecord
100
AcDbBlockTableRecord
  2
JZB-10
340
0
102
{BLKREFS
331
1CA
102
}
  0
BLOCK_RECORD
  5
D1
330
1
100
AcDbSymbolTableRecord
100
AcDbBlockTableRecord
  2
JZB-11
340
0
102
{BLKREFS
331
1CB
102
}
  0
BLOCK_RECORD
  5
DB
330
1
100
AcDbSymbolTableRecord
100
AcDbBlockTableRecord
  2
JZB-12
340
0
102
{BLKREFS
331
1CC
102
}
  0
BLOCK_RECORD
  5
E5
330
1
100
AcDbSymbolTableRecord
100
AcDbBlockTableRecord
  2
JZB-13
340
0
102
{BLKREFS
331
1CD
102
}
  0
BLOCK_RECORD
  5
EF
330
1
100
AcDbSymbolTableRecord
100
AcDbBlockTableRecord
  2
JZB-14
340
0
102
{BLKREFS
331
1CE
102
}
  0
BLOCK_RECORD
  5
F9
330
1
100
AcDbSymbolTableRecord
100
AcDbBlockTableRecord
  2
JZB-15
340
0
102
{BLKREFS
331
1CF
102
}
  0
BLOCK_RECORD
  5
103
330
1
100
AcDbSymbolTableRecord
100
AcDbBlockTableRecord
  2
JZB-16
340
0
102
{BLKREFS
331
1D0
102
}
  0
BLOCK_RECORD
  5
10D
330
1
100
AcDbSymbolTableRecord
100
AcDbBlockTableRecord
  2
JZB-17
340
0
102
{BLKREFS
331
1D1
102
}
  0
BLOCK_RECORD
  5
117
330
1
100
AcDbSymbolTableRecord
100
AcDbBlockTableRecord
  2
JZB-18
340
0
102
{BLKREFS
331
1D2
102
}
  0
BLOCK_RECORD
  5
121
330
1
100
AcDbSymbolTableRecord
100
AcDbBlockTableRecord
  2
JZB-19
340
0
102
{BLKREFS
331
1D3
102
}
  0
BLOCK_RECORD
  5
12B
330
1
100
AcDbSymbolTableRecord
100
AcDbBlockTableRecord
  2
JZB-20
340
0
102
{BLKREFS
331
1D4
102
}
  0
BLOCK_RECORD
  5
135
330
1
100
AcDbSymbolTableRecord
100
AcDbBlockTableRecord
  2
JZB-21
340
0
102
{BLKREFS
331
1D5
102
}
  0
BLOCK_RECORD
  5
13F
330
1
100
AcDbSymbolTableRecord
100
AcDbBlockTableRecord
  2
JZB-22
340
0
102
{BLKREFS
331
1D6
102
}
  0
BLOCK_RECORD
  5
149
330
1
100
AcDbSymbolTableRecord
100
AcDbBlockTableRecord
  2
JZB-23
340
0
102
{BLKREFS
331
1D7
102
}
  0
BLOCK_RECORD
  5
153
330
1
100
AcDbSymbolTableRecord
100
AcDbBlockTableRecord
  2
JZB-24
340
0
102
{BLKREFS
331
1D8
102
}
  0
BLOCK_RECORD
  5
15D
330
1
100
AcDbSymbolTableRecord
100
AcDbBlockTableRecord
  2
JZB-25
340
0
102
{BLKREFS
331
1D9
102
}
  0
BLOCK_RECORD
  5
167
330
1
100
AcDbSymbolTableRecord
100
AcDbBlockTableRecord
  2
JZB-26
340
0
102
{BLKREFS
331
1DA
102
}
  0
BLOCK_RECORD
  5
171
330
1
100
AcDbSymbolTableRecord
100
AcDbBlockTableRecord
  2
JZB-27
340
0
102
{BLKREFS
331
1DB
102
}
  0
BLOCK_RECORD
  5
17B
330
1
100
AcDbSymbolTableRecord
100
AcDbBlockTableRecord
  2
JZB-28
340
0
102
{BLKREFS
331
1DC
102
}
  0
BLOCK_RECORD
  5
185
330
1
100
AcDbSymbolTableRecord
100
AcDbBlockTableRecord
  2
JZB-29
340
0
102
{BLKREFS
331
1DD
102
}
  0
BLOCK_RECORD
  5
18F
330
1
100
AcDbSymbolTableRecord
100
AcDbBlockTableRecord
  2
JZB-30
340
0
102
{BLKREFS
331
1DE
102
}
  0
BLOCK_RECORD
  5
199
330
1
100
AcDbSymbolTableRecord
100
AcDbBlockTableRecord
  2
JZB-31
340
0
102
{BLKREFS
331
1DF
102
}
  0
BLOCK_RECORD
  5
1A3
330
1
100
AcDbSymbolTableRecord
100
AcDbBlockTableRecord
  2
JZB-32
340
0
102
{BLKREFS
331
1E0
102
}
  0
BLOCK_RECORD
  5
1AD
330
1
100
AcDbSymbolTableRecord
100
AcDbBlockTableRecord
  2
JZB-33
340
0
102
{BLKREFS
331
1E1
102
}
  0
BLOCK_RECORD
  5
1B7
330
1
100
AcDbSymbolTableRecord
100
AcDbBlockTableRecord
  2
JZB-34
340
0
102
{BLKREFS
331
1E2
102
}
  0
ENDTAB
  0
ENDSEC
  0
SECTION
  2
BLOCKS
  0
BLOCK
  5
20
330
1F
100
AcDbEntity
  8
0
100
AcDbBlockBegin
  2
*Model_Space
 70
     0
 10
0.0
 20
0.0
 30
0.0
  3
*Model_Space
  1

  0
ENDBLK
  5
21
330
1F
100
AcDbEntity
  8
0
100
AcDbBlockEnd
  0
BLOCK
  5
1C
330
1B
100
AcDbEntity
 67
     1
  8
0
100
AcDbBlockBegin
  2
*Paper_Space
 70
     0
 10
0.0
 20
0.0
 30
0.0
  3
*Paper_Space
  1

  0
ENDBLK
  5
1D
330
1B
100
AcDbEntity
 67
     1
  8
0
100
AcDbBlockEnd
  0
BLOCK
  5
24
330
23
100
AcDbEntity
  8
0
100
AcDbBlockBegin
  2
*Paper_Space0
 70
     0
 10
0.0
 20
0.0
 30
0.0
  3
*Paper_Space0
  1

  0
ENDBLK
  5
25
330
23
100
AcDbEntity
  8
0
100
AcDbBlockEnd
  0
BLOCK
  5
44
330
43
100
AcDbEntity
  8
0
100
AcDbBlockBegin
  2
JZB-1
 70
     0
 10
0.0
 20
0.0
 30
0.0
  3
JZB-1
  1

  0
LINE
  5
46
330
43
100
AcDbEntity
  8
003
 62
     3
370
    30
100
AcDbLine
 10
370.027232
 20
2162.496351
 30
0.0
 11
370.027232
 21
2167.303519
 31
0.0
  0
LINE
  5
47
330
43
100
AcDbEntity
  8
003
 62
     3
370
    30
100
AcDbLine
 10
368.827232
 20
2161.80353
 30
0.0
 11
356.227232
 21
2161.80353
 31
0.0
  0
LINE
  5
48
330
43
100
AcDbEntity
  8
003
 62
     3
370
    30
100
AcDbLine
 10
370.027232
 20
2167.303519
 30
0.0
 11
355.027232
 21
2167.303519
 31
0.0
  0
LINE
  5
49
330
43
100
AcDbEntity
  8
003
 62
     3
370
    30
100
AcDbLine
 10
368.827232
 20
2161.80353
 30
0.0
 11
370.027232
 21
2162.496351
 31
0.0
  0
LINE
  5
4A
330
43
100
AcDbEntity
  8
003
 62
     3
370
    30
100
AcDbLine
 10
356.227232
 20
2161.80353
 30
0.0
 11
355.027232
 21
2162.496351
 31
0.0
  0
LINE
  5
4B
330
43
100
AcDbEntity
  8
003
 62
     3
370
    30
100
AcDbLine
 10
355.027232
 20
2162.496351
 30
0.0
 11
355.027232
 21
2167.303519
 31
0.0
  0
LINE
  5
4C
330
43
100
AcDbEntity
  8
003
 62
     3
370
    30
100
AcDbLine
 10
366.277232
 20
2167.303519
 30
0.0
 11
366.277232
 21
2162.496351
 31
0.0
  0
LINE
  5
4D
330
43
100
AcDbEntity
  8
003
 62
     3
370
    30
100
AcDbLine
 10
358.777232
 20
2167.303519
 30
0.0
 11
358.777232
 21
2162.496351
 31
0.0
  0
ARC
  5
4E
330
43
100
AcDbEntity
  8
003
 62
     3
370
    30
100
AcDbCircle
 10
356.902232
 20
2164.687124
 30
0.0
 40
2.883593961663502
100
AcDbArc
 50
270.0
 51
310.558963
  0
ARC
  5
4F
330
43
100
AcDbEntity
  8
003
 62
     3
370
    30
100
AcDbCircle
 10
368.152232
 20
2164.687124
 30
0.0
 40
2.883593961663502
100
AcDbArc
 50
229.441037
 51
270.0
  0
ARC
  5
50
330
43
100
AcDbEntity
  8
003
 62
     3
370
    30
100
AcDbCircle
 10
362.527232
 20
2172.298676
 30
0.0
 40
10.4951453621126
100
AcDbArc
 50
249.065034
 51
290.934966
  0
LINE
  5
51
330
43
100
AcDbEntity
  8
003
 62
     3
370
    30
100
AcDbLine
 10
362.527227
 20
2167.30353
 30
0.0
 11
362.527227
 21
2167.303519
 31
0.0
  0
LINE
  5
52
330
43
100
AcDbEntity
  8
003
 62
     3
370
    30
100
AcDbLine
 10
362.527227
 20
2167.30353
 30
0.0
 11
362.527238
 21
2167.30353
 31
0.0
  0
LINE
  5
53
330
43
100
AcDbEntity
  8
003
 62
     3
370
    30
100
AcDbLine
 10
362.527238
 20
2167.30353
 30
0.0
 11
362.527238
 21
2167.303519
 31
0.0
  0
ENDBLK
  5
45
330
43
100
AcDbEntity
  8
0
100
AcDbBlockEnd
  0
BLOCK
  5
55
330
54
100
AcDbEntity
  8
0
100
AcDbBlockBegin
  2
JZB-2
 70
     0
 10
0.0
 20
0.0
 30
0.0
  3
JZB-2
  1

  0
LINE
  5
57
330
54
100
AcDbEntity
  8
003
 62
     3
370
    30
100
AcDbLine
 10
407.504153
 20
2162.496351
 30
0.0
 11
407.504153
 21
2167.303519
 31
0.0
  0
LINE
  5
58
330
54
100
AcDbEntity
  8
003
 62
     3
370
    30
100
AcDbLine
 10
406.304153
 20
2161.80353
 30
0.0
 11
393.704153
 21
2161.80353
 31
0.0
  0
LINE
  5
59
330
54
100
AcDbEntity
  8
003
 62
     3
370
    30
100
AcDbLine
 10
407.504153
 20
2167.303519
 30
0.0
 11
392.504153
 21
2167.303519
 31
0.0
  0
LINE
  5
5A
330
54
100
AcDbEntity
  8
003
 62
     3
370
    30
100
AcDbLine
 10
406.304153
 20
2161.80353
 30
0.0
 11
407.504153
 21
2162.496351
 31
0.0
  0
LINE
  5
5B
330
54
100
AcDbEntity
  8
003
 62
     3
370
    30
100
AcDbLine
 10
393.704153
 20
2161.80353
 30
0.0
 11
392.504153
 21
2162.496351
 31
0.0
  0
LINE
  5
5C
330
54
100
AcDbEntity
  8
003
 62
     3
370
    30
100
AcDbLine
 10
392.504153
 20
2162.496351
 30
0.0
 11
392.504153
 21
2167.303519
 31
0.0
  0
LINE
  5
5D
330
54
100
AcDbEntity
  8
003
 62
     3
370
    30
100
AcDbLine
 10
403.754153
 20
2167.303519
 30
0.0
 11
403.754153
 21
2162.496351
 31
0.0
  0
LINE
  5
5E
330
54
100
AcDbEntity
  8
003
 62
     3
370
    30
100
AcDbLine
 10
396.254153
 20
2167.303519
 30
0.0
 11
396.254153
 21
2162.496351
 31
0.0
  0
ARC
  5
5F
330
54
100
AcDbEntity
  8
003
 62
     3
370
    30
100
AcDbCircle
 10
394.379153
 20
2164.687124
 30
0.0
 40
2.883593961663502
100
AcDbArc
 50
270.0
 51
310.558963
  0
ARC
  5
60
330
54
100
AcDbEntity
  8
003
 62
     3
370
    30
100
AcDbCircle
 10
405.629153
 20
2164.687124
 30
0.0
 40
2.883593961663502
100
AcDbArc
 50
229.441037
 51
270.0
  0
ARC
  5
61
330
54
100
AcDbEntity
  8
003
 62
     3
370
    30
100
AcDbCircle
 10
400.004153
 20
2172.298676
 30
0.0
 40
10.4951453621126
100
AcDbArc
 50
249.065034
 51
290.934966
  0
LINE
  5
62
330
54
100
AcDbEntity
  8
003
 62
     3
370
    30
100
AcDbLine
 10
400.004148
 20
2167.30353
 30
0.0
 11
400.004148
 21
2167.303519
 31
0.0
  0
LINE
  5
63
330
54
100
AcDbEntity
  8
003
 62
     3
370
    30
100
AcDbLine
 10
400.004148
 20
2167.30353
 30
0.0
 11
400.004159
 21
2167.30353
 31
0.0
  0
LINE
  5
64
330
54
100
AcDbEntity
  8
003
 62
     3
370
    30
100
AcDbLine
 10
400.004159
 20
2167.30353
 30
0.0
 11
400.004159
 21
2167.303519
 31
0.0
  0
ENDBLK
  5
56
330
54
100
AcDbEntity
  8
0
100
AcDbBlockEnd
  0
BLOCK
  5
66
330
65
100
AcDbEntity
  8
0
100
AcDbBlockBegin
  2
JZB-3
 70
     0
 10
0.0
 20
0.0
 30
0.0
  3
JZB-3
  1

  0
LINE
  5
68
330
65
100
AcDbEntity
  8
003
 62
     3
370
    30
100
AcDbLine
 10
332.550312
 20
2162.496351
 30
0.0
 11
332.550312
 21
2167.303519
 31
0.0
  0
LINE
  5
69
330
65
100
AcDbEntity
  8
003
 62
     3
370
    30
100
AcDbLine
 10
331.350312
 20
2161.80353
 30
0.0
 11
318.750312
 21
2161.80353
 31
0.0
  0
LINE
  5
6A
330
65
100
AcDbEntity
  8
003
 62
     3
370
    30
100
AcDbLine
 10
331.350312
 20
2161.80353
 30
0.0
 11
332.550312
 21
2162.496351
 31
0.0
  0
LINE
  5
6B
330
65
100
AcDbEntity
  8
003
 62
     3
370
    30
100
AcDbLine
 10
318.750312
 20
2161.80353
 30
0.0
 11
317.550312
 21
2162.496351
 31
0.0
  0
LINE
  5
6C
330
65
100
AcDbEntity
  8
003
 62
     3
370
    30
100
AcDbLine
 10
328.800312
 20
2167.303519
 30
0.0
 11
328.800312
 21
2162.496351
 31
0.0
  0
ARC
  5
6D
330
65
100
AcDbEntity
  8
003
 62
     3
370
    30
100
AcDbCircle
 10
319.425312
 20
2164.687124
 30
0.0
 40
2.883593961663502
100
AcDbArc
 50
270.0
 51
310.558963
  0
ARC
  5
6E
330
65
100
AcDbEntity
  8
003
 62
     3
370
    30
100
AcDbCircle
 10
330.675312
 20
2164.687124
 30
0.0
 40
2.883593961663502
100
AcDbArc
 50
229.441037
 51
270.0
  0
ARC
  5
6F
330
65
100
AcDbEntity
  8
003
 62
     3
370
    30
100
AcDbCircle
 10
325.050312
 20
2172.298676
 30
0.0
 40
10.4951453621126
100
AcDbArc
 50
249.065034
 51
290.934966
  0
LINE
  5
70
330
65
100
AcDbEntity
  8
003
 62
     3
370
    30
100
AcDbLine
 10
325.050306
 20
2167.30353
 30
0.0
 11
325.050306
 21
2167.303519
 31
0.0
  0
LINE
  5
71
330
65
100
AcDbEntity
  8
003
 62
     3
370
    30
100
AcDbLine
 10
325.050306
 20
2167.30353
 30
0.0
 11
325.050317
 21
2167.30353
 31
0.0
  0
LINE
  5
72
330
65
100
AcDbEntity
  8
003
 62
     3
370
    30
100
AcDbLine
 10
325.050317
 20
2167.30353
 30
0.0
 11
325.050317
 21
2167.303519
 31
0.0
  0
LINE
  5
73
330
65
100
AcDbEntity
  8
003
 62
     3
370
    30
100
AcDbLine
 10
321.300312
 20
2166.566176
 30
0.0
 11
321.300312
 21
2162.496351
 31
0.0
  0
LINE
  5
74
330
65
100
AcDbEntity
  8
003
 62
     3
370
    30
100
AcDbLine
 10
317.550312
 20
2162.496351
 30
0.0
 11
317.550312
 21
2164.990644
 31
0.0
  0
LINE
  5
75
330
65
100
AcDbEntity
  8
003
 62
     3
370
    30
100
AcDbLine
 10
332.550312
 20
2167.303519
 30
0.0
 11
322.952853
 21
2167.303519
 31
0.0
  0
ENDBLK
  5
67
330
65
100
AcDbEntity
  8
0
100
AcDbBlockEnd
  0
BLOCK
  5
77
330
76
100
AcDbEntity
  8
0
100
AcDbBlockBegin
  2
JZB-4
 70
     0
 10
0.0
 20
0.0
 30
0.0
  3
JZB-4
  1

  0
LINE
  5
79
330
76
100
AcDbEntity
  8
003
 62
     3
370
    30
100
AcDbLine
 10
370.027232
 20
2416.110688
 30
0.0
 11
370.027232
 21
2411.303519
 31
0.0
  0
LINE
  5
7A
330
76
100
AcDbEntity
  8
003
 62
     3
370
    30
100
AcDbLine
 10
368.827232
 20
2416.803508
 30
0.0
 11
356.227232
 21
2416.803508
 31
0.0
  0
LINE
  5
7B
330
76
100
AcDbEntity
  8
003
 62
     3
370
    30
100
AcDbLine
 10
370.027232
 20
2411.303519
 30
0.0
 11
355.027232
 21
2411.303519
 31
0.0
  0
LINE
  5
7C
330
76
100
AcDbEntity
  8
003
 62
     3
370
    30
100
AcDbLine
 10
368.827232
 20
2416.803508
 30
0.0
 11
370.027232
 21
2416.110688
 31
0.0
  0
LINE
  5
7D
330
76
100
AcDbEntity
  8
003
 62
     3
370
    30
100
AcDbLine
 10
356.227232
 20
2416.803508
 30
0.0
 11
355.027232
 21
2416.110688
 31
0.0
  0
LINE
  5
7E
330
76
100
AcDbEntity
  8
003
 62
     3
370
    30
100
AcDbLine
 10
355.027232
 20
2416.110688
 30
0.0
 11
355.027232
 21
2411.303519
 31
0.0
  0
LINE
  5
7F
330
76
100
AcDbEntity
  8
003
 62
     3
370
    30
100
AcDbLine
 10
366.277232
 20
2411.303519
 30
0.0
 11
366.277232
 21
2416.110688
 31
0.0
  0
LINE
  5
80
330
76
100
AcDbEntity
  8
003
 62
     3
370
    30
100
AcDbLine
 10
358.777232
 20
2411.303519
 30
0.0
 11
358.777232
 21
2416.110688
 31
0.0
  0
ARC
  5
81
330
76
100
AcDbEntity
  8
003
 62
     3
370
    30
100
AcDbCircle
 10
356.902232
 20
2413.919914
 30
0.0
 40
2.883593961663502
100
AcDbArc
 50
49.441037
 51
90.0
  0
ARC
  5
82
330
76
100
AcDbEntity
  8
003
 62
     3
370
    30
100
AcDbCircle
 10
368.152232
 20
2413.919914
 30
0.0
 40
2.883593961663502
100
AcDbArc
 50
90.0
 51
130.558963
  0
ARC
  5
83
330
76
100
AcDbEntity
  8
003
 62
     3
370
    30
100
AcDbCircle
 10
362.527232
 20
2406.308363
 30
0.0
 40
10.4951453621126
100
AcDbArc
 50
69.065034
 51
110.934966
  0
LINE
  5
84
330
76
100
AcDbEntity
  8
003
 62
     3
370
    30
100
AcDbLine
 10
362.527227
 20
2411.303508
 30
0.0
 11
362.527227
 21
2411.303519
 31
0.0
  0
LINE
  5
85
330
76
100
AcDbEntity
  8
003
 62
     3
370
    30
100
AcDbLine
 10
362.527227
 20
2411.303508
 30
0.0
 11
362.527238
 21
2411.303508
 31
0.0
  0
LINE
  5
86
330
76
100
AcDbEntity
  8
003
 62
     3
370
    30
100
AcDbLine
 10
362.527238
 20
2411.303508
 30
0.0
 11
362.527238
 21
2411.303519
 31
0.0
  0
ENDBLK
  5
78
330
76
100
AcDbEntity
  8
0
100
AcDbBlockEnd
  0
BLOCK
  5
88
330
87
100
AcDbEntity
  8
0
100
AcDbBlockBegin
  2
JZB-5
 70
     0
 10
0.0
 20
0.0
 30
0.0
  3
JZB-5
  1

  0
LINE
  5
8A
330
87
100
AcDbEntity
  8
003
 62
     3
370
    30
100
AcDbLine
 10
407.504153
 20
2416.110688
 30
0.0
 11
407.504153
 21
2411.303519
 31
0.0
  0
LINE
  5
8B
330
87
100
AcDbEntity
  8
003
 62
     3
370
    30
100
AcDbLine
 10
406.304153
 20
2416.803508
 30
0.0
 11
393.704153
 21
2416.803508
 31
0.0
  0
LINE
  5
8C
330
87
100
AcDbEntity
  8
003
 62
     3
370
    30
100
AcDbLine
 10
407.504153
 20
2411.303519
 30
0.0
 11
392.504153
 21
2411.303519
 31
0.0
  0
LINE
  5
8D
330
87
100
AcDbEntity
  8
003
 62
     3
370
    30
100
AcDbLine
 10
406.304153
 20
2416.803508
 30
0.0
 11
407.504153
 21
2416.110688
 31
0.0
  0
LINE
  5
8E
330
87
100
AcDbEntity
  8
003
 62
     3
370
    30
100
AcDbLine
 10
393.704153
 20
2416.803508
 30
0.0
 11
392.504153
 21
2416.110688
 31
0.0
  0
LINE
  5
8F
330
87
100
AcDbEntity
  8
003
 62
     3
370
    30
100
AcDbLine
 10
392.504153
 20
2416.110688
 30
0.0
 11
392.504153
 21
2411.303519
 31
0.0
  0
LINE
  5
90
330
87
100
AcDbEntity
  8
003
 62
     3
370
    30
100
AcDbLine
 10
403.754153
 20
2411.303519
 30
0.0
 11
403.754153
 21
2416.110688
 31
0.0
  0
LINE
  5
91
330
87
100
AcDbEntity
  8
003
 62
     3
370
    30
100
AcDbLine
 10
396.254153
 20
2411.303519
 30
0.0
 11
396.254153
 21
2416.110688
 31
0.0
  0
ARC
  5
92
330
87
100
AcDbEntity
  8
003
 62
     3
370
    30
100
AcDbCircle
 10
394.379153
 20
2413.919914
 30
0.0
 40
2.883593961663502
100
AcDbArc
 50
49.441037
 51
90.0
  0
ARC
  5
93
330
87
100
AcDbEntity
  8
003
 62
     3
370
    30
100
AcDbCircle
 10
405.629153
 20
2413.919914
 30
0.0
 40
2.883593961663502
100
AcDbArc
 50
90.0
 51
130.558963
  0
ARC
  5
94
330
87
100
AcDbEntity
  8
003
 62
     3
370
    30
100
AcDbCircle
 10
400.004153
 20
2406.308363
 30
0.0
 40
10.4951453621126
100
AcDbArc
 50
69.065034
 51
110.934966
  0
LINE
  5
95
330
87
100
AcDbEntity
  8
003
 62
     3
370
    30
100
AcDbLine
 10
400.004148
 20
2411.303508
 30
0.0
 11
400.004148
 21
2411.303519
 31
0.0
  0
LINE
  5
96
330
87
100
AcDbEntity
  8
003
 62
     3
370
    30
100
AcDbLine
 10
400.004148
 20
2411.303508
 30
0.0
 11
400.004159
 21
2411.303508
 31
0.0
  0
LINE
  5
97
330
87
100
AcDbEntity
  8
003
 62
     3
370
    30
100
AcDbLine
 10
400.004159
 20
2411.303508
 30
0.0
 11
400.004159
 21
2411.303519
 31
0.0
  0
ENDBLK
  5
89
330
87
100
AcDbEntity
  8
0
100
AcDbBlockEnd
  0
BLOCK
  5
99
330
98
100
AcDbEntity
  8
0
100
AcDbBlockBegin
  2
JZB-6
 70
     0
 10
0.0
 20
0.0
 30
0.0
  3
JZB-6
  1

  0
LINE
  5
9B
330
98
100
AcDbEntity
  8
003
 62
     3
370
    30
100
AcDbLine
 10
332.550312
 20
2416.110688
 30
0.0
 11
332.550312
 21
2411.303519
 31
0.0
  0
LINE
  5
9C
330
98
100
AcDbEntity
  8
003
 62
     3
370
    30
100
AcDbLine
 10
331.350312
 20
2416.803508
 30
0.0
 11
318.750312
 21
2416.803508
 31
0.0
  0
LINE
  5
9D
330
98
100
AcDbEntity
  8
003
 62
     3
370
    30
100
AcDbLine
 10
331.350312
 20
2416.803508
 30
0.0
 11
332.550312
 21
2416.110688
 31
0.0
  0
LINE
  5
9E
330
98
100
AcDbEntity
  8
003
 62
     3
370
    30
100
AcDbLine
 10
318.750312
 20
2416.803508
 30
0.0
 11
317.550312
 21
2416.110688
 31
0.0
  0
LINE
  5
9F
330
98
100
AcDbEntity
  8
003
 62
     3
370
    30
100
AcDbLine
 10
328.800312
 20
2411.303519
 30
0.0
 11
328.800312
 21
2416.110688
 31
0.0
  0
ARC
  5
A0
330
98
100
AcDbEntity
  8
003
 62
     3
370
    30
100
AcDbCircle
 10
319.425312
 20
2413.919914
 30
0.0
 40
2.883593961663502
100
AcDbArc
 50
49.441037
 51
90.0
  0
ARC
  5
A1
330
98
100
AcDbEntity
  8
003
 62
     3
370
    30
100
AcDbCircle
 10
330.675312
 20
2413.919914
 30
0.0
 40
2.883593961663502
100
AcDbArc
 50
90.0
 51
130.558963
  0
ARC
  5
A2
330
98
100
AcDbEntity
  8
003
 62
     3
370
    30
100
AcDbCircle
 10
325.050312
 20
2406.308363
 30
0.0
 40
10.4951453621126
100
AcDbArc
 50
69.065034
 51
110.934966
  0
LINE
  5
A3
330
98
100
AcDbEntity
  8
003
 62
     3
370
    30
100
AcDbLine
 10
325.050306
 20
2411.303508
 30
0.0
 11
325.050306
 21
2411.303519
 31
0.0
  0
LINE
  5
A4
330
98
100
AcDbEntity
  8
003
 62
     3
370
    30
100
AcDbLine
 10
325.050306
 20
2411.303508
 30
0.0
 11
325.050317
 21
2411.303508
 31
0.0
  0
LINE
  5
A5
330
98
100
AcDbEntity
  8
003
 62
     3
370
    30
100
AcDbLine
 10
325.050317
 20
2411.303508
 30
0.0
 11
325.050317
 21
2411.303519
 31
0.0
  0
LINE
  5
A6
330
98
100
AcDbEntity
  8
003
 62
     3
370
    30
100
AcDbLine
 10
321.300312
 20
2412.040862
 30
0.0
 11
321.300312
 21
2416.110688
 31
0.0
  0
LINE
  5
A7
330
98
100
AcDbEntity
  8
003
 62
     3
370
    30
100
AcDbLine
 10
317.550312
 20
2416.110688
 30
0.0
 11
317.550312
 21
2413.616395
 31
0.0
  0
LINE
  5
A8
330
98
100
AcDbEntity
  8
003
 62
     3
370
    30
100
AcDbLine
 10
332.550312
 20
2411.303519
 30
0.0
 11
322.952853
 21
2411.303519
 31
0.0
  0
ENDBLK
  5
9A
330
98
100
AcDbEntity
  8
0
100
AcDbBlockEnd
  0
BLOCK
  5
AA
330
A9
100
AcDbEntity
  8
0
100
AcDbBlockBegin
  2
JZB-7
 70
     0
 10
0.0
 20
0.0
 30
0.0
  3
JZB-7
  1

  0
LINE
  5
AC
330
A9
100
AcDbEntity
  8
002
 62
     3
370
    30
100
AcDbLine
 10
356.027446
 20
278.589404
 30
0.0
 11
356.027747
 21
286.094957
 31
0.0
  0
LINE
  5
AD
330
A9
100
AcDbEntity
  8
002
 62
     3
370
    30
100
AcDbLine
 10
369.027446
 20
278.588882
 30
0.0
 11
369.027747
 21
286.094435
 31
0.0
  0
LINE
  5
AE
330
A9
100
AcDbEntity
  8
002
 62
     3
370
    30
100
AcDbLine
 10
362.527295
 20
274.836366
 30
0.0
 11
369.027446
 21
278.588882
 31
0.0
  0
LINE
  5
AF
330
A9
100
AcDbEntity
  8
002
 62
     3
370
    30
100
AcDbLine
 10
362.527898
 20
289.847473
 30
0.0
 11
356.027747
 21
286.094957
 31
0.0
  0
LINE
  5
B0
330
A9
100
AcDbEntity
  8
002
 62
     3
370
    30
100
AcDbLine
 10
369.027747
 20
286.094435
 30
0.0
 11
362.527898
 21
289.847473
 31
0.0
  0
LINE
  5
B1
330
A9
100
AcDbEntity
  8
002
 62
     3
370
    30
100
AcDbLine
 10
356.027446
 20
278.589404
 30
0.0
 11
362.527295
 21
274.836366
 31
0.0
  0
CIRCLE
  5
B2
330
A9
100
AcDbEntity
  8
002
 62
     3
370
    30
100
AcDbCircle
 10
362.527597
 20
282.341919
 30
0.0
 40
6.5
  0
ENDBLK
  5
AB
330
A9
100
AcDbEntity
  8
0
100
AcDbBlockEnd
  0
BLOCK
  5
B4
330
B3
100
AcDbEntity
  8
0
100
AcDbBlockBegin
  2
JZB-8
 70
     0
 10
0.0
 20
0.0
 30
0.0
  3
JZB-8
  1

  0
LINE
  5
B6
330
B3
100
AcDbEntity
  8
002
 62
     3
370
    30
100
AcDbLine
 10
323.107958
 20
259.56911
 30
0.0
 11
317.800943
 21
264.876551
 31
0.0
  0
LINE
  5
B7
330
B3
100
AcDbEntity
  8
002
 62
     3
370
    30
100
AcDbLine
 10
332.300715
 20
268.761129
 30
0.0
 11
326.9937
 21
274.06857
 31
0.0
  0
LINE
  5
B8
330
B3
100
AcDbEntity
  8
002
 62
     3
370
    30
100
AcDbLine
 10
330.357844
 20
261.511399
 30
0.0
 11
332.300715
 21
268.761129
 31
0.0
  0
LINE
  5
B9
330
B3
100
AcDbEntity
  8
002
 62
     3
370
    30
100
AcDbLine
 10
319.743814
 20
272.126281
 30
0.0
 11
317.800943
 21
264.876551
 31
0.0
  0
LINE
  5
BA
330
B3
100
AcDbEntity
  8
002
 62
     3
370
    30
100
AcDbLine
 10
326.9937
 20
274.06857
 30
0.0
 11
319.743814
 21
272.126281
 31
0.0
  0
LINE
  5
BB
330
B3
100
AcDbEntity
  8
002
 62
     3
370
    30
100
AcDbLine
 10
323.107958
 20
259.56911
 30
0.0
 11
330.357844
 21
261.511399
 31
0.0
  0
CIRCLE
  5
BC
330
B3
100
AcDbEntity
  8
002
 62
     3
370
    30
100
AcDbCircle
 10
325.050829
 20
266.81884
 30
0.0
 40
6.5
  0
ENDBLK
  5
B5
330
B3
100
AcDbEntity
  8
0
100
AcDbBlockEnd
  0
BLOCK
  5
BE
330
BD
100
AcDbEntity
  8
0
100
AcDbBlockBegin
  2
JZB-9
 70
     0
 10
0.0
 20
0.0
 30
0.0
  3
JZB-9
  1

  0
LINE
  5
C0
330
BD
100
AcDbEntity
  8
002
 62
     3
370
    30
100
AcDbLine
 10
313.279743
 20
222.842138
 30
0.0
 11
305.774189
 21
222.84244
 31
0.0
  0
LINE
  5
C1
330
BD
100
AcDbEntity
  8
002
 62
     3
370
    30
100
AcDbLine
 10
313.280265
 20
235.842138
 30
0.0
 11
305.774711
 21
235.84244
 31
0.0
  0
LINE
  5
C2
330
BD
100
AcDbEntity
  8
002
 62
     3
370
    30
100
AcDbLine
 10
317.03278
 20
229.341988
 30
0.0
 11
313.280265
 21
235.842138
 31
0.0
  0
LINE
  5
C3
330
BD
100
AcDbEntity
  8
002
 62
     3
370
    30
100
AcDbLine
 10
302.021673
 20
229.342591
 30
0.0
 11
305.774189
 21
222.84244
 31
0.0
  0
LINE
  5
C4
330
BD
100
AcDbEntity
  8
002
 62
     3
370
    30
100
AcDbLine
 10
305.774711
 20
235.84244
 30
0.0
 11
302.021673
 21
229.342591
 31
0.0
  0
LINE
  5
C5
330
BD
100
AcDbEntity
  8
002
 62
     3
370
    30
100
AcDbLine
 10
313.279743
 20
222.842138
 30
0.0
 11
317.03278
 21
229.341988
 31
0.0
  0
CIRCLE
  5
C6
330
BD
100
AcDbEntity
  8
002
 62
     3
370
    30
100
AcDbCircle
 10
309.527227
 20
229.342289
 30
0.0
 40
6.5
  0
ENDBLK
  5
BF
330
BD
100
AcDbEntity
  8
0
100
AcDbBlockEnd
  0
BLOCK
  5
C8
330
C7
100
AcDbEntity
  8
0
100
AcDbBlockBegin
  2
JZB-10
 70
     0
 10
0.0
 20
0.0
 30
0.0
  3
JZB-10
  1

  0
LINE
  5
CA
330
C7
100
AcDbEntity
  8
002
 62
     3
370
    30
100
AcDbLine
 10
332.300036
 20
189.92265
 30
0.0
 11
326.992595
 21
184.615636
 31
0.0
  0
LINE
  5
CB
330
C7
100
AcDbEntity
  8
002
 62
     3
370
    30
100
AcDbLine
 10
323.108017
 20
199.115407
 30
0.0
 11
317.800576
 21
193.808393
 31
0.0
  0
LINE
  5
CC
330
C7
100
AcDbEntity
  8
002
 62
     3
370
    30
100
AcDbLine
 10
330.357747
 20
197.172536
 30
0.0
 11
323.108017
 21
199.115407
 31
0.0
  0
LINE
  5
CD
330
C7
100
AcDbEntity
  8
002
 62
     3
370
    30
100
AcDbLine
 10
319.742865
 20
186.558507
 30
0.0
 11
326.992595
 21
184.615636
 31
0.0
  0
LINE
  5
CE
330
C7
100
AcDbEntity
  8
002
 62
     3
370
    30
100
AcDbLine
 10
317.800576
 20
193.808393
 30
0.0
 11
319.742865
 21
186.558507
 31
0.0
  0
LINE
  5
CF
330
C7
100
AcDbEntity
  8
002
 62
     3
370
    30
100
AcDbLine
 10
332.300036
 20
189.92265
 30
0.0
 11
330.357747
 21
197.172536
 31
0.0
  0
CIRCLE
  5
D0
330
C7
100
AcDbEntity
  8
002
 62
     3
370
    30
100
AcDbCircle
 10
325.050306
 20
191.865521
 30
0.0
 40
6.5
  0
ENDBLK
  5
C9
330
C7
100
AcDbEntity
  8
0
100
AcDbBlockEnd
  0
BLOCK
  5
D2
330
D1
100
AcDbEntity
  8
0
100
AcDbBlockBegin
  2
JZB-11
 70
     0
 10
0.0
 20
0.0
 30
0.0
  3
JZB-11
  1

  0
LINE
  5
D4
330
D1
100
AcDbEntity
  8
002
 62
     3
370
    30
100
AcDbLine
 10
369.027008
 20
180.094435
 30
0.0
 11
369.026706
 21
172.588882
 31
0.0
  0
LINE
  5
D5
330
D1
100
AcDbEntity
  8
002
 62
     3
370
    30
100
AcDbLine
 10
356.027008
 20
180.094957
 30
0.0
 11
356.026706
 21
172.589404
 31
0.0
  0
LINE
  5
D6
330
D1
100
AcDbEntity
  8
002
 62
     3
370
    30
100
AcDbLine
 10
362.527159
 20
183.847473
 30
0.0
 11
356.027008
 21
180.094957
 31
0.0
  0
LINE
  5
D7
330
D1
100
AcDbEntity
  8
002
 62
     3
370
    30
100
AcDbLine
 10
362.526556
 20
168.836366
 30
0.0
 11
369.026706
 21
172.588882
 31
0.0
  0
LINE
  5
D8
330
D1
100
AcDbEntity
  8
002
 62
     3
370
    30
100
AcDbLine
 10
356.026706
 20
172.589404
 30
0.0
 11
362.526556
 21
168.836366
 31
0.0
  0
LINE
  5
D9
330
D1
100
AcDbEntity
  8
002
 62
     3
370
    30
100
AcDbLine
 10
369.027008
 20
180.094435
 30
0.0
 11
362.527159
 21
183.847473
 31
0.0
  0
CIRCLE
  5
DA
330
D1
100
AcDbEntity
  8
002
 62
     3
370
    30
100
AcDbCircle
 10
362.526857
 20
176.341919
 30
0.0
 40
6.5
  0
ENDBLK
  5
D3
330
D1
100
AcDbEntity
  8
0
100
AcDbBlockEnd
  0
BLOCK
  5
DC
330
DB
100
AcDbEntity
  8
0
100
AcDbBlockBegin
  2
JZB-12
 70
     0
 10
0.0
 20
0.0
 30
0.0
  3
JZB-12
  1

  0
LINE
  5
DE
330
DB
100
AcDbEntity
  8
002
 62
     3
370
    30
100
AcDbLine
 10
401.946496
 20
199.114729
 30
0.0
 11
407.253511
 21
193.807288
 31
0.0
  0
LINE
  5
DF
330
DB
100
AcDbEntity
  8
002
 62
     3
370
    30
100
AcDbLine
 10
392.753739
 20
189.92271
 30
0.0
 11
398.060754
 21
184.615269
 31
0.0
  0
LINE
  5
E0
330
DB
100
AcDbEntity
  8
002
 62
     3
370
    30
100
AcDbLine
 10
394.69661
 20
197.17244
 30
0.0
 11
392.753739
 21
189.92271
 31
0.0
  0
LINE
  5
E1
330
DB
100
AcDbEntity
  8
002
 62
     3
370
    30
100
AcDbLine
 10
405.31064
 20
186.557558
 30
0.0
 11
407.253511
 21
193.807288
 31
0.0
  0
LINE
  5
E2
330
DB
100
AcDbEntity
  8
002
 62
     3
370
    30
100
AcDbLine
 10
398.060754
 20
184.615269
 30
0.0
 11
405.31064
 21
186.557558
 31
0.0
  0
LINE
  5
E3
330
DB
100
AcDbEntity
  8
002
 62
     3
370
    30
100
AcDbLine
 10
401.946496
 20
199.114729
 30
0.0
 11
394.69661
 21
197.17244
 31
0.0
  0
CIRCLE
  5
E4
330
DB
100
AcDbEntity
  8
002
 62
     3
370
    30
100
AcDbCircle
 10
400.003625
 20
191.864999
 30
0.0
 40
6.5
  0
ENDBLK
  5
DD
330
DB
100
AcDbEntity
  8
0
100
AcDbBlockEnd
  0
BLOCK
  5
E6
330
E5
100
AcDbEntity
  8
0
100
AcDbBlockBegin
  2
JZB-13
 70
     0
 10
0.0
 20
0.0
 30
0.0
  3
JZB-13
  1

  0
LINE
  5
E8
330
E5
100
AcDbEntity
  8
002
 62
     3
370
    30
100
AcDbLine
 10
392.754418
 20
268.761189
 30
0.0
 11
398.061859
 21
274.068203
 31
0.0
  0
LINE
  5
E9
330
E5
100
AcDbEntity
  8
002
 62
     3
370
    30
100
AcDbLine
 10
401.946437
 20
259.568431
 30
0.0
 11
407.253878
 21
264.875446
 31
0.0
  0
LINE
  5
EA
330
E5
100
AcDbEntity
  8
002
 62
     3
370
    30
100
AcDbLine
 10
394.696707
 20
261.511303
 30
0.0
 11
401.946437
 21
259.568431
 31
0.0
  0
LINE
  5
EB
330
E5
100
AcDbEntity
  8
002
 62
     3
370
    30
100
AcDbLine
 10
405.311589
 20
272.125332
 30
0.0
 11
398.061859
 21
274.068203
 31
0.0
  0
LINE
  5
EC
330
E5
100
AcDbEntity
  8
002
 62
     3
370
    30
100
AcDbLine
 10
407.253878
 20
264.875446
 30
0.0
 11
405.311589
 21
272.125332
 31
0.0
  0
LINE
  5
ED
330
E5
100
AcDbEntity
  8
002
 62
     3
370
    30
100
AcDbLine
 10
392.754418
 20
268.761189
 30
0.0
 11
394.696707
 21
261.511303
 31
0.0
  0
CIRCLE
  5
EE
330
E5
100
AcDbEntity
  8
002
 62
     3
370
    30
100
AcDbCircle
 10
400.004148
 20
266.818317
 30
0.0
 40
6.5
  0
ENDBLK
  5
E7
330
E5
100
AcDbEntity
  8
0
100
AcDbBlockEnd
  0
BLOCK
  5
F0
330
EF
100
AcDbEntity
  8
0
100
AcDbBlockBegin
  2
JZB-14
 70
     0
 10
0.0
 20
0.0
 30
0.0
  3
JZB-14
  1

  0
LINE
  5
F2
330
EF
100
AcDbEntity
  8
002
 62
     3
370
    30
100
AcDbLine
 10
796.027446
 20
278.589404
 30
0.0
 11
796.027747
 21
286.094957
 31
0.0
  0
LINE
  5
F3
330
EF
100
AcDbEntity
  8
002
 62
     3
370
    30
100
AcDbLine
 10
809.027446
 20
278.588882
 30
0.0
 11
809.027747
 21
286.094435
 31
0.0
  0
LINE
  5
F4
330
EF
100
AcDbEntity
  8
002
 62
     3
370
    30
100
AcDbLine
 10
802.527295
 20
274.836366
 30
0.0
 11
809.027446
 21
278.588882
 31
0.0
  0
LINE
  5
F5
330
EF
100
AcDbEntity
  8
002
 62
     3
370
    30
100
AcDbLine
 10
802.527898
 20
289.847473
 30
0.0
 11
796.027747
 21
286.094957
 31
0.0
  0
LINE
  5
F6
330
EF
100
AcDbEntity
  8
002
 62
     3
370
    30
100
AcDbLine
 10
809.027747
 20
286.094435
 30
0.0
 11
802.527898
 21
289.847473
 31
0.0
  0
LINE
  5
F7
330
EF
100
AcDbEntity
  8
002
 62
     3
370
    30
100
AcDbLine
 10
796.027446
 20
278.589404
 30
0.0
 11
802.527295
 21
274.836366
 31
0.0
  0
CIRCLE
  5
F8
330
EF
100
AcDbEntity
  8
002
 62
     3
370
    30
100
AcDbCircle
 10
802.527597
 20
282.341919
 30
0.0
 40
6.5
  0
ENDBLK
  5
F1
330
EF
100
AcDbEntity
  8
0
100
AcDbBlockEnd
  0
BLOCK
  5
FA
330
F9
100
AcDbEntity
  8
0
100
AcDbBlockBegin
  2
JZB-15
 70
     0
 10
0.0
 20
0.0
 30
0.0
  3
JZB-15
  1

  0
LINE
  5
FC
330
F9
100
AcDbEntity
  8
002
 62
     3
370
    30
100
AcDbLine
 10
763.107958
 20
259.56911
 30
0.0
 11
757.800943
 21
264.876551
 31
0.0
  0
LINE
  5
FD
330
F9
100
AcDbEntity
  8
002
 62
     3
370
    30
100
AcDbLine
 10
772.300715
 20
268.761129
 30
0.0
 11
766.9937
 21
274.06857
 31
0.0
  0
LINE
  5
FE
330
F9
100
AcDbEntity
  8
002
 62
     3
370
    30
100
AcDbLine
 10
770.357844
 20
261.511399
 30
0.0
 11
772.300715
 21
268.761129
 31
0.0
  0
LINE
  5
FF
330
F9
100
AcDbEntity
  8
002
 62
     3
370
    30
100
AcDbLine
 10
759.743814
 20
272.126281
 30
0.0
 11
757.800943
 21
264.876551
 31
0.0
  0
LINE
  5
100
330
F9
100
AcDbEntity
  8
002
 62
     3
370
    30
100
AcDbLine
 10
766.9937
 20
274.06857
 30
0.0
 11
759.743814
 21
272.126281
 31
0.0
  0
LINE
  5
101
330
F9
100
AcDbEntity
  8
002
 62
     3
370
    30
100
AcDbLine
 10
763.107958
 20
259.56911
 30
0.0
 11
770.357844
 21
261.511399
 31
0.0
  0
CIRCLE
  5
102
330
F9
100
AcDbEntity
  8
002
 62
     3
370
    30
100
AcDbCircle
 10
765.050829
 20
266.81884
 30
0.0
 40
6.5
  0
ENDBLK
  5
FB
330
F9
100
AcDbEntity
  8
0
100
AcDbBlockEnd
  0
BLOCK
  5
104
330
103
100
AcDbEntity
  8
0
100
AcDbBlockBegin
  2
JZB-16
 70
     0
 10
0.0
 20
0.0
 30
0.0
  3
JZB-16
  1

  0
LINE
  5
106
330
103
100
AcDbEntity
  8
002
 62
     3
370
    30
100
AcDbLine
 10
753.279743
 20
222.842138
 30
0.0
 11
745.774189
 21
222.84244
 31
0.0
  0
LINE
  5
107
330
103
100
AcDbEntity
  8
002
 62
     3
370
    30
100
AcDbLine
 10
753.280265
 20
235.842138
 30
0.0
 11
745.774711
 21
235.84244
 31
0.0
  0
LINE
  5
108
330
103
100
AcDbEntity
  8
002
 62
     3
370
    30
100
AcDbLine
 10
757.03278
 20
229.341988
 30
0.0
 11
753.280265
 21
235.842138
 31
0.0
  0
LINE
  5
109
330
103
100
AcDbEntity
  8
002
 62
     3
370
    30
100
AcDbLine
 10
742.021673
 20
229.342591
 30
0.0
 11
745.774189
 21
222.84244
 31
0.0
  0
LINE
  5
10A
330
103
100
AcDbEntity
  8
002
 62
     3
370
    30
100
AcDbLine
 10
745.774711
 20
235.84244
 30
0.0
 11
742.021673
 21
229.342591
 31
0.0
  0
LINE
  5
10B
330
103
100
AcDbEntity
  8
002
 62
     3
370
    30
100
AcDbLine
 10
753.279743
 20
222.842138
 30
0.0
 11
757.03278
 21
229.341988
 31
0.0
  0
CIRCLE
  5
10C
330
103
100
AcDbEntity
  8
002
 62
     3
370
    30
100
AcDbCircle
 10
749.527227
 20
229.342289
 30
0.0
 40
6.5
  0
ENDBLK
  5
105
330
103
100
AcDbEntity
  8
0
100
AcDbBlockEnd
  0
BLOCK
  5
10E
330
10D
100
AcDbEntity
  8
0
100
AcDbBlockBegin
  2
JZB-17
 70
     0
 10
0.0
 20
0.0
 30
0.0
  3
JZB-17
  1

  0
LINE
  5
110
330
10D
100
AcDbEntity
  8
002
 62
     3
370
    30
100
AcDbLine
 10
772.300036
 20
189.92265
 30
0.0
 11
766.992595
 21
184.615636
 31
0.0
  0
LINE
  5
111
330
10D
100
AcDbEntity
  8
002
 62
     3
370
    30
100
AcDbLine
 10
763.108017
 20
199.115407
 30
0.0
 11
757.800576
 21
193.808393
 31
0.0
  0
LINE
  5
112
330
10D
100
AcDbEntity
  8
002
 62
     3
370
    30
100
AcDbLine
 10
770.357747
 20
197.172536
 30
0.0
 11
763.108017
 21
199.115407
 31
0.0
  0
LINE
  5
113
330
10D
100
AcDbEntity
  8
002
 62
     3
370
    30
100
AcDbLine
 10
759.742865
 20
186.558507
 30
0.0
 11
766.992595
 21
184.615636
 31
0.0
  0
LINE
  5
114
330
10D
100
AcDbEntity
  8
002
 62
     3
370
    30
100
AcDbLine
 10
757.800576
 20
193.808393
 30
0.0
 11
759.742865
 21
186.558507
 31
0.0
  0
LINE
  5
115
330
10D
100
AcDbEntity
  8
002
 62
     3
370
    30
100
AcDbLine
 10
772.300036
 20
189.92265
 30
0.0
 11
770.357747
 21
197.172536
 31
0.0
  0
CIRCLE
  5
116
330
10D
100
AcDbEntity
  8
002
 62
     3
370
    30
100
AcDbCircle
 10
765.050306
 20
191.865521
 30
0.0
 40
6.5
  0
ENDBLK
  5
10F
330
10D
100
AcDbEntity
  8
0
100
AcDbBlockEnd
  0
BLOCK
  5
118
330
117
100
AcDbEntity
  8
0
100
AcDbBlockBegin
  2
JZB-18
 70
     0
 10
0.0
 20
0.0
 30
0.0
  3
JZB-18
  1

  0
LINE
  5
11A
330
117
100
AcDbEntity
  8
002
 62
     3
370
    30
100
AcDbLine
 10
809.027008
 20
180.094435
 30
0.0
 11
809.026706
 21
172.588882
 31
0.0
  0
LINE
  5
11B
330
117
100
AcDbEntity
  8
002
 62
     3
370
    30
100
AcDbLine
 10
796.027008
 20
180.094957
 30
0.0
 11
796.026706
 21
172.589404
 31
0.0
  0
LINE
  5
11C
330
117
100
AcDbEntity
  8
002
 62
     3
370
    30
100
AcDbLine
 10
802.527159
 20
183.847473
 30
0.0
 11
796.027008
 21
180.094957
 31
0.0
  0
LINE
  5
11D
330
117
100
AcDbEntity
  8
002
 62
     3
370
    30
100
AcDbLine
 10
802.526556
 20
168.836366
 30
0.0
 11
809.026706
 21
172.588882
 31
0.0
  0
LINE
  5
11E
330
117
100
AcDbEntity
  8
002
 62
     3
370
    30
100
AcDbLine
 10
796.026706
 20
172.589404
 30
0.0
 11
802.526556
 21
168.836366
 31
0.0
  0
LINE
  5
11F
330
117
100
AcDbEntity
  8
002
 62
     3
370
    30
100
AcDbLine
 10
809.027008
 20
180.094435
 30
0.0
 11
802.527159
 21
183.847473
 31
0.0
  0
CIRCLE
  5
120
330
117
100
AcDbEntity
  8
002
 62
     3
370
    30
100
AcDbCircle
 10
802.526857
 20
176.341919
 30
0.0
 40
6.5
  0
ENDBLK
  5
119
330
117
100
AcDbEntity
  8
0
100
AcDbBlockEnd
  0
BLOCK
  5
122
330
121
100
AcDbEntity
  8
0
100
AcDbBlockBegin
  2
JZB-19
 70
     0
 10
0.0
 20
0.0
 30
0.0
  3
JZB-19
  1

  0
LINE
  5
124
330
121
100
AcDbEntity
  8
002
 62
     3
370
    30
100
AcDbLine
 10
841.946496
 20
199.114729
 30
0.0
 11
847.253511
 21
193.807288
 31
0.0
  0
LINE
  5
125
330
121
100
AcDbEntity
  8
002
 62
     3
370
    30
100
AcDbLine
 10
832.753739
 20
189.92271
 30
0.0
 11
838.060754
 21
184.615269
 31
0.0
  0
LINE
  5
126
330
121
100
AcDbEntity
  8
002
 62
     3
370
    30
100
AcDbLine
 10
834.69661
 20
197.17244
 30
0.0
 11
832.753739
 21
189.92271
 31
0.0
  0
LINE
  5
127
330
121
100
AcDbEntity
  8
002
 62
     3
370
    30
100
AcDbLine
 10
845.31064
 20
186.557558
 30
0.0
 11
847.253511
 21
193.807288
 31
0.0
  0
LINE
  5
128
330
121
100
AcDbEntity
  8
002
 62
     3
370
    30
100
AcDbLine
 10
838.060754
 20
184.615269
 30
0.0
 11
845.31064
 21
186.557558
 31
0.0
  0
LINE
  5
129
330
121
100
AcDbEntity
  8
002
 62
     3
370
    30
100
AcDbLine
 10
841.946496
 20
199.114729
 30
0.0
 11
834.69661
 21
197.17244
 31
0.0
  0
CIRCLE
  5
12A
330
121
100
AcDbEntity
  8
002
 62
     3
370
    30
100
AcDbCircle
 10
840.003625
 20
191.864999
 30
0.0
 40
6.5
  0
ENDBLK
  5
123
330
121
100
AcDbEntity
  8
0
100
AcDbBlockEnd
  0
BLOCK
  5
12C
330
12B
100
AcDbEntity
  8
0
100
AcDbBlockBegin
  2
JZB-20
 70
     0
 10
0.0
 20
0.0
 30
0.0
  3
JZB-20
  1

  0
LINE
  5
12E
330
12B
100
AcDbEntity
  8
002
 62
     3
370
    30
100
AcDbLine
 10
832.754418
 20
268.761189
 30
0.0
 11
838.061859
 21
274.068203
 31
0.0
  0
LINE
  5
12F
330
12B
100
AcDbEntity
  8
002
 62
     3
370
    30
100
AcDbLine
 10
841.946437
 20
259.568431
 30
0.0
 11
847.253878
 21
264.875446
 31
0.0
  0
LINE
  5
130
330
12B
100
AcDbEntity
  8
002
 62
     3
370
    30
100
AcDbLine
 10
834.696707
 20
261.511303
 30
0.0
 11
841.946437
 21
259.568431
 31
0.0
  0
LINE
  5
131
330
12B
100
AcDbEntity
  8
002
 62
     3
370
    30
100
AcDbLine
 10
845.311589
 20
272.125332
 30
0.0
 11
838.061859
 21
274.068203
 31
0.0
  0
LINE
  5
132
330
12B
100
AcDbEntity
  8
002
 62
     3
370
    30
100
AcDbLine
 10
847.253878
 20
264.875446
 30
0.0
 11
845.311589
 21
272.125332
 31
0.0
  0
LINE
  5
133
330
12B
100
AcDbEntity
  8
002
 62
     3
370
    30
100
AcDbLine
 10
832.754418
 20
268.761189
 30
0.0
 11
834.696707
 21
261.511303
 31
0.0
  0
CIRCLE
  5
134
330
12B
100
AcDbEntity
  8
002
 62
     3
370
    30
100
AcDbCircle
 10
840.004148
 20
266.818317
 30
0.0
 40
6.5
  0
ENDBLK
  5
12D
330
12B
100
AcDbEntity
  8
0
100
AcDbBlockEnd
  0
BLOCK
  5
136
330
135
100
AcDbEntity
  8
0
100
AcDbBlockBegin
  2
JZB-21
 70
     0
 10
0.0
 20
0.0
 30
0.0
  3
JZB-21
  1

  0
LINE
  5
138
330
135
100
AcDbEntity
  8
002
 62
     3
370
    30
100
AcDbLine
 10
1274.735827
 20
923.213188
 30
0.0
 11
1274.736129
 21
930.718742
 31
0.0
  0
LINE
  5
139
330
135
100
AcDbEntity
  8
002
 62
     3
370
    30
100
AcDbLine
 10
1287.735827
 20
923.212666
 30
0.0
 11
1287.736129
 21
930.71822
 31
0.0
  0
LINE
  5
13A
330
135
100
AcDbEntity
  8
002
 62
     3
370
    30
100
AcDbLine
 10
1281.235677
 20
919.46015
 30
0.0
 11
1287.735827
 21
923.212666
 31
0.0
  0
LINE
  5
13B
330
135
100
AcDbEntity
  8
002
 62
     3
370
    30
100
AcDbLine
 10
1281.23628
 20
934.471257
 30
0.0
 11
1274.736129
 21
930.718742
 31
0.0
  0
LINE
  5
13C
330
135
100
AcDbEntity
  8
002
 62
     3
370
    30
100
AcDbLine
 10
1287.736129
 20
930.71822
 30
0.0
 11
1281.23628
 21
934.471257
 31
0.0
  0
LINE
  5
13D
330
135
100
AcDbEntity
  8
002
 62
     3
370
    30
100
AcDbLine
 10
1274.735827
 20
923.213188
 30
0.0
 11
1281.235677
 21
919.46015
 31
0.0
  0
CIRCLE
  5
13E
330
135
100
AcDbEntity
  8
002
 62
     3
370
    30
100
AcDbCircle
 10
1281.235978
 20
926.965704
 30
0.0
 40
6.5
  0
ENDBLK
  5
137
330
135
100
AcDbEntity
  8
0
100
AcDbBlockEnd
  0
BLOCK
  5
140
330
13F
100
AcDbEntity
  8
0
100
AcDbBlockBegin
  2
JZB-22
 70
     0
 10
0.0
 20
0.0
 30
0.0
  3
JZB-22
  1

  0
LINE
  5
142
330
13F
100
AcDbEntity
  8
002
 62
     3
370
    30
100
AcDbLine
 10
1241.816339
 20
904.192895
 30
0.0
 11
1236.509324
 21
909.500336
 31
0.0
  0
LINE
  5
143
330
13F
100
AcDbEntity
  8
002
 62
     3
370
    30
100
AcDbLine
 10
1251.009096
 20
913.384914
 30
0.0
 11
1245.702082
 21
918.692355
 31
0.0
  0
LINE
  5
144
330
13F
100
AcDbEntity
  8
002
 62
     3
370
    30
100
AcDbLine
 10
1249.066225
 20
906.135184
 30
0.0
 11
1251.009096
 21
913.384914
 31
0.0
  0
LINE
  5
145
330
13F
100
AcDbEntity
  8
002
 62
     3
370
    30
100
AcDbLine
 10
1238.452196
 20
916.750066
 30
0.0
 11
1236.509324
 21
909.500336
 31
0.0
  0
LINE
  5
146
330
13F
100
AcDbEntity
  8
002
 62
     3
370
    30
100
AcDbLine
 10
1245.702082
 20
918.692355
 30
0.0
 11
1238.452196
 21
916.750066
 31
0.0
  0
LINE
  5
147
330
13F
100
AcDbEntity
  8
002
 62
     3
370
    30
100
AcDbLine
 10
1241.816339
 20
904.192895
 30
0.0
 11
1249.066225
 21
906.135184
 31
0.0
  0
CIRCLE
  5
148
330
13F
100
AcDbEntity
  8
002
 62
     3
370
    30
100
AcDbCircle
 10
1243.75921
 20
911.442625
 30
0.0
 40
6.5
  0
ENDBLK
  5
141
330
13F
100
AcDbEntity
  8
0
100
AcDbBlockEnd
  0
BLOCK
  5
14A
330
149
100
AcDbEntity
  8
0
100
AcDbBlockBegin
  2
JZB-23
 70
     0
 10
0.0
 20
0.0
 30
0.0
  3
JZB-23
  1

  0
LINE
  5
14C
330
149
100
AcDbEntity
  8
002
 62
     3
370
    30
100
AcDbLine
 10
1231.988124
 20
867.465923
 30
0.0
 11
1224.482571
 21
867.466224
 31
0.0
  0
LINE
  5
14D
330
149
100
AcDbEntity
  8
002
 62
     3
370
    30
100
AcDbLine
 10
1231.988646
 20
880.465923
 30
0.0
 11
1224.483093
 21
880.466224
 31
0.0
  0
LINE
  5
14E
330
149
100
AcDbEntity
  8
002
 62
     3
370
    30
100
AcDbLine
 10
1235.741162
 20
873.965772
 30
0.0
 11
1231.988646
 21
880.465923
 31
0.0
  0
LINE
  5
14F
330
149
100
AcDbEntity
  8
002
 62
     3
370
    30
100
AcDbLine
 10
1220.730055
 20
873.966375
 30
0.0
 11
1224.482571
 21
867.466224
 31
0.0
  0
LINE
  5
150
330
149
100
AcDbEntity
  8
002
 62
     3
370
    30
100
AcDbLine
 10
1224.483093
 20
880.466224
 30
0.0
 11
1220.730055
 21
873.966375
 31
0.0
  0
LINE
  5
151
330
149
100
AcDbEntity
  8
002
 62
     3
370
    30
100
AcDbLine
 10
1231.988124
 20
867.465923
 30
0.0
 11
1235.741162
 21
873.965772
 31
0.0
  0
CIRCLE
  5
152
330
149
100
AcDbEntity
  8
002
 62
     3
370
    30
100
AcDbCircle
 10
1228.235608
 20
873.966074
 30
0.0
 40
6.5
  0
ENDBLK
  5
14B
330
149
100
AcDbEntity
  8
0
100
AcDbBlockEnd
  0
BLOCK
  5
154
330
153
100
AcDbEntity
  8
0
100
AcDbBlockBegin
  2
JZB-24
 70
     0
 10
0.0
 20
0.0
 30
0.0
  3
JZB-24
  1

  0
LINE
  5
156
330
153
100
AcDbEntity
  8
002
 62
     3
370
    30
100
AcDbLine
 10
1251.008418
 20
834.546435
 30
0.0
 11
1245.700977
 21
829.23942
 31
0.0
  0
LINE
  5
157
330
153
100
AcDbEntity
  8
002
 62
     3
370
    30
100
AcDbLine
 10
1241.816399
 20
843.739192
 30
0.0
 11
1236.508958
 21
838.432177
 31
0.0
  0
LINE
  5
158
330
153
100
AcDbEntity
  8
002
 62
     3
370
    30
100
AcDbLine
 10
1249.066129
 20
841.796321
 30
0.0
 11
1241.816399
 21
843.739192
 31
0.0
  0
LINE
  5
159
330
153
100
AcDbEntity
  8
002
 62
     3
370
    30
100
AcDbLine
 10
1238.451247
 20
831.182291
 30
0.0
 11
1245.700977
 21
829.23942
 31
0.0
  0
LINE
  5
15A
330
153
100
AcDbEntity
  8
002
 62
     3
370
    30
100
AcDbLine
 10
1236.508958
 20
838.432177
 30
0.0
 11
1238.451247
 21
831.182291
 31
0.0
  0
LINE
  5
15B
330
153
100
AcDbEntity
  8
002
 62
     3
370
    30
100
AcDbLine
 10
1251.008418
 20
834.546435
 30
0.0
 11
1249.066129
 21
841.796321
 31
0.0
  0
CIRCLE
  5
15C
330
153
100
AcDbEntity
  8
002
 62
     3
370
    30
100
AcDbCircle
 10
1243.758688
 20
836.489306
 30
0.0
 40
6.5
  0
ENDBLK
  5
155
330
153
100
AcDbEntity
  8
0
100
AcDbBlockEnd
  0
BLOCK
  5
15E
330
15D
100
AcDbEntity
  8
0
100
AcDbBlockBegin
  2
JZB-25
 70
     0
 10
0.0
 20
0.0
 30
0.0
  3
JZB-25
  1

  0
LINE
  5
160
330
15D
100
AcDbEntity
  8
002
 62
     3
370
    30
100
AcDbLine
 10
1287.735389
 20
824.71822
 30
0.0
 11
1287.735088
 21
817.212666
 31
0.0
  0
LINE
  5
161
330
15D
100
AcDbEntity
  8
002
 62
     3
370
    30
100
AcDbLine
 10
1274.735389
 20
824.718742
 30
0.0
 11
1274.735088
 21
817.213188
 31
0.0
  0
LINE
  5
162
330
15D
100
AcDbEntity
  8
002
 62
     3
370
    30
100
AcDbLine
 10
1281.23554
 20
828.471257
 30
0.0
 11
1274.735389
 21
824.718742
 31
0.0
  0
LINE
  5
163
330
15D
100
AcDbEntity
  8
002
 62
     3
370
    30
100
AcDbLine
 10
1281.234937
 20
813.46015
 30
0.0
 11
1287.735088
 21
817.212666
 31
0.0
  0
LINE
  5
164
330
15D
100
AcDbEntity
  8
002
 62
     3
370
    30
100
AcDbLine
 10
1274.735088
 20
817.213188
 30
0.0
 11
1281.234937
 21
813.46015
 31
0.0
  0
LINE
  5
165
330
15D
100
AcDbEntity
  8
002
 62
     3
370
    30
100
AcDbLine
 10
1287.735389
 20
824.71822
 30
0.0
 11
1281.23554
 21
828.471257
 31
0.0
  0
CIRCLE
  5
166
330
15D
100
AcDbEntity
  8
002
 62
     3
370
    30
100
AcDbCircle
 10
1281.235239
 20
820.965704
 30
0.0
 40
6.5
  0
ENDBLK
  5
15F
330
15D
100
AcDbEntity
  8
0
100
AcDbBlockEnd
  0
BLOCK
  5
168
330
167
100
AcDbEntity
  8
0
100
AcDbBlockBegin
  2
JZB-26
 70
     0
 10
0.0
 20
0.0
 30
0.0
  3
JZB-26
  1

  0
LINE
  5
16A
330
167
100
AcDbEntity
  8
002
 62
     3
370
    30
100
AcDbLine
 10
1320.654878
 20
843.738513
 30
0.0
 11
1325.961892
 21
838.431072
 31
0.0
  0
LINE
  5
16B
330
167
100
AcDbEntity
  8
002
 62
     3
370
    30
100
AcDbLine
 10
1311.46212
 20
834.546494
 30
0.0
 11
1316.769135
 21
829.239053
 31
0.0
  0
LINE
  5
16C
330
167
100
AcDbEntity
  8
002
 62
     3
370
    30
100
AcDbLine
 10
1313.404992
 20
841.796224
 30
0.0
 11
1311.46212
 21
834.546494
 31
0.0
  0
LINE
  5
16D
330
167
100
AcDbEntity
  8
002
 62
     3
370
    30
100
AcDbLine
 10
1324.019021
 20
831.181342
 30
0.0
 11
1325.961892
 21
838.431072
 31
0.0
  0
LINE
  5
16E
330
167
100
AcDbEntity
  8
002
 62
     3
370
    30
100
AcDbLine
 10
1316.769135
 20
829.239053
 30
0.0
 11
1324.019021
 21
831.181342
 31
0.0
  0
LINE
  5
16F
330
167
100
AcDbEntity
  8
002
 62
     3
370
    30
100
AcDbLine
 10
1320.654878
 20
843.738513
 30
0.0
 11
1313.404992
 21
841.796224
 31
0.0
  0
CIRCLE
  5
170
330
167
100
AcDbEntity
  8
002
 62
     3
370
    30
100
AcDbCircle
 10
1318.712006
 20
836.488783
 30
0.0
 40
6.5
  0
ENDBLK
  5
169
330
167
100
AcDbEntity
  8
0
100
AcDbBlockEnd
  0
BLOCK
  5
172
330
171
100
AcDbEntity
  8
0
100
AcDbBlockBegin
  2
JZB-27
 70
     0
 10
0.0
 20
0.0
 30
0.0
  3
JZB-27
  1

  0
LINE
  5
174
330
171
100
AcDbEntity
  8
002
 62
     3
370
    30
100
AcDbLine
 10
1311.462799
 20
913.384973
 30
0.0
 11
1316.77024
 21
918.691988
 31
0.0
  0
LINE
  5
175
330
171
100
AcDbEntity
  8
002
 62
     3
370
    30
100
AcDbLine
 10
1320.654818
 20
904.192216
 30
0.0
 11
1325.962259
 21
909.499231
 31
0.0
  0
LINE
  5
176
330
171
100
AcDbEntity
  8
002
 62
     3
370
    30
100
AcDbLine
 10
1313.405088
 20
906.135087
 30
0.0
 11
1320.654818
 21
904.192216
 31
0.0
  0
LINE
  5
177
330
171
100
AcDbEntity
  8
002
 62
     3
370
    30
100
AcDbLine
 10
1324.01997
 20
916.749117
 30
0.0
 11
1316.77024
 21
918.691988
 31
0.0
  0
LINE
  5
178
330
171
100
AcDbEntity
  8
002
 62
     3
370
    30
100
AcDbLine
 10
1325.962259
 20
909.499231
 30
0.0
 11
1324.01997
 21
916.749117
 31
0.0
  0
LINE
  5
179
330
171
100
AcDbEntity
  8
002
 62
     3
370
    30
100
AcDbLine
 10
1311.462799
 20
913.384973
 30
0.0
 11
1313.405088
 21
906.135087
 31
0.0
  0
CIRCLE
  5
17A
330
171
100
AcDbEntity
  8
002
 62
     3
370
    30
100
AcDbCircle
 10
1318.712529
 20
911.442102
 30
0.0
 40
6.5
  0
ENDBLK
  5
173
330
171
100
AcDbEntity
  8
0
100
AcDbBlockEnd
  0
BLOCK
  5
17C
330
17B
100
AcDbEntity
  8
0
100
AcDbBlockBegin
  2
JZB-28
 70
     0
 10
0.0
 20
0.0
 30
0.0
  3
JZB-28
  1

  0
LINE
  5
17E
330
17B
100
AcDbEntity
  8
002
 62
     3
370
    30
100
AcDbLine
 10
1704.735827
 20
923.213188
 30
0.0
 11
1704.736129
 21
930.718742
 31
0.0
  0
LINE
  5
17F
330
17B
100
AcDbEntity
  8
002
 62
     3
370
    30
100
AcDbLine
 10
1717.735827
 20
923.212666
 30
0.0
 11
1717.736129
 21
930.71822
 31
0.0
  0
LINE
  5
180
330
17B
100
AcDbEntity
  8
002
 62
     3
370
    30
100
AcDbLine
 10
1711.235677
 20
919.46015
 30
0.0
 11
1717.735827
 21
923.212666
 31
0.0
  0
LINE
  5
181
330
17B
100
AcDbEntity
  8
002
 62
     3
370
    30
100
AcDbLine
 10
1711.23628
 20
934.471257
 30
0.0
 11
1704.736129
 21
930.718742
 31
0.0
  0
LINE
  5
182
330
17B
100
AcDbEntity
  8
002
 62
     3
370
    30
100
AcDbLine
 10
1717.736129
 20
930.71822
 30
0.0
 11
1711.23628
 21
934.471257
 31
0.0
  0
LINE
  5
183
330
17B
100
AcDbEntity
  8
002
 62
     3
370
    30
100
AcDbLine
 10
1704.735827
 20
923.213188
 30
0.0
 11
1711.235677
 21
919.46015
 31
0.0
  0
CIRCLE
  5
184
330
17B
100
AcDbEntity
  8
002
 62
     3
370
    30
100
AcDbCircle
 10
1711.235978
 20
926.965704
 30
0.0
 40
6.5
  0
ENDBLK
  5
17D
330
17B
100
AcDbEntity
  8
0
100
AcDbBlockEnd
  0
BLOCK
  5
186
330
185
100
AcDbEntity
  8
0
100
AcDbBlockBegin
  2
JZB-29
 70
     0
 10
0.0
 20
0.0
 30
0.0
  3
JZB-29
  1

  0
LINE
  5
188
330
185
100
AcDbEntity
  8
002
 62
     3
370
    30
100
AcDbLine
 10
1671.816339
 20
904.192895
 30
0.0
 11
1666.509324
 21
909.500336
 31
0.0
  0
LINE
  5
189
330
185
100
AcDbEntity
  8
002
 62
     3
370
    30
100
AcDbLine
 10
1681.009096
 20
913.384914
 30
0.0
 11
1675.702082
 21
918.692355
 31
0.0
  0
LINE
  5
18A
330
185
100
AcDbEntity
  8
002
 62
     3
370
    30
100
AcDbLine
 10
1679.066225
 20
906.135184
 30
0.0
 11
1681.009096
 21
913.384914
 31
0.0
  0
LINE
  5
18B
330
185
100
AcDbEntity
  8
002
 62
     3
370
    30
100
AcDbLine
 10
1668.452196
 20
916.750066
 30
0.0
 11
1666.509324
 21
909.500336
 31
0.0
  0
LINE
  5
18C
330
185
100
AcDbEntity
  8
002
 62
     3
370
    30
100
AcDbLine
 10
1675.702082
 20
918.692355
 30
0.0
 11
1668.452196
 21
916.750066
 31
0.0
  0
LINE
  5
18D
330
185
100
AcDbEntity
  8
002
 62
     3
370
    30
100
AcDbLine
 10
1671.816339
 20
904.192895
 30
0.0
 11
1679.066225
 21
906.135184
 31
0.0
  0
CIRCLE
  5
18E
330
185
100
AcDbEntity
  8
002
 62
     3
370
    30
100
AcDbCircle
 10
1673.75921
 20
911.442625
 30
0.0
 40
6.5
  0
ENDBLK
  5
187
330
185
100
AcDbEntity
  8
0
100
AcDbBlockEnd
  0
BLOCK
  5
190
330
18F
100
AcDbEntity
  8
0
100
AcDbBlockBegin
  2
JZB-30
 70
     0
 10
0.0
 20
0.0
 30
0.0
  3
JZB-30
  1

  0
LINE
  5
192
330
18F
100
AcDbEntity
  8
002
 62
     3
370
    30
100
AcDbLine
 10
1661.988124
 20
867.465923
 30
0.0
 11
1654.482571
 21
867.466224
 31
0.0
  0
LINE
  5
193
330
18F
100
AcDbEntity
  8
002
 62
     3
370
    30
100
AcDbLine
 10
1661.988646
 20
880.465923
 30
0.0
 11
1654.483093
 21
880.466224
 31
0.0
  0
LINE
  5
194
330
18F
100
AcDbEntity
  8
002
 62
     3
370
    30
100
AcDbLine
 10
1665.741162
 20
873.965772
 30
0.0
 11
1661.988646
 21
880.465923
 31
0.0
  0
LINE
  5
195
330
18F
100
AcDbEntity
  8
002
 62
     3
370
    30
100
AcDbLine
 10
1650.730055
 20
873.966375
 30
0.0
 11
1654.482571
 21
867.466224
 31
0.0
  0
LINE
  5
196
330
18F
100
AcDbEntity
  8
002
 62
     3
370
    30
100
AcDbLine
 10
1654.483093
 20
880.466224
 30
0.0
 11
1650.730055
 21
873.966375
 31
0.0
  0
LINE
  5
197
330
18F
100
AcDbEntity
  8
002
 62
     3
370
    30
100
AcDbLine
 10
1661.988124
 20
867.465923
 30
0.0
 11
1665.741162
 21
873.965772
 31
0.0
  0
CIRCLE
  5
198
330
18F
100
AcDbEntity
  8
002
 62
     3
370
    30
100
AcDbCircle
 10
1658.235608
 20
873.966074
 30
0.0
 40
6.5
  0
ENDBLK
  5
191
330
18F
100
AcDbEntity
  8
0
100
AcDbBlockEnd
  0
BLOCK
  5
19A
330
199
100
AcDbEntity
  8
0
100
AcDbBlockBegin
  2
JZB-31
 70
     0
 10
0.0
 20
0.0
 30
0.0
  3
JZB-31
  1

  0
LINE
  5
19C
330
199
100
AcDbEntity
  8
002
 62
     3
370
    30
100
AcDbLine
 10
1681.008418
 20
834.546435
 30
0.0
 11
1675.700977
 21
829.23942
 31
0.0
  0
LINE
  5
19D
330
199
100
AcDbEntity
  8
002
 62
     3
370
    30
100
AcDbLine
 10
1671.816399
 20
843.739192
 30
0.0
 11
1666.508958
 21
838.432177
 31
0.0
  0
LINE
  5
19E
330
199
100
AcDbEntity
  8
002
 62
     3
370
    30
100
AcDbLine
 10
1679.066129
 20
841.796321
 30
0.0
 11
1671.816399
 21
843.739192
 31
0.0
  0
LINE
  5
19F
330
199
100
AcDbEntity
  8
002
 62
     3
370
    30
100
AcDbLine
 10
1668.451247
 20
831.182291
 30
0.0
 11
1675.700977
 21
829.23942
 31
0.0
  0
LINE
  5
1A0
330
199
100
AcDbEntity
  8
002
 62
     3
370
    30
100
AcDbLine
 10
1666.508958
 20
838.432177
 30
0.0
 11
1668.451247
 21
831.182291
 31
0.0
  0
LINE
  5
1A1
330
199
100
AcDbEntity
  8
002
 62
     3
370
    30
100
AcDbLine
 10
1681.008418
 20
834.546435
 30
0.0
 11
1679.066129
 21
841.796321
 31
0.0
  0
CIRCLE
  5
1A2
330
199
100
AcDbEntity
  8
002
 62
     3
370
    30
100
AcDbCircle
 10
1673.758688
 20
836.489306
 30
0.0
 40
6.5
  0
ENDBLK
  5
19B
330
199
100
AcDbEntity
  8
0
100
AcDbBlockEnd
  0
BLOCK
  5
1A4
330
1A3
100
AcDbEntity
  8
0
100
AcDbBlockBegin
  2
JZB-32
 70
     0
 10
0.0
 20
0.0
 30
0.0
  3
JZB-32
  1

  0
LINE
  5
1A6
330
1A3
100
AcDbEntity
  8
002
 62
     3
370
    30
100
AcDbLine
 10
1717.735389
 20
824.71822
 30
0.0
 11
1717.735088
 21
817.212666
 31
0.0
  0
LINE
  5
1A7
330
1A3
100
AcDbEntity
  8
002
 62
     3
370
    30
100
AcDbLine
 10
1704.735389
 20
824.718742
 30
0.0
 11
1704.735088
 21
817.213188
 31
0.0
  0
LINE
  5
1A8
330
1A3
100
AcDbEntity
  8
002
 62
     3
370
    30
100
AcDbLine
 10
1711.23554
 20
828.471257
 30
0.0
 11
1704.735389
 21
824.718742
 31
0.0
  0
LINE
  5
1A9
330
1A3
100
AcDbEntity
  8
002
 62
     3
370
    30
100
AcDbLine
 10
1711.234937
 20
813.46015
 30
0.0
 11
1717.735088
 21
817.212666
 31
0.0
  0
LINE
  5
1AA
330
1A3
100
AcDbEntity
  8
002
 62
     3
370
    30
100
AcDbLine
 10
1704.735088
 20
817.213188
 30
0.0
 11
1711.234937
 21
813.46015
 31
0.0
  0
LINE
  5
1AB
330
1A3
100
AcDbEntity
  8
002
 62
     3
370
    30
100
AcDbLine
 10
1717.735389
 20
824.71822
 30
0.0
 11
1711.23554
 21
828.471257
 31
0.0
  0
CIRCLE
  5
1AC
330
1A3
100
AcDbEntity
  8
002
 62
     3
370
    30
100
AcDbCircle
 10
1711.235239
 20
820.965704
 30
0.0
 40
6.5
  0
ENDBLK
  5
1A5
330
1A3
100
AcDbEntity
  8
0
100
AcDbBlockEnd
  0
BLOCK
  5
1AE
330
1AD
100
AcDbEntity
  8
0
100
AcDbBlockBegin
  2
JZB-33
 70
     0
 10
0.0
 20
0.0
 30
0.0
  3
JZB-33
  1

  0
LINE
  5
1B0
330
1AD
100
AcDbEntity
  8
002
 62
     3
370
    30
100
AcDbLine
 10
1750.654878
 20
843.738513
 30
0.0
 11
1755.961892
 21
838.431072
 31
0.0
  0
LINE
  5
1B1
330
1AD
100
AcDbEntity
  8
002
 62
     3
370
    30
100
AcDbLine
 10
1741.46212
 20
834.546494
 30
0.0
 11
1746.769135
 21
829.239053
 31
0.0
  0
LINE
  5
1B2
330
1AD
100
AcDbEntity
  8
002
 62
     3
370
    30
100
AcDbLine
 10
1743.404992
 20
841.796224
 30
0.0
 11
1741.46212
 21
834.546494
 31
0.0
  0
LINE
  5
1B3
330
1AD
100
AcDbEntity
  8
002
 62
     3
370
    30
100
AcDbLine
 10
1754.019021
 20
831.181342
 30
0.0
 11
1755.961892
 21
838.431072
 31
0.0
  0
LINE
  5
1B4
330
1AD
100
AcDbEntity
  8
002
 62
     3
370
    30
100
AcDbLine
 10
1746.769135
 20
829.239053
 30
0.0
 11
1754.019021
 21
831.181342
 31
0.0
  0
LINE
  5
1B5
330
1AD
100
AcDbEntity
  8
002
 62
     3
370
    30
100
AcDbLine
 10
1750.654878
 20
843.738513
 30
0.0
 11
1743.404992
 21
841.796224
 31
0.0
  0
CIRCLE
  5
1B6
330
1AD
100
AcDbEntity
  8
002
 62
     3
370
    30
100
AcDbCircle
 10
1748.712006
 20
836.488783
 30
0.0
 40
6.5
  0
ENDBLK
  5
1AF
330
1AD
100
AcDbEntity
  8
0
100
AcDbBlockEnd
  0
BLOCK
  5
1B8
330
1B7
100
AcDbEntity
  8
0
100
AcDbBlockBegin
  2
JZB-34
 70
     0
 10
0.0
 20
0.0
 30
0.0
  3
JZB-34
  1

  0
LINE
  5
1BA
330
1B7
100
AcDbEntity
  8
002
 62
     3
370
    30
100
AcDbLine
 10
1741.462799
 20
913.384973
 30
0.0
 11
1746.77024
 21
918.691988
 31
0.0
  0
LINE
  5
1BB
330
1B7
100
AcDbEntity
  8
002
 62
     3
370
    30
100
AcDbLine
 10
1750.654818
 20
904.192216
 30
0.0
 11
1755.962259
 21
909.499231
 31
0.0
  0
LINE
  5
1BC
330
1B7
100
AcDbEntity
  8
002
 62
     3
370
    30
100
AcDbLine
 10
1743.405088
 20
906.135087
 30
0.0
 11
1750.654818
 21
904.192216
 31
0.0
  0
LINE
  5
1BD
330
1B7
100
AcDbEntity
  8
002
 62
     3
370
    30
100
AcDbLine
 10
1754.01997
 20
916.749117
 30
0.0
 11
1746.77024
 21
918.691988
 31
0.0
  0
LINE
  5
1BE
330
1B7
100
AcDbEntity
  8
002
 62
     3
370
    30
100
AcDbLine
 10
1755.962259
 20
909.499231
 30
0.0
 11
1754.01997
 21
916.749117
 31
0.0
  0
LINE
  5
1BF
330
1B7
100
AcDbEntity
  8
002
 62
     3
370
    30
100
AcDbLine
 10
1741.462799
 20
913.384973
 30
0.0
 11
1743.405088
 21
906.135087
 31
0.0
  0
CIRCLE
  5
1C0
330
1B7
100
AcDbEntity
  8
002
 62
     3
370
    30
100
AcDbCircle
 10
1748.712529
 20
911.442102
 30
0.0
 40
6.5
  0
ENDBLK
  5
1B9
330
1B7
100
AcDbEntity
  8
0
100
AcDbBlockEnd
  0
ENDSEC
  0
SECTION
  2
ENTITIES
  0
INSERT
  5
1C1
330
1F
100
AcDbEntity
  8
003
  6
ByBlock
 62
     0
370
    -2
100
AcDbBlockReference
  2
JZB-1
 10
0.0
 20
0.0
 30
0.0
  0
INSERT
  5
1C2
330
1F
100
AcDbEntity
  8
003
  6
ByBlock
 62
     0
370
    -2
100
AcDbBlockReference
  2
JZB-2
 10
0.0
 20
0.0
 30
0.0
  0
INSERT
  5
1C3
330
1F
100
AcDbEntity
  8
003
  6
ByBlock
 62
     0
370
    -2
100
AcDbBlockReference
  2
JZB-3
 10
0.0
 20
0.0
 30
0.0
  0
INSERT
  5
1C4
330
1F
100
AcDbEntity
  8
003
  6
ByBlock
 62
     0
370
    -2
100
AcDbBlockReference
  2
JZB-4
 10
0.0
 20
0.0
 30
0.0
  0
INSERT
  5
1C5
330
1F
100
AcDbEntity
  8
003
  6
ByBlock
 62
     0
370
    -2
100
AcDbBlockReference
  2
JZB-5
 10
0.0
 20
0.0
 30
0.0
  0
INSERT
  5
1C6
330
1F
100
AcDbEntity
  8
003
  6
ByBlock
 62
     0
370
    -2
100
AcDbBlockReference
  2
JZB-6
 10
0.0
 20
0.0
 30
0.0
  0
INSERT
  5
1C7
330
1F
100
AcDbEntity
  8
002
  6
ByBlock
 62
     0
370
    -2
100
AcDbBlockReference
  2
JZB-7
 10
0.0
 20
0.0
 30
0.0
  0
INSERT
  5
1C8
330
1F
100
AcDbEntity
  8
002
  6
ByBlock
 62
     0
370
    -2
100
AcDbBlockReference
  2
JZB-8
 10
0.0
 20
0.0
 30
0.0
  0
INSERT
  5
1C9
330
1F
100
AcDbEntity
  8
002
  6
ByBlock
 62
     0
370
    -2
100
AcDbBlockReference
  2
JZB-9
 10
0.0
 20
0.0
 30
0.0
  0
INSERT
  5
1CA
330
1F
100
AcDbEntity
  8
002
  6
ByBlock
 62
     0
370
    -2
100
AcDbBlockReference
  2
JZB-10
 10
0.0
 20
0.0
 30
0.0
  0
INSERT
  5
1CB
330
1F
100
AcDbEntity
  8
002
  6
ByBlock
 62
     0
370
    -2
100
AcDbBlockReference
  2
JZB-11
 10
0.0
 20
0.0
 30
0.0
  0
INSERT
  5
1CC
330
1F
100
AcDbEntity
  8
002
  6
ByBlock
 62
     0
370
    -2
100
AcDbBlockReference
  2
JZB-12
 10
0.0
 20
0.0
 30
0.0
  0
INSERT
  5
1CD
330
1F
100
AcDbEntity
  8
002
  6
ByBlock
 62
     0
370
    -2
100
AcDbBlockReference
  2
JZB-13
 10
0.0
 20
0.0
 30
0.0
  0
INSERT
  5
1CE
330
1F
100
AcDbEntity
  8
002
  6
ByBlock
 62
     0
370
    -2
100
AcDbBlockReference
  2
JZB-14
 10
0.0
 20
0.0
 30
0.0
  0
INSERT
  5
1CF
330
1F
100
AcDbEntity
  8
002
  6
ByBlock
 62
     0
370
    -2
100
AcDbBlockReference
  2
JZB-15
 10
0.0
 20
0.0
 30
0.0
  0
INSERT
  5
1D0
330
1F
100
AcDbEntity
  8
002
  6
ByBlock
 62
     0
370
    -2
100
AcDbBlockReference
  2
JZB-16
 10
0.0
 20
0.0
 30
0.0
  0
INSERT
  5
1D1
330
1F
100
AcDbEntity
  8
002
  6
ByBlock
 62
     0
370
    -2
100
AcDbBlockReference
  2
JZB-17
 10
0.0
 20
0.0
 30
0.0
  0
INSERT
  5
1D2
330
1F
100
AcDbEntity
  8
002
  6
ByBlock
 62
     0
370
    -2
100
AcDbBlockReference
  2
JZB-18
 10
0.0
 20
0.0
 30
0.0
  0
INSERT
  5
1D3
330
1F
100
AcDbEntity
  8
002
  6
ByBlock
 62
     0
370
    -2
100
AcDbBlockReference
  2
JZB-19
 10
0.0
 20
0.0
 30
0.0
  0
INSERT
  5
1D4
330
1F
100
AcDbEntity
  8
002
  6
ByBlock
 62
     0
370
    -2
100
AcDbBlockReference
  2
JZB-20
 10
0.0
 20
0.0
 30
0.0
  0
INSERT
  5
1D5
330
1F
100
AcDbEntity
  8
002
  6
ByBlock
 62
     0
370
    -2
100
AcDbBlockReference
  2
JZB-21
 10
0.0
 20
0.0
 30
0.0
  0
INSERT
  5
1D6
330
1F
100
AcDbEntity
  8
002
  6
ByBlock
 62
     0
370
    -2
100
AcDbBlockReference
  2
JZB-22
 10
0.0
 20
0.0
 30
0.0
  0
INSERT
  5
1D7
330
1F
100
AcDbEntity
  8
002
  6
ByBlock
 62
     0
370
    -2
100
AcDbBlockReference
  2
JZB-23
 10
0.0
 20
0.0
 30
0.0
  0
INSERT
  5
1D8
330
1F
100
AcDbEntity
  8
002
  6
ByBlock
 62
     0
370
    -2
100
AcDbBlockReference
  2
JZB-24
 10
0.0
 20
0.0
 30
0.0
  0
INSERT
  5
1D9
330
1F
100
AcDbEntity
  8
002
  6
ByBlock
 62
     0
370
    -2
100
AcDbBlockReference
  2
JZB-25
 10
0.0
 20
0.0
 30
0.0
  0
INSERT
  5
1DA
330
1F
100
AcDbEntity
  8
002
  6
ByBlock
 62
     0
370
    -2
100
AcDbBlockReference
  2
JZB-26
 10
0.0
 20
0.0
 30
0.0
  0
INSERT
  5
1DB
330
1F
100
AcDbEntity
  8
002
  6
ByBlock
 62
     0
370
    -2
100
AcDbBlockReference
  2
JZB-27
 10
0.0
 20
0.0
 30
0.0
  0
INSERT
  5
1DC
330
1F
100
AcDbEntity
  8
002
  6
ByBlock
 62
     0
370
    -2
100
AcDbBlockReference
  2
JZB-28
 10
0.0
 20
0.0
 30
0.0
  0
INSERT
  5
1DD
330
1F
100
AcDbEntity
  8
002
  6
ByBlock
 62
     0
370
    -2
100
AcDbBlockReference
  2
JZB-29
 10
0.0
 20
0.0
 30
0.0
  0
INSERT
  5
1DE
330
1F
100
AcDbEntity
  8
002
  6
ByBlock
 62
     0
370
    -2
100
AcDbBlockReference
  2
JZB-30
 10
0.0
 20
0.0
 30
0.0
  0
INSERT
  5
1DF
330
1F
100
AcDbEntity
  8
002
  6
ByBlock
 62
     0
370
    -2
100
AcDbBlockReference
  2
JZB-31
 10
0.0
 20
0.0
 30
0.0
  0
INSERT
  5
1E0
330
1F
100
AcDbEntity
  8
002
  6
ByBlock
 62
     0
370
    -2
100
AcDbBlockReference
  2
JZB-32
 10
0.0
 20
0.0
 30
0.0
  0
INSERT
  5
1E1
330
1F
100
AcDbEntity
  8
002
  6
ByBlock
 62
     0
370
    -2
100
AcDbBlockReference
  2
JZB-33
 10
0.0
 20
0.0
 30
0.0
  0
INSERT
  5
1E2
330
1F
100
AcDbEntity
  8
002
  6
ByBlock
 62
     0
370
    -2
100
AcDbBlockReference
  2
JZB-34
 10
0.0
 20
0.0
 30
0.0
  0
LINE
  5
1E3
330
1F
100
AcDbEntity
  8
002
 62
     3
370
    30
100
AcDbLine
 10
357.527227
 20
1738.460519
 30
0.0
 11
357.527227
 21
1746.460519
 31
0.0
  0
LINE
  5
1E4
330
1F
100
AcDbEntity
  8
002
 62
     3
370
    30
100
AcDbLine
 10
357.527227
 20
1746.460519
 30
0.0
 11
367.527227
 21
1746.460519
 31
0.0
  0
LINE
  5
1E5
330
1F
100
AcDbEntity
  8
002
 62
     3
370
    30
100
AcDbLine
 10
367.527227
 20
1746.460519
 30
0.0
 11
367.527227
 21
1738.460519
 31
0.0
  0
LINE
  5
1E6
330
1F
100
AcDbEntity
  8
002
 62
     3
370
    30
100
AcDbLine
 10
367.527227
 20
1738.460519
 30
0.0
 11
357.527227
 21
1738.460519
 31
0.0
  0
LINE
  5
1E7
330
1F
100
AcDbEntity
  8
002
 62
     3
370
    30
100
AcDbLine
 10
357.527227
 20
2469.303519
 30
0.0
 11
357.527227
 21
2425.303519
 31
0.0
  0
LINE
  5
1E8
330
1F
100
AcDbEntity
  8
002
 62
     3
370
    30
100
AcDbLine
 10
357.527227
 20
2425.303519
 30
0.0
 11
367.527227
 21
2425.303519
 31
0.0
  0
LINE
  5
1E9
330
1F
100
AcDbEntity
  8
002
 62
     3
370
    30
100
AcDbLine
 10
367.527227
 20
2425.303519
 30
0.0
 11
367.527227
 21
2469.303519
 31
0.0
  0
LINE
  5
1EA
330
1F
100
AcDbEntity
  8
002
 62
     3
370
    30
100
AcDbLine
 10
380.027227
 20
2469.303519
 30
0.0
 11
380.027227
 21
2419.303519
 31
0.0
  0
LINE
  5
1EB
330
1F
100
AcDbEntity
  8
002
 62
     3
370
    30
100
AcDbLine
 10
381.527227
 20
2419.303519
 30
0.0
 11
381.527227
 21
2411.303519
 31
0.0
  0
LINE
  5
1EC
330
1F
100
AcDbEntity
  8
002
 62
     3
370
    30
100
AcDbLine
 10
345.027227
 20
2419.303519
 30
0.0
 11
345.027227
 21
2469.303519
 31
0.0
  0
LINE
  5
1ED
330
1F
100
AcDbEntity
  8
002
 62
     3
370
    30
100
AcDbLine
 10
345.027227
 20
2469.303519
 30
0.0
 11
380.027227
 21
2469.303519
 31
0.0
  0
ARC
  5
1EE
330
1F
100
AcDbEntity
  8
002
 62
     3
370
    30
100
AcDbCircle
 10
362.527227
 20
2425.303519
 30
0.0
 40
5.0
100
AcDbArc
 50
180.0
 51
0.0
  0
LINE
  5
1EF
330
1F
100
AcDbEntity
  8
002
 62
     3
370
    30
100
AcDbLine
 10
343.527227
 20
2419.303519
 30
0.0
 11
343.527227
 21
2411.303519
 31
0.0
  0
LINE
  5
1F0
330
1F
100
AcDbEntity
  8
002
 62
     3
370
    30
100
AcDbLine
 10
337.954227
 20
2403.303519
 30
0.0
 11
416.527227
 21
2403.303519
 31
0.0
  0
LINE
  5
1F1
330
1F
100
AcDbEntity
  8
002
 62
     3
370
    30
100
AcDbLine
 10
416.527227
 20
2411.303519
 30
0.0
 11
322.953227
 21
2411.303519
 31
0.0
  0
CIRCLE
  5
1F2
330
1F
100
AcDbEntity
  8
002
 62
     3
370
    30
100
AcDbCircle
 10
326.527227
 20
2391.494519
 30
0.0
 40
10.5
  0
LINE
  5
1F3
330
1F
100
AcDbEntity
  8
002
 62
     3
370
    30
100
AcDbLine
 10
323.063227
 20
2397.494519
 30
0.0
 11
319.599227
 21
2391.494519
 31
0.0
  0
LINE
  5
1F4
330
1F
100
AcDbEntity
  8
002
 62
     3
370
    30
100
AcDbLine
 10
319.599227
 20
2391.494519
 30
0.0
 11
323.063227
 21
2385.494519
 31
0.0
  0
LINE
  5
1F5
330
1F
100
AcDbEntity
  8
002
 62
     3
370
    30
100
AcDbLine
 10
323.063227
 20
2385.494519
 30
0.0
 11
329.991227
 21
2385.494519
 31
0.0
  0
LINE
  5
1F6
330
1F
100
AcDbEntity
  8
002
 62
     3
370
    30
100
AcDbLine
 10
329.991227
 20
2385.494519
 30
0.0
 11
333.455227
 21
2391.494519
 31
0.0
  0
LINE
  5
1F7
330
1F
100
AcDbEntity
  8
002
 62
     3
370
    30
100
AcDbLine
 10
333.455227
 20
2391.494519
 30
0.0
 11
329.991227
 21
2397.494519
 31
0.0
  0
LINE
  5
1F8
330
1F
100
AcDbEntity
  8
002
 62
     3
370
    30
100
AcDbLine
 10
329.991227
 20
2397.494519
 30
0.0
 11
323.063227
 21
2397.494519
 31
0.0
  0
LINE
  5
1F9
330
1F
100
AcDbEntity
  8
002
 62
     3
370
    30
100
AcDbLine
 10
300.023227
 20
2419.303519
 30
0.0
 11
452.527227
 21
2419.303519
 31
0.0
  0
CIRCLE
  5
1FA
330
1F
100
AcDbEntity
  8
002
 62
     3
370
    30
100
AcDbCircle
 10
452.527227
 20
2384.303519
 30
0.0
 40
32.5
  0
CIRCLE
  5
1FB
330
1F
100
AcDbEntity
  8
002
 62
     3
370
    30
100
AcDbCircle
 10
452.527227
 20
2384.303519
 30
0.0
 40
16.5
  0
LINE
  5
1FC
330
1F
100
AcDbEntity
  8
002
 62
     3
370
    30
100
AcDbLine
 10
416.527227
 20
2411.303519
 30
0.0
 11
416.527227
 21
2384.303519
 31
0.0
  0
ARC
  5
1FD
330
1F
100
AcDbEntity
  8
002
 62
     3
370
    30
100
AcDbCircle
 10
452.527227
 20
2384.303519
 30
0.0
 40
36.00013888862104
100
AcDbArc
 50
180.0
 51
223.761974
  0
LINE
  5
1FE
330
1F
100
AcDbEntity
  8
002
 62
     3
370
    30
100
AcDbLine
 10
426.527227
 20
2359.403519
 30
0.0
 11
426.527227
 21
2355.390519
 31
0.0
  0
ARC
  5
1FF
330
1F
100
AcDbEntity
  8
002
 62
     3
370
    30
100
AcDbCircle
 10
431.527227
 20
2355.390519
 30
0.0
 40
4.999919999359997
100
AcDbArc
 50
180.0
 51
260.002641
  0
LINE
  5
200
330
1F
100
AcDbEntity
  8
002
 62
     3
370
    30
100
AcDbLine
 10
430.659227
 20
2350.466519
 30
0.0
 11
480.052227
 21
2341.756519
 31
0.0
  0
LINE
  5
201
330
1F
100
AcDbEntity
  8
002
 62
     3
370
    30
100
AcDbLine
 10
479.527227
 20
2341.803519
 30
0.0
 11
419.566227
 21
2341.803519
 31
0.0
  0
LINE
  5
202
330
1F
100
AcDbEntity
  8
002
 62
     3
370
    30
100
AcDbLine
 10
418.936227
 20
2344.038519
 30
0.0
 11
426.527227
 21
2351.194519
 31
0.0
  0
ARC
  5
203
330
1F
100
AcDbEntity
  8
002
 62
     3
370
    30
100
AcDbCircle
 10
423.091227
 20
2338.803519
 30
0.0
 40
3.0
100
AcDbArc
 50
90.0
 51
180.0
  0
LINE
  5
204
330
1F
100
AcDbEntity
  8
002
 62
     3
370
    30
100
AcDbLine
 10
420.091227
 20
2338.803519
 30
0.0
 11
420.091227
 21
2239.803519
 31
0.0
  0
ARC
  5
205
330
1F
100
AcDbEntity
  8
002
 62
     3
370
    30
100
AcDbCircle
 10
423.091227
 20
2239.803519
 30
0.0
 40
3.0
100
AcDbArc
 50
180.0
 51
270.0
  0
LINE
  5
206
330
1F
100
AcDbEntity
  8
002
 62
     3
370
    30
100
AcDbLine
 10
419.566227
 20
2236.803519
 30
0.0
 11
479.527227
 21
2236.803519
 31
0.0
  0
ARC
  5
207
330
1F
100
AcDbEntity
  8
002
 62
     3
370
    30
100
AcDbCircle
 10
479.527227
 20
2239.803519
 30
0.0
 40
3.0
100
AcDbArc
 50
270.0
 51
0.0
  0
LINE
  5
208
330
1F
100
AcDbEntity
  8
002
 62
     3
370
    30
100
AcDbLine
 10
482.527227
 20
2239.803519
 30
0.0
 11
482.527227
 21
2338.803519
 31
0.0
  0
ARC
  5
209
330
1F
100
AcDbEntity
  8
002
 62
     3
370
    30
100
AcDbCircle
 10
479.527227
 20
2338.803519
 30
0.0
 40
3.0
100
AcDbArc
 50
0.0
 51
90.0
  0
ARC
  5
20A
330
1F
100
AcDbEntity
  8
002
 62
     3
370
    30
100
AcDbCircle
 10
452.527227
 20
2384.303519
 30
0.0
 40
35.0
100
AcDbArc
 50
0.0
 51
90.0
  0
LINE
  5
20B
330
1F
100
AcDbEntity
  8
002
 62
     3
370
    30
100
AcDbLine
 10
487.527227
 20
2384.303519
 30
0.0
 11
487.527227
 21
2194.303519
 31
0.0
  0
CIRCLE
  5
20C
330
1F
100
AcDbEntity
  8
002
 62
     3
370
    30
100
AcDbCircle
 10
452.527227
 20
2194.303519
 30
0.0
 40
16.5
  0
CIRCLE
  5
20D
330
1F
100
AcDbEntity
  8
002
 62
     3
370
    30
100
AcDbCircle
 10
452.527227
 20
2194.303519
 30
0.0
 40
32.5
  0
LINE
  5
20E
330
1F
100
AcDbEntity
  8
002
 62
     3
370
    30
100
AcDbLine
 10
430.659227
 20
2228.140519
 30
0.0
 11
480.052227
 21
2236.849519
 31
0.0
  0
ARC
  5
20F
330
1F
100
AcDbEntity
  8
002
 62
     3
370
    30
100
AcDbCircle
 10
431.527227
 20
2223.216519
 30
0.0
 40
5.0
100
AcDbArc
 50
99.997359
 51
180.0
  0
LINE
  5
210
330
1F
100
AcDbEntity
  8
002
 62
     3
370
    30
100
AcDbLine
 10
426.527227
 20
2223.216519
 30
0.0
 11
426.527227
 21
2219.202519
 31
0.0
  0
ARC
  5
211
330
1F
100
AcDbEntity
  8
002
 62
     3
370
    30
100
AcDbCircle
 10
452.527227
 20
2194.303519
 30
0.0
 40
36.0
100
AcDbArc
 50
136.239176
 51
180.0
  0
LINE
  5
212
330
1F
100
AcDbEntity
  8
002
 62
     3
370
    30
100
AcDbLine
 10
416.527227
 20
2194.303519
 30
0.0
 11
416.527227
 21
2167.303519
 31
0.0
  0
LINE
  5
213
330
1F
100
AcDbEntity
  8
002
 62
     3
370
    30
100
AcDbLine
 10
416.527227
 20
2167.303519
 30
0.0
 11
322.953227
 21
2167.303519
 31
0.0
  0
LINE
  5
214
330
1F
100
AcDbEntity
  8
002
 62
     3
370
    30
100
AcDbLine
 10
323.063227
 20
2181.112519
 30
0.0
 11
329.991227
 21
2181.112519
 31
0.0
  0
LINE
  5
215
330
1F
100
AcDbEntity
  8
002
 62
     3
370
    30
100
AcDbLine
 10
329.991227
 20
2181.112519
 30
0.0
 11
333.455227
 21
2187.112519
 31
0.0
  0
LINE
  5
216
330
1F
100
AcDbEntity
  8
002
 62
     3
370
    30
100
AcDbLine
 10
333.455227
 20
2187.112519
 30
0.0
 11
329.991227
 21
2193.112519
 31
0.0
  0
LINE
  5
217
330
1F
100
AcDbEntity
  8
002
 62
     3
370
    30
100
AcDbLine
 10
329.991227
 20
2193.112519
 30
0.0
 11
323.063227
 21
2193.112519
 31
0.0
  0
LINE
  5
218
330
1F
100
AcDbEntity
  8
002
 62
     3
370
    30
100
AcDbLine
 10
323.063227
 20
2193.112519
 30
0.0
 11
319.599227
 21
2187.112519
 31
0.0
  0
LINE
  5
219
330
1F
100
AcDbEntity
  8
002
 62
     3
370
    30
100
AcDbLine
 10
319.599227
 20
2187.112519
 30
0.0
 11
323.063227
 21
2181.112519
 31
0.0
  0
CIRCLE
  5
21A
330
1F
100
AcDbEntity
  8
002
 62
     3
370
    30
100
AcDbCircle
 10
326.527227
 20
2187.112519
 30
0.0
 40
10.5
  0
LINE
  5
21B
330
1F
100
AcDbEntity
  8
002
 62
     3
370
    30
100
AcDbLine
 10
337.954227
 20
2175.303519
 30
0.0
 11
416.527227
 21
2175.303519
 31
0.0
  0
LINE
  5
21C
330
1F
100
AcDbEntity
  8
002
 62
     3
370
    30
100
AcDbLine
 10
381.527227
 20
2167.303519
 30
0.0
 11
381.527227
 21
2159.303519
 31
0.0
  0
LINE
  5
21D
330
1F
100
AcDbEntity
  8
002
 62
     3
370
    30
100
AcDbLine
 10
380.027227
 20
2159.303519
 30
0.0
 11
380.027227
 21
2109.303519
 31
0.0
  0
LINE
  5
21E
330
1F
100
AcDbEntity
  8
002
 62
     3
370
    30
100
AcDbLine
 10
380.027227
 20
2109.303519
 30
0.0
 11
345.027227
 21
2109.303519
 31
0.0
  0
LINE
  5
21F
330
1F
100
AcDbEntity
  8
002
 62
     3
370
    30
100
AcDbLine
 10
345.027227
 20
2109.303519
 30
0.0
 11
345.027227
 21
2159.303519
 31
0.0
  0
LINE
  5
220
330
1F
100
AcDbEntity
  8
002
 62
     3
370
    30
100
AcDbLine
 10
367.527227
 20
2153.303519
 30
0.0
 11
357.527227
 21
2153.303519
 31
0.0
  0
LINE
  5
221
330
1F
100
AcDbEntity
  8
002
 62
     3
370
    30
100
AcDbLine
 10
357.527227
 20
2153.303519
 30
0.0
 11
357.527227
 21
2109.303519
 31
0.0
  0
LINE
  5
222
330
1F
100
AcDbEntity
  8
002
 62
     3
370
    30
100
AcDbLine
 10
367.527227
 20
2109.303519
 30
0.0
 11
367.527227
 21
2153.303519
 31
0.0
  0
ARC
  5
223
330
1F
100
AcDbEntity
  8
002
 62
     3
370
    30
100
AcDbCircle
 10
362.527227
 20
2153.303519
 30
0.0
 40
5.0
100
AcDbArc
 50
0.0
 51
180.0
  0
LINE
  5
224
330
1F
100
AcDbEntity
  8
002
 62
     3
370
    30
100
AcDbLine
 10
343.527227
 20
2159.303519
 30
0.0
 11
343.527227
 21
2167.303519
 31
0.0
  0
LINE
  5
225
330
1F
100
AcDbEntity
  8
002
 62
     3
370
    30
100
AcDbLine
 10
300.023227
 20
2159.303519
 30
0.0
 11
452.527227
 21
2159.303519
 31
0.0
  0
ARC
  5
226
330
1F
100
AcDbEntity
  8
002
 62
     3
370
    30
100
AcDbCircle
 10
452.527227
 20
2194.303519
 30
0.0
 40
35.0
100
AcDbArc
 50
270.0
 51
0.0
  0
LINE
  5
227
330
1F
100
AcDbEntity
  8
002
 62
     3
370
    30
100
AcDbLine
 10
426.527227
 20
2227.411519
 30
0.0
 11
418.936227
 21
2234.568519
 31
0.0
  0
ARC
  5
228
330
1F
100
AcDbEntity
  8
002
 62
     3
370
    30
100
AcDbCircle
 10
419.566227
 20
2233.803519
 30
0.0
 40
3.0
100
AcDbArc
 50
90.0
 51
180.0
  0
LINE
  5
229
330
1F
100
AcDbEntity
  8
002
 62
     3
370
    30
100
AcDbLine
 10
416.566227
 20
2236.803519
 30
0.0
 11
416.566227
 21
2341.803519
 31
0.0
  0
ARC
  5
22A
330
1F
100
AcDbEntity
  8
002
 62
     3
370
    30
100
AcDbCircle
 10
419.566227
 20
2344.803519
 30
0.0
 40
3.0
100
AcDbArc
 50
180.0
 51
270.0
  0
LINE
  5
22B
330
1F
100
AcDbEntity
  8
002
 62
     3
370
    30
100
AcDbLine
 10
375.718227
 20
2344.839519
 30
0.0
 11
375.718227
 21
2351.767519
 31
0.0
  0
LINE
  5
22C
330
1F
100
AcDbEntity
  8
002
 62
     3
370
    30
100
AcDbLine
 10
375.718227
 20
2351.767519
 30
0.0
 11
369.718227
 21
2355.231519
 31
0.0
  0
LINE
  5
22D
330
1F
100
AcDbEntity
  8
002
 62
     3
370
    30
100
AcDbLine
 10
369.718227
 20
2355.231519
 30
0.0
 11
363.718227
 21
2351.767519
 31
0.0
  0
LINE
  5
22E
330
1F
100
AcDbEntity
  8
002
 62
     3
370
    30
100
AcDbLine
 10
363.718227
 20
2351.767519
 30
0.0
 11
363.718227
 21
2344.839519
 31
0.0
  0
LINE
  5
22F
330
1F
100
AcDbEntity
  8
002
 62
     3
370
    30
100
AcDbLine
 10
363.718227
 20
2344.839519
 30
0.0
 11
369.718227
 21
2341.374519
 31
0.0
  0
LINE
  5
230
330
1F
100
AcDbEntity
  8
002
 62
     3
370
    30
100
AcDbLine
 10
369.718227
 20
2341.374519
 30
0.0
 11
375.718227
 21
2344.839519
 31
0.0
  0
CIRCLE
  5
231
330
1F
100
AcDbEntity
  8
002
 62
     3
370
    30
100
AcDbCircle
 10
369.718227
 20
2348.303519
 30
0.0
 40
10.5
  0
CIRCLE
  5
232
330
1F
100
AcDbEntity
  8
002
 62
     3
370
    30
100
AcDbCircle
 10
385.527227
 20
2289.303519
 30
0.0
 40
10.5
  0
LINE
  5
233
330
1F
100
AcDbEntity
  8
002
 62
     3
370
    30
100
AcDbLine
 10
382.063227
 20
2295.303519
 30
0.0
 11
378.599227
 21
2289.303519
 31
0.0
  0
LINE
  5
234
330
1F
100
AcDbEntity
  8
002
 62
     3
370
    30
100
AcDbLine
 10
378.599227
 20
2289.303519
 30
0.0
 11
382.063227
 21
2283.303519
 31
0.0
  0
LINE
  5
235
330
1F
100
AcDbEntity
  8
002
 62
     3
370
    30
100
AcDbLine
 10
382.063227
 20
2283.303519
 30
0.0
 11
388.991227
 21
2283.303519
 31
0.0
  0
LINE
  5
236
330
1F
100
AcDbEntity
  8
002
 62
     3
370
    30
100
AcDbLine
 10
388.991227
 20
2283.303519
 30
0.0
 11
392.455227
 21
2289.303519
 31
0.0
  0
LINE
  5
237
330
1F
100
AcDbEntity
  8
002
 62
     3
370
    30
100
AcDbLine
 10
392.455227
 20
2289.303519
 30
0.0
 11
388.991227
 21
2295.303519
 31
0.0
  0
LINE
  5
238
330
1F
100
AcDbEntity
  8
002
 62
     3
370
    30
100
AcDbLine
 10
388.991227
 20
2295.303519
 30
0.0
 11
382.063227
 21
2295.303519
 31
0.0
  0
CIRCLE
  5
239
330
1F
100
AcDbEntity
  8
002
 62
     3
370
    30
100
AcDbCircle
 10
369.718227
 20
2230.303519
 30
0.0
 40
10.5
  0
LINE
  5
23A
330
1F
100
AcDbEntity
  8
002
 62
     3
370
    30
100
AcDbLine
 10
369.718227
 20
2237.231519
 30
0.0
 11
363.718227
 21
2233.767519
 31
0.0
  0
LINE
  5
23B
330
1F
100
AcDbEntity
  8
002
 62
     3
370
    30
100
AcDbLine
 10
363.718227
 20
2233.767519
 30
0.0
 11
363.718227
 21
2226.839519
 31
0.0
  0
LINE
  5
23C
330
1F
100
AcDbEntity
  8
002
 62
     3
370
    30
100
AcDbLine
 10
363.718227
 20
2226.839519
 30
0.0
 11
369.718227
 21
2223.374519
 31
0.0
  0
LINE
  5
23D
330
1F
100
AcDbEntity
  8
002
 62
     3
370
    30
100
AcDbLine
 10
369.718227
 20
2223.374519
 30
0.0
 11
375.718227
 21
2226.839519
 31
0.0
  0
LINE
  5
23E
330
1F
100
AcDbEntity
  8
002
 62
     3
370
    30
100
AcDbLine
 10
375.718227
 20
2226.839519
 30
0.0
 11
375.718227
 21
2233.767519
 31
0.0
  0
LINE
  5
23F
330
1F
100
AcDbEntity
  8
002
 62
     3
370
    30
100
AcDbLine
 10
375.718227
 20
2233.767519
 30
0.0
 11
369.718227
 21
2237.231519
 31
0.0
  0
CIRCLE
  5
240
330
1F
100
AcDbEntity
  8
002
 62
     3
370
    30
100
AcDbCircle
 10
267.527227
 20
2171.303519
 30
0.0
 40
10.5
  0
LINE
  5
241
330
1F
100
AcDbEntity
  8
002
 62
     3
370
    30
100
AcDbLine
 10
267.527227
 20
2178.231519
 30
0.0
 11
273.527227
 21
2174.767519
 31
0.0
  0
LINE
  5
242
330
1F
100
AcDbEntity
  8
002
 62
     3
370
    30
100
AcDbLine
 10
273.527227
 20
2174.767519
 30
0.0
 11
273.527227
 21
2167.839519
 31
0.0
  0
LINE
  5
243
330
1F
100
AcDbEntity
  8
002
 62
     3
370
    30
100
AcDbLine
 10
273.527227
 20
2167.839519
 30
0.0
 11
267.527227
 21
2164.374519
 31
0.0
  0
LINE
  5
244
330
1F
100
AcDbEntity
  8
002
 62
     3
370
    30
100
AcDbLine
 10
267.527227
 20
2164.374519
 30
0.0
 11
261.527227
 21
2167.839519
 31
0.0
  0
LINE
  5
245
330
1F
100
AcDbEntity
  8
002
 62
     3
370
    30
100
AcDbLine
 10
261.527227
 20
2167.839519
 30
0.0
 11
261.527227
 21
2174.767519
 31
0.0
  0
LINE
  5
246
330
1F
100
AcDbEntity
  8
002
 62
     3
370
    30
100
AcDbLine
 10
261.527227
 20
2174.767519
 30
0.0
 11
267.527227
 21
2178.231519
 31
0.0
  0
LINE
  5
247
330
1F
100
AcDbEntity
  8
002
 62
     3
370
    30
100
AcDbLine
 10
235.031227
 20
2159.303519
 30
0.0
 11
172.527227
 21
2159.303519
 31
0.0
  0
LINE
  5
248
330
1F
100
AcDbEntity
  8
002
 62
     3
370
    30
100
AcDbLine
 10
205.063227
 20
2181.112519
 30
0.0
 11
211.991227
 21
2181.112519
 31
0.0
  0
LINE
  5
249
330
1F
100
AcDbEntity
  8
002
 62
     3
370
    30
100
AcDbLine
 10
211.991227
 20
2181.112519
 30
0.0
 11
215.455227
 21
2187.112519
 31
0.0
  0
LINE
  5
24A
330
1F
100
AcDbEntity
  8
002
 62
     3
370
    30
100
AcDbLine
 10
215.455227
 20
2187.112519
 30
0.0
 11
211.991227
 21
2193.112519
 31
0.0
  0
LINE
  5
24B
330
1F
100
AcDbEntity
  8
002
 62
     3
370
    30
100
AcDbLine
 10
211.991227
 20
2193.112519
 30
0.0
 11
205.063227
 21
2193.112519
 31
0.0
  0
LINE
  5
24C
330
1F
100
AcDbEntity
  8
002
 62
     3
370
    30
100
AcDbLine
 10
205.063227
 20
2193.112519
 30
0.0
 11
201.599227
 21
2187.112519
 31
0.0
  0
LINE
  5
24D
330
1F
100
AcDbEntity
  8
002
 62
     3
370
    30
100
AcDbLine
 10
201.599227
 20
2187.112519
 30
0.0
 11
205.063227
 21
2181.112519
 31
0.0
  0
CIRCLE
  5
24E
330
1F
100
AcDbEntity
  8
002
 62
     3
370
    30
100
AcDbCircle
 10
208.527227
 20
2187.112519
 30
0.0
 40
10.5
  0
LINE
  5
24F
330
1F
100
AcDbEntity
  8
002
 62
     3
370
    30
100
AcDbLine
 10
171.336227
 20
2226.839519
 30
0.0
 11
165.336227
 21
2223.374519
 31
0.0
  0
LINE
  5
250
330
1F
100
AcDbEntity
  8
002
 62
     3
370
    30
100
AcDbLine
 10
165.336227
 20
2223.374519
 30
0.0
 11
159.336227
 21
2226.839519
 31
0.0
  0
LINE
  5
251
330
1F
100
AcDbEntity
  8
002
 62
     3
370
    30
100
AcDbLine
 10
159.336227
 20
2226.839519
 30
0.0
 11
159.336227
 21
2233.767519
 31
0.0
  0
LINE
  5
252
330
1F
100
AcDbEntity
  8
002
 62
     3
370
    30
100
AcDbLine
 10
159.336227
 20
2233.767519
 30
0.0
 11
165.336227
 21
2237.231519
 31
0.0
  0
LINE
  5
253
330
1F
100
AcDbEntity
  8
002
 62
     3
370
    30
100
AcDbLine
 10
165.336227
 20
2237.231519
 30
0.0
 11
171.336227
 21
2233.767519
 31
0.0
  0
LINE
  5
254
330
1F
100
AcDbEntity
  8
002
 62
     3
370
    30
100
AcDbLine
 10
171.336227
 20
2233.767519
 30
0.0
 11
171.336227
 21
2226.839519
 31
0.0
  0
CIRCLE
  5
255
330
1F
100
AcDbEntity
  8
002
 62
     3
370
    30
100
AcDbCircle
 10
165.336227
 20
2230.303519
 30
0.0
 40
10.5
  0
ARC
  5
256
330
1F
100
AcDbEntity
  8
002
 62
     3
370
    30
100
AcDbCircle
 10
172.527227
 20
2194.303519
 30
0.0
 40
32.50035969031735
100
AcDbArc
 50
127.432294
 51
322.568777
  0
ARC
  5
257
330
1F
100
AcDbEntity
  8
002
 62
     3
370
    30
100
AcDbCircle
 10
172.527227
 20
2194.303519
 30
0.0
 40
16.50012657527214
100
AcDbArc
 50
130.260421
 51
319.73693
  0
ARC
  5
258
330
1F
100
AcDbEntity
  8
002
 62
     3
370
    30
100
AcDbCircle
 10
172.527227
 20
2194.303519
 30
0.0
 40
35.00000000000023
100
AcDbArc
 50
180.0
 51
270.0
  0
LINE
  5
259
330
1F
100
AcDbEntity
  8
002
 62
     3
370
    30
100
AcDbLine
 10
137.527227
 20
2194.303519
 30
0.0
 11
137.527227
 21
2256.807519
 31
0.0
  0
LINE
  5
25A
330
1F
100
AcDbEntity
  8
002
 62
     3
370
    30
100
AcDbLine
 10
133.862227
 20
2279.830519
 30
0.0
 11
122.527227
 21
2280.303519
 31
0.0
  0
LINE
  5
25B
330
1F
100
AcDbEntity
  8
002
 62
     3
370
    30
100
AcDbLine
 10
122.527227
 20
2280.303519
 30
0.0
 11
122.527227
 21
2298.303519
 31
0.0
  0
LINE
  5
25C
330
1F
100
AcDbEntity
  8
002
 62
     3
370
    30
100
AcDbLine
 10
122.527227
 20
2298.303519
 30
0.0
 11
133.862227
 21
2298.775519
 31
0.0
  0
LINE
  5
25D
330
1F
100
AcDbEntity
  8
002
 62
     3
370
    30
100
AcDbLine
 10
146.063227
 20
2295.303519
 30
0.0
 11
142.599227
 21
2289.303519
 31
0.0
  0
LINE
  5
25E
330
1F
100
AcDbEntity
  8
002
 62
     3
370
    30
100
AcDbLine
 10
142.599227
 20
2289.303519
 30
0.0
 11
146.063227
 21
2283.303519
 31
0.0
  0
LINE
  5
25F
330
1F
100
AcDbEntity
  8
002
 62
     3
370
    30
100
AcDbLine
 10
146.063227
 20
2283.303519
 30
0.0
 11
152.991227
 21
2283.303519
 31
0.0
  0
LINE
  5
260
330
1F
100
AcDbEntity
  8
002
 62
     3
370
    30
100
AcDbLine
 10
152.991227
 20
2283.303519
 30
0.0
 11
156.455227
 21
2289.303519
 31
0.0
  0
LINE
  5
261
330
1F
100
AcDbEntity
  8
002
 62
     3
370
    30
100
AcDbLine
 10
156.455227
 20
2289.303519
 30
0.0
 11
152.991227
 21
2295.303519
 31
0.0
  0
LINE
  5
262
330
1F
100
AcDbEntity
  8
002
 62
     3
370
    30
100
AcDbLine
 10
152.991227
 20
2295.303519
 30
0.0
 11
146.063227
 21
2295.303519
 31
0.0
  0
CIRCLE
  5
263
330
1F
100
AcDbEntity
  8
002
 62
     3
370
    30
100
AcDbCircle
 10
149.527227
 20
2289.303519
 30
0.0
 40
10.5
  0
LINE
  5
264
330
1F
100
AcDbEntity
  8
002
 62
     3
370
    30
100
AcDbLine
 10
137.527227
 20
2321.799519
 30
0.0
 11
137.527227
 21
2384.303519
 31
0.0
  0
CIRCLE
  5
265
330
1F
100
AcDbEntity
  8
002
 62
     3
370
    30
100
AcDbCircle
 10
165.336227
 20
2348.303519
 30
0.0
 40
10.5
  0
LINE
  5
266
330
1F
100
AcDbEntity
  8
002
 62
     3
370
    30
100
AcDbLine
 10
165.336227
 20
2355.231519
 30
0.0
 11
159.336227
 21
2351.767519
 31
0.0
  0
LINE
  5
267
330
1F
100
AcDbEntity
  8
002
 62
     3
370
    30
100
AcDbLine
 10
159.336227
 20
2351.767519
 30
0.0
 11
159.336227
 21
2344.839519
 31
0.0
  0
LINE
  5
268
330
1F
100
AcDbEntity
  8
002
 62
     3
370
    30
100
AcDbLine
 10
159.336227
 20
2344.839519
 30
0.0
 11
165.336227
 21
2341.374519
 31
0.0
  0
LINE
  5
269
330
1F
100
AcDbEntity
  8
002
 62
     3
370
    30
100
AcDbLine
 10
165.336227
 20
2341.374519
 30
0.0
 11
171.336227
 21
2344.839519
 31
0.0
  0
LINE
  5
26A
330
1F
100
AcDbEntity
  8
002
 62
     3
370
    30
100
AcDbLine
 10
171.336227
 20
2344.839519
 30
0.0
 11
171.336227
 21
2351.767519
 31
0.0
  0
LINE
  5
26B
330
1F
100
AcDbEntity
  8
002
 62
     3
370
    30
100
AcDbLine
 10
171.336227
 20
2351.767519
 30
0.0
 11
165.336227
 21
2355.231519
 31
0.0
  0
ARC
  5
26C
330
1F
100
AcDbEntity
  8
002
 62
     3
370
    30
100
AcDbCircle
 10
172.527227
 20
2384.303519
 30
0.0
 40
16.50024342244692
100
AcDbArc
 50
40.260421
 51
229.741824
  0
LINE
  5
26D
330
1F
100
AcDbEntity
  8
002
 62
     3
370
    30
100
AcDbLine
 10
201.599227
 20
2391.494519
 30
0.0
 11
205.063227
 21
2397.494519
 31
0.0
  0
LINE
  5
26E
330
1F
100
AcDbEntity
  8
002
 62
     3
370
    30
100
AcDbLine
 10
205.063227
 20
2397.494519
 30
0.0
 11
211.991227
 21
2397.494519
 31
0.0
  0
LINE
  5
26F
330
1F
100
AcDbEntity
  8
002
 62
     3
370
    30
100
AcDbLine
 10
211.991227
 20
2397.494519
 30
0.0
 11
215.455227
 21
2391.494519
 31
0.0
  0
LINE
  5
270
330
1F
100
AcDbEntity
  8
002
 62
     3
370
    30
100
AcDbLine
 10
215.455227
 20
2391.494519
 30
0.0
 11
211.991227
 21
2385.494519
 31
0.0
  0
LINE
  5
271
330
1F
100
AcDbEntity
  8
002
 62
     3
370
    30
100
AcDbLine
 10
211.991227
 20
2385.494519
 30
0.0
 11
205.063227
 21
2385.494519
 31
0.0
  0
LINE
  5
272
330
1F
100
AcDbEntity
  8
002
 62
     3
370
    30
100
AcDbLine
 10
205.063227
 20
2385.494519
 30
0.0
 11
201.599227
 21
2391.494519
 31
0.0
  0
CIRCLE
  5
273
330
1F
100
AcDbEntity
  8
002
 62
     3
370
    30
100
AcDbCircle
 10
208.527227
 20
2391.494519
 30
0.0
 40
10.5
  0
ARC
  5
274
330
1F
100
AcDbEntity
  8
002
 62
     3
370
    30
100
AcDbCircle
 10
172.527227
 20
2384.303519
 30
0.0
 40
32.50035969031721
100
AcDbArc
 50
37.429823
 51
232.568777
  0
LINE
  5
275
330
1F
100
AcDbEntity
  8
002
 62
     3
370
    30
100
AcDbLine
 10
172.527227
 20
2419.303519
 30
0.0
 11
235.031227
 21
2419.303519
 31
0.0
  0
LINE
  5
276
330
1F
100
AcDbEntity
  8
002
 62
     3
370
    30
100
AcDbLine
 10
261.527227
 20
2410.767519
 30
0.0
 11
261.527227
 21
2403.839519
 31
0.0
  0
LINE
  5
277
330
1F
100
AcDbEntity
  8
002
 62
     3
370
    30
100
AcDbLine
 10
261.527227
 20
2403.839519
 30
0.0
 11
267.527227
 21
2400.374519
 31
0.0
  0
LINE
  5
278
330
1F
100
AcDbEntity
  8
002
 62
     3
370
    30
100
AcDbLine
 10
267.527227
 20
2400.374519
 30
0.0
 11
273.527227
 21
2403.839519
 31
0.0
  0
LINE
  5
279
330
1F
100
AcDbEntity
  8
002
 62
     3
370
    30
100
AcDbLine
 10
273.527227
 20
2403.839519
 30
0.0
 11
273.527227
 21
2410.767519
 31
0.0
  0
LINE
  5
27A
330
1F
100
AcDbEntity
  8
002
 62
     3
370
    30
100
AcDbLine
 10
273.527227
 20
2410.767519
 30
0.0
 11
267.527227
 21
2414.231519
 31
0.0
  0
LINE
  5
27B
330
1F
100
AcDbEntity
  8
002
 62
     3
370
    30
100
AcDbLine
 10
267.527227
 20
2414.231519
 30
0.0
 11
261.527227
 21
2410.767519
 31
0.0
  0
CIRCLE
  5
27C
330
1F
100
AcDbEntity
  8
002
 62
     3
370
    30
100
AcDbCircle
 10
267.527227
 20
2407.303519
 30
0.0
 40
10.5
  0
CIRCLE
  5
27D
330
1F
100
AcDbEntity
  8
002
 62
     3
370
    30
100
AcDbCircle
 10
267.527227
 20
2289.303519
 30
0.0
 40
134.0
  0
ARC
  5
27E
330
1F
100
AcDbEntity
  8
002
 62
     3
370
    30
100
AcDbCircle
 10
172.527227
 20
2384.303519
 30
0.0
 40
35.0
100
AcDbArc
 50
90.0
 51
180.0
  0
CIRCLE
  5
27F
330
1F
100
AcDbEntity
  8
002
 62
     3
370
    30
100
AcDbCircle
 10
267.527227
 20
2289.303519
 30
0.0
 40
42.5
  0
CIRCLE
  5
280
330
1F
100
AcDbEntity
  8
002
 62
     3
370
    30
100
AcDbCircle
 10
267.527227
 20
2289.303519
 30
0.0
 40
30.0
  0
LINE
  5
281
330
1F
100
AcDbEntity
  8
002
  6
CENTER
 62
    40
370
     9
100
AcDbLine
 10
514.694227
 20
2289.303519
 30
0.0
 11
102.429227
 21
2289.303519
 31
0.0
  0
LINE
  5
282
330
1F
100
AcDbEntity
  8
002
  6
CENTER
 62
    40
370
     9
100
AcDbLine
 10
452.527227
 20
2337.370519
 30
0.0
 11
452.527227
 21
2429.271519
 31
0.0
  0
LINE
  5
283
330
1F
100
AcDbEntity
  8
002
  6
CENTER
 62
    40
370
     9
100
AcDbLine
 10
496.943227
 20
2384.303519
 30
0.0
 11
404.756227
 21
2384.303519
 31
0.0
  0
LINE
  5
284
330
1F
100
AcDbEntity
  8
002
  6
CENTER
 62
    40
370
     9
100
AcDbLine
 10
452.527227
 20
2149.334519
 30
0.0
 11
452.527227
 21
2241.235519
 31
0.0
  0
LINE
  5
285
330
1F
100
AcDbEntity
  8
002
  6
CENTER
 62
    40
370
     9
100
AcDbLine
 10
404.756227
 20
2194.303519
 30
0.0
 11
496.943227
 21
2194.303519
 31
0.0
  0
LINE
  5
286
330
1F
100
AcDbEntity
  8
002
  6
CENTER
 62
    40
370
     9
100
AcDbLine
 10
362.527227
 20
2482.489738
 30
0.0
 11
362.527227
 21
2094.837898
 31
0.0
  0
CIRCLE
  5
287
330
1F
100
AcDbEntity
  8
002
  6
CENTER
 62
    40
370
     9
100
AcDbCircle
 10
267.527227
 20
2289.303519
 30
0.0
 40
118.0
  0
LINE
  5
288
330
1F
100
AcDbEntity
  8
002
  6
CENTER
 62
    40
370
     9
100
AcDbLine
 10
381.319227
 20
2355.001519
 30
0.0
 11
358.063227
 21
2341.574519
 31
0.0
  0
LINE
  5
289
330
1F
100
AcDbEntity
  8
002
  6
CENTER
 62
    40
370
     9
100
AcDbLine
 10
319.798227
 20
2379.838519
 30
0.0
 11
333.225227
 21
2403.095519
 31
0.0
  0
LINE
  5
28A
330
1F
100
AcDbEntity
  8
002
  6
CENTER
 62
    40
370
     9
100
AcDbLine
 10
267.527227
 20
2441.295519
 30
0.0
 11
267.527227
 21
2137.823519
 31
0.0
  0
LINE
  5
28B
330
1F
100
AcDbEntity
  8
002
  6
CENTER
 62
    40
370
     9
100
AcDbLine
 10
358.063227
 20
2237.032519
 30
0.0
 11
381.319227
 21
2223.605519
 31
0.0
  0
LINE
  5
28C
330
1F
100
AcDbEntity
  8
002
  6
CENTER
 62
    40
370
     9
100
AcDbLine
 10
333.225227
 20
2175.511519
 30
0.0
 11
319.798227
 21
2198.767519
 31
0.0
  0
CIRCLE
  5
28D
330
1F
100
AcDbEntity
  8
002
 62
    40
370
     9
100
AcDbCircle
 10
267.527227
 20
2289.303519
 30
0.0
 40
29.0
  0
LINE
  5
28E
330
1F
100
AcDbEntity
  8
002
  6
CENTER
 62
    40
370
     9
100
AcDbLine
 10
201.829227
 20
2175.511519
 30
0.0
 11
215.256227
 21
2198.767519
 31
0.0
  0
LINE
  5
28F
330
1F
100
AcDbEntity
  8
002
  6
CENTER
 62
    40
370
     9
100
AcDbLine
 10
153.735227
 20
2223.605519
 30
0.0
 11
176.991227
 21
2237.032519
 31
0.0
  0
LINE
  5
290
330
1F
100
AcDbEntity
  8
002
  6
CENTER
 62
    40
370
     9
100
AcDbLine
 10
172.527227
 20
2211.375519
 30
0.0
 11
172.527227
 21
2149.334519
 31
0.0
  0
LINE
  5
291
330
1F
100
AcDbEntity
  8
002
  6
CENTER
 62
    40
370
     9
100
AcDbLine
 10
191.467227
 20
2194.303519
 30
0.0
 11
124.756227
 21
2194.303519
 31
0.0
  0
LINE
  5
292
330
1F
100
AcDbEntity
  8
002
 62
    40
370
     9
100
AcDbLine
 10
122.527227
 20
2298.303519
 30
0.0
 11
133.788227
 21
2280.942519
 31
0.0
  0
LINE
  5
293
330
1F
100
AcDbEntity
  8
002
 62
    40
370
     9
100
AcDbLine
 10
122.527227
 20
2280.303519
 30
0.0
 11
133.788227
 21
2297.664519
 31
0.0
  0
LINE
  5
294
330
1F
100
AcDbEntity
  8
002
  6
CENTER
 62
    40
370
     9
100
AcDbLine
 10
153.735227
 20
2355.001519
 30
0.0
 11
176.991227
 21
2341.574519
 31
0.0
  0
LINE
  5
295
330
1F
100
AcDbEntity
  8
002
  6
CENTER
 62
    40
370
     9
100
AcDbLine
 10
201.829227
 20
2403.095519
 30
0.0
 11
215.256227
 21
2379.838519
 31
0.0
  0
LINE
  5
296
330
1F
100
AcDbEntity
  8
002
  6
CENTER
 62
    40
370
     9
100
AcDbLine
 10
172.527227
 20
2367.230519
 30
0.0
 11
172.527227
 21
2429.271519
 31
0.0
  0
LINE
  5
297
330
1F
100
AcDbEntity
  8
002
  6
CENTER
 62
    40
370
     9
100
AcDbLine
 10
191.467227
 20
2384.303519
 30
0.0
 11
124.756227
 21
2384.303519
 31
0.0
  0
LINE
  5
298
330
1F
100
AcDbEntity
  8
002
  6
CENTER
 62
    40
370
     9
100
AcDbLine
 10
362.527227
 20
1702.648519
 30
0.0
 11
362.527227
 21
1752.920519
 31
0.0
  0
LINE
  5
299
330
1F
100
AcDbEntity
  8
002
  6
CENTER
 62
    40
370
     9
100
AcDbLine
 10
337.799227
 20
1725.960519
 30
0.0
 11
388.342227
 21
1725.960519
 31
0.0
  0
ARC
  5
29A
330
1F
100
AcDbEntity
  8
002
 62
     3
370
    30
100
AcDbCircle
 10
362.527227
 20
1725.960519
 30
0.0
 40
17.49951142175116
100
AcDbArc
 50
106.602027
 51
73.397973
  0
LINE
  5
29B
330
1F
100
AcDbEntity
  8
002
 62
     3
370
    30
100
AcDbLine
 10
487.527227
 20
129.341919
 30
0.0
 11
487.527227
 21
153.341919
 31
0.0
  0
ARC
  5
29C
330
1F
100
AcDbEntity
  8
002
 62
     3
370
    30
100
AcDbCircle
 10
485.527227
 20
153.341919
 30
0.0
 40
2.0
100
AcDbArc
 50
0.0
 51
90.0
  0
LINE
  5
29D
330
1F
100
AcDbEntity
  8
002
 62
     3
370
    30
100
AcDbLine
 10
485.527227
 20
155.341919
 30
0.0
 11
139.527227
 21
155.341919
 31
0.0
  0
ARC
  5
29E
330
1F
100
AcDbEntity
  8
002
 62
     3
370
    30
100
AcDbCircle
 10
139.527227
 20
153.341919
 30
0.0
 40
2.0
100
AcDbArc
 50
90.0
 51
180.0
  0
LINE
  5
29F
330
1F
100
AcDbEntity
  8
002
 62
     3
370
    30
100
AcDbLine
 10
137.527227
 20
153.341919
 30
0.0
 11
137.527227
 21
129.341919
 31
0.0
  0
LINE
  5
2A0
330
1F
100
AcDbEntity
  8
002
 62
     3
370
    30
100
AcDbLine
 10
137.527227
 20
129.341919
 30
0.0
 11
487.527227
 21
129.341919
 31
0.0
  0
LINE
  5
2A1
330
1F
100
AcDbEntity
  8
002
 62
     3
370
    30
100
AcDbLine
 10
481.084227
 20
157.844519
 30
0.0
 11
420.091227
 21
263.632019
 31
0.0
  0
LINE
  5
2A2
330
1F
100
AcDbEntity
  8
002
 62
     3
370
    30
100
AcDbLine
 10
420.091227
 20
263.632019
 30
0.0
 11
418.191227
 21
263.632019
 31
0.0
  0
ARC
  5
2A3
330
1F
100
AcDbEntity
  8
002
 62
     3
370
    30
100
AcDbCircle
 10
418.191227
 20
266.632019
 30
0.0
 40
3.0
100
AcDbArc
 50
213.823037
 51
270.0
  0
LINE
  5
2A4
330
1F
100
AcDbEntity
  8
002
 62
     3
370
    30
100
AcDbLine
 10
416.527227
 20
261.279419
 30
0.0
 11
416.527227
 21
155.341919
 31
0.0
  0
LINE
  5
2A5
330
1F
100
AcDbEntity
  8
002
 62
     3
370
    30
100
AcDbLine
 10
426.527227
 20
155.341919
 30
0.0
 11
426.527227
 21
229.341919
 31
0.0
  0
ARC
  5
2A6
330
1F
100
AcDbEntity
  8
002
 62
     3
370
    30
100
AcDbCircle
 10
362.527227
 20
229.341919
 30
0.0
 40
64.00045221723039
100
AcDbArc
 50
0.0
 51
325.22837
  0
ARC
  5
2A7
330
1F
100
AcDbEntity
  8
002
 62
     3
370
    30
100
AcDbCircle
 10
408.527227
 20
197.404519
 30
0.0
 40
8.0
100
AcDbArc
 50
325.230338
 51
0.0
  0
LINE
  5
2A8
330
1F
100
AcDbEntity
  8
002
 62
     3
370
    30
100
AcDbLine
 10
298.527227
 20
229.341919
 30
0.0
 11
298.527227
 21
160.341919
 31
0.0
  0
ARC
  5
2A9
330
1F
100
AcDbEntity
  8
002
 62
     3
370
    30
100
AcDbCircle
 10
293.527227
 20
160.341919
 30
0.0
 40
5.0
100
AcDbArc
 50
270.0
 51
0.0
  0
LINE
  5
2AA
330
1F
100
AcDbEntity
  8
002
 62
     3
370
    30
100
AcDbLine
 10
275.527227
 20
123.341919
 30
0.0
 11
275.527227
 21
113.341919
 31
0.0
  0
LINE
  5
2AB
330
1F
100
AcDbEntity
  8
002
 62
     3
370
    30
100
AcDbLine
 10
259.527227
 20
113.341919
 30
0.0
 11
275.527227
 21
113.341919
 31
0.0
  0
LINE
  5
2AC
330
1F
100
AcDbEntity
  8
002
 62
     3
370
    30
100
AcDbLine
 10
259.527227
 20
113.341919
 30
0.0
 11
259.527227
 21
123.341919
 31
0.0
  0
LINE
  5
2AD
330
1F
100
AcDbEntity
  8
002
 62
     3
370
    30
100
AcDbLine
 10
210.377227
 20
123.341919
 30
0.0
 11
210.377227
 21
54.341919
 31
0.0
  0
LINE
  5
2AE
330
1F
100
AcDbEntity
  8
002
 62
     3
370
    30
100
AcDbLine
 10
210.377227
 20
54.341919
 30
0.0
 11
324.677227
 21
54.341919
 31
0.0
  0
LINE
  5
2AF
330
1F
100
AcDbEntity
  8
002
 62
     3
370
    30
100
AcDbLine
 10
324.677227
 20
54.341919
 30
0.0
 11
324.677227
 21
123.341919
 31
0.0
  0
LINE
  5
2B0
330
1F
100
AcDbEntity
  8
002
 62
     3
370
    30
100
AcDbLine
 10
337.027227
 20
123.341919
 30
0.0
 11
337.027227
 21
113.341919
 31
0.0
  0
LINE
  5
2B1
330
1F
100
AcDbEntity
  8
002
 62
     3
370
    30
100
AcDbLine
 10
353.027227
 20
113.341919
 30
0.0
 11
337.027227
 21
113.341919
 31
0.0
  0
LINE
  5
2B2
330
1F
100
AcDbEntity
  8
002
 62
     3
370
    30
100
AcDbLine
 10
353.027227
 20
113.341919
 30
0.0
 11
353.027227
 21
123.341919
 31
0.0
  0
LINE
  5
2B3
330
1F
100
AcDbEntity
  8
002
 62
     3
370
    30
100
AcDbLine
 10
355.027227
 20
123.341919
 30
0.0
 11
355.027227
 21
129.341919
 31
0.0
  0
LINE
  5
2B4
330
1F
100
AcDbEntity
  8
002
 62
     3
370
    30
100
AcDbLine
 10
355.027227
 20
123.341919
 30
0.0
 11
180.027227
 21
123.341919
 31
0.0
  0
LINE
  5
2B5
330
1F
100
AcDbEntity
  8
002
 62
     3
370
    30
100
AcDbLine
 10
180.027227
 20
123.341919
 30
0.0
 11
180.027227
 21
129.341919
 31
0.0
  0
LINE
  5
2B6
330
1F
100
AcDbEntity
  8
002
 62
     3
370
    30
100
AcDbLine
 10
182.027227
 20
123.341919
 30
0.0
 11
182.027227
 21
113.341919
 31
0.0
  0
LINE
  5
2B7
330
1F
100
AcDbEntity
  8
002
 62
     3
370
    30
100
AcDbLine
 10
198.027227
 20
113.341919
 30
0.0
 11
182.027227
 21
113.341919
 31
0.0
  0
LINE
  5
2B8
330
1F
100
AcDbEntity
  8
002
 62
     3
370
    30
100
AcDbLine
 10
198.027227
 20
113.341919
 30
0.0
 11
198.027227
 21
123.341919
 31
0.0
  0
ARC
  5
2B9
330
1F
100
AcDbEntity
  8
002
 62
     3
370
    30
100
AcDbCircle
 10
202.525227
 20
160.341919
 30
0.0
 40
5.0
100
AcDbArc
 50
270.0
 51
0.0
  0
LINE
  5
2BA
330
1F
100
AcDbEntity
  8
002
 62
     3
370
    30
100
AcDbLine
 10
207.525227
 20
160.341919
 30
0.0
 11
207.525227
 21
271.341919
 31
0.0
  0
ARC
  5
2BB
330
1F
100
AcDbEntity
  8
002
 62
     3
370
    30
100
AcDbCircle
 10
202.525227
 20
271.341919
 30
0.0
 40
5.0
100
AcDbArc
 50
0.0
 51
90.0
  0
LINE
  5
2BC
330
1F
100
AcDbEntity
  8
002
 62
     3
370
    30
100
AcDbLine
 10
202.525227
 20
276.341919
 30
0.0
 11
177.956227
 21
276.341919
 31
0.0
  0
ARC
  5
2BD
330
1F
100
AcDbEntity
  8
002
 62
     3
370
    30
100
AcDbCircle
 10
177.956227
 20
271.341919
 30
0.0
 40
5.0
100
AcDbArc
 50
90.0
 51
180.0
  0
LINE
  5
2BE
330
1F
100
AcDbEntity
  8
002
 62
     3
370
    30
100
AcDbLine
 10
172.956227
 20
271.341919
 30
0.0
 11
172.956227
 21
160.341919
 31
0.0
  0
ARC
  5
2BF
330
1F
100
AcDbEntity
  8
002
 62
     3
370
    30
100
AcDbCircle
 10
167.956227
 20
160.341919
 30
0.0
 40
5.0
100
AcDbArc
 50
270.0
 51
0.0
  0
LINE
  5
2C0
330
1F
100
AcDbEntity
  8
002
 62
     3
370
    30
100
AcDbLine
 10
155.527227
 20
160.341919
 30
0.0
 11
155.527227
 21
182.940819
 31
0.0
  0
ARC
  5
2C1
330
1F
100
AcDbEntity
  8
002
 62
     3
370
    30
100
AcDbCircle
 10
145.527227
 20
182.940819
 30
0.0
 40
10.00006824976707
100
AcDbArc
 50
0.0
 51
65.908363
  0
LINE
  5
2C2
330
1F
100
AcDbEntity
  8
002
 62
     3
370
    30
100
AcDbLine
 10
149.609227
 20
192.069819
 30
0.0
 11
144.527227
 21
194.341919
 31
0.0
  0
LINE
  5
2C3
330
1F
100
AcDbEntity
  8
002
 62
     3
370
    30
100
AcDbLine
 10
144.527227
 20
194.341919
 30
0.0
 11
144.527227
 21
269.341919
 31
0.0
  0
ARC
  5
2C4
330
1F
100
AcDbEntity
  8
002
 62
     3
370
    30
100
AcDbCircle
 10
134.527227
 20
269.341919
 30
0.0
 40
10.0
100
AcDbArc
 50
0.0
 51
90.0
  0
LINE
  5
2C5
330
1F
100
AcDbEntity
  8
002
 62
     3
370
    30
100
AcDbLine
 10
133.527227
 20
279.341919
 30
0.0
 11
133.527227
 21
323.341919
 31
0.0
  0
LINE
  5
2C6
330
1F
100
AcDbEntity
  8
002
 62
     3
370
    30
100
AcDbLine
 10
133.527227
 20
323.341919
 30
0.0
 11
401.527227
 21
323.341919
 31
0.0
  0
ARC
  5
2C7
330
1F
100
AcDbEntity
  8
002
 62
     3
370
    30
100
AcDbCircle
 10
408.527227
 20
261.279419
 30
0.0
 40
8.00041734911359
100
AcDbArc
 50
0.0
 51
34.769073
  0
LINE
  5
2C8
330
1F
100
AcDbEntity
  8
002
 62
     3
370
    30
100
AcDbLine
 10
401.527227
 20
309.341919
 30
0.0
 11
133.527227
 21
309.341919
 31
0.0
  0
LINE
  5
2C9
330
1F
100
AcDbEntity
  8
002
 62
     3
370
    30
100
AcDbLine
 10
139.027227
 20
323.341919
 30
0.0
 11
139.027227
 21
337.341919
 31
0.0
  0
LINE
  5
2CA
330
1F
100
AcDbEntity
  8
002
 62
     3
370
    30
100
AcDbLine
 10
175.836227
 20
337.341919
 30
0.0
 11
175.836227
 21
323.341919
 31
0.0
  0
LINE
  5
2CB
330
1F
100
AcDbEntity
  8
002
 62
     3
370
    30
100
AcDbLine
 10
175.836227
 20
324.341919
 30
0.0
 11
198.027227
 21
324.341919
 31
0.0
  0
LINE
  5
2CC
330
1F
100
AcDbEntity
  8
002
 62
     3
370
    30
100
AcDbLine
 10
198.027227
 20
323.341919
 30
0.0
 11
198.027227
 21
337.341919
 31
0.0
  0
LINE
  5
2CD
330
1F
100
AcDbEntity
  8
002
 62
     3
370
    30
100
AcDbLine
 10
198.027227
 20
337.341919
 30
0.0
 11
219.027227
 21
337.341919
 31
0.0
  0
LINE
  5
2CE
330
1F
100
AcDbEntity
  8
002
 62
     3
370
    30
100
AcDbLine
 10
219.027227
 20
337.341919
 30
0.0
 11
219.027227
 21
323.341919
 31
0.0
  0
LINE
  5
2CF
330
1F
100
AcDbEntity
  8
002
 62
     3
370
    30
100
AcDbLine
 10
219.027227
 20
324.341919
 30
0.0
 11
257.027227
 21
324.341919
 31
0.0
  0
LINE
  5
2D0
330
1F
100
AcDbEntity
  8
002
 62
     3
370
    30
100
AcDbLine
 10
257.027227
 20
323.341919
 30
0.0
 11
257.027227
 21
337.341919
 31
0.0
  0
LINE
  5
2D1
330
1F
100
AcDbEntity
  8
002
 62
     3
370
    30
100
AcDbLine
 10
257.027227
 20
337.341919
 30
0.0
 11
278.027227
 21
337.341919
 31
0.0
  0
LINE
  5
2D2
330
1F
100
AcDbEntity
  8
002
 62
     3
370
    30
100
AcDbLine
 10
278.027227
 20
337.341919
 30
0.0
 11
278.027227
 21
323.341919
 31
0.0
  0
LINE
  5
2D3
330
1F
100
AcDbEntity
  8
002
 62
     3
370
    30
100
AcDbLine
 10
278.027227
 20
324.341919
 30
0.0
 11
316.027227
 21
324.341919
 31
0.0
  0
LINE
  5
2D4
330
1F
100
AcDbEntity
  8
002
 62
     3
370
    30
100
AcDbLine
 10
316.027227
 20
323.341919
 30
0.0
 11
316.027227
 21
337.341919
 31
0.0
  0
LINE
  5
2D5
330
1F
100
AcDbEntity
  8
002
 62
     3
370
    30
100
AcDbLine
 10
316.027227
 20
337.341919
 30
0.0
 11
337.027227
 21
337.341919
 31
0.0
  0
LINE
  5
2D6
330
1F
100
AcDbEntity
  8
002
 62
     3
370
    30
100
AcDbLine
 10
337.027227
 20
337.341919
 30
0.0
 11
337.027227
 21
323.341919
 31
0.0
  0
LINE
  5
2D7
330
1F
100
AcDbEntity
  8
002
 62
     3
370
    30
100
AcDbLine
 10
337.027227
 20
324.341919
 30
0.0
 11
359.218227
 21
324.341919
 31
0.0
  0
LINE
  5
2D8
330
1F
100
AcDbEntity
  8
002
 62
     3
370
    30
100
AcDbLine
 10
359.218227
 20
323.341919
 30
0.0
 11
359.218227
 21
337.341919
 31
0.0
  0
LINE
  5
2D9
330
1F
100
AcDbEntity
  8
002
 62
     3
370
    30
100
AcDbLine
 10
359.218227
 20
337.341919
 30
0.0
 11
396.027227
 21
337.341919
 31
0.0
  0
LINE
  5
2DA
330
1F
100
AcDbEntity
  8
002
 62
     3
370
    30
100
AcDbLine
 10
357.527227
 20
339.341919
 30
0.0
 11
177.527227
 21
339.341919
 31
0.0
  0
LINE
  5
2DB
330
1F
100
AcDbEntity
  8
002
 62
     3
370
    30
100
AcDbLine
 10
177.527227
 20
339.341919
 30
0.0
 11
177.014227
 21
333.470419
 31
0.0
  0
LINE
  5
2DC
330
1F
100
AcDbEntity
  8
002
 62
     3
370
    30
100
AcDbLine
 10
175.836227
 20
337.341919
 30
0.0
 11
139.027227
 21
337.341919
 31
0.0
  0
LINE
  5
2DD
330
1F
100
AcDbEntity
  8
002
 62
     3
370
    30
100
AcDbLine
 10
154.836227
 20
337.341919
 30
0.0
 11
154.836227
 21
323.341919
 31
0.0
  0
ARC
  5
2DE
330
1F
100
AcDbEntity
  8
002
 62
     3
370
    30
100
AcDbCircle
 10
167.052227
 20
334.341919
 30
0.0
 40
10.00004781238592
100
AcDbArc
 50
331.455802
 51
355.000354
  0
LINE
  5
2DF
330
1F
100
AcDbEntity
  8
002
 62
     3
370
    30
100
AcDbLine
 10
217.527227
 20
339.341919
 30
0.0
 11
217.527227
 21
349.341919
 31
0.0
  0
LINE
  5
2E0
330
1F
100
AcDbEntity
  8
002
 62
     3
370
    30
100
AcDbLine
 10
217.527227
 20
349.341919
 30
0.0
 11
317.527227
 21
349.341919
 31
0.0
  0
LINE
  5
2E1
330
1F
100
AcDbEntity
  8
002
 62
     3
370
    30
100
AcDbLine
 10
317.527227
 20
349.341919
 30
0.0
 11
317.527227
 21
339.341919
 31
0.0
  0
LINE
  5
2E2
330
1F
100
AcDbEntity
  8
002
 62
     3
370
    30
100
AcDbLine
 10
357.527227
 20
339.341919
 30
0.0
 11
358.041227
 21
333.470419
 31
0.0
  0
ARC
  5
2E3
330
1F
100
AcDbEntity
  8
002
 62
     3
370
    30
100
AcDbCircle
 10
368.003227
 20
334.341919
 30
0.0
 40
10.0003232252762
100
AcDbArc
 50
184.999646
 51
208.54146
  0
LINE
  5
2E4
330
1F
100
AcDbEntity
  8
002
 62
     3
370
    30
100
AcDbLine
 10
380.218227
 20
337.341919
 30
0.0
 11
380.218227
 21
323.341919
 31
0.0
  0
LINE
  5
2E5
330
1F
100
AcDbEntity
  8
002
 62
     3
370
    30
100
AcDbLine
 10
396.027227
 20
323.341919
 30
0.0
 11
396.027227
 21
337.341919
 31
0.0
  0
LINE
  5
2E6
330
1F
100
AcDbEntity
  8
002
 62
     3
370
    30
100
AcDbLine
 10
337.955227
 20
288.436619
 30
0.0
 11
337.955227
 21
291.673119
 31
0.0
  0
ARC
  5
2E7
330
1F
100
AcDbEntity
  8
002
 62
     3
370
    30
100
AcDbCircle
 10
362.527227
 20
229.341919
 30
0.0
 40
66.99986271627724
100
AcDbArc
 50
111.515187
 51
131.731685
  0
LINE
  5
2E8
330
1F
100
AcDbEntity
  8
002
 62
     3
370
    30
100
AcDbLine
 10
317.929227
 20
279.341919
 30
0.0
 11
133.527227
 21
279.341919
 31
0.0
  0
LINE
  5
2E9
330
1F
100
AcDbEntity
  8
002
 62
     3
370
    30
100
AcDbLine
 10
162.882227
 20
269.341919
 30
0.0
 11
162.882227
 21
229.341919
 31
0.0
  0
LINE
  5
2EA
330
1F
100
AcDbEntity
  8
002
 62
     3
370
    30
100
AcDbLine
 10
144.527227
 20
245.947519
 30
0.0
 11
134.527227
 21
246.260019
 31
0.0
  0
LINE
  5
2EB
330
1F
100
AcDbEntity
  8
002
 62
     3
370
    30
100
AcDbLine
 10
134.527227
 20
246.260019
 30
0.0
 11
134.527227
 21
212.423919
 31
0.0
  0
LINE
  5
2EC
330
1F
100
AcDbEntity
  8
002
 62
     3
370
    30
100
AcDbLine
 10
134.527227
 20
212.423919
 30
0.0
 11
144.527227
 21
212.736419
 31
0.0
  0
LINE
  5
2ED
330
1F
100
AcDbEntity
  8
002
 62
     3
370
    30
100
AcDbLine
 10
134.527227
 20
219.841919
 30
0.0
 11
122.527227
 21
220.341919
 31
0.0
  0
LINE
  5
2EE
330
1F
100
AcDbEntity
  8
002
 62
     3
370
    30
100
AcDbLine
 10
122.527227
 20
220.341919
 30
0.0
 11
122.527227
 21
238.341919
 31
0.0
  0
LINE
  5
2EF
330
1F
100
AcDbEntity
  8
002
 62
     3
370
    30
100
AcDbLine
 10
122.527227
 20
238.341919
 30
0.0
 11
134.527227
 21
238.841919
 31
0.0
  0
ARC
  5
2F0
330
1F
100
AcDbEntity
  8
002
 62
     3
370
    30
100
AcDbCircle
 10
152.882227
 20
269.341919
 30
0.0
 40
10.00040819166902
100
AcDbArc
 50
0.0
 51
44.424712
  0
LINE
  5
2F1
330
1F
100
AcDbEntity
  8
002
 62
     3
370
    30
100
AcDbLine
 10
175.525227
 20
268.669419
 30
0.0
 11
205.525227
 21
268.669419
 31
0.0
  0
LINE
  5
2F2
330
1F
100
AcDbEntity
  8
002
 62
     3
370
    30
100
AcDbLine
 10
264.641227
 20
234.341919
 30
0.0
 11
270.414227
 21
234.341919
 31
0.0
  0
LINE
  5
2F3
330
1F
100
AcDbEntity
  8
002
 62
     3
370
    30
100
AcDbLine
 10
270.414227
 20
234.341919
 30
0.0
 11
273.301227
 21
229.341919
 31
0.0
  0
LINE
  5
2F4
330
1F
100
AcDbEntity
  8
002
 62
     3
370
    30
100
AcDbLine
 10
273.301227
 20
229.341919
 30
0.0
 11
270.414227
 21
224.341919
 31
0.0
  0
LINE
  5
2F5
330
1F
100
AcDbEntity
  8
002
 62
     3
370
    30
100
AcDbLine
 10
270.414227
 20
224.341919
 30
0.0
 11
264.641227
 21
224.341919
 31
0.0
  0
LINE
  5
2F6
330
1F
100
AcDbEntity
  8
002
 62
     3
370
    30
100
AcDbLine
 10
264.641227
 20
224.341919
 30
0.0
 11
261.754227
 21
229.341919
 31
0.0
  0
LINE
  5
2F7
330
1F
100
AcDbEntity
  8
002
 62
     3
370
    30
100
AcDbLine
 10
261.754227
 20
229.341919
 30
0.0
 11
264.641227
 21
234.341919
 31
0.0
  0
CIRCLE
  5
2F8
330
1F
100
AcDbEntity
  8
002
 62
     3
370
    30
100
AcDbCircle
 10
267.527227
 20
229.341919
 30
0.0
 40
0.75
  0
CIRCLE
  5
2F9
330
1F
100
AcDbEntity
  8
002
 62
     3
370
    30
100
AcDbCircle
 10
267.527227
 20
229.341919
 30
0.0
 40
2.5
  0
CIRCLE
  5
2FA
330
1F
100
AcDbEntity
  8
002
 62
     3
370
    30
100
AcDbCircle
 10
267.527227
 20
229.341919
 30
0.0
 40
3.25
  0
CIRCLE
  5
2FB
330
1F
100
AcDbEntity
  8
002
 62
     3
370
    30
100
AcDbCircle
 10
267.527227
 20
229.341919
 30
0.0
 40
5.0
  0
CIRCLE
  5
2FC
330
1F
100
AcDbEntity
  8
002
 62
     3
370
    30
100
AcDbCircle
 10
267.527227
 20
229.341919
 30
0.0
 40
15.0
  0
ARC
  5
2FD
330
1F
100
AcDbEntity
  8
002
 62
     3
370
    30
100
AcDbCircle
 10
485.416227
 20
160.341919
 30
0.0
 40
5.0
100
AcDbArc
 50
209.963469
 51
270.0
  0
LINE
  5
2FE
330
1F
100
AcDbEntity
  8
002
 62
     3
370
    30
100
AcDbLine
 10
292.027227
 20
618.340819
 30
0.0
 11
292.027227
 21
640.171119
 31
0.0
  0
LINE
  5
2FF
330
1F
100
AcDbEntity
  8
002
 62
     3
370
    30
100
AcDbLine
 10
300.516227
 20
632.430119
 30
0.0
 11
282.527227
 21
648.834919
 31
0.0
  0
LINE
  5
300
330
1F
100
AcDbEntity
  8
002
 62
     3
370
    30
100
AcDbLine
 10
282.527227
 20
647.210619
 30
0.0
 11
252.527227
 21
674.568619
 31
0.0
  0
LINE
  5
301
330
1F
100
AcDbEntity
  8
002
 62
     3
370
    30
100
AcDbLine
 10
252.527227
 20
676.193319
 30
0.0
 11
223.757227
 21
702.429619
 31
0.0
  0
ARC
  5
302
330
1F
100
AcDbEntity
  8
002
 62
     3
370
    30
100
AcDbCircle
 10
229.147227
 20
708.340619
 30
0.0
 40
7.999858783753691
100
AcDbArc
 50
47.634778
 51
226.851856
  0
LINE
  5
303
330
1F
100
AcDbEntity
  8
002
 62
     3
370
    30
100
AcDbLine
 10
234.538227
 20
714.251819
 30
0.0
 11
252.527227
 21
697.847019
 31
0.0
  0
LINE
  5
304
330
1F
100
AcDbEntity
  8
002
 62
     3
370
    30
100
AcDbLine
 10
252.527227
 20
699.470319
 30
0.0
 11
282.527227
 21
672.112319
 31
0.0
  0
LINE
  5
305
330
1F
100
AcDbEntity
  8
002
 62
     3
370
    30
100
AcDbLine
 10
282.527227
 20
670.488619
 30
0.0
 11
311.297227
 21
644.252219
 31
0.0
  0
ARC
  5
306
330
1F
100
AcDbEntity
  8
002
 62
     3
370
    30
100
AcDbCircle
 10
305.907227
 20
638.341519
 30
0.0
 40
8.000469751833313
100
AcDbArc
 50
227.640553
 51
46.846141
  0
LINE
  5
307
330
1F
100
AcDbEntity
  8
002
 62
     3
370
    30
100
AcDbLine
 10
292.027227
 20
661.825219
 30
0.0
 11
292.027227
 21
720.170419
 31
0.0
  0
LINE
  5
308
330
1F
100
AcDbEntity
  8
002
 62
     3
370
    30
100
AcDbLine
 10
300.516227
 20
712.429119
 30
0.0
 11
282.527227
 21
728.834119
 31
0.0
  0
LINE
  5
309
330
1F
100
AcDbEntity
  8
002
 62
     3
370
    30
100
AcDbLine
 10
282.527227
 20
727.211119
 30
0.0
 11
252.527227
 21
754.569119
 31
0.0
  0
LINE
  5
30A
330
1F
100
AcDbEntity
  8
002
 62
     3
370
    30
100
AcDbLine
 10
252.527227
 20
756.192119
 30
0.0
 11
223.757227
 21
782.428119
 31
0.0
  0
ARC
  5
30B
330
1F
100
AcDbEntity
  8
002
 62
     3
370
    30
100
AcDbCircle
 10
229.147227
 20
788.339119
 30
0.0
 40
7.999421041550456
100
AcDbArc
 50
47.639121
 51
226.848917
  0
LINE
  5
30C
330
1F
100
AcDbEntity
  8
002
 62
     3
370
    30
100
AcDbLine
 10
234.538227
 20
794.251119
 30
0.0
 11
252.527227
 21
777.846119
 31
0.0
  0
LINE
  5
30D
330
1F
100
AcDbEntity
  8
002
 62
     3
370
    30
100
AcDbLine
 10
252.527227
 20
779.470119
 30
0.0
 11
282.527227
 21
752.112119
 31
0.0
  0
LINE
  5
30E
330
1F
100
AcDbEntity
  8
002
 62
     3
370
    30
100
AcDbLine
 10
282.527227
 20
750.487119
 30
0.0
 11
311.297227
 21
724.251219
 31
0.0
  0
ARC
  5
30F
330
1F
100
AcDbEntity
  8
002
 62
     3
370
    30
100
AcDbCircle
 10
305.907227
 20
718.340419
 30
0.0
 40
8.000542704091986
100
AcDbArc
 50
227.64007
 51
46.846631
  0
LINE
  5
310
330
1F
100
AcDbEntity
  8
002
 62
     3
370
    30
100
AcDbLine
 10
292.027227
 20
741.824119
 30
0.0
 11
292.027227
 21
808.341119
 31
0.0
  0
ARC
  5
311
330
1F
100
AcDbEntity
  8
002
 62
     3
370
    30
100
AcDbCircle
 10
280.527227
 20
804.340119
 30
0.0
 40
2.0
100
AcDbArc
 50
0.0
 51
90.0
  0
LINE
  5
312
330
1F
100
AcDbEntity
  8
002
 62
     3
370
    30
100
AcDbLine
 10
280.527227
 20
806.340119
 30
0.0
 11
254.528227
 21
806.340119
 31
0.0
  0
ARC
  5
313
330
1F
100
AcDbEntity
  8
002
 62
     3
370
    30
100
AcDbCircle
 10
254.528227
 20
804.340119
 30
0.0
 40
2.0
100
AcDbArc
 50
90.0
 51
180.0
  0
LINE
  5
314
330
1F
100
AcDbEntity
  8
002
 62
     3
370
    30
100
AcDbLine
 10
252.527227
 20
804.340119
 30
0.0
 11
252.527227
 21
622.340519
 31
0.0
  0
ARC
  5
315
330
1F
100
AcDbEntity
  8
002
 62
     3
370
    30
100
AcDbCircle
 10
254.527227
 20
622.340519
 30
0.0
 40
2.0
100
AcDbArc
 50
180.0
 51
270.0
  0
LINE
  5
316
330
1F
100
AcDbEntity
  8
002
 62
     3
370
    30
100
AcDbLine
 10
254.527227
 20
620.340519
 30
0.0
 11
280.527227
 21
620.340519
 31
0.0
  0
ARC
  5
317
330
1F
100
AcDbEntity
  8
002
 62
     3
370
    30
100
AcDbCircle
 10
280.527227
 20
622.340519
 30
0.0
 40
2.0
100
AcDbArc
 50
270.0
 51
0.0
  0
LINE
  5
318
330
1F
100
AcDbEntity
  8
002
 62
     3
370
    30
100
AcDbLine
 10
282.527227
 20
622.340519
 30
0.0
 11
282.527227
 21
804.340119
 31
0.0
  0
LINE
  5
319
330
1F
100
AcDbEntity
  8
002
 62
     3
370
    30
100
AcDbLine
 10
272.435227
 20
801.840119
 30
0.0
 11
262.620227
 21
801.840119
 31
0.0
  0
LINE
  5
31A
330
1F
100
AcDbEntity
  8
002
 62
     3
370
    30
100
AcDbLine
 10
262.620227
 20
801.841119
 30
0.0
 11
257.712227
 21
793.341119
 31
0.0
  0
LINE
  5
31B
330
1F
100
AcDbEntity
  8
002
 62
     3
370
    30
100
AcDbLine
 10
257.712227
 20
793.340119
 30
0.0
 11
262.620227
 21
784.840119
 31
0.0
  0
LINE
  5
31C
330
1F
100
AcDbEntity
  8
002
 62
     3
370
    30
100
AcDbLine
 10
262.620227
 20
784.840119
 30
0.0
 11
272.435227
 21
784.840119
 31
0.0
  0
LINE
  5
31D
330
1F
100
AcDbEntity
  8
002
 62
     3
370
    30
100
AcDbLine
 10
272.435227
 20
784.840119
 30
0.0
 11
277.342227
 21
793.340119
 31
0.0
  0
LINE
  5
31E
330
1F
100
AcDbEntity
  8
002
 62
     3
370
    30
100
AcDbLine
 10
277.342227
 20
793.340119
 30
0.0
 11
272.435227
 21
801.840119
 31
0.0
  0
CIRCLE
  5
31F
330
1F
100
AcDbEntity
  8
002
 62
     3
370
    30
100
AcDbCircle
 10
267.527227
 20
793.340119
 30
0.0
 40
5.0
  0
CIRCLE
  5
320
330
1F
100
AcDbEntity
  8
002
 62
     3
370
    30
100
AcDbCircle
 10
267.527227
 20
793.340119
 30
0.0
 40
4.1
  0
CIRCLE
  5
321
330
1F
100
AcDbEntity
  8
002
 62
     3
370
    30
100
AcDbCircle
 10
267.527227
 20
793.340119
 30
0.0
 40
8.249999
  0
LINE
  5
322
330
1F
100
AcDbEntity
  8
002
 62
     3
370
    30
100
AcDbLine
 10
243.027227
 20
786.510119
 30
0.0
 11
243.027227
 21
808.341119
 31
0.0
  0
LINE
  5
323
330
1F
100
AcDbEntity
  8
002
 62
     3
370
    30
100
AcDbLine
 10
330.027227
 20
808.341119
 30
0.0
 11
205.027227
 21
808.341119
 31
0.0
  0
ARC
  5
324
330
1F
100
AcDbEntity
  8
002
 62
     3
370
    30
100
AcDbCircle
 10
13.045227
 20
236.313819
 30
0.0
 40
149.9991131927452
100
AcDbArc
 50
341.783888
 51
357.335955
  0
ARC
  5
325
330
1F
100
AcDbEntity
  8
002
 62
     3
370
    30
100
AcDbCircle
 10
150.527227
 20
160.341919
 30
0.0
 40
5.0
100
AcDbArc
 50
270.0
 51
0.0
  0
LINE
  5
326
330
1F
100
AcDbEntity
  8
002
 62
     3
370
    30
100
AcDbLine
 10
142.527227
 20
618.340919
 30
0.0
 11
392.527227
 21
618.340919
 31
0.0
  0
LINE
  5
327
330
1F
100
AcDbEntity
  8
002
 62
     3
370
    30
100
AcDbLine
 10
243.027227
 20
618.340819
 30
0.0
 11
243.027227
 21
684.856019
 31
0.0
  0
LINE
  5
328
330
1F
100
AcDbEntity
  8
002
 62
     3
370
    30
100
AcDbLine
 10
243.027227
 20
706.509719
 30
0.0
 11
243.027227
 21
764.855119
 31
0.0
  0
LINE
  5
329
330
1F
100
AcDbEntity
  8
002
 62
     3
370
    30
100
AcDbLine
 10
262.620227
 20
721.840619
 30
0.0
 11
257.712227
 21
713.340619
 31
0.0
  0
LINE
  5
32A
330
1F
100
AcDbEntity
  8
002
 62
     3
370
    30
100
AcDbLine
 10
257.712227
 20
713.340519
 30
0.0
 11
262.620227
 21
704.840519
 31
0.0
  0
LINE
  5
32B
330
1F
100
AcDbEntity
  8
002
 62
     3
370
    30
100
AcDbLine
 10
262.620227
 20
704.840519
 30
0.0
 11
272.435227
 21
704.840519
 31
0.0
  0
LINE
  5
32C
330
1F
100
AcDbEntity
  8
002
 62
     3
370
    30
100
AcDbLine
 10
272.435227
 20
704.840519
 30
0.0
 11
277.342227
 21
713.340519
 31
0.0
  0
LINE
  5
32D
330
1F
100
AcDbEntity
  8
002
 62
     3
370
    30
100
AcDbLine
 10
277.342227
 20
713.340519
 30
0.0
 11
272.435227
 21
721.840519
 31
0.0
  0
LINE
  5
32E
330
1F
100
AcDbEntity
  8
002
 62
     3
370
    30
100
AcDbLine
 10
272.435227
 20
721.840519
 30
0.0
 11
262.620227
 21
721.840519
 31
0.0
  0
CIRCLE
  5
32F
330
1F
100
AcDbEntity
  8
002
 62
     3
370
    30
100
AcDbCircle
 10
267.527227
 20
713.340519
 30
0.0
 40
4.1
  0
CIRCLE
  5
330
330
1F
100
AcDbEntity
  8
002
 62
     3
370
    30
100
AcDbCircle
 10
267.527227
 20
713.340519
 30
0.0
 40
5.0
  0
CIRCLE
  5
331
330
1F
100
AcDbEntity
  8
002
 62
     3
370
    30
100
AcDbCircle
 10
267.527227
 20
713.340519
 30
0.0
 40
8.249999
  0
LINE
  5
332
330
1F
100
AcDbEntity
  8
002
 62
     3
370
    30
100
AcDbLine
 10
272.435227
 20
641.840619
 30
0.0
 11
262.620227
 21
641.840619
 31
0.0
  0
LINE
  5
333
330
1F
100
AcDbEntity
  8
002
 62
     3
370
    30
100
AcDbLine
 10
262.620227
 20
641.840519
 30
0.0
 11
257.712227
 21
633.340519
 31
0.0
  0
LINE
  5
334
330
1F
100
AcDbEntity
  8
002
 62
     3
370
    30
100
AcDbLine
 10
257.712227
 20
633.340519
 30
0.0
 11
262.620227
 21
624.840519
 31
0.0
  0
LINE
  5
335
330
1F
100
AcDbEntity
  8
002
 62
     3
370
    30
100
AcDbLine
 10
262.620227
 20
624.840519
 30
0.0
 11
272.435227
 21
624.840519
 31
0.0
  0
LINE
  5
336
330
1F
100
AcDbEntity
  8
002
 62
     3
370
    30
100
AcDbLine
 10
272.435227
 20
624.840419
 30
0.0
 11
277.342227
 21
633.340519
 31
0.0
  0
LINE
  5
337
330
1F
100
AcDbEntity
  8
002
 62
     3
370
    30
100
AcDbLine
 10
277.342227
 20
633.340519
 30
0.0
 11
272.435227
 21
641.840519
 31
0.0
  0
CIRCLE
  5
338
330
1F
100
AcDbEntity
  8
002
 62
     3
370
    30
100
AcDbCircle
 10
267.527227
 20
633.340519
 30
0.0
 40
5.0
  0
CIRCLE
  5
339
330
1F
100
AcDbEntity
  8
002
 62
     3
370
    30
100
AcDbCircle
 10
267.527227
 20
633.340519
 30
0.0
 40
4.1
  0
CIRCLE
  5
33A
330
1F
100
AcDbEntity
  8
002
 62
     3
370
    30
100
AcDbCircle
 10
267.527227
 20
633.340519
 30
0.0
 40
8.249999
  0
LINE
  5
33B
330
1F
100
AcDbEntity
  8
002
  6
CENTER
 62
    40
370
     9
100
AcDbLine
 10
223.237227
 20
793.730119
 30
0.0
 11
252.527227
 21
767.020119
 31
0.0
  0
LINE
  5
33C
330
1F
100
AcDbEntity
  8
002
  6
CENTER
 62
    40
370
     9
100
AcDbLine
 10
282.527227
 20
739.660119
 30
0.0
 11
311.818227
 21
712.949219
 31
0.0
  0
LINE
  5
33D
330
1F
100
AcDbEntity
  8
002
  6
CENTER
 62
    40
370
     9
100
AcDbLine
 10
282.527227
 20
659.661219
 30
0.0
 11
311.818227
 21
632.950319
 31
0.0
  0
LINE
  5
33E
330
1F
100
AcDbEntity
  8
002
  6
CENTER
 62
    40
370
     9
100
AcDbLine
 10
326.527227
 20
343.313219
 30
0.0
 11
326.527227
 21
301.930719
 31
0.0
  0
LINE
  5
33F
330
1F
100
AcDbEntity
  8
002
  6
CENTER
 62
    40
370
     9
100
AcDbLine
 10
362.527227
 20
301.654019
 30
0.0
 11
362.527227
 21
155.341919
 31
0.0
  0
LINE
  5
340
330
1F
100
AcDbEntity
  8
002
  6
CENTER
 62
    40
370
     9
100
AcDbLine
 10
345.027227
 20
141.050619
 30
0.0
 11
345.027227
 21
110.362519
 31
0.0
  0
LINE
  5
341
330
1F
100
AcDbEntity
  8
002
  6
CENTER
 62
    40
370
     9
100
AcDbLine
 10
452.527227
 20
118.404719
 30
0.0
 11
452.527227
 21
162.502619
 31
0.0
  0
LINE
  5
342
330
1F
100
AcDbEntity
  8
002
  6
CENTER
 62
    40
370
     9
100
AcDbLine
 10
452.527227
 20
229.341919
 30
0.0
 11
103.604227
 21
229.341919
 31
0.0
  0
LINE
  5
343
330
1F
100
AcDbEntity
  8
002
 62
    40
370
     9
100
AcDbLine
 10
122.527227
 20
238.341919
 30
0.0
 11
134.527227
 21
219.841919
 31
0.0
  0
LINE
  5
344
330
1F
100
AcDbEntity
  8
002
 62
    40
370
     9
100
AcDbLine
 10
134.527227
 20
213.864219
 30
0.0
 11
144.527227
 21
214.176719
 31
0.0
  0
LINE
  5
345
330
1F
100
AcDbEntity
  8
002
 62
    40
370
     9
100
AcDbLine
 10
122.527227
 20
220.341919
 30
0.0
 11
134.527227
 21
238.841919
 31
0.0
  0
LINE
  5
346
330
1F
100
AcDbEntity
  8
002
 62
    40
370
     9
100
AcDbLine
 10
134.527227
 20
244.819619
 30
0.0
 11
144.527227
 21
244.507119
 31
0.0
  0
LINE
  5
347
330
1F
100
AcDbEntity
  8
002
  6
CENTER
 62
    40
370
     9
100
AcDbLine
 10
149.527227
 20
301.930719
 30
0.0
 11
149.527227
 21
343.313219
 31
0.0
  0
LINE
  5
348
330
1F
100
AcDbEntity
  8
002
  6
CENTER
 62
    40
370
     9
100
AcDbLine
 10
165.336227
 20
343.313219
 30
0.0
 11
165.336227
 21
301.930719
 31
0.0
  0
LINE
  5
349
330
1F
100
AcDbEntity
  8
002
  6
CENTER
 62
    40
370
     9
100
AcDbLine
 10
208.527227
 20
301.930719
 30
0.0
 11
208.527227
 21
343.313219
 31
0.0
  0
LINE
  5
34A
330
1F
100
AcDbEntity
  8
002
  6
CENTER
 62
    40
370
     9
100
AcDbLine
 10
252.527227
 20
687.020719
 30
0.0
 11
223.237227
 21
713.731619
 31
0.0
  0
LINE
  5
34B
330
1F
100
AcDbEntity
  8
002
  6
CENTER
 62
    40
370
     9
100
AcDbLine
 10
190.027227
 20
141.050619
 30
0.0
 11
190.027227
 21
110.362519
 31
0.0
  0
LINE
  5
34C
330
1F
100
AcDbEntity
  8
002
  6
CENTER
 62
    40
370
     9
100
AcDbLine
 10
172.527227
 20
118.404719
 30
0.0
 11
172.527227
 21
162.502619
 31
0.0
  0
LINE
  5
34D
330
1F
100
AcDbEntity
  8
002
  6
CENTER
 62
    40
370
     9
100
AcDbLine
 10
385.527227
 20
301.930719
 30
0.0
 11
385.527227
 21
343.313219
 31
0.0
  0
LINE
  5
34E
330
1F
100
AcDbEntity
  8
002
  6
CENTER
 62
    40
370
     9
100
AcDbLine
 10
369.718227
 20
343.313219
 30
0.0
 11
369.718227
 21
301.930719
 31
0.0
  0
LINE
  5
34F
330
1F
100
AcDbEntity
  8
002
  6
CENTER
 62
    40
370
     9
100
AcDbLine
 10
373.357404
 20
1471.403784
 30
0.0
 11
334.821152
 21
1449.15482
 31
0.0
  0
LINE
  5
350
330
1F
100
AcDbEntity
  8
002
  6
CENTER
 62
    40
370
     9
100
AcDbLine
 10
402.527227
 20
1410.303519
 30
0.0
 11
132.527227
 21
1410.303519
 31
0.0
  0
LINE
  5
351
330
1F
100
AcDbEntity
  8
002
  6
CENTER
 62
    40
370
     9
100
AcDbLine
 10
164.414465
 20
1350.771324
 30
0.0
 11
196.685808
 21
1369.403238
 31
0.0
  0
LINE
  5
352
330
1F
100
AcDbEntity
  8
002
  6
PHANTOM
 62
    40
370
     9
100
AcDbLine
 10
219.527227
 20
1371.060519
 30
0.0
 11
219.527227
 21
1338.303519
 31
0.0
  0
ARC
  5
353
330
1F
100
AcDbEntity
  8
002
  6
PHANTOM
 62
    40
370
     9
100
AcDbCircle
 10
224.527227
 20
1338.303519
 30
0.0
 40
5.0
100
AcDbArc
 50
180.0
 51
270.0
  0
LINE
  5
354
330
1F
100
AcDbEntity
  8
002
  6
PHANTOM
 62
    40
370
     9
100
AcDbLine
 10
224.527227
 20
1333.303519
 30
0.0
 11
310.527227
 21
1333.303519
 31
0.0
  0
ARC
  5
355
330
1F
100
AcDbEntity
  8
002
  6
PHANTOM
 62
    40
370
     9
100
AcDbCircle
 10
310.527227
 20
1338.303519
 30
0.0
 40
5.0
100
AcDbArc
 50
270.0
 51
0.0
  0
LINE
  5
356
330
1F
100
AcDbEntity
  8
002
  6
PHANTOM
 62
    40
370
     9
100
AcDbLine
 10
315.527227
 20
1338.303519
 30
0.0
 11
315.527227
 21
1371.060519
 31
0.0
  0
LINE
  5
357
330
1F
100
AcDbEntity
  8
002
  6
CENTER
 62
    40
370
     9
100
AcDbLine
 10
337.367711
 20
1369.981074
 30
0.0
 11
372.081411
 21
1349.939067
 31
0.0
  0
LINE
  5
358
330
1F
100
AcDbEntity
  8
002
  6
CENTER
 62
    40
370
     9
100
AcDbLine
 10
267.527227
 20
1275.303519
 30
0.0
 11
267.527227
 21
1545.303519
 31
0.0
  0
LINE
  5
359
330
1F
100
AcDbEntity
  8
002
  6
CENTER
 62
    40
370
     9
100
AcDbLine
 10
197.02518
 20
1451.007867
 30
0.0
 11
162.960833
 21
1470.674659
 31
0.0
  0
CIRCLE
  5
35A
330
1F
100
AcDbEntity
  8
002
 62
     3
370
    30
100
AcDbCircle
 10
267.527227
 20
1410.303519
 30
0.0
 40
61.99997
  0
LINE
  5
35B
330
1F
100
AcDbEntity
  8
002
 62
     3
370
    30
100
AcDbLine
 10
312.029427
 20
1354.680519
 30
0.0
 11
312.029427
 21
1367.133519
 31
0.0
  0
ARC
  5
35C
330
1F
100
AcDbEntity
  8
002
 62
     3
370
    30
100
AcDbCircle
 10
295.001327
 20
1354.680519
 30
0.0
 40
17.02800000000002
100
AcDbArc
 50
270.000336
 51
0.0
  0
LINE
  5
35D
330
1F
100
AcDbEntity
  8
002
 62
     3
370
    30
100
AcDbLine
 10
282.361227
 20
1337.652519
 30
0.0
 11
295.001427
 21
1337.652519
 31
0.0
  0
LINE
  5
35E
330
1F
100
AcDbEntity
  8
002
 62
     3
370
    30
100
AcDbLine
 10
282.361227
 20
1335.552519
 30
0.0
 11
282.361227
 21
1350.102519
 31
0.0
  0
LINE
  5
35F
330
1F
100
AcDbEntity
  8
002
 62
     3
370
    30
100
AcDbLine
 10
252.693127
 20
1335.552519
 30
0.0
 11
282.361227
 21
1335.552519
 31
0.0
  0
LINE
  5
360
330
1F
100
AcDbEntity
  8
002
 62
     3
370
    30
100
AcDbLine
 10
252.693127
 20
1335.552519
 30
0.0
 11
252.693127
 21
1350.102519
 31
0.0
  0
LINE
  5
361
330
1F
100
AcDbEntity
  8
002
 62
     3
370
    30
100
AcDbLine
 10
240.052927
 20
1337.652519
 30
0.0
 11
252.693127
 21
1337.652519
 31
0.0
  0
ARC
  5
362
330
1F
100
AcDbEntity
  8
002
 62
     3
370
    30
100
AcDbCircle
 10
240.053027
 20
1354.680519
 30
0.0
 40
17.02799999999979
100
AcDbArc
 50
180.0
 51
270.0
  0
LINE
  5
363
330
1F
100
AcDbEntity
  8
002
 62
     3
370
    30
100
AcDbLine
 10
223.024927
 20
1354.680519
 30
0.0
 11
223.024927
 21
1367.133519
 31
0.0
  0
LINE
  5
364
330
1F
100
AcDbEntity
  8
002
 62
     3
370
    30
100
AcDbLine
 10
227.527227
 20
808.341119
 30
0.0
 11
227.527227
 21
959.341919
 31
0.0
  0
LINE
  5
365
330
1F
100
AcDbEntity
  8
002
 62
     3
370
    30
100
AcDbLine
 10
227.527227
 20
959.341919
 30
0.0
 11
307.527227
 21
959.341919
 31
0.0
  0
LINE
  5
366
330
1F
100
AcDbEntity
  8
002
 62
     3
370
    30
100
AcDbLine
 10
307.527227
 20
959.341919
 30
0.0
 11
307.527227
 21
808.341119
 31
0.0
  0
LINE
  5
367
330
1F
100
AcDbEntity
  8
002
 62
     3
370
    30
100
AcDbLine
 10
300.027227
 20
959.341919
 30
0.0
 11
300.027227
 21
1059.341919
 31
0.0
  0
LINE
  5
368
330
1F
100
AcDbEntity
  8
002
 62
     3
370
    30
100
AcDbLine
 10
300.027227
 20
1059.341919
 30
0.0
 11
235.027227
 21
1059.341919
 31
0.0
  0
LINE
  5
369
330
1F
100
AcDbEntity
  8
002
 62
     3
370
    30
100
AcDbLine
 10
235.027227
 20
1059.341919
 30
0.0
 11
235.027227
 21
959.341919
 31
0.0
  0
LINE
  5
36A
330
1F
100
AcDbEntity
  8
002
 62
    40
370
     9
100
AcDbLine
 10
232.249227
 20
959.341919
 30
0.0
 11
232.249227
 21
808.341119
 31
0.0
  0
LINE
  5
36B
330
1F
100
AcDbEntity
  8
002
 62
    40
370
     9
100
AcDbLine
 10
302.805227
 20
808.341119
 30
0.0
 11
302.805227
 21
959.341919
 31
0.0
  0
LINE
  5
36C
330
1F
100
AcDbEntity
  8
002
  6
HIDDEN
 62
    40
370
     9
100
AcDbLine
 10
469.027227
 20
154.341919
 30
0.0
 11
469.027227
 21
129.341919
 31
0.0
  0
LINE
  5
36D
330
1F
100
AcDbEntity
  8
002
  6
HIDDEN
 62
    40
370
     9
100
AcDbLine
 10
420.027227
 20
154.341919
 30
0.0
 11
485.027227
 21
154.341919
 31
0.0
  0
LINE
  5
36E
330
1F
100
AcDbEntity
  8
002
  6
HIDDEN
 62
    40
370
     9
100
AcDbLine
 10
485.027227
 20
154.341919
 30
0.0
 11
485.027227
 21
155.341919
 31
0.0
  0
LINE
  5
36F
330
1F
100
AcDbEntity
  8
002
  6
HIDDEN
 62
    40
370
     9
100
AcDbLine
 10
436.027227
 20
154.341919
 30
0.0
 11
436.027227
 21
129.341919
 31
0.0
  0
LINE
  5
370
330
1F
100
AcDbEntity
  8
002
  6
HIDDEN
 62
    40
370
     9
100
AcDbLine
 10
420.027227
 20
155.341919
 30
0.0
 11
420.027227
 21
154.341919
 31
0.0
  0
LINE
  5
371
330
1F
100
AcDbEntity
  8
002
  6
HIDDEN
 62
    40
370
     9
100
AcDbLine
 10
189.027227
 20
154.341919
 30
0.0
 11
189.027227
 21
129.341919
 31
0.0
  0
LINE
  5
372
330
1F
100
AcDbEntity
  8
002
  6
HIDDEN
 62
    40
370
     9
100
AcDbLine
 10
140.027227
 20
154.341919
 30
0.0
 11
205.027227
 21
154.341919
 31
0.0
  0
LINE
  5
373
330
1F
100
AcDbEntity
  8
002
  6
HIDDEN
 62
    40
370
     9
100
AcDbLine
 10
205.027227
 20
154.341919
 30
0.0
 11
205.027227
 21
155.341919
 31
0.0
  0
LINE
  5
374
330
1F
100
AcDbEntity
  8
002
  6
HIDDEN
 62
    40
370
     9
100
AcDbLine
 10
156.027227
 20
154.341919
 30
0.0
 11
156.027227
 21
129.341919
 31
0.0
  0
LINE
  5
375
330
1F
100
AcDbEntity
  8
002
  6
HIDDEN
 62
    40
370
     9
100
AcDbLine
 10
140.027227
 20
155.341919
 30
0.0
 11
140.027227
 21
154.341919
 31
0.0
  0
CIRCLE
  5
376
330
1F
100
AcDbEntity
  8
002
 62
     3
370
    30
100
AcDbCircle
 10
267.527227
 20
1410.303519
 30
0.0
 40
32.5
  0
CIRCLE
  5
377
330
1F
100
AcDbEntity
  8
002
 62
     3
370
    30
100
AcDbCircle
 10
267.527227
 20
1410.303519
 30
0.0
 40
40.0
  0
CIRCLE
  5
378
330
1F
100
AcDbEntity
  8
002
 62
    40
370
     9
100
AcDbCircle
 10
267.527227
 20
1410.303519
 30
0.0
 40
35.27800000000025
  0
LINE
  5
379
330
1F
100
AcDbEntity
  8
002
 62
     3
370
    30
100
AcDbLine
 10
205.027227
 20
618.340919
 30
0.0
 11
205.027227
 21
808.341119
 31
0.0
  0
LINE
  5
37A
330
1F
100
AcDbEntity
  8
002
 62
     3
370
    30
100
AcDbLine
 10
330.027227
 20
618.340919
 30
0.0
 11
330.027227
 21
808.341119
 31
0.0
  0
LINE
  5
37B
330
1F
100
AcDbEntity
  8
002
 62
     3
370
    30
100
AcDbLine
 10
142.527227
 20
573.340919
 30
0.0
 11
392.527227
 21
573.340919
 31
0.0
  0
LINE
  5
37C
330
1F
100
AcDbEntity
  8
002
 62
     3
370
    30
100
AcDbLine
 10
392.527227
 20
573.340919
 30
0.0
 11
392.527227
 21
618.340919
 31
0.0
  0
LINE
  5
37D
330
1F
100
AcDbEntity
  8
002
 62
     3
370
    30
100
AcDbLine
 10
142.527227
 20
573.340919
 30
0.0
 11
142.527227
 21
618.340919
 31
0.0
  0
LINE
  5
37E
330
1F
100
AcDbEntity
  8
002
  6
CENTER
 62
    40
370
     9
100
AcDbLine
 10
367.527227
 20
563.340919
 30
0.0
 11
367.527227
 21
628.340919
 31
0.0
  0
LINE
  5
37F
330
1F
100
AcDbEntity
  8
002
  6
CENTER
 62
    40
370
     9
100
AcDbLine
 10
167.527227
 20
563.340919
 30
0.0
 11
167.527227
 21
628.340919
 31
0.0
  0
CIRCLE
  5
380
330
1F
100
AcDbEntity
  8
002
 62
     3
370
    30
100
AcDbCircle
 10
267.527227
 20
1410.303519
 30
0.0
 40
125.0
  0
CIRCLE
  5
381
330
1F
100
AcDbEntity
  8
002
  6
CENTER
 62
    40
370
    30
100
AcDbCircle
 10
267.527227
 20
1410.303519
 30
0.0
 40
100.0
  0
CIRCLE
  5
382
330
1F
100
AcDbEntity
  8
002
 62
     3
370
    30
100
AcDbCircle
 10
180.924683
 20
1360.303526
 30
0.0
 40
13.0
  0
CIRCLE
  5
383
330
1F
100
AcDbEntity
  8
002
 62
     3
370
    30
100
AcDbCircle
 10
180.924619
 20
1460.303403
 30
0.0
 40
13.0
  0
CIRCLE
  5
384
330
1F
100
AcDbEntity
  8
002
 62
     3
370
    30
100
AcDbCircle
 10
354.130131
 20
1460.302889
 30
0.0
 40
13.0
  0
CIRCLE
  5
385
330
1F
100
AcDbEntity
  8
002
 62
     3
370
    30
100
AcDbCircle
 10
354.129748
 20
1360.303487
 30
0.0
 40
13.0
  0
LINE
  5
386
330
1F
100
AcDbEntity
  8
002
 62
     3
370
    30
100
AcDbLine
 10
1406.235608
 20
797.965704
 30
0.0
 11
1406.235608
 21
773.965704
 31
0.0
  0
LINE
  5
387
330
1F
100
AcDbEntity
  8
002
 62
     3
370
    30
100
AcDbLine
 10
1406.235608
 20
773.965704
 30
0.0
 11
1056.235608
 21
773.965704
 31
0.0
  0
LINE
  5
388
330
1F
100
AcDbEntity
  8
002
 62
     3
370
    30
100
AcDbLine
 10
1056.235608
 20
773.965704
 30
0.0
 11
1056.235608
 21
797.965704
 31
0.0
  0
ARC
  5
389
330
1F
100
AcDbEntity
  8
002
 62
     3
370
    30
100
AcDbCircle
 10
1058.235608
 20
797.965704
 30
0.0
 40
2.0
100
AcDbArc
 50
90.0
 51
180.0
  0
LINE
  5
38A
330
1F
100
AcDbEntity
  8
002
 62
     3
370
    30
100
AcDbLine
 10
1058.235608
 20
799.965704
 30
0.0
 11
1404.235608
 21
799.965704
 31
0.0
  0
ARC
  5
38B
330
1F
100
AcDbEntity
  8
002
 62
     3
370
    30
100
AcDbCircle
 10
1404.235608
 20
797.965704
 30
0.0
 40
2.0
100
AcDbArc
 50
0.0
 51
90.0
  0
ARC
  5
38C
330
1F
100
AcDbEntity
  8
002
 62
     3
370
    30
100
AcDbCircle
 10
1404.124608
 20
804.965704
 30
0.0
 40
5.000123298479567
100
AcDbArc
 50
209.959498
 51
270.0
  0
LINE
  5
38D
330
1F
100
AcDbEntity
  8
002
 62
     3
370
    30
100
AcDbLine
 10
1399.792608
 20
802.468704
 30
0.0
 11
1338.799608
 21
908.256704
 31
0.0
  0
LINE
  5
38E
330
1F
100
AcDbEntity
  8
002
 62
     3
370
    30
100
AcDbLine
 10
1338.799608
 20
908.256704
 30
0.0
 11
1336.899608
 21
908.256704
 31
0.0
  0
ARC
  5
38F
330
1F
100
AcDbEntity
  8
002
 62
     3
370
    30
100
AcDbCircle
 10
1336.899608
 20
911.256704
 30
0.0
 40
2.999827328364282
100
AcDbArc
 50
213.827797
 51
270.0
  0
ARC
  5
390
330
1F
100
AcDbEntity
  8
002
 62
     3
370
    30
100
AcDbCircle
 10
1327.235608
 20
905.903704
 30
0.0
 40
8.0
100
AcDbArc
 50
0.0
 51
34.76672
  0
LINE
  5
391
330
1F
100
AcDbEntity
  8
002
 62
     3
370
    30
100
AcDbLine
 10
1335.235608
 20
905.903704
 30
0.0
 11
1335.235608
 21
799.965704
 31
0.0
  0
LINE
  5
392
330
1F
100
AcDbEntity
  8
002
 62
     3
370
    30
100
AcDbLine
 10
1345.235608
 20
799.965704
 30
0.0
 11
1345.235608
 21
873.965704
 31
0.0
  0
ARC
  5
393
330
1F
100
AcDbEntity
  8
002
 62
     3
370
    30
100
AcDbCircle
 10
1327.235608
 20
842.028704
 30
0.0
 40
8.000759526445128
100
AcDbArc
 50
325.227397
 51
0.0
  0
ARC
  5
394
330
1F
100
AcDbEntity
  8
002
 62
     3
370
    30
100
AcDbCircle
 10
1281.235608
 20
873.965704
 30
0.0
 40
64.0
100
AcDbArc
 50
0.0
 51
325.228296
  0
LINE
  5
395
330
1F
100
AcDbEntity
  8
002
 62
     3
370
    30
100
AcDbLine
 10
1217.235608
 20
873.965704
 30
0.0
 11
1217.235608
 21
804.965704
 31
0.0
  0
ARC
  5
396
330
1F
100
AcDbEntity
  8
002
 62
     3
370
    30
100
AcDbCircle
 10
1212.235608
 20
804.965704
 30
0.0
 40
5.0
100
AcDbArc
 50
270.0
 51
0.0
  0
LINE
  5
397
330
1F
100
AcDbEntity
  8
002
 62
     3
370
    30
100
AcDbLine
 10
1236.235608
 20
773.965704
 30
0.0
 11
1236.235608
 21
753.965704
 31
0.0
  0
LINE
  5
398
330
1F
100
AcDbEntity
  8
002
 62
     3
370
    30
100
AcDbLine
 10
1236.235608
 20
753.965704
 30
0.0
 11
1136.235608
 21
753.965704
 31
0.0
  0
LINE
  5
399
330
1F
100
AcDbEntity
  8
002
 62
     3
370
    30
100
AcDbLine
 10
1136.235608
 20
753.965704
 30
0.0
 11
1136.235608
 21
773.965704
 31
0.0
  0
LINE
  5
39A
330
1F
100
AcDbEntity
  8
002
 62
     3
370
    30
100
AcDbLine
 10
1126.233608
 20
804.965704
 30
0.0
 11
1126.233608
 21
915.965704
 31
0.0
  0
LINE
  5
39B
330
1F
100
AcDbEntity
  8
002
 62
     3
370
    30
100
AcDbLine
 10
1124.233608
 20
913.293704
 30
0.0
 11
1094.233608
 21
913.293704
 31
0.0
  0
LINE
  5
39C
330
1F
100
AcDbEntity
  8
002
 62
     3
370
    30
100
AcDbLine
 10
1091.664608
 20
915.965704
 30
0.0
 11
1091.664608
 21
804.965704
 31
0.0
  0
ARC
  5
39D
330
1F
100
AcDbEntity
  8
002
 62
     3
370
    30
100
AcDbCircle
 10
1086.664608
 20
804.965704
 30
0.0
 40
5.0
100
AcDbArc
 50
270.0
 51
0.0
  0
LINE
  5
39E
330
1F
100
AcDbEntity
  8
002
 62
     3
370
    30
100
AcDbLine
 10
1074.235608
 20
804.965704
 30
0.0
 11
1074.235608
 21
827.564704
 31
0.0
  0
LINE
  5
39F
330
1F
100
AcDbEntity
  8
002
 62
     3
370
    30
100
AcDbLine
 10
1068.317608
 20
836.693704
 30
0.0
 11
1063.235608
 21
838.965704
 31
0.0
  0
LINE
  5
3A0
330
1F
100
AcDbEntity
  8
002
 62
     3
370
    30
100
AcDbLine
 10
1063.235608
 20
838.965704
 30
0.0
 11
1063.235608
 21
913.965704
 31
0.0
  0
ARC
  5
3A1
330
1F
100
AcDbEntity
  8
002
 62
     3
370
    30
100
AcDbCircle
 10
1053.235608
 20
913.965704
 30
0.0
 40
10.0
100
AcDbArc
 50
0.0
 51
90.0
  0
LINE
  5
3A2
330
1F
100
AcDbEntity
  8
002
 62
     3
370
    30
100
AcDbLine
 10
1052.235608
 20
923.965704
 30
0.0
 11
1052.235608
 21
967.965704
 31
0.0
  0
LINE
  5
3A3
330
1F
100
AcDbEntity
  8
002
 62
     3
370
    30
100
AcDbLine
 10
1052.235608
 20
967.965704
 30
0.0
 11
1320.235608
 21
967.965704
 31
0.0
  0
LINE
  5
3A4
330
1F
100
AcDbEntity
  8
002
 62
     3
370
    30
100
AcDbLine
 10
1236.637608
 20
923.965704
 30
0.0
 11
1052.235608
 21
923.965704
 31
0.0
  0
ARC
  5
3A5
330
1F
100
AcDbEntity
  8
002
 62
     3
370
    30
100
AcDbCircle
 10
1071.591608
 20
913.965704
 30
0.0
 40
10.0
100
AcDbArc
 50
0.0
 51
44.428722
  0
LINE
  5
3A6
330
1F
100
AcDbEntity
  8
002
 62
     3
370
    30
100
AcDbLine
 10
1081.591608
 20
913.965704
 30
0.0
 11
1081.591608
 21
873.965704
 31
0.0
  0
ARC
  5
3A7
330
1F
100
AcDbEntity
  8
002
 62
     3
370
    30
100
AcDbCircle
 10
931.753608
 20
880.937704
 30
0.0
 40
149.9993080784041
100
AcDbArc
 50
341.783924
 51
357.335934
  0
ARC
  5
3A8
330
1F
100
AcDbEntity
  8
002
 62
     3
370
    30
100
AcDbCircle
 10
1064.235608
 20
827.564704
 30
0.0
 40
10.0
100
AcDbArc
 50
0.0
 51
65.908363
  0
ARC
  5
3A9
330
1F
100
AcDbEntity
  8
002
 62
     3
370
    30
100
AcDbCircle
 10
1069.235608
 20
804.965704
 30
0.0
 40
5.0
100
AcDbArc
 50
270.0
 51
0.0
  0
ARC
  5
3AA
330
1F
100
AcDbEntity
  8
002
 62
     3
370
    30
100
AcDbCircle
 10
1121.233608
 20
804.965704
 30
0.0
 40
5.0
100
AcDbArc
 50
270.0
 51
0.0
  0
LINE
  5
3AB
330
1F
100
AcDbEntity
  8
002
 62
     3
370
    30
100
AcDbLine
 10
1063.235608
 20
857.360704
 30
0.0
 11
1053.235608
 21
857.047704
 31
0.0
  0
LINE
  5
3AC
330
1F
100
AcDbEntity
  8
002
 62
     3
370
    30
100
AcDbLine
 10
1053.235608
 20
857.047704
 30
0.0
 11
1053.235608
 21
890.883704
 31
0.0
  0
LINE
  5
3AD
330
1F
100
AcDbEntity
  8
002
 62
     3
370
    30
100
AcDbLine
 10
1053.235608
 20
890.883704
 30
0.0
 11
1063.235608
 21
890.571704
 31
0.0
  0
LINE
  5
3AE
330
1F
100
AcDbEntity
  8
002
 62
     3
370
    30
100
AcDbLine
 10
1053.235608
 20
883.465704
 30
0.0
 11
1041.235608
 21
882.965704
 31
0.0
  0
LINE
  5
3AF
330
1F
100
AcDbEntity
  8
002
 62
     3
370
    30
100
AcDbLine
 10
1041.235608
 20
882.965704
 30
0.0
 11
1041.235608
 21
864.965704
 31
0.0
  0
LINE
  5
3B0
330
1F
100
AcDbEntity
  8
002
 62
     3
370
    30
100
AcDbLine
 10
1041.235608
 20
864.965704
 30
0.0
 11
1053.235608
 21
864.465704
 31
0.0
  0
ARC
  5
3B1
330
1F
100
AcDbEntity
  8
002
 62
     3
370
    30
100
AcDbCircle
 10
1096.664608
 20
915.965704
 30
0.0
 40
5.0
100
AcDbArc
 50
90.0
 51
180.0
  0
LINE
  5
3B2
330
1F
100
AcDbEntity
  8
002
 62
     3
370
    30
100
AcDbLine
 10
1096.664608
 20
920.965704
 30
0.0
 11
1121.233608
 21
920.965704
 31
0.0
  0
ARC
  5
3B3
330
1F
100
AcDbEntity
  8
002
 62
     3
370
    30
100
AcDbCircle
 10
1121.233608
 20
915.965704
 30
0.0
 40
5.0
100
AcDbArc
 50
0.0
 51
90.0
  0
LINE
  5
3B4
330
1F
100
AcDbEntity
  8
002
 62
     3
370
    30
100
AcDbLine
 10
1116.735608
 20
967.965704
 30
0.0
 11
1116.735608
 21
981.965704
 31
0.0
  0
LINE
  5
3B5
330
1F
100
AcDbEntity
  8
002
 62
     3
370
    30
100
AcDbLine
 10
1116.735608
 20
981.965704
 30
0.0
 11
1137.735608
 21
981.965704
 31
0.0
  0
LINE
  5
3B6
330
1F
100
AcDbEntity
  8
002
 62
     3
370
    30
100
AcDbLine
 10
1137.735608
 20
981.965704
 30
0.0
 11
1137.735608
 21
967.965704
 31
0.0
  0
LINE
  5
3B7
330
1F
100
AcDbEntity
  8
002
 62
     3
370
    30
100
AcDbLine
 10
1137.735608
 20
968.965704
 30
0.0
 11
1175.735608
 21
968.965704
 31
0.0
  0
LINE
  5
3B8
330
1F
100
AcDbEntity
  8
002
 62
     3
370
    30
100
AcDbLine
 10
1175.735608
 20
967.965704
 30
0.0
 11
1175.735608
 21
981.965704
 31
0.0
  0
LINE
  5
3B9
330
1F
100
AcDbEntity
  8
002
 62
     3
370
    30
100
AcDbLine
 10
1175.735608
 20
981.965704
 30
0.0
 11
1196.735608
 21
981.965704
 31
0.0
  0
LINE
  5
3BA
330
1F
100
AcDbEntity
  8
002
 62
     3
370
    30
100
AcDbLine
 10
1196.735608
 20
981.965704
 30
0.0
 11
1196.735608
 21
967.965704
 31
0.0
  0
LINE
  5
3BB
330
1F
100
AcDbEntity
  8
002
 62
     3
370
    30
100
AcDbLine
 10
1196.735608
 20
968.965704
 30
0.0
 11
1234.735608
 21
968.965704
 31
0.0
  0
LINE
  5
3BC
330
1F
100
AcDbEntity
  8
002
 62
     3
370
    30
100
AcDbLine
 10
1234.735608
 20
967.965704
 30
0.0
 11
1234.735608
 21
981.965704
 31
0.0
  0
LINE
  5
3BD
330
1F
100
AcDbEntity
  8
002
 62
     3
370
    30
100
AcDbLine
 10
1234.735608
 20
981.965704
 30
0.0
 11
1255.735608
 21
981.965704
 31
0.0
  0
LINE
  5
3BE
330
1F
100
AcDbEntity
  8
002
 62
     3
370
    30
100
AcDbLine
 10
1255.735608
 20
981.965704
 30
0.0
 11
1255.735608
 21
967.965704
 31
0.0
  0
LINE
  5
3BF
330
1F
100
AcDbEntity
  8
002
 62
     3
370
    30
100
AcDbLine
 10
1255.735608
 20
968.965704
 30
0.0
 11
1277.926608
 21
968.965704
 31
0.0
  0
LINE
  5
3C0
330
1F
100
AcDbEntity
  8
002
 62
     3
370
    30
100
AcDbLine
 10
1277.926608
 20
967.965704
 30
0.0
 11
1277.926608
 21
981.965704
 31
0.0
  0
LINE
  5
3C1
330
1F
100
AcDbEntity
  8
002
 62
     3
370
    30
100
AcDbLine
 10
1277.926608
 20
981.965704
 30
0.0
 11
1314.735608
 21
981.965704
 31
0.0
  0
LINE
  5
3C2
330
1F
100
AcDbEntity
  8
002
 62
     3
370
    30
100
AcDbLine
 10
1276.235608
 20
983.965704
 30
0.0
 11
1096.235608
 21
983.965704
 31
0.0
  0
LINE
  5
3C3
330
1F
100
AcDbEntity
  8
002
 62
     3
370
    30
100
AcDbLine
 10
1096.235608
 20
983.965704
 30
0.0
 11
1095.722608
 21
978.094704
 31
0.0
  0
ARC
  5
3C4
330
1F
100
AcDbEntity
  8
002
 62
     3
370
    30
100
AcDbCircle
 10
1085.760608
 20
978.965704
 30
0.0
 40
9.999396981818556
100
AcDbArc
 50
331.456306
 51
355.003208
  0
LINE
  5
3C5
330
1F
100
AcDbEntity
  8
002
 62
     3
370
    30
100
AcDbLine
 10
1094.544608
 20
968.965704
 30
0.0
 11
1116.735608
 21
968.965704
 31
0.0
  0
LINE
  5
3C6
330
1F
100
AcDbEntity
  8
002
 62
     3
370
    30
100
AcDbLine
 10
1129.085608
 20
989.965704
 30
0.0
 11
1129.085608
 21
1058.965704
 31
0.0
  0
LINE
  5
3C7
330
1F
100
AcDbEntity
  8
002
 62
     3
370
    30
100
AcDbLine
 10
1129.085608
 20
1058.965704
 30
0.0
 11
1243.385608
 21
1058.965704
 31
0.0
  0
LINE
  5
3C8
330
1F
100
AcDbEntity
  8
002
 62
     3
370
    30
100
AcDbLine
 10
1243.385608
 20
1058.965704
 30
0.0
 11
1243.385608
 21
989.965704
 31
0.0
  0
LINE
  5
3C9
330
1F
100
AcDbEntity
  8
002
 62
     3
370
    30
100
AcDbLine
 10
1255.735608
 20
989.965704
 30
0.0
 11
1255.735608
 21
999.965704
 31
0.0
  0
LINE
  5
3CA
330
1F
100
AcDbEntity
  8
002
 62
     3
370
    30
100
AcDbLine
 10
1271.735608
 20
999.965704
 30
0.0
 11
1255.735608
 21
999.965704
 31
0.0
  0
LINE
  5
3CB
330
1F
100
AcDbEntity
  8
002
 62
     3
370
    30
100
AcDbLine
 10
1271.735608
 20
999.965704
 30
0.0
 11
1271.735608
 21
989.965704
 31
0.0
  0
LINE
  5
3CC
330
1F
100
AcDbEntity
  8
002
 62
     3
370
    30
100
AcDbLine
 10
1273.735608
 20
989.965704
 30
0.0
 11
1273.735608
 21
983.965704
 31
0.0
  0
LINE
  5
3CD
330
1F
100
AcDbEntity
  8
002
 62
     3
370
    30
100
AcDbLine
 10
1276.235608
 20
983.965704
 30
0.0
 11
1276.749608
 21
978.094704
 31
0.0
  0
ARC
  5
3CE
330
1F
100
AcDbEntity
  8
002
 62
     3
370
    30
100
AcDbCircle
 10
1286.711608
 20
978.965704
 30
0.0
 40
10.00000424999907
100
AcDbArc
 50
184.996792
 51
208.540957
  0
LINE
  5
3CF
330
1F
100
AcDbEntity
  8
002
 62
     3
370
    30
100
AcDbLine
 10
1273.735608
 20
989.965704
 30
0.0
 11
1098.735608
 21
989.965704
 31
0.0
  0
LINE
  5
3D0
330
1F
100
AcDbEntity
  8
002
 62
     3
370
    30
100
AcDbLine
 10
1098.735608
 20
989.965704
 30
0.0
 11
1098.735608
 21
983.965704
 31
0.0
  0
LINE
  5
3D1
330
1F
100
AcDbEntity
  8
002
 62
     3
370
    30
100
AcDbLine
 10
1094.544608
 20
981.965704
 30
0.0
 11
1094.544608
 21
967.965704
 31
0.0
  0
LINE
  5
3D2
330
1F
100
AcDbEntity
  8
002
 62
     3
370
    30
100
AcDbLine
 10
1094.544608
 20
981.965704
 30
0.0
 11
1057.735608
 21
981.965704
 31
0.0
  0
LINE
  5
3D3
330
1F
100
AcDbEntity
  8
002
 62
     3
370
    30
100
AcDbLine
 10
1100.735608
 20
989.965704
 30
0.0
 11
1100.735608
 21
999.965704
 31
0.0
  0
LINE
  5
3D4
330
1F
100
AcDbEntity
  8
002
 62
     3
370
    30
100
AcDbLine
 10
1116.735608
 20
999.965704
 30
0.0
 11
1100.735608
 21
999.965704
 31
0.0
  0
LINE
  5
3D5
330
1F
100
AcDbEntity
  8
002
 62
     3
370
    30
100
AcDbLine
 10
1116.735608
 20
999.965704
 30
0.0
 11
1116.735608
 21
989.965704
 31
0.0
  0
LINE
  5
3D6
330
1F
100
AcDbEntity
  8
002
 62
     3
370
    30
100
AcDbLine
 10
1073.544608
 20
981.965704
 30
0.0
 11
1073.544608
 21
967.965704
 31
0.0
  0
LINE
  5
3D7
330
1F
100
AcDbEntity
  8
002
 62
     3
370
    30
100
AcDbLine
 10
1057.735608
 20
967.965704
 30
0.0
 11
1057.735608
 21
981.965704
 31
0.0
  0
LINE
  5
3D8
330
1F
100
AcDbEntity
  8
002
 62
     3
370
    30
100
AcDbLine
 10
1052.235608
 20
953.965704
 30
0.0
 11
1320.235608
 21
953.965704
 31
0.0
  0
LINE
  5
3D9
330
1F
100
AcDbEntity
  8
002
 62
     3
370
    30
100
AcDbLine
 10
1314.735608
 20
967.965704
 30
0.0
 11
1314.735608
 21
981.965704
 31
0.0
  0
LINE
  5
3DA
330
1F
100
AcDbEntity
  8
002
 62
     3
370
    30
100
AcDbLine
 10
1298.926608
 20
981.965704
 30
0.0
 11
1298.926608
 21
967.965704
 31
0.0
  0
LINE
  5
3DB
330
1F
100
AcDbEntity
  8
002
 62
     3
370
    30
100
AcDbLine
 10
1256.663608
 20
933.060704
 30
0.0
 11
1256.663608
 21
936.297704
 31
0.0
  0
ARC
  5
3DC
330
1F
100
AcDbEntity
  8
002
 62
     3
370
    30
100
AcDbCircle
 10
1281.235608
 20
873.965704
 30
0.0
 40
67.00045826708963
100
AcDbArc
 50
111.514936
 51
131.731685
  0
LINE
  5
3DD
330
1F
100
AcDbEntity
  8
002
 62
     3
370
    30
100
AcDbLine
 10
1178.235608
 20
989.965704
 30
0.0
 11
1178.235608
 21
999.965704
 31
0.0
  0
LINE
  5
3DE
330
1F
100
AcDbEntity
  8
002
 62
     3
370
    30
100
AcDbLine
 10
1194.235608
 20
999.965704
 30
0.0
 11
1178.235608
 21
999.965704
 31
0.0
  0
LINE
  5
3DF
330
1F
100
AcDbEntity
  8
002
 62
     3
370
    30
100
AcDbLine
 10
1194.235608
 20
999.965704
 30
0.0
 11
1194.235608
 21
989.965704
 31
0.0
  0
LINE
  5
3E0
330
1F
100
AcDbEntity
  8
002
 62
     3
370
    30
100
AcDbLine
 10
1189.122608
 20
878.965704
 30
0.0
 11
1192.009608
 21
873.965704
 31
0.0
  0
LINE
  5
3E1
330
1F
100
AcDbEntity
  8
002
 62
     3
370
    30
100
AcDbLine
 10
1192.009608
 20
873.965704
 30
0.0
 11
1189.122608
 21
868.965704
 31
0.0
  0
LINE
  5
3E2
330
1F
100
AcDbEntity
  8
002
 62
     3
370
    30
100
AcDbLine
 10
1189.122608
 20
868.965704
 30
0.0
 11
1183.349608
 21
868.965704
 31
0.0
  0
LINE
  5
3E3
330
1F
100
AcDbEntity
  8
002
 62
     3
370
    30
100
AcDbLine
 10
1183.349608
 20
868.965704
 30
0.0
 11
1180.462608
 21
873.965704
 31
0.0
  0
LINE
  5
3E4
330
1F
100
AcDbEntity
  8
002
 62
     3
370
    30
100
AcDbLine
 10
1180.462608
 20
873.965704
 30
0.0
 11
1183.349608
 21
878.965704
 31
0.0
  0
LINE
  5
3E5
330
1F
100
AcDbEntity
  8
002
 62
     3
370
    30
100
AcDbLine
 10
1183.349608
 20
878.965704
 30
0.0
 11
1189.122608
 21
878.965704
 31
0.0
  0
CIRCLE
  5
3E6
330
1F
100
AcDbEntity
  8
002
 62
     3
370
    30
100
AcDbCircle
 10
1186.235608
 20
873.965704
 30
0.0
 40
0.75
  0
CIRCLE
  5
3E7
330
1F
100
AcDbEntity
  8
002
 62
     3
370
    30
100
AcDbCircle
 10
1186.235608
 20
873.965704
 30
0.0
 40
2.5
  0
CIRCLE
  5
3E8
330
1F
100
AcDbEntity
  8
002
 62
     3
370
    30
100
AcDbCircle
 10
1186.235608
 20
873.965704
 30
0.0
 40
3.25
  0
CIRCLE
  5
3E9
330
1F
100
AcDbEntity
  8
002
 62
     3
370
    30
100
AcDbCircle
 10
1186.235608
 20
873.965704
 30
0.0
 40
5.0
  0
CIRCLE
  5
3EA
330
1F
100
AcDbEntity
  8
002
 62
     3
370
    30
100
AcDbCircle
 10
1186.235608
 20
873.965704
 30
0.0
 40
15.0
  0
LINE
  5
3EB
330
1F
100
AcDbEntity
  8
002
  6
CENTER
 62
    40
370
     9
100
AcDbLine
 10
1091.235608
 20
763.028704
 30
0.0
 11
1091.235608
 21
807.126704
 31
0.0
  0
LINE
  5
3EC
330
1F
100
AcDbEntity
  8
002
 62
    40
370
     9
100
AcDbLine
 10
1063.235608
 20
858.800704
 30
0.0
 11
1053.235608
 21
858.488704
 31
0.0
  0
LINE
  5
3ED
330
1F
100
AcDbEntity
  8
002
 62
    40
370
     9
100
AcDbLine
 10
1053.235608
 20
864.465704
 30
0.0
 11
1041.235608
 21
882.965704
 31
0.0
  0
LINE
  5
3EE
330
1F
100
AcDbEntity
  8
002
 62
    40
370
     9
100
AcDbLine
 10
1053.235608
 20
883.465704
 30
0.0
 11
1041.235608
 21
864.965704
 31
0.0
  0
LINE
  5
3EF
330
1F
100
AcDbEntity
  8
002
  6
CENTER
 62
    40
370
     9
100
AcDbLine
 10
1022.312608
 20
873.965704
 30
0.0
 11
1371.235608
 21
873.965704
 31
0.0
  0
LINE
  5
3F0
330
1F
100
AcDbEntity
  8
002
  6
CENTER
 62
    40
370
     9
100
AcDbLine
 10
1371.235608
 20
763.028704
 30
0.0
 11
1371.235608
 21
807.126704
 31
0.0
  0
LINE
  5
3F1
330
1F
100
AcDbEntity
  8
002
  6
CENTER
 62
    40
370
     9
100
AcDbLine
 10
1281.235608
 20
799.965704
 30
0.0
 11
1281.235608
 21
946.278704
 31
0.0
  0
LINE
  5
3F2
330
1F
100
AcDbEntity
  8
002
  6
CENTER
 62
    40
370
     9
100
AcDbLine
 10
1288.426608
 20
946.554704
 30
0.0
 11
1288.426608
 21
987.937704
 31
0.0
  0
LINE
  5
3F3
330
1F
100
AcDbEntity
  8
002
  6
CENTER
 62
    40
370
     9
100
AcDbLine
 10
1304.235608
 20
987.937704
 30
0.0
 11
1304.235608
 21
946.554704
 31
0.0
  0
LINE
  5
3F4
330
1F
100
AcDbEntity
  8
002
  6
CENTER
 62
    40
370
     9
100
AcDbLine
 10
1245.235608
 20
946.554704
 30
0.0
 11
1245.235608
 21
987.937704
 31
0.0
  0
LINE
  5
3F5
330
1F
100
AcDbEntity
  8
002
  6
CENTER
 62
    40
370
     9
100
AcDbLine
 10
1263.735608
 20
977.707704
 30
0.0
 11
1263.735608
 21
1005.606704
 31
0.0
  0
LINE
  5
3F6
330
1F
100
AcDbEntity
  8
002
  6
CENTER
 62
    40
370
     9
100
AcDbLine
 10
1127.235608
 20
946.554704
 30
0.0
 11
1127.235608
 21
987.937704
 31
0.0
  0
LINE
  5
3F7
330
1F
100
AcDbEntity
  8
002
  6
CENTER
 62
    40
370
     9
100
AcDbLine
 10
1108.735608
 20
977.707704
 30
0.0
 11
1108.735608
 21
1005.606704
 31
0.0
  0
LINE
  5
3F8
330
1F
100
AcDbEntity
  8
002
  6
CENTER
 62
    40
370
     9
100
AcDbLine
 10
1084.044608
 20
987.937704
 30
0.0
 11
1084.044608
 21
946.554704
 31
0.0
  0
LINE
  5
3F9
330
1F
100
AcDbEntity
  8
002
  6
CENTER
 62
    40
370
     9
100
AcDbLine
 10
1068.235608
 20
946.554704
 30
0.0
 11
1068.235608
 21
987.937704
 31
0.0
  0
LINE
  5
3FA
330
1F
100
AcDbEntity
  8
002
 62
    40
370
     9
100
AcDbLine
 10
1063.235608
 20
889.131704
 30
0.0
 11
1053.235608
 21
889.443704
 31
0.0
  0
LINE
  5
3FB
330
1F
100
AcDbEntity
  8
002
 62
     3
370
    30
100
AcDbLine
 10
1226.235608
 20
344.966804
 30
0.0
 11
1226.235608
 21
133.965704
 31
0.0
  0
LINE
  5
3FC
330
1F
100
AcDbEntity
  8
002
 62
     3
370
    30
100
AcDbLine
 10
1226.235608
 20
133.965704
 30
0.0
 11
1146.235608
 21
133.965704
 31
0.0
  0
LINE
  5
3FD
330
1F
100
AcDbEntity
  8
002
 62
     3
370
    30
100
AcDbLine
 10
1146.235608
 20
133.965704
 30
0.0
 11
1146.235608
 21
344.966804
 31
0.0
  0
LINE
  5
3FE
330
1F
100
AcDbEntity
  8
002
 62
     3
370
    30
100
AcDbLine
 10
1153.735608
 20
133.965704
 30
0.0
 11
1153.735608
 21
33.965704
 31
0.0
  0
LINE
  5
3FF
330
1F
100
AcDbEntity
  8
002
 62
     3
370
    30
100
AcDbLine
 10
1153.735608
 20
33.965704
 30
0.0
 11
1218.735608
 21
33.965704
 31
0.0
  0
LINE
  5
400
330
1F
100
AcDbEntity
  8
002
 62
     3
370
    30
100
AcDbLine
 10
1218.735608
 20
33.965704
 30
0.0
 11
1218.735608
 21
133.965704
 31
0.0
  0
LINE
  5
401
330
1F
100
AcDbEntity
  8
002
 62
    40
370
     9
100
AcDbLine
 10
1221.513608
 20
133.965704
 30
0.0
 11
1221.513608
 21
344.966804
 31
0.0
  0
LINE
  5
402
330
1F
100
AcDbEntity
  8
002
 62
    40
370
     9
100
AcDbLine
 10
1150.957608
 20
344.966804
 30
0.0
 11
1150.957608
 21
133.965704
 31
0.0
  0
LINE
  5
403
330
1F
100
AcDbEntity
  8
002
  6
HIDDEN
 62
    40
370
     9
100
AcDbLine
 10
1354.735608
 20
798.965704
 30
0.0
 11
1354.735608
 21
773.965704
 31
0.0
  0
LINE
  5
404
330
1F
100
AcDbEntity
  8
002
  6
HIDDEN
 62
    40
370
     9
100
AcDbLine
 10
1387.735608
 20
798.965704
 30
0.0
 11
1387.735608
 21
773.965704
 31
0.0
  0
LINE
  5
405
330
1F
100
AcDbEntity
  8
002
  6
HIDDEN
 62
    40
370
     9
100
AcDbLine
 10
1338.735608
 20
798.965704
 30
0.0
 11
1403.735608
 21
798.965704
 31
0.0
  0
LINE
  5
406
330
1F
100
AcDbEntity
  8
002
  6
HIDDEN
 62
    40
370
     9
100
AcDbLine
 10
1403.735608
 20
798.965704
 30
0.0
 11
1403.735608
 21
799.965704
 31
0.0
  0
LINE
  5
407
330
1F
100
AcDbEntity
  8
002
  6
HIDDEN
 62
    40
370
     9
100
AcDbLine
 10
1338.735608
 20
799.965704
 30
0.0
 11
1338.735608
 21
798.965704
 31
0.0
  0
LINE
  5
408
330
1F
100
AcDbEntity
  8
002
  6
HIDDEN
 62
    40
370
     9
100
AcDbLine
 10
1107.735608
 20
798.965704
 30
0.0
 11
1107.735608
 21
773.965704
 31
0.0
  0
LINE
  5
409
330
1F
100
AcDbEntity
  8
002
  6
HIDDEN
 62
    40
370
     9
100
AcDbLine
 10
1123.735608
 20
798.965704
 30
0.0
 11
1058.735608
 21
798.965704
 31
0.0
  0
LINE
  5
40A
330
1F
100
AcDbEntity
  8
002
  6
HIDDEN
 62
    40
370
     9
100
AcDbLine
 10
1123.735608
 20
798.965704
 30
0.0
 11
1123.735608
 21
799.965704
 31
0.0
  0
LINE
  5
40B
330
1F
100
AcDbEntity
  8
002
  6
HIDDEN
 62
    40
370
     9
100
AcDbLine
 10
1074.735608
 20
798.965704
 30
0.0
 11
1074.735608
 21
773.965704
 31
0.0
  0
LINE
  5
40C
330
1F
100
AcDbEntity
  8
002
  6
HIDDEN
 62
    40
370
     9
100
AcDbLine
 10
1058.735608
 20
798.965704
 30
0.0
 11
1058.735608
 21
799.965704
 31
0.0
  0
LINE
  5
40D
330
1F
100
AcDbEntity
  8
002
 62
     3
370
    30
100
AcDbLine
 10
1210.735608
 20
579.966804
 30
0.0
 11
1210.735608
 21
513.450104
 31
0.0
  0
LINE
  5
40E
330
1F
100
AcDbEntity
  8
002
 62
     3
370
    30
100
AcDbLine
 10
1201.235608
 20
522.113504
 30
0.0
 11
1230.005608
 21
495.877204
 31
0.0
  0
ARC
  5
40F
330
1F
100
AcDbEntity
  8
002
 62
     3
370
    30
100
AcDbCircle
 10
1224.615608
 20
489.966404
 30
0.0
 40
7.999858783753608
100
AcDbArc
 50
227.634778
 51
46.851856
  0
LINE
  5
410
330
1F
100
AcDbEntity
  8
002
 62
     3
370
    30
100
AcDbLine
 10
1219.224608
 20
484.055004
 30
0.0
 11
1201.235608
 21
500.459904
 31
0.0
  0
LINE
  5
411
330
1F
100
AcDbEntity
  8
002
 62
     3
370
    30
100
AcDbLine
 10
1201.235608
 20
498.836604
 30
0.0
 11
1171.235608
 21
526.194604
 31
0.0
  0
LINE
  5
412
330
1F
100
AcDbEntity
  8
002
 62
     3
370
    30
100
AcDbLine
 10
1171.235608
 20
527.818204
 30
0.0
 11
1142.465608
 21
554.054504
 31
0.0
  0
ARC
  5
413
330
1F
100
AcDbEntity
  8
002
 62
     3
370
    30
100
AcDbCircle
 10
1147.855608
 20
559.965504
 30
0.0
 40
7.999785825258077
100
AcDbArc
 50
47.640553
 51
226.851366
  0
LINE
  5
414
330
1F
100
AcDbEntity
  8
002
 62
     3
370
    30
100
AcDbLine
 10
1153.246608
 20
565.876704
 30
0.0
 11
1171.235608
 21
549.471904
 31
0.0
  0
LINE
  5
415
330
1F
100
AcDbEntity
  8
002
 62
     3
370
    30
100
AcDbLine
 10
1171.235608
 20
551.096204
 30
0.0
 11
1201.235608
 21
523.738304
 31
0.0
  0
LINE
  5
416
330
1F
100
AcDbEntity
  8
002
 62
     3
370
    30
100
AcDbLine
 10
1191.142608
 20
493.466504
 30
0.0
 11
1181.327608
 21
493.466504
 31
0.0
  0
LINE
  5
417
330
1F
100
AcDbEntity
  8
002
 62
     3
370
    30
100
AcDbLine
 10
1181.327608
 20
493.466504
 30
0.0
 11
1176.420608
 21
484.966604
 31
0.0
  0
LINE
  5
418
330
1F
100
AcDbEntity
  8
002
 62
     3
370
    30
100
AcDbLine
 10
1176.420608
 20
484.966404
 30
0.0
 11
1181.327608
 21
476.466404
 31
0.0
  0
LINE
  5
419
330
1F
100
AcDbEntity
  8
002
 62
     3
370
    30
100
AcDbLine
 10
1181.327608
 20
476.466504
 30
0.0
 11
1191.142608
 21
476.466504
 31
0.0
  0
LINE
  5
41A
330
1F
100
AcDbEntity
  8
002
 62
     3
370
    30
100
AcDbLine
 10
1191.142608
 20
476.466504
 30
0.0
 11
1196.050608
 21
484.966504
 31
0.0
  0
LINE
  5
41B
330
1F
100
AcDbEntity
  8
002
 62
     3
370
    30
100
AcDbLine
 10
1196.050608
 20
484.966504
 30
0.0
 11
1191.142608
 21
493.466504
 31
0.0
  0
CIRCLE
  5
41C
330
1F
100
AcDbEntity
  8
002
 62
     3
370
    30
100
AcDbCircle
 10
1186.235608
 20
484.966504
 30
0.0
 40
5.0
  0
CIRCLE
  5
41D
330
1F
100
AcDbEntity
  8
002
 62
     3
370
    30
100
AcDbCircle
 10
1186.235608
 20
484.966504
 30
0.0
 40
4.1
  0
CIRCLE
  5
41E
330
1F
100
AcDbEntity
  8
002
 62
     3
370
    30
100
AcDbCircle
 10
1186.235608
 20
484.966504
 30
0.0
 40
8.249999
  0
LINE
  5
41F
330
1F
100
AcDbEntity
  8
002
 62
     3
370
    30
100
AcDbLine
 10
1210.735608
 20
491.796304
 30
0.0
 11
1210.735608
 21
433.451204
 31
0.0
  0
LINE
  5
420
330
1F
100
AcDbEntity
  8
002
 62
     3
370
    30
100
AcDbLine
 10
1201.235608
 20
442.114504
 30
0.0
 11
1230.005608
 21
415.878204
 31
0.0
  0
ARC
  5
421
330
1F
100
AcDbEntity
  8
002
 62
     3
370
    30
100
AcDbCircle
 10
1224.615608
 20
409.967404
 30
0.0
 40
7.999858783753691
100
AcDbArc
 50
227.634778
 51
46.851856
  0
LINE
  5
422
330
1F
100
AcDbEntity
  8
002
 62
     3
370
    30
100
AcDbLine
 10
1219.224608
 20
404.056104
 30
0.0
 11
1201.235608
 21
420.460904
 31
0.0
  0
LINE
  5
423
330
1F
100
AcDbEntity
  8
002
 62
     3
370
    30
100
AcDbLine
 10
1201.235608
 20
418.836604
 30
0.0
 11
1171.235608
 21
446.194504
 31
0.0
  0
LINE
  5
424
330
1F
100
AcDbEntity
  8
002
 62
     3
370
    30
100
AcDbLine
 10
1171.235608
 20
447.819204
 30
0.0
 11
1142.465608
 21
474.055604
 31
0.0
  0
ARC
  5
425
330
1F
100
AcDbEntity
  8
002
 62
     3
370
    30
100
AcDbCircle
 10
1147.855608
 20
479.966604
 30
0.0
 40
7.999858783753691
100
AcDbArc
 50
47.64007
 51
226.851856
  0
LINE
  5
426
330
1F
100
AcDbEntity
  8
002
 62
     3
370
    30
100
AcDbLine
 10
1153.246608
 20
485.877804
 30
0.0
 11
1171.235608
 21
469.472904
 31
0.0
  0
LINE
  5
427
330
1F
100
AcDbEntity
  8
002
 62
     3
370
    30
100
AcDbLine
 10
1171.235608
 20
471.096204
 30
0.0
 11
1201.235608
 21
443.738304
 31
0.0
  0
LINE
  5
428
330
1F
100
AcDbEntity
  8
002
 62
     3
370
    30
100
AcDbLine
 10
1191.142608
 20
413.466504
 30
0.0
 11
1181.327608
 21
413.466504
 31
0.0
  0
LINE
  5
429
330
1F
100
AcDbEntity
  8
002
 62
     3
370
    30
100
AcDbLine
 10
1181.327608
 20
413.466504
 30
0.0
 11
1176.420608
 21
404.966404
 31
0.0
  0
LINE
  5
42A
330
1F
100
AcDbEntity
  8
002
 62
     3
370
    30
100
AcDbLine
 10
1176.420608
 20
404.966504
 30
0.0
 11
1181.327608
 21
396.466404
 31
0.0
  0
LINE
  5
42B
330
1F
100
AcDbEntity
  8
002
 62
     3
370
    30
100
AcDbLine
 10
1181.327608
 20
396.466504
 30
0.0
 11
1191.142608
 21
396.466504
 31
0.0
  0
LINE
  5
42C
330
1F
100
AcDbEntity
  8
002
 62
     3
370
    30
100
AcDbLine
 10
1191.142608
 20
396.466404
 30
0.0
 11
1196.050608
 21
404.966404
 31
0.0
  0
LINE
  5
42D
330
1F
100
AcDbEntity
  8
002
 62
     3
370
    30
100
AcDbLine
 10
1196.050608
 20
404.966504
 30
0.0
 11
1191.142608
 21
413.466504
 31
0.0
  0
CIRCLE
  5
42E
330
1F
100
AcDbEntity
  8
002
 62
     3
370
    30
100
AcDbCircle
 10
1186.235608
 20
404.966504
 30
0.0
 40
5.0
  0
CIRCLE
  5
42F
330
1F
100
AcDbEntity
  8
002
 62
     3
370
    30
100
AcDbCircle
 10
1186.235608
 20
404.966504
 30
0.0
 40
4.1
  0
CIRCLE
  5
430
330
1F
100
AcDbEntity
  8
002
 62
     3
370
    30
100
AcDbCircle
 10
1186.235608
 20
404.966504
 30
0.0
 40
8.249999
  0
LINE
  5
431
330
1F
100
AcDbEntity
  8
002
 62
     3
370
    30
100
AcDbLine
 10
1201.235608
 20
393.966404
 30
0.0
 11
1201.235608
 21
575.966504
 31
0.0
  0
ARC
  5
432
330
1F
100
AcDbEntity
  8
002
 62
     3
370
    30
100
AcDbCircle
 10
1199.235608
 20
575.966504
 30
0.0
 40
2.0
100
AcDbArc
 50
0.0
 51
90.0
  0
LINE
  5
433
330
1F
100
AcDbEntity
  8
002
 62
     3
370
    30
100
AcDbLine
 10
1199.235608
 20
577.966504
 30
0.0
 11
1173.235608
 21
577.966504
 31
0.0
  0
ARC
  5
434
330
1F
100
AcDbEntity
  8
002
 62
     3
370
    30
100
AcDbCircle
 10
1173.235608
 20
575.966504
 30
0.0
 40
2.0
100
AcDbArc
 50
90.0
 51
180.0
  0
LINE
  5
435
330
1F
100
AcDbEntity
  8
002
 62
     3
370
    30
100
AcDbLine
 10
1171.235608
 20
575.966504
 30
0.0
 11
1171.235608
 21
393.966404
 31
0.0
  0
ARC
  5
436
330
1F
100
AcDbEntity
  8
002
 62
     3
370
    30
100
AcDbCircle
 10
1173.235608
 20
393.966504
 30
0.0
 40
2.0
100
AcDbArc
 50
180.0
 51
270.0
  0
LINE
  5
437
330
1F
100
AcDbEntity
  8
002
 62
     3
370
    30
100
AcDbLine
 10
1173.235608
 20
391.966504
 30
0.0
 11
1199.235608
 21
391.966504
 31
0.0
  0
ARC
  5
438
330
1F
100
AcDbEntity
  8
002
 62
     3
370
    30
100
AcDbCircle
 10
1199.235608
 20
393.966504
 30
0.0
 40
2.0
100
AcDbArc
 50
270.0
 51
0.0
  0
LINE
  5
439
330
1F
100
AcDbEntity
  8
002
 62
     3
370
    30
100
AcDbLine
 10
1210.735608
 20
389.966704
 30
0.0
 11
1210.735608
 21
411.797104
 31
0.0
  0
LINE
  5
43A
330
1F
100
AcDbEntity
  8
002
 62
     3
370
    30
100
AcDbLine
 10
1248.735608
 20
579.966804
 30
0.0
 11
1123.735608
 21
579.966804
 31
0.0
  0
LINE
  5
43B
330
1F
100
AcDbEntity
  8
002
 62
     3
370
    30
100
AcDbLine
 10
1311.235608
 20
389.966804
 30
0.0
 11
1061.235608
 21
389.966804
 31
0.0
  0
LINE
  5
43C
330
1F
100
AcDbEntity
  8
002
 62
     3
370
    30
100
AcDbLine
 10
1161.735608
 20
389.966704
 30
0.0
 11
1161.735608
 21
456.481904
 31
0.0
  0
LINE
  5
43D
330
1F
100
AcDbEntity
  8
002
 62
     3
370
    30
100
AcDbLine
 10
1161.735608
 20
478.135704
 30
0.0
 11
1161.735608
 21
536.481104
 31
0.0
  0
LINE
  5
43E
330
1F
100
AcDbEntity
  8
002
 62
     3
370
    30
100
AcDbLine
 10
1161.735608
 20
558.135904
 30
0.0
 11
1161.735608
 21
579.966804
 31
0.0
  0
LINE
  5
43F
330
1F
100
AcDbEntity
  8
002
 62
     3
370
    30
100
AcDbLine
 10
1191.142608
 20
573.466504
 30
0.0
 11
1181.327608
 21
573.466504
 31
0.0
  0
LINE
  5
440
330
1F
100
AcDbEntity
  8
002
 62
     3
370
    30
100
AcDbLine
 10
1181.327608
 20
573.466604
 30
0.0
 11
1176.420608
 21
564.966604
 31
0.0
  0
LINE
  5
441
330
1F
100
AcDbEntity
  8
002
 62
     3
370
    30
100
AcDbLine
 10
1176.420608
 20
564.966404
 30
0.0
 11
1181.327608
 21
556.466404
 31
0.0
  0
LINE
  5
442
330
1F
100
AcDbEntity
  8
002
 62
     3
370
    30
100
AcDbLine
 10
1181.327608
 20
556.466504
 30
0.0
 11
1191.142608
 21
556.466504
 31
0.0
  0
LINE
  5
443
330
1F
100
AcDbEntity
  8
002
 62
     3
370
    30
100
AcDbLine
 10
1191.142608
 20
556.466504
 30
0.0
 11
1196.050608
 21
564.966504
 31
0.0
  0
LINE
  5
444
330
1F
100
AcDbEntity
  8
002
 62
     3
370
    30
100
AcDbLine
 10
1196.050608
 20
564.966404
 30
0.0
 11
1191.142608
 21
573.466404
 31
0.0
  0
CIRCLE
  5
445
330
1F
100
AcDbEntity
  8
002
 62
     3
370
    30
100
AcDbCircle
 10
1186.235608
 20
564.966504
 30
0.0
 40
5.0
  0
CIRCLE
  5
446
330
1F
100
AcDbEntity
  8
002
 62
     3
370
    30
100
AcDbCircle
 10
1186.235608
 20
564.966504
 30
0.0
 40
4.1
  0
CIRCLE
  5
447
330
1F
100
AcDbEntity
  8
002
 62
     3
370
    30
100
AcDbCircle
 10
1186.235608
 20
564.966504
 30
0.0
 40
8.249999
  0
LINE
  5
448
330
1F
100
AcDbEntity
  8
002
  6
CENTER
 62
    40
370
     9
100
AcDbLine
 10
1171.235608
 20
458.646704
 30
0.0
 11
1141.944608
 21
485.357604
 31
0.0
  0
LINE
  5
449
330
1F
100
AcDbEntity
  8
002
  6
CENTER
 62
    40
370
     9
100
AcDbLine
 10
1171.235608
 20
538.645604
 30
0.0
 11
1141.944608
 21
565.356504
 31
0.0
  0
LINE
  5
44A
330
1F
100
AcDbEntity
  8
002
  6
CENTER
 62
    40
370
     9
100
AcDbLine
 10
1201.235608
 20
511.286104
 30
0.0
 11
1230.525608
 21
484.575204
 31
0.0
  0
LINE
  5
44B
330
1F
100
AcDbEntity
  8
002
  6
CENTER
 62
    40
370
     9
100
AcDbLine
 10
1201.235608
 20
431.287204
 30
0.0
 11
1230.525608
 21
404.576304
 31
0.0
  0
LINE
  5
44C
330
1F
100
AcDbEntity
  8
002
 62
     3
370
    30
100
AcDbLine
 10
1123.735608
 20
579.966804
 30
0.0
 11
1123.735608
 21
389.966804
 31
0.0
  0
LINE
  5
44D
330
1F
100
AcDbEntity
  8
002
 62
     3
370
    30
100
AcDbLine
 10
1248.735608
 20
579.966804
 30
0.0
 11
1248.735608
 21
389.966804
 31
0.0
  0
LINE
  5
44E
330
1F
100
AcDbEntity
  8
002
 62
     3
370
    30
100
AcDbLine
 10
1311.235608
 20
344.966804
 30
0.0
 11
1061.235608
 21
344.966804
 31
0.0
  0
LINE
  5
44F
330
1F
100
AcDbEntity
  8
002
 62
     3
370
    30
100
AcDbLine
 10
1311.235608
 20
389.966804
 30
0.0
 11
1311.235608
 21
344.966804
 31
0.0
  0
LINE
  5
450
330
1F
100
AcDbEntity
  8
002
 62
     3
370
    30
100
AcDbLine
 10
1061.235608
 20
389.966804
 30
0.0
 11
1061.235608
 21
344.966804
 31
0.0
  0
CIRCLE
  5
451
330
1F
100
AcDbEntity
  8
002
 62
     3
370
    30
100
AcDbCircle
 10
267.527227
 20
2289.303519
 30
0.0
 40
94.0
  0
LINE
  5
452
330
1F
100
AcDbEntity
  8
002
 62
     3
370
    30
100
AcDbLine
 10
271.389227
 20
2195.42794
 30
0.0
 11
271.389227
 21
2194.303519
 31
0.0
  0
LINE
  5
453
330
1F
100
AcDbEntity
  8
002
 62
     3
370
    30
100
AcDbLine
 10
271.813227
 20
2194.303519
 30
0.0
 11
263.241227
 21
2194.303519
 31
0.0
  0
LINE
  5
454
330
1F
100
AcDbEntity
  8
002
 62
     3
370
    30
100
AcDbLine
 10
263.666227
 20
2194.303519
 30
0.0
 11
263.666227
 21
2195.427876
 31
0.0
  0
ARC
  5
455
330
1F
100
AcDbEntity
  8
002
 62
     3
370
    30
100
AcDbCircle
 10
263.197227
 20
2192.763519
 30
0.0
 40
1.540730021775364
100
AcDbArc
 50
20.516873
 51
110.551694
  0
LINE
  5
456
330
1F
100
AcDbEntity
  8
002
 62
     3
370
    30
100
AcDbLine
 10
261.754227
 20
2193.303519
 30
0.0
 11
262.656227
 21
2194.206519
 31
0.0
  0
ARC
  5
457
330
1F
100
AcDbEntity
  8
002
 62
     3
370
    30
100
AcDbCircle
 10
267.527227
 20
2189.637519
 30
0.0
 40
4.666296711526233
100
AcDbArc
 50
51.779327
 51
128.220673
  0
ARC
  5
458
330
1F
100
AcDbEntity
  8
002
 62
     3
370
    30
100
AcDbCircle
 10
271.857227
 20
2192.763519
 30
0.0
 40
1.541080789575903
100
AcDbArc
 50
69.448306
 51
159.483127
  0
LINE
  5
459
330
1F
100
AcDbEntity
  8
002
 62
     3
370
    30
100
AcDbLine
 10
273.301227
 20
2193.303519
 30
0.0
 11
272.398227
 21
2194.206519
 31
0.0
  0
LINE
  5
45A
330
1F
100
AcDbEntity
  8
002
 62
     3
370
    30
100
AcDbLine
 10
273.301227
 20
2190.303519
 30
0.0
 11
273.301227
 21
2193.303519
 31
0.0
  0
LINE
  5
45B
330
1F
100
AcDbEntity
  8
002
 62
     3
370
    30
100
AcDbLine
 10
270.387227
 20
2187.390519
 30
0.0
 11
273.301227
 21
2190.303519
 31
0.0
  0
LINE
  5
45C
330
1F
100
AcDbEntity
  8
002
 62
     3
370
    30
100
AcDbLine
 10
270.414227
 20
2193.303519
 30
0.0
 11
270.414227
 21
2190.303519
 31
0.0
  0
ARC
  5
45D
330
1F
100
AcDbEntity
  8
002
 62
     3
370
    30
100
AcDbCircle
 10
271.857227
 20
2190.844519
 30
0.0
 40
1.541080789575903
100
AcDbArc
 50
200.551694
 51
290.551694
  0
ARC
  5
45E
330
1F
100
AcDbEntity
  8
002
 62
     3
370
    30
100
AcDbCircle
 10
267.527227
 20
2193.970519
 30
0.0
 40
4.667082386245079
100
AcDbArc
 50
231.786922
 51
308.213078
  0
LINE
  5
45F
330
1F
100
AcDbEntity
  8
002
 62
     3
370
    30
100
AcDbLine
 10
264.640227
 20
2193.303519
 30
0.0
 11
264.640227
 21
2190.303519
 31
0.0
  0
LINE
  5
460
330
1F
100
AcDbEntity
  8
002
 62
     3
370
    30
100
AcDbLine
 10
261.754227
 20
2190.303519
 30
0.0
 11
261.754227
 21
2193.303519
 31
0.0
  0
ARC
  5
461
330
1F
100
AcDbEntity
  8
002
 62
     3
370
    30
100
AcDbCircle
 10
263.197227
 20
2190.844519
 30
0.0
 40
1.541080789575903
100
AcDbArc
 50
249.448306
 51
339.448306
  0
LINE
  5
462
330
1F
100
AcDbEntity
  8
002
 62
     3
370
    30
100
AcDbLine
 10
261.754227
 20
2190.303519
 30
0.0
 11
264.667227
 21
2187.390519
 31
0.0
  0
LINE
  5
463
330
1F
100
AcDbEntity
  8
002
 62
     3
370
    30
100
AcDbLine
 10
269.825227
 20
2186.827519
 30
0.0
 11
265.230227
 21
2186.827519
 31
0.0
  0
LINE
  5
464
330
1F
100
AcDbEntity
  8
002
 62
     3
370
    30
100
AcDbLine
 10
265.027227
 20
2185.303519
 30
0.0
 11
270.027227
 21
2185.303519
 31
0.0
  0
ARC
  5
465
330
1F
100
AcDbEntity
  8
002
 62
     3
370
    30
100
AcDbCircle
 10
263.960227
 20
2186.683519
 30
0.0
 40
1.000001999998141
100
AcDbArc
 50
327.994617
 51
45.0
  0
ARC
  5
466
330
1F
100
AcDbEntity
  8
002
 62
     3
370
    30
100
AcDbCircle
 10
271.094227
 20
2186.683519
 30
0.0
 40
0.9998489885976084
100
AcDbArc
 50
135.0
 51
212.005383
  0
LINE
  5
467
330
1F
100
AcDbEntity
  8
002
 62
     3
370
    30
100
AcDbLine
 10
270.777227
 20
2185.303519
 30
0.0
 11
270.246227
 21
2186.153519
 31
0.0
  0
LINE
  5
468
330
1F
100
AcDbEntity
  8
002
 62
     3
370
    30
100
AcDbLine
 10
270.027227
 20
2182.303519
 30
0.0
 11
270.777227
 21
2185.303519
 31
0.0
  0
LINE
  5
469
330
1F
100
AcDbEntity
  8
002
 62
     3
370
    30
100
AcDbLine
 10
265.027227
 20
2182.303519
 30
0.0
 11
270.027227
 21
2182.303519
 31
0.0
  0
ARC
  5
46A
330
1F
100
AcDbEntity
  8
002
 62
     3
370
    30
100
AcDbCircle
 10
267.527227
 20
2182.965519
 30
0.0
 40
1.00037193083375
100
AcDbArc
 50
221.433771
 51
318.566229
  0
LINE
  5
46B
330
1F
100
AcDbEntity
  8
002
 62
     3
370
    30
100
AcDbLine
 10
264.808227
 20
2186.153519
 30
0.0
 11
264.277227
 21
2185.303519
 31
0.0
  0
LINE
  5
46C
330
1F
100
AcDbEntity
  8
002
 62
     3
370
    30
100
AcDbLine
 10
264.277227
 20
2185.303519
 30
0.0
 11
265.027227
 21
2182.303519
 31
0.0
  0
LINE
  5
46D
330
1F
100
AcDbEntity
  8
002
 62
     3
370
    30
100
AcDbLine
 10
271.389227
 20
2383.179098
 30
0.0
 11
271.389227
 21
2384.303519
 31
0.0
  0
LINE
  5
46E
330
1F
100
AcDbEntity
  8
002
 62
     3
370
    30
100
AcDbLine
 10
271.813227
 20
2384.303519
 30
0.0
 11
263.241227
 21
2384.303519
 31
0.0
  0
ARC
  5
46F
330
1F
100
AcDbEntity
  8
002
 62
     3
370
    30
100
AcDbCircle
 10
271.857227
 20
2385.843519
 30
0.0
 40
1.541080789575903
100
AcDbArc
 50
200.516873
 51
290.551694
  0
ARC
  5
470
330
1F
100
AcDbEntity
  8
002
 62
     3
370
    30
100
AcDbCircle
 10
267.527227
 20
2388.969519
 30
0.0
 40
4.666296711526233
100
AcDbArc
 50
231.779327
 51
308.220673
  0
LINE
  5
471
330
1F
100
AcDbEntity
  8
002
 62
     3
370
    30
100
AcDbLine
 10
263.666227
 20
2384.303519
 30
0.0
 11
263.666227
 21
2383.179163
 31
0.0
  0
ARC
  5
472
330
1F
100
AcDbEntity
  8
002
 62
     3
370
    30
100
AcDbCircle
 10
263.197227
 20
2385.843519
 30
0.0
 40
1.540730021775364
100
AcDbArc
 50
249.448306
 51
339.483127
  0
LINE
  5
473
330
1F
100
AcDbEntity
  8
002
 62
     3
370
    30
100
AcDbLine
 10
261.754227
 20
2385.303519
 30
0.0
 11
262.656227
 21
2384.400519
 31
0.0
  0
LINE
  5
474
330
1F
100
AcDbEntity
  8
002
 62
     3
370
    30
100
AcDbLine
 10
261.754227
 20
2388.303519
 30
0.0
 11
261.754227
 21
2385.303519
 31
0.0
  0
LINE
  5
475
330
1F
100
AcDbEntity
  8
002
 62
     3
370
    30
100
AcDbLine
 10
273.301227
 20
2385.303519
 30
0.0
 11
272.398227
 21
2384.400519
 31
0.0
  0
LINE
  5
476
330
1F
100
AcDbEntity
  8
002
 62
     3
370
    30
100
AcDbLine
 10
273.301227
 20
2388.303519
 30
0.0
 11
273.301227
 21
2385.303519
 31
0.0
  0
LINE
  5
477
330
1F
100
AcDbEntity
  8
002
 62
     3
370
    30
100
AcDbLine
 10
270.414227
 20
2385.303519
 30
0.0
 11
270.414227
 21
2388.303519
 31
0.0
  0
LINE
  5
478
330
1F
100
AcDbEntity
  8
002
 62
     3
370
    30
100
AcDbLine
 10
264.640227
 20
2385.303519
 30
0.0
 11
264.640227
 21
2388.303519
 31
0.0
  0
ARC
  5
479
330
1F
100
AcDbEntity
  8
002
 62
     3
370
    30
100
AcDbCircle
 10
263.197227
 20
2387.762519
 30
0.0
 40
1.541080789575903
100
AcDbArc
 50
20.551694
 51
110.551694
  0
ARC
  5
47A
330
1F
100
AcDbEntity
  8
002
 62
     3
370
    30
100
AcDbCircle
 10
267.527227
 20
2384.636519
 30
0.0
 40
4.667082386245079
100
AcDbArc
 50
51.786922
 51
128.213078
  0
ARC
  5
47B
330
1F
100
AcDbEntity
  8
002
 62
     3
370
    30
100
AcDbCircle
 10
271.857227
 20
2387.762519
 30
0.0
 40
1.541080789575903
100
AcDbArc
 50
69.448306
 51
159.448306
  0
LINE
  5
47C
330
1F
100
AcDbEntity
  8
002
 62
     3
370
    30
100
AcDbLine
 10
270.387227
 20
2391.216519
 30
0.0
 11
273.301227
 21
2388.303519
 31
0.0
  0
LINE
  5
47D
330
1F
100
AcDbEntity
  8
002
 62
     3
370
    30
100
AcDbLine
 10
261.754227
 20
2388.303519
 30
0.0
 11
264.667227
 21
2391.216519
 31
0.0
  0
ARC
  5
47E
330
1F
100
AcDbEntity
  8
002
 62
     3
370
    30
100
AcDbCircle
 10
263.960227
 20
2391.923519
 30
0.0
 40
1.000001999998141
100
AcDbArc
 50
315.0
 51
32.005383
  0
LINE
  5
47F
330
1F
100
AcDbEntity
  8
002
 62
     3
370
    30
100
AcDbLine
 10
269.825227
 20
2391.779519
 30
0.0
 11
265.230227
 21
2391.779519
 31
0.0
  0
ARC
  5
480
330
1F
100
AcDbEntity
  8
002
 62
     3
370
    30
100
AcDbCircle
 10
271.094227
 20
2391.923519
 30
0.0
 40
0.9998489885976084
100
AcDbArc
 50
147.994617
 51
225.0
  0
LINE
  5
481
330
1F
100
AcDbEntity
  8
002
 62
     3
370
    30
100
AcDbLine
 10
270.777227
 20
2393.303519
 30
0.0
 11
270.246227
 21
2392.453519
 31
0.0
  0
LINE
  5
482
330
1F
100
AcDbEntity
  8
002
 62
     3
370
    30
100
AcDbLine
 10
270.027227
 20
2396.303519
 30
0.0
 11
270.777227
 21
2393.303519
 31
0.0
  0
LINE
  5
483
330
1F
100
AcDbEntity
  8
002
 62
     3
370
    30
100
AcDbLine
 10
265.027227
 20
2396.303519
 30
0.0
 11
270.027227
 21
2396.303519
 31
0.0
  0
ARC
  5
484
330
1F
100
AcDbEntity
  8
002
 62
     3
370
    30
100
AcDbCircle
 10
267.527227
 20
2395.641519
 30
0.0
 40
1.00037193083375
100
AcDbArc
 50
41.433771
 51
138.566229
  0
LINE
  5
485
330
1F
100
AcDbEntity
  8
002
 62
     3
370
    30
100
AcDbLine
 10
265.027227
 20
2393.303519
 30
0.0
 11
270.027227
 21
2393.303519
 31
0.0
  0
LINE
  5
486
330
1F
100
AcDbEntity
  8
002
 62
     3
370
    30
100
AcDbLine
 10
264.808227
 20
2392.453519
 30
0.0
 11
264.277227
 21
2393.303519
 31
0.0
  0
LINE
  5
487
330
1F
100
AcDbEntity
  8
002
 62
     3
370
    30
100
AcDbLine
 10
264.277227
 20
2393.303519
 30
0.0
 11
265.027227
 21
2396.303519
 31
0.0
  0
ARC
  5
488
330
1F
100
AcDbEntity
  8
002
 62
     3
370
    30
100
AcDbCircle
 10
267.527227
 20
2289.303519
 30
0.0
 40
100.0
100
AcDbArc
 50
272.80489
 51
87.19511
  0
ARC
  5
489
330
1F
100
AcDbEntity
  8
002
 62
     3
370
    30
100
AcDbCircle
 10
267.527227
 20
2289.303519
 30
0.0
 40
100.0
100
AcDbArc
 50
92.804469
 51
267.195531
  0
LINE
  5
48A
330
1F
100
AcDbEntity
  8
002
 62
     3
370
    30
100
AcDbLine
 10
1320.235608
 20
967.965704
 30
0.0
 11
1320.235608
 21
924.710162
 31
0.0
  0
LINE
  5
48B
330
1F
100
AcDbEntity
  8
002
 62
     3
370
    30
100
AcDbLine
 10
401.527227
 20
323.341919
 30
0.0
 11
401.527227
 21
280.086948
 31
0.0
  0
CIRCLE
  5
48C
330
1F
100
AcDbEntity
  8
002
 62
     3
370
    30
100
AcDbCircle
 10
362.527227
 20
229.341919
 30
0.0
 40
25.0
  0
LINE
  5
48D
330
1F
100
AcDbEntity
  8
002
 62
     3
370
    30
100
AcDbLine
 10
367.527227
 20
241.841919
 30
0.0
 11
357.527227
 21
241.841919
 31
0.0
  0
LINE
  5
48E
330
1F
100
AcDbEntity
  8
002
 62
     3
370
    30
100
AcDbLine
 10
357.527227
 20
241.841919
 30
0.0
 11
357.527227
 21
249.841919
 31
0.0
  0
LINE
  5
48F
330
1F
100
AcDbEntity
  8
002
 62
     3
370
    30
100
AcDbLine
 10
357.527227
 20
249.841919
 30
0.0
 11
367.527227
 21
249.841919
 31
0.0
  0
LINE
  5
490
330
1F
100
AcDbEntity
  8
002
 62
     3
370
    30
100
AcDbLine
 10
367.527227
 20
249.841919
 30
0.0
 11
367.527227
 21
241.841919
 31
0.0
  0
ARC
  5
491
330
1F
100
AcDbEntity
  8
002
 62
     3
370
    30
100
AcDbCircle
 10
362.527227
 20
229.341919
 30
0.0
 40
17.50046973655275
100
AcDbArc
 50
106.601091
 51
73.398909
  0
ARC
  5
492
330
1F
100
AcDbEntity
  8
002
 62
     3
370
    30
100
AcDbCircle
 10
362.527227
 20
229.341919
 30
0.0
 40
19.000672645988
100
AcDbArc
 50
105.25697
 51
74.74303
  0
CIRCLE
  5
493
330
1F
100
AcDbEntity
  8
002
 62
     3
370
    30
100
AcDbCircle
 10
1281.235608
 20
873.965704
 30
0.0
 40
25.0
  0
LINE
  5
494
330
1F
100
AcDbEntity
  8
002
 62
     3
370
    30
100
AcDbLine
 10
1286.235608
 20
886.465704
 30
0.0
 11
1276.235608
 21
886.465704
 31
0.0
  0
LINE
  5
495
330
1F
100
AcDbEntity
  8
002
 62
     3
370
    30
100
AcDbLine
 10
1276.235608
 20
886.465704
 30
0.0
 11
1276.235608
 21
894.465704
 31
0.0
  0
LINE
  5
496
330
1F
100
AcDbEntity
  8
002
 62
     3
370
    30
100
AcDbLine
 10
1276.235608
 20
894.465704
 30
0.0
 11
1286.235608
 21
894.465704
 31
0.0
  0
LINE
  5
497
330
1F
100
AcDbEntity
  8
002
 62
     3
370
    30
100
AcDbLine
 10
1286.235608
 20
894.465704
 30
0.0
 11
1286.235608
 21
886.465704
 31
0.0
  0
ARC
  5
498
330
1F
100
AcDbEntity
  8
002
 62
     3
370
    30
100
AcDbCircle
 10
1281.235608
 20
873.965704
 30
0.0
 40
17.50046973655275
100
AcDbArc
 50
106.601091
 51
73.398909
  0
ARC
  5
499
330
1F
100
AcDbEntity
  8
002
 62
     3
370
    30
100
AcDbCircle
 10
1281.235608
 20
873.965704
 30
0.0
 40
19.000672645988
100
AcDbArc
 50
105.25697
 51
74.74303
  0
LINE
  5
49A
330
1F
100
AcDbEntity
  8
002
 62
     3
370
    30
100
AcDbLine
 10
927.527227
 20
129.341919
 30
0.0
 11
927.527227
 21
153.341919
 31
0.0
  0
ARC
  5
49B
330
1F
100
AcDbEntity
  8
002
 62
     3
370
    30
100
AcDbCircle
 10
925.527227
 20
153.341919
 30
0.0
 40
2.0
100
AcDbArc
 50
0.0
 51
90.0
  0
LINE
  5
49C
330
1F
100
AcDbEntity
  8
002
 62
     3
370
    30
100
AcDbLine
 10
925.527227
 20
155.341919
 30
0.0
 11
579.527227
 21
155.341919
 31
0.0
  0
ARC
  5
49D
330
1F
100
AcDbEntity
  8
002
 62
     3
370
    30
100
AcDbCircle
 10
579.527227
 20
153.341919
 30
0.0
 40
2.0
100
AcDbArc
 50
90.0
 51
180.0
  0
LINE
  5
49E
330
1F
100
AcDbEntity
  8
002
 62
     3
370
    30
100
AcDbLine
 10
577.527227
 20
153.341919
 30
0.0
 11
577.527227
 21
129.341919
 31
0.0
  0
LINE
  5
49F
330
1F
100
AcDbEntity
  8
002
 62
     3
370
    30
100
AcDbLine
 10
577.527227
 20
129.341919
 30
0.0
 11
927.527227
 21
129.341919
 31
0.0
  0
LINE
  5
4A0
330
1F
100
AcDbEntity
  8
002
 62
     3
370
    30
100
AcDbLine
 10
921.084227
 20
157.844519
 30
0.0
 11
860.091227
 21
263.632019
 31
0.0
  0
LINE
  5
4A1
330
1F
100
AcDbEntity
  8
002
 62
     3
370
    30
100
AcDbLine
 10
860.091227
 20
263.632019
 30
0.0
 11
858.191227
 21
263.632019
 31
0.0
  0
ARC
  5
4A2
330
1F
100
AcDbEntity
  8
002
 62
     3
370
    30
100
AcDbCircle
 10
858.191227
 20
266.632019
 30
0.0
 40
3.0
100
AcDbArc
 50
213.823037
 51
270.0
  0
LINE
  5
4A3
330
1F
100
AcDbEntity
  8
002
 62
     3
370
    30
100
AcDbLine
 10
856.527227
 20
261.279419
 30
0.0
 11
856.527227
 21
155.341919
 31
0.0
  0
LINE
  5
4A4
330
1F
100
AcDbEntity
  8
002
 62
     3
370
    30
100
AcDbLine
 10
866.527227
 20
155.341919
 30
0.0
 11
866.527227
 21
229.341919
 31
0.0
  0
ARC
  5
4A5
330
1F
100
AcDbEntity
  8
002
 62
     3
370
    30
100
AcDbCircle
 10
802.527227
 20
229.341919
 30
0.0
 40
64.00045221723039
100
AcDbArc
 50
0.0
 51
325.22837
  0
ARC
  5
4A6
330
1F
100
AcDbEntity
  8
002
 62
     3
370
    30
100
AcDbCircle
 10
848.527227
 20
197.404519
 30
0.0
 40
8.0
100
AcDbArc
 50
325.230338
 51
0.0
  0
LINE
  5
4A7
330
1F
100
AcDbEntity
  8
002
 62
     3
370
    30
100
AcDbLine
 10
738.527227
 20
229.341919
 30
0.0
 11
738.527227
 21
160.341919
 31
0.0
  0
ARC
  5
4A8
330
1F
100
AcDbEntity
  8
002
 62
     3
370
    30
100
AcDbCircle
 10
733.527227
 20
160.341919
 30
0.0
 40
5.0
100
AcDbArc
 50
270.0
 51
0.0
  0
LINE
  5
4A9
330
1F
100
AcDbEntity
  8
002
 62
     3
370
    30
100
AcDbLine
 10
715.527227
 20
123.341919
 30
0.0
 11
715.527227
 21
113.341919
 31
0.0
  0
LINE
  5
4AA
330
1F
100
AcDbEntity
  8
002
 62
     3
370
    30
100
AcDbLine
 10
699.527227
 20
113.341919
 30
0.0
 11
715.527227
 21
113.341919
 31
0.0
  0
LINE
  5
4AB
330
1F
100
AcDbEntity
  8
002
 62
     3
370
    30
100
AcDbLine
 10
699.527227
 20
113.341919
 30
0.0
 11
699.527227
 21
123.341919
 31
0.0
  0
LINE
  5
4AC
330
1F
100
AcDbEntity
  8
002
 62
     3
370
    30
100
AcDbLine
 10
650.377227
 20
123.341919
 30
0.0
 11
650.377227
 21
54.341919
 31
0.0
  0
LINE
  5
4AD
330
1F
100
AcDbEntity
  8
002
 62
     3
370
    30
100
AcDbLine
 10
650.377227
 20
54.341919
 30
0.0
 11
764.677227
 21
54.341919
 31
0.0
  0
LINE
  5
4AE
330
1F
100
AcDbEntity
  8
002
 62
     3
370
    30
100
AcDbLine
 10
764.677227
 20
54.341919
 30
0.0
 11
764.677227
 21
123.341919
 31
0.0
  0
LINE
  5
4AF
330
1F
100
AcDbEntity
  8
002
 62
     3
370
    30
100
AcDbLine
 10
777.027227
 20
123.341919
 30
0.0
 11
777.027227
 21
113.341919
 31
0.0
  0
LINE
  5
4B0
330
1F
100
AcDbEntity
  8
002
 62
     3
370
    30
100
AcDbLine
 10
793.027227
 20
113.341919
 30
0.0
 11
777.027227
 21
113.341919
 31
0.0
  0
LINE
  5
4B1
330
1F
100
AcDbEntity
  8
002
 62
     3
370
    30
100
AcDbLine
 10
793.027227
 20
113.341919
 30
0.0
 11
793.027227
 21
123.341919
 31
0.0
  0
LINE
  5
4B2
330
1F
100
AcDbEntity
  8
002
 62
     3
370
    30
100
AcDbLine
 10
795.027227
 20
123.341919
 30
0.0
 11
795.027227
 21
129.341919
 31
0.0
  0
LINE
  5
4B3
330
1F
100
AcDbEntity
  8
002
 62
     3
370
    30
100
AcDbLine
 10
795.027227
 20
123.341919
 30
0.0
 11
620.027227
 21
123.341919
 31
0.0
  0
LINE
  5
4B4
330
1F
100
AcDbEntity
  8
002
 62
     3
370
    30
100
AcDbLine
 10
620.027227
 20
123.341919
 30
0.0
 11
620.027227
 21
129.341919
 31
0.0
  0
LINE
  5
4B5
330
1F
100
AcDbEntity
  8
002
 62
     3
370
    30
100
AcDbLine
 10
622.027227
 20
123.341919
 30
0.0
 11
622.027227
 21
113.341919
 31
0.0
  0
LINE
  5
4B6
330
1F
100
AcDbEntity
  8
002
 62
     3
370
    30
100
AcDbLine
 10
638.027227
 20
113.341919
 30
0.0
 11
622.027227
 21
113.341919
 31
0.0
  0
LINE
  5
4B7
330
1F
100
AcDbEntity
  8
002
 62
     3
370
    30
100
AcDbLine
 10
638.027227
 20
113.341919
 30
0.0
 11
638.027227
 21
123.341919
 31
0.0
  0
ARC
  5
4B8
330
1F
100
AcDbEntity
  8
002
 62
     3
370
    30
100
AcDbCircle
 10
642.525227
 20
160.341919
 30
0.0
 40
5.0
100
AcDbArc
 50
270.0
 51
0.0
  0
LINE
  5
4B9
330
1F
100
AcDbEntity
  8
002
 62
     3
370
    30
100
AcDbLine
 10
647.525227
 20
160.341919
 30
0.0
 11
647.525227
 21
271.341919
 31
0.0
  0
ARC
  5
4BA
330
1F
100
AcDbEntity
  8
002
 62
     3
370
    30
100
AcDbCircle
 10
642.525227
 20
271.341919
 30
0.0
 40
5.0
100
AcDbArc
 50
0.0
 51
90.0
  0
LINE
  5
4BB
330
1F
100
AcDbEntity
  8
002
 62
     3
370
    30
100
AcDbLine
 10
642.525227
 20
276.341919
 30
0.0
 11
617.956227
 21
276.341919
 31
0.0
  0
ARC
  5
4BC
330
1F
100
AcDbEntity
  8
002
 62
     3
370
    30
100
AcDbCircle
 10
617.956227
 20
271.341919
 30
0.0
 40
5.0
100
AcDbArc
 50
90.0
 51
180.0
  0
LINE
  5
4BD
330
1F
100
AcDbEntity
  8
002
 62
     3
370
    30
100
AcDbLine
 10
612.956227
 20
271.341919
 30
0.0
 11
612.956227
 21
160.341919
 31
0.0
  0
ARC
  5
4BE
330
1F
100
AcDbEntity
  8
002
 62
     3
370
    30
100
AcDbCircle
 10
607.956227
 20
160.341919
 30
0.0
 40
5.0
100
AcDbArc
 50
270.0
 51
0.0
  0
LINE
  5
4BF
330
1F
100
AcDbEntity
  8
002
 62
     3
370
    30
100
AcDbLine
 10
595.527227
 20
160.341919
 30
0.0
 11
595.527227
 21
182.940819
 31
0.0
  0
ARC
  5
4C0
330
1F
100
AcDbEntity
  8
002
 62
     3
370
    30
100
AcDbCircle
 10
585.527227
 20
182.940819
 30
0.0
 40
10.00006824976707
100
AcDbArc
 50
0.0
 51
65.908363
  0
LINE
  5
4C1
330
1F
100
AcDbEntity
  8
002
 62
     3
370
    30
100
AcDbLine
 10
589.609227
 20
192.069819
 30
0.0
 11
584.527227
 21
194.341919
 31
0.0
  0
LINE
  5
4C2
330
1F
100
AcDbEntity
  8
002
 62
     3
370
    30
100
AcDbLine
 10
584.527227
 20
194.341919
 30
0.0
 11
584.527227
 21
269.341919
 31
0.0
  0
ARC
  5
4C3
330
1F
100
AcDbEntity
  8
002
 62
     3
370
    30
100
AcDbCircle
 10
574.527227
 20
269.341919
 30
0.0
 40
10.0
100
AcDbArc
 50
0.0
 51
90.0
  0
LINE
  5
4C4
330
1F
100
AcDbEntity
  8
002
 62
     3
370
    30
100
AcDbLine
 10
573.527227
 20
279.341919
 30
0.0
 11
573.527227
 21
323.341919
 31
0.0
  0
LINE
  5
4C5
330
1F
100
AcDbEntity
  8
002
 62
     3
370
    30
100
AcDbLine
 10
573.527227
 20
323.341919
 30
0.0
 11
841.527227
 21
323.341919
 31
0.0
  0
ARC
  5
4C6
330
1F
100
AcDbEntity
  8
002
 62
     3
370
    30
100
AcDbCircle
 10
848.527227
 20
261.279419
 30
0.0
 40
8.00041734911359
100
AcDbArc
 50
0.0
 51
34.769073
  0
LINE
  5
4C7
330
1F
100
AcDbEntity
  8
002
 62
     3
370
    30
100
AcDbLine
 10
841.527227
 20
309.341919
 30
0.0
 11
573.527227
 21
309.341919
 31
0.0
  0
LINE
  5
4C8
330
1F
100
AcDbEntity
  8
002
 62
     3
370
    30
100
AcDbLine
 10
579.027227
 20
323.341919
 30
0.0
 11
579.027227
 21
337.341919
 31
0.0
  0
LINE
  5
4C9
330
1F
100
AcDbEntity
  8
002
 62
     3
370
    30
100
AcDbLine
 10
615.836227
 20
337.341919
 30
0.0
 11
615.836227
 21
323.341919
 31
0.0
  0
LINE
  5
4CA
330
1F
100
AcDbEntity
  8
002
 62
     3
370
    30
100
AcDbLine
 10
615.836227
 20
324.341919
 30
0.0
 11
638.027227
 21
324.341919
 31
0.0
  0
LINE
  5
4CB
330
1F
100
AcDbEntity
  8
002
 62
     3
370
    30
100
AcDbLine
 10
638.027227
 20
323.341919
 30
0.0
 11
638.027227
 21
337.341919
 31
0.0
  0
LINE
  5
4CC
330
1F
100
AcDbEntity
  8
002
 62
     3
370
    30
100
AcDbLine
 10
638.027227
 20
337.341919
 30
0.0
 11
659.027227
 21
337.341919
 31
0.0
  0
LINE
  5
4CD
330
1F
100
AcDbEntity
  8
002
 62
     3
370
    30
100
AcDbLine
 10
659.027227
 20
337.341919
 30
0.0
 11
659.027227
 21
323.341919
 31
0.0
  0
LINE
  5
4CE
330
1F
100
AcDbEntity
  8
002
 62
     3
370
    30
100
AcDbLine
 10
659.027227
 20
324.341919
 30
0.0
 11
697.027227
 21
324.341919
 31
0.0
  0
LINE
  5
4CF
330
1F
100
AcDbEntity
  8
002
 62
     3
370
    30
100
AcDbLine
 10
697.027227
 20
323.341919
 30
0.0
 11
697.027227
 21
337.341919
 31
0.0
  0
LINE
  5
4D0
330
1F
100
AcDbEntity
  8
002
 62
     3
370
    30
100
AcDbLine
 10
697.027227
 20
337.341919
 30
0.0
 11
718.027227
 21
337.341919
 31
0.0
  0
LINE
  5
4D1
330
1F
100
AcDbEntity
  8
002
 62
     3
370
    30
100
AcDbLine
 10
718.027227
 20
337.341919
 30
0.0
 11
718.027227
 21
323.341919
 31
0.0
  0
LINE
  5
4D2
330
1F
100
AcDbEntity
  8
002
 62
     3
370
    30
100
AcDbLine
 10
718.027227
 20
324.341919
 30
0.0
 11
756.027227
 21
324.341919
 31
0.0
  0
LINE
  5
4D3
330
1F
100
AcDbEntity
  8
002
 62
     3
370
    30
100
AcDbLine
 10
756.027227
 20
323.341919
 30
0.0
 11
756.027227
 21
337.341919
 31
0.0
  0
LINE
  5
4D4
330
1F
100
AcDbEntity
  8
002
 62
     3
370
    30
100
AcDbLine
 10
756.027227
 20
337.341919
 30
0.0
 11
777.027227
 21
337.341919
 31
0.0
  0
LINE
  5
4D5
330
1F
100
AcDbEntity
  8
002
 62
     3
370
    30
100
AcDbLine
 10
777.027227
 20
337.341919
 30
0.0
 11
777.027227
 21
323.341919
 31
0.0
  0
LINE
  5
4D6
330
1F
100
AcDbEntity
  8
002
 62
     3
370
    30
100
AcDbLine
 10
777.027227
 20
324.341919
 30
0.0
 11
799.218227
 21
324.341919
 31
0.0
  0
LINE
  5
4D7
330
1F
100
AcDbEntity
  8
002
 62
     3
370
    30
100
AcDbLine
 10
799.218227
 20
323.341919
 30
0.0
 11
799.218227
 21
337.341919
 31
0.0
  0
LINE
  5
4D8
330
1F
100
AcDbEntity
  8
002
 62
     3
370
    30
100
AcDbLine
 10
799.218227
 20
337.341919
 30
0.0
 11
836.027227
 21
337.341919
 31
0.0
  0
LINE
  5
4D9
330
1F
100
AcDbEntity
  8
002
 62
     3
370
    30
100
AcDbLine
 10
797.527227
 20
339.341919
 30
0.0
 11
617.527227
 21
339.341919
 31
0.0
  0
LINE
  5
4DA
330
1F
100
AcDbEntity
  8
002
 62
     3
370
    30
100
AcDbLine
 10
617.527227
 20
339.341919
 30
0.0
 11
617.014227
 21
333.470419
 31
0.0
  0
LINE
  5
4DB
330
1F
100
AcDbEntity
  8
002
 62
     3
370
    30
100
AcDbLine
 10
615.836227
 20
337.341919
 30
0.0
 11
579.027227
 21
337.341919
 31
0.0
  0
LINE
  5
4DC
330
1F
100
AcDbEntity
  8
002
 62
     3
370
    30
100
AcDbLine
 10
594.836227
 20
337.341919
 30
0.0
 11
594.836227
 21
323.341919
 31
0.0
  0
ARC
  5
4DD
330
1F
100
AcDbEntity
  8
002
 62
     3
370
    30
100
AcDbCircle
 10
607.052227
 20
334.341919
 30
0.0
 40
10.00004781238592
100
AcDbArc
 50
331.455802
 51
355.000354
  0
LINE
  5
4DE
330
1F
100
AcDbEntity
  8
002
 62
     3
370
    30
100
AcDbLine
 10
657.527227
 20
339.341919
 30
0.0
 11
657.527227
 21
349.341919
 31
0.0
  0
LINE
  5
4DF
330
1F
100
AcDbEntity
  8
002
 62
     3
370
    30
100
AcDbLine
 10
657.527227
 20
349.341919
 30
0.0
 11
757.527227
 21
349.341919
 31
0.0
  0
LINE
  5
4E0
330
1F
100
AcDbEntity
  8
002
 62
     3
370
    30
100
AcDbLine
 10
757.527227
 20
349.341919
 30
0.0
 11
757.527227
 21
339.341919
 31
0.0
  0
LINE
  5
4E1
330
1F
100
AcDbEntity
  8
002
 62
     3
370
    30
100
AcDbLine
 10
797.527227
 20
339.341919
 30
0.0
 11
798.041227
 21
333.470419
 31
0.0
  0
ARC
  5
4E2
330
1F
100
AcDbEntity
  8
002
 62
     3
370
    30
100
AcDbCircle
 10
808.003227
 20
334.341919
 30
0.0
 40
10.0003232252762
100
AcDbArc
 50
184.999646
 51
208.54146
  0
LINE
  5
4E3
330
1F
100
AcDbEntity
  8
002
 62
     3
370
    30
100
AcDbLine
 10
820.218227
 20
337.341919
 30
0.0
 11
820.218227
 21
323.341919
 31
0.0
  0
LINE
  5
4E4
330
1F
100
AcDbEntity
  8
002
 62
     3
370
    30
100
AcDbLine
 10
836.027227
 20
323.341919
 30
0.0
 11
836.027227
 21
337.341919
 31
0.0
  0
LINE
  5
4E5
330
1F
100
AcDbEntity
  8
002
 62
     3
370
    30
100
AcDbLine
 10
777.955227
 20
288.436619
 30
0.0
 11
777.955227
 21
291.673119
 31
0.0
  0
ARC
  5
4E6
330
1F
100
AcDbEntity
  8
002
 62
     3
370
    30
100
AcDbCircle
 10
802.527227
 20
229.341919
 30
0.0
 40
66.99986271627724
100
AcDbArc
 50
111.515187
 51
131.731685
  0
LINE
  5
4E7
330
1F
100
AcDbEntity
  8
002
 62
     3
370
    30
100
AcDbLine
 10
757.929227
 20
279.341919
 30
0.0
 11
573.527227
 21
279.341919
 31
0.0
  0
LINE
  5
4E8
330
1F
100
AcDbEntity
  8
002
 62
     3
370
    30
100
AcDbLine
 10
602.882227
 20
269.341919
 30
0.0
 11
602.882227
 21
229.341919
 31
0.0
  0
LINE
  5
4E9
330
1F
100
AcDbEntity
  8
002
 62
     3
370
    30
100
AcDbLine
 10
584.527227
 20
245.947519
 30
0.0
 11
574.527227
 21
246.260019
 31
0.0
  0
LINE
  5
4EA
330
1F
100
AcDbEntity
  8
002
 62
     3
370
    30
100
AcDbLine
 10
574.527227
 20
246.260019
 30
0.0
 11
574.527227
 21
212.423919
 31
0.0
  0
LINE
  5
4EB
330
1F
100
AcDbEntity
  8
002
 62
     3
370
    30
100
AcDbLine
 10
574.527227
 20
212.423919
 30
0.0
 11
584.527227
 21
212.736419
 31
0.0
  0
LINE
  5
4EC
330
1F
100
AcDbEntity
  8
002
 62
     3
370
    30
100
AcDbLine
 10
574.527227
 20
219.841919
 30
0.0
 11
562.527227
 21
220.341919
 31
0.0
  0
LINE
  5
4ED
330
1F
100
AcDbEntity
  8
002
 62
     3
370
    30
100
AcDbLine
 10
562.527227
 20
220.341919
 30
0.0
 11
562.527227
 21
238.341919
 31
0.0
  0
LINE
  5
4EE
330
1F
100
AcDbEntity
  8
002
 62
     3
370
    30
100
AcDbLine
 10
562.527227
 20
238.341919
 30
0.0
 11
574.527227
 21
238.841919
 31
0.0
  0
ARC
  5
4EF
330
1F
100
AcDbEntity
  8
002
 62
     3
370
    30
100
AcDbCircle
 10
592.882227
 20
269.341919
 30
0.0
 40
10.00040819166902
100
AcDbArc
 50
0.0
 51
44.424712
  0
LINE
  5
4F0
330
1F
100
AcDbEntity
  8
002
 62
     3
370
    30
100
AcDbLine
 10
615.525227
 20
268.669419
 30
0.0
 11
645.525227
 21
268.669419
 31
0.0
  0
LINE
  5
4F1
330
1F
100
AcDbEntity
  8
002
 62
     3
370
    30
100
AcDbLine
 10
704.641227
 20
234.341919
 30
0.0
 11
710.414227
 21
234.341919
 31
0.0
  0
LINE
  5
4F2
330
1F
100
AcDbEntity
  8
002
 62
     3
370
    30
100
AcDbLine
 10
710.414227
 20
234.341919
 30
0.0
 11
713.301227
 21
229.341919
 31
0.0
  0
LINE
  5
4F3
330
1F
100
AcDbEntity
  8
002
 62
     3
370
    30
100
AcDbLine
 10
713.301227
 20
229.341919
 30
0.0
 11
710.414227
 21
224.341919
 31
0.0
  0
LINE
  5
4F4
330
1F
100
AcDbEntity
  8
002
 62
     3
370
    30
100
AcDbLine
 10
710.414227
 20
224.341919
 30
0.0
 11
704.641227
 21
224.341919
 31
0.0
  0
LINE
  5
4F5
330
1F
100
AcDbEntity
  8
002
 62
     3
370
    30
100
AcDbLine
 10
704.641227
 20
224.341919
 30
0.0
 11
701.754227
 21
229.341919
 31
0.0
  0
LINE
  5
4F6
330
1F
100
AcDbEntity
  8
002
 62
     3
370
    30
100
AcDbLine
 10
701.754227
 20
229.341919
 30
0.0
 11
704.641227
 21
234.341919
 31
0.0
  0
CIRCLE
  5
4F7
330
1F
100
AcDbEntity
  8
002
 62
     3
370
    30
100
AcDbCircle
 10
707.527227
 20
229.341919
 30
0.0
 40
0.75
  0
CIRCLE
  5
4F8
330
1F
100
AcDbEntity
  8
002
 62
     3
370
    30
100
AcDbCircle
 10
707.527227
 20
229.341919
 30
0.0
 40
2.5
  0
CIRCLE
  5
4F9
330
1F
100
AcDbEntity
  8
002
 62
     3
370
    30
100
AcDbCircle
 10
707.527227
 20
229.341919
 30
0.0
 40
3.25
  0
CIRCLE
  5
4FA
330
1F
100
AcDbEntity
  8
002
 62
     3
370
    30
100
AcDbCircle
 10
707.527227
 20
229.341919
 30
0.0
 40
5.0
  0
CIRCLE
  5
4FB
330
1F
100
AcDbEntity
  8
002
 62
     3
370
    30
100
AcDbCircle
 10
707.527227
 20
229.341919
 30
0.0
 40
15.0
  0
ARC
  5
4FC
330
1F
100
AcDbEntity
  8
002
 62
     3
370
    30
100
AcDbCircle
 10
925.416227
 20
160.341919
 30
0.0
 40
5.0
100
AcDbArc
 50
209.963469
 51
270.0
  0
LINE
  5
4FD
330
1F
100
AcDbEntity
  8
002
 62
     3
370
    30
100
AcDbLine
 10
683.027227
 20
763.341219
 30
0.0
 11
683.027227
 21
741.510919
 31
0.0
  0
LINE
  5
4FE
330
1F
100
AcDbEntity
  8
002
 62
     3
370
    30
100
AcDbLine
 10
674.538227
 20
749.251919
 30
0.0
 11
692.527227
 21
732.847119
 31
0.0
  0
LINE
  5
4FF
330
1F
100
AcDbEntity
  8
002
 62
     3
370
    30
100
AcDbLine
 10
692.527227
 20
734.471419
 30
0.0
 11
722.527227
 21
707.113419
 31
0.0
  0
LINE
  5
500
330
1F
100
AcDbEntity
  8
002
 62
     3
370
    30
100
AcDbLine
 10
722.527227
 20
705.488719
 30
0.0
 11
751.297227
 21
679.252419
 31
0.0
  0
ARC
  5
501
330
1F
100
AcDbEntity
  8
002
 62
     3
370
    30
100
AcDbCircle
 10
745.907227
 20
673.341419
 30
0.0
 40
7.999858783753691
100
AcDbArc
 50
227.634778
 51
46.851856
  0
LINE
  5
502
330
1F
100
AcDbEntity
  8
002
 62
     3
370
    30
100
AcDbLine
 10
740.516227
 20
667.430219
 30
0.0
 11
722.527227
 21
683.835019
 31
0.0
  0
LINE
  5
503
330
1F
100
AcDbEntity
  8
002
 62
     3
370
    30
100
AcDbLine
 10
722.527227
 20
682.211719
 30
0.0
 11
692.527227
 21
709.569719
 31
0.0
  0
LINE
  5
504
330
1F
100
AcDbEntity
  8
002
 62
     3
370
    30
100
AcDbLine
 10
692.527227
 20
711.193419
 30
0.0
 11
663.757227
 21
737.429819
 31
0.0
  0
ARC
  5
505
330
1F
100
AcDbEntity
  8
002
 62
     3
370
    30
100
AcDbCircle
 10
669.147227
 20
743.340519
 30
0.0
 40
8.000469751833313
100
AcDbArc
 50
47.640553
 51
226.846141
  0
LINE
  5
506
330
1F
100
AcDbEntity
  8
002
 62
     3
370
    30
100
AcDbLine
 10
683.027227
 20
719.856819
 30
0.0
 11
683.027227
 21
661.511619
 31
0.0
  0
LINE
  5
507
330
1F
100
AcDbEntity
  8
002
 62
     3
370
    30
100
AcDbLine
 10
674.538227
 20
669.252919
 30
0.0
 11
692.527227
 21
652.847919
 31
0.0
  0
LINE
  5
508
330
1F
100
AcDbEntity
  8
002
 62
     3
370
    30
100
AcDbLine
 10
692.527227
 20
654.470919
 30
0.0
 11
722.527227
 21
627.112919
 31
0.0
  0
LINE
  5
509
330
1F
100
AcDbEntity
  8
002
 62
     3
370
    30
100
AcDbLine
 10
722.527227
 20
625.489919
 30
0.0
 11
751.297227
 21
599.253919
 31
0.0
  0
ARC
  5
50A
330
1F
100
AcDbEntity
  8
002
 62
     3
370
    30
100
AcDbCircle
 10
745.907227
 20
593.342919
 30
0.0
 40
7.999421041550456
100
AcDbArc
 50
227.639121
 51
46.848917
  0
LINE
  5
50B
330
1F
100
AcDbEntity
  8
002
 62
     3
370
    30
100
AcDbLine
 10
740.516227
 20
587.430919
 30
0.0
 11
722.527227
 21
603.835919
 31
0.0
  0
LINE
  5
50C
330
1F
100
AcDbEntity
  8
002
 62
     3
370
    30
100
AcDbLine
 10
722.527227
 20
602.211919
 30
0.0
 11
692.527227
 21
629.569919
 31
0.0
  0
LINE
  5
50D
330
1F
100
AcDbEntity
  8
002
 62
     3
370
    30
100
AcDbLine
 10
692.527227
 20
631.194919
 30
0.0
 11
663.757227
 21
657.430819
 31
0.0
  0
ARC
  5
50E
330
1F
100
AcDbEntity
  8
002
 62
     3
370
    30
100
AcDbCircle
 10
669.147227
 20
663.341619
 30
0.0
 40
8.000542704091986
100
AcDbArc
 50
47.64007
 51
226.846631
  0
LINE
  5
50F
330
1F
100
AcDbEntity
  8
002
 62
     3
370
    30
100
AcDbLine
 10
683.027227
 20
639.857919
 30
0.0
 11
683.027227
 21
573.340919
 31
0.0
  0
ARC
  5
510
330
1F
100
AcDbEntity
  8
002
 62
     3
370
    30
100
AcDbCircle
 10
694.527227
 20
577.341919
 30
0.0
 40
2.0
100
AcDbArc
 50
180.0
 51
270.0
  0
LINE
  5
511
330
1F
100
AcDbEntity
  8
002
 62
     3
370
    30
100
AcDbLine
 10
694.527227
 20
575.341919
 30
0.0
 11
720.526227
 21
575.341919
 31
0.0
  0
ARC
  5
512
330
1F
100
AcDbEntity
  8
002
 62
     3
370
    30
100
AcDbCircle
 10
720.526227
 20
577.341919
 30
0.0
 40
2.0
100
AcDbArc
 50
270.0
 51
0.0
  0
LINE
  5
513
330
1F
100
AcDbEntity
  8
002
 62
     3
370
    30
100
AcDbLine
 10
722.527227
 20
577.341919
 30
0.0
 11
722.527227
 21
759.341519
 31
0.0
  0
ARC
  5
514
330
1F
100
AcDbEntity
  8
002
 62
     3
370
    30
100
AcDbCircle
 10
720.527227
 20
759.341519
 30
0.0
 40
2.0
100
AcDbArc
 50
0.0
 51
90.0
  0
LINE
  5
515
330
1F
100
AcDbEntity
  8
002
 62
     3
370
    30
100
AcDbLine
 10
720.527227
 20
761.341519
 30
0.0
 11
694.527227
 21
761.341519
 31
0.0
  0
ARC
  5
516
330
1F
100
AcDbEntity
  8
002
 62
     3
370
    30
100
AcDbCircle
 10
694.527227
 20
759.341519
 30
0.0
 40
2.0
100
AcDbArc
 50
90.0
 51
180.0
  0
LINE
  5
517
330
1F
100
AcDbEntity
  8
002
 62
     3
370
    30
100
AcDbLine
 10
692.527227
 20
759.341519
 30
0.0
 11
692.527227
 21
577.341919
 31
0.0
  0
LINE
  5
518
330
1F
100
AcDbEntity
  8
002
 62
     3
370
    30
100
AcDbLine
 10
702.619227
 20
579.841919
 30
0.0
 11
712.434227
 21
579.841919
 31
0.0
  0
LINE
  5
519
330
1F
100
AcDbEntity
  8
002
 62
     3
370
    30
100
AcDbLine
 10
712.434227
 20
579.840919
 30
0.0
 11
717.342227
 21
588.340919
 31
0.0
  0
LINE
  5
51A
330
1F
100
AcDbEntity
  8
002
 62
     3
370
    30
100
AcDbLine
 10
717.342227
 20
588.341919
 30
0.0
 11
712.434227
 21
596.841919
 31
0.0
  0
LINE
  5
51B
330
1F
100
AcDbEntity
  8
002
 62
     3
370
    30
100
AcDbLine
 10
712.434227
 20
596.841919
 30
0.0
 11
702.619227
 21
596.841919
 31
0.0
  0
LINE
  5
51C
330
1F
100
AcDbEntity
  8
002
 62
     3
370
    30
100
AcDbLine
 10
702.619227
 20
596.841919
 30
0.0
 11
697.712227
 21
588.341919
 31
0.0
  0
LINE
  5
51D
330
1F
100
AcDbEntity
  8
002
 62
     3
370
    30
100
AcDbLine
 10
697.712227
 20
588.341919
 30
0.0
 11
702.619227
 21
579.841919
 31
0.0
  0
CIRCLE
  5
51E
330
1F
100
AcDbEntity
  8
002
 62
     3
370
    30
100
AcDbCircle
 10
707.527227
 20
588.341919
 30
0.0
 40
5.0
  0
CIRCLE
  5
51F
330
1F
100
AcDbEntity
  8
002
 62
     3
370
    30
100
AcDbCircle
 10
707.527227
 20
588.341919
 30
0.0
 40
4.1
  0
CIRCLE
  5
520
330
1F
100
AcDbEntity
  8
002
 62
     3
370
    30
100
AcDbCircle
 10
707.527227
 20
588.341919
 30
0.0
 40
8.249999
  0
LINE
  5
521
330
1F
100
AcDbEntity
  8
002
 62
     3
370
    30
100
AcDbLine
 10
732.027227
 20
595.171919
 30
0.0
 11
732.027227
 21
573.340919
 31
0.0
  0
LINE
  5
522
330
1F
100
AcDbEntity
  8
002
 62
     3
370
    30
100
AcDbLine
 10
645.027227
 20
573.340919
 30
0.0
 11
770.027227
 21
573.340919
 31
0.0
  0
ARC
  5
523
330
1F
100
AcDbEntity
  8
002
 62
     3
370
    30
100
AcDbCircle
 10
453.045227
 20
236.313819
 30
0.0
 40
149.9991131927452
100
AcDbArc
 50
341.783888
 51
357.335955
  0
ARC
  5
524
330
1F
100
AcDbEntity
  8
002
 62
     3
370
    30
100
AcDbCircle
 10
590.527227
 20
160.341919
 30
0.0
 40
5.0
100
AcDbArc
 50
270.0
 51
0.0
  0
LINE
  5
525
330
1F
100
AcDbEntity
  8
002
 62
     3
370
    30
100
AcDbLine
 10
832.527227
 20
763.341119
 30
0.0
 11
582.527227
 21
763.341119
 31
0.0
  0
LINE
  5
526
330
1F
100
AcDbEntity
  8
002
 62
     3
370
    30
100
AcDbLine
 10
732.027227
 20
763.341219
 30
0.0
 11
732.027227
 21
696.826019
 31
0.0
  0
LINE
  5
527
330
1F
100
AcDbEntity
  8
002
 62
     3
370
    30
100
AcDbLine
 10
732.027227
 20
675.172319
 30
0.0
 11
732.027227
 21
616.826919
 31
0.0
  0
LINE
  5
528
330
1F
100
AcDbEntity
  8
002
 62
     3
370
    30
100
AcDbLine
 10
712.434227
 20
659.841419
 30
0.0
 11
717.342227
 21
668.341419
 31
0.0
  0
LINE
  5
529
330
1F
100
AcDbEntity
  8
002
 62
     3
370
    30
100
AcDbLine
 10
717.342227
 20
668.341519
 30
0.0
 11
712.434227
 21
676.841519
 31
0.0
  0
LINE
  5
52A
330
1F
100
AcDbEntity
  8
002
 62
     3
370
    30
100
AcDbLine
 10
712.434227
 20
676.841519
 30
0.0
 11
702.619227
 21
676.841519
 31
0.0
  0
LINE
  5
52B
330
1F
100
AcDbEntity
  8
002
 62
     3
370
    30
100
AcDbLine
 10
702.619227
 20
676.841519
 30
0.0
 11
697.712227
 21
668.341519
 31
0.0
  0
LINE
  5
52C
330
1F
100
AcDbEntity
  8
002
 62
     3
370
    30
100
AcDbLine
 10
697.712227
 20
668.341519
 30
0.0
 11
702.619227
 21
659.841519
 31
0.0
  0
LINE
  5
52D
330
1F
100
AcDbEntity
  8
002
 62
     3
370
    30
100
AcDbLine
 10
702.619227
 20
659.841519
 30
0.0
 11
712.434227
 21
659.841519
 31
0.0
  0
CIRCLE
  5
52E
330
1F
100
AcDbEntity
  8
002
 62
     3
370
    30
100
AcDbCircle
 10
707.527227
 20
668.341519
 30
0.0
 40
4.1
  0
CIRCLE
  5
52F
330
1F
100
AcDbEntity
  8
002
 62
     3
370
    30
100
AcDbCircle
 10
707.527227
 20
668.341519
 30
0.0
 40
5.0
  0
CIRCLE
  5
530
330
1F
100
AcDbEntity
  8
002
 62
     3
370
    30
100
AcDbCircle
 10
707.527227
 20
668.341519
 30
0.0
 40
8.249999
  0
LINE
  5
531
330
1F
100
AcDbEntity
  8
002
 62
     3
370
    30
100
AcDbLine
 10
702.619227
 20
739.841419
 30
0.0
 11
712.434227
 21
739.841419
 31
0.0
  0
LINE
  5
532
330
1F
100
AcDbEntity
  8
002
 62
     3
370
    30
100
AcDbLine
 10
712.434227
 20
739.841519
 30
0.0
 11
717.342227
 21
748.341519
 31
0.0
  0
LINE
  5
533
330
1F
100
AcDbEntity
  8
002
 62
     3
370
    30
100
AcDbLine
 10
717.342227
 20
748.341519
 30
0.0
 11
712.434227
 21
756.841519
 31
0.0
  0
LINE
  5
534
330
1F
100
AcDbEntity
  8
002
 62
     3
370
    30
100
AcDbLine
 10
712.434227
 20
756.841519
 30
0.0
 11
702.619227
 21
756.841519
 31
0.0
  0
LINE
  5
535
330
1F
100
AcDbEntity
  8
002
 62
     3
370
    30
100
AcDbLine
 10
702.619227
 20
756.841619
 30
0.0
 11
697.712227
 21
748.341519
 31
0.0
  0
LINE
  5
536
330
1F
100
AcDbEntity
  8
002
 62
     3
370
    30
100
AcDbLine
 10
697.712227
 20
748.341519
 30
0.0
 11
702.619227
 21
739.841519
 31
0.0
  0
CIRCLE
  5
537
330
1F
100
AcDbEntity
  8
002
 62
     3
370
    30
100
AcDbCircle
 10
707.527227
 20
748.341519
 30
0.0
 40
5.0
  0
CIRCLE
  5
538
330
1F
100
AcDbEntity
  8
002
 62
     3
370
    30
100
AcDbCircle
 10
707.527227
 20
748.341519
 30
0.0
 40
4.1
  0
CIRCLE
  5
539
330
1F
100
AcDbEntity
  8
002
 62
     3
370
    30
100
AcDbCircle
 10
707.527227
 20
748.341519
 30
0.0
 40
8.249999
  0
LINE
  5
53A
330
1F
100
AcDbEntity
  8
002
  6
CENTER
 62
    40
370
     9
100
AcDbLine
 10
751.817227
 20
587.951919
 30
0.0
 11
722.527227
 21
614.661919
 31
0.0
  0
LINE
  5
53B
330
1F
100
AcDbEntity
  8
002
  6
CENTER
 62
    40
370
     9
100
AcDbLine
 10
692.527227
 20
642.021919
 30
0.0
 11
663.236227
 21
668.732819
 31
0.0
  0
LINE
  5
53C
330
1F
100
AcDbEntity
  8
002
  6
CENTER
 62
    40
370
     9
100
AcDbLine
 10
692.527227
 20
722.020819
 30
0.0
 11
663.236227
 21
748.731719
 31
0.0
  0
LINE
  5
53D
330
1F
100
AcDbEntity
  8
002
  6
CENTER
 62
    40
370
     9
100
AcDbLine
 10
766.527227
 20
343.313219
 30
0.0
 11
766.527227
 21
301.930719
 31
0.0
  0
LINE
  5
53E
330
1F
100
AcDbEntity
  8
002
  6
CENTER
 62
    40
370
     9
100
AcDbLine
 10
802.527227
 20
301.654019
 30
0.0
 11
802.527227
 21
155.341919
 31
0.0
  0
LINE
  5
53F
330
1F
100
AcDbEntity
  8
002
  6
CENTER
 62
    40
370
     9
100
AcDbLine
 10
785.027227
 20
141.050619
 30
0.0
 11
785.027227
 21
110.362519
 31
0.0
  0
LINE
  5
540
330
1F
100
AcDbEntity
  8
002
  6
CENTER
 62
    40
370
     9
100
AcDbLine
 10
892.527227
 20
118.404719
 30
0.0
 11
892.527227
 21
162.502619
 31
0.0
  0
LINE
  5
541
330
1F
100
AcDbEntity
  8
002
  6
CENTER
 62
    40
370
     9
100
AcDbLine
 10
892.527227
 20
229.341919
 30
0.0
 11
543.604227
 21
229.341919
 31
0.0
  0
LINE
  5
542
330
1F
100
AcDbEntity
  8
002
 62
    40
370
     9
100
AcDbLine
 10
562.527227
 20
238.341919
 30
0.0
 11
574.527227
 21
219.841919
 31
0.0
  0
LINE
  5
543
330
1F
100
AcDbEntity
  8
002
 62
    40
370
     9
100
AcDbLine
 10
574.527227
 20
213.864219
 30
0.0
 11
584.527227
 21
214.176719
 31
0.0
  0
LINE
  5
544
330
1F
100
AcDbEntity
  8
002
 62
    40
370
     9
100
AcDbLine
 10
562.527227
 20
220.341919
 30
0.0
 11
574.527227
 21
238.841919
 31
0.0
  0
LINE
  5
545
330
1F
100
AcDbEntity
  8
002
 62
    40
370
     9
100
AcDbLine
 10
574.527227
 20
244.819619
 30
0.0
 11
584.527227
 21
244.507119
 31
0.0
  0
LINE
  5
546
330
1F
100
AcDbEntity
  8
002
  6
CENTER
 62
    40
370
     9
100
AcDbLine
 10
589.527227
 20
301.930719
 30
0.0
 11
589.527227
 21
343.313219
 31
0.0
  0
LINE
  5
547
330
1F
100
AcDbEntity
  8
002
  6
CENTER
 62
    40
370
     9
100
AcDbLine
 10
605.336227
 20
343.313219
 30
0.0
 11
605.336227
 21
301.930719
 31
0.0
  0
LINE
  5
548
330
1F
100
AcDbEntity
  8
002
  6
CENTER
 62
    40
370
     9
100
AcDbLine
 10
648.527227
 20
301.930719
 30
0.0
 11
648.527227
 21
343.313219
 31
0.0
  0
LINE
  5
549
330
1F
100
AcDbEntity
  8
002
  6
CENTER
 62
    40
370
     9
100
AcDbLine
 10
722.527227
 20
694.661319
 30
0.0
 11
751.817227
 21
667.950419
 31
0.0
  0
LINE
  5
54A
330
1F
100
AcDbEntity
  8
002
  6
CENTER
 62
    40
370
     9
100
AcDbLine
 10
630.027227
 20
141.050619
 30
0.0
 11
630.027227
 21
110.362519
 31
0.0
  0
LINE
  5
54B
330
1F
100
AcDbEntity
  8
002
  6
CENTER
 62
    40
370
     9
100
AcDbLine
 10
612.527227
 20
118.404719
 30
0.0
 11
612.527227
 21
162.502619
 31
0.0
  0
LINE
  5
54C
330
1F
100
AcDbEntity
  8
002
  6
CENTER
 62
    40
370
     9
100
AcDbLine
 10
825.527227
 20
301.930719
 30
0.0
 11
825.527227
 21
343.313219
 31
0.0
  0
LINE
  5
54D
330
1F
100
AcDbEntity
  8
002
  6
CENTER
 62
    40
370
     9
100
AcDbLine
 10
809.718227
 20
343.313219
 30
0.0
 11
809.718227
 21
301.930719
 31
0.0
  0
LINE
  5
54E
330
1F
100
AcDbEntity
  8
002
 62
     3
370
    30
100
AcDbLine
 10
667.527227
 20
808.341119
 30
0.0
 11
667.527227
 21
959.341919
 31
0.0
  0
LINE
  5
54F
330
1F
100
AcDbEntity
  8
002
 62
     3
370
    30
100
AcDbLine
 10
667.527227
 20
959.341919
 30
0.0
 11
747.527227
 21
959.341919
 31
0.0
  0
LINE
  5
550
330
1F
100
AcDbEntity
  8
002
 62
     3
370
    30
100
AcDbLine
 10
747.527227
 20
959.341919
 30
0.0
 11
747.527227
 21
808.341119
 31
0.0
  0
LINE
  5
551
330
1F
100
AcDbEntity
  8
002
 62
     3
370
    30
100
AcDbLine
 10
740.027227
 20
959.341919
 30
0.0
 11
740.027227
 21
1059.341919
 31
0.0
  0
LINE
  5
552
330
1F
100
AcDbEntity
  8
002
 62
     3
370
    30
100
AcDbLine
 10
740.027227
 20
1059.341919
 30
0.0
 11
675.027227
 21
1059.341919
 31
0.0
  0
LINE
  5
553
330
1F
100
AcDbEntity
  8
002
 62
     3
370
    30
100
AcDbLine
 10
675.027227
 20
1059.341919
 30
0.0
 11
675.027227
 21
959.341919
 31
0.0
  0
LINE
  5
554
330
1F
100
AcDbEntity
  8
002
 62
    40
370
     9
100
AcDbLine
 10
672.249227
 20
959.341919
 30
0.0
 11
672.249227
 21
808.341119
 31
0.0
  0
LINE
  5
555
330
1F
100
AcDbEntity
  8
002
 62
    40
370
     9
100
AcDbLine
 10
742.805227
 20
808.341119
 30
0.0
 11
742.805227
 21
959.341919
 31
0.0
  0
LINE
  5
556
330
1F
100
AcDbEntity
  8
002
  6
HIDDEN
 62
    40
370
     9
100
AcDbLine
 10
909.027227
 20
154.341919
 30
0.0
 11
909.027227
 21
129.341919
 31
0.0
  0
LINE
  5
557
330
1F
100
AcDbEntity
  8
002
  6
HIDDEN
 62
    40
370
     9
100
AcDbLine
 10
860.027227
 20
154.341919
 30
0.0
 11
925.027227
 21
154.341919
 31
0.0
  0
LINE
  5
558
330
1F
100
AcDbEntity
  8
002
  6
HIDDEN
 62
    40
370
     9
100
AcDbLine
 10
925.027227
 20
154.341919
 30
0.0
 11
925.027227
 21
155.341919
 31
0.0
  0
LINE
  5
559
330
1F
100
AcDbEntity
  8
002
  6
HIDDEN
 62
    40
370
     9
100
AcDbLine
 10
876.027227
 20
154.341919
 30
0.0
 11
876.027227
 21
129.341919
 31
0.0
  0
LINE
  5
55A
330
1F
100
AcDbEntity
  8
002
  6
HIDDEN
 62
    40
370
     9
100
AcDbLine
 10
860.027227
 20
155.341919
 30
0.0
 11
860.027227
 21
154.341919
 31
0.0
  0
LINE
  5
55B
330
1F
100
AcDbEntity
  8
002
  6
HIDDEN
 62
    40
370
     9
100
AcDbLine
 10
629.027227
 20
154.341919
 30
0.0
 11
629.027227
 21
129.341919
 31
0.0
  0
LINE
  5
55C
330
1F
100
AcDbEntity
  8
002
  6
HIDDEN
 62
    40
370
     9
100
AcDbLine
 10
580.027227
 20
154.341919
 30
0.0
 11
645.027227
 21
154.341919
 31
0.0
  0
LINE
  5
55D
330
1F
100
AcDbEntity
  8
002
  6
HIDDEN
 62
    40
370
     9
100
AcDbLine
 10
645.027227
 20
154.341919
 30
0.0
 11
645.027227
 21
155.341919
 31
0.0
  0
LINE
  5
55E
330
1F
100
AcDbEntity
  8
002
  6
HIDDEN
 62
    40
370
     9
100
AcDbLine
 10
596.027227
 20
154.341919
 30
0.0
 11
596.027227
 21
129.341919
 31
0.0
  0
LINE
  5
55F
330
1F
100
AcDbEntity
  8
002
  6
HIDDEN
 62
    40
370
     9
100
AcDbLine
 10
580.027227
 20
155.341919
 30
0.0
 11
580.027227
 21
154.341919
 31
0.0
  0
LINE
  5
560
330
1F
100
AcDbEntity
  8
002
 62
     3
370
    30
100
AcDbLine
 10
770.027227
 20
763.341119
 30
0.0
 11
770.027227
 21
573.340919
 31
0.0
  0
LINE
  5
561
330
1F
100
AcDbEntity
  8
002
 62
     3
370
    30
100
AcDbLine
 10
645.027227
 20
763.341119
 30
0.0
 11
645.027227
 21
573.340919
 31
0.0
  0
LINE
  5
562
330
1F
100
AcDbEntity
  8
002
 62
     3
370
    30
100
AcDbLine
 10
832.527227
 20
808.341119
 30
0.0
 11
582.527227
 21
808.341119
 31
0.0
  0
LINE
  5
563
330
1F
100
AcDbEntity
  8
002
 62
     3
370
    30
100
AcDbLine
 10
582.527227
 20
808.341119
 30
0.0
 11
582.527227
 21
763.341119
 31
0.0
  0
LINE
  5
564
330
1F
100
AcDbEntity
  8
002
 62
     3
370
    30
100
AcDbLine
 10
832.527227
 20
808.341119
 30
0.0
 11
832.527227
 21
763.341119
 31
0.0
  0
LINE
  5
565
330
1F
100
AcDbEntity
  8
002
  6
CENTER
 62
    40
370
     9
100
AcDbLine
 10
607.527227
 20
818.341119
 30
0.0
 11
607.527227
 21
753.341119
 31
0.0
  0
LINE
  5
566
330
1F
100
AcDbEntity
  8
002
  6
CENTER
 62
    40
370
     9
100
AcDbLine
 10
807.527227
 20
818.341119
 30
0.0
 11
807.527227
 21
753.341119
 31
0.0
  0
LINE
  5
567
330
1F
100
AcDbEntity
  8
002
 62
     3
370
    30
100
AcDbLine
 10
841.527227
 20
323.341919
 30
0.0
 11
841.527227
 21
280.086948
 31
0.0
  0
CIRCLE
  5
568
330
1F
100
AcDbEntity
  8
002
 62
     3
370
    30
100
AcDbCircle
 10
802.527227
 20
229.341919
 30
0.0
 40
25.0
  0
LINE
  5
569
330
1F
100
AcDbEntity
  8
002
 62
     3
370
    30
100
AcDbLine
 10
807.527227
 20
241.841919
 30
0.0
 11
797.527227
 21
241.841919
 31
0.0
  0
LINE
  5
56A
330
1F
100
AcDbEntity
  8
002
 62
     3
370
    30
100
AcDbLine
 10
797.527227
 20
241.841919
 30
0.0
 11
797.527227
 21
249.841919
 31
0.0
  0
LINE
  5
56B
330
1F
100
AcDbEntity
  8
002
 62
     3
370
    30
100
AcDbLine
 10
797.527227
 20
249.841919
 30
0.0
 11
807.527227
 21
249.841919
 31
0.0
  0
LINE
  5
56C
330
1F
100
AcDbEntity
  8
002
 62
     3
370
    30
100
AcDbLine
 10
807.527227
 20
249.841919
 30
0.0
 11
807.527227
 21
241.841919
 31
0.0
  0
ARC
  5
56D
330
1F
100
AcDbEntity
  8
002
 62
     3
370
    30
100
AcDbCircle
 10
802.527227
 20
229.341919
 30
0.0
 40
17.50046973655275
100
AcDbArc
 50
106.601091
 51
73.398909
  0
ARC
  5
56E
330
1F
100
AcDbEntity
  8
002
 62
     3
370
    30
100
AcDbCircle
 10
802.527227
 20
229.341919
 30
0.0
 40
19.000672645988
100
AcDbArc
 50
105.25697
 51
74.74303
  0
LINE
  5
56F
330
1F
100
AcDbEntity
  8
002
 62
     3
370
    30
100
AcDbLine
 10
1836.235608
 20
797.965704
 30
0.0
 11
1836.235608
 21
773.965704
 31
0.0
  0
LINE
  5
570
330
1F
100
AcDbEntity
  8
002
 62
     3
370
    30
100
AcDbLine
 10
1836.235608
 20
773.965704
 30
0.0
 11
1486.235608
 21
773.965704
 31
0.0
  0
LINE
  5
571
330
1F
100
AcDbEntity
  8
002
 62
     3
370
    30
100
AcDbLine
 10
1486.235608
 20
773.965704
 30
0.0
 11
1486.235608
 21
797.965704
 31
0.0
  0
ARC
  5
572
330
1F
100
AcDbEntity
  8
002
 62
     3
370
    30
100
AcDbCircle
 10
1488.235608
 20
797.965704
 30
0.0
 40
2.0
100
AcDbArc
 50
90.0
 51
180.0
  0
LINE
  5
573
330
1F
100
AcDbEntity
  8
002
 62
     3
370
    30
100
AcDbLine
 10
1488.235608
 20
799.965704
 30
0.0
 11
1834.235608
 21
799.965704
 31
0.0
  0
ARC
  5
574
330
1F
100
AcDbEntity
  8
002
 62
     3
370
    30
100
AcDbCircle
 10
1834.235608
 20
797.965704
 30
0.0
 40
2.0
100
AcDbArc
 50
0.0
 51
90.0
  0
ARC
  5
575
330
1F
100
AcDbEntity
  8
002
 62
     3
370
    30
100
AcDbCircle
 10
1834.124608
 20
804.965704
 30
0.0
 40
5.000123298479567
100
AcDbArc
 50
209.959498
 51
270.0
  0
LINE
  5
576
330
1F
100
AcDbEntity
  8
002
 62
     3
370
    30
100
AcDbLine
 10
1829.792608
 20
802.468704
 30
0.0
 11
1768.799608
 21
908.256704
 31
0.0
  0
LINE
  5
577
330
1F
100
AcDbEntity
  8
002
 62
     3
370
    30
100
AcDbLine
 10
1768.799608
 20
908.256704
 30
0.0
 11
1766.899608
 21
908.256704
 31
0.0
  0
ARC
  5
578
330
1F
100
AcDbEntity
  8
002
 62
     3
370
    30
100
AcDbCircle
 10
1766.899608
 20
911.256704
 30
0.0
 40
2.999827328364282
100
AcDbArc
 50
213.827797
 51
270.0
  0
ARC
  5
579
330
1F
100
AcDbEntity
  8
002
 62
     3
370
    30
100
AcDbCircle
 10
1757.235608
 20
905.903704
 30
0.0
 40
8.0
100
AcDbArc
 50
0.0
 51
34.76672
  0
LINE
  5
57A
330
1F
100
AcDbEntity
  8
002
 62
     3
370
    30
100
AcDbLine
 10
1765.235608
 20
905.903704
 30
0.0
 11
1765.235608
 21
799.965704
 31
0.0
  0
LINE
  5
57B
330
1F
100
AcDbEntity
  8
002
 62
     3
370
    30
100
AcDbLine
 10
1775.235608
 20
799.965704
 30
0.0
 11
1775.235608
 21
873.965704
 31
0.0
  0
ARC
  5
57C
330
1F
100
AcDbEntity
  8
002
 62
     3
370
    30
100
AcDbCircle
 10
1757.235608
 20
842.028704
 30
0.0
 40
8.000759526445128
100
AcDbArc
 50
325.227397
 51
0.0
  0
ARC
  5
57D
330
1F
100
AcDbEntity
  8
002
 62
     3
370
    30
100
AcDbCircle
 10
1711.235608
 20
873.965704
 30
0.0
 40
64.0
100
AcDbArc
 50
0.0
 51
325.228296
  0
LINE
  5
57E
330
1F
100
AcDbEntity
  8
002
 62
     3
370
    30
100
AcDbLine
 10
1647.235608
 20
873.965704
 30
0.0
 11
1647.235608
 21
804.965704
 31
0.0
  0
ARC
  5
57F
330
1F
100
AcDbEntity
  8
002
 62
     3
370
    30
100
AcDbCircle
 10
1642.235608
 20
804.965704
 30
0.0
 40
5.0
100
AcDbArc
 50
270.0
 51
0.0
  0
LINE
  5
580
330
1F
100
AcDbEntity
  8
002
 62
     3
370
    30
100
AcDbLine
 10
1666.235608
 20
773.965704
 30
0.0
 11
1666.235608
 21
753.965704
 31
0.0
  0
LINE
  5
581
330
1F
100
AcDbEntity
  8
002
 62
     3
370
    30
100
AcDbLine
 10
1666.235608
 20
753.965704
 30
0.0
 11
1566.235608
 21
753.965704
 31
0.0
  0
LINE
  5
582
330
1F
100
AcDbEntity
  8
002
 62
     3
370
    30
100
AcDbLine
 10
1566.235608
 20
753.965704
 30
0.0
 11
1566.235608
 21
773.965704
 31
0.0
  0
LINE
  5
583
330
1F
100
AcDbEntity
  8
002
 62
     3
370
    30
100
AcDbLine
 10
1556.233608
 20
804.965704
 30
0.0
 11
1556.233608
 21
915.965704
 31
0.0
  0
LINE
  5
584
330
1F
100
AcDbEntity
  8
002
 62
     3
370
    30
100
AcDbLine
 10
1554.233608
 20
913.293704
 30
0.0
 11
1524.233608
 21
913.293704
 31
0.0
  0
LINE
  5
585
330
1F
100
AcDbEntity
  8
002
 62
     3
370
    30
100
AcDbLine
 10
1521.664608
 20
915.965704
 30
0.0
 11
1521.664608
 21
804.965704
 31
0.0
  0
ARC
  5
586
330
1F
100
AcDbEntity
  8
002
 62
     3
370
    30
100
AcDbCircle
 10
1516.664608
 20
804.965704
 30
0.0
 40
5.0
100
AcDbArc
 50
270.0
 51
0.0
  0
LINE
  5
587
330
1F
100
AcDbEntity
  8
002
 62
     3
370
    30
100
AcDbLine
 10
1504.235608
 20
804.965704
 30
0.0
 11
1504.235608
 21
827.564704
 31
0.0
  0
LINE
  5
588
330
1F
100
AcDbEntity
  8
002
 62
     3
370
    30
100
AcDbLine
 10
1498.317608
 20
836.693704
 30
0.0
 11
1493.235608
 21
838.965704
 31
0.0
  0
LINE
  5
589
330
1F
100
AcDbEntity
  8
002
 62
     3
370
    30
100
AcDbLine
 10
1493.235608
 20
838.965704
 30
0.0
 11
1493.235608
 21
913.965704
 31
0.0
  0
ARC
  5
58A
330
1F
100
AcDbEntity
  8
002
 62
     3
370
    30
100
AcDbCircle
 10
1483.235608
 20
913.965704
 30
0.0
 40
10.0
100
AcDbArc
 50
0.0
 51
90.0
  0
LINE
  5
58B
330
1F
100
AcDbEntity
  8
002
 62
     3
370
    30
100
AcDbLine
 10
1482.235608
 20
923.965704
 30
0.0
 11
1482.235608
 21
967.965704
 31
0.0
  0
LINE
  5
58C
330
1F
100
AcDbEntity
  8
002
 62
     3
370
    30
100
AcDbLine
 10
1482.235608
 20
967.965704
 30
0.0
 11
1750.235608
 21
967.965704
 31
0.0
  0
LINE
  5
58D
330
1F
100
AcDbEntity
  8
002
 62
     3
370
    30
100
AcDbLine
 10
1666.637608
 20
923.965704
 30
0.0
 11
1482.235608
 21
923.965704
 31
0.0
  0
ARC
  5
58E
330
1F
100
AcDbEntity
  8
002
 62
     3
370
    30
100
AcDbCircle
 10
1501.591608
 20
913.965704
 30
0.0
 40
10.0
100
AcDbArc
 50
0.0
 51
44.428722
  0
LINE
  5
58F
330
1F
100
AcDbEntity
  8
002
 62
     3
370
    30
100
AcDbLine
 10
1511.591608
 20
913.965704
 30
0.0
 11
1511.591608
 21
873.965704
 31
0.0
  0
ARC
  5
590
330
1F
100
AcDbEntity
  8
002
 62
     3
370
    30
100
AcDbCircle
 10
1361.753608
 20
880.937704
 30
0.0
 40
149.9993080784041
100
AcDbArc
 50
341.783924
 51
357.335934
  0
ARC
  5
591
330
1F
100
AcDbEntity
  8
002
 62
     3
370
    30
100
AcDbCircle
 10
1494.235608
 20
827.564704
 30
0.0
 40
10.0
100
AcDbArc
 50
0.0
 51
65.908363
  0
ARC
  5
592
330
1F
100
AcDbEntity
  8
002
 62
     3
370
    30
100
AcDbCircle
 10
1499.235608
 20
804.965704
 30
0.0
 40
5.0
100
AcDbArc
 50
270.0
 51
0.0
  0
ARC
  5
593
330
1F
100
AcDbEntity
  8
002
 62
     3
370
    30
100
AcDbCircle
 10
1551.233608
 20
804.965704
 30
0.0
 40
5.0
100
AcDbArc
 50
270.0
 51
0.0
  0
LINE
  5
594
330
1F
100
AcDbEntity
  8
002
 62
     3
370
    30
100
AcDbLine
 10
1493.235608
 20
857.360704
 30
0.0
 11
1483.235608
 21
857.047704
 31
0.0
  0
LINE
  5
595
330
1F
100
AcDbEntity
  8
002
 62
     3
370
    30
100
AcDbLine
 10
1483.235608
 20
857.047704
 30
0.0
 11
1483.235608
 21
890.883704
 31
0.0
  0
LINE
  5
596
330
1F
100
AcDbEntity
  8
002
 62
     3
370
    30
100
AcDbLine
 10
1483.235608
 20
890.883704
 30
0.0
 11
1493.235608
 21
890.571704
 31
0.0
  0
LINE
  5
597
330
1F
100
AcDbEntity
  8
002
 62
     3
370
    30
100
AcDbLine
 10
1483.235608
 20
883.465704
 30
0.0
 11
1471.235608
 21
882.965704
 31
0.0
  0
LINE
  5
598
330
1F
100
AcDbEntity
  8
002
 62
     3
370
    30
100
AcDbLine
 10
1471.235608
 20
882.965704
 30
0.0
 11
1471.235608
 21
864.965704
 31
0.0
  0
LINE
  5
599
330
1F
100
AcDbEntity
  8
002
 62
     3
370
    30
100
AcDbLine
 10
1471.235608
 20
864.965704
 30
0.0
 11
1483.235608
 21
864.465704
 31
0.0
  0
ARC
  5
59A
330
1F
100
AcDbEntity
  8
002
 62
     3
370
    30
100
AcDbCircle
 10
1526.664608
 20
915.965704
 30
0.0
 40
5.0
100
AcDbArc
 50
90.0
 51
180.0
  0
LINE
  5
59B
330
1F
100
AcDbEntity
  8
002
 62
     3
370
    30
100
AcDbLine
 10
1526.664608
 20
920.965704
 30
0.0
 11
1551.233608
 21
920.965704
 31
0.0
  0
ARC
  5
59C
330
1F
100
AcDbEntity
  8
002
 62
     3
370
    30
100
AcDbCircle
 10
1551.233608
 20
915.965704
 30
0.0
 40
5.0
100
AcDbArc
 50
0.0
 51
90.0
  0
LINE
  5
59D
330
1F
100
AcDbEntity
  8
002
 62
     3
370
    30
100
AcDbLine
 10
1546.735608
 20
967.965704
 30
0.0
 11
1546.735608
 21
981.965704
 31
0.0
  0
LINE
  5
59E
330
1F
100
AcDbEntity
  8
002
 62
     3
370
    30
100
AcDbLine
 10
1546.735608
 20
981.965704
 30
0.0
 11
1567.735608
 21
981.965704
 31
0.0
  0
LINE
  5
59F
330
1F
100
AcDbEntity
  8
002
 62
     3
370
    30
100
AcDbLine
 10
1567.735608
 20
981.965704
 30
0.0
 11
1567.735608
 21
967.965704
 31
0.0
  0
LINE
  5
5A0
330
1F
100
AcDbEntity
  8
002
 62
     3
370
    30
100
AcDbLine
 10
1567.735608
 20
968.965704
 30
0.0
 11
1605.735608
 21
968.965704
 31
0.0
  0
LINE
  5
5A1
330
1F
100
AcDbEntity
  8
002
 62
     3
370
    30
100
AcDbLine
 10
1605.735608
 20
967.965704
 30
0.0
 11
1605.735608
 21
981.965704
 31
0.0
  0
LINE
  5
5A2
330
1F
100
AcDbEntity
  8
002
 62
     3
370
    30
100
AcDbLine
 10
1605.735608
 20
981.965704
 30
0.0
 11
1626.735608
 21
981.965704
 31
0.0
  0
LINE
  5
5A3
330
1F
100
AcDbEntity
  8
002
 62
     3
370
    30
100
AcDbLine
 10
1626.735608
 20
981.965704
 30
0.0
 11
1626.735608
 21
967.965704
 31
0.0
  0
LINE
  5
5A4
330
1F
100
AcDbEntity
  8
002
 62
     3
370
    30
100
AcDbLine
 10
1626.735608
 20
968.965704
 30
0.0
 11
1664.735608
 21
968.965704
 31
0.0
  0
LINE
  5
5A5
330
1F
100
AcDbEntity
  8
002
 62
     3
370
    30
100
AcDbLine
 10
1664.735608
 20
967.965704
 30
0.0
 11
1664.735608
 21
981.965704
 31
0.0
  0
LINE
  5
5A6
330
1F
100
AcDbEntity
  8
002
 62
     3
370
    30
100
AcDbLine
 10
1664.735608
 20
981.965704
 30
0.0
 11
1685.735608
 21
981.965704
 31
0.0
  0
LINE
  5
5A7
330
1F
100
AcDbEntity
  8
002
 62
     3
370
    30
100
AcDbLine
 10
1685.735608
 20
981.965704
 30
0.0
 11
1685.735608
 21
967.965704
 31
0.0
  0
LINE
  5
5A8
330
1F
100
AcDbEntity
  8
002
 62
     3
370
    30
100
AcDbLine
 10
1685.735608
 20
968.965704
 30
0.0
 11
1707.926608
 21
968.965704
 31
0.0
  0
LINE
  5
5A9
330
1F
100
AcDbEntity
  8
002
 62
     3
370
    30
100
AcDbLine
 10
1707.926608
 20
967.965704
 30
0.0
 11
1707.926608
 21
981.965704
 31
0.0
  0
LINE
  5
5AA
330
1F
100
AcDbEntity
  8
002
 62
     3
370
    30
100
AcDbLine
 10
1707.926608
 20
981.965704
 30
0.0
 11
1744.735608
 21
981.965704
 31
0.0
  0
LINE
  5
5AB
330
1F
100
AcDbEntity
  8
002
 62
     3
370
    30
100
AcDbLine
 10
1706.235608
 20
983.965704
 30
0.0
 11
1526.235608
 21
983.965704
 31
0.0
  0
LINE
  5
5AC
330
1F
100
AcDbEntity
  8
002
 62
     3
370
    30
100
AcDbLine
 10
1526.235608
 20
983.965704
 30
0.0
 11
1525.722608
 21
978.094704
 31
0.0
  0
ARC
  5
5AD
330
1F
100
AcDbEntity
  8
002
 62
     3
370
    30
100
AcDbCircle
 10
1515.760608
 20
978.965704
 30
0.0
 40
9.999396981818556
100
AcDbArc
 50
331.456306
 51
355.003208
  0
LINE
  5
5AE
330
1F
100
AcDbEntity
  8
002
 62
     3
370
    30
100
AcDbLine
 10
1524.544608
 20
968.965704
 30
0.0
 11
1546.735608
 21
968.965704
 31
0.0
  0
LINE
  5
5AF
330
1F
100
AcDbEntity
  8
002
 62
     3
370
    30
100
AcDbLine
 10
1559.085608
 20
989.965704
 30
0.0
 11
1559.085608
 21
1058.965704
 31
0.0
  0
LINE
  5
5B0
330
1F
100
AcDbEntity
  8
002
 62
     3
370
    30
100
AcDbLine
 10
1559.085608
 20
1058.965704
 30
0.0
 11
1673.385608
 21
1058.965704
 31
0.0
  0
LINE
  5
5B1
330
1F
100
AcDbEntity
  8
002
 62
     3
370
    30
100
AcDbLine
 10
1673.385608
 20
1058.965704
 30
0.0
 11
1673.385608
 21
989.965704
 31
0.0
  0
LINE
  5
5B2
330
1F
100
AcDbEntity
  8
002
 62
     3
370
    30
100
AcDbLine
 10
1685.735608
 20
989.965704
 30
0.0
 11
1685.735608
 21
999.965704
 31
0.0
  0
LINE
  5
5B3
330
1F
100
AcDbEntity
  8
002
 62
     3
370
    30
100
AcDbLine
 10
1701.735608
 20
999.965704
 30
0.0
 11
1685.735608
 21
999.965704
 31
0.0
  0
LINE
  5
5B4
330
1F
100
AcDbEntity
  8
002
 62
     3
370
    30
100
AcDbLine
 10
1701.735608
 20
999.965704
 30
0.0
 11
1701.735608
 21
989.965704
 31
0.0
  0
LINE
  5
5B5
330
1F
100
AcDbEntity
  8
002
 62
     3
370
    30
100
AcDbLine
 10
1703.735608
 20
989.965704
 30
0.0
 11
1703.735608
 21
983.965704
 31
0.0
  0
LINE
  5
5B6
330
1F
100
AcDbEntity
  8
002
 62
     3
370
    30
100
AcDbLine
 10
1706.235608
 20
983.965704
 30
0.0
 11
1706.749608
 21
978.094704
 31
0.0
  0
ARC
  5
5B7
330
1F
100
AcDbEntity
  8
002
 62
     3
370
    30
100
AcDbCircle
 10
1716.711608
 20
978.965704
 30
0.0
 40
10.00000424999907
100
AcDbArc
 50
184.996792
 51
208.540957
  0
LINE
  5
5B8
330
1F
100
AcDbEntity
  8
002
 62
     3
370
    30
100
AcDbLine
 10
1703.735608
 20
989.965704
 30
0.0
 11
1528.735608
 21
989.965704
 31
0.0
  0
LINE
  5
5B9
330
1F
100
AcDbEntity
  8
002
 62
     3
370
    30
100
AcDbLine
 10
1528.735608
 20
989.965704
 30
0.0
 11
1528.735608
 21
983.965704
 31
0.0
  0
LINE
  5
5BA
330
1F
100
AcDbEntity
  8
002
 62
     3
370
    30
100
AcDbLine
 10
1524.544608
 20
981.965704
 30
0.0
 11
1524.544608
 21
967.965704
 31
0.0
  0
LINE
  5
5BB
330
1F
100
AcDbEntity
  8
002
 62
     3
370
    30
100
AcDbLine
 10
1524.544608
 20
981.965704
 30
0.0
 11
1487.735608
 21
981.965704
 31
0.0
  0
LINE
  5
5BC
330
1F
100
AcDbEntity
  8
002
 62
     3
370
    30
100
AcDbLine
 10
1530.735608
 20
989.965704
 30
0.0
 11
1530.735608
 21
999.965704
 31
0.0
  0
LINE
  5
5BD
330
1F
100
AcDbEntity
  8
002
 62
     3
370
    30
100
AcDbLine
 10
1546.735608
 20
999.965704
 30
0.0
 11
1530.735608
 21
999.965704
 31
0.0
  0
LINE
  5
5BE
330
1F
100
AcDbEntity
  8
002
 62
     3
370
    30
100
AcDbLine
 10
1546.735608
 20
999.965704
 30
0.0
 11
1546.735608
 21
989.965704
 31
0.0
  0
LINE
  5
5BF
330
1F
100
AcDbEntity
  8
002
 62
     3
370
    30
100
AcDbLine
 10
1503.544608
 20
981.965704
 30
0.0
 11
1503.544608
 21
967.965704
 31
0.0
  0
LINE
  5
5C0
330
1F
100
AcDbEntity
  8
002
 62
     3
370
    30
100
AcDbLine
 10
1487.735608
 20
967.965704
 30
0.0
 11
1487.735608
 21
981.965704
 31
0.0
  0
LINE
  5
5C1
330
1F
100
AcDbEntity
  8
002
 62
     3
370
    30
100
AcDbLine
 10
1482.235608
 20
953.965704
 30
0.0
 11
1750.235608
 21
953.965704
 31
0.0
  0
LINE
  5
5C2
330
1F
100
AcDbEntity
  8
002
 62
     3
370
    30
100
AcDbLine
 10
1744.735608
 20
967.965704
 30
0.0
 11
1744.735608
 21
981.965704
 31
0.0
  0
LINE
  5
5C3
330
1F
100
AcDbEntity
  8
002
 62
     3
370
    30
100
AcDbLine
 10
1728.926608
 20
981.965704
 30
0.0
 11
1728.926608
 21
967.965704
 31
0.0
  0
LINE
  5
5C4
330
1F
100
AcDbEntity
  8
002
 62
     3
370
    30
100
AcDbLine
 10
1686.663608
 20
933.060704
 30
0.0
 11
1686.663608
 21
936.297704
 31
0.0
  0
ARC
  5
5C5
330
1F
100
AcDbEntity
  8
002
 62
     3
370
    30
100
AcDbCircle
 10
1711.235608
 20
873.965704
 30
0.0
 40
67.00045826708963
100
AcDbArc
 50
111.514936
 51
131.731685
  0
LINE
  5
5C6
330
1F
100
AcDbEntity
  8
002
 62
     3
370
    30
100
AcDbLine
 10
1608.235608
 20
989.965704
 30
0.0
 11
1608.235608
 21
999.965704
 31
0.0
  0
LINE
  5
5C7
330
1F
100
AcDbEntity
  8
002
 62
     3
370
    30
100
AcDbLine
 10
1624.235608
 20
999.965704
 30
0.0
 11
1608.235608
 21
999.965704
 31
0.0
  0
LINE
  5
5C8
330
1F
100
AcDbEntity
  8
002
 62
     3
370
    30
100
AcDbLine
 10
1624.235608
 20
999.965704
 30
0.0
 11
1624.235608
 21
989.965704
 31
0.0
  0
LINE
  5
5C9
330
1F
100
AcDbEntity
  8
002
 62
     3
370
    30
100
AcDbLine
 10
1619.122608
 20
878.965704
 30
0.0
 11
1622.009608
 21
873.965704
 31
0.0
  0
LINE
  5
5CA
330
1F
100
AcDbEntity
  8
002
 62
     3
370
    30
100
AcDbLine
 10
1622.009608
 20
873.965704
 30
0.0
 11
1619.122608
 21
868.965704
 31
0.0
  0
LINE
  5
5CB
330
1F
100
AcDbEntity
  8
002
 62
     3
370
    30
100
AcDbLine
 10
1619.122608
 20
868.965704
 30
0.0
 11
1613.349608
 21
868.965704
 31
0.0
  0
LINE
  5
5CC
330
1F
100
AcDbEntity
  8
002
 62
     3
370
    30
100
AcDbLine
 10
1613.349608
 20
868.965704
 30
0.0
 11
1610.462608
 21
873.965704
 31
0.0
  0
LINE
  5
5CD
330
1F
100
AcDbEntity
  8
002
 62
     3
370
    30
100
AcDbLine
 10
1610.462608
 20
873.965704
 30
0.0
 11
1613.349608
 21
878.965704
 31
0.0
  0
LINE
  5
5CE
330
1F
100
AcDbEntity
  8
002
 62
     3
370
    30
100
AcDbLine
 10
1613.349608
 20
878.965704
 30
0.0
 11
1619.122608
 21
878.965704
 31
0.0
  0
CIRCLE
  5
5CF
330
1F
100
AcDbEntity
  8
002
 62
     3
370
    30
100
AcDbCircle
 10
1616.235608
 20
873.965704
 30
0.0
 40
0.75
  0
CIRCLE
  5
5D0
330
1F
100
AcDbEntity
  8
002
 62
     3
370
    30
100
AcDbCircle
 10
1616.235608
 20
873.965704
 30
0.0
 40
2.5
  0
CIRCLE
  5
5D1
330
1F
100
AcDbEntity
  8
002
 62
     3
370
    30
100
AcDbCircle
 10
1616.235608
 20
873.965704
 30
0.0
 40
3.25
  0
CIRCLE
  5
5D2
330
1F
100
AcDbEntity
  8
002
 62
     3
370
    30
100
AcDbCircle
 10
1616.235608
 20
873.965704
 30
0.0
 40
5.0
  0
CIRCLE
  5
5D3
330
1F
100
AcDbEntity
  8
002
 62
     3
370
    30
100
AcDbCircle
 10
1616.235608
 20
873.965704
 30
0.0
 40
15.0
  0
LINE
  5
5D4
330
1F
100
AcDbEntity
  8
002
  6
CENTER
 62
    40
370
     9
100
AcDbLine
 10
1521.235608
 20
763.028704
 30
0.0
 11
1521.235608
 21
807.126704
 31
0.0
  0
LINE
  5
5D5
330
1F
100
AcDbEntity
  8
002
 62
    40
370
     9
100
AcDbLine
 10
1493.235608
 20
858.800704
 30
0.0
 11
1483.235608
 21
858.488704
 31
0.0
  0
LINE
  5
5D6
330
1F
100
AcDbEntity
  8
002
 62
    40
370
     9
100
AcDbLine
 10
1483.235608
 20
864.465704
 30
0.0
 11
1471.235608
 21
882.965704
 31
0.0
  0
LINE
  5
5D7
330
1F
100
AcDbEntity
  8
002
 62
    40
370
     9
100
AcDbLine
 10
1483.235608
 20
883.465704
 30
0.0
 11
1471.235608
 21
864.965704
 31
0.0
  0
LINE
  5
5D8
330
1F
100
AcDbEntity
  8
002
  6
CENTER
 62
    40
370
     9
100
AcDbLine
 10
1452.312608
 20
873.965704
 30
0.0
 11
1801.235608
 21
873.965704
 31
0.0
  0
LINE
  5
5D9
330
1F
100
AcDbEntity
  8
002
  6
CENTER
 62
    40
370
     9
100
AcDbLine
 10
1801.235608
 20
763.028704
 30
0.0
 11
1801.235608
 21
807.126704
 31
0.0
  0
LINE
  5
5DA
330
1F
100
AcDbEntity
  8
002
  6
CENTER
 62
    40
370
     9
100
AcDbLine
 10
1711.235608
 20
799.965704
 30
0.0
 11
1711.235608
 21
946.278704
 31
0.0
  0
LINE
  5
5DB
330
1F
100
AcDbEntity
  8
002
  6
CENTER
 62
    40
370
     9
100
AcDbLine
 10
1718.426608
 20
946.554704
 30
0.0
 11
1718.426608
 21
987.937704
 31
0.0
  0
LINE
  5
5DC
330
1F
100
AcDbEntity
  8
002
  6
CENTER
 62
    40
370
     9
100
AcDbLine
 10
1734.235608
 20
987.937704
 30
0.0
 11
1734.235608
 21
946.554704
 31
0.0
  0
LINE
  5
5DD
330
1F
100
AcDbEntity
  8
002
  6
CENTER
 62
    40
370
     9
100
AcDbLine
 10
1675.235608
 20
946.554704
 30
0.0
 11
1675.235608
 21
987.937704
 31
0.0
  0
LINE
  5
5DE
330
1F
100
AcDbEntity
  8
002
  6
CENTER
 62
    40
370
     9
100
AcDbLine
 10
1693.735608
 20
977.707704
 30
0.0
 11
1693.735608
 21
1005.606704
 31
0.0
  0
LINE
  5
5DF
330
1F
100
AcDbEntity
  8
002
  6
CENTER
 62
    40
370
     9
100
AcDbLine
 10
1557.235608
 20
946.554704
 30
0.0
 11
1557.235608
 21
987.937704
 31
0.0
  0
LINE
  5
5E0
330
1F
100
AcDbEntity
  8
002
  6
CENTER
 62
    40
370
     9
100
AcDbLine
 10
1538.735608
 20
977.707704
 30
0.0
 11
1538.735608
 21
1005.606704
 31
0.0
  0
LINE
  5
5E1
330
1F
100
AcDbEntity
  8
002
  6
CENTER
 62
    40
370
     9
100
AcDbLine
 10
1514.044608
 20
987.937704
 30
0.0
 11
1514.044608
 21
946.554704
 31
0.0
  0
LINE
  5
5E2
330
1F
100
AcDbEntity
  8
002
  6
CENTER
 62
    40
370
     9
100
AcDbLine
 10
1498.235608
 20
946.554704
 30
0.0
 11
1498.235608
 21
987.937704
 31
0.0
  0
LINE
  5
5E3
330
1F
100
AcDbEntity
  8
002
 62
    40
370
     9
100
AcDbLine
 10
1493.235608
 20
889.131704
 30
0.0
 11
1483.235608
 21
889.443704
 31
0.0
  0
LINE
  5
5E4
330
1F
100
AcDbEntity
  8
002
 62
     3
370
    30
100
AcDbLine
 10
1656.235608
 20
344.966804
 30
0.0
 11
1656.235608
 21
133.965704
 31
0.0
  0
LINE
  5
5E5
330
1F
100
AcDbEntity
  8
002
 62
     3
370
    30
100
AcDbLine
 10
1656.235608
 20
133.965704
 30
0.0
 11
1576.235608
 21
133.965704
 31
0.0
  0
LINE
  5
5E6
330
1F
100
AcDbEntity
  8
002
 62
     3
370
    30
100
AcDbLine
 10
1576.235608
 20
133.965704
 30
0.0
 11
1576.235608
 21
344.966804
 31
0.0
  0
LINE
  5
5E7
330
1F
100
AcDbEntity
  8
002
 62
     3
370
    30
100
AcDbLine
 10
1583.735608
 20
133.965704
 30
0.0
 11
1583.735608
 21
33.965704
 31
0.0
  0
LINE
  5
5E8
330
1F
100
AcDbEntity
  8
002
 62
     3
370
    30
100
AcDbLine
 10
1583.735608
 20
33.965704
 30
0.0
 11
1648.735608
 21
33.965704
 31
0.0
  0
LINE
  5
5E9
330
1F
100
AcDbEntity
  8
002
 62
     3
370
    30
100
AcDbLine
 10
1648.735608
 20
33.965704
 30
0.0
 11
1648.735608
 21
133.965704
 31
0.0
  0
LINE
  5
5EA
330
1F
100
AcDbEntity
  8
002
 62
    40
370
     9
100
AcDbLine
 10
1651.513608
 20
133.965704
 30
0.0
 11
1651.513608
 21
344.966804
 31
0.0
  0
LINE
  5
5EB
330
1F
100
AcDbEntity
  8
002
 62
    40
370
     9
100
AcDbLine
 10
1580.957608
 20
344.966804
 30
0.0
 11
1580.957608
 21
133.965704
 31
0.0
  0
LINE
  5
5EC
330
1F
100
AcDbEntity
  8
002
  6
HIDDEN
 62
    40
370
     9
100
AcDbLine
 10
1784.735608
 20
798.965704
 30
0.0
 11
1784.735608
 21
773.965704
 31
0.0
  0
LINE
  5
5ED
330
1F
100
AcDbEntity
  8
002
  6
HIDDEN
 62
    40
370
     9
100
AcDbLine
 10
1817.735608
 20
798.965704
 30
0.0
 11
1817.735608
 21
773.965704
 31
0.0
  0
LINE
  5
5EE
330
1F
100
AcDbEntity
  8
002
  6
HIDDEN
 62
    40
370
     9
100
AcDbLine
 10
1768.735608
 20
798.965704
 30
0.0
 11
1833.735608
 21
798.965704
 31
0.0
  0
LINE
  5
5EF
330
1F
100
AcDbEntity
  8
002
  6
HIDDEN
 62
    40
370
     9
100
AcDbLine
 10
1833.735608
 20
798.965704
 30
0.0
 11
1833.735608
 21
799.965704
 31
0.0
  0
LINE
  5
5F0
330
1F
100
AcDbEntity
  8
002
  6
HIDDEN
 62
    40
370
     9
100
AcDbLine
 10
1768.735608
 20
799.965704
 30
0.0
 11
1768.735608
 21
798.965704
 31
0.0
  0
LINE
  5
5F1
330
1F
100
AcDbEntity
  8
002
  6
HIDDEN
 62
    40
370
     9
100
AcDbLine
 10
1537.735608
 20
798.965704
 30
0.0
 11
1537.735608
 21
773.965704
 31
0.0
  0
LINE
  5
5F2
330
1F
100
AcDbEntity
  8
002
  6
HIDDEN
 62
    40
370
     9
100
AcDbLine
 10
1553.735608
 20
798.965704
 30
0.0
 11
1488.735608
 21
798.965704
 31
0.0
  0
LINE
  5
5F3
330
1F
100
AcDbEntity
  8
002
  6
HIDDEN
 62
    40
370
     9
100
AcDbLine
 10
1553.735608
 20
798.965704
 30
0.0
 11
1553.735608
 21
799.965704
 31
0.0
  0
LINE
  5
5F4
330
1F
100
AcDbEntity
  8
002
  6
HIDDEN
 62
    40
370
     9
100
AcDbLine
 10
1504.735608
 20
798.965704
 30
0.0
 11
1504.735608
 21
773.965704
 31
0.0
  0
LINE
  5
5F5
330
1F
100
AcDbEntity
  8
002
  6
HIDDEN
 62
    40
370
     9
100
AcDbLine
 10
1488.735608
 20
798.965704
 30
0.0
 11
1488.735608
 21
799.965704
 31
0.0
  0
LINE
  5
5F6
330
1F
100
AcDbEntity
  8
002
 62
     3
370
    30
100
AcDbLine
 10
1591.735608
 20
344.966804
 30
0.0
 11
1591.735608
 21
411.483504
 31
0.0
  0
LINE
  5
5F7
330
1F
100
AcDbEntity
  8
002
 62
     3
370
    30
100
AcDbLine
 10
1601.235608
 20
402.820104
 30
0.0
 11
1572.465608
 21
429.056404
 31
0.0
  0
ARC
  5
5F8
330
1F
100
AcDbEntity
  8
002
 62
     3
370
    30
100
AcDbCircle
 10
1577.855608
 20
434.967204
 30
0.0
 40
7.999858783753608
100
AcDbArc
 50
47.634778
 51
226.851856
  0
LINE
  5
5F9
330
1F
100
AcDbEntity
  8
002
 62
     3
370
    30
100
AcDbLine
 10
1583.246608
 20
440.878604
 30
0.0
 11
1601.235608
 21
424.473704
 31
0.0
  0
LINE
  5
5FA
330
1F
100
AcDbEntity
  8
002
 62
     3
370
    30
100
AcDbLine
 10
1601.235608
 20
426.097004
 30
0.0
 11
1631.235608
 21
398.739004
 31
0.0
  0
LINE
  5
5FB
330
1F
100
AcDbEntity
  8
002
 62
     3
370
    30
100
AcDbLine
 10
1631.235608
 20
397.115404
 30
0.0
 11
1660.005608
 21
370.879104
 31
0.0
  0
ARC
  5
5FC
330
1F
100
AcDbEntity
  8
002
 62
     3
370
    30
100
AcDbCircle
 10
1654.615608
 20
364.968104
 30
0.0
 40
7.999785825258077
100
AcDbArc
 50
227.640553
 51
46.851366
  0
LINE
  5
5FD
330
1F
100
AcDbEntity
  8
002
 62
     3
370
    30
100
AcDbLine
 10
1649.224608
 20
359.056904
 30
0.0
 11
1631.235608
 21
375.461704
 31
0.0
  0
LINE
  5
5FE
330
1F
100
AcDbEntity
  8
002
 62
     3
370
    30
100
AcDbLine
 10
1631.235608
 20
373.837404
 30
0.0
 11
1601.235608
 21
401.195304
 31
0.0
  0
LINE
  5
5FF
330
1F
100
AcDbEntity
  8
002
 62
     3
370
    30
100
AcDbLine
 10
1611.328608
 20
431.467104
 30
0.0
 11
1621.143608
 21
431.467104
 31
0.0
  0
LINE
  5
600
330
1F
100
AcDbEntity
  8
002
 62
     3
370
    30
100
AcDbLine
 10
1621.143608
 20
431.467104
 30
0.0
 11
1626.050608
 21
439.967004
 31
0.0
  0
LINE
  5
601
330
1F
100
AcDbEntity
  8
002
 62
     3
370
    30
100
AcDbLine
 10
1626.050608
 20
439.967204
 30
0.0
 11
1621.143608
 21
448.467204
 31
0.0
  0
LINE
  5
602
330
1F
100
AcDbEntity
  8
002
 62
     3
370
    30
100
AcDbLine
 10
1621.143608
 20
448.467104
 30
0.0
 11
1611.328608
 21
448.467104
 31
0.0
  0
LINE
  5
603
330
1F
100
AcDbEntity
  8
002
 62
     3
370
    30
100
AcDbLine
 10
1611.328608
 20
448.467104
 30
0.0
 11
1606.420608
 21
439.967104
 31
0.0
  0
LINE
  5
604
330
1F
100
AcDbEntity
  8
002
 62
     3
370
    30
100
AcDbLine
 10
1606.420608
 20
439.967104
 30
0.0
 11
1611.328608
 21
431.467104
 31
0.0
  0
CIRCLE
  5
605
330
1F
100
AcDbEntity
  8
002
 62
     3
370
    30
100
AcDbCircle
 10
1616.235608
 20
439.967104
 30
0.0
 40
5.0
  0
CIRCLE
  5
606
330
1F
100
AcDbEntity
  8
002
 62
     3
370
    30
100
AcDbCircle
 10
1616.235608
 20
439.967104
 30
0.0
 40
4.1
  0
CIRCLE
  5
607
330
1F
100
AcDbEntity
  8
002
 62
     3
370
    30
100
AcDbCircle
 10
1616.235608
 20
439.967104
 30
0.0
 40
8.249999
  0
LINE
  5
608
330
1F
100
AcDbEntity
  8
002
 62
     3
370
    30
100
AcDbLine
 10
1591.735608
 20
433.137304
 30
0.0
 11
1591.735608
 21
491.482404
 31
0.0
  0
LINE
  5
609
330
1F
100
AcDbEntity
  8
002
 62
     3
370
    30
100
AcDbLine
 10
1601.235608
 20
482.819104
 30
0.0
 11
1572.465608
 21
509.055404
 31
0.0
  0
ARC
  5
60A
330
1F
100
AcDbEntity
  8
002
 62
     3
370
    30
100
AcDbCircle
 10
1577.855608
 20
514.966204
 30
0.0
 40
7.999858783753691
100
AcDbArc
 50
47.634778
 51
226.851856
  0
LINE
  5
60B
330
1F
100
AcDbEntity
  8
002
 62
     3
370
    30
100
AcDbLine
 10
1583.246608
 20
520.877504
 30
0.0
 11
1601.235608
 21
504.472704
 31
0.0
  0
LINE
  5
60C
330
1F
100
AcDbEntity
  8
002
 62
     3
370
    30
100
AcDbLine
 10
1601.235608
 20
506.097004
 30
0.0
 11
1631.235608
 21
478.739104
 31
0.0
  0
LINE
  5
60D
330
1F
100
AcDbEntity
  8
002
 62
     3
370
    30
100
AcDbLine
 10
1631.235608
 20
477.114404
 30
0.0
 11
1660.005608
 21
450.878004
 31
0.0
  0
ARC
  5
60E
330
1F
100
AcDbEntity
  8
002
 62
     3
370
    30
100
AcDbCircle
 10
1654.615608
 20
444.967004
 30
0.0
 40
7.999858783753691
100
AcDbArc
 50
227.64007
 51
46.851856
  0
LINE
  5
60F
330
1F
100
AcDbEntity
  8
002
 62
     3
370
    30
100
AcDbLine
 10
1649.224608
 20
439.055804
 30
0.0
 11
1631.235608
 21
455.460704
 31
0.0
  0
LINE
  5
610
330
1F
100
AcDbEntity
  8
002
 62
     3
370
    30
100
AcDbLine
 10
1631.235608
 20
453.837404
 30
0.0
 11
1601.235608
 21
481.195304
 31
0.0
  0
LINE
  5
611
330
1F
100
AcDbEntity
  8
002
 62
     3
370
    30
100
AcDbLine
 10
1611.328608
 20
511.467104
 30
0.0
 11
1621.143608
 21
511.467104
 31
0.0
  0
LINE
  5
612
330
1F
100
AcDbEntity
  8
002
 62
     3
370
    30
100
AcDbLine
 10
1621.143608
 20
511.467104
 30
0.0
 11
1626.050608
 21
519.967204
 31
0.0
  0
LINE
  5
613
330
1F
100
AcDbEntity
  8
002
 62
     3
370
    30
100
AcDbLine
 10
1626.050608
 20
519.967104
 30
0.0
 11
1621.143608
 21
528.467204
 31
0.0
  0
LINE
  5
614
330
1F
100
AcDbEntity
  8
002
 62
     3
370
    30
100
AcDbLine
 10
1621.143608
 20
528.467104
 30
0.0
 11
1611.328608
 21
528.467104
 31
0.0
  0
LINE
  5
615
330
1F
100
AcDbEntity
  8
002
 62
     3
370
    30
100
AcDbLine
 10
1611.328608
 20
528.467204
 30
0.0
 11
1606.420608
 21
519.967204
 31
0.0
  0
LINE
  5
616
330
1F
100
AcDbEntity
  8
002
 62
     3
370
    30
100
AcDbLine
 10
1606.420608
 20
519.967104
 30
0.0
 11
1611.328608
 21
511.467104
 31
0.0
  0
CIRCLE
  5
617
330
1F
100
AcDbEntity
  8
002
 62
     3
370
    30
100
AcDbCircle
 10
1616.235608
 20
519.967104
 30
0.0
 40
5.0
  0
CIRCLE
  5
618
330
1F
100
AcDbEntity
  8
002
 62
     3
370
    30
100
AcDbCircle
 10
1616.235608
 20
519.967104
 30
0.0
 40
4.1
  0
CIRCLE
  5
619
330
1F
100
AcDbEntity
  8
002
 62
     3
370
    30
100
AcDbCircle
 10
1616.235608
 20
519.967104
 30
0.0
 40
8.249999
  0
LINE
  5
61A
330
1F
100
AcDbEntity
  8
002
 62
     3
370
    30
100
AcDbLine
 10
1601.235608
 20
530.967204
 30
0.0
 11
1601.235608
 21
348.967104
 31
0.0
  0
ARC
  5
61B
330
1F
100
AcDbEntity
  8
002
 62
     3
370
    30
100
AcDbCircle
 10
1603.235608
 20
348.967104
 30
0.0
 40
2.0
100
AcDbArc
 50
180.0
 51
270.0
  0
LINE
  5
61C
330
1F
100
AcDbEntity
  8
002
 62
     3
370
    30
100
AcDbLine
 10
1603.235608
 20
346.967104
 30
0.0
 11
1629.235608
 21
346.967104
 31
0.0
  0
ARC
  5
61D
330
1F
100
AcDbEntity
  8
002
 62
     3
370
    30
100
AcDbCircle
 10
1629.235608
 20
348.967104
 30
0.0
 40
2.0
100
AcDbArc
 50
270.0
 51
0.0
  0
LINE
  5
61E
330
1F
100
AcDbEntity
  8
002
 62
     3
370
    30
100
AcDbLine
 10
1631.235608
 20
348.967104
 30
0.0
 11
1631.235608
 21
530.967204
 31
0.0
  0
ARC
  5
61F
330
1F
100
AcDbEntity
  8
002
 62
     3
370
    30
100
AcDbCircle
 10
1629.235608
 20
530.967104
 30
0.0
 40
2.0
100
AcDbArc
 50
0.0
 51
90.0
  0
LINE
  5
620
330
1F
100
AcDbEntity
  8
002
 62
     3
370
    30
100
AcDbLine
 10
1629.235608
 20
532.967104
 30
0.0
 11
1603.235608
 21
532.967104
 31
0.0
  0
ARC
  5
621
330
1F
100
AcDbEntity
  8
002
 62
     3
370
    30
100
AcDbCircle
 10
1603.235608
 20
530.967104
 30
0.0
 40
2.0
100
AcDbArc
 50
90.0
 51
180.0
  0
LINE
  5
622
330
1F
100
AcDbEntity
  8
002
 62
     3
370
    30
100
AcDbLine
 10
1591.735608
 20
534.966904
 30
0.0
 11
1591.735608
 21
513.136504
 31
0.0
  0
LINE
  5
623
330
1F
100
AcDbEntity
  8
002
 62
     3
370
    30
100
AcDbLine
 10
1553.735608
 20
344.966804
 30
0.0
 11
1678.735608
 21
344.966804
 31
0.0
  0
LINE
  5
624
330
1F
100
AcDbEntity
  8
002
 62
     3
370
    30
100
AcDbLine
 10
1491.235608
 20
534.966804
 30
0.0
 11
1741.235608
 21
534.966804
 31
0.0
  0
LINE
  5
625
330
1F
100
AcDbEntity
  8
002
 62
     3
370
    30
100
AcDbLine
 10
1640.735608
 20
534.966904
 30
0.0
 11
1640.735608
 21
468.451704
 31
0.0
  0
LINE
  5
626
330
1F
100
AcDbEntity
  8
002
 62
     3
370
    30
100
AcDbLine
 10
1640.735608
 20
446.797904
 30
0.0
 11
1640.735608
 21
388.452504
 31
0.0
  0
LINE
  5
627
330
1F
100
AcDbEntity
  8
002
 62
     3
370
    30
100
AcDbLine
 10
1640.735608
 20
366.797704
 30
0.0
 11
1640.735608
 21
344.966804
 31
0.0
  0
LINE
  5
628
330
1F
100
AcDbEntity
  8
002
 62
     3
370
    30
100
AcDbLine
 10
1611.328608
 20
351.467104
 30
0.0
 11
1621.143608
 21
351.467104
 31
0.0
  0
LINE
  5
629
330
1F
100
AcDbEntity
  8
002
 62
     3
370
    30
100
AcDbLine
 10
1621.143608
 20
351.467004
 30
0.0
 11
1626.050608
 21
359.967004
 31
0.0
  0
LINE
  5
62A
330
1F
100
AcDbEntity
  8
002
 62
     3
370
    30
100
AcDbLine
 10
1626.050608
 20
359.967204
 30
0.0
 11
1621.143608
 21
368.467204
 31
0.0
  0
LINE
  5
62B
330
1F
100
AcDbEntity
  8
002
 62
     3
370
    30
100
AcDbLine
 10
1621.143608
 20
368.467104
 30
0.0
 11
1611.328608
 21
368.467104
 31
0.0
  0
LINE
  5
62C
330
1F
100
AcDbEntity
  8
002
 62
     3
370
    30
100
AcDbLine
 10
1611.328608
 20
368.467104
 30
0.0
 11
1606.420608
 21
359.967104
 31
0.0
  0
LINE
  5
62D
330
1F
100
AcDbEntity
  8
002
 62
     3
370
    30
100
AcDbLine
 10
1606.420608
 20
359.967204
 30
0.0
 11
1611.328608
 21
351.467204
 31
0.0
  0
CIRCLE
  5
62E
330
1F
100
AcDbEntity
  8
002
 62
     3
370
    30
100
AcDbCircle
 10
1616.235608
 20
359.967104
 30
0.0
 40
5.0
  0
CIRCLE
  5
62F
330
1F
100
AcDbEntity
  8
002
 62
     3
370
    30
100
AcDbCircle
 10
1616.235608
 20
359.967104
 30
0.0
 40
4.1
  0
CIRCLE
  5
630
330
1F
100
AcDbEntity
  8
002
 62
     3
370
    30
100
AcDbCircle
 10
1616.235608
 20
359.967104
 30
0.0
 40
8.249999
  0
LINE
  5
631
330
1F
100
AcDbEntity
  8
002
  6
CENTER
 62
    40
370
     9
100
AcDbLine
 10
1631.235608
 20
466.286904
 30
0.0
 11
1660.526608
 21
439.576004
 31
0.0
  0
LINE
  5
632
330
1F
100
AcDbEntity
  8
002
  6
CENTER
 62
    40
370
     9
100
AcDbLine
 10
1631.235608
 20
386.288004
 30
0.0
 11
1660.526608
 21
359.577104
 31
0.0
  0
LINE
  5
633
330
1F
100
AcDbEntity
  8
002
  6
CENTER
 62
    40
370
     9
100
AcDbLine
 10
1601.235608
 20
413.647504
 30
0.0
 11
1571.945608
 21
440.358404
 31
0.0
  0
LINE
  5
634
330
1F
100
AcDbEntity
  8
002
  6
CENTER
 62
    40
370
     9
100
AcDbLine
 10
1601.235608
 20
493.646404
 30
0.0
 11
1571.945608
 21
520.357304
 31
0.0
  0
LINE
  5
635
330
1F
100
AcDbEntity
  8
002
 62
     3
370
    30
100
AcDbLine
 10
1678.735608
 20
344.966804
 30
0.0
 11
1678.735608
 21
534.966804
 31
0.0
  0
LINE
  5
636
330
1F
100
AcDbEntity
  8
002
 62
     3
370
    30
100
AcDbLine
 10
1553.735608
 20
344.966804
 30
0.0
 11
1553.735608
 21
534.966804
 31
0.0
  0
LINE
  5
637
330
1F
100
AcDbEntity
  8
002
 62
     3
370
    30
100
AcDbLine
 10
1491.235608
 20
579.966804
 30
0.0
 11
1741.235608
 21
579.966804
 31
0.0
  0
LINE
  5
638
330
1F
100
AcDbEntity
  8
002
 62
     3
370
    30
100
AcDbLine
 10
1491.235608
 20
534.966804
 30
0.0
 11
1491.235608
 21
579.966804
 31
0.0
  0
LINE
  5
639
330
1F
100
AcDbEntity
  8
002
 62
     3
370
    30
100
AcDbLine
 10
1741.235608
 20
534.966804
 30
0.0
 11
1741.235608
 21
579.966804
 31
0.0
  0
LINE
  5
63A
330
1F
100
AcDbEntity
  8
002
 62
     3
370
    30
100
AcDbLine
 10
1750.235608
 20
967.965704
 30
0.0
 11
1750.235608
 21
924.710162
 31
0.0
  0
CIRCLE
  5
63B
330
1F
100
AcDbEntity
  8
002
 62
     3
370
    30
100
AcDbCircle
 10
1711.235608
 20
873.965704
 30
0.0
 40
25.0
  0
LINE
  5
63C
330
1F
100
AcDbEntity
  8
002
 62
     3
370
    30
100
AcDbLine
 10
1716.235608
 20
886.465704
 30
0.0
 11
1706.235608
 21
886.465704
 31
0.0
  0
LINE
  5
63D
330
1F
100
AcDbEntity
  8
002
 62
     3
370
    30
100
AcDbLine
 10
1706.235608
 20
886.465704
 30
0.0
 11
1706.235608
 21
894.465704
 31
0.0
  0
LINE
  5
63E
330
1F
100
AcDbEntity
  8
002
 62
     3
370
    30
100
AcDbLine
 10
1706.235608
 20
894.465704
 30
0.0
 11
1716.235608
 21
894.465704
 31
0.0
  0
LINE
  5
63F
330
1F
100
AcDbEntity
  8
002
 62
     3
370
    30
100
AcDbLine
 10
1716.235608
 20
894.465704
 30
0.0
 11
1716.235608
 21
886.465704
 31
0.0
  0
ARC
  5
640
330
1F
100
AcDbEntity
  8
002
 62
     3
370
    30
100
AcDbCircle
 10
1711.235608
 20
873.965704
 30
0.0
 40
17.50046973655275
100
AcDbArc
 50
106.601091
 51
73.398909
  0
ARC
  5
641
330
1F
100
AcDbEntity
  8
002
 62
     3
370
    30
100
AcDbCircle
 10
1711.235608
 20
873.965704
 30
0.0
 40
19.000672645988
100
AcDbArc
 50
105.25697
 51
74.74303
  0
LINE
  5
642
330
1F
100
AcDbEntity
  8
002
  6
CENTER
 62
    40
370
     9
100
AcDbLine
 10
400.004148
 20
2153.41449
 30
0.0
 11
400.004148
 21
2177.879652
 31
0.0
  0
LINE
  5
643
330
1F
100
AcDbEntity
  8
002
  6
CENTER
 62
    40
370
     9
100
AcDbLine
 10
325.050306
 20
2153.41449
 30
0.0
 11
325.050306
 21
2177.879652
 31
0.0
  0
LINE
  5
644
330
1F
100
AcDbEntity
  8
002
  6
CENTER
 62
    40
370
     9
100
AcDbLine
 10
400.004148
 20
2425.192549
 30
0.0
 11
400.004148
 21
2400.727387
 31
0.0
  0
LINE
  5
645
330
1F
100
AcDbEntity
  8
002
  6
CENTER
 62
    40
370
     9
100
AcDbLine
 10
325.050306
 20
2425.192549
 30
0.0
 11
325.050306
 21
2400.727387
 31
0.0
  0
POLYLINE
  5
646
330
1F
100
AcDbEntity
  8
002
 62
     3
370
     9
100
AcDb2dPolyline
 66
     1
 10
0.0
 20
0.0
 30
0.0
  0
VERTEX
  5
648
330
646
100
AcDbEntity
  8
002
 62
     3
370
     9
100
AcDbVertex
100
AcDb2dVertex
 10
227.527227
 20
449.341419
 30
0.0
  0
VERTEX
  5
649
330
646
100
AcDbEntity
  8
002
 62
     3
370
     9
100
AcDbVertex
100
AcDb2dVertex
 10
231.527227
 20
445.789419
 30
0.0
  0
VERTEX
  5
64A
330
646
100
AcDbEntity
  8
002
 62
     3
370
     9
100
AcDbVertex
100
AcDb2dVertex
 10
235.527227
 20
442.525419
 30
0.0
  0
VERTEX
  5
64B
330
646
100
AcDbEntity
  8
002
 62
     3
370
     9
100
AcDbVertex
100
AcDb2dVertex
 10
239.527227
 20
439.837419
 30
0.0
  0
VERTEX
  5
64C
330
646
100
AcDbEntity
  8
002
 62
     3
370
     9
100
AcDbVertex
100
AcDb2dVertex
 10
243.527227
 20
438.013419
 30
0.0
  0
VERTEX
  5
64D
330
646
100
AcDbEntity
  8
002
 62
     3
370
     9
100
AcDbVertex
100
AcDb2dVertex
 10
247.527227
 20
437.341419
 30
0.0
  0
VERTEX
  5
64E
330
646
100
AcDbEntity
  8
002
 62
     3
370
     9
100
AcDbVertex
100
AcDb2dVertex
 10
251.527227
 20
438.013419
 30
0.0
  0
VERTEX
  5
64F
330
646
100
AcDbEntity
  8
002
 62
     3
370
     9
100
AcDbVertex
100
AcDb2dVertex
 10
255.527227
 20
439.837419
 30
0.0
  0
VERTEX
  5
650
330
646
100
AcDbEntity
  8
002
 62
     3
370
     9
100
AcDbVertex
100
AcDb2dVertex
 10
259.527227
 20
442.525419
 30
0.0
  0
VERTEX
  5
651
330
646
100
AcDbEntity
  8
002
 62
     3
370
     9
100
AcDbVertex
100
AcDb2dVertex
 10
263.527227
 20
445.789419
 30
0.0
  0
VERTEX
  5
652
330
646
100
AcDbEntity
  8
002
 62
     3
370
     9
100
AcDbVertex
100
AcDb2dVertex
 10
267.527227
 20
449.341419
 30
0.0
  0
VERTEX
  5
653
330
646
100
AcDbEntity
  8
002
 62
     3
370
     9
100
AcDbVertex
100
AcDb2dVertex
 10
271.527227
 20
452.893419
 30
0.0
  0
VERTEX
  5
654
330
646
100
AcDbEntity
  8
002
 62
     3
370
     9
100
AcDbVertex
100
AcDb2dVertex
 10
275.527227
 20
456.157419
 30
0.0
  0
VERTEX
  5
655
330
646
100
AcDbEntity
  8
002
 62
     3
370
     9
100
AcDbVertex
100
AcDb2dVertex
 10
279.527227
 20
458.845419
 30
0.0
  0
VERTEX
  5
656
330
646
100
AcDbEntity
  8
002
 62
     3
370
     9
100
AcDbVertex
100
AcDb2dVertex
 10
283.527227
 20
460.669419
 30
0.0
  0
VERTEX
  5
657
330
646
100
AcDbEntity
  8
002
 62
     3
370
     9
100
AcDbVertex
100
AcDb2dVertex
 10
287.527227
 20
461.341419
 30
0.0
  0
VERTEX
  5
658
330
646
100
AcDbEntity
  8
002
 62
     3
370
     9
100
AcDbVertex
100
AcDb2dVertex
 10
291.527227
 20
460.669419
 30
0.0
  0
VERTEX
  5
659
330
646
100
AcDbEntity
  8
002
 62
     3
370
     9
100
AcDbVertex
100
AcDb2dVertex
 10
295.527227
 20
458.845419
 30
0.0
  0
VERTEX
  5
65A
330
646
100
AcDbEntity
  8
002
 62
     3
370
     9
100
AcDbVertex
100
AcDb2dVertex
 10
299.527227
 20
456.157419
 30
0.0
  0
VERTEX
  5
65B
330
646
100
AcDbEntity
  8
002
 62
     3
370
     9
100
AcDbVertex
100
AcDb2dVertex
 10
303.527227
 20
452.893419
 30
0.0
  0
VERTEX
  5
65C
330
646
100
AcDbEntity
  8
002
 62
     3
370
     9
100
AcDbVertex
100
AcDb2dVertex
 10
307.527227
 20
449.341419
 30
0.0
  0
SEQEND
  5
647
330
646
100
AcDbEntity
  8
002
370
     9
  0
POLYLINE
  5
65D
330
1F
100
AcDbEntity
  8
002
 62
     3
370
     9
100
AcDb2dPolyline
 66
     1
 10
0.0
 20
0.0
 30
0.0
  0
VERTEX
  5
65F
330
65D
100
AcDbEntity
  8
002
 62
     3
370
     9
100
AcDbVertex
100
AcDb2dVertex
 10
227.527227
 20
473.341419
 30
0.0
  0
VERTEX
  5
660
330
65D
100
AcDbEntity
  8
002
 62
     3
370
     9
100
AcDbVertex
100
AcDb2dVertex
 10
231.527227
 20
469.789419
 30
0.0
  0
VERTEX
  5
661
330
65D
100
AcDbEntity
  8
002
 62
     3
370
     9
100
AcDbVertex
100
AcDb2dVertex
 10
235.527227
 20
466.525419
 30
0.0
  0
VERTEX
  5
662
330
65D
100
AcDbEntity
  8
002
 62
     3
370
     9
100
AcDbVertex
100
AcDb2dVertex
 10
239.527227
 20
463.837419
 30
0.0
  0
VERTEX
  5
663
330
65D
100
AcDbEntity
  8
002
 62
     3
370
     9
100
AcDbVertex
100
AcDb2dVertex
 10
243.527227
 20
462.013419
 30
0.0
  0
VERTEX
  5
664
330
65D
100
AcDbEntity
  8
002
 62
     3
370
     9
100
AcDbVertex
100
AcDb2dVertex
 10
247.527227
 20
461.341419
 30
0.0
  0
VERTEX
  5
665
330
65D
100
AcDbEntity
  8
002
 62
     3
370
     9
100
AcDbVertex
100
AcDb2dVertex
 10
251.527227
 20
462.013419
 30
0.0
  0
VERTEX
  5
666
330
65D
100
AcDbEntity
  8
002
 62
     3
370
     9
100
AcDbVertex
100
AcDb2dVertex
 10
255.527227
 20
463.837419
 30
0.0
  0
VERTEX
  5
667
330
65D
100
AcDbEntity
  8
002
 62
     3
370
     9
100
AcDbVertex
100
AcDb2dVertex
 10
259.527227
 20
466.525419
 30
0.0
  0
VERTEX
  5
668
330
65D
100
AcDbEntity
  8
002
 62
     3
370
     9
100
AcDbVertex
100
AcDb2dVertex
 10
263.527227
 20
469.789419
 30
0.0
  0
VERTEX
  5
669
330
65D
100
AcDbEntity
  8
002
 62
     3
370
     9
100
AcDbVertex
100
AcDb2dVertex
 10
267.527227
 20
473.341419
 30
0.0
  0
VERTEX
  5
66A
330
65D
100
AcDbEntity
  8
002
 62
     3
370
     9
100
AcDbVertex
100
AcDb2dVertex
 10
271.527227
 20
476.893419
 30
0.0
  0
VERTEX
  5
66B
330
65D
100
AcDbEntity
  8
002
 62
     3
370
     9
100
AcDbVertex
100
AcDb2dVertex
 10
275.527227
 20
480.157419
 30
0.0
  0
VERTEX
  5
66C
330
65D
100
AcDbEntity
  8
002
 62
     3
370
     9
100
AcDbVertex
100
AcDb2dVertex
 10
279.527227
 20
482.845419
 30
0.0
  0
VERTEX
  5
66D
330
65D
100
AcDbEntity
  8
002
 62
     3
370
     9
100
AcDbVertex
100
AcDb2dVertex
 10
283.527227
 20
484.669419
 30
0.0
  0
VERTEX
  5
66E
330
65D
100
AcDbEntity
  8
002
 62
     3
370
     9
100
AcDbVertex
100
AcDb2dVertex
 10
287.527227
 20
485.341419
 30
0.0
  0
VERTEX
  5
66F
330
65D
100
AcDbEntity
  8
002
 62
     3
370
     9
100
AcDbVertex
100
AcDb2dVertex
 10
291.527227
 20
484.669419
 30
0.0
  0
VERTEX
  5
670
330
65D
100
AcDbEntity
  8
002
 62
     3
370
     9
100
AcDbVertex
100
AcDb2dVertex
 10
295.527227
 20
482.845419
 30
0.0
  0
VERTEX
  5
671
330
65D
100
AcDbEntity
  8
002
 62
     3
370
     9
100
AcDbVertex
100
AcDb2dVertex
 10
299.527227
 20
480.157419
 30
0.0
  0
VERTEX
  5
672
330
65D
100
AcDbEntity
  8
002
 62
     3
370
     9
100
AcDbVertex
100
AcDb2dVertex
 10
303.527227
 20
476.893419
 30
0.0
  0
VERTEX
  5
673
330
65D
100
AcDbEntity
  8
002
 62
     3
370
     9
100
AcDbVertex
100
AcDb2dVertex
 10
307.527227
 20
473.341419
 30
0.0
  0
SEQEND
  5
65E
330
65D
100
AcDbEntity
  8
002
370
     9
  0
LINE
  5
674
330
1F
100
AcDbEntity
  8
002
 62
     3
370
    30
100
AcDbLine
 10
307.527227
 20
349.341919
 30
0.0
 11
307.527227
 21
449.341419
 31
0.0
  0
LINE
  5
675
330
1F
100
AcDbEntity
  8
002
 62
     3
370
    30
100
AcDbLine
 10
307.527227
 20
473.341419
 30
0.0
 11
307.527227
 21
573.340919
 31
0.0
  0
LINE
  5
676
330
1F
100
AcDbEntity
  8
002
 62
     3
370
    30
100
AcDbLine
 10
227.527227
 20
573.340919
 30
0.0
 11
227.527227
 21
473.341419
 31
0.0
  0
LINE
  5
677
330
1F
100
AcDbEntity
  8
002
 62
     3
370
    30
100
AcDbLine
 10
227.527227
 20
449.341419
 30
0.0
 11
227.527227
 21
349.341919
 31
0.0
  0
LINE
  5
678
330
1F
100
AcDbEntity
  8
002
 62
    40
370
     9
100
AcDbLine
 10
302.805227
 20
573.340919
 30
0.0
 11
302.805227
 21
477.512254
 31
0.0
  0
LINE
  5
679
330
1F
100
AcDbEntity
  8
002
 62
    40
370
     9
100
AcDbLine
 10
302.805227
 20
453.512254
 30
0.0
 11
302.805227
 21
349.341919
 31
0.0
  0
LINE
  5
67A
330
1F
100
AcDbEntity
  8
002
 62
    40
370
     9
100
AcDbLine
 10
232.249227
 20
349.341919
 30
0.0
 11
232.249227
 21
445.170585
 31
0.0
  0
LINE
  5
67B
330
1F
100
AcDbEntity
  8
002
 62
    40
370
     9
100
AcDbLine
 10
232.249227
 20
469.170585
 30
0.0
 11
232.249227
 21
573.340919
 31
0.0
  0
POLYLINE
  5
67C
330
1F
100
AcDbEntity
  8
002
 62
     3
370
     9
100
AcDb2dPolyline
 66
     1
 10
0.0
 20
0.0
 30
0.0
  0
VERTEX
  5
67E
330
67C
100
AcDbEntity
  8
002
 62
     3
370
     9
100
AcDbVertex
100
AcDb2dVertex
 10
667.527227
 20
449.341419
 30
0.0
  0
VERTEX
  5
67F
330
67C
100
AcDbEntity
  8
002
 62
     3
370
     9
100
AcDbVertex
100
AcDb2dVertex
 10
671.527227
 20
445.789419
 30
0.0
  0
VERTEX
  5
680
330
67C
100
AcDbEntity
  8
002
 62
     3
370
     9
100
AcDbVertex
100
AcDb2dVertex
 10
675.527227
 20
442.525419
 30
0.0
  0
VERTEX
  5
681
330
67C
100
AcDbEntity
  8
002
 62
     3
370
     9
100
AcDbVertex
100
AcDb2dVertex
 10
679.527227
 20
439.837419
 30
0.0
  0
VERTEX
  5
682
330
67C
100
AcDbEntity
  8
002
 62
     3
370
     9
100
AcDbVertex
100
AcDb2dVertex
 10
683.527227
 20
438.013419
 30
0.0
  0
VERTEX
  5
683
330
67C
100
AcDbEntity
  8
002
 62
     3
370
     9
100
AcDbVertex
100
AcDb2dVertex
 10
687.527227
 20
437.341419
 30
0.0
  0
VERTEX
  5
684
330
67C
100
AcDbEntity
  8
002
 62
     3
370
     9
100
AcDbVertex
100
AcDb2dVertex
 10
691.527227
 20
438.013419
 30
0.0
  0
VERTEX
  5
685
330
67C
100
AcDbEntity
  8
002
 62
     3
370
     9
100
AcDbVertex
100
AcDb2dVertex
 10
695.527227
 20
439.837419
 30
0.0
  0
VERTEX
  5
686
330
67C
100
AcDbEntity
  8
002
 62
     3
370
     9
100
AcDbVertex
100
AcDb2dVertex
 10
699.527227
 20
442.525419
 30
0.0
  0
VERTEX
  5
687
330
67C
100
AcDbEntity
  8
002
 62
     3
370
     9
100
AcDbVertex
100
AcDb2dVertex
 10
703.527227
 20
445.789419
 30
0.0
  0
VERTEX
  5
688
330
67C
100
AcDbEntity
  8
002
 62
     3
370
     9
100
AcDbVertex
100
AcDb2dVertex
 10
707.527227
 20
449.341419
 30
0.0
  0
VERTEX
  5
689
330
67C
100
AcDbEntity
  8
002
 62
     3
370
     9
100
AcDbVertex
100
AcDb2dVertex
 10
711.527227
 20
452.893419
 30
0.0
  0
VERTEX
  5
68A
330
67C
100
AcDbEntity
  8
002
 62
     3
370
     9
100
AcDbVertex
100
AcDb2dVertex
 10
715.527227
 20
456.157419
 30
0.0
  0
VERTEX
  5
68B
330
67C
100
AcDbEntity
  8
002
 62
     3
370
     9
100
AcDbVertex
100
AcDb2dVertex
 10
719.527227
 20
458.845419
 30
0.0
  0
VERTEX
  5
68C
330
67C
100
AcDbEntity
  8
002
 62
     3
370
     9
100
AcDbVertex
100
AcDb2dVertex
 10
723.527227
 20
460.669419
 30
0.0
  0
VERTEX
  5
68D
330
67C
100
AcDbEntity
  8
002
 62
     3
370
     9
100
AcDbVertex
100
AcDb2dVertex
 10
727.527227
 20
461.341419
 30
0.0
  0
VERTEX
  5
68E
330
67C
100
AcDbEntity
  8
002
 62
     3
370
     9
100
AcDbVertex
100
AcDb2dVertex
 10
731.527227
 20
460.669419
 30
0.0
  0
VERTEX
  5
68F
330
67C
100
AcDbEntity
  8
002
 62
     3
370
     9
100
AcDbVertex
100
AcDb2dVertex
 10
735.527227
 20
458.845419
 30
0.0
  0
VERTEX
  5
690
330
67C
100
AcDbEntity
  8
002
 62
     3
370
     9
100
AcDbVertex
100
AcDb2dVertex
 10
739.527227
 20
456.157419
 30
0.0
  0
VERTEX
  5
691
330
67C
100
AcDbEntity
  8
002
 62
     3
370
     9
100
AcDbVertex
100
AcDb2dVertex
 10
743.527227
 20
452.893419
 30
0.0
  0
VERTEX
  5
692
330
67C
100
AcDbEntity
  8
002
 62
     3
370
     9
100
AcDbVertex
100
AcDb2dVertex
 10
747.527227
 20
449.341419
 30
0.0
  0
SEQEND
  5
67D
330
67C
100
AcDbEntity
  8
002
370
     9
  0
POLYLINE
  5
693
330
1F
100
AcDbEntity
  8
002
 62
     3
370
     9
100
AcDb2dPolyline
 66
     1
 10
0.0
 20
0.0
 30
0.0
  0
VERTEX
  5
695
330
693
100
AcDbEntity
  8
002
 62
     3
370
     9
100
AcDbVertex
100
AcDb2dVertex
 10
667.527227
 20
473.341419
 30
0.0
  0
VERTEX
  5
696
330
693
100
AcDbEntity
  8
002
 62
     3
370
     9
100
AcDbVertex
100
AcDb2dVertex
 10
671.527227
 20
469.789419
 30
0.0
  0
VERTEX
  5
697
330
693
100
AcDbEntity
  8
002
 62
     3
370
     9
100
AcDbVertex
100
AcDb2dVertex
 10
675.527227
 20
466.525419
 30
0.0
  0
VERTEX
  5
698
330
693
100
AcDbEntity
  8
002
 62
     3
370
     9
100
AcDbVertex
100
AcDb2dVertex
 10
679.527227
 20
463.837419
 30
0.0
  0
VERTEX
  5
699
330
693
100
AcDbEntity
  8
002
 62
     3
370
     9
100
AcDbVertex
100
AcDb2dVertex
 10
683.527227
 20
462.013419
 30
0.0
  0
VERTEX
  5
69A
330
693
100
AcDbEntity
  8
002
 62
     3
370
     9
100
AcDbVertex
100
AcDb2dVertex
 10
687.527227
 20
461.341419
 30
0.0
  0
VERTEX
  5
69B
330
693
100
AcDbEntity
  8
002
 62
     3
370
     9
100
AcDbVertex
100
AcDb2dVertex
 10
691.527227
 20
462.013419
 30
0.0
  0
VERTEX
  5
69C
330
693
100
AcDbEntity
  8
002
 62
     3
370
     9
100
AcDbVertex
100
AcDb2dVertex
 10
695.527227
 20
463.837419
 30
0.0
  0
VERTEX
  5
69D
330
693
100
AcDbEntity
  8
002
 62
     3
370
     9
100
AcDbVertex
100
AcDb2dVertex
 10
699.527227
 20
466.525419
 30
0.0
  0
VERTEX
  5
69E
330
693
100
AcDbEntity
  8
002
 62
     3
370
     9
100
AcDbVertex
100
AcDb2dVertex
 10
703.527227
 20
469.789419
 30
0.0
  0
VERTEX
  5
69F
330
693
100
AcDbEntity
  8
002
 62
     3
370
     9
100
AcDbVertex
100
AcDb2dVertex
 10
707.527227
 20
473.341419
 30
0.0
  0
VERTEX
  5
6A0
330
693
100
AcDbEntity
  8
002
 62
     3
370
     9
100
AcDbVertex
100
AcDb2dVertex
 10
711.527227
 20
476.893419
 30
0.0
  0
VERTEX
  5
6A1
330
693
100
AcDbEntity
  8
002
 62
     3
370
     9
100
AcDbVertex
100
AcDb2dVertex
 10
715.527227
 20
480.157419
 30
0.0
  0
VERTEX
  5
6A2
330
693
100
AcDbEntity
  8
002
 62
     3
370
     9
100
AcDbVertex
100
AcDb2dVertex
 10
719.527227
 20
482.845419
 30
0.0
  0
VERTEX
  5
6A3
330
693
100
AcDbEntity
  8
002
 62
     3
370
     9
100
AcDbVertex
100
AcDb2dVertex
 10
723.527227
 20
484.669419
 30
0.0
  0
VERTEX
  5
6A4
330
693
100
AcDbEntity
  8
002
 62
     3
370
     9
100
AcDbVertex
100
AcDb2dVertex
 10
727.527227
 20
485.341419
 30
0.0
  0
VERTEX
  5
6A5
330
693
100
AcDbEntity
  8
002
 62
     3
370
     9
100
AcDbVertex
100
AcDb2dVertex
 10
731.527227
 20
484.669419
 30
0.0
  0
VERTEX
  5
6A6
330
693
100
AcDbEntity
  8
002
 62
     3
370
     9
100
AcDbVertex
100
AcDb2dVertex
 10
735.527227
 20
482.845419
 30
0.0
  0
VERTEX
  5
6A7
330
693
100
AcDbEntity
  8
002
 62
     3
370
     9
100
AcDbVertex
100
AcDb2dVertex
 10
739.527227
 20
480.157419
 30
0.0
  0
VERTEX
  5
6A8
330
693
100
AcDbEntity
  8
002
 62
     3
370
     9
100
AcDbVertex
100
AcDb2dVertex
 10
743.527227
 20
476.893419
 30
0.0
  0
VERTEX
  5
6A9
330
693
100
AcDbEntity
  8
002
 62
     3
370
     9
100
AcDbVertex
100
AcDb2dVertex
 10
747.527227
 20
473.341419
 30
0.0
  0
SEQEND
  5
694
330
693
100
AcDbEntity
  8
002
370
     9
  0
LINE
  5
6AA
330
1F
100
AcDbEntity
  8
002
 62
     3
370
    30
100
AcDbLine
 10
747.527227
 20
349.341919
 30
0.0
 11
747.527227
 21
449.341419
 31
0.0
  0
LINE
  5
6AB
330
1F
100
AcDbEntity
  8
002
 62
     3
370
    30
100
AcDbLine
 10
747.527227
 20
473.341419
 30
0.0
 11
747.527227
 21
573.340919
 31
0.0
  0
LINE
  5
6AC
330
1F
100
AcDbEntity
  8
002
 62
     3
370
    30
100
AcDbLine
 10
667.527227
 20
573.340919
 30
0.0
 11
667.527227
 21
473.341419
 31
0.0
  0
LINE
  5
6AD
330
1F
100
AcDbEntity
  8
002
 62
     3
370
    30
100
AcDbLine
 10
667.527227
 20
449.341419
 30
0.0
 11
667.527227
 21
349.341919
 31
0.0
  0
LINE
  5
6AE
330
1F
100
AcDbEntity
  8
002
 62
    40
370
     9
100
AcDbLine
 10
742.805227
 20
573.340919
 30
0.0
 11
742.805227
 21
477.512254
 31
0.0
  0
LINE
  5
6AF
330
1F
100
AcDbEntity
  8
002
 62
    40
370
     9
100
AcDbLine
 10
742.805227
 20
453.512254
 30
0.0
 11
742.805227
 21
349.341919
 31
0.0
  0
LINE
  5
6B0
330
1F
100
AcDbEntity
  8
002
 62
    40
370
     9
100
AcDbLine
 10
672.249227
 20
349.341919
 30
0.0
 11
672.249227
 21
445.170585
 31
0.0
  0
LINE
  5
6B1
330
1F
100
AcDbEntity
  8
002
 62
    40
370
     9
100
AcDbLine
 10
672.249227
 20
469.170585
 30
0.0
 11
672.249227
 21
573.340919
 31
0.0
  0
POLYLINE
  5
6B2
330
1F
100
AcDbEntity
  8
002
 62
     3
370
     9
100
AcDb2dPolyline
 66
     1
 10
0.0
 20
0.0
 30
0.0
  0
VERTEX
  5
6B4
330
6B2
100
AcDbEntity
  8
002
 62
     3
370
     9
100
AcDbVertex
100
AcDb2dVertex
 10
1146.235608
 20
654.966254
 30
0.0
  0
VERTEX
  5
6B5
330
6B2
100
AcDbEntity
  8
002
 62
     3
370
     9
100
AcDbVertex
100
AcDb2dVertex
 10
1150.235608
 20
651.414254
 30
0.0
  0
VERTEX
  5
6B6
330
6B2
100
AcDbEntity
  8
002
 62
     3
370
     9
100
AcDbVertex
100
AcDb2dVertex
 10
1154.235608
 20
648.150254
 30
0.0
  0
VERTEX
  5
6B7
330
6B2
100
AcDbEntity
  8
002
 62
     3
370
     9
100
AcDbVertex
100
AcDb2dVertex
 10
1158.235608
 20
645.462254
 30
0.0
  0
VERTEX
  5
6B8
330
6B2
100
AcDbEntity
  8
002
 62
     3
370
     9
100
AcDbVertex
100
AcDb2dVertex
 10
1162.235608
 20
643.638254
 30
0.0
  0
VERTEX
  5
6B9
330
6B2
100
AcDbEntity
  8
002
 62
     3
370
     9
100
AcDbVertex
100
AcDb2dVertex
 10
1166.235608
 20
642.966254
 30
0.0
  0
VERTEX
  5
6BA
330
6B2
100
AcDbEntity
  8
002
 62
     3
370
     9
100
AcDbVertex
100
AcDb2dVertex
 10
1170.235608
 20
643.638254
 30
0.0
  0
VERTEX
  5
6BB
330
6B2
100
AcDbEntity
  8
002
 62
     3
370
     9
100
AcDbVertex
100
AcDb2dVertex
 10
1174.235608
 20
645.462254
 30
0.0
  0
VERTEX
  5
6BC
330
6B2
100
AcDbEntity
  8
002
 62
     3
370
     9
100
AcDbVertex
100
AcDb2dVertex
 10
1178.235608
 20
648.150254
 30
0.0
  0
VERTEX
  5
6BD
330
6B2
100
AcDbEntity
  8
002
 62
     3
370
     9
100
AcDbVertex
100
AcDb2dVertex
 10
1182.235608
 20
651.414254
 30
0.0
  0
VERTEX
  5
6BE
330
6B2
100
AcDbEntity
  8
002
 62
     3
370
     9
100
AcDbVertex
100
AcDb2dVertex
 10
1186.235608
 20
654.966254
 30
0.0
  0
VERTEX
  5
6BF
330
6B2
100
AcDbEntity
  8
002
 62
     3
370
     9
100
AcDbVertex
100
AcDb2dVertex
 10
1190.235608
 20
658.518254
 30
0.0
  0
VERTEX
  5
6C0
330
6B2
100
AcDbEntity
  8
002
 62
     3
370
     9
100
AcDbVertex
100
AcDb2dVertex
 10
1194.235608
 20
661.782254
 30
0.0
  0
VERTEX
  5
6C1
330
6B2
100
AcDbEntity
  8
002
 62
     3
370
     9
100
AcDbVertex
100
AcDb2dVertex
 10
1198.235608
 20
664.470254
 30
0.0
  0
VERTEX
  5
6C2
330
6B2
100
AcDbEntity
  8
002
 62
     3
370
     9
100
AcDbVertex
100
AcDb2dVertex
 10
1202.235608
 20
666.294254
 30
0.0
  0
VERTEX
  5
6C3
330
6B2
100
AcDbEntity
  8
002
 62
     3
370
     9
100
AcDbVertex
100
AcDb2dVertex
 10
1206.235608
 20
666.966254
 30
0.0
  0
VERTEX
  5
6C4
330
6B2
100
AcDbEntity
  8
002
 62
     3
370
     9
100
AcDbVertex
100
AcDb2dVertex
 10
1210.235608
 20
666.294254
 30
0.0
  0
VERTEX
  5
6C5
330
6B2
100
AcDbEntity
  8
002
 62
     3
370
     9
100
AcDbVertex
100
AcDb2dVertex
 10
1214.235608
 20
664.470254
 30
0.0
  0
VERTEX
  5
6C6
330
6B2
100
AcDbEntity
  8
002
 62
     3
370
     9
100
AcDbVertex
100
AcDb2dVertex
 10
1218.235608
 20
661.782254
 30
0.0
  0
VERTEX
  5
6C7
330
6B2
100
AcDbEntity
  8
002
 62
     3
370
     9
100
AcDbVertex
100
AcDb2dVertex
 10
1222.235608
 20
658.518254
 30
0.0
  0
VERTEX
  5
6C8
330
6B2
100
AcDbEntity
  8
002
 62
     3
370
     9
100
AcDbVertex
100
AcDb2dVertex
 10
1226.235608
 20
654.966254
 30
0.0
  0
SEQEND
  5
6B3
330
6B2
100
AcDbEntity
  8
002
370
     9
  0
POLYLINE
  5
6C9
330
1F
100
AcDbEntity
  8
002
 62
     3
370
     9
100
AcDb2dPolyline
 66
     1
 10
0.0
 20
0.0
 30
0.0
  0
VERTEX
  5
6CB
330
6C9
100
AcDbEntity
  8
002
 62
     3
370
     9
100
AcDbVertex
100
AcDb2dVertex
 10
1146.235608
 20
678.966254
 30
0.0
  0
VERTEX
  5
6CC
330
6C9
100
AcDbEntity
  8
002
 62
     3
370
     9
100
AcDbVertex
100
AcDb2dVertex
 10
1150.235608
 20
675.414254
 30
0.0
  0
VERTEX
  5
6CD
330
6C9
100
AcDbEntity
  8
002
 62
     3
370
     9
100
AcDbVertex
100
AcDb2dVertex
 10
1154.235608
 20
672.150254
 30
0.0
  0
VERTEX
  5
6CE
330
6C9
100
AcDbEntity
  8
002
 62
     3
370
     9
100
AcDbVertex
100
AcDb2dVertex
 10
1158.235608
 20
669.462254
 30
0.0
  0
VERTEX
  5
6CF
330
6C9
100
AcDbEntity
  8
002
 62
     3
370
     9
100
AcDbVertex
100
AcDb2dVertex
 10
1162.235608
 20
667.638254
 30
0.0
  0
VERTEX
  5
6D0
330
6C9
100
AcDbEntity
  8
002
 62
     3
370
     9
100
AcDbVertex
100
AcDb2dVertex
 10
1166.235608
 20
666.966254
 30
0.0
  0
VERTEX
  5
6D1
330
6C9
100
AcDbEntity
  8
002
 62
     3
370
     9
100
AcDbVertex
100
AcDb2dVertex
 10
1170.235608
 20
667.638254
 30
0.0
  0
VERTEX
  5
6D2
330
6C9
100
AcDbEntity
  8
002
 62
     3
370
     9
100
AcDbVertex
100
AcDb2dVertex
 10
1174.235608
 20
669.462254
 30
0.0
  0
VERTEX
  5
6D3
330
6C9
100
AcDbEntity
  8
002
 62
     3
370
     9
100
AcDbVertex
100
AcDb2dVertex
 10
1178.235608
 20
672.150254
 30
0.0
  0
VERTEX
  5
6D4
330
6C9
100
AcDbEntity
  8
002
 62
     3
370
     9
100
AcDbVertex
100
AcDb2dVertex
 10
1182.235608
 20
675.414254
 30
0.0
  0
VERTEX
  5
6D5
330
6C9
100
AcDbEntity
  8
002
 62
     3
370
     9
100
AcDbVertex
100
AcDb2dVertex
 10
1186.235608
 20
678.966254
 30
0.0
  0
VERTEX
  5
6D6
330
6C9
100
AcDbEntity
  8
002
 62
     3
370
     9
100
AcDbVertex
100
AcDb2dVertex
 10
1190.235608
 20
682.518254
 30
0.0
  0
VERTEX
  5
6D7
330
6C9
100
AcDbEntity
  8
002
 62
     3
370
     9
100
AcDbVertex
100
AcDb2dVertex
 10
1194.235608
 20
685.782254
 30
0.0
  0
VERTEX
  5
6D8
330
6C9
100
AcDbEntity
  8
002
 62
     3
370
     9
100
AcDbVertex
100
AcDb2dVertex
 10
1198.235608
 20
688.470254
 30
0.0
  0
VERTEX
  5
6D9
330
6C9
100
AcDbEntity
  8
002
 62
     3
370
     9
100
AcDbVertex
100
AcDb2dVertex
 10
1202.235608
 20
690.294254
 30
0.0
  0
VERTEX
  5
6DA
330
6C9
100
AcDbEntity
  8
002
 62
     3
370
     9
100
AcDbVertex
100
AcDb2dVertex
 10
1206.235608
 20
690.966254
 30
0.0
  0
VERTEX
  5
6DB
330
6C9
100
AcDbEntity
  8
002
 62
     3
370
     9
100
AcDbVertex
100
AcDb2dVertex
 10
1210.235608
 20
690.294254
 30
0.0
  0
VERTEX
  5
6DC
330
6C9
100
AcDbEntity
  8
002
 62
     3
370
     9
100
AcDbVertex
100
AcDb2dVertex
 10
1214.235608
 20
688.470254
 30
0.0
  0
VERTEX
  5
6DD
330
6C9
100
AcDbEntity
  8
002
 62
     3
370
     9
100
AcDbVertex
100
AcDb2dVertex
 10
1218.235608
 20
685.782254
 30
0.0
  0
VERTEX
  5
6DE
330
6C9
100
AcDbEntity
  8
002
 62
     3
370
     9
100
AcDbVertex
100
AcDb2dVertex
 10
1222.235608
 20
682.518254
 30
0.0
  0
VERTEX
  5
6DF
330
6C9
100
AcDbEntity
  8
002
 62
     3
370
     9
100
AcDbVertex
100
AcDb2dVertex
 10
1226.235608
 20
678.966254
 30
0.0
  0
SEQEND
  5
6CA
330
6C9
100
AcDbEntity
  8
002
370
     9
  0
LINE
  5
6E0
330
1F
100
AcDbEntity
  8
002
 62
     3
370
    30
100
AcDbLine
 10
1146.235608
 20
753.965704
 30
0.0
 11
1146.235608
 21
678.966254
 31
0.0
  0
LINE
  5
6E1
330
1F
100
AcDbEntity
  8
002
 62
     3
370
    30
100
AcDbLine
 10
1146.235608
 20
654.966254
 30
0.0
 11
1146.235608
 21
579.966804
 31
0.0
  0
LINE
  5
6E2
330
1F
100
AcDbEntity
  8
002
 62
     3
370
    30
100
AcDbLine
 10
1226.235608
 20
579.966804
 30
0.0
 11
1226.235608
 21
654.966254
 31
0.0
  0
LINE
  5
6E3
330
1F
100
AcDbEntity
  8
002
 62
     3
370
    30
100
AcDbLine
 10
1226.235608
 20
678.966254
 30
0.0
 11
1226.235608
 21
753.965704
 31
0.0
  0
LINE
  5
6E4
330
1F
100
AcDbEntity
  8
002
 62
    40
370
     9
100
AcDbLine
 10
1221.513608
 20
579.966804
 30
0.0
 11
1221.513608
 21
659.137088
 31
0.0
  0
LINE
  5
6E5
330
1F
100
AcDbEntity
  8
002
 62
    40
370
     9
100
AcDbLine
 10
1221.513608
 20
683.137088
 30
0.0
 11
1221.513608
 21
753.965704
 31
0.0
  0
LINE
  5
6E6
330
1F
100
AcDbEntity
  8
002
 62
    40
370
     9
100
AcDbLine
 10
1150.957608
 20
753.965704
 30
0.0
 11
1150.957608
 21
674.79542
 31
0.0
  0
LINE
  5
6E7
330
1F
100
AcDbEntity
  8
002
 62
    40
370
     9
100
AcDbLine
 10
1150.957608
 20
650.79542
 30
0.0
 11
1150.957608
 21
579.966804
 31
0.0
  0
POLYLINE
  5
6E8
330
1F
100
AcDbEntity
  8
002
 62
     3
370
     9
100
AcDb2dPolyline
 66
     1
 10
0.0
 20
0.0
 30
0.0
  0
VERTEX
  5
6EA
330
6E8
100
AcDbEntity
  8
002
 62
     3
370
     9
100
AcDbVertex
100
AcDb2dVertex
 10
1576.235608
 20
654.966254
 30
0.0
  0
VERTEX
  5
6EB
330
6E8
100
AcDbEntity
  8
002
 62
     3
370
     9
100
AcDbVertex
100
AcDb2dVertex
 10
1580.235608
 20
651.414254
 30
0.0
  0
VERTEX
  5
6EC
330
6E8
100
AcDbEntity
  8
002
 62
     3
370
     9
100
AcDbVertex
100
AcDb2dVertex
 10
1584.235608
 20
648.150254
 30
0.0
  0
VERTEX
  5
6ED
330
6E8
100
AcDbEntity
  8
002
 62
     3
370
     9
100
AcDbVertex
100
AcDb2dVertex
 10
1588.235608
 20
645.462254
 30
0.0
  0
VERTEX
  5
6EE
330
6E8
100
AcDbEntity
  8
002
 62
     3
370
     9
100
AcDbVertex
100
AcDb2dVertex
 10
1592.235608
 20
643.638254
 30
0.0
  0
VERTEX
  5
6EF
330
6E8
100
AcDbEntity
  8
002
 62
     3
370
     9
100
AcDbVertex
100
AcDb2dVertex
 10
1596.235608
 20
642.966254
 30
0.0
  0
VERTEX
  5
6F0
330
6E8
100
AcDbEntity
  8
002
 62
     3
370
     9
100
AcDbVertex
100
AcDb2dVertex
 10
1600.235608
 20
643.638254
 30
0.0
  0
VERTEX
  5
6F1
330
6E8
100
AcDbEntity
  8
002
 62
     3
370
     9
100
AcDbVertex
100
AcDb2dVertex
 10
1604.235608
 20
645.462254
 30
0.0
  0
VERTEX
  5
6F2
330
6E8
100
AcDbEntity
  8
002
 62
     3
370
     9
100
AcDbVertex
100
AcDb2dVertex
 10
1608.235608
 20
648.150254
 30
0.0
  0
VERTEX
  5
6F3
330
6E8
100
AcDbEntity
  8
002
 62
     3
370
     9
100
AcDbVertex
100
AcDb2dVertex
 10
1612.235608
 20
651.414254
 30
0.0
  0
VERTEX
  5
6F4
330
6E8
100
AcDbEntity
  8
002
 62
     3
370
     9
100
AcDbVertex
100
AcDb2dVertex
 10
1616.235608
 20
654.966254
 30
0.0
  0
VERTEX
  5
6F5
330
6E8
100
AcDbEntity
  8
002
 62
     3
370
     9
100
AcDbVertex
100
AcDb2dVertex
 10
1620.235608
 20
658.518254
 30
0.0
  0
VERTEX
  5
6F6
330
6E8
100
AcDbEntity
  8
002
 62
     3
370
     9
100
AcDbVertex
100
AcDb2dVertex
 10
1624.235608
 20
661.782254
 30
0.0
  0
VERTEX
  5
6F7
330
6E8
100
AcDbEntity
  8
002
 62
     3
370
     9
100
AcDbVertex
100
AcDb2dVertex
 10
1628.235608
 20
664.470254
 30
0.0
  0
VERTEX
  5
6F8
330
6E8
100
AcDbEntity
  8
002
 62
     3
370
     9
100
AcDbVertex
100
AcDb2dVertex
 10
1632.235608
 20
666.294254
 30
0.0
  0
VERTEX
  5
6F9
330
6E8
100
AcDbEntity
  8
002
 62
     3
370
     9
100
AcDbVertex
100
AcDb2dVertex
 10
1636.235608
 20
666.966254
 30
0.0
  0
VERTEX
  5
6FA
330
6E8
100
AcDbEntity
  8
002
 62
     3
370
     9
100
AcDbVertex
100
AcDb2dVertex
 10
1640.235608
 20
666.294254
 30
0.0
  0
VERTEX
  5
6FB
330
6E8
100
AcDbEntity
  8
002
 62
     3
370
     9
100
AcDbVertex
100
AcDb2dVertex
 10
1644.235608
 20
664.470254
 30
0.0
  0
VERTEX
  5
6FC
330
6E8
100
AcDbEntity
  8
002
 62
     3
370
     9
100
AcDbVertex
100
AcDb2dVertex
 10
1648.235608
 20
661.782254
 30
0.0
  0
VERTEX
  5
6FD
330
6E8
100
AcDbEntity
  8
002
 62
     3
370
     9
100
AcDbVertex
100
AcDb2dVertex
 10
1652.235608
 20
658.518254
 30
0.0
  0
VERTEX
  5
6FE
330
6E8
100
AcDbEntity
  8
002
 62
     3
370
     9
100
AcDbVertex
100
AcDb2dVertex
 10
1656.235608
 20
654.966254
 30
0.0
  0
SEQEND
  5
6E9
330
6E8
100
AcDbEntity
  8
002
370
     9
  0
POLYLINE
  5
6FF
330
1F
100
AcDbEntity
  8
002
 62
     3
370
     9
100
AcDb2dPolyline
 66
     1
 10
0.0
 20
0.0
 30
0.0
  0
VERTEX
  5
701
330
6FF
100
AcDbEntity
  8
002
 62
     3
370
     9
100
AcDbVertex
100
AcDb2dVertex
 10
1576.235608
 20
678.966254
 30
0.0
  0
VERTEX
  5
702
330
6FF
100
AcDbEntity
  8
002
 62
     3
370
     9
100
AcDbVertex
100
AcDb2dVertex
 10
1580.235608
 20
675.414254
 30
0.0
  0
VERTEX
  5
703
330
6FF
100
AcDbEntity
  8
002
 62
     3
370
     9
100
AcDbVertex
100
AcDb2dVertex
 10
1584.235608
 20
672.150254
 30
0.0
  0
VERTEX
  5
704
330
6FF
100
AcDbEntity
  8
002
 62
     3
370
     9
100
AcDbVertex
100
AcDb2dVertex
 10
1588.235608
 20
669.462254
 30
0.0
  0
VERTEX
  5
705
330
6FF
100
AcDbEntity
  8
002
 62
     3
370
     9
100
AcDbVertex
100
AcDb2dVertex
 10
1592.235608
 20
667.638254
 30
0.0
  0
VERTEX
  5
706
330
6FF
100
AcDbEntity
  8
002
 62
     3
370
     9
100
AcDbVertex
100
AcDb2dVertex
 10
1596.235608
 20
666.966254
 30
0.0
  0
VERTEX
  5
707
330
6FF
100
AcDbEntity
  8
002
 62
     3
370
     9
100
AcDbVertex
100
AcDb2dVertex
 10
1600.235608
 20
667.638254
 30
0.0
  0
VERTEX
  5
708
330
6FF
100
AcDbEntity
  8
002
 62
     3
370
     9
100
AcDbVertex
100
AcDb2dVertex
 10
1604.235608
 20
669.462254
 30
0.0
  0
VERTEX
  5
709
330
6FF
100
AcDbEntity
  8
002
 62
     3
370
     9
100
AcDbVertex
100
AcDb2dVertex
 10
1608.235608
 20
672.150254
 30
0.0
  0
VERTEX
  5
70A
330
6FF
100
AcDbEntity
  8
002
 62
     3
370
     9
100
AcDbVertex
100
AcDb2dVertex
 10
1612.235608
 20
675.414254
 30
0.0
  0
VERTEX
  5
70B
330
6FF
100
AcDbEntity
  8
002
 62
     3
370
     9
100
AcDbVertex
100
AcDb2dVertex
 10
1616.235608
 20
678.966254
 30
0.0
  0
VERTEX
  5
70C
330
6FF
100
AcDbEntity
  8
002
 62
     3
370
     9
100
AcDbVertex
100
AcDb2dVertex
 10
1620.235608
 20
682.518254
 30
0.0
  0
VERTEX
  5
70D
330
6FF
100
AcDbEntity
  8
002
 62
     3
370
     9
100
AcDbVertex
100
AcDb2dVertex
 10
1624.235608
 20
685.782254
 30
0.0
  0
VERTEX
  5
70E
330
6FF
100
AcDbEntity
  8
002
 62
     3
370
     9
100
AcDbVertex
100
AcDb2dVertex
 10
1628.235608
 20
688.470254
 30
0.0
  0
VERTEX
  5
70F
330
6FF
100
AcDbEntity
  8
002
 62
     3
370
     9
100
AcDbVertex
100
AcDb2dVertex
 10
1632.235608
 20
690.294254
 30
0.0
  0
VERTEX
  5
710
330
6FF
100
AcDbEntity
  8
002
 62
     3
370
     9
100
AcDbVertex
100
AcDb2dVertex
 10
1636.235608
 20
690.966254
 30
0.0
  0
VERTEX
  5
711
330
6FF
100
AcDbEntity
  8
002
 62
     3
370
     9
100
AcDbVertex
100
AcDb2dVertex
 10
1640.235608
 20
690.294254
 30
0.0
  0
VERTEX
  5
712
330
6FF
100
AcDbEntity
  8
002
 62
     3
370
     9
100
AcDbVertex
100
AcDb2dVertex
 10
1644.235608
 20
688.470254
 30
0.0
  0
VERTEX
  5
713
330
6FF
100
AcDbEntity
  8
002
 62
     3
370
     9
100
AcDbVertex
100
AcDb2dVertex
 10
1648.235608
 20
685.782254
 30
0.0
  0
VERTEX
  5
714
330
6FF
100
AcDbEntity
  8
002
 62
     3
370
     9
100
AcDbVertex
100
AcDb2dVertex
 10
1652.235608
 20
682.518254
 30
0.0
  0
VERTEX
  5
715
330
6FF
100
AcDbEntity
  8
002
 62
     3
370
     9
100
AcDbVertex
100
AcDb2dVertex
 10
1656.235608
 20
678.966254
 30
0.0
  0
SEQEND
  5
700
330
6FF
100
AcDbEntity
  8
002
370
     9
  0
LINE
  5
716
330
1F
100
AcDbEntity
  8
002
 62
     3
370
    30
100
AcDbLine
 10
1576.235608
 20
753.965704
 30
0.0
 11
1576.235608
 21
678.966254
 31
0.0
  0
LINE
  5
717
330
1F
100
AcDbEntity
  8
002
 62
     3
370
    30
100
AcDbLine
 10
1576.235608
 20
654.966254
 30
0.0
 11
1576.235608
 21
579.966804
 31
0.0
  0
LINE
  5
718
330
1F
100
AcDbEntity
  8
002
 62
     3
370
    30
100
AcDbLine
 10
1656.235608
 20
579.966804
 30
0.0
 11
1656.235608
 21
654.966254
 31
0.0
  0
LINE
  5
719
330
1F
100
AcDbEntity
  8
002
 62
     3
370
    30
100
AcDbLine
 10
1656.235608
 20
678.966254
 30
0.0
 11
1656.235608
 21
753.965704
 31
0.0
  0
LINE
  5
71A
330
1F
100
AcDbEntity
  8
002
 62
    40
370
     9
100
AcDbLine
 10
1651.513608
 20
579.966804
 30
0.0
 11
1651.513608
 21
659.137088
 31
0.0
  0
LINE
  5
71B
330
1F
100
AcDbEntity
  8
002
 62
    40
370
     9
100
AcDbLine
 10
1651.513608
 20
683.137088
 30
0.0
 11
1651.513608
 21
753.965704
 31
0.0
  0
LINE
  5
71C
330
1F
100
AcDbEntity
  8
002
 62
    40
370
     9
100
AcDbLine
 10
1580.957608
 20
753.965704
 30
0.0
 11
1580.957608
 21
674.79542
 31
0.0
  0
LINE
  5
71D
330
1F
100
AcDbEntity
  8
002
 62
    40
370
     9
100
AcDbLine
 10
1580.957608
 20
650.79542
 30
0.0
 11
1580.957608
 21
579.966804
 31
0.0
  0
LINE
  5
71E
330
1F
100
AcDbEntity
  8
002
  6
CENTER
 62
    40
370
     9
100
AcDbLine
 10
1616.235608
 20
1078.965704
 30
0.0
 11
1616.235608
 21
23.965704
 31
0.0
  0
LINE
  5
71F
330
1F
100
AcDbEntity
  8
002
  6
CENTER
 62
    40
370
     9
100
AcDbLine
 10
1186.235608
 20
1078.965704
 30
0.0
 11
1186.235608
 21
23.965704
 31
0.0
  0
LINE
  5
720
330
1F
100
AcDbEntity
  8
002
  6
CENTER
 62
    40
370
     9
100
AcDbLine
 10
707.527227
 20
23.965704
 30
0.0
 11
707.527227
 21
1069.341919
 31
0.0
  0
LINE
  5
721
330
1F
100
AcDbEntity
  8
002
  6
CENTER
 62
    40
370
     9
100
AcDbLine
 10
267.527227
 20
23.965704
 30
0.0
 11
267.527227
 21
1069.341919
 31
0.0
  0
LINE
  5
722
330
1F
100
AcDbEntity
  8
002
  6
CENTER
 62
    40
370
     9
100
AcDbLine
 10
393.494227
 20
198.375019
 30
0.0
 11
405.945227
 21
185.924719
 31
0.0
  0
LINE
  5
723
330
1F
100
AcDbEntity
  8
002
  6
CENTER
 62
    40
370
     9
100
AcDbLine
 10
405.945227
 20
272.758719
 30
0.0
 11
393.494227
 21
260.308719
 31
0.0
  0
LINE
  5
724
330
1F
100
AcDbEntity
  8
002
  6
CENTER
 62
    40
370
     9
100
AcDbLine
 10
331.560227
 20
260.308719
 30
0.0
 11
319.110227
 21
272.758719
 31
0.0
  0
LINE
  5
725
330
1F
100
AcDbEntity
  8
002
  6
CENTER
 62
    40
370
     9
100
AcDbLine
 10
331.560227
 20
198.375019
 30
0.0
 11
319.110227
 21
185.924719
 31
0.0
  0
CIRCLE
  5
726
330
1F
100
AcDbEntity
  8
002
  6
CENTER
 62
    40
370
     9
100
AcDbCircle
 10
362.527227
 20
229.341919
 30
0.0
 40
53.0
  0
LINE
  5
727
330
1F
100
AcDbEntity
  8
002
  6
CENTER
 62
    40
370
     9
100
AcDbLine
 10
833.494227
 20
198.375019
 30
0.0
 11
845.945227
 21
185.924719
 31
0.0
  0
LINE
  5
728
330
1F
100
AcDbEntity
  8
002
  6
CENTER
 62
    40
370
     9
100
AcDbLine
 10
845.945227
 20
272.758719
 30
0.0
 11
833.494227
 21
260.308719
 31
0.0
  0
LINE
  5
729
330
1F
100
AcDbEntity
  8
002
  6
CENTER
 62
    40
370
     9
100
AcDbLine
 10
771.560227
 20
260.308719
 30
0.0
 11
759.110227
 21
272.758719
 31
0.0
  0
LINE
  5
72A
330
1F
100
AcDbEntity
  8
002
  6
CENTER
 62
    40
370
     9
100
AcDbLine
 10
771.560227
 20
198.375019
 30
0.0
 11
759.110227
 21
185.924719
 31
0.0
  0
LINE
  5
72B
330
1F
100
AcDbEntity
  8
002
  6
CENTER
 62
    40
370
     9
100
AcDbLine
 10
1312.202608
 20
842.998804
 30
0.0
 11
1324.653608
 21
830.548504
 31
0.0
  0
LINE
  5
72C
330
1F
100
AcDbEntity
  8
002
  6
CENTER
 62
    40
370
     9
100
AcDbLine
 10
1324.653608
 20
917.382504
 30
0.0
 11
1312.202608
 21
904.932504
 31
0.0
  0
LINE
  5
72D
330
1F
100
AcDbEntity
  8
002
  6
CENTER
 62
    40
370
     9
100
AcDbLine
 10
1250.268608
 20
904.932504
 30
0.0
 11
1237.818608
 21
917.382504
 31
0.0
  0
LINE
  5
72E
330
1F
100
AcDbEntity
  8
002
  6
CENTER
 62
    40
370
     9
100
AcDbLine
 10
1250.268608
 20
842.998804
 30
0.0
 11
1237.818608
 21
830.548504
 31
0.0
  0
LINE
  5
72F
330
1F
100
AcDbEntity
  8
002
  6
CENTER
 62
    40
370
     9
100
AcDbLine
 10
1742.202608
 20
842.998804
 30
0.0
 11
1754.653608
 21
830.548504
 31
0.0
  0
LINE
  5
730
330
1F
100
AcDbEntity
  8
002
  6
CENTER
 62
    40
370
     9
100
AcDbLine
 10
1754.653608
 20
917.382504
 30
0.0
 11
1742.202608
 21
904.932504
 31
0.0
  0
LINE
  5
731
330
1F
100
AcDbEntity
  8
002
  6
CENTER
 62
    40
370
     9
100
AcDbLine
 10
1680.268608
 20
904.932504
 30
0.0
 11
1667.818608
 21
917.382504
 31
0.0
  0
LINE
  5
732
330
1F
100
AcDbEntity
  8
002
  6
CENTER
 62
    40
370
     9
100
AcDbLine
 10
1680.268608
 20
842.998804
 30
0.0
 11
1667.818608
 21
830.548504
 31
0.0
  0
CIRCLE
  5
733
330
1F
100
AcDbEntity
  8
002
  6
CENTER
 62
    40
370
     9
100
AcDbCircle
 10
802.527227
 20
229.341919
 30
0.0
 40
53.0
  0
CIRCLE
  5
734
330
1F
100
AcDbEntity
  8
002
  6
CENTER
 62
    40
370
     9
100
AcDbCircle
 10
1281.235608
 20
873.965704
 30
0.0
 40
53.0
  0
CIRCLE
  5
735
330
1F
100
AcDbEntity
  8
002
  6
CENTER
 62
    40
370
     9
100
AcDbCircle
 10
1711.235608
 20
873.965704
 30
0.0
 40
53.0
  0
ENDSEC
  0
SECTION
  2
OBJECTS
  0
DICTIONARY
  5
C
330
0
100
AcDbDictionary
281
     1
  3
ACAD_GROUP
350
D
  3
ACAD_LAYOUT
350
1A
  3
ACAD_MLEADERSTYLE
350
738
  3
ACAD_MLINESTYLE
350
17
  3
ACAD_PLOTSETTINGS
350
19
  3
ACAD_PLOTSTYLENAME
350
E
  3
ACAD_VISUALSTYLE
350
2A
  3
AcDbVariableDictionary
350
736
  0
DICTIONARY
  5
D
102
{ACAD_REACTORS
330
C
102
}
330
C
100
AcDbDictionary
281
     1
  0
DICTIONARY
  5
1A
102
{ACAD_REACTORS
330
C
102
}
330
C
100
AcDbDictionary
281
     1
  3
Layout1
350
1E
  3
Layout2
350
26
  3
Model
350
22
  0
DICTIONARY
  5
738
102
{ACAD_REACTORS
330
C
102
}
330
C
100
AcDbDictionary
281
     1
  0
DICTIONARY
  5
17
102
{ACAD_REACTORS
330
C
102
}
330
C
100
AcDbDictionary
281
     1
  3
Standard
350
18
  0
DICTIONARY
  5
19
102
{ACAD_REACTORS
330
C
102
}
330
C
100
AcDbDictionary
281
     1
  0
ACDBDICTIONARYWDFLT
  5
E
102
{ACAD_REACTORS
330
C
102
}
330
C
100
AcDbDictionary
281
     1
  3
Normal
350
F
100
AcDbDictionaryWithDefault
340
F
  0
DICTIONARY
  5
2A
102
{ACAD_REACTORS
330
C
102
}
330
C
100
AcDbDictionary
281
     1
  3
2dWireframe
350
2F
  3
3D Hidden
350
31
  3
3dWireframe
350
30
  3
Basic
350
32
  3
Brighten
350
36
  3
ColorChange
350
3A
  3
Conceptual
350
34
  3
Dim
350
35
  3
Facepattern
350
39
  3
Flat
350
2B
  3
FlatWithEdges
350
2C
  3
Gouraud
350
2D
  3
GouraudWithEdges
350
2E
  3
Linepattern
350
38
  3
Realistic
350
33
  3
Thicken
350
37
  0
DICTIONARY
  5
736
102
{ACAD_REACTORS
330
C
102
}
330
C
100
AcDbDictionary
281
     1
  3
PSOLHEIGHT
350
73A
  3
PSOLWIDTH
350
739
  0
LAYOUT
  5
1E
102
{ACAD_REACTORS
330
1A
102
}
330
1A
100
AcDbPlotSettings
  1

  2
none_device
  4

  6

 40
0.0
 41
0.0
 42
0.0
 43
0.0
 44
0.0
 45
0.0
 46
0.0
 47
0.0
 48
0.0
 49
0.0
140
0.0
141
0.0
142
1.0
143
1.0
 70
   688
 72
     0
 73
     0
 74
     5
  7

 75
    16
147
1.0
148
0.0
149
0.0
100
AcDbLayout
  1
Layout1
 70
     1
 71
     1
 10
0.0
 20
0.0
 11
12.0
 21
9.0
 12
0.0
 22
0.0
 32
0.0
 14
1.000000E+20
 24
1.000000E+20
 34
0.0
 15
-1.000000E+20
 25
-1.000000E+20
 35
0.0
146
0.0
 13
0.0
 23
0.0
 33
0.0
 16
1.0
 26
0.0
 36
0.0
 17
0.0
 27
1.0
 37
0.0
 76
     0
330
1B
  0
LAYOUT
  5
26
102
{ACAD_REACTORS
330
1A
102
}
330
1A
100
AcDbPlotSettings
  1

  2
none_device
  4

  6

 40
0.0
 41
0.0
 42
0.0
 43
0.0
 44
0.0
 45
0.0
 46
0.0
 47
0.0
 48
0.0
 49
0.0
140
0.0
141
0.0
142
1.0
143
1.0
 70
   688
 72
     0
 73
     0
 74
     5
  7

 75
    16
147
1.0
148
0.0
149
0.0
100
AcDbLayout
  1
Layout2
 70
     1
 71
     2
 10
0.0
 20
0.0
 11
0.0
 21
0.0
 12
0.0
 22
0.0
 32
0.0
 14
0.0
 24
0.0
 34
0.0
 15
0.0
 25
0.0
 35
0.0
146
0.0
 13
0.0
 23
0.0
 33
0.0
 16
1.0
 26
0.0
 36
0.0
 17
0.0
 27
1.0
 37
0.0
 76
     0
330
23
  0
LAYOUT
  5
22
102
{ACAD_REACTORS
330
1A
102
}
330
1A
100
AcDbPlotSettings
  1

  2
none_device
  4

  6

 40
0.0
 41
0.0
 42
0.0
 43
0.0
 44
0.0
 45
0.0
 46
0.0
 47
0.0
 48
0.0
 49
0.0
140
0.0
141
0.0
142
1.0
143
1.0
 70
  1712
 72
     0
 73
     0
 74
     0
  7

 75
     0
147
1.0
148
0.0
149
0.0
100
AcDbLayout
  1
Model
 70
     1
 71
     0
 10
0.0
 20
0.0
 11
12.0
 21
9.0
 12
0.0
 22
0.0
 32
0.0
 14
102.429199
 24
23.96582
 34
0.0
 15
1836.235596
 25
2482.489746
 35
0.0
146
0.0
 13
0.0
 23
0.0
 33
0.0
 16
1.0
 26
0.0
 36
0.0
 17
0.0
 27
1.0
 37
0.0
 76
     0
330
1F
331
29
  0
MLINESTYLE
  5
18
102
{ACAD_REACTORS
330
17
102
}
330
17
100
AcDbMlineStyle
  2
Standard
 70
     0
  3

 62
   256
 51
90.0
 52
90.0
 71
     2
 49
0.5
 62
   256
  6
BYLAYER
 49
-0.5
 62
   256
  6
BYLAYER
  0
ACDBPLACEHOLDER
  5
F
102
{ACAD_REACTORS
330
E
102
}
330
E
  0
VISUALSTYLE
  5
2F
102
{ACAD_REACTORS
330
2A
102
}
330
2A
100
AcDbVisualStyle
  2
2dWireframe
 70
     4
 71
     0
 72
     2
 73
     0
 90
        0
 40
-0.6
 41
-30.0
 62
     5
 63
     7
 74
     1
 91
        4
 64
     7
 65
   257
 75
     1
175
     1
 42
1.0
 92
        0
 66
   257
 43
1.0
 76
     1
 77
     6
 78
     2
 67
     7
 79
     5
170
     0
171
     0
290
     0
174
     0
 93
        1
 44
0.0
173
     0
291
     0
 45
0.0
1001
ACAD
1000
AcDbSavedByObjectVersion
1070
     0
  0
VISUALSTYLE
  5
31
102
{ACAD_REACTORS
330
2A
102
}
330
2A
100
AcDbVisualStyle
  2
3D Hidden
 70
     6
 71
     1
 72
     2
 73
     2
 90
        0
 40
-0.6
 41
-30.0
 62
     5
 63
     7
 74
     2
 91
        2
 64
     7
 65
   257
 75
     2
175
     1
 42
40.0
 92
        0
 66
   257
 43
1.0
 76
     1
 77
     6
 78
     2
 67
     7
 79
     3
170
     0
171
     0
290
     0
174
     0
 93
        1
 44
0.0
173
     0
291
     0
 45
0.0
1001
ACAD
1000
AcDbSavedByObjectVersion
1070
     0
  0
VISUALSTYLE
  5
30
102
{ACAD_REACTORS
330
2A
102
}
330
2A
100
AcDbVisualStyle
  2
3dWireframe
 70
     5
 71
     0
 72
     2
 73
     0
 90
        0
 40
-0.6
 41
-30.0
 62
     5
 63
     7
 74
     1
 91
        4
 64
     7
 65
   257
 75
     1
175
     1
 42
1.0
 92
        0
 66
   257
 43
1.0
 76
     1
 77
     6
 78
     2
 67
     7
 79
     5
170
     0
171
     0
290
     0
174
     0
 93
        1
 44
0.0
173
     0
291
     0
 45
0.0
1001
ACAD
1000
AcDbSavedByObjectVersion
1070
     0
  0
VISUALSTYLE
  5
32
102
{ACAD_REACTORS
330
2A
102
}
330
2A
100
AcDbVisualStyle
  2
Basic
 70
     7
 71
     1
 72
     0
 73
     1
 90
        0
 40
-0.6
 41
-30.0
 62
     5
 63
     7
 74
     0
 91
        4
 64
     7
 65
   257
 75
     1
175
     1
 42
1.0
 92
        8
 66
     7
 43
1.0
 76
     1
 77
     6
 78
     2
 67
     7
 79
     5
170
     0
171
     0
290
     0
174
     0
 93
        1
 44
0.0
173
     0
291
     1
 45
0.0
1001
ACAD
1000
AcDbSavedByObjectVersion
1070
     0
  0
VISUALSTYLE
  5
36
102
{ACAD_REACTORS
330
2A
102
}
330
2A
100
AcDbVisualStyle
  2
Brighten
 70
    12
 71
     2
 72
     2
 73
     0
 90
        0
 40
-0.6
 41
-30.0
 62
     5
 63
     7
 74
     1
 91
        4
 64
     7
 65
   257
 75
     1
175
     1
 42
1.0
 92
        8
 66
     7
 43
1.0
 76
     1
 77
     6
 78
     2
 67
     7
 79
     5
170
     0
171
     0
290
     0
174
     0
 93
        1
 44
50.0
173
     0
291
     1
 45
0.0
1001
ACAD
1000
AcDbSavedByObjectVersion
1070
     0
  0
VISUALSTYLE
  5
3A
102
{ACAD_REACTORS
330
2A
102
}
330
2A
100
AcDbVisualStyle
  2
ColorChange
 70
    16
 71
     2
 72
     2
 73
     3
 90
        0
 40
-0.6
 41
-30.0
 62
     5
 63
     8
 74
     1
 91
        4
 64
     7
 65
   257
 75
     1
175
     1
 42
1.0
 92
        8
 66
     8
 43
1.0
 76
     1
 77
     6
 78
     2
 67
     7
 79
     5
170
     0
171
     0
290
     0
174
     0
 93
        1
 44
0.0
173
     0
291
     1
 45
0.0
1001
ACAD
1000
AcDbSavedByObjectVersion
1070
     0
  0
VISUALSTYLE
  5
34
102
{ACAD_REACTORS
330
2A
102
}
330
2A
100
AcDbVisualStyle
  2
Conceptual
 70
     9
 71
     3
 72
     2
 73
     0
 90
        0
 40
-0.6
 41
-30.0
 62
     5
 63
     7
 74
     2
 91
        2
 64
     7
 65
   257
 75
     1
175
     1
 42
40.0
 92
        8
 66
     7
 43
1.0
 76
     1
 77
     6
 78
     2
 67
     7
 79
     3
170
     0
171
     0
290
     0
174
     0
 93
        1
 44
0.0
173
     0
291
     0
 45
0.0
1001
ACAD
1000
AcDbSavedByObjectVersion
1070
     0
  0
VISUALSTYLE
  5
35
102
{ACAD_REACTORS
330
2A
102
}
330
2A
100
AcDbVisualStyle
  2
Dim
 70
    11
 71
     2
 72
     2
 73
     0
 90
        0
 40
-0.6
 41
-30.0
 62
     5
 63
     7
 74
     1
 91
        4
 64
     7
 65
   257
 75
     1
175
     1
 42
1.0
 92
        8
 66
     7
 43
1.0
 76
     1
 77
     6
 78
     2
 67
     7
 79
     5
170
     0
171
     0
290
     0
174
     0
 93
        1
 44
-50.0
173
     0
291
     1
 45
0.0
1001
ACAD
1000
AcDbSavedByObjectVersion
1070
     0
  0
VISUALSTYLE
  5
39
102
{ACAD_REACTORS
330
2A
102
}
330
2A
100
AcDbVisualStyle
  2
Facepattern
 70
    15
 71
     2
 72
     2
 73
     0
 90
        0
 40
-0.6
 41
-30.0
 62
     5
 63
     7
 74
     1
 91
        4
 64
     7
 65
   257
 75
     1
175
     1
 42
1.0
 92
        8
 66
     7
 43
1.0
 76
     1
 77
     6
 78
     2
 67
     7
 79
     5
170
     0
171
     0
290
     0
174
     0
 93
        1
 44
0.0
173
     0
291
     1
 45
0.0
1001
ACAD
1000
AcDbSavedByObjectVersion
1070
     0
  0
VISUALSTYLE
  5
2B
102
{ACAD_REACTORS
330
2A
102
}
330
2A
100
AcDbVisualStyle
  2
Flat
 70
     0
 71
     2
 72
     1
 73
     1
 90
        2
 40
-0.6
 41
30.0
 62
     5
 63
     7
 74
     0
 91
        4
 64
     7
 65
   257
 75
     1
175
     1
 42
1.0
 92
        8
 66
     7
 43
1.0
 76
     1
 77
     6
 78
     2
 67
     7
 79
     5
170
     0
171
     0
290
     0
174
     0
 93
       13
 44
0.0
173
     0
291
     1
 45
0.0
1001
ACAD
1000
AcDbSavedByObjectVersion
1070
     0
  0
VISUALSTYLE
  5
2C
102
{ACAD_REACTORS
330
2A
102
}
330
2A
100
AcDbVisualStyle
  2
FlatWithEdges
 70
     1
 71
     2
 72
     1
 73
     1
 90
        2
 40
-0.6
 41
30.0
 62
     5
 63
     7
 74
     1
 91
        4
 64
     7
 65
   257
 75
     1
175
     1
 42
1.0
 92
        0
 66
   257
 43
1.0
 76
     1
 77
     6
 78
     2
 67
     7
 79
     5
170
     0
171
     0
290
     0
174
     0
 93
       13
 44
0.0
173
     0
291
     1
 45
0.0
1001
ACAD
1000
AcDbSavedByObjectVersion
1070
     0
  0
VISUALSTYLE
  5
2D
102
{ACAD_REACTORS
330
2A
102
}
330
2A
100
AcDbVisualStyle
  2
Gouraud
 70
     2
 71
     2
 72
     2
 73
     1
 90
        2
 40
-0.6
 41
30.0
 62
     5
 63
     7
 74
     0
 91
        4
 64
     7
 65
   257
 75
     1
175
     1
 42
1.0
 92
        0
 66
     7
 43
1.0
 76
     1
 77
     6
 78
     2
 67
     7
 79
     5
170
     0
171
     0
290
     0
174
     0
 93
       13
 44
0.0
173
     0
291
     1
 45
0.0
1001
ACAD
1000
AcDbSavedByObjectVersion
1070
     0
  0
VISUALSTYLE
  5
2E
102
{ACAD_REACTORS
330
2A
102
}
330
2A
100
AcDbVisualStyle
  2
GouraudWithEdges
 70
     3
 71
     2
 72
     2
 73
     1
 90
        2
 40
-0.6
 41
30.0
 62
     5
 63
     7
 74
     1
 91
        4
 64
     7
 65
   257
 75
     1
175
     1
 42
1.0
 92
        0
 66
   257
 43
1.0
 76
     1
 77
     6
 78
     2
 67
     7
 79
     5
170
     0
171
     0
290
     0
174
     0
 93
       13
 44
0.0
173
     0
291
     1
 45
0.0
1001
ACAD
1000
AcDbSavedByObjectVersion
1070
     0
  0
VISUALSTYLE
  5
38
102
{ACAD_REACTORS
330
2A
102
}
330
2A
100
AcDbVisualStyle
  2
Linepattern
 70
    14
 71
     2
 72
     2
 73
     0
 90
        0
 40
-0.6
 41
-30.0
 62
     5
 63
     7
 74
     1
 91
        4
 64
     7
 65
   257
 75
     7
175
     7
 42
1.0
 92
        8
 66
     7
 43
1.0
 76
     1
 77
     6
 78
     2
 67
     7
 79
     5
170
     0
171
     0
290
     0
174
     0
 93
        1
 44
0.0
173
     0
291
     1
 45
0.0
1001
ACAD
1000
AcDbSavedByObjectVersion
1070
     0
  0
VISUALSTYLE
  5
33
102
{ACAD_REACTORS
330
2A
102
}
330
2A
100
AcDbVisualStyle
  2
Realistic
 70
     8
 71
     2
 72
     2
 73
     0
 90
        0
 40
-0.6
 41
-30.0
 62
     5
 63
     7
 74
     1
 91
        0
 64
     7
 65
   257
 75
     1
175
     1
 42
1.0
 92
        8
 66
     8
 43
1.0
 76
     1
 77
     6
 78
     2
 67
     7
 79
     5
170
     0
171
     0
290
     0
174
     0
 93
       13
 44
0.0
173
     0
291
     0
 45
0.0
1001
ACAD
1000
AcDbSavedByObjectVersion
1070
     0
  0
VISUALSTYLE
  5
37
102
{ACAD_REACTORS
330
2A
102
}
330
2A
100
AcDbVisualStyle
  2
Thicken
 70
    13
 71
     2
 72
     2
 73
     0
 90
        0
 40
-0.6
 41
-30.0
 62
     5
 63
     7
 74
     1
 91
        4
 64
     7
 65
   257
 75
     1
175
     1
 42
1.0
 92
       12
 66
     7
 43
1.0
 76
     1
 77
     6
 78
     2
 67
     7
 79
     5
170
     0
171
     0
290
     0
174
     0
 93
        1
 44
0.0
173
     0
291
     1
 45
0.0
1001
ACAD
1000
AcDbSavedByObjectVersion
1070
     0
  0
DICTIONARYVAR
  5
73A
102
{ACAD_REACTORS
330
736
102
}
330
736
100
DictionaryVariables
280
     0
  1
80.000000
  0
DICTIONARYVAR
  5
739
102
{ACAD_REACTORS
330
736
102
}
330
736
100
DictionaryVariables
280
     0
  1
5.000000
  0
ENDSEC
  0
EOF
