  0
SECTION
  2
HEADER
  9
$ACADVER
  1
AC1015
  9
$ACADMAINTVER
 70
     6
  9
$DWGCODEPAGE
  3
ANSI_932
  9
$INSBASE
 10
0.0
 20
0.0
 30
0.0
  9
$EXTMIN
 10
18.830963
 20
38.46225
 30
0.0
  9
$EXTMAX
 10
315.527802
 20
392.00116
 30
0.0
  9
$LIMMIN
 10
0.0
 20
0.0
  9
$LIMMAX
 10
12.0
 20
9.0
  9
$ORTHOMODE
 70
     0
  9
$REGENMODE
 70
     1
  9
$FILLMODE
 70
     1
  9
$QTEXTMODE
 70
     0
  9
$MIRRTEXT
 70
     1
  9
$LTSCALE
 40
4.615396
  9
$ATTMODE
 70
     1
  9
$TEXTSIZE
 40
3.2
  9
$TRACEWID
 40
1.0
  9
$TEXTSTYLE
  7
Standard
  9
$CLAYER
  8
0
  9
$CELTYPE
  6
ByLayer
  9
$CECOLOR
 62
   256
  9
$CELTSCALE
 40
1.0
  9
$DISPSILH
 70
     0
  9
$DIMSCALE
 40
1.0
  9
$DIMASZ
 40
2.5
  9
$DIMEXO
 40
0.625
  9
$DIMDLI
 40
3.75
  9
$DIMRND
 40
0.0
  9
$DIMDLE
 40
0.0
  9
$DIMEXE
 40
1.25
  9
$DIMTP
 40
0.0
  9
$DIMTM
 40
0.0
  9
$DIMTXT
 40
2.5
  9
$DIMCEN
 40
0.09
  9
$DIMTSZ
 40
0.0
  9
$DIMTOL
 70
     0
  9
$DIMLIM
 70
     0
  9
$DIMTIH
 70
     0
  9
$DIMTOH
 70
     0
  9
$DIMSE1
 70
     0
  9
$DIMSE2
 70
     0
  9
$DIMTAD
 70
     0
  9
$DIMZIN
 70
     8
  9
$DIMBLK
  1

  9
$DIMASO
 70
     1
  9
$DIMSHO
 70
     0
  9
$DIMPOST
  1

  9
$DIMAPOST
  1

  9
$DIMALT
 70
     0
  9
$DIMALTD
 70
     3
  9
$DIMALTF
 40
0.03937
  9
$DIMLFAC
 40
1.0
  9
$DIMTOFL
 70
     1
  9
$DIMTVP
 40
0.0
  9
$DIMTIX
 70
     0
  9
$DIMSOXD
 70
     0
  9
$DIMSAH
 70
     0
  9
$DIMBLK1
  1

  9
$DIMBLK2
  1

  9
$DIMSTYLE
  2
ISO-25
  9
$DIMCLRD
 70
     0
  9
$DIMCLRE
 70
     0
  9
$DIMCLRT
 70
     0
  9
$DIMTFAC
 40
1.0
  9
$DIMGAP
 40
0.625
  9
$DIMJUST
 70
     0
  9
$DIMSD1
 70
     0
  9
$DIMSD2
 70
     0
  9
$DIMTOLJ
 70
     0
  9
$DIMTZIN
 70
     8
  9
$DIMALTZ
 70
     0
  9
$DIMALTTZ
 70
     0
  9
$DIMUPT
 70
     0
  9
$DIMDEC
 70
     2
  9
$DIMTDEC
 70
     2
  9
$DIMALTU
 70
     2
  9
$DIMALTTD
 70
     3
  9
$DIMTXSTY
  7
Standard
  9
$DIMAUNIT
 70
     0
  9
$DIMADEC
 70
     0
  9
$DIMALTRND
 40
0.0
  9
$DIMAZIN
 70
     0
  9
$DIMDSEP
 70
    44
  9
$DIMATFIT
 70
     3
  9
$DIMFRAC
 70
     0
  9
$DIMLDRBLK
  1

  9
$DIMLUNIT
 70
     2
  9
$DIMLWD
 70
    -2
  9
$DIMLWE
 70
    -2
  9
$DIMTMOVE
 70
     0
  9
$LUNITS
 70
     2
  9
$LUPREC
 70
     4
  9
$SKETCHINC
 40
1.0
  9
$FILLETRAD
 40
0.0
  9
$AUNITS
 70
     0
  9
$AUPREC
 70
     0
  9
$MENU
  1
.
  9
$ELEVATION
 40
0.0
  9
$PELEVATION
 40
0.0
  9
$THICKNESS
 40
0.0
  9
$LIMCHECK
 70
     0
  9
$CHAMFERA
 40
10.0
  9
$CHAMFERB
 40
10.0
  9
$CHAMFERC
 40
20.0
  9
$CHAMFERD
 40
0.0
  9
$SKPOLY
 70
     0
  9
$TDCREATE
 40
2455649.65779206
  9
$TDUCREATE
 40
2455649.28279206
  9
$TDUPDATE
 40
2455649.657792072
  9
$TDUUPDATE
 40
2455649.282792072
  9
$TDINDWG
 40
0.0000000116
  9
$TDUSRTIMER
 40
0.0000000116
  9
$USRTIMER
 70
     1
  9
$ANGBASE
 50
0.0
  9
$ANGDIR
 70
     0
  9
$PDMODE
 70
     0
  9
$PDSIZE
 40
0.0
  9
$PLINEWID
 40
0.0
  9
$SPLFRAME
 70
     0
  9
$SPLINETYPE
 70
     6
  9
$SPLINESEGS
 70
     8
  9
$HANDSEED
  5
813
  9
$SURFTAB1
 70
     6
  9
$SURFTAB2
 70
     6
  9
$SURFTYPE
 70
     6
  9
$SURFU
 70
     6
  9
$SURFV
 70
     6
  9
$UCSBASE
  2

  9
$UCSNAME
  2

  9
$UCSORG
 10
0.0
 20
0.0
 30
0.0
  9
$UCSXDIR
 10
1.0
 20
0.0
 30
0.0
  9
$UCSYDIR
 10
0.0
 20
1.0
 30
0.0
  9
$UCSORTHOREF
  2

  9
$UCSORTHOVIEW
 70
     0
  9
$UCSORGTOP
 10
0.0
 20
0.0
 30
0.0
  9
$UCSORGBOTTOM
 10
0.0
 20
0.0
 30
0.0
  9
$UCSORGLEFT
 10
0.0
 20
0.0
 30
0.0
  9
$UCSORGRIGHT
 10
0.0
 20
0.0
 30
0.0
  9
$UCSORGFRONT
 10
0.0
 20
0.0
 30
0.0
  9
$UCSORGBACK
 10
0.0
 20
0.0
 30
0.0
  9
$PUCSBASE
  2

  9
$PUCSNAME
  2

  9
$PUCSORG
 10
0.0
 20
0.0
 30
0.0
  9
$PUCSXDIR
 10
1.0
 20
0.0
 30
0.0
  9
$PUCSYDIR
 10
0.0
 20
1.0
 30
0.0
  9
$PUCSORTHOREF
  2

  9
$PUCSORTHOVIEW
 70
     0
  9
$PUCSORGTOP
 10
0.0
 20
0.0
 30
0.0
  9
$PUCSORGBOTTOM
 10
0.0
 20
0.0
 30
0.0
  9
$PUCSORGLEFT
 10
0.0
 20
0.0
 30
0.0
  9
$PUCSORGRIGHT
 10
0.0
 20
0.0
 30
0.0
  9
$PUCSORGFRONT
 10
0.0
 20
0.0
 30
0.0
  9
$PUCSORGBACK
 10
0.0
 20
0.0
 30
0.0
  9
$USERI1
 70
     0
  9
$USERI2
 70
     0
  9
$USERI3
 70
     0
  9
$USERI4
 70
     0
  9
$USERI5
 70
     0
  9
$USERR1
 40
0.0
  9
$USERR2
 40
0.0
  9
$USERR3
 40
0.0
  9
$USERR4
 40
0.0
  9
$USERR5
 40
0.0
  9
$WORLDVIEW
 70
     1
  9
$SHADEDGE
 70
     3
  9
$SHADEDIF
 70
    70
  9
$TILEMODE
 70
     1
  9
$MAXACTVP
 70
    64
  9
$PINSBASE
 10
0.0
 20
0.0
 30
0.0
  9
$PLIMCHECK
 70
     0
  9
$PEXTMIN
 10
1.000000E+20
 20
1.000000E+20
 30
0.0
  9
$PEXTMAX
 10
-1.000000E+20
 20
-1.000000E+20
 30
0.0
  9
$PLIMMIN
 10
0.0
 20
0.0
  9
$PLIMMAX
 10
12.0
 20
9.0
  9
$UNITMODE
 70
     0
  9
$VISRETAIN
 70
     1
  9
$PLINEGEN
 70
     0
  9
$PSLTSCALE
 70
     1
  9
$TREEDEPTH
 70
  3020
  9
$CMLSTYLE
  2
Standard
  9
$CMLJUST
 70
     0
  9
$CMLSCALE
 40
20.0
  9
$PROXYGRAPHICS
 70
     1
  9
$MEASUREMENT
 70
     1
  9
$CELWEIGHT
370
    -1
  9
$ENDCAPS
280
     0
  9
$JOINSTYLE
280
     0
  9
$LWDISPLAY
290
     0
  9
$INSUNITS
 70
     4
  9
$HYPERLINKBASE
  1

  9
$STYLESHEET
  1

  9
$XEDIT
290
     1
  9
$CEPSNTYPE
380
     0
  9
$PSTYLEMODE
290
     1
  9
$FINGERPRINTGUID
  2
{8828C241-92C2-48B4-AF88-230126CFD54E}
  9
$VERSIONGUID
  2
{FAEB1C32-E019-11D5-929B-00C0DF256EC4}
  9
$EXTNAMES
290
     1
  9
$PSVPSCALE
 40
0.0
  9
$OLESTARTUP
290
     0
  0
ENDSEC
  0
SECTION
  2
CLASSES
  0
CLASS
  1
ACDBDICTIONARYWDFLT
  2
AcDbDictionaryWithDefault
  3
ObjectDBX Classes
 90
        0
280
     0
281
     0
  0
CLASS
  1
VISUALSTYLE
  2
AcDbVisualStyle
  3
ObjectDBX Classes
 90
     4095
280
     0
281
     0
  0
CLASS
  1
SCALE
  2
AcDbScale
  3
ObjectDBX Classes
 90
     1153
280
     0
281
     0
  0
CLASS
  1
DICTIONARYVAR
  2
AcDbDictionaryVar
  3
ObjectDBX Classes
 90
        0
280
     0
281
     0
  0
CLASS
  1
ACDBPLACEHOLDER
  2
AcDbPlaceHolder
  3
ObjectDBX Classes
 90
        0
280
     0
281
     0
  0
CLASS
  1
LAYOUT
  2
AcDbLayout
  3
ObjectDBX Classes
 90
        0
280
     0
281
     0
  0
ENDSEC
  0
SECTION
  2
TABLES
  0
TABLE
  2
VPORT
  5
8
330
0
100
AcDbSymbolTable
 70
     1
  0
VPORT
  5
29
330
8
100
AcDbSymbolTableRecord
100
AcDbViewportTableRecord
  2
*Active
 70
     0
 10
0.0
 20
0.0
 11
1.0
 21
1.0
 12
167.179382
 22
215.231705
 13
0.0
 23
0.0
 14
1.0
 24
1.0
 15
0.0
 25
0.0
 16
0.0
 26
0.0
 36
1.0
 17
0.0
 27
0.0
 37
0.0
 40
357.074299
 41
1.691288
 42
50.0
 43
0.0
 44
0.0
 50
0.0
 51
0.0
 71
     0
 72
   100
 73
     1
 74
     3
 75
     0
 76
     0
 77
     0
 78
     0
281
     0
 65
     1
110
0.0
120
0.0
130
0.0
111
1.0
121
0.0
131
0.0
112
0.0
122
1.0
132
0.0
 79
     0
146
0.0
  0
ENDTAB
  0
TABLE
  2
LTYPE
  5
5
330
0
100
AcDbSymbolTable
 70
     5
  0
LTYPE
  5
14
330
5
100
AcDbSymbolTableRecord
100
AcDbLinetypeTableRecord
  2
ByBlock
 70
     0
  3

 72
    65
 73
     0
 40
0.0
  0
LTYPE
  5
15
330
5
100
AcDbSymbolTableRecord
100
AcDbLinetypeTableRecord
  2
ByLayer
 70
     0
  3

 72
    65
 73
     0
 40
0.0
  0
LTYPE
  5
16
330
5
100
AcDbSymbolTableRecord
100
AcDbLinetypeTableRecord
  2
Continuous
 70
     0
  3
Solid line
 72
    65
 73
     0
 40
0.0
  0
LTYPE
  5
3B
330
5
100
AcDbSymbolTableRecord
100
AcDbLinetypeTableRecord
  2
DASHED
 70
     0
  3
DASHED
 72
    83
 73
     2
 40
0.75
 49
0.5
 74
     0
 49
-0.25
 74
     0
  0
LTYPE
  5
3C
330
5
100
AcDbSymbolTableRecord
100
AcDbLinetypeTableRecord
  2
HIDDEN
 70
     0
  3
HIDDEN
 72
    83
 73
     2
 40
0.375
 49
0.25
 74
     0
 49
-0.125
 74
     0
  0
LTYPE
  5
3D
330
5
100
AcDbSymbolTableRecord
100
AcDbLinetypeTableRecord
  2
CENTER
 70
     0
  3
CENTER
 72
    83
 73
     4
 40
2.0
 49
1.25
 74
     0
 49
-0.25
 74
     0
 49
0.25
 74
     0
 49
-0.25
 74
     0
  0
LTYPE
  5
3E
330
5
100
AcDbSymbolTableRecord
100
AcDbLinetypeTableRecord
  2
PHANTOM
 70
     0
  3
PHANTOM
 72
    83
 73
     6
 40
2.5
 49
1.25
 74
     0
 49
-0.25
 74
     0
 49
0.25
 74
     0
 49
-0.25
 74
     0
 49
0.25
 74
     0
 49
-0.25
 74
     0
  0
ENDTAB
  0
TABLE
  2
LAYER
  5
2
330
0
100
AcDbSymbolTable
 70
     3
  0
LAYER
  5
10
330
2
100
AcDbSymbolTableRecord
100
AcDbLayerTableRecord
  2
0
 70
     0
 62
     7
  6
Continuous
370
    -3
390
F
  0
LAYER
  5
3F
330
2
100
AcDbSymbolTableRecord
100
AcDbLayerTableRecord
  2
002
 70
     0
 62
     7
  6
Continuous
370
    -3
390
F
  0
LAYER
  5
40
330
2
100
AcDbSymbolTableRecord
100
AcDbLayerTableRecord
  2
003
 70
     0
 62
     7
  6
Continuous
370
    -3
390
F
  0
ENDTAB
  0
TABLE
  2
STYLE
  5
3
330
0
100
AcDbSymbolTable
 70
     2
  0
STYLE
  5
11
330
3
100
AcDbSymbolTableRecord
100
AcDbTextStyleTableRecord
  2
Standard
 70
     0
 40
0.0
 41
1.0
 50
0.0
 71
     0
 42
0.2
  3
TXT
  4
BIGFONT
  0
STYLE
  5
41
330
3
100
AcDbSymbolTableRecord
100
AcDbTextStyleTableRecord
  2
TATEGAKI
 70
     4
 40
1.0
 41
1.0
 50
0.0
 71
     0
 42
0.2
  3
TXT
  4
BIGFONT
  0
ENDTAB
  0
TABLE
  2
VIEW
  5
6
330
0
100
AcDbSymbolTable
 70
     0
  0
ENDTAB
  0
TABLE
  2
UCS
  5
7
330
0
100
AcDbSymbolTable
 70
     0
  0
ENDTAB
  0
TABLE
  2
APPID
  5
9
330
0
100
AcDbSymbolTable
 70
     1
  0
APPID
  5
12
330
9
100
AcDbSymbolTableRecord
100
AcDbRegAppTableRecord
  2
ACAD
 70
     0
  0
ENDTAB
  0
TABLE
  2
DIMSTYLE
  5
A
330
0
100
AcDbSymbolTable
 70
     2
100
AcDbDimStyleTable
  0
DIMSTYLE
105
27
330
A
100
AcDbSymbolTableRecord
100
AcDbDimStyleTableRecord
  2
ISO-25
 70
     0
 41
2.5
 42
0.625
 43
3.75
 44
1.25
 73
     0
 74
     0
 77
     1
 78
     8
140
2.5
141
2.5
143
0.03937
147
0.625
171
     3
172
     1
271
     2
272
     2
274
     3
278
    44
283
     0
284
     8
340
11
  0
DIMSTYLE
105
42
330
A
100
AcDbSymbolTableRecord
100
AcDbDimStyleTableRecord
  2
Standard
 70
     0
 41
3.0
 42
0.5
 44
0.7
 73
     0
 74
     0
 77
     1
 78
     8
 79
     2
140
4.0
146
0.65
147
1.0
172
     1
179
     3
271
     3
283
     2
340
11
  0
ENDTAB
  0
TABLE
  2
BLOCK_RECORD
  5
1
330
0
100
AcDbSymbolTable
 70
    35
  0
BLOCK_RECORD
  5
1F
330
1
100
AcDbSymbolTableRecord
100
AcDbBlockTableRecord
  2
*Model_Space
340
22
  0
BLOCK_RECORD
  5
1B
330
1
100
AcDbSymbolTableRecord
100
AcDbBlockTableRecord
  2
*Paper_Space
340
1E
  0
BLOCK_RECORD
  5
23
330
1
100
AcDbSymbolTableRecord
100
AcDbBlockTableRecord
  2
*Paper_Space0
340
26
  0
BLOCK_RECORD
  5
43
330
1
100
AcDbSymbolTableRecord
100
AcDbBlockTableRecord
  2
JZB-1
340
0
102
{BLKREFS
331
1A5
102
}
  0
BLOCK_RECORD
  5
54
330
1
100
AcDbSymbolTableRecord
100
AcDbBlockTableRecord
  2
JZB-2
340
0
102
{BLKREFS
331
1A6
102
}
  0
BLOCK_RECORD
  5
65
330
1
100
AcDbSymbolTableRecord
100
AcDbBlockTableRecord
  2
JZB-3
340
0
102
{BLKREFS
331
1A7
102
}
  0
BLOCK_RECORD
  5
6F
330
1
100
AcDbSymbolTableRecord
100
AcDbBlockTableRecord
  2
JZB-4
340
0
102
{BLKREFS
331
1A8
102
}
  0
BLOCK_RECORD
  5
79
330
1
100
AcDbSymbolTableRecord
100
AcDbBlockTableRecord
  2
JZB-5
340
0
102
{BLKREFS
331
1A9
102
}
  0
BLOCK_RECORD
  5
83
330
1
100
AcDbSymbolTableRecord
100
AcDbBlockTableRecord
  2
JZB-6
340
0
102
{BLKREFS
331
1AA
102
}
  0
BLOCK_RECORD
  5
8D
330
1
100
AcDbSymbolTableRecord
100
AcDbBlockTableRecord
  2
JZB-7
340
0
102
{BLKREFS
331
1AB
102
}
  0
BLOCK_RECORD
  5
97
330
1
100
AcDbSymbolTableRecord
100
AcDbBlockTableRecord
  2
JZB-8
340
0
102
{BLKREFS
331
1AC
102
}
  0
BLOCK_RECORD
  5
A1
330
1
100
AcDbSymbolTableRecord
100
AcDbBlockTableRecord
  2
JZB-9
340
0
102
{BLKREFS
331
1AD
102
}
  0
BLOCK_RECORD
  5
AB
330
1
100
AcDbSymbolTableRecord
100
AcDbBlockTableRecord
  2
JZB-10
340
0
102
{BLKREFS
331
1AE
102
}
  0
BLOCK_RECORD
  5
B5
330
1
100
AcDbSymbolTableRecord
100
AcDbBlockTableRecord
  2
JZB-11
340
0
102
{BLKREFS
331
1AF
102
}
  0
BLOCK_RECORD
  5
BF
330
1
100
AcDbSymbolTableRecord
100
AcDbBlockTableRecord
  2
JZB-12
340
0
102
{BLKREFS
331
1B0
102
}
  0
BLOCK_RECORD
  5
C9
330
1
100
AcDbSymbolTableRecord
100
AcDbBlockTableRecord
  2
JZB-13
340
0
102
{BLKREFS
331
1B1
102
}
  0
BLOCK_RECORD
  5
D3
330
1
100
AcDbSymbolTableRecord
100
AcDbBlockTableRecord
  2
JZB-14
340
0
102
{BLKREFS
331
1B2
102
}
  0
BLOCK_RECORD
  5
DD
330
1
100
AcDbSymbolTableRecord
100
AcDbBlockTableRecord
  2
JZB-15
340
0
102
{BLKREFS
331
1B3
102
}
  0
BLOCK_RECORD
  5
E7
330
1
100
AcDbSymbolTableRecord
100
AcDbBlockTableRecord
  2
JZB-16
340
0
102
{BLKREFS
331
1B4
102
}
  0
BLOCK_RECORD
  5
F1
330
1
100
AcDbSymbolTableRecord
100
AcDbBlockTableRecord
  2
JZB-17
340
0
102
{BLKREFS
331
1B5
102
}
  0
BLOCK_RECORD
  5
FB
330
1
100
AcDbSymbolTableRecord
100
AcDbBlockTableRecord
  2
JZB-18
340
0
102
{BLKREFS
331
1B6
102
}
  0
BLOCK_RECORD
  5
105
330
1
100
AcDbSymbolTableRecord
100
AcDbBlockTableRecord
  2
JZB-19
340
0
102
{BLKREFS
331
1B7
102
}
  0
BLOCK_RECORD
  5
10F
330
1
100
AcDbSymbolTableRecord
100
AcDbBlockTableRecord
  2
JZB-20
340
0
102
{BLKREFS
331
1B8
102
}
  0
BLOCK_RECORD
  5
119
330
1
100
AcDbSymbolTableRecord
100
AcDbBlockTableRecord
  2
JZB-21
340
0
102
{BLKREFS
331
1B9
102
}
  0
BLOCK_RECORD
  5
123
330
1
100
AcDbSymbolTableRecord
100
AcDbBlockTableRecord
  2
JZB-22
340
0
102
{BLKREFS
331
1BA
102
}
  0
BLOCK_RECORD
  5
12D
330
1
100
AcDbSymbolTableRecord
100
AcDbBlockTableRecord
  2
JZB-23
340
0
102
{BLKREFS
331
1BB
102
}
  0
BLOCK_RECORD
  5
137
330
1
100
AcDbSymbolTableRecord
100
AcDbBlockTableRecord
  2
JZB-24
340
0
102
{BLKREFS
331
1BC
102
}
  0
BLOCK_RECORD
  5
141
330
1
100
AcDbSymbolTableRecord
100
AcDbBlockTableRecord
  2
JZB-25
340
0
102
{BLKREFS
331
1BD
102
}
  0
BLOCK_RECORD
  5
14B
330
1
100
AcDbSymbolTableRecord
100
AcDbBlockTableRecord
  2
JZB-26
340
0
102
{BLKREFS
331
1BE
102
}
  0
BLOCK_RECORD
  5
155
330
1
100
AcDbSymbolTableRecord
100
AcDbBlockTableRecord
  2
JZB-27
340
0
102
{BLKREFS
331
1BF
102
}
  0
BLOCK_RECORD
  5
15F
330
1
100
AcDbSymbolTableRecord
100
AcDbBlockTableRecord
  2
JZB-28
340
0
102
{BLKREFS
331
1C0
102
}
  0
BLOCK_RECORD
  5
169
330
1
100
AcDbSymbolTableRecord
100
AcDbBlockTableRecord
  2
JZB-29
340
0
102
{BLKREFS
331
1C1
102
}
  0
BLOCK_RECORD
  5
173
330
1
100
AcDbSymbolTableRecord
100
AcDbBlockTableRecord
  2
JZB-30
340
0
102
{BLKREFS
331
1C2
102
}
  0
BLOCK_RECORD
  5
17D
330
1
100
AcDbSymbolTableRecord
100
AcDbBlockTableRecord
  2
JZB-31
340
0
102
{BLKREFS
331
1C3
102
}
  0
BLOCK_RECORD
  5
187
330
1
100
AcDbSymbolTableRecord
100
AcDbBlockTableRecord
  2
JZB-32
340
0
102
{BLKREFS
331
1C4
102
}
  0
BLOCK_RECORD
  5
191
330
1
100
AcDbSymbolTableRecord
100
AcDbBlockTableRecord
  2
JZB-33
340
0
102
{BLKREFS
331
1C5
102
}
  0
BLOCK_RECORD
  5
19B
330
1
100
AcDbSymbolTableRecord
100
AcDbBlockTableRecord
  2
JZB-34
340
0
102
{BLKREFS
331
1C6
102
}
  0
ENDTAB
  0
ENDSEC
  0
SECTION
  2
BLOCKS
  0
BLOCK
  5
20
330
1F
100
AcDbEntity
  8
0
100
AcDbBlockBegin
  2
*Model_Space
 70
     0
 10
0.0
 20
0.0
 30
0.0
  3
*Model_Space
  1

  0
ENDBLK
  5
21
330
1F
100
AcDbEntity
  8
0
100
AcDbBlockEnd
  0
BLOCK
  5
1C
330
1B
100
AcDbEntity
 67
     1
  8
0
100
AcDbBlockBegin
  2
*Paper_Space
 70
     0
 10
0.0
 20
0.0
 30
0.0
  3
*Paper_Space
  1

  0
ENDBLK
  5
1D
330
1B
100
AcDbEntity
 67
     1
  8
0
100
AcDbBlockEnd
  0
BLOCK
  5
24
330
23
100
AcDbEntity
  8
0
100
AcDbBlockBegin
  2
*Paper_Space0
 70
     0
 10
0.0
 20
0.0
 30
0.0
  3
*Paper_Space0
  1

  0
ENDBLK
  5
25
330
23
100
AcDbEntity
  8
0
100
AcDbBlockEnd
  0
BLOCK
  5
44
330
43
100
AcDbEntity
  8
0
100
AcDbBlockBegin
  2
JZB-1
 70
     0
 10
0.0
 20
0.0
 30
0.0
  3
JZB-1
  1

  0
LINE
  5
46
330
43
100
AcDbEntity
  8
002
 62
     3
370
    30
100
AcDbLine
 10
69.430975
 20
373.63931
 30
0.0
 11
69.430975
 21
372.876173
 31
0.0
  0
LINE
  5
47
330
43
100
AcDbEntity
  8
002
 62
     3
370
    30
100
AcDbLine
 10
69.237225
 20
373.751171
 30
0.0
 11
67.174725
 21
373.751171
 31
0.0
  0
LINE
  5
48
330
43
100
AcDbEntity
  8
002
 62
     3
370
    30
100
AcDbLine
 10
69.430975
 20
372.876173
 30
0.0
 11
66.980975
 21
372.876173
 31
0.0
  0
LINE
  5
49
330
43
100
AcDbEntity
  8
002
 62
     3
370
    30
100
AcDbLine
 10
69.237225
 20
373.751171
 30
0.0
 11
69.430975
 21
373.63931
 31
0.0
  0
LINE
  5
4A
330
43
100
AcDbEntity
  8
002
 62
     3
370
    30
100
AcDbLine
 10
67.174725
 20
373.751171
 30
0.0
 11
66.980975
 21
373.63931
 31
0.0
  0
LINE
  5
4B
330
43
100
AcDbEntity
  8
002
 62
     3
370
    30
100
AcDbLine
 10
66.980975
 20
373.63931
 30
0.0
 11
66.980975
 21
372.876173
 31
0.0
  0
LINE
  5
4C
330
43
100
AcDbEntity
  8
002
 62
     3
370
    30
100
AcDbLine
 10
68.818475
 20
372.876173
 30
0.0
 11
68.818475
 21
373.63931
 31
0.0
  0
LINE
  5
4D
330
43
100
AcDbEntity
  8
002
 62
     3
370
    30
100
AcDbLine
 10
67.593475
 20
372.876173
 30
0.0
 11
67.593475
 21
373.63931
 31
0.0
  0
ARC
  5
4E
330
43
100
AcDbEntity
  8
002
 62
     3
370
    30
100
AcDbCircle
 10
67.287225
 20
373.276021
 30
0.0
 40
0.4751499594419462
100
AcDbArc
 50
49.869303
 51
90.0
  0
ARC
  5
4F
330
43
100
AcDbEntity
  8
002
 62
     3
370
    30
100
AcDbCircle
 10
69.124725
 20
373.276021
 30
0.0
 40
0.4751499594419462
100
AcDbArc
 50
90.0
 51
130.130697
  0
ARC
  5
50
330
43
100
AcDbEntity
  8
002
 62
     3
370
    30
100
AcDbCircle
 10
68.205975
 20
372.018364
 30
0.0
 40
1.732807415784542
100
AcDbArc
 50
69.300135
 51
110.699865
  0
LINE
  5
51
330
43
100
AcDbEntity
  8
002
 62
     3
370
    30
100
AcDbLine
 10
68.205974
 20
372.876171
 30
0.0
 11
68.205974
 21
372.876173
 31
0.0
  0
LINE
  5
52
330
43
100
AcDbEntity
  8
002
 62
     3
370
    30
100
AcDbLine
 10
68.205974
 20
372.876171
 30
0.0
 11
68.205975
 21
372.876171
 31
0.0
  0
LINE
  5
53
330
43
100
AcDbEntity
  8
002
 62
     3
370
    30
100
AcDbLine
 10
68.205975
 20
372.876171
 30
0.0
 11
68.205975
 21
372.876173
 31
0.0
  0
ENDBLK
  5
45
330
43
100
AcDbEntity
  8
0
100
AcDbBlockEnd
  0
BLOCK
  5
55
330
54
100
AcDbEntity
  8
0
100
AcDbBlockBegin
  2
JZB-2
 70
     0
 10
0.0
 20
0.0
 30
0.0
  3
JZB-2
  1

  0
LINE
  5
57
330
54
100
AcDbEntity
  8
002
 62
     3
370
    30
100
AcDbLine
 10
69.430975
 20
335.613036
 30
0.0
 11
69.430975
 21
336.376173
 31
0.0
  0
LINE
  5
58
330
54
100
AcDbEntity
  8
002
 62
     3
370
    30
100
AcDbLine
 10
69.237225
 20
335.501174
 30
0.0
 11
67.174725
 21
335.501174
 31
0.0
  0
LINE
  5
59
330
54
100
AcDbEntity
  8
002
 62
     3
370
    30
100
AcDbLine
 10
69.430975
 20
336.376173
 30
0.0
 11
66.980975
 21
336.376173
 31
0.0
  0
LINE
  5
5A
330
54
100
AcDbEntity
  8
002
 62
     3
370
    30
100
AcDbLine
 10
69.237225
 20
335.501174
 30
0.0
 11
69.430975
 21
335.613036
 31
0.0
  0
LINE
  5
5B
330
54
100
AcDbEntity
  8
002
 62
     3
370
    30
100
AcDbLine
 10
67.174725
 20
335.501174
 30
0.0
 11
66.980975
 21
335.613036
 31
0.0
  0
LINE
  5
5C
330
54
100
AcDbEntity
  8
002
 62
     3
370
    30
100
AcDbLine
 10
66.980975
 20
335.613036
 30
0.0
 11
66.980975
 21
336.376173
 31
0.0
  0
LINE
  5
5D
330
54
100
AcDbEntity
  8
002
 62
     3
370
    30
100
AcDbLine
 10
68.818475
 20
336.376173
 30
0.0
 11
68.818475
 21
335.613036
 31
0.0
  0
LINE
  5
5E
330
54
100
AcDbEntity
  8
002
 62
     3
370
    30
100
AcDbLine
 10
67.593475
 20
336.376173
 30
0.0
 11
67.593475
 21
335.613036
 31
0.0
  0
ARC
  5
5F
330
54
100
AcDbEntity
  8
002
 62
     3
370
    30
100
AcDbCircle
 10
67.287225
 20
335.976324
 30
0.0
 40
0.4751499594419462
100
AcDbArc
 50
270.0
 51
310.130697
  0
ARC
  5
60
330
54
100
AcDbEntity
  8
002
 62
     3
370
    30
100
AcDbCircle
 10
69.124725
 20
335.976324
 30
0.0
 40
0.4751499594419462
100
AcDbArc
 50
229.869303
 51
270.0
  0
ARC
  5
61
330
54
100
AcDbEntity
  8
002
 62
     3
370
    30
100
AcDbCircle
 10
68.205975
 20
337.233981
 30
0.0
 40
1.732807415784542
100
AcDbArc
 50
249.300135
 51
290.699865
  0
LINE
  5
62
330
54
100
AcDbEntity
  8
002
 62
     3
370
    30
100
AcDbLine
 10
68.205974
 20
336.376174
 30
0.0
 11
68.205974
 21
336.376173
 31
0.0
  0
LINE
  5
63
330
54
100
AcDbEntity
  8
002
 62
     3
370
    30
100
AcDbLine
 10
68.205974
 20
336.376174
 30
0.0
 11
68.205975
 21
336.376174
 31
0.0
  0
LINE
  5
64
330
54
100
AcDbEntity
  8
002
 62
     3
370
    30
100
AcDbLine
 10
68.205975
 20
336.376174
 30
0.0
 11
68.205975
 21
336.376173
 31
0.0
  0
ENDBLK
  5
56
330
54
100
AcDbEntity
  8
0
100
AcDbBlockEnd
  0
BLOCK
  5
66
330
65
100
AcDbEntity
  8
0
100
AcDbBlockBegin
  2
JZB-3
 70
     0
 10
0.0
 20
0.0
 30
0.0
  3
JZB-3
  1

  0
LINE
  5
68
330
65
100
AcDbEntity
  8
003
 62
     3
370
    30
100
AcDbLine
 10
52.083726
 20
113.009179
 30
0.0
 11
52.401263
 21
114.194243
 31
0.0
  0
LINE
  5
69
330
65
100
AcDbEntity
  8
003
 62
     3
370
    30
100
AcDbLine
 10
54.136318
 20
112.459188
 30
0.0
 11
54.453855
 21
113.644253
 31
0.0
  0
LINE
  5
6A
330
65
100
AcDbEntity
  8
003
 62
     3
370
    30
100
AcDbLine
 10
52.951253
 20
112.141651
 30
0.0
 11
54.136318
 21
112.459188
 31
0.0
  0
LINE
  5
6B
330
65
100
AcDbEntity
  8
003
 62
     3
370
    30
100
AcDbLine
 10
53.586328
 20
114.511781
 30
0.0
 11
52.401263
 21
114.194243
 31
0.0
  0
LINE
  5
6C
330
65
100
AcDbEntity
  8
003
 62
     3
370
    30
100
AcDbLine
 10
54.453855
 20
113.644253
 30
0.0
 11
53.586328
 21
114.511781
 31
0.0
  0
LINE
  5
6D
330
65
100
AcDbEntity
  8
003
 62
     3
370
    30
100
AcDbLine
 10
52.083726
 20
113.009179
 30
0.0
 11
52.951253
 21
112.141651
 31
0.0
  0
CIRCLE
  5
6E
330
65
100
AcDbEntity
  8
003
 62
     3
370
    30
100
AcDbCircle
 10
53.26879
 20
113.326716
 30
0.0
 40
1.0625
  0
ENDBLK
  5
67
330
65
100
AcDbEntity
  8
0
100
AcDbBlockEnd
  0
BLOCK
  5
70
330
6F
100
AcDbEntity
  8
0
100
AcDbBlockBegin
  2
JZB-4
 70
     0
 10
0.0
 20
0.0
 30
0.0
  3
JZB-4
  1

  0
LINE
  5
72
330
6F
100
AcDbEntity
  8
003
 62
     3
370
    30
100
AcDbLine
 10
50.09254
 20
106.077032
 30
0.0
 11
49.479105
 21
107.139532
 31
0.0
  0
LINE
  5
73
330
6F
100
AcDbEntity
  8
003
 62
     3
370
    30
100
AcDbLine
 10
51.932844
 20
107.139532
 30
0.0
 11
51.319409
 21
108.202032
 31
0.0
  0
LINE
  5
74
330
6F
100
AcDbEntity
  8
003
 62
     3
370
    30
100
AcDbLine
 10
51.319409
 20
106.077032
 30
0.0
 11
51.932844
 21
107.139532
 31
0.0
  0
LINE
  5
75
330
6F
100
AcDbEntity
  8
003
 62
     3
370
    30
100
AcDbLine
 10
50.09254
 20
108.202032
 30
0.0
 11
49.479105
 21
107.139532
 31
0.0
  0
LINE
  5
76
330
6F
100
AcDbEntity
  8
003
 62
     3
370
    30
100
AcDbLine
 10
51.319409
 20
108.202032
 30
0.0
 11
50.09254
 21
108.202032
 31
0.0
  0
LINE
  5
77
330
6F
100
AcDbEntity
  8
003
 62
     3
370
    30
100
AcDbLine
 10
50.09254
 20
106.077032
 30
0.0
 11
51.319409
 21
106.077032
 31
0.0
  0
CIRCLE
  5
78
330
6F
100
AcDbEntity
  8
003
 62
     3
370
    30
100
AcDbCircle
 10
50.705975
 20
107.139532
 30
0.0
 40
1.0625
  0
ENDBLK
  5
71
330
6F
100
AcDbEntity
  8
0
100
AcDbBlockEnd
  0
BLOCK
  5
7A
330
79
100
AcDbEntity
  8
0
100
AcDbBlockBegin
  2
JZB-5
 70
     0
 10
0.0
 20
0.0
 30
0.0
  3
JZB-5
  1

  0
LINE
  5
7C
330
79
100
AcDbEntity
  8
003
 62
     3
370
    30
100
AcDbLine
 10
53.586328
 20
99.767282
 30
0.0
 11
52.401263
 21
100.08482
 31
0.0
  0
LINE
  5
7D
330
79
100
AcDbEntity
  8
003
 62
     3
370
    30
100
AcDbLine
 10
54.136318
 20
101.819875
 30
0.0
 11
52.951253
 21
102.137412
 31
0.0
  0
LINE
  5
7E
330
79
100
AcDbEntity
  8
003
 62
     3
370
    30
100
AcDbLine
 10
54.453855
 20
100.63481
 30
0.0
 11
54.136318
 21
101.819875
 31
0.0
  0
LINE
  5
7F
330
79
100
AcDbEntity
  8
003
 62
     3
370
    30
100
AcDbLine
 10
52.083726
 20
101.269884
 30
0.0
 11
52.401263
 21
100.08482
 31
0.0
  0
LINE
  5
80
330
79
100
AcDbEntity
  8
003
 62
     3
370
    30
100
AcDbLine
 10
52.951253
 20
102.137412
 30
0.0
 11
52.083726
 21
101.269884
 31
0.0
  0
LINE
  5
81
330
79
100
AcDbEntity
  8
003
 62
     3
370
    30
100
AcDbLine
 10
53.586328
 20
99.767282
 30
0.0
 11
54.453855
 21
100.63481
 31
0.0
  0
CIRCLE
  5
82
330
79
100
AcDbEntity
  8
003
 62
     3
370
    30
100
AcDbCircle
 10
53.26879
 20
100.952347
 30
0.0
 40
1.0625
  0
ENDBLK
  5
7B
330
79
100
AcDbEntity
  8
0
100
AcDbBlockEnd
  0
BLOCK
  5
84
330
83
100
AcDbEntity
  8
0
100
AcDbBlockBegin
  2
JZB-6
 70
     0
 10
0.0
 20
0.0
 30
0.0
  3
JZB-6
  1

  0
LINE
  5
86
330
83
100
AcDbEntity
  8
003
 62
     3
370
    30
100
AcDbLine
 10
60.518475
 20
97.776097
 30
0.0
 11
59.455975
 21
97.162662
 31
0.0
  0
LINE
  5
87
330
83
100
AcDbEntity
  8
003
 62
     3
370
    30
100
AcDbLine
 10
59.455975
 20
99.616401
 30
0.0
 11
58.393475
 21
99.002966
 31
0.0
  0
LINE
  5
88
330
83
100
AcDbEntity
  8
003
 62
     3
370
    30
100
AcDbLine
 10
60.518475
 20
99.002966
 30
0.0
 11
59.455975
 21
99.616401
 31
0.0
  0
LINE
  5
89
330
83
100
AcDbEntity
  8
003
 62
     3
370
    30
100
AcDbLine
 10
58.393475
 20
97.776097
 30
0.0
 11
59.455975
 21
97.162662
 31
0.0
  0
LINE
  5
8A
330
83
100
AcDbEntity
  8
003
 62
     3
370
    30
100
AcDbLine
 10
58.393475
 20
99.002966
 30
0.0
 11
58.393475
 21
97.776097
 31
0.0
  0
LINE
  5
8B
330
83
100
AcDbEntity
  8
003
 62
     3
370
    30
100
AcDbLine
 10
60.518475
 20
97.776097
 30
0.0
 11
60.518475
 21
99.002966
 31
0.0
  0
CIRCLE
  5
8C
330
83
100
AcDbEntity
  8
003
 62
     3
370
    30
100
AcDbCircle
 10
59.455975
 20
98.389532
 30
0.0
 40
1.0625
  0
ENDBLK
  5
85
330
83
100
AcDbEntity
  8
0
100
AcDbBlockEnd
  0
BLOCK
  5
8E
330
8D
100
AcDbEntity
  8
0
100
AcDbBlockBegin
  2
JZB-7
 70
     0
 10
0.0
 20
0.0
 30
0.0
  3
JZB-7
  1

  0
LINE
  5
90
330
8D
100
AcDbEntity
  8
003
 62
     3
370
    30
100
AcDbLine
 10
66.828224
 20
101.269884
 30
0.0
 11
66.510687
 21
100.08482
 31
0.0
  0
LINE
  5
91
330
8D
100
AcDbEntity
  8
003
 62
     3
370
    30
100
AcDbLine
 10
64.775632
 20
101.819875
 30
0.0
 11
64.458094
 21
100.63481
 31
0.0
  0
LINE
  5
92
330
8D
100
AcDbEntity
  8
003
 62
     3
370
    30
100
AcDbLine
 10
65.960696
 20
102.137412
 30
0.0
 11
64.775632
 21
101.819875
 31
0.0
  0
LINE
  5
93
330
8D
100
AcDbEntity
  8
003
 62
     3
370
    30
100
AcDbLine
 10
65.325622
 20
99.767282
 30
0.0
 11
66.510687
 21
100.08482
 31
0.0
  0
LINE
  5
94
330
8D
100
AcDbEntity
  8
003
 62
     3
370
    30
100
AcDbLine
 10
64.458094
 20
100.63481
 30
0.0
 11
65.325622
 21
99.767282
 31
0.0
  0
LINE
  5
95
330
8D
100
AcDbEntity
  8
003
 62
     3
370
    30
100
AcDbLine
 10
66.828224
 20
101.269884
 30
0.0
 11
65.960696
 21
102.137412
 31
0.0
  0
CIRCLE
  5
96
330
8D
100
AcDbEntity
  8
003
 62
     3
370
    30
100
AcDbCircle
 10
65.643159
 20
100.952347
 30
0.0
 40
1.0625
  0
ENDBLK
  5
8F
330
8D
100
AcDbEntity
  8
0
100
AcDbBlockEnd
  0
BLOCK
  5
98
330
97
100
AcDbEntity
  8
0
100
AcDbBlockBegin
  2
JZB-8
 70
     0
 10
0.0
 20
0.0
 30
0.0
  3
JZB-8
  1

  0
LINE
  5
9A
330
97
100
AcDbEntity
  8
003
 62
     3
370
    30
100
AcDbLine
 10
68.819409
 20
108.202032
 30
0.0
 11
69.432844
 21
107.139532
 31
0.0
  0
LINE
  5
9B
330
97
100
AcDbEntity
  8
003
 62
     3
370
    30
100
AcDbLine
 10
66.979105
 20
107.139532
 30
0.0
 11
67.59254
 21
106.077032
 31
0.0
  0
LINE
  5
9C
330
97
100
AcDbEntity
  8
003
 62
     3
370
    30
100
AcDbLine
 10
67.59254
 20
108.202032
 30
0.0
 11
66.979105
 21
107.139532
 31
0.0
  0
LINE
  5
9D
330
97
100
AcDbEntity
  8
003
 62
     3
370
    30
100
AcDbLine
 10
68.819409
 20
106.077032
 30
0.0
 11
69.432844
 21
107.139532
 31
0.0
  0
LINE
  5
9E
330
97
100
AcDbEntity
  8
003
 62
     3
370
    30
100
AcDbLine
 10
67.59254
 20
106.077032
 30
0.0
 11
68.819409
 21
106.077032
 31
0.0
  0
LINE
  5
9F
330
97
100
AcDbEntity
  8
003
 62
     3
370
    30
100
AcDbLine
 10
68.819409
 20
108.202032
 30
0.0
 11
67.59254
 21
108.202032
 31
0.0
  0
CIRCLE
  5
A0
330
97
100
AcDbEntity
  8
003
 62
     3
370
    30
100
AcDbCircle
 10
68.205975
 20
107.139532
 30
0.0
 40
1.0625
  0
ENDBLK
  5
99
330
97
100
AcDbEntity
  8
0
100
AcDbBlockEnd
  0
BLOCK
  5
A2
330
A1
100
AcDbEntity
  8
0
100
AcDbBlockBegin
  2
JZB-9
 70
     0
 10
0.0
 20
0.0
 30
0.0
  3
JZB-9
  1

  0
LINE
  5
A4
330
A1
100
AcDbEntity
  8
003
 62
     3
370
    30
100
AcDbLine
 10
65.325622
 20
114.511781
 30
0.0
 11
66.510687
 21
114.194243
 31
0.0
  0
LINE
  5
A5
330
A1
100
AcDbEntity
  8
003
 62
     3
370
    30
100
AcDbLine
 10
64.775632
 20
112.459188
 30
0.0
 11
65.960696
 21
112.141651
 31
0.0
  0
LINE
  5
A6
330
A1
100
AcDbEntity
  8
003
 62
     3
370
    30
100
AcDbLine
 10
64.458094
 20
113.644253
 30
0.0
 11
64.775632
 21
112.459188
 31
0.0
  0
LINE
  5
A7
330
A1
100
AcDbEntity
  8
003
 62
     3
370
    30
100
AcDbLine
 10
66.828224
 20
113.009179
 30
0.0
 11
66.510687
 21
114.194243
 31
0.0
  0
LINE
  5
A8
330
A1
100
AcDbEntity
  8
003
 62
     3
370
    30
100
AcDbLine
 10
65.960696
 20
112.141651
 30
0.0
 11
66.828224
 21
113.009179
 31
0.0
  0
LINE
  5
A9
330
A1
100
AcDbEntity
  8
003
 62
     3
370
    30
100
AcDbLine
 10
65.325622
 20
114.511781
 30
0.0
 11
64.458094
 21
113.644253
 31
0.0
  0
CIRCLE
  5
AA
330
A1
100
AcDbEntity
  8
003
 62
     3
370
    30
100
AcDbCircle
 10
65.643159
 20
113.326716
 30
0.0
 40
1.0625
  0
ENDBLK
  5
A3
330
A1
100
AcDbEntity
  8
0
100
AcDbBlockEnd
  0
BLOCK
  5
AC
330
AB
100
AcDbEntity
  8
0
100
AcDbBlockBegin
  2
JZB-10
 70
     0
 10
0.0
 20
0.0
 30
0.0
  3
JZB-10
  1

  0
LINE
  5
AE
330
AB
100
AcDbEntity
  8
003
 62
     3
370
    30
100
AcDbLine
 10
58.393475
 20
116.502966
 30
0.0
 11
59.455975
 21
117.116401
 31
0.0
  0
LINE
  5
AF
330
AB
100
AcDbEntity
  8
003
 62
     3
370
    30
100
AcDbLine
 10
59.455975
 20
114.662662
 30
0.0
 11
60.518475
 21
115.276097
 31
0.0
  0
LINE
  5
B0
330
AB
100
AcDbEntity
  8
003
 62
     3
370
    30
100
AcDbLine
 10
58.393475
 20
115.276097
 30
0.0
 11
59.455975
 21
114.662662
 31
0.0
  0
LINE
  5
B1
330
AB
100
AcDbEntity
  8
003
 62
     3
370
    30
100
AcDbLine
 10
60.518475
 20
116.502966
 30
0.0
 11
59.455975
 21
117.116401
 31
0.0
  0
LINE
  5
B2
330
AB
100
AcDbEntity
  8
003
 62
     3
370
    30
100
AcDbLine
 10
60.518475
 20
115.276097
 30
0.0
 11
60.518475
 21
116.502966
 31
0.0
  0
LINE
  5
B3
330
AB
100
AcDbEntity
  8
003
 62
     3
370
    30
100
AcDbLine
 10
58.393475
 20
116.502966
 30
0.0
 11
58.393475
 21
115.276097
 31
0.0
  0
CIRCLE
  5
B4
330
AB
100
AcDbEntity
  8
003
 62
     3
370
    30
100
AcDbCircle
 10
59.455975
 20
115.889532
 30
0.0
 40
1.0625
  0
ENDBLK
  5
AD
330
AB
100
AcDbEntity
  8
0
100
AcDbBlockEnd
  0
BLOCK
  5
B6
330
B5
100
AcDbEntity
  8
0
100
AcDbBlockBegin
  2
JZB-11
 70
     0
 10
0.0
 20
0.0
 30
0.0
  3
JZB-11
  1

  0
LINE
  5
B8
330
B5
100
AcDbEntity
  8
003
 62
     3
370
    30
100
AcDbLine
 10
156.25998
 20
113.009179
 30
0.0
 11
156.577517
 21
114.194243
 31
0.0
  0
LINE
  5
B9
330
B5
100
AcDbEntity
  8
003
 62
     3
370
    30
100
AcDbLine
 10
158.312572
 20
112.459188
 30
0.0
 11
158.630109
 21
113.644253
 31
0.0
  0
LINE
  5
BA
330
B5
100
AcDbEntity
  8
003
 62
     3
370
    30
100
AcDbLine
 10
157.127507
 20
112.141651
 30
0.0
 11
158.312572
 21
112.459188
 31
0.0
  0
LINE
  5
BB
330
B5
100
AcDbEntity
  8
003
 62
     3
370
    30
100
AcDbLine
 10
157.762582
 20
114.511781
 30
0.0
 11
156.577517
 21
114.194243
 31
0.0
  0
LINE
  5
BC
330
B5
100
AcDbEntity
  8
003
 62
     3
370
    30
100
AcDbLine
 10
158.630109
 20
113.644253
 30
0.0
 11
157.762582
 21
114.511781
 31
0.0
  0
LINE
  5
BD
330
B5
100
AcDbEntity
  8
003
 62
     3
370
    30
100
AcDbLine
 10
156.25998
 20
113.009179
 30
0.0
 11
157.127507
 21
112.141651
 31
0.0
  0
CIRCLE
  5
BE
330
B5
100
AcDbEntity
  8
003
 62
     3
370
    30
100
AcDbCircle
 10
157.445044
 20
113.326716
 30
0.0
 40
1.0625
  0
ENDBLK
  5
B7
330
B5
100
AcDbEntity
  8
0
100
AcDbBlockEnd
  0
BLOCK
  5
C0
330
BF
100
AcDbEntity
  8
0
100
AcDbBlockBegin
  2
JZB-12
 70
     0
 10
0.0
 20
0.0
 30
0.0
  3
JZB-12
  1

  0
LINE
  5
C2
330
BF
100
AcDbEntity
  8
003
 62
     3
370
    30
100
AcDbLine
 10
154.268794
 20
106.077032
 30
0.0
 11
153.655359
 21
107.139532
 31
0.0
  0
LINE
  5
C3
330
BF
100
AcDbEntity
  8
003
 62
     3
370
    30
100
AcDbLine
 10
156.109098
 20
107.139532
 30
0.0
 11
155.495663
 21
108.202032
 31
0.0
  0
LINE
  5
C4
330
BF
100
AcDbEntity
  8
003
 62
     3
370
    30
100
AcDbLine
 10
155.495663
 20
106.077032
 30
0.0
 11
156.109098
 21
107.139532
 31
0.0
  0
LINE
  5
C5
330
BF
100
AcDbEntity
  8
003
 62
     3
370
    30
100
AcDbLine
 10
154.268794
 20
108.202032
 30
0.0
 11
153.655359
 21
107.139532
 31
0.0
  0
LINE
  5
C6
330
BF
100
AcDbEntity
  8
003
 62
     3
370
    30
100
AcDbLine
 10
155.495663
 20
108.202032
 30
0.0
 11
154.268794
 21
108.202032
 31
0.0
  0
LINE
  5
C7
330
BF
100
AcDbEntity
  8
003
 62
     3
370
    30
100
AcDbLine
 10
154.268794
 20
106.077032
 30
0.0
 11
155.495663
 21
106.077032
 31
0.0
  0
CIRCLE
  5
C8
330
BF
100
AcDbEntity
  8
003
 62
     3
370
    30
100
AcDbCircle
 10
154.882229
 20
107.139532
 30
0.0
 40
1.0625
  0
ENDBLK
  5
C1
330
BF
100
AcDbEntity
  8
0
100
AcDbBlockEnd
  0
BLOCK
  5
CA
330
C9
100
AcDbEntity
  8
0
100
AcDbBlockBegin
  2
JZB-13
 70
     0
 10
0.0
 20
0.0
 30
0.0
  3
JZB-13
  1

  0
LINE
  5
CC
330
C9
100
AcDbEntity
  8
003
 62
     3
370
    30
100
AcDbLine
 10
157.762582
 20
99.767282
 30
0.0
 11
156.577517
 21
100.08482
 31
0.0
  0
LINE
  5
CD
330
C9
100
AcDbEntity
  8
003
 62
     3
370
    30
100
AcDbLine
 10
158.312572
 20
101.819875
 30
0.0
 11
157.127507
 21
102.137412
 31
0.0
  0
LINE
  5
CE
330
C9
100
AcDbEntity
  8
003
 62
     3
370
    30
100
AcDbLine
 10
158.630109
 20
100.63481
 30
0.0
 11
158.312572
 21
101.819875
 31
0.0
  0
LINE
  5
CF
330
C9
100
AcDbEntity
  8
003
 62
     3
370
    30
100
AcDbLine
 10
156.25998
 20
101.269884
 30
0.0
 11
156.577517
 21
100.08482
 31
0.0
  0
LINE
  5
D0
330
C9
100
AcDbEntity
  8
003
 62
     3
370
    30
100
AcDbLine
 10
157.127507
 20
102.137412
 30
0.0
 11
156.25998
 21
101.269884
 31
0.0
  0
LINE
  5
D1
330
C9
100
AcDbEntity
  8
003
 62
     3
370
    30
100
AcDbLine
 10
157.762582
 20
99.767282
 30
0.0
 11
158.630109
 21
100.63481
 31
0.0
  0
CIRCLE
  5
D2
330
C9
100
AcDbEntity
  8
003
 62
     3
370
    30
100
AcDbCircle
 10
157.445044
 20
100.952347
 30
0.0
 40
1.0625
  0
ENDBLK
  5
CB
330
C9
100
AcDbEntity
  8
0
100
AcDbBlockEnd
  0
BLOCK
  5
D4
330
D3
100
AcDbEntity
  8
0
100
AcDbBlockBegin
  2
JZB-14
 70
     0
 10
0.0
 20
0.0
 30
0.0
  3
JZB-14
  1

  0
LINE
  5
D6
330
D3
100
AcDbEntity
  8
003
 62
     3
370
    30
100
AcDbLine
 10
164.694729
 20
97.776097
 30
0.0
 11
163.632229
 21
97.162662
 31
0.0
  0
LINE
  5
D7
330
D3
100
AcDbEntity
  8
003
 62
     3
370
    30
100
AcDbLine
 10
163.632229
 20
99.616401
 30
0.0
 11
162.569729
 21
99.002966
 31
0.0
  0
LINE
  5
D8
330
D3
100
AcDbEntity
  8
003
 62
     3
370
    30
100
AcDbLine
 10
164.694729
 20
99.002966
 30
0.0
 11
163.632229
 21
99.616401
 31
0.0
  0
LINE
  5
D9
330
D3
100
AcDbEntity
  8
003
 62
     3
370
    30
100
AcDbLine
 10
162.569729
 20
97.776097
 30
0.0
 11
163.632229
 21
97.162662
 31
0.0
  0
LINE
  5
DA
330
D3
100
AcDbEntity
  8
003
 62
     3
370
    30
100
AcDbLine
 10
162.569729
 20
99.002966
 30
0.0
 11
162.569729
 21
97.776097
 31
0.0
  0
LINE
  5
DB
330
D3
100
AcDbEntity
  8
003
 62
     3
370
    30
100
AcDbLine
 10
164.694729
 20
97.776097
 30
0.0
 11
164.694729
 21
99.002966
 31
0.0
  0
CIRCLE
  5
DC
330
D3
100
AcDbEntity
  8
003
 62
     3
370
    30
100
AcDbCircle
 10
163.632229
 20
98.389532
 30
0.0
 40
1.0625
  0
ENDBLK
  5
D5
330
D3
100
AcDbEntity
  8
0
100
AcDbBlockEnd
  0
BLOCK
  5
DE
330
DD
100
AcDbEntity
  8
0
100
AcDbBlockBegin
  2
JZB-15
 70
     0
 10
0.0
 20
0.0
 30
0.0
  3
JZB-15
  1

  0
LINE
  5
E0
330
DD
100
AcDbEntity
  8
003
 62
     3
370
    30
100
AcDbLine
 10
171.004478
 20
101.269884
 30
0.0
 11
170.686941
 21
100.08482
 31
0.0
  0
LINE
  5
E1
330
DD
100
AcDbEntity
  8
003
 62
     3
370
    30
100
AcDbLine
 10
168.951885
 20
101.819875
 30
0.0
 11
168.634348
 21
100.63481
 31
0.0
  0
LINE
  5
E2
330
DD
100
AcDbEntity
  8
003
 62
     3
370
    30
100
AcDbLine
 10
170.13695
 20
102.137412
 30
0.0
 11
168.951885
 21
101.819875
 31
0.0
  0
LINE
  5
E3
330
DD
100
AcDbEntity
  8
003
 62
     3
370
    30
100
AcDbLine
 10
169.501876
 20
99.767282
 30
0.0
 11
170.686941
 21
100.08482
 31
0.0
  0
LINE
  5
E4
330
DD
100
AcDbEntity
  8
003
 62
     3
370
    30
100
AcDbLine
 10
168.634348
 20
100.63481
 30
0.0
 11
169.501876
 21
99.767282
 31
0.0
  0
LINE
  5
E5
330
DD
100
AcDbEntity
  8
003
 62
     3
370
    30
100
AcDbLine
 10
171.004478
 20
101.269884
 30
0.0
 11
170.13695
 21
102.137412
 31
0.0
  0
CIRCLE
  5
E6
330
DD
100
AcDbEntity
  8
003
 62
     3
370
    30
100
AcDbCircle
 10
169.819413
 20
100.952347
 30
0.0
 40
1.0625
  0
ENDBLK
  5
DF
330
DD
100
AcDbEntity
  8
0
100
AcDbBlockEnd
  0
BLOCK
  5
E8
330
E7
100
AcDbEntity
  8
0
100
AcDbBlockBegin
  2
JZB-16
 70
     0
 10
0.0
 20
0.0
 30
0.0
  3
JZB-16
  1

  0
LINE
  5
EA
330
E7
100
AcDbEntity
  8
003
 62
     3
370
    30
100
AcDbLine
 10
172.995663
 20
108.202032
 30
0.0
 11
173.609098
 21
107.139532
 31
0.0
  0
LINE
  5
EB
330
E7
100
AcDbEntity
  8
003
 62
     3
370
    30
100
AcDbLine
 10
171.155359
 20
107.139532
 30
0.0
 11
171.768794
 21
106.077032
 31
0.0
  0
LINE
  5
EC
330
E7
100
AcDbEntity
  8
003
 62
     3
370
    30
100
AcDbLine
 10
171.768794
 20
108.202032
 30
0.0
 11
171.155359
 21
107.139532
 31
0.0
  0
LINE
  5
ED
330
E7
100
AcDbEntity
  8
003
 62
     3
370
    30
100
AcDbLine
 10
172.995663
 20
106.077032
 30
0.0
 11
173.609098
 21
107.139532
 31
0.0
  0
LINE
  5
EE
330
E7
100
AcDbEntity
  8
003
 62
     3
370
    30
100
AcDbLine
 10
171.768794
 20
106.077032
 30
0.0
 11
172.995663
 21
106.077032
 31
0.0
  0
LINE
  5
EF
330
E7
100
AcDbEntity
  8
003
 62
     3
370
    30
100
AcDbLine
 10
172.995663
 20
108.202032
 30
0.0
 11
171.768794
 21
108.202032
 31
0.0
  0
CIRCLE
  5
F0
330
E7
100
AcDbEntity
  8
003
 62
     3
370
    30
100
AcDbCircle
 10
172.382229
 20
107.139532
 30
0.0
 40
1.0625
  0
ENDBLK
  5
E9
330
E7
100
AcDbEntity
  8
0
100
AcDbBlockEnd
  0
BLOCK
  5
F2
330
F1
100
AcDbEntity
  8
0
100
AcDbBlockBegin
  2
JZB-17
 70
     0
 10
0.0
 20
0.0
 30
0.0
  3
JZB-17
  1

  0
LINE
  5
F4
330
F1
100
AcDbEntity
  8
003
 62
     3
370
    30
100
AcDbLine
 10
169.501876
 20
114.511781
 30
0.0
 11
170.686941
 21
114.194243
 31
0.0
  0
LINE
  5
F5
330
F1
100
AcDbEntity
  8
003
 62
     3
370
    30
100
AcDbLine
 10
168.951885
 20
112.459188
 30
0.0
 11
170.13695
 21
112.141651
 31
0.0
  0
LINE
  5
F6
330
F1
100
AcDbEntity
  8
003
 62
     3
370
    30
100
AcDbLine
 10
168.634348
 20
113.644253
 30
0.0
 11
168.951885
 21
112.459188
 31
0.0
  0
LINE
  5
F7
330
F1
100
AcDbEntity
  8
003
 62
     3
370
    30
100
AcDbLine
 10
171.004478
 20
113.009179
 30
0.0
 11
170.686941
 21
114.194243
 31
0.0
  0
LINE
  5
F8
330
F1
100
AcDbEntity
  8
003
 62
     3
370
    30
100
AcDbLine
 10
170.13695
 20
112.141651
 30
0.0
 11
171.004478
 21
113.009179
 31
0.0
  0
LINE
  5
F9
330
F1
100
AcDbEntity
  8
003
 62
     3
370
    30
100
AcDbLine
 10
169.501876
 20
114.511781
 30
0.0
 11
168.634348
 21
113.644253
 31
0.0
  0
CIRCLE
  5
FA
330
F1
100
AcDbEntity
  8
003
 62
     3
370
    30
100
AcDbCircle
 10
169.819413
 20
113.326716
 30
0.0
 40
1.0625
  0
ENDBLK
  5
F3
330
F1
100
AcDbEntity
  8
0
100
AcDbBlockEnd
  0
BLOCK
  5
FC
330
FB
100
AcDbEntity
  8
0
100
AcDbBlockBegin
  2
JZB-18
 70
     0
 10
0.0
 20
0.0
 30
0.0
  3
JZB-18
  1

  0
LINE
  5
FE
330
FB
100
AcDbEntity
  8
003
 62
     3
370
    30
100
AcDbLine
 10
162.569729
 20
116.502966
 30
0.0
 11
163.632229
 21
117.116401
 31
0.0
  0
LINE
  5
FF
330
FB
100
AcDbEntity
  8
003
 62
     3
370
    30
100
AcDbLine
 10
163.632229
 20
114.662662
 30
0.0
 11
164.694729
 21
115.276097
 31
0.0
  0
LINE
  5
100
330
FB
100
AcDbEntity
  8
003
 62
     3
370
    30
100
AcDbLine
 10
162.569729
 20
115.276097
 30
0.0
 11
163.632229
 21
114.662662
 31
0.0
  0
LINE
  5
101
330
FB
100
AcDbEntity
  8
003
 62
     3
370
    30
100
AcDbLine
 10
164.694729
 20
116.502966
 30
0.0
 11
163.632229
 21
117.116401
 31
0.0
  0
LINE
  5
102
330
FB
100
AcDbEntity
  8
003
 62
     3
370
    30
100
AcDbLine
 10
164.694729
 20
115.276097
 30
0.0
 11
164.694729
 21
116.502966
 31
0.0
  0
LINE
  5
103
330
FB
100
AcDbEntity
  8
003
 62
     3
370
    30
100
AcDbLine
 10
162.569729
 20
116.502966
 30
0.0
 11
162.569729
 21
115.276097
 31
0.0
  0
CIRCLE
  5
104
330
FB
100
AcDbEntity
  8
003
 62
     3
370
    30
100
AcDbCircle
 10
163.632229
 20
115.889532
 30
0.0
 40
1.0625
  0
ENDBLK
  5
FD
330
FB
100
AcDbEntity
  8
0
100
AcDbBlockEnd
  0
BLOCK
  5
106
330
105
100
AcDbEntity
  8
0
100
AcDbBlockBegin
  2
JZB-19
 70
     0
 10
0.0
 20
0.0
 30
0.0
  3
JZB-19
  1

  0
LINE
  5
108
330
105
100
AcDbEntity
  8
003
 62
     3
370
    30
100
AcDbLine
 10
216.619934
 20
113.009179
 30
0.0
 11
216.937471
 21
114.194243
 31
0.0
  0
LINE
  5
109
330
105
100
AcDbEntity
  8
003
 62
     3
370
    30
100
AcDbLine
 10
218.672526
 20
112.459188
 30
0.0
 11
218.990063
 21
113.644253
 31
0.0
  0
LINE
  5
10A
330
105
100
AcDbEntity
  8
003
 62
     3
370
    30
100
AcDbLine
 10
217.487462
 20
112.141651
 30
0.0
 11
218.672526
 21
112.459188
 31
0.0
  0
LINE
  5
10B
330
105
100
AcDbEntity
  8
003
 62
     3
370
    30
100
AcDbLine
 10
218.122536
 20
114.511781
 30
0.0
 11
216.937471
 21
114.194243
 31
0.0
  0
LINE
  5
10C
330
105
100
AcDbEntity
  8
003
 62
     3
370
    30
100
AcDbLine
 10
218.990063
 20
113.644253
 30
0.0
 11
218.122536
 21
114.511781
 31
0.0
  0
LINE
  5
10D
330
105
100
AcDbEntity
  8
003
 62
     3
370
    30
100
AcDbLine
 10
216.619934
 20
113.009179
 30
0.0
 11
217.487462
 21
112.141651
 31
0.0
  0
CIRCLE
  5
10E
330
105
100
AcDbEntity
  8
003
 62
     3
370
    30
100
AcDbCircle
 10
217.804999
 20
113.326716
 30
0.0
 40
1.0625
  0
ENDBLK
  5
107
330
105
100
AcDbEntity
  8
0
100
AcDbBlockEnd
  0
BLOCK
  5
110
330
10F
100
AcDbEntity
  8
0
100
AcDbBlockBegin
  2
JZB-20
 70
     0
 10
0.0
 20
0.0
 30
0.0
  3
JZB-20
  1

  0
LINE
  5
112
330
10F
100
AcDbEntity
  8
003
 62
     3
370
    30
100
AcDbLine
 10
214.628748
 20
106.077032
 30
0.0
 11
214.015314
 21
107.139532
 31
0.0
  0
LINE
  5
113
330
10F
100
AcDbEntity
  8
003
 62
     3
370
    30
100
AcDbLine
 10
216.469052
 20
107.139532
 30
0.0
 11
215.855618
 21
108.202032
 31
0.0
  0
LINE
  5
114
330
10F
100
AcDbEntity
  8
003
 62
     3
370
    30
100
AcDbLine
 10
215.855618
 20
106.077032
 30
0.0
 11
216.469052
 21
107.139532
 31
0.0
  0
LINE
  5
115
330
10F
100
AcDbEntity
  8
003
 62
     3
370
    30
100
AcDbLine
 10
214.628748
 20
108.202032
 30
0.0
 11
214.015314
 21
107.139532
 31
0.0
  0
LINE
  5
116
330
10F
100
AcDbEntity
  8
003
 62
     3
370
    30
100
AcDbLine
 10
215.855618
 20
108.202032
 30
0.0
 11
214.628748
 21
108.202032
 31
0.0
  0
LINE
  5
117
330
10F
100
AcDbEntity
  8
003
 62
     3
370
    30
100
AcDbLine
 10
214.628748
 20
106.077032
 30
0.0
 11
215.855618
 21
106.077032
 31
0.0
  0
CIRCLE
  5
118
330
10F
100
AcDbEntity
  8
003
 62
     3
370
    30
100
AcDbCircle
 10
215.242183
 20
107.139532
 30
0.0
 40
1.0625
  0
ENDBLK
  5
111
330
10F
100
AcDbEntity
  8
0
100
AcDbBlockEnd
  0
BLOCK
  5
11A
330
119
100
AcDbEntity
  8
0
100
AcDbBlockBegin
  2
JZB-21
 70
     0
 10
0.0
 20
0.0
 30
0.0
  3
JZB-21
  1

  0
LINE
  5
11C
330
119
100
AcDbEntity
  8
003
 62
     3
370
    30
100
AcDbLine
 10
218.122536
 20
99.767282
 30
0.0
 11
216.937471
 21
100.08482
 31
0.0
  0
LINE
  5
11D
330
119
100
AcDbEntity
  8
003
 62
     3
370
    30
100
AcDbLine
 10
218.672526
 20
101.819875
 30
0.0
 11
217.487462
 21
102.137412
 31
0.0
  0
LINE
  5
11E
330
119
100
AcDbEntity
  8
003
 62
     3
370
    30
100
AcDbLine
 10
218.990063
 20
100.63481
 30
0.0
 11
218.672526
 21
101.819875
 31
0.0
  0
LINE
  5
11F
330
119
100
AcDbEntity
  8
003
 62
     3
370
    30
100
AcDbLine
 10
216.619934
 20
101.269884
 30
0.0
 11
216.937471
 21
100.08482
 31
0.0
  0
LINE
  5
120
330
119
100
AcDbEntity
  8
003
 62
     3
370
    30
100
AcDbLine
 10
217.487462
 20
102.137412
 30
0.0
 11
216.619934
 21
101.269884
 31
0.0
  0
LINE
  5
121
330
119
100
AcDbEntity
  8
003
 62
     3
370
    30
100
AcDbLine
 10
218.122536
 20
99.767282
 30
0.0
 11
218.990063
 21
100.63481
 31
0.0
  0
CIRCLE
  5
122
330
119
100
AcDbEntity
  8
003
 62
     3
370
    30
100
AcDbCircle
 10
217.804999
 20
100.952347
 30
0.0
 40
1.0625
  0
ENDBLK
  5
11B
330
119
100
AcDbEntity
  8
0
100
AcDbBlockEnd
  0
BLOCK
  5
124
330
123
100
AcDbEntity
  8
0
100
AcDbBlockBegin
  2
JZB-22
 70
     0
 10
0.0
 20
0.0
 30
0.0
  3
JZB-22
  1

  0
LINE
  5
126
330
123
100
AcDbEntity
  8
003
 62
     3
370
    30
100
AcDbLine
 10
225.054683
 20
97.776097
 30
0.0
 11
223.992183
 21
97.162662
 31
0.0
  0
LINE
  5
127
330
123
100
AcDbEntity
  8
003
 62
     3
370
    30
100
AcDbLine
 10
223.992183
 20
99.616401
 30
0.0
 11
222.929683
 21
99.002966
 31
0.0
  0
LINE
  5
128
330
123
100
AcDbEntity
  8
003
 62
     3
370
    30
100
AcDbLine
 10
225.054683
 20
99.002966
 30
0.0
 11
223.992183
 21
99.616401
 31
0.0
  0
LINE
  5
129
330
123
100
AcDbEntity
  8
003
 62
     3
370
    30
100
AcDbLine
 10
222.929683
 20
97.776097
 30
0.0
 11
223.992183
 21
97.162662
 31
0.0
  0
LINE
  5
12A
330
123
100
AcDbEntity
  8
003
 62
     3
370
    30
100
AcDbLine
 10
222.929683
 20
99.002966
 30
0.0
 11
222.929683
 21
97.776097
 31
0.0
  0
LINE
  5
12B
330
123
100
AcDbEntity
  8
003
 62
     3
370
    30
100
AcDbLine
 10
225.054683
 20
97.776097
 30
0.0
 11
225.054683
 21
99.002966
 31
0.0
  0
CIRCLE
  5
12C
330
123
100
AcDbEntity
  8
003
 62
     3
370
    30
100
AcDbCircle
 10
223.992183
 20
98.389532
 30
0.0
 40
1.0625
  0
ENDBLK
  5
125
330
123
100
AcDbEntity
  8
0
100
AcDbBlockEnd
  0
BLOCK
  5
12E
330
12D
100
AcDbEntity
  8
0
100
AcDbBlockBegin
  2
JZB-23
 70
     0
 10
0.0
 20
0.0
 30
0.0
  3
JZB-23
  1

  0
LINE
  5
130
330
12D
100
AcDbEntity
  8
003
 62
     3
370
    30
100
AcDbLine
 10
231.364432
 20
101.269884
 30
0.0
 11
231.046895
 21
100.08482
 31
0.0
  0
LINE
  5
131
330
12D
100
AcDbEntity
  8
003
 62
     3
370
    30
100
AcDbLine
 10
229.31184
 20
101.819875
 30
0.0
 11
228.994303
 21
100.63481
 31
0.0
  0
LINE
  5
132
330
12D
100
AcDbEntity
  8
003
 62
     3
370
    30
100
AcDbLine
 10
230.496904
 20
102.137412
 30
0.0
 11
229.31184
 21
101.819875
 31
0.0
  0
LINE
  5
133
330
12D
100
AcDbEntity
  8
003
 62
     3
370
    30
100
AcDbLine
 10
229.86183
 20
99.767282
 30
0.0
 11
231.046895
 21
100.08482
 31
0.0
  0
LINE
  5
134
330
12D
100
AcDbEntity
  8
003
 62
     3
370
    30
100
AcDbLine
 10
228.994303
 20
100.63481
 30
0.0
 11
229.86183
 21
99.767282
 31
0.0
  0
LINE
  5
135
330
12D
100
AcDbEntity
  8
003
 62
     3
370
    30
100
AcDbLine
 10
231.364432
 20
101.269884
 30
0.0
 11
230.496904
 21
102.137412
 31
0.0
  0
CIRCLE
  5
136
330
12D
100
AcDbEntity
  8
003
 62
     3
370
    30
100
AcDbCircle
 10
230.179367
 20
100.952347
 30
0.0
 40
1.0625
  0
ENDBLK
  5
12F
330
12D
100
AcDbEntity
  8
0
100
AcDbBlockEnd
  0
BLOCK
  5
138
330
137
100
AcDbEntity
  8
0
100
AcDbBlockBegin
  2
JZB-24
 70
     0
 10
0.0
 20
0.0
 30
0.0
  3
JZB-24
  1

  0
LINE
  5
13A
330
137
100
AcDbEntity
  8
003
 62
     3
370
    30
100
AcDbLine
 10
233.355618
 20
108.202032
 30
0.0
 11
233.969052
 21
107.139532
 31
0.0
  0
LINE
  5
13B
330
137
100
AcDbEntity
  8
003
 62
     3
370
    30
100
AcDbLine
 10
231.515314
 20
107.139532
 30
0.0
 11
232.128748
 21
106.077032
 31
0.0
  0
LINE
  5
13C
330
137
100
AcDbEntity
  8
003
 62
     3
370
    30
100
AcDbLine
 10
232.128748
 20
108.202032
 30
0.0
 11
231.515314
 21
107.139532
 31
0.0
  0
LINE
  5
13D
330
137
100
AcDbEntity
  8
003
 62
     3
370
    30
100
AcDbLine
 10
233.355618
 20
106.077032
 30
0.0
 11
233.969052
 21
107.139532
 31
0.0
  0
LINE
  5
13E
330
137
100
AcDbEntity
  8
003
 62
     3
370
    30
100
AcDbLine
 10
232.128748
 20
106.077032
 30
0.0
 11
233.355618
 21
106.077032
 31
0.0
  0
LINE
  5
13F
330
137
100
AcDbEntity
  8
003
 62
     3
370
    30
100
AcDbLine
 10
233.355618
 20
108.202032
 30
0.0
 11
232.128748
 21
108.202032
 31
0.0
  0
CIRCLE
  5
140
330
137
100
AcDbEntity
  8
003
 62
     3
370
    30
100
AcDbCircle
 10
232.742183
 20
107.139532
 30
0.0
 40
1.0625
  0
ENDBLK
  5
139
330
137
100
AcDbEntity
  8
0
100
AcDbBlockEnd
  0
BLOCK
  5
142
330
141
100
AcDbEntity
  8
0
100
AcDbBlockBegin
  2
JZB-25
 70
     0
 10
0.0
 20
0.0
 30
0.0
  3
JZB-25
  1

  0
LINE
  5
144
330
141
100
AcDbEntity
  8
003
 62
     3
370
    30
100
AcDbLine
 10
229.86183
 20
114.511781
 30
0.0
 11
231.046895
 21
114.194243
 31
0.0
  0
LINE
  5
145
330
141
100
AcDbEntity
  8
003
 62
     3
370
    30
100
AcDbLine
 10
229.31184
 20
112.459188
 30
0.0
 11
230.496904
 21
112.141651
 31
0.0
  0
LINE
  5
146
330
141
100
AcDbEntity
  8
003
 62
     3
370
    30
100
AcDbLine
 10
228.994303
 20
113.644253
 30
0.0
 11
229.31184
 21
112.459188
 31
0.0
  0
LINE
  5
147
330
141
100
AcDbEntity
  8
003
 62
     3
370
    30
100
AcDbLine
 10
231.364432
 20
113.009179
 30
0.0
 11
231.046895
 21
114.194243
 31
0.0
  0
LINE
  5
148
330
141
100
AcDbEntity
  8
003
 62
     3
370
    30
100
AcDbLine
 10
230.496904
 20
112.141651
 30
0.0
 11
231.364432
 21
113.009179
 31
0.0
  0
LINE
  5
149
330
141
100
AcDbEntity
  8
003
 62
     3
370
    30
100
AcDbLine
 10
229.86183
 20
114.511781
 30
0.0
 11
228.994303
 21
113.644253
 31
0.0
  0
CIRCLE
  5
14A
330
141
100
AcDbEntity
  8
003
 62
     3
370
    30
100
AcDbCircle
 10
230.179367
 20
113.326716
 30
0.0
 40
1.0625
  0
ENDBLK
  5
143
330
141
100
AcDbEntity
  8
0
100
AcDbBlockEnd
  0
BLOCK
  5
14C
330
14B
100
AcDbEntity
  8
0
100
AcDbBlockBegin
  2
JZB-26
 70
     0
 10
0.0
 20
0.0
 30
0.0
  3
JZB-26
  1

  0
LINE
  5
14E
330
14B
100
AcDbEntity
  8
003
 62
     3
370
    30
100
AcDbLine
 10
222.929683
 20
116.502966
 30
0.0
 11
223.992183
 21
117.116401
 31
0.0
  0
LINE
  5
14F
330
14B
100
AcDbEntity
  8
003
 62
     3
370
    30
100
AcDbLine
 10
223.992183
 20
114.662662
 30
0.0
 11
225.054683
 21
115.276097
 31
0.0
  0
LINE
  5
150
330
14B
100
AcDbEntity
  8
003
 62
     3
370
    30
100
AcDbLine
 10
222.929683
 20
115.276097
 30
0.0
 11
223.992183
 21
114.662662
 31
0.0
  0
LINE
  5
151
330
14B
100
AcDbEntity
  8
003
 62
     3
370
    30
100
AcDbLine
 10
225.054683
 20
116.502966
 30
0.0
 11
223.992183
 21
117.116401
 31
0.0
  0
LINE
  5
152
330
14B
100
AcDbEntity
  8
003
 62
     3
370
    30
100
AcDbLine
 10
225.054683
 20
115.276097
 30
0.0
 11
225.054683
 21
116.502966
 31
0.0
  0
LINE
  5
153
330
14B
100
AcDbEntity
  8
003
 62
     3
370
    30
100
AcDbLine
 10
222.929683
 20
116.502966
 30
0.0
 11
222.929683
 21
115.276097
 31
0.0
  0
CIRCLE
  5
154
330
14B
100
AcDbEntity
  8
003
 62
     3
370
    30
100
AcDbCircle
 10
223.992183
 20
115.889532
 30
0.0
 40
1.0625
  0
ENDBLK
  5
14D
330
14B
100
AcDbEntity
  8
0
100
AcDbBlockEnd
  0
BLOCK
  5
156
330
155
100
AcDbEntity
  8
0
100
AcDbBlockBegin
  2
JZB-27
 70
     0
 10
0.0
 20
0.0
 30
0.0
  3
JZB-27
  1

  0
LINE
  5
158
330
155
100
AcDbEntity
  8
003
 62
     3
370
    30
100
AcDbLine
 10
294.417309
 20
113.009179
 30
0.0
 11
294.734846
 21
114.194243
 31
0.0
  0
LINE
  5
159
330
155
100
AcDbEntity
  8
003
 62
     3
370
    30
100
AcDbLine
 10
296.469901
 20
112.459188
 30
0.0
 11
296.787438
 21
113.644253
 31
0.0
  0
LINE
  5
15A
330
155
100
AcDbEntity
  8
003
 62
     3
370
    30
100
AcDbLine
 10
295.284837
 20
112.141651
 30
0.0
 11
296.469901
 21
112.459188
 31
0.0
  0
LINE
  5
15B
330
155
100
AcDbEntity
  8
003
 62
     3
370
    30
100
AcDbLine
 10
295.919911
 20
114.511781
 30
0.0
 11
294.734846
 21
114.194243
 31
0.0
  0
LINE
  5
15C
330
155
100
AcDbEntity
  8
003
 62
     3
370
    30
100
AcDbLine
 10
296.787438
 20
113.644253
 30
0.0
 11
295.919911
 21
114.511781
 31
0.0
  0
LINE
  5
15D
330
155
100
AcDbEntity
  8
003
 62
     3
370
    30
100
AcDbLine
 10
294.417309
 20
113.009179
 30
0.0
 11
295.284837
 21
112.141651
 31
0.0
  0
CIRCLE
  5
15E
330
155
100
AcDbEntity
  8
003
 62
     3
370
    30
100
AcDbCircle
 10
295.602374
 20
113.326716
 30
0.0
 40
1.0625
  0
ENDBLK
  5
157
330
155
100
AcDbEntity
  8
0
100
AcDbBlockEnd
  0
BLOCK
  5
160
330
15F
100
AcDbEntity
  8
0
100
AcDbBlockBegin
  2
JZB-28
 70
     0
 10
0.0
 20
0.0
 30
0.0
  3
JZB-28
  1

  0
LINE
  5
162
330
15F
100
AcDbEntity
  8
003
 62
     3
370
    30
100
AcDbLine
 10
292.426123
 20
106.077032
 30
0.0
 11
291.812689
 21
107.139532
 31
0.0
  0
LINE
  5
163
330
15F
100
AcDbEntity
  8
003
 62
     3
370
    30
100
AcDbLine
 10
294.266427
 20
107.139532
 30
0.0
 11
293.652993
 21
108.202032
 31
0.0
  0
LINE
  5
164
330
15F
100
AcDbEntity
  8
003
 62
     3
370
    30
100
AcDbLine
 10
293.652993
 20
106.077032
 30
0.0
 11
294.266427
 21
107.139532
 31
0.0
  0
LINE
  5
165
330
15F
100
AcDbEntity
  8
003
 62
     3
370
    30
100
AcDbLine
 10
292.426123
 20
108.202032
 30
0.0
 11
291.812689
 21
107.139532
 31
0.0
  0
LINE
  5
166
330
15F
100
AcDbEntity
  8
003
 62
     3
370
    30
100
AcDbLine
 10
293.652993
 20
108.202032
 30
0.0
 11
292.426123
 21
108.202032
 31
0.0
  0
LINE
  5
167
330
15F
100
AcDbEntity
  8
003
 62
     3
370
    30
100
AcDbLine
 10
292.426123
 20
106.077032
 30
0.0
 11
293.652993
 21
106.077032
 31
0.0
  0
CIRCLE
  5
168
330
15F
100
AcDbEntity
  8
003
 62
     3
370
    30
100
AcDbCircle
 10
293.039558
 20
107.139532
 30
0.0
 40
1.0625
  0
ENDBLK
  5
161
330
15F
100
AcDbEntity
  8
0
100
AcDbBlockEnd
  0
BLOCK
  5
16A
330
169
100
AcDbEntity
  8
0
100
AcDbBlockBegin
  2
JZB-29
 70
     0
 10
0.0
 20
0.0
 30
0.0
  3
JZB-29
  1

  0
LINE
  5
16C
330
169
100
AcDbEntity
  8
003
 62
     3
370
    30
100
AcDbLine
 10
295.919911
 20
99.767282
 30
0.0
 11
294.734846
 21
100.08482
 31
0.0
  0
LINE
  5
16D
330
169
100
AcDbEntity
  8
003
 62
     3
370
    30
100
AcDbLine
 10
296.469901
 20
101.819875
 30
0.0
 11
295.284837
 21
102.137412
 31
0.0
  0
LINE
  5
16E
330
169
100
AcDbEntity
  8
003
 62
     3
370
    30
100
AcDbLine
 10
296.787438
 20
100.63481
 30
0.0
 11
296.469901
 21
101.819875
 31
0.0
  0
LINE
  5
16F
330
169
100
AcDbEntity
  8
003
 62
     3
370
    30
100
AcDbLine
 10
294.417309
 20
101.269884
 30
0.0
 11
294.734846
 21
100.08482
 31
0.0
  0
LINE
  5
170
330
169
100
AcDbEntity
  8
003
 62
     3
370
    30
100
AcDbLine
 10
295.284837
 20
102.137412
 30
0.0
 11
294.417309
 21
101.269884
 31
0.0
  0
LINE
  5
171
330
169
100
AcDbEntity
  8
003
 62
     3
370
    30
100
AcDbLine
 10
295.919911
 20
99.767282
 30
0.0
 11
296.787438
 21
100.63481
 31
0.0
  0
CIRCLE
  5
172
330
169
100
AcDbEntity
  8
003
 62
     3
370
    30
100
AcDbCircle
 10
295.602374
 20
100.952347
 30
0.0
 40
1.0625
  0
ENDBLK
  5
16B
330
169
100
AcDbEntity
  8
0
100
AcDbBlockEnd
  0
BLOCK
  5
174
330
173
100
AcDbEntity
  8
0
100
AcDbBlockBegin
  2
JZB-30
 70
     0
 10
0.0
 20
0.0
 30
0.0
  3
JZB-30
  1

  0
LINE
  5
176
330
173
100
AcDbEntity
  8
003
 62
     3
370
    30
100
AcDbLine
 10
302.852058
 20
97.776097
 30
0.0
 11
301.789558
 21
97.162662
 31
0.0
  0
LINE
  5
177
330
173
100
AcDbEntity
  8
003
 62
     3
370
    30
100
AcDbLine
 10
301.789558
 20
99.616401
 30
0.0
 11
300.727058
 21
99.002966
 31
0.0
  0
LINE
  5
178
330
173
100
AcDbEntity
  8
003
 62
     3
370
    30
100
AcDbLine
 10
302.852058
 20
99.002966
 30
0.0
 11
301.789558
 21
99.616401
 31
0.0
  0
LINE
  5
179
330
173
100
AcDbEntity
  8
003
 62
     3
370
    30
100
AcDbLine
 10
300.727058
 20
97.776097
 30
0.0
 11
301.789558
 21
97.162662
 31
0.0
  0
LINE
  5
17A
330
173
100
AcDbEntity
  8
003
 62
     3
370
    30
100
AcDbLine
 10
300.727058
 20
99.002966
 30
0.0
 11
300.727058
 21
97.776097
 31
0.0
  0
LINE
  5
17B
330
173
100
AcDbEntity
  8
003
 62
     3
370
    30
100
AcDbLine
 10
302.852058
 20
97.776097
 30
0.0
 11
302.852058
 21
99.002966
 31
0.0
  0
CIRCLE
  5
17C
330
173
100
AcDbEntity
  8
003
 62
     3
370
    30
100
AcDbCircle
 10
301.789558
 20
98.389532
 30
0.0
 40
1.0625
  0
ENDBLK
  5
175
330
173
100
AcDbEntity
  8
0
100
AcDbBlockEnd
  0
BLOCK
  5
17E
330
17D
100
AcDbEntity
  8
0
100
AcDbBlockBegin
  2
JZB-31
 70
     0
 10
0.0
 20
0.0
 30
0.0
  3
JZB-31
  1

  0
LINE
  5
180
330
17D
100
AcDbEntity
  8
003
 62
     3
370
    30
100
AcDbLine
 10
309.161807
 20
101.269884
 30
0.0
 11
308.84427
 21
100.08482
 31
0.0
  0
LINE
  5
181
330
17D
100
AcDbEntity
  8
003
 62
     3
370
    30
100
AcDbLine
 10
307.109215
 20
101.819875
 30
0.0
 11
306.791678
 21
100.63481
 31
0.0
  0
LINE
  5
182
330
17D
100
AcDbEntity
  8
003
 62
     3
370
    30
100
AcDbLine
 10
308.294279
 20
102.137412
 30
0.0
 11
307.109215
 21
101.819875
 31
0.0
  0
LINE
  5
183
330
17D
100
AcDbEntity
  8
003
 62
     3
370
    30
100
AcDbLine
 10
307.659205
 20
99.767282
 30
0.0
 11
308.84427
 21
100.08482
 31
0.0
  0
LINE
  5
184
330
17D
100
AcDbEntity
  8
003
 62
     3
370
    30
100
AcDbLine
 10
306.791678
 20
100.63481
 30
0.0
 11
307.659205
 21
99.767282
 31
0.0
  0
LINE
  5
185
330
17D
100
AcDbEntity
  8
003
 62
     3
370
    30
100
AcDbLine
 10
309.161807
 20
101.269884
 30
0.0
 11
308.294279
 21
102.137412
 31
0.0
  0
CIRCLE
  5
186
330
17D
100
AcDbEntity
  8
003
 62
     3
370
    30
100
AcDbCircle
 10
307.976742
 20
100.952347
 30
0.0
 40
1.0625
  0
ENDBLK
  5
17F
330
17D
100
AcDbEntity
  8
0
100
AcDbBlockEnd
  0
BLOCK
  5
188
330
187
100
AcDbEntity
  8
0
100
AcDbBlockBegin
  2
JZB-32
 70
     0
 10
0.0
 20
0.0
 30
0.0
  3
JZB-32
  1

  0
LINE
  5
18A
330
187
100
AcDbEntity
  8
003
 62
     3
370
    30
100
AcDbLine
 10
311.152993
 20
108.202032
 30
0.0
 11
311.766427
 21
107.139532
 31
0.0
  0
LINE
  5
18B
330
187
100
AcDbEntity
  8
003
 62
     3
370
    30
100
AcDbLine
 10
309.312689
 20
107.139532
 30
0.0
 11
309.926123
 21
106.077032
 31
0.0
  0
LINE
  5
18C
330
187
100
AcDbEntity
  8
003
 62
     3
370
    30
100
AcDbLine
 10
309.926123
 20
108.202032
 30
0.0
 11
309.312689
 21
107.139532
 31
0.0
  0
LINE
  5
18D
330
187
100
AcDbEntity
  8
003
 62
     3
370
    30
100
AcDbLine
 10
311.152993
 20
106.077032
 30
0.0
 11
311.766427
 21
107.139532
 31
0.0
  0
LINE
  5
18E
330
187
100
AcDbEntity
  8
003
 62
     3
370
    30
100
AcDbLine
 10
309.926123
 20
106.077032
 30
0.0
 11
311.152993
 21
106.077032
 31
0.0
  0
LINE
  5
18F
330
187
100
AcDbEntity
  8
003
 62
     3
370
    30
100
AcDbLine
 10
311.152993
 20
108.202032
 30
0.0
 11
309.926123
 21
108.202032
 31
0.0
  0
CIRCLE
  5
190
330
187
100
AcDbEntity
  8
003
 62
     3
370
    30
100
AcDbCircle
 10
310.539558
 20
107.139532
 30
0.0
 40
1.0625
  0
ENDBLK
  5
189
330
187
100
AcDbEntity
  8
0
100
AcDbBlockEnd
  0
BLOCK
  5
192
330
191
100
AcDbEntity
  8
0
100
AcDbBlockBegin
  2
JZB-33
 70
     0
 10
0.0
 20
0.0
 30
0.0
  3
JZB-33
  1

  0
LINE
  5
194
330
191
100
AcDbEntity
  8
003
 62
     3
370
    30
100
AcDbLine
 10
307.659205
 20
114.511781
 30
0.0
 11
308.84427
 21
114.194243
 31
0.0
  0
LINE
  5
195
330
191
100
AcDbEntity
  8
003
 62
     3
370
    30
100
AcDbLine
 10
307.109215
 20
112.459188
 30
0.0
 11
308.294279
 21
112.141651
 31
0.0
  0
LINE
  5
196
330
191
100
AcDbEntity
  8
003
 62
     3
370
    30
100
AcDbLine
 10
306.791678
 20
113.644253
 30
0.0
 11
307.109215
 21
112.459188
 31
0.0
  0
LINE
  5
197
330
191
100
AcDbEntity
  8
003
 62
     3
370
    30
100
AcDbLine
 10
309.161807
 20
113.009179
 30
0.0
 11
308.84427
 21
114.194243
 31
0.0
  0
LINE
  5
198
330
191
100
AcDbEntity
  8
003
 62
     3
370
    30
100
AcDbLine
 10
308.294279
 20
112.141651
 30
0.0
 11
309.161807
 21
113.009179
 31
0.0
  0
LINE
  5
199
330
191
100
AcDbEntity
  8
003
 62
     3
370
    30
100
AcDbLine
 10
307.659205
 20
114.511781
 30
0.0
 11
306.791678
 21
113.644253
 31
0.0
  0
CIRCLE
  5
19A
330
191
100
AcDbEntity
  8
003
 62
     3
370
    30
100
AcDbCircle
 10
307.976742
 20
113.326716
 30
0.0
 40
1.0625
  0
ENDBLK
  5
193
330
191
100
AcDbEntity
  8
0
100
AcDbBlockEnd
  0
BLOCK
  5
19C
330
19B
100
AcDbEntity
  8
0
100
AcDbBlockBegin
  2
JZB-34
 70
     0
 10
0.0
 20
0.0
 30
0.0
  3
JZB-34
  1

  0
LINE
  5
19E
330
19B
100
AcDbEntity
  8
003
 62
     3
370
    30
100
AcDbLine
 10
300.727058
 20
116.502966
 30
0.0
 11
301.789558
 21
117.116401
 31
0.0
  0
LINE
  5
19F
330
19B
100
AcDbEntity
  8
003
 62
     3
370
    30
100
AcDbLine
 10
301.789558
 20
114.662662
 30
0.0
 11
302.852058
 21
115.276097
 31
0.0
  0
LINE
  5
1A0
330
19B
100
AcDbEntity
  8
003
 62
     3
370
    30
100
AcDbLine
 10
300.727058
 20
115.276097
 30
0.0
 11
301.789558
 21
114.662662
 31
0.0
  0
LINE
  5
1A1
330
19B
100
AcDbEntity
  8
003
 62
     3
370
    30
100
AcDbLine
 10
302.852058
 20
116.502966
 30
0.0
 11
301.789558
 21
117.116401
 31
0.0
  0
LINE
  5
1A2
330
19B
100
AcDbEntity
  8
003
 62
     3
370
    30
100
AcDbLine
 10
302.852058
 20
115.276097
 30
0.0
 11
302.852058
 21
116.502966
 31
0.0
  0
LINE
  5
1A3
330
19B
100
AcDbEntity
  8
003
 62
     3
370
    30
100
AcDbLine
 10
300.727058
 20
116.502966
 30
0.0
 11
300.727058
 21
115.276097
 31
0.0
  0
CIRCLE
  5
1A4
330
19B
100
AcDbEntity
  8
003
 62
     3
370
    30
100
AcDbCircle
 10
301.789558
 20
115.889532
 30
0.0
 40
1.0625
  0
ENDBLK
  5
19D
330
19B
100
AcDbEntity
  8
0
100
AcDbBlockEnd
  0
ENDSEC
  0
SECTION
  2
ENTITIES
  0
INSERT
  5
1A5
330
1F
100
AcDbEntity
  8
002
  6
ByBlock
 62
     0
370
    -2
100
AcDbBlockReference
  2
JZB-1
 10
0.0
 20
0.0
 30
0.0
  0
INSERT
  5
1A6
330
1F
100
AcDbEntity
  8
002
  6
ByBlock
 62
     0
370
    -2
100
AcDbBlockReference
  2
JZB-2
 10
0.0
 20
0.0
 30
0.0
  0
INSERT
  5
1A7
330
1F
100
AcDbEntity
  8
003
  6
ByBlock
 62
     0
370
    -2
100
AcDbBlockReference
  2
JZB-3
 10
0.0
 20
0.0
 30
0.0
  0
INSERT
  5
1A8
330
1F
100
AcDbEntity
  8
003
  6
ByBlock
 62
     0
370
    -2
100
AcDbBlockReference
  2
JZB-4
 10
0.0
 20
0.0
 30
0.0
  0
INSERT
  5
1A9
330
1F
100
AcDbEntity
  8
003
  6
ByBlock
 62
     0
370
    -2
100
AcDbBlockReference
  2
JZB-5
 10
0.0
 20
0.0
 30
0.0
  0
INSERT
  5
1AA
330
1F
100
AcDbEntity
  8
003
  6
ByBlock
 62
     0
370
    -2
100
AcDbBlockReference
  2
JZB-6
 10
0.0
 20
0.0
 30
0.0
  0
INSERT
  5
1AB
330
1F
100
AcDbEntity
  8
003
  6
ByBlock
 62
     0
370
    -2
100
AcDbBlockReference
  2
JZB-7
 10
0.0
 20
0.0
 30
0.0
  0
INSERT
  5
1AC
330
1F
100
AcDbEntity
  8
003
  6
ByBlock
 62
     0
370
    -2
100
AcDbBlockReference
  2
JZB-8
 10
0.0
 20
0.0
 30
0.0
  0
INSERT
  5
1AD
330
1F
100
AcDbEntity
  8
003
  6
ByBlock
 62
     0
370
    -2
100
AcDbBlockReference
  2
JZB-9
 10
0.0
 20
0.0
 30
0.0
  0
INSERT
  5
1AE
330
1F
100
AcDbEntity
  8
003
  6
ByBlock
 62
     0
370
    -2
100
AcDbBlockReference
  2
JZB-10
 10
0.0
 20
0.0
 30
0.0
  0
INSERT
  5
1AF
330
1F
100
AcDbEntity
  8
003
  6
ByBlock
 62
     0
370
    -2
100
AcDbBlockReference
  2
JZB-11
 10
0.0
 20
0.0
 30
0.0
  0
INSERT
  5
1B0
330
1F
100
AcDbEntity
  8
003
  6
ByBlock
 62
     0
370
    -2
100
AcDbBlockReference
  2
JZB-12
 10
0.0
 20
0.0
 30
0.0
  0
INSERT
  5
1B1
330
1F
100
AcDbEntity
  8
003
  6
ByBlock
 62
     0
370
    -2
100
AcDbBlockReference
  2
JZB-13
 10
0.0
 20
0.0
 30
0.0
  0
INSERT
  5
1B2
330
1F
100
AcDbEntity
  8
003
  6
ByBlock
 62
     0
370
    -2
100
AcDbBlockReference
  2
JZB-14
 10
0.0
 20
0.0
 30
0.0
  0
INSERT
  5
1B3
330
1F
100
AcDbEntity
  8
003
  6
ByBlock
 62
     0
370
    -2
100
AcDbBlockReference
  2
JZB-15
 10
0.0
 20
0.0
 30
0.0
  0
INSERT
  5
1B4
330
1F
100
AcDbEntity
  8
003
  6
ByBlock
 62
     0
370
    -2
100
AcDbBlockReference
  2
JZB-16
 10
0.0
 20
0.0
 30
0.0
  0
INSERT
  5
1B5
330
1F
100
AcDbEntity
  8
003
  6
ByBlock
 62
     0
370
    -2
100
AcDbBlockReference
  2
JZB-17
 10
0.0
 20
0.0
 30
0.0
  0
INSERT
  5
1B6
330
1F
100
AcDbEntity
  8
003
  6
ByBlock
 62
     0
370
    -2
100
AcDbBlockReference
  2
JZB-18
 10
0.0
 20
0.0
 30
0.0
  0
INSERT
  5
1B7
330
1F
100
AcDbEntity
  8
003
  6
ByBlock
 62
     0
370
    -2
100
AcDbBlockReference
  2
JZB-19
 10
0.0
 20
0.0
 30
0.0
  0
INSERT
  5
1B8
330
1F
100
AcDbEntity
  8
003
  6
ByBlock
 62
     0
370
    -2
100
AcDbBlockReference
  2
JZB-20
 10
0.0
 20
0.0
 30
0.0
  0
INSERT
  5
1B9
330
1F
100
AcDbEntity
  8
003
  6
ByBlock
 62
     0
370
    -2
100
AcDbBlockReference
  2
JZB-21
 10
0.0
 20
0.0
 30
0.0
  0
INSERT
  5
1BA
330
1F
100
AcDbEntity
  8
003
  6
ByBlock
 62
     0
370
    -2
100
AcDbBlockReference
  2
JZB-22
 10
0.0
 20
0.0
 30
0.0
  0
INSERT
  5
1BB
330
1F
100
AcDbEntity
  8
003
  6
ByBlock
 62
     0
370
    -2
100
AcDbBlockReference
  2
JZB-23
 10
0.0
 20
0.0
 30
0.0
  0
INSERT
  5
1BC
330
1F
100
AcDbEntity
  8
003
  6
ByBlock
 62
     0
370
    -2
100
AcDbBlockReference
  2
JZB-24
 10
0.0
 20
0.0
 30
0.0
  0
INSERT
  5
1BD
330
1F
100
AcDbEntity
  8
003
  6
ByBlock
 62
     0
370
    -2
100
AcDbBlockReference
  2
JZB-25
 10
0.0
 20
0.0
 30
0.0
  0
INSERT
  5
1BE
330
1F
100
AcDbEntity
  8
003
  6
ByBlock
 62
     0
370
    -2
100
AcDbBlockReference
  2
JZB-26
 10
0.0
 20
0.0
 30
0.0
  0
INSERT
  5
1BF
330
1F
100
AcDbEntity
  8
003
  6
ByBlock
 62
     0
370
    -2
100
AcDbBlockReference
  2
JZB-27
 10
0.0
 20
0.0
 30
0.0
  0
INSERT
  5
1C0
330
1F
100
AcDbEntity
  8
003
  6
ByBlock
 62
     0
370
    -2
100
AcDbBlockReference
  2
JZB-28
 10
0.0
 20
0.0
 30
0.0
  0
INSERT
  5
1C1
330
1F
100
AcDbEntity
  8
003
  6
ByBlock
 62
     0
370
    -2
100
AcDbBlockReference
  2
JZB-29
 10
0.0
 20
0.0
 30
0.0
  0
INSERT
  5
1C2
330
1F
100
AcDbEntity
  8
003
  6
ByBlock
 62
     0
370
    -2
100
AcDbBlockReference
  2
JZB-30
 10
0.0
 20
0.0
 30
0.0
  0
INSERT
  5
1C3
330
1F
100
AcDbEntity
  8
003
  6
ByBlock
 62
     0
370
    -2
100
AcDbBlockReference
  2
JZB-31
 10
0.0
 20
0.0
 30
0.0
  0
INSERT
  5
1C4
330
1F
100
AcDbEntity
  8
003
  6
ByBlock
 62
     0
370
    -2
100
AcDbBlockReference
  2
JZB-32
 10
0.0
 20
0.0
 30
0.0
  0
INSERT
  5
1C5
330
1F
100
AcDbEntity
  8
003
  6
ByBlock
 62
     0
370
    -2
100
AcDbBlockReference
  2
JZB-33
 10
0.0
 20
0.0
 30
0.0
  0
INSERT
  5
1C6
330
1F
100
AcDbEntity
  8
003
  6
ByBlock
 62
     0
370
    -2
100
AcDbBlockReference
  2
JZB-34
 10
0.0
 20
0.0
 30
0.0
  0
LINE
  5
1C7
330
1F
100
AcDbEntity
  8
002
 62
     3
370
    30
100
AcDbLine
 10
219.674321
 20
277.476093
 30
0.0
 11
239.049321
 21
277.476093
 31
0.0
  0
LINE
  5
1C8
330
1F
100
AcDbEntity
  8
002
  6
CENTER
 62
    40
370
     9
100
AcDbLine
 10
243.736821
 20
282.941968
 30
0.0
 11
243.736821
 21
289.351093
 31
0.0
  0
LINE
  5
1C9
330
1F
100
AcDbEntity
  8
002
  6
CENTER
 62
    40
370
     9
100
AcDbLine
 10
214.986821
 20
289.351093
 30
0.0
 11
214.986821
 21
282.941968
 31
0.0
  0
LINE
  5
1CA
330
1F
100
AcDbEntity
  8
002
 62
     3
370
    30
100
AcDbLine
 10
248.111821
 20
288.101093
 30
0.0
 11
210.611821
 21
288.101093
 31
0.0
  0
LINE
  5
1CB
330
1F
100
AcDbEntity
  8
002
 62
     3
370
    30
100
AcDbLine
 10
248.111821
 20
283.726093
 30
0.0
 11
248.111821
 21
288.101093
 31
0.0
  0
LINE
  5
1CC
330
1F
100
AcDbEntity
  8
002
 62
     3
370
    30
100
AcDbLine
 10
210.611821
 20
283.726093
 30
0.0
 11
248.111821
 21
283.726093
 31
0.0
  0
ARC
  5
1CD
330
1F
100
AcDbEntity
  8
002
 62
     3
370
    30
100
AcDbCircle
 10
239.299321
 20
283.476093
 30
0.0
 40
0.25
100
AcDbArc
 50
90.0
 51
180.0
  0
LINE
  5
1CE
330
1F
100
AcDbEntity
  8
002
 62
     3
370
    30
100
AcDbLine
 10
239.049321
 20
277.476093
 30
0.0
 11
239.049321
 21
283.476093
 31
0.0
  0
LINE
  5
1CF
330
1F
100
AcDbEntity
  8
002
 62
     3
370
    30
100
AcDbLine
 10
219.674321
 20
277.476093
 30
0.0
 11
219.674321
 21
283.476093
 31
0.0
  0
ARC
  5
1D0
330
1F
100
AcDbEntity
  8
002
 62
     3
370
    30
100
AcDbCircle
 10
219.424321
 20
283.476093
 30
0.0
 40
0.25
100
AcDbArc
 50
0.0
 51
90.0
  0
LINE
  5
1D1
330
1F
100
AcDbEntity
  8
002
 62
     3
370
    30
100
AcDbLine
 10
210.611821
 20
288.101093
 30
0.0
 11
210.611821
 21
283.726093
 31
0.0
  0
LINE
  5
1D2
330
1F
100
AcDbEntity
  8
002
  6
CENTER
 62
    40
370
     9
100
AcDbLine
 10
229.361821
 20
321.944468
 30
0.0
 11
229.361821
 21
366.147593
 31
0.0
  0
LINE
  5
1D3
330
1F
100
AcDbEntity
  8
002
  6
CENTER
 62
    40
370
     9
100
AcDbLine
 10
206.784696
 20
344.430718
 30
0.0
 11
251.619321
 21
344.430718
 31
0.0
  0
CIRCLE
  5
1D4
330
1F
100
AcDbEntity
  8
002
 62
    40
370
     9
100
AcDbCircle
 10
229.361821
 20
344.430718
 30
0.0
 40
5.625
  0
CIRCLE
  5
1D5
330
1F
100
AcDbEntity
  8
002
  6
CENTER
 62
    40
370
     9
100
AcDbCircle
 10
229.361821
 20
344.430718
 30
0.0
 40
14.375
  0
CIRCLE
  5
1D6
330
1F
100
AcDbEntity
  8
002
 62
     3
370
    30
100
AcDbCircle
 10
229.361821
 20
344.430718
 30
0.0
 40
5.489625
  0
CIRCLE
  5
1D7
330
1F
100
AcDbEntity
  8
002
 62
     3
370
    30
100
AcDbCircle
 10
229.361821
 20
344.430718
 30
0.0
 40
18.75
  0
CIRCLE
  5
1D8
330
1F
100
AcDbEntity
  8
002
 62
     3
370
    30
100
AcDbCircle
 10
243.736821
 20
344.430718
 30
0.0
 40
2.4375
  0
CIRCLE
  5
1D9
330
1F
100
AcDbEntity
  8
002
 62
     3
370
    30
100
AcDbCircle
 10
229.361821
 20
330.055718
 30
0.0
 40
2.4375
  0
CIRCLE
  5
1DA
330
1F
100
AcDbEntity
  8
002
 62
     3
370
    30
100
AcDbCircle
 10
214.986821
 20
344.430718
 30
0.0
 40
2.4375
  0
CIRCLE
  5
1DB
330
1F
100
AcDbEntity
  8
002
 62
     3
370
    30
100
AcDbCircle
 10
229.361821
 20
358.805718
 30
0.0
 40
2.4375
  0
LINE
  5
1DC
330
1F
100
AcDbEntity
  8
002
 62
     3
370
    30
100
AcDbLine
 10
135.23884
 20
277.476093
 30
0.0
 11
153.23884
 21
277.476093
 31
0.0
  0
LINE
  5
1DD
330
1F
100
AcDbEntity
  8
002
  6
HIDDEN
 62
    40
370
     9
100
AcDbLine
 10
139.86384
 20
339.118218
 30
0.0
 11
139.86384
 21
349.743218
 31
0.0
  0
LINE
  5
1DE
330
1F
100
AcDbEntity
  8
002
  6
HIDDEN
 62
    40
370
     9
100
AcDbLine
 10
148.61384
 20
349.743218
 30
0.0
 11
148.61384
 21
339.118218
 31
0.0
  0
CIRCLE
  5
1DF
330
1F
100
AcDbEntity
  8
002
 62
     3
370
    30
100
AcDbCircle
 10
144.23884
 20
344.430718
 30
0.0
 40
9.375
  0
LINE
  5
1E0
330
1F
100
AcDbEntity
  8
002
 62
     3
370
    30
100
AcDbLine
 10
151.96334
 20
339.118218
 30
0.0
 11
136.514328
 21
339.118218
 31
0.0
  0
ARC
  5
1E1
330
1F
100
AcDbEntity
  8
002
 62
     3
370
    30
100
AcDbCircle
 10
144.23884
 20
344.430718
 30
0.0
 40
8.125001046769171
100
AcDbArc
 50
139.167789
 51
220.832211
  0
LINE
  5
1E2
330
1F
100
AcDbEntity
  8
002
 62
     3
370
    30
100
AcDbLine
 10
136.514328
 20
349.743218
 30
0.0
 11
151.96334
 21
349.743218
 31
0.0
  0
ARC
  5
1E3
330
1F
100
AcDbEntity
  8
002
 62
     3
370
    30
100
AcDbCircle
 10
144.23884
 20
344.430718
 30
0.0
 40
8.125001046769162
100
AcDbArc
 50
319.167789
 51
40.832211
  0
LINE
  5
1E4
330
1F
100
AcDbEntity
  8
002
 62
     3
370
    30
100
AcDbLine
 10
134.86384
 20
277.851093
 30
0.0
 11
135.23884
 21
277.476093
 31
0.0
  0
LINE
  5
1E5
330
1F
100
AcDbEntity
  8
002
 62
     3
370
    30
100
AcDbLine
 10
134.86384
 20
277.851093
 30
0.0
 11
153.61384
 21
277.851093
 31
0.0
  0
LINE
  5
1E6
330
1F
100
AcDbEntity
  8
002
 62
     3
370
    30
100
AcDbLine
 10
153.23884
 20
277.476093
 30
0.0
 11
153.61384
 21
277.851093
 31
0.0
  0
LINE
  5
1E7
330
1F
100
AcDbEntity
  8
002
 62
     3
370
    30
100
AcDbLine
 10
153.61384
 20
277.851093
 30
0.0
 11
153.61384
 21
312.476093
 31
0.0
  0
LINE
  5
1E8
330
1F
100
AcDbEntity
  8
002
 62
     3
370
    30
100
AcDbLine
 10
134.86384
 20
312.476093
 30
0.0
 11
134.86384
 21
277.851093
 31
0.0
  0
LINE
  5
1E9
330
1F
100
AcDbEntity
  8
002
 62
     3
370
    30
100
AcDbLine
 10
136.514328
 20
312.476093
 30
0.0
 11
134.86384
 21
312.476093
 31
0.0
  0
LINE
  5
1EA
330
1F
100
AcDbEntity
  8
002
 62
     3
370
    30
100
AcDbLine
 10
136.514328
 20
312.476093
 30
0.0
 11
138.09124
 21
313.726093
 31
0.0
  0
LINE
  5
1EB
330
1F
100
AcDbEntity
  8
002
 62
     3
370
    30
100
AcDbLine
 10
136.11384
 20
313.726093
 30
0.0
 11
134.86384
 21
312.476093
 31
0.0
  0
LINE
  5
1EC
330
1F
100
AcDbEntity
  8
002
 62
     3
370
    30
100
AcDbLine
 10
152.36384
 20
313.726093
 30
0.0
 11
136.11384
 21
313.726093
 31
0.0
  0
LINE
  5
1ED
330
1F
100
AcDbEntity
  8
002
 62
     3
370
    30
100
AcDbLine
 10
151.96334
 20
312.476093
 30
0.0
 11
150.38644
 21
313.726093
 31
0.0
  0
LINE
  5
1EE
330
1F
100
AcDbEntity
  8
002
 62
     3
370
    30
100
AcDbLine
 10
151.96334
 20
312.476093
 30
0.0
 11
153.61384
 21
312.476093
 31
0.0
  0
LINE
  5
1EF
330
1F
100
AcDbEntity
  8
002
 62
     3
370
    30
100
AcDbLine
 10
153.61384
 20
312.476093
 30
0.0
 11
152.36384
 21
313.726093
 31
0.0
  0
LINE
  5
1F0
330
1F
100
AcDbEntity
  8
002
 62
     3
370
    30
100
AcDbLine
 10
151.96334
 20
291.226093
 30
0.0
 11
151.96334
 21
312.476093
 31
0.0
  0
ARC
  5
1F1
330
1F
100
AcDbEntity
  8
002
 62
     3
370
    30
100
AcDbCircle
 10
150.195578
 20
291.851093
 30
0.0
 40
1.875
100
AcDbArc
 50
270.0
 51
340.528734
  0
LINE
  5
1F2
330
1F
100
AcDbEntity
  8
002
 62
     3
370
    30
100
AcDbLine
 10
138.282103
 20
289.976093
 30
0.0
 11
150.195578
 21
289.976093
 31
0.0
  0
LINE
  5
1F3
330
1F
100
AcDbEntity
  8
002
 62
     3
370
    30
100
AcDbLine
 10
151.96334
 20
291.226093
 30
0.0
 11
136.514328
 21
291.226093
 31
0.0
  0
ARC
  5
1F4
330
1F
100
AcDbEntity
  8
002
 62
     3
370
    30
100
AcDbCircle
 10
138.282103
 20
291.851093
 30
0.0
 40
1.875007586817984
100
AcDbArc
 50
199.471139
 51
270.0
  0
LINE
  5
1F5
330
1F
100
AcDbEntity
  8
002
 62
     3
370
    30
100
AcDbLine
 10
136.514328
 20
291.226093
 30
0.0
 11
136.514328
 21
312.476093
 31
0.0
  0
CIRCLE
  5
1F6
330
1F
100
AcDbEntity
  8
002
 62
     3
370
    30
100
AcDbCircle
 10
144.23884
 20
302.476093
 30
0.0
 40
4.375
  0
LINE
  5
1F7
330
1F
100
AcDbEntity
  8
002
  6
CENTER
 62
    40
370
     9
100
AcDbLine
 10
144.23884
 20
331.305718
 30
0.0
 11
144.23884
 21
357.555718
 31
0.0
  0
LINE
  5
1F8
330
1F
100
AcDbEntity
  8
002
  6
CENTER
 62
    40
370
     9
100
AcDbLine
 10
131.11384
 20
344.430718
 30
0.0
 11
157.36384
 21
344.430718
 31
0.0
  0
LINE
  5
1F9
330
1F
100
AcDbEntity
  8
002
  6
CENTER
 62
    40
370
     9
100
AcDbLine
 10
157.36384
 20
302.476093
 30
0.0
 11
131.11384
 21
302.476093
 31
0.0
  0
LINE
  5
1FA
330
1F
100
AcDbEntity
  8
002
 62
     3
370
    30
100
AcDbLine
 10
58.830975
 20
263.376173
 30
0.0
 11
60.080975
 21
263.376173
 31
0.0
  0
LINE
  5
1FB
330
1F
100
AcDbEntity
  8
002
 62
     3
370
    30
100
AcDbLine
 10
60.080975
 20
263.376173
 30
0.0
 11
60.080975
 21
264.376173
 31
0.0
  0
LINE
  5
1FC
330
1F
100
AcDbEntity
  8
002
 62
     3
370
    30
100
AcDbLine
 10
60.080975
 20
264.376173
 30
0.0
 11
58.830975
 21
264.376173
 31
0.0
  0
LINE
  5
1FD
330
1F
100
AcDbEntity
  8
002
 62
     3
370
    30
100
AcDbLine
 10
58.830975
 20
264.376173
 30
0.0
 11
58.830975
 21
263.376173
 31
0.0
  0
LINE
  5
1FE
330
1F
100
AcDbEntity
  8
002
 62
     3
370
    30
100
AcDbLine
 10
58.830975
 20
389.501173
 30
0.0
 11
58.830975
 21
380.212548
 31
0.0
  0
LINE
  5
1FF
330
1F
100
AcDbEntity
  8
002
 62
     3
370
    30
100
AcDbLine
 10
58.830975
 20
380.212548
 30
0.0
 11
60.080975
 21
380.212548
 31
0.0
  0
LINE
  5
200
330
1F
100
AcDbEntity
  8
002
 62
     3
370
    30
100
AcDbLine
 10
60.080975
 20
380.212548
 30
0.0
 11
60.080975
 21
389.501173
 31
0.0
  0
LINE
  5
201
330
1F
100
AcDbEntity
  8
002
 62
     3
370
    30
100
AcDbLine
 10
61.830975
 20
389.501173
 30
0.0
 11
61.830975
 21
374.251173
 31
0.0
  0
LINE
  5
202
330
1F
100
AcDbEntity
  8
002
 62
     3
370
    30
100
AcDbLine
 10
62.268475
 20
374.251173
 30
0.0
 11
56.643475
 21
374.251173
 31
0.0
  0
LINE
  5
203
330
1F
100
AcDbEntity
  8
002
 62
     3
370
    30
100
AcDbLine
 10
56.643475
 20
374.251173
 30
0.0
 11
56.643475
 21
374.001173
 31
0.0
  0
LINE
  5
204
330
1F
100
AcDbEntity
  8
002
 62
     3
370
    30
100
AcDbLine
 10
62.268475
 20
374.251173
 30
0.0
 11
62.268475
 21
374.001173
 31
0.0
  0
CIRCLE
  5
205
330
1F
100
AcDbEntity
  8
002
 62
     3
370
    30
100
AcDbCircle
 10
51.955975
 20
370.864173
 30
0.0
 40
1.875
  0
LINE
  5
206
330
1F
100
AcDbEntity
  8
002
 62
     3
370
    30
100
AcDbLine
 10
51.342475
 20
371.926673
 30
0.0
 11
50.7291
 21
370.864173
 31
0.0
  0
LINE
  5
207
330
1F
100
AcDbEntity
  8
002
 62
     3
370
    30
100
AcDbLine
 10
50.7291
 20
370.864173
 30
0.0
 11
51.342475
 21
369.801673
 31
0.0
  0
LINE
  5
208
330
1F
100
AcDbEntity
  8
002
 62
     3
370
    30
100
AcDbLine
 10
51.342475
 20
369.801673
 30
0.0
 11
52.56935
 21
369.801673
 31
0.0
  0
LINE
  5
209
330
1F
100
AcDbEntity
  8
002
 62
     3
370
    30
100
AcDbLine
 10
52.56935
 20
369.801673
 30
0.0
 11
53.18285
 21
370.864173
 31
0.0
  0
LINE
  5
20A
330
1F
100
AcDbEntity
  8
002
 62
     3
370
    30
100
AcDbLine
 10
53.18285
 20
370.864173
 30
0.0
 11
52.56935
 21
371.926673
 31
0.0
  0
LINE
  5
20B
330
1F
100
AcDbEntity
  8
002
 62
     3
370
    30
100
AcDbLine
 10
52.56935
 20
371.926673
 30
0.0
 11
51.342475
 21
371.926673
 31
0.0
  0
LINE
  5
20C
330
1F
100
AcDbEntity
  8
002
 62
     3
370
    30
100
AcDbLine
 10
69.455975
 20
372.876173
 30
0.0
 11
69.455975
 21
355.876173
 31
0.0
  0
LINE
  5
20D
330
1F
100
AcDbEntity
  8
002
 62
     3
370
    30
100
AcDbLine
 10
69.830975
 20
355.876173
 30
0.0
 11
63.7941
 21
355.876173
 31
0.0
  0
LINE
  5
20E
330
1F
100
AcDbEntity
  8
002
 62
     3
370
    30
100
AcDbLine
 10
62.55785
 20
354.626173
 30
0.0
 11
61.94435
 21
353.563673
 31
0.0
  0
LINE
  5
20F
330
1F
100
AcDbEntity
  8
002
 62
     3
370
    30
100
AcDbLine
 10
61.94435
 20
353.563673
 30
0.0
 11
60.717475
 21
353.563673
 31
0.0
  0
LINE
  5
210
330
1F
100
AcDbEntity
  8
002
 62
     3
370
    30
100
AcDbLine
 10
60.717475
 20
353.563673
 30
0.0
 11
60.1041
 21
354.626173
 31
0.0
  0
LINE
  5
211
330
1F
100
AcDbEntity
  8
002
 62
     3
370
    30
100
AcDbLine
 10
60.1041
 20
354.626173
 30
0.0
 11
60.717475
 21
355.688673
 31
0.0
  0
LINE
  5
212
330
1F
100
AcDbEntity
  8
002
 62
     3
370
    30
100
AcDbLine
 10
60.717475
 20
355.688673
 30
0.0
 11
61.94435
 21
355.688673
 31
0.0
  0
LINE
  5
213
330
1F
100
AcDbEntity
  8
002
 62
     3
370
    30
100
AcDbLine
 10
61.94435
 20
355.688673
 30
0.0
 11
62.55785
 21
354.626173
 31
0.0
  0
LINE
  5
214
330
1F
100
AcDbEntity
  8
002
 62
     3
370
    30
100
AcDbLine
 10
63.7941
 20
353.376173
 30
0.0
 11
67.93085
 21
353.376173
 31
0.0
  0
LINE
  5
215
330
1F
100
AcDbEntity
  8
002
 62
     3
370
    30
100
AcDbLine
 10
68.012975
 20
352.751173
 30
0.0
 11
68.012975
 21
339.626173
 31
0.0
  0
LINE
  5
216
330
1F
100
AcDbEntity
  8
002
 62
     3
370
    30
100
AcDbLine
 10
68.476225
 20
339.263173
 30
0.0
 11
69.830975
 21
339.626173
 31
0.0
  0
LINE
  5
217
330
1F
100
AcDbEntity
  8
002
 62
     3
370
    30
100
AcDbLine
 10
69.830975
 20
339.626173
 30
0.0
 11
69.830975
 21
355.876173
 31
0.0
  0
LINE
  5
218
330
1F
100
AcDbEntity
  8
002
 62
     3
370
    30
100
AcDbLine
 10
70.080975
 20
355.347923
 30
0.0
 11
70.455975
 21
355.347923
 31
0.0
  0
LINE
  5
219
330
1F
100
AcDbEntity
  8
002
 62
     3
370
    30
100
AcDbLine
 10
70.455975
 20
355.347923
 30
0.0
 11
70.8201
 21
354.983673
 31
0.0
  0
ARC
  5
21A
330
1F
100
AcDbEntity
  8
002
 62
     3
370
    30
100
AcDbCircle
 10
70.908475
 20
355.072048
 30
0.0
 40
0.1250002499997767
100
AcDbArc
 50
225.0
 51
302.005383
  0
LINE
  5
21B
330
1F
100
AcDbEntity
  8
002
 62
     3
370
    30
100
AcDbLine
 10
70.974725
 20
354.966048
 30
0.0
 11
71.080975
 21
355.032423
 31
0.0
  0
LINE
  5
21C
330
1F
100
AcDbEntity
  8
002
 62
     3
370
    30
100
AcDbLine
 10
71.080975
 20
355.032423
 30
0.0
 11
71.455975
 21
354.938673
 31
0.0
  0
LINE
  5
21D
330
1F
100
AcDbEntity
  8
002
 62
     3
370
    30
100
AcDbLine
 10
71.455975
 20
354.938673
 30
0.0
 11
71.455975
 21
354.313673
 31
0.0
  0
LINE
  5
21E
330
1F
100
AcDbEntity
  8
002
 62
     3
370
    30
100
AcDbLine
 10
71.455975
 20
354.313673
 30
0.0
 11
71.080975
 21
354.219923
 31
0.0
  0
LINE
  5
21F
330
1F
100
AcDbEntity
  8
002
 62
     3
370
    30
100
AcDbLine
 10
71.080975
 20
354.219923
 30
0.0
 11
70.974725
 21
354.286298
 31
0.0
  0
ARC
  5
220
330
1F
100
AcDbEntity
  8
002
 62
     3
370
    30
100
AcDbCircle
 10
70.908475
 20
354.180298
 30
0.0
 40
0.1249811235747413
100
AcDbArc
 50
57.994617
 51
135.0
  0
LINE
  5
221
330
1F
100
AcDbEntity
  8
002
 62
     3
370
    30
100
AcDbLine
 10
70.8201
 20
354.268673
 30
0.0
 11
70.455975
 21
353.904548
 31
0.0
  0
LINE
  5
222
330
1F
100
AcDbEntity
  8
002
 62
     3
370
    30
100
AcDbLine
 10
70.455975
 20
353.904548
 30
0.0
 11
70.080975
 21
353.904548
 31
0.0
  0
LINE
  5
223
330
1F
100
AcDbEntity
  8
002
 62
     3
370
    30
100
AcDbLine
 10
70.080975
 20
353.904548
 30
0.0
 11
69.9681
 21
354.017298
 31
0.0
  0
LINE
  5
224
330
1F
100
AcDbEntity
  8
002
 62
     3
370
    30
100
AcDbLine
 10
70.00935
 20
353.976048
 30
0.0
 11
69.830975
 21
353.987173
 31
0.0
  0
LINE
  5
225
330
1F
100
AcDbEntity
  8
002
 62
     3
370
    30
100
AcDbLine
 10
69.955975
 20
354.090423
 30
0.0
 11
69.955975
 21
355.161923
 31
0.0
  0
ARC
  5
226
330
1F
100
AcDbEntity
  8
002
 62
     3
370
    30
100
AcDbCircle
 10
70.148475
 20
355.167423
 30
0.0
 40
0.1925912527219471
100
AcDbArc
 50
159.448306
 51
249.483127
  0
ARC
  5
227
330
1F
100
AcDbEntity
  8
002
 62
     3
370
    30
100
AcDbCircle
 10
70.539225
 20
354.626173
 30
0.0
 40
0.5832097607208029
100
AcDbArc
 50
141.779327
 51
218.211025
  0
LINE
  5
228
330
1F
100
AcDbEntity
  8
002
 62
     3
370
    30
100
AcDbLine
 10
70.080975
 20
354.265423
 30
0.0
 11
70.455975
 21
354.265423
 31
0.0
  0
ARC
  5
229
330
1F
100
AcDbEntity
  8
002
 62
     3
370
    30
100
AcDbCircle
 10
69.9976
 20
354.626173
 30
0.0
 40
0.5833852982806172
100
AcDbArc
 50
321.796569
 51
38.213078
  0
LINE
  5
22A
330
1F
100
AcDbEntity
  8
002
 62
     3
370
    30
100
AcDbLine
 10
70.455975
 20
354.987048
 30
0.0
 11
70.080975
 21
354.987048
 31
0.0
  0
LINE
  5
22B
330
1F
100
AcDbEntity
  8
002
 62
     3
370
    30
100
AcDbLine
 10
69.9681
 20
355.235048
 30
0.0
 11
70.080975
 21
355.347923
 31
0.0
  0
LINE
  5
22C
330
1F
100
AcDbEntity
  8
002
 62
     3
370
    30
100
AcDbLine
 10
70.00935
 20
355.276423
 30
0.0
 11
69.830975
 21
355.265173
 31
0.0
  0
LINE
  5
22D
330
1F
100
AcDbEntity
  8
002
 62
     3
370
    30
100
AcDbLine
 10
69.830975
 20
354.626173
 30
0.0
 11
69.0191
 21
354.843798
 31
0.0
  0
ARC
  5
22E
330
1F
100
AcDbEntity
  8
002
 62
     3
370
    30
100
AcDbCircle
 10
69.18085
 20
355.447423
 30
0.0
 40
0.6249209575017892
100
AcDbArc
 50
180.0
 51
254.999188
  0
LINE
  5
22F
330
1F
100
AcDbEntity
  8
002
 62
     3
370
    30
100
AcDbLine
 10
68.55585
 20
355.447423
 30
0.0
 11
68.55585
 21
355.876173
 31
0.0
  0
ARC
  5
230
330
1F
100
AcDbEntity
  8
002
 62
     3
370
    30
100
AcDbCircle
 10
70.38835
 20
355.167423
 30
0.0
 40
0.1926350986969513
100
AcDbArc
 50
290.551694
 51
20.551694
  0
LINE
  5
231
330
1F
100
AcDbEntity
  8
002
 62
     3
370
    30
100
AcDbLine
 10
70.890475
 20
354.913423
 30
0.0
 11
70.890475
 21
354.339048
 31
0.0
  0
LINE
  5
232
330
1F
100
AcDbEntity
  8
002
 62
     3
370
    30
100
AcDbLine
 10
71.080975
 20
354.313673
 30
0.0
 11
71.080975
 21
354.938673
 31
0.0
  0
ARC
  5
233
330
1F
100
AcDbEntity
  8
002
 62
     3
370
    30
100
AcDbCircle
 10
71.373225
 20
354.626173
 30
0.0
 40
0.1250464913542
100
AcDbArc
 50
311.433771
 51
48.566229
  0
ARC
  5
234
330
1F
100
AcDbEntity
  8
002
 62
     3
370
    30
100
AcDbCircle
 10
70.38835
 20
354.084923
 30
0.0
 40
0.1927521481722418
100
AcDbArc
 50
339.448306
 51
69.46135
  0
ARC
  5
235
330
1F
100
AcDbEntity
  8
002
 62
     3
370
    30
100
AcDbCircle
 10
70.148475
 20
354.084923
 30
0.0
 40
0.1926350986969513
100
AcDbArc
 50
110.503847
 51
200.551694
  0
ARC
  5
236
330
1F
100
AcDbEntity
  8
002
 62
     3
370
    30
100
AcDbCircle
 10
67.93085
 20
352.751173
 30
0.0
 40
0.625
100
AcDbArc
 50
0.0
 51
90.0
  0
ARC
  5
237
330
1F
100
AcDbEntity
  8
002
 62
     3
370
    30
100
AcDbCircle
 10
67.387975
 20
352.751173
 30
0.0
 40
0.625
100
AcDbArc
 50
0.0
 51
90.0
  0
CIRCLE
  5
238
330
1F
100
AcDbEntity
  8
002
 62
     3
370
    30
100
AcDbCircle
 10
61.330975
 20
354.626173
 30
0.0
 40
1.875
  0
LINE
  5
239
330
1F
100
AcDbEntity
  8
002
 62
     3
370
    30
100
AcDbLine
 10
58.81885
 20
362.774298
 30
0.0
 11
59.88135
 21
363.387798
 31
0.0
  0
LINE
  5
23A
330
1F
100
AcDbEntity
  8
002
 62
     3
370
    30
100
AcDbLine
 10
59.88135
 20
363.387798
 30
0.0
 11
59.88135
 21
364.614673
 31
0.0
  0
LINE
  5
23B
330
1F
100
AcDbEntity
  8
002
 62
     3
370
    30
100
AcDbLine
 10
59.88135
 20
364.614673
 30
0.0
 11
58.81885
 21
365.228048
 31
0.0
  0
LINE
  5
23C
330
1F
100
AcDbEntity
  8
002
 62
     3
370
    30
100
AcDbLine
 10
58.81885
 20
365.228048
 30
0.0
 11
57.75635
 21
364.614673
 31
0.0
  0
LINE
  5
23D
330
1F
100
AcDbEntity
  8
002
 62
     3
370
    30
100
AcDbLine
 10
57.75635
 20
364.614673
 30
0.0
 11
57.75635
 21
363.387798
 31
0.0
  0
LINE
  5
23E
330
1F
100
AcDbEntity
  8
002
 62
     3
370
    30
100
AcDbLine
 10
57.75635
 20
363.387798
 30
0.0
 11
58.81885
 21
362.774298
 31
0.0
  0
CIRCLE
  5
23F
330
1F
100
AcDbEntity
  8
002
 62
     3
370
    30
100
AcDbCircle
 10
58.81885
 20
364.001173
 30
0.0
 40
1.875
  0
LINE
  5
240
330
1F
100
AcDbEntity
  8
002
 62
     3
370
    30
100
AcDbLine
 10
55.162475
 20
371.751173
 30
0.0
 11
69.455975
 21
371.751173
 31
0.0
  0
LINE
  5
241
330
1F
100
AcDbEntity
  8
002
 62
     3
370
    30
100
AcDbLine
 10
60.080975
 20
382.001173
 30
0.0
 11
58.830975
 21
382.001173
 31
0.0
  0
ARC
  5
242
330
1F
100
AcDbEntity
  8
002
 62
     3
370
    30
100
AcDbCircle
 10
52.080975
 20
380.001173
 30
0.0
 40
5.125
100
AcDbArc
 50
12.680383
 51
347.319617
  0
LINE
  5
243
330
1F
100
AcDbEntity
  8
002
 62
     3
370
    30
100
AcDbLine
 10
57.080975
 20
374.251173
 30
0.0
 11
57.080975
 21
389.501173
 31
0.0
  0
LINE
  5
244
330
1F
100
AcDbEntity
  8
002
 62
     3
370
    30
100
AcDbLine
 10
57.080975
 20
389.501173
 30
0.0
 11
61.830975
 21
389.501173
 31
0.0
  0
LINE
  5
245
330
1F
100
AcDbEntity
  8
002
 62
     3
370
    30
100
AcDbLine
 10
52.205975
 20
385.876173
 30
0.0
 11
32.955975
 21
385.876173
 31
0.0
  0
ARC
  5
246
330
1F
100
AcDbEntity
  8
002
 62
     3
370
    30
100
AcDbCircle
 10
32.955975
 20
380.001173
 30
0.0
 40
5.875
100
AcDbArc
 50
90.0
 51
180.0
  0
LINE
  5
247
330
1F
100
AcDbEntity
  8
002
 62
     3
370
    30
100
AcDbLine
 10
27.080975
 20
380.001173
 30
0.0
 11
27.080975
 21
369.162798
 31
0.0
  0
CIRCLE
  5
248
330
1F
100
AcDbEntity
  8
002
 62
     3
370
    30
100
AcDbCircle
 10
26.342975
 20
364.001173
 30
0.0
 40
1.875
  0
LINE
  5
249
330
1F
100
AcDbEntity
  8
002
 62
     3
370
    30
100
AcDbLine
 10
26.342975
 20
365.228048
 30
0.0
 11
25.280475
 21
364.614673
 31
0.0
  0
LINE
  5
24A
330
1F
100
AcDbEntity
  8
002
 62
     3
370
    30
100
AcDbLine
 10
25.280475
 20
364.614673
 30
0.0
 11
25.280475
 21
363.387798
 31
0.0
  0
LINE
  5
24B
330
1F
100
AcDbEntity
  8
002
 62
     3
370
    30
100
AcDbLine
 10
25.280475
 20
363.387798
 30
0.0
 11
26.342975
 21
362.774298
 31
0.0
  0
LINE
  5
24C
330
1F
100
AcDbEntity
  8
002
 62
     3
370
    30
100
AcDbLine
 10
26.342975
 20
362.774298
 30
0.0
 11
27.405475
 21
363.387798
 31
0.0
  0
LINE
  5
24D
330
1F
100
AcDbEntity
  8
002
 62
     3
370
    30
100
AcDbLine
 10
27.405475
 20
363.387798
 30
0.0
 11
27.405475
 21
364.614673
 31
0.0
  0
LINE
  5
24E
330
1F
100
AcDbEntity
  8
002
 62
     3
370
    30
100
AcDbLine
 10
27.405475
 20
364.614673
 30
0.0
 11
26.342975
 21
365.228048
 31
0.0
  0
LINE
  5
24F
330
1F
100
AcDbEntity
  8
002
 62
     3
370
    30
100
AcDbLine
 10
33.81935
 20
369.801673
 30
0.0
 11
32.592475
 21
369.801673
 31
0.0
  0
LINE
  5
250
330
1F
100
AcDbEntity
  8
002
 62
     3
370
    30
100
AcDbLine
 10
32.592475
 20
369.801673
 30
0.0
 11
31.9791
 21
370.864173
 31
0.0
  0
LINE
  5
251
330
1F
100
AcDbEntity
  8
002
 62
     3
370
    30
100
AcDbLine
 10
31.9791
 20
370.864173
 30
0.0
 11
32.592475
 21
371.926673
 31
0.0
  0
LINE
  5
252
330
1F
100
AcDbEntity
  8
002
 62
     3
370
    30
100
AcDbLine
 10
32.592475
 20
371.926673
 30
0.0
 11
33.81935
 21
371.926673
 31
0.0
  0
LINE
  5
253
330
1F
100
AcDbEntity
  8
002
 62
     3
370
    30
100
AcDbLine
 10
33.81935
 20
371.926673
 30
0.0
 11
34.43285
 21
370.864173
 31
0.0
  0
LINE
  5
254
330
1F
100
AcDbEntity
  8
002
 62
     3
370
    30
100
AcDbLine
 10
34.43285
 20
370.864173
 30
0.0
 11
33.81935
 21
369.801673
 31
0.0
  0
CIRCLE
  5
255
330
1F
100
AcDbEntity
  8
002
 62
     3
370
    30
100
AcDbCircle
 10
33.205975
 20
370.864173
 30
0.0
 40
1.875
  0
LINE
  5
256
330
1F
100
AcDbEntity
  8
002
 62
     3
370
    30
100
AcDbLine
 10
40.884475
 20
375.808423
 30
0.0
 11
41.3316
 21
385.280673
 31
0.0
  0
LINE
  5
257
330
1F
100
AcDbEntity
  8
002
 62
     3
370
    30
100
AcDbLine
 10
41.330975
 20
385.251173
 30
0.0
 11
41.330975
 21
375.839423
 31
0.0
  0
CIRCLE
  5
258
330
1F
100
AcDbEntity
  8
002
 62
     3
370
    30
100
AcDbCircle
 10
42.580975
 20
354.626173
 30
0.0
 40
21.25
  0
CIRCLE
  5
259
330
1F
100
AcDbEntity
  8
002
 62
     3
370
    30
100
AcDbCircle
 10
42.580975
 20
373.376173
 30
0.0
 40
1.875
  0
LINE
  5
25A
330
1F
100
AcDbEntity
  8
002
 62
     3
370
    30
100
AcDbLine
 10
42.580975
 20
374.603048
 30
0.0
 11
43.643475
 21
373.989673
 31
0.0
  0
LINE
  5
25B
330
1F
100
AcDbEntity
  8
002
 62
     3
370
    30
100
AcDbLine
 10
43.643475
 20
373.989673
 30
0.0
 11
43.643475
 21
372.762798
 31
0.0
  0
LINE
  5
25C
330
1F
100
AcDbEntity
  8
002
 62
     3
370
    30
100
AcDbLine
 10
43.643475
 20
372.762798
 30
0.0
 11
42.580975
 21
372.149298
 31
0.0
  0
LINE
  5
25D
330
1F
100
AcDbEntity
  8
002
 62
     3
370
    30
100
AcDbLine
 10
42.580975
 20
372.149298
 30
0.0
 11
41.518475
 21
372.762798
 31
0.0
  0
LINE
  5
25E
330
1F
100
AcDbEntity
  8
002
 62
     3
370
    30
100
AcDbLine
 10
41.518475
 20
372.762798
 30
0.0
 11
41.518475
 21
373.989673
 31
0.0
  0
LINE
  5
25F
330
1F
100
AcDbEntity
  8
002
 62
     3
370
    30
100
AcDbLine
 10
41.518475
 20
373.989673
 30
0.0
 11
42.580975
 21
374.603048
 31
0.0
  0
LINE
  5
260
330
1F
100
AcDbEntity
  8
002
 62
     3
370
    30
100
AcDbLine
 10
43.830975
 20
375.839423
 30
0.0
 11
43.830975
 21
385.251173
 31
0.0
  0
ARC
  5
261
330
1F
100
AcDbEntity
  8
002
 62
     3
370
    30
100
AcDbCircle
 10
43.205975
 20
385.251173
 30
0.0
 40
0.625
100
AcDbArc
 50
0.0
 51
90.0
  0
LINE
  5
262
330
1F
100
AcDbEntity
  8
002
 62
     3
370
    30
100
AcDbLine
 10
43.830225
 20
385.280673
 30
0.0
 11
44.27735
 21
375.808423
 31
0.0
  0
ARC
  5
263
330
1F
100
AcDbEntity
  8
002
 62
     3
370
    30
100
AcDbCircle
 10
52.205975
 20
380.001173
 30
0.0
 40
5.875
100
AcDbArc
 50
33.923361
 51
90.0
  0
CIRCLE
  5
264
330
1F
100
AcDbEntity
  8
002
 62
     3
370
    30
100
AcDbCircle
 10
52.080975
 20
380.001173
 30
0.0
 40
2.8125
  0
ARC
  5
265
330
1F
100
AcDbEntity
  8
002
 62
     3
370
    30
100
AcDbCircle
 10
41.955975
 20
385.251173
 30
0.0
 40
0.625
100
AcDbArc
 50
90.0
 51
180.0
  0
CIRCLE
  5
266
330
1F
100
AcDbEntity
  8
002
 62
     3
370
    30
100
AcDbCircle
 10
33.080975
 20
380.001173
 30
0.0
 40
5.125
  0
CIRCLE
  5
267
330
1F
100
AcDbEntity
  8
002
 62
     3
370
    30
100
AcDbCircle
 10
33.080975
 20
380.001173
 30
0.0
 40
2.8125
  0
CIRCLE
  5
268
330
1F
100
AcDbEntity
  8
002
 62
     3
370
    30
100
AcDbCircle
 10
23.830975
 20
354.626173
 30
0.0
 40
1.875
  0
LINE
  5
269
330
1F
100
AcDbEntity
  8
002
 62
     3
370
    30
100
AcDbLine
 10
23.217475
 20
355.688673
 30
0.0
 11
22.6041
 21
354.626173
 31
0.0
  0
LINE
  5
26A
330
1F
100
AcDbEntity
  8
002
 62
     3
370
    30
100
AcDbLine
 10
22.6041
 20
354.626173
 30
0.0
 11
23.217475
 21
353.563673
 31
0.0
  0
LINE
  5
26B
330
1F
100
AcDbEntity
  8
002
 62
     3
370
    30
100
AcDbLine
 10
23.217475
 20
353.563673
 30
0.0
 11
24.44435
 21
353.563673
 31
0.0
  0
LINE
  5
26C
330
1F
100
AcDbEntity
  8
002
 62
     3
370
    30
100
AcDbLine
 10
24.44435
 20
353.563673
 30
0.0
 11
25.05785
 21
354.626173
 31
0.0
  0
LINE
  5
26D
330
1F
100
AcDbEntity
  8
002
 62
     3
370
    30
100
AcDbLine
 10
25.05785
 20
354.626173
 30
0.0
 11
24.44435
 21
355.688673
 31
0.0
  0
LINE
  5
26E
330
1F
100
AcDbEntity
  8
002
 62
     3
370
    30
100
AcDbLine
 10
24.44435
 20
355.688673
 30
0.0
 11
23.217475
 21
355.688673
 31
0.0
  0
CIRCLE
  5
26F
330
1F
100
AcDbEntity
  8
002
 62
     3
370
    30
100
AcDbCircle
 10
26.342975
 20
345.251173
 30
0.0
 40
1.875
  0
LINE
  5
270
330
1F
100
AcDbEntity
  8
002
 62
     3
370
    30
100
AcDbLine
 10
26.342975
 20
346.478048
 30
0.0
 11
25.280475
 21
345.864673
 31
0.0
  0
LINE
  5
271
330
1F
100
AcDbEntity
  8
002
 62
     3
370
    30
100
AcDbLine
 10
25.280475
 20
345.864673
 30
0.0
 11
25.280475
 21
344.637798
 31
0.0
  0
LINE
  5
272
330
1F
100
AcDbEntity
  8
002
 62
     3
370
    30
100
AcDbLine
 10
25.280475
 20
344.637798
 30
0.0
 11
26.342975
 21
344.024298
 31
0.0
  0
LINE
  5
273
330
1F
100
AcDbEntity
  8
002
 62
     3
370
    30
100
AcDbLine
 10
26.342975
 20
344.024298
 30
0.0
 11
27.405475
 21
344.637798
 31
0.0
  0
LINE
  5
274
330
1F
100
AcDbEntity
  8
002
 62
     3
370
    30
100
AcDbLine
 10
27.405475
 20
344.637798
 30
0.0
 11
27.405475
 21
345.864673
 31
0.0
  0
LINE
  5
275
330
1F
100
AcDbEntity
  8
002
 62
     3
370
    30
100
AcDbLine
 10
27.405475
 20
345.864673
 30
0.0
 11
26.342975
 21
346.478048
 31
0.0
  0
LINE
  5
276
330
1F
100
AcDbEntity
  8
002
 62
     3
370
    30
100
AcDbLine
 10
27.080975
 20
340.089673
 30
0.0
 11
27.080975
 21
329.251173
 31
0.0
  0
ARC
  5
277
330
1F
100
AcDbEntity
  8
002
 62
     3
370
    30
100
AcDbCircle
 10
32.955975
 20
329.251173
 30
0.0
 40
5.875
100
AcDbArc
 50
180.0
 51
270.0
  0
LINE
  5
278
330
1F
100
AcDbEntity
  8
002
 62
     3
370
    30
100
AcDbLine
 10
32.955975
 20
323.376173
 30
0.0
 11
52.205975
 21
323.376173
 31
0.0
  0
ARC
  5
279
330
1F
100
AcDbEntity
  8
002
 62
     3
370
    30
100
AcDbCircle
 10
52.205975
 20
329.251173
 30
0.0
 40
5.874947394711311
100
AcDbArc
 50
270.0
 51
326.077651
  0
LINE
  5
27A
330
1F
100
AcDbEntity
  8
002
 62
     3
370
    30
100
AcDbLine
 10
58.830975
 20
327.251173
 30
0.0
 11
60.080975
 21
327.251173
 31
0.0
  0
LINE
  5
27B
330
1F
100
AcDbEntity
  8
002
 62
     3
370
    30
100
AcDbLine
 10
60.080975
 20
329.039798
 30
0.0
 11
60.080975
 21
319.751173
 31
0.0
  0
LINE
  5
27C
330
1F
100
AcDbEntity
  8
002
 62
     3
370
    30
100
AcDbLine
 10
61.830975
 20
319.751173
 30
0.0
 11
61.830975
 21
335.001173
 31
0.0
  0
LINE
  5
27D
330
1F
100
AcDbEntity
  8
002
 62
     3
370
    30
100
AcDbLine
 10
62.268475
 20
335.001173
 30
0.0
 11
56.643475
 21
335.001173
 31
0.0
  0
LINE
  5
27E
330
1F
100
AcDbEntity
  8
002
 62
     3
370
    30
100
AcDbLine
 10
56.643475
 20
335.001173
 30
0.0
 11
56.643475
 21
335.251173
 31
0.0
  0
LINE
  5
27F
330
1F
100
AcDbEntity
  8
002
 62
     3
370
    30
100
AcDbLine
 10
62.268475
 20
335.001173
 30
0.0
 11
62.268475
 21
335.251173
 31
0.0
  0
LINE
  5
280
330
1F
100
AcDbEntity
  8
002
 62
     3
370
    30
100
AcDbLine
 10
53.6736
 20
336.376173
 30
0.0
 11
69.455975
 21
336.376173
 31
0.0
  0
LINE
  5
281
330
1F
100
AcDbEntity
  8
002
 62
     3
370
    30
100
AcDbLine
 10
69.455975
 20
336.376173
 30
0.0
 11
69.455975
 21
339.053423
 31
0.0
  0
ARC
  5
282
330
1F
100
AcDbEntity
  8
002
 62
     3
370
    30
100
AcDbCircle
 10
70.080975
 20
339.053423
 30
0.0
 40
0.625
100
AcDbArc
 50
113.580818
 51
180.0
  0
ARC
  5
283
330
1F
100
AcDbEntity
  8
002
 62
     3
370
    30
100
AcDbCircle
 10
68.637975
 20
338.659548
 30
0.0
 40
0.625
100
AcDbArc
 50
105.000812
 51
180.0
  0
LINE
  5
284
330
1F
100
AcDbEntity
  8
002
 62
     3
370
    30
100
AcDbLine
 10
69.455975
 20
337.501173
 30
0.0
 11
55.162475
 21
337.501173
 31
0.0
  0
LINE
  5
285
330
1F
100
AcDbEntity
  8
002
 62
     3
370
    30
100
AcDbLine
 10
53.18285
 20
338.388173
 30
0.0
 11
52.56935
 21
339.450673
 31
0.0
  0
LINE
  5
286
330
1F
100
AcDbEntity
  8
002
 62
     3
370
    30
100
AcDbLine
 10
52.56935
 20
339.450673
 30
0.0
 11
51.342475
 21
339.450673
 31
0.0
  0
LINE
  5
287
330
1F
100
AcDbEntity
  8
002
 62
     3
370
    30
100
AcDbLine
 10
51.342475
 20
339.450673
 30
0.0
 11
50.7291
 21
338.388173
 31
0.0
  0
LINE
  5
288
330
1F
100
AcDbEntity
  8
002
 62
     3
370
    30
100
AcDbLine
 10
50.7291
 20
338.388173
 30
0.0
 11
51.342475
 21
337.325673
 31
0.0
  0
LINE
  5
289
330
1F
100
AcDbEntity
  8
002
 62
     3
370
    30
100
AcDbLine
 10
51.342475
 20
337.325673
 30
0.0
 11
52.56935
 21
337.325673
 31
0.0
  0
LINE
  5
28A
330
1F
100
AcDbEntity
  8
002
 62
     3
370
    30
100
AcDbLine
 10
52.56935
 20
337.325673
 30
0.0
 11
53.18285
 21
338.388173
 31
0.0
  0
CIRCLE
  5
28B
330
1F
100
AcDbEntity
  8
002
 62
     3
370
    30
100
AcDbCircle
 10
51.955975
 20
338.388173
 30
0.0
 40
1.875
  0
LINE
  5
28C
330
1F
100
AcDbEntity
  8
002
 62
     3
370
    30
100
AcDbLine
 10
57.75635
 20
345.864673
 30
0.0
 11
58.81885
 21
346.478048
 31
0.0
  0
LINE
  5
28D
330
1F
100
AcDbEntity
  8
002
 62
     3
370
    30
100
AcDbLine
 10
58.81885
 20
346.478048
 30
0.0
 11
59.88135
 21
345.864673
 31
0.0
  0
LINE
  5
28E
330
1F
100
AcDbEntity
  8
002
 62
     3
370
    30
100
AcDbLine
 10
59.88135
 20
345.864673
 30
0.0
 11
59.88135
 21
344.637798
 31
0.0
  0
LINE
  5
28F
330
1F
100
AcDbEntity
  8
002
 62
     3
370
    30
100
AcDbLine
 10
59.88135
 20
344.637798
 30
0.0
 11
58.81885
 21
344.024298
 31
0.0
  0
LINE
  5
290
330
1F
100
AcDbEntity
  8
002
 62
     3
370
    30
100
AcDbLine
 10
58.81885
 20
344.024298
 30
0.0
 11
57.75635
 21
344.637798
 31
0.0
  0
LINE
  5
291
330
1F
100
AcDbEntity
  8
002
 62
     3
370
    30
100
AcDbLine
 10
57.75635
 20
344.637798
 30
0.0
 11
57.75635
 21
345.864673
 31
0.0
  0
CIRCLE
  5
292
330
1F
100
AcDbEntity
  8
002
 62
     3
370
    30
100
AcDbCircle
 10
58.81885
 20
345.251173
 30
0.0
 40
1.875
  0
LINE
  5
293
330
1F
100
AcDbEntity
  8
002
 62
     3
370
    30
100
AcDbLine
 10
57.080975
 20
335.001173
 30
0.0
 11
57.080975
 21
319.751173
 31
0.0
  0
LINE
  5
294
330
1F
100
AcDbEntity
  8
002
 62
     3
370
    30
100
AcDbLine
 10
57.080975
 20
319.751173
 30
0.0
 11
61.830975
 21
319.751173
 31
0.0
  0
LINE
  5
295
330
1F
100
AcDbEntity
  8
002
 62
     3
370
    30
100
AcDbLine
 10
58.830975
 20
319.751173
 30
0.0
 11
58.830975
 21
329.039798
 31
0.0
  0
LINE
  5
296
330
1F
100
AcDbEntity
  8
002
 62
     3
370
    30
100
AcDbLine
 10
58.830975
 20
329.039798
 30
0.0
 11
60.080975
 21
329.039798
 31
0.0
  0
ARC
  5
297
330
1F
100
AcDbEntity
  8
002
 62
     3
370
    30
100
AcDbCircle
 10
52.080975
 20
329.251173
 30
0.0
 40
5.125
100
AcDbArc
 50
12.680383
 51
347.319617
  0
CIRCLE
  5
298
330
1F
100
AcDbEntity
  8
002
 62
     3
370
    30
100
AcDbCircle
 10
52.080975
 20
329.251173
 30
0.0
 40
2.8125
  0
LINE
  5
299
330
1F
100
AcDbEntity
  8
002
 62
     3
370
    30
100
AcDbLine
 10
44.27735
 20
333.444048
 30
0.0
 11
43.830225
 21
323.971798
 31
0.0
  0
LINE
  5
29A
330
1F
100
AcDbEntity
  8
002
 62
     3
370
    30
100
AcDbLine
 10
43.830975
 20
324.001173
 30
0.0
 11
43.830975
 21
333.413048
 31
0.0
  0
LINE
  5
29B
330
1F
100
AcDbEntity
  8
002
 62
     3
370
    30
100
AcDbLine
 10
42.580975
 20
334.649298
 30
0.0
 11
41.518475
 21
335.262798
 31
0.0
  0
LINE
  5
29C
330
1F
100
AcDbEntity
  8
002
 62
     3
370
    30
100
AcDbLine
 10
41.518475
 20
335.262798
 30
0.0
 11
41.518475
 21
336.489673
 31
0.0
  0
LINE
  5
29D
330
1F
100
AcDbEntity
  8
002
 62
     3
370
    30
100
AcDbLine
 10
41.518475
 20
336.489673
 30
0.0
 11
42.580975
 21
337.103048
 31
0.0
  0
LINE
  5
29E
330
1F
100
AcDbEntity
  8
002
 62
     3
370
    30
100
AcDbLine
 10
42.580975
 20
337.103048
 30
0.0
 11
43.643475
 21
336.489673
 31
0.0
  0
LINE
  5
29F
330
1F
100
AcDbEntity
  8
002
 62
     3
370
    30
100
AcDbLine
 10
43.643475
 20
336.489673
 30
0.0
 11
43.643475
 21
335.262798
 31
0.0
  0
LINE
  5
2A0
330
1F
100
AcDbEntity
  8
002
 62
     3
370
    30
100
AcDbLine
 10
43.643475
 20
335.262798
 30
0.0
 11
42.580975
 21
334.649298
 31
0.0
  0
LINE
  5
2A1
330
1F
100
AcDbEntity
  8
002
 62
     3
370
    30
100
AcDbLine
 10
41.330975
 20
333.413048
 30
0.0
 11
41.330975
 21
324.001173
 31
0.0
  0
ARC
  5
2A2
330
1F
100
AcDbEntity
  8
002
 62
     3
370
    30
100
AcDbCircle
 10
41.955975
 20
324.001173
 30
0.0
 40
0.625
100
AcDbArc
 50
180.0
 51
270.0
  0
LINE
  5
2A3
330
1F
100
AcDbEntity
  8
002
 62
     3
370
    30
100
AcDbLine
 10
41.3316
 20
323.971798
 30
0.0
 11
40.884475
 21
333.444048
 31
0.0
  0
CIRCLE
  5
2A4
330
1F
100
AcDbEntity
  8
002
 62
     3
370
    30
100
AcDbCircle
 10
42.580975
 20
335.876173
 30
0.0
 40
1.875
  0
LINE
  5
2A5
330
1F
100
AcDbEntity
  8
002
 62
     3
370
    30
100
AcDbLine
 10
34.43285
 20
338.388173
 30
0.0
 11
33.81935
 21
339.450673
 31
0.0
  0
LINE
  5
2A6
330
1F
100
AcDbEntity
  8
002
 62
     3
370
    30
100
AcDbLine
 10
33.81935
 20
339.450673
 30
0.0
 11
32.592475
 21
339.450673
 31
0.0
  0
LINE
  5
2A7
330
1F
100
AcDbEntity
  8
002
 62
     3
370
    30
100
AcDbLine
 10
32.592475
 20
339.450673
 30
0.0
 11
31.9791
 21
338.388173
 31
0.0
  0
LINE
  5
2A8
330
1F
100
AcDbEntity
  8
002
 62
     3
370
    30
100
AcDbLine
 10
31.9791
 20
338.388173
 30
0.0
 11
32.592475
 21
337.325673
 31
0.0
  0
LINE
  5
2A9
330
1F
100
AcDbEntity
  8
002
 62
     3
370
    30
100
AcDbLine
 10
32.592475
 20
337.325673
 30
0.0
 11
33.81935
 21
337.325673
 31
0.0
  0
LINE
  5
2AA
330
1F
100
AcDbEntity
  8
002
 62
     3
370
    30
100
AcDbLine
 10
33.81935
 20
337.325673
 30
0.0
 11
34.43285
 21
338.388173
 31
0.0
  0
CIRCLE
  5
2AB
330
1F
100
AcDbEntity
  8
002
 62
     3
370
    30
100
AcDbCircle
 10
33.205975
 20
338.388173
 30
0.0
 40
1.875
  0
CIRCLE
  5
2AC
330
1F
100
AcDbEntity
  8
002
 62
     3
370
    30
100
AcDbCircle
 10
33.080975
 20
329.251173
 30
0.0
 40
5.125
  0
CIRCLE
  5
2AD
330
1F
100
AcDbEntity
  8
002
 62
     3
370
    30
100
AcDbCircle
 10
33.080975
 20
329.251173
 30
0.0
 40
2.8125
  0
ARC
  5
2AE
330
1F
100
AcDbEntity
  8
002
 62
     3
370
    30
100
AcDbCircle
 10
43.205975
 20
324.001173
 30
0.0
 40
0.625
100
AcDbArc
 50
270.0
 51
0.0
  0
LINE
  5
2AF
330
1F
100
AcDbEntity
  8
002
 62
    40
370
    30
100
AcDbLine
 10
69.9086
 20
353.982298
 30
0.0
 11
69.828475
 21
354.062423
 31
0.0
  0
LINE
  5
2B0
330
1F
100
AcDbEntity
  8
002
 62
    40
370
    30
100
AcDbLine
 10
69.828475
 20
355.190048
 30
0.0
 11
69.9086
 21
355.270048
 31
0.0
  0
LINE
  5
2B1
330
1F
100
AcDbEntity
  8
002
  6
CENTER
 62
    40
370
     9
100
AcDbLine
 10
46.205975
 20
380.001173
 30
0.0
 11
59.567725
 21
380.001173
 31
0.0
  0
LINE
  5
2B2
330
1F
100
AcDbEntity
  8
002
  6
CENTER
 62
    40
370
     9
100
AcDbLine
 10
52.080975
 20
374.126173
 30
0.0
 11
52.080975
 21
387.289423
 31
0.0
  0
LINE
  5
2B3
330
1F
100
AcDbEntity
  8
002
  6
CENTER
 62
    40
370
     9
100
AcDbLine
 10
33.080975
 20
387.289423
 30
0.0
 11
33.080975
 21
374.126173
 31
0.0
  0
LINE
  5
2B4
330
1F
100
AcDbEntity
  8
002
  6
CENTER
 62
    40
370
     9
100
AcDbLine
 10
25.5941
 20
380.001173
 30
0.0
 11
38.955975
 21
380.001173
 31
0.0
  0
LINE
  5
2B5
330
1F
100
AcDbEntity
  8
002
  6
CENTER
 62
    40
370
     9
100
AcDbLine
 10
32.130475
 20
372.726798
 30
0.0
 11
34.3011
 21
368.967423
 31
0.0
  0
CIRCLE
  5
2B6
330
1F
100
AcDbEntity
  8
002
  6
CENTER
 62
    40
370
     9
100
AcDbCircle
 10
42.580975
 20
354.626173
 30
0.0
 40
18.75
  0
LINE
  5
2B7
330
1F
100
AcDbEntity
  8
002
  6
CENTER
 62
    40
370
     9
100
AcDbLine
 10
28.239725
 20
362.906048
 30
0.0
 11
24.480225
 21
365.076673
 31
0.0
  0
LINE
  5
2B8
330
1F
100
AcDbEntity
  8
002
  6
CENTER
 62
    40
370
     9
100
AcDbLine
 10
53.03135
 20
372.726798
 30
0.0
 11
50.86085
 21
368.967423
 31
0.0
  0
LINE
  5
2B9
330
1F
100
AcDbEntity
  8
002
  6
CENTER
 62
    40
370
     9
100
AcDbLine
 10
56.9221
 20
362.906048
 30
0.0
 11
60.6816
 21
365.076673
 31
0.0
  0
LINE
  5
2BA
330
1F
100
AcDbEntity
  8
002
  6
CENTER
 62
    40
370
     9
100
AcDbLine
 10
56.9221
 20
346.346298
 30
0.0
 11
60.6816
 21
344.175798
 31
0.0
  0
LINE
  5
2BB
330
1F
100
AcDbEntity
  8
002
  6
CENTER
 62
    40
370
     9
100
AcDbLine
 10
53.03135
 20
336.400548
 30
0.0
 11
50.86085
 21
340.285048
 31
0.0
  0
LINE
  5
2BC
330
1F
100
AcDbEntity
  8
002
  6
CENTER
 62
    40
370
     9
100
AcDbLine
 10
34.3011
 20
340.285048
 30
0.0
 11
32.130475
 21
336.525548
 31
0.0
  0
LINE
  5
2BD
330
1F
100
AcDbEntity
  8
002
  6
CENTER
 62
    40
370
     9
100
AcDbLine
 10
24.480225
 20
344.175798
 30
0.0
 11
28.239725
 21
346.346298
 31
0.0
  0
LINE
  5
2BE
330
1F
100
AcDbEntity
  8
002
  6
CENTER
 62
    40
370
     9
100
AcDbLine
 10
33.080975
 20
335.126173
 30
0.0
 11
33.080975
 21
321.962923
 31
0.0
  0
LINE
  5
2BF
330
1F
100
AcDbEntity
  8
002
  6
CENTER
 62
    40
370
     9
100
AcDbLine
 10
38.955975
 20
329.251173
 30
0.0
 11
25.5941
 21
329.251173
 31
0.0
  0
LINE
  5
2C0
330
1F
100
AcDbEntity
  8
002
  6
CENTER
 62
    40
370
     9
100
AcDbLine
 10
52.080975
 20
321.962923
 30
0.0
 11
52.080975
 21
335.126173
 31
0.0
  0
LINE
  5
2C1
330
1F
100
AcDbEntity
  8
002
  6
CENTER
 62
    40
370
     9
100
AcDbLine
 10
46.205975
 20
329.251173
 30
0.0
 11
59.567725
 21
329.251173
 31
0.0
  0
ARC
  5
2C2
330
1F
100
AcDbEntity
  8
002
 62
     3
370
    30
100
AcDbCircle
 10
59.455975
 20
261.626173
 30
0.0
 40
2.375
100
AcDbArc
 50
105.257523
 51
74.742477
  0
LINE
  5
2C3
330
1F
100
AcDbEntity
  8
002
  6
CENTER
 62
    40
370
     9
100
AcDbLine
 10
63.705975
 20
261.626173
 30
0.0
 11
55.205975
 21
261.626173
 31
0.0
  0
LINE
  5
2C4
330
1F
100
AcDbEntity
  8
002
  6
CENTER
 62
    40
370
     9
100
AcDbLine
 10
59.455975
 20
257.376173
 30
0.0
 11
59.455975
 21
265.876173
 31
0.0
  0
LINE
  5
2C5
330
1F
100
AcDbEntity
  8
002
  6
CENTER
 62
    40
370
     9
100
AcDbLine
 10
42.580975
 20
318.376173
 30
0.0
 11
42.580975
 21
390.876173
 31
0.0
  0
LINE
  5
2C6
330
1F
100
AcDbEntity
  8
002
  6
CENTER
 62
    40
370
     9
100
AcDbLine
 10
59.455975
 20
392.001173
 30
0.0
 11
59.455975
 21
317.251173
 31
0.0
  0
LINE
  5
2C7
330
1F
100
AcDbEntity
  8
002
  6
CENTER
 62
    40
370
     9
100
AcDbLine
 10
73.955975
 20
354.626173
 30
0.0
 11
18.830975
 21
354.626173
 31
0.0
  0
LINE
  5
2C8
330
1F
100
AcDbEntity
  8
002
  6
CENTER
 62
    40
370
     9
100
AcDbLine
 10
229.361821
 20
288.351093
 30
0.0
 11
229.361821
 21
264.223273
 31
0.0
  0
LINE
  5
2C9
330
1F
100
AcDbEntity
  8
002
  6
CENTER
 62
    40
370
     9
100
AcDbLine
 10
144.23884
 20
264.223273
 30
0.0
 11
144.23884
 21
317.476093
 31
0.0
  0
LINE
  5
2CA
330
1F
100
AcDbEntity
  8
002
 62
     3
370
    30
100
AcDbLine
 10
53.466745
 20
372.876173
 30
0.0
 11
69.455975
 21
372.876173
 31
0.0
  0
LINE
  5
2CB
330
1F
100
AcDbEntity
  8
002
  6
HIDDEN
 62
    40
370
     9
100
AcDbLine
 10
149.86384
 20
287.726093
 30
0.0
 11
138.61384
 21
287.726093
 31
0.0
  0
LINE
  5
2CC
330
1F
100
AcDbEntity
  8
002
  6
HIDDEN
 62
    40
370
     9
100
AcDbLine
 10
138.61384
 20
287.726093
 30
0.0
 11
138.61384
 21
277.976093
 31
0.0
  0
LINE
  5
2CD
330
1F
100
AcDbEntity
  8
002
  6
HIDDEN
 62
    40
370
     9
100
AcDbLine
 10
138.61384
 20
277.976093
 30
0.0
 11
149.86384
 21
277.976093
 31
0.0
  0
LINE
  5
2CE
330
1F
100
AcDbEntity
  8
002
  6
HIDDEN
 62
    40
370
     9
100
AcDbLine
 10
149.86384
 20
277.976093
 30
0.0
 11
149.86384
 21
287.726093
 31
0.0
  0
LINE
  5
2CF
330
1F
100
AcDbEntity
  8
002
  6
HIDDEN
 62
    40
370
     9
100
AcDbLine
 10
138.86384
 20
277.976093
 30
0.0
 11
138.86384
 21
277.476093
 31
0.0
  0
LINE
  5
2D0
330
1F
100
AcDbEntity
  8
002
  6
HIDDEN
 62
    40
370
     9
100
AcDbLine
 10
149.61384
 20
277.976093
 30
0.0
 11
149.61384
 21
277.476093
 31
0.0
  0
LINE
  5
2D1
330
1F
100
AcDbEntity
  8
002
  6
HIDDEN
 62
    40
370
     9
100
AcDbLine
 10
138.749215
 20
287.726093
 30
0.0
 11
138.749215
 21
277.976093
 31
0.0
  0
LINE
  5
2D2
330
1F
100
AcDbEntity
  8
002
  6
HIDDEN
 62
    40
370
     9
100
AcDbLine
 10
149.728465
 20
277.976093
 30
0.0
 11
149.728465
 21
287.726093
 31
0.0
  0
LINE
  5
2D3
330
1F
100
AcDbEntity
  8
002
  6
HIDDEN
 62
    40
370
     9
100
AcDbLine
 10
234.986821
 20
287.726093
 30
0.0
 11
223.736821
 21
287.726093
 31
0.0
  0
LINE
  5
2D4
330
1F
100
AcDbEntity
  8
002
  6
HIDDEN
 62
    40
370
     9
100
AcDbLine
 10
223.736821
 20
287.726093
 30
0.0
 11
223.736821
 21
277.976093
 31
0.0
  0
LINE
  5
2D5
330
1F
100
AcDbEntity
  8
002
  6
HIDDEN
 62
    40
370
     9
100
AcDbLine
 10
223.736821
 20
277.976093
 30
0.0
 11
234.986821
 21
277.976093
 31
0.0
  0
LINE
  5
2D6
330
1F
100
AcDbEntity
  8
002
  6
HIDDEN
 62
    40
370
     9
100
AcDbLine
 10
234.986821
 20
277.976093
 30
0.0
 11
234.986821
 21
287.726093
 31
0.0
  0
LINE
  5
2D7
330
1F
100
AcDbEntity
  8
002
  6
HIDDEN
 62
    40
370
     9
100
AcDbLine
 10
223.986821
 20
277.976093
 30
0.0
 11
223.986821
 21
277.476093
 31
0.0
  0
LINE
  5
2D8
330
1F
100
AcDbEntity
  8
002
  6
HIDDEN
 62
    40
370
     9
100
AcDbLine
 10
234.736821
 20
277.976093
 30
0.0
 11
234.736821
 21
277.476093
 31
0.0
  0
LINE
  5
2D9
330
1F
100
AcDbEntity
  8
002
  6
HIDDEN
 62
    40
370
     9
100
AcDbLine
 10
223.872196
 20
287.726093
 30
0.0
 11
223.872196
 21
277.976093
 31
0.0
  0
LINE
  5
2DA
330
1F
100
AcDbEntity
  8
002
  6
HIDDEN
 62
    40
370
     9
100
AcDbLine
 10
234.851446
 20
277.976093
 30
0.0
 11
234.851446
 21
287.726093
 31
0.0
  0
LINE
  5
2DB
330
1F
100
AcDbEntity
  8
002
 62
     3
370
    30
100
AcDbLine
 10
213.992183
 20
96.264532
 30
0.0
 11
213.992183
 21
107.139532
 31
0.0
  0
CIRCLE
  5
2DC
330
1F
100
AcDbEntity
  8
002
 62
     3
370
    30
100
AcDbCircle
 10
223.992183
 20
107.139532
 30
0.0
 40
10.0
  0
LINE
  5
2DD
330
1F
100
AcDbEntity
  8
002
 62
     3
370
    30
100
AcDbLine
 10
219.698808
 20
116.171032
 30
0.0
 11
219.698808
 21
116.858532
 31
0.0
  0
ARC
  5
2DE
330
1F
100
AcDbEntity
  8
002
 62
     3
370
    30
100
AcDbCircle
 10
216.421183
 20
113.672532
 30
0.0
 40
0.6249939249705518
100
AcDbArc
 50
139.201079
 51
207.154388
  0
ARC
  5
2DF
330
1F
100
AcDbEntity
  8
002
 62
     3
370
    30
100
AcDbCircle
 10
223.992183
 20
107.139532
 30
0.0
 40
10.6250661122943
100
AcDbArc
 50
113.833478
 51
139.208684
  0
LINE
  5
2E0
330
1F
100
AcDbEntity
  8
002
 62
     3
370
    30
100
AcDbLine
 10
216.723933
 20
114.889532
 30
0.0
 11
187.214558
 21
114.889532
 31
0.0
  0
LINE
  5
2E1
330
1F
100
AcDbEntity
  8
002
 62
     3
370
    30
100
AcDbLine
 10
187.279683
 20
114.511032
 30
0.0
 11
186.793683
 21
114.641282
 31
0.0
  0
ARC
  5
2E2
330
1F
100
AcDbEntity
  8
002
 62
     3
370
    30
100
AcDbCircle
 10
187.117183
 20
115.848782
 30
0.0
 40
1.25
100
AcDbArc
 50
180.0
 51
255.002154
  0
LINE
  5
2E3
330
1F
100
AcDbEntity
  8
002
 62
     3
370
    30
100
AcDbLine
 10
185.867183
 20
115.848782
 30
0.0
 11
185.867183
 21
123.014532
 31
0.0
  0
ARC
  5
2E4
330
1F
100
AcDbEntity
  8
002
 62
     3
370
    30
100
AcDbCircle
 10
186.492183
 20
123.014532
 30
0.0
 40
0.625
100
AcDbArc
 50
126.869898
 51
180.0
  0
LINE
  5
2E5
330
1F
100
AcDbEntity
  8
002
 62
     3
370
    30
100
AcDbLine
 10
186.117183
 20
123.514532
 30
0.0
 11
228.117183
 21
123.514532
 31
0.0
  0
ARC
  5
2E6
330
1F
100
AcDbEntity
  8
002
 62
     3
370
    30
100
AcDbCircle
 10
227.742183
 20
123.014532
 30
0.0
 40
0.625
100
AcDbArc
 50
0.0
 51
53.130102
  0
LINE
  5
2E7
330
1F
100
AcDbEntity
  8
002
 62
     3
370
    30
100
AcDbLine
 10
228.367183
 20
123.014532
 30
0.0
 11
228.367183
 21
118.232282
 31
0.0
  0
ARC
  5
2E8
330
1F
100
AcDbEntity
  8
002
 62
     3
370
    30
100
AcDbCircle
 10
219.492183
 20
107.139532
 30
0.0
 40
14.49997439868429
100
AcDbArc
 50
284.355141
 51
51.089954
  0
ARC
  5
2E9
330
1F
100
AcDbEntity
  8
002
 62
     3
370
    30
100
AcDbCircle
 10
226.367183
 20
93.596282
 30
0.0
 40
3.749992760409671
100
AcDbArc
 50
99.946798
 51
180.0
  0
LINE
  5
2EA
330
1F
100
AcDbEntity
  8
002
 62
     3
370
    30
100
AcDbLine
 10
221.992183
 20
96.264532
 30
0.0
 11
192.242183
 21
96.264532
 31
0.0
  0
LINE
  5
2EB
330
1F
100
AcDbEntity
  8
002
 62
     3
370
    30
100
AcDbLine
 10
191.617183
 20
95.639532
 30
0.0
 11
191.617183
 21
92.139532
 31
0.0
  0
LINE
  5
2EC
330
1F
100
AcDbEntity
  8
002
 62
     3
370
    30
100
AcDbLine
 10
189.617183
 20
92.139532
 30
0.0
 11
222.617183
 21
92.139532
 31
0.0
  0
LINE
  5
2ED
330
1F
100
AcDbEntity
  8
002
 62
     3
370
    30
100
AcDbLine
 10
222.617183
 20
92.139532
 30
0.0
 11
222.617183
 21
95.639532
 31
0.0
  0
ARC
  5
2EE
330
1F
100
AcDbEntity
  8
002
 62
     3
370
    30
100
AcDbCircle
 10
221.992183
 20
95.639532
 30
0.0
 40
0.625
100
AcDbArc
 50
0.0
 51
90.0
  0
ARC
  5
2EF
330
1F
100
AcDbEntity
  8
002
 62
     3
370
    30
100
AcDbCircle
 10
223.242183
 20
92.486782
 30
0.0
 40
0.6250241995315056
100
AcDbArc
 50
104.358626
 51
180.0
  0
ARC
  5
2F0
330
1F
100
AcDbEntity
  8
002
 62
     3
370
    30
100
AcDbCircle
 10
210.197933
 20
97.514532
 30
0.0
 40
1.249935304575851
100
AcDbArc
 50
182.063201
 51
270.0
  0
LINE
  5
2F1
330
1F
100
AcDbEntity
  8
002
 62
     3
370
    30
100
AcDbLine
 10
208.948808
 20
97.469532
 30
0.0
 11
208.368058
 21
113.594532
 31
0.0
  0
LINE
  5
2F2
330
1F
100
AcDbEntity
  8
002
 62
     3
370
    30
100
AcDbLine
 10
208.367183
 20
113.639532
 30
0.0
 11
208.367183
 21
97.514532
 31
0.0
  0
ARC
  5
2F3
330
1F
100
AcDbEntity
  8
002
 62
     3
370
    30
100
AcDbCircle
 10
209.617183
 20
97.514532
 30
0.0
 40
1.25
100
AcDbArc
 50
180.0
 51
270.0
  0
LINE
  5
2F4
330
1F
100
AcDbEntity
  8
002
 62
     3
370
    30
100
AcDbLine
 10
205.867183
 20
97.514532
 30
0.0
 11
205.867183
 21
113.639532
 31
0.0
  0
LINE
  5
2F5
330
1F
100
AcDbEntity
  8
002
 62
     3
370
    30
100
AcDbLine
 10
205.866433
 20
113.594532
 30
0.0
 11
205.285558
 21
97.469532
 31
0.0
  0
ARC
  5
2F6
330
1F
100
AcDbEntity
  8
002
 62
     3
370
    30
100
AcDbCircle
 10
204.036433
 20
97.514532
 30
0.0
 40
1.25
100
AcDbArc
 50
270.0
 51
357.936799
  0
ARC
  5
2F7
330
1F
100
AcDbEntity
  8
002
 62
     3
370
    30
100
AcDbCircle
 10
204.617183
 20
97.514532
 30
0.0
 40
1.25
100
AcDbArc
 50
270.0
 51
0.0
  0
LINE
  5
2F8
330
1F
100
AcDbEntity
  8
002
 62
     3
370
    30
100
AcDbLine
 10
189.617183
 20
92.139532
 30
0.0
 11
189.617183
 21
100.867532
 31
0.0
  0
ARC
  5
2F9
330
1F
100
AcDbEntity
  8
002
 62
     3
370
    30
100
AcDbCircle
 10
188.992183
 20
100.867532
 30
0.0
 40
0.625
100
AcDbArc
 50
0.0
 51
75.002154
  0
LINE
  5
2FA
330
1F
100
AcDbEntity
  8
002
 62
     3
370
    30
100
AcDbLine
 10
188.992183
 20
101.514532
 30
0.0
 11
191.382933
 21
100.873907
 31
0.0
  0
ARC
  5
2FB
330
1F
100
AcDbEntity
  8
002
 62
     3
370
    30
100
AcDbCircle
 10
191.059433
 20
99.666532
 30
0.0
 40
1.25
100
AcDbArc
 50
0.0
 51
75.000671
  0
LINE
  5
2FC
330
1F
100
AcDbEntity
  8
002
 62
     3
370
    30
100
AcDbLine
 10
192.309433
 20
101.514532
 30
0.0
 11
192.309433
 21
112.277657
 31
0.0
  0
ARC
  5
2FD
330
1F
100
AcDbEntity
  8
002
 62
     3
370
    30
100
AcDbCircle
 10
194.184433
 20
112.277657
 30
0.0
 40
1.875
100
AcDbArc
 50
90.0
 51
180.0
  0
LINE
  5
2FE
330
1F
100
AcDbEntity
  8
002
 62
     3
370
    30
100
AcDbLine
 10
194.184433
 20
114.152657
 30
0.0
 11
204.655058
 21
114.152657
 31
0.0
  0
ARC
  5
2FF
330
1F
100
AcDbEntity
  8
002
 62
     3
370
    30
100
AcDbCircle
 10
204.617183
 20
113.639532
 30
0.0
 40
1.25
100
AcDbArc
 50
0.0
 51
90.0
  0
ARC
  5
300
330
1F
100
AcDbEntity
  8
002
 62
     3
370
    30
100
AcDbCircle
 10
209.617183
 20
113.639532
 30
0.0
 40
1.25
100
AcDbArc
 50
90.0
 51
180.0
  0
LINE
  5
301
330
1F
100
AcDbEntity
  8
002
 62
     3
370
    30
100
AcDbLine
 10
209.499058
 20
114.152657
 30
0.0
 11
215.212558
 21
114.152657
 31
0.0
  0
LINE
  5
302
330
1F
100
AcDbEntity
  8
002
 62
     3
370
    30
100
AcDbLine
 10
214.617183
 20
123.514532
 30
0.0
 11
214.617183
 21
126.014532
 31
0.0
  0
LINE
  5
303
330
1F
100
AcDbEntity
  8
002
 62
     3
370
    30
100
AcDbLine
 10
214.617183
 20
126.014532
 30
0.0
 11
218.367183
 21
126.014532
 31
0.0
  0
LINE
  5
304
330
1F
100
AcDbEntity
  8
002
 62
     3
370
    30
100
AcDbLine
 10
218.367183
 20
126.014532
 30
0.0
 11
218.367183
 21
123.514532
 31
0.0
  0
LINE
  5
305
330
1F
100
AcDbEntity
  8
002
 62
     3
370
    30
100
AcDbLine
 10
218.367183
 20
123.639532
 30
0.0
 11
221.492183
 21
123.639532
 31
0.0
  0
LINE
  5
306
330
1F
100
AcDbEntity
  8
002
 62
     3
370
    30
100
AcDbLine
 10
221.492183
 20
123.514532
 30
0.0
 11
221.492183
 21
126.014532
 31
0.0
  0
LINE
  5
307
330
1F
100
AcDbEntity
  8
002
 62
     3
370
    30
100
AcDbLine
 10
221.492183
 20
126.014532
 30
0.0
 11
227.742183
 21
126.014532
 31
0.0
  0
LINE
  5
308
330
1F
100
AcDbEntity
  8
002
 62
     3
370
    30
100
AcDbLine
 10
227.742183
 20
126.014532
 30
0.0
 11
227.742183
 21
123.514532
 31
0.0
  0
LINE
  5
309
330
1F
100
AcDbEntity
  8
002
 62
     3
370
    30
100
AcDbLine
 10
222.117183
 20
126.014532
 30
0.0
 11
222.117183
 21
161.514532
 31
0.0
  0
LINE
  5
30A
330
1F
100
AcDbEntity
  8
002
 62
     3
370
    30
100
AcDbLine
 10
222.117183
 20
161.514532
 30
0.0
 11
192.117183
 21
161.514532
 31
0.0
  0
LINE
  5
30B
330
1F
100
AcDbEntity
  8
002
 62
     3
370
    30
100
AcDbLine
 10
192.117183
 20
161.514532
 30
0.0
 11
192.117183
 21
126.014532
 31
0.0
  0
LINE
  5
30C
330
1F
100
AcDbEntity
  8
002
 62
     3
370
    30
100
AcDbLine
 10
192.742183
 20
126.014532
 30
0.0
 11
186.492183
 21
126.014532
 31
0.0
  0
LINE
  5
30D
330
1F
100
AcDbEntity
  8
002
 62
     3
370
    30
100
AcDbLine
 10
186.492183
 20
126.014532
 30
0.0
 11
186.492183
 21
123.514532
 31
0.0
  0
LINE
  5
30E
330
1F
100
AcDbEntity
  8
002
 62
     3
370
    30
100
AcDbLine
 10
192.742183
 20
126.014532
 30
0.0
 11
192.742183
 21
123.514532
 31
0.0
  0
LINE
  5
30F
330
1F
100
AcDbEntity
  8
002
 62
     3
370
    30
100
AcDbLine
 10
192.742183
 20
123.639532
 30
0.0
 11
195.867183
 21
123.639532
 31
0.0
  0
LINE
  5
310
330
1F
100
AcDbEntity
  8
002
 62
     3
370
    30
100
AcDbLine
 10
195.867183
 20
123.514532
 30
0.0
 11
195.867183
 21
126.014532
 31
0.0
  0
LINE
  5
311
330
1F
100
AcDbEntity
  8
002
 62
     3
370
    30
100
AcDbLine
 10
195.867183
 20
126.014532
 30
0.0
 11
199.617183
 21
126.014532
 31
0.0
  0
LINE
  5
312
330
1F
100
AcDbEntity
  8
002
 62
     3
370
    30
100
AcDbLine
 10
199.617183
 20
126.014532
 30
0.0
 11
199.617183
 21
123.514532
 31
0.0
  0
LINE
  5
313
330
1F
100
AcDbEntity
  8
002
 62
     3
370
    30
100
AcDbLine
 10
199.617183
 20
123.639532
 30
0.0
 11
205.242183
 21
123.639532
 31
0.0
  0
LINE
  5
314
330
1F
100
AcDbEntity
  8
002
 62
     3
370
    30
100
AcDbLine
 10
205.242183
 20
123.514532
 30
0.0
 11
205.242183
 21
126.014532
 31
0.0
  0
LINE
  5
315
330
1F
100
AcDbEntity
  8
002
 62
     3
370
    30
100
AcDbLine
 10
205.242183
 20
126.014532
 30
0.0
 11
208.992183
 21
126.014532
 31
0.0
  0
LINE
  5
316
330
1F
100
AcDbEntity
  8
002
 62
     3
370
    30
100
AcDbLine
 10
208.992183
 20
126.014532
 30
0.0
 11
208.992183
 21
123.514532
 31
0.0
  0
LINE
  5
317
330
1F
100
AcDbEntity
  8
002
 62
     3
370
    30
100
AcDbLine
 10
208.992183
 20
123.639532
 30
0.0
 11
214.617183
 21
123.639532
 31
0.0
  0
LINE
  5
318
330
1F
100
AcDbEntity
  8
002
 62
     3
370
    30
100
AcDbLine
 10
225.242183
 20
126.014532
 30
0.0
 11
225.242183
 21
123.514532
 31
0.0
  0
LINE
  5
319
330
1F
100
AcDbEntity
  8
002
 62
     3
370
    30
100
AcDbLine
 10
228.367183
 20
120.514532
 30
0.0
 11
185.867183
 21
120.514532
 31
0.0
  0
LINE
  5
31A
330
1F
100
AcDbEntity
  8
002
 62
     3
370
    30
100
AcDbLine
 10
188.992183
 20
123.514532
 30
0.0
 11
188.992183
 21
126.014532
 31
0.0
  0
ARC
  5
31B
330
1F
100
AcDbEntity
  8
002
 62
     3
370
    30
100
AcDbCircle
 10
228.992183
 20
118.908782
 30
0.0
 40
0.625
100
AcDbArc
 50
180.0
 51
231.089603
  0
ARC
  5
31C
330
1F
100
AcDbEntity
  8
002
 62
     3
370
    30
100
AcDbCircle
 10
232.117183
 20
118.232282
 30
0.0
 40
3.75
100
AcDbArc
 50
180.0
 51
233.779839
  0
ARC
  5
31D
330
1F
100
AcDbEntity
  8
002
 62
     3
370
    30
100
AcDbCircle
 10
234.024058
 20
113.213157
 30
0.0
 40
1.250087359447313
100
AcDbArc
 50
202.68553
 51
255.002154
  0
LINE
  5
31E
330
1F
100
AcDbEntity
  8
002
 62
     3
370
    30
100
AcDbLine
 10
233.700558
 20
112.005657
 30
0.0
 11
234.367183
 21
111.827032
 31
0.0
  0
LINE
  5
31F
330
1F
100
AcDbEntity
  8
002
 62
     3
370
    30
100
AcDbLine
 10
234.367183
 20
111.827032
 30
0.0
 11
234.367183
 21
102.452032
 31
0.0
  0
LINE
  5
320
330
1F
100
AcDbEntity
  8
002
 62
     3
370
    30
100
AcDbLine
 10
234.367183
 20
102.452032
 30
0.0
 11
233.700558
 21
102.273407
 31
0.0
  0
ARC
  5
321
330
1F
100
AcDbEntity
  8
002
 62
     3
370
    30
100
AcDbCircle
 10
234.024058
 20
101.066032
 30
0.0
 40
1.249962655692138
100
AcDbArc
 50
104.999329
 51
157.319756
  0
ARC
  5
322
330
1F
100
AcDbEntity
  8
002
 62
     3
370
    30
100
AcDbCircle
 10
234.502308
 20
105.278782
 30
0.0
 40
0.6249209575018166
100
AcDbArc
 50
105.000812
 51
172.93468
  0
LINE
  5
323
330
1F
100
AcDbEntity
  8
002
 62
     3
370
    30
100
AcDbLine
 10
234.340558
 20
105.882407
 30
0.0
 11
234.367183
 21
105.889532
 31
0.0
  0
LINE
  5
324
330
1F
100
AcDbEntity
  8
002
 62
     3
370
    30
100
AcDbLine
 10
234.617183
 20
106.417907
 30
0.0
 11
234.992183
 21
106.417907
 31
0.0
  0
LINE
  5
325
330
1F
100
AcDbEntity
  8
002
 62
     3
370
    30
100
AcDbLine
 10
234.992183
 20
106.417907
 30
0.0
 11
235.356433
 21
106.782032
 31
0.0
  0
ARC
  5
326
330
1F
100
AcDbEntity
  8
002
 62
     3
370
    30
100
AcDbCircle
 10
235.444808
 20
106.693657
 30
0.0
 40
0.1250002499997285
100
AcDbArc
 50
57.994617
 51
135.0
  0
LINE
  5
327
330
1F
100
AcDbEntity
  8
002
 62
     3
370
    30
100
AcDbLine
 10
235.511058
 20
106.799657
 30
0.0
 11
235.617183
 21
106.733282
 31
0.0
  0
LINE
  5
328
330
1F
100
AcDbEntity
  8
002
 62
     3
370
    30
100
AcDbLine
 10
235.617183
 20
106.733282
 30
0.0
 11
235.992183
 21
106.827032
 31
0.0
  0
LINE
  5
329
330
1F
100
AcDbEntity
  8
002
 62
     3
370
    30
100
AcDbLine
 10
235.992183
 20
106.827032
 30
0.0
 11
235.992183
 21
107.452032
 31
0.0
  0
LINE
  5
32A
330
1F
100
AcDbEntity
  8
002
 62
     3
370
    30
100
AcDbLine
 10
235.992183
 20
107.452032
 30
0.0
 11
235.617183
 21
107.545782
 31
0.0
  0
LINE
  5
32B
330
1F
100
AcDbEntity
  8
002
 62
     3
370
    30
100
AcDbLine
 10
235.617183
 20
107.545782
 30
0.0
 11
235.511058
 21
107.479407
 31
0.0
  0
ARC
  5
32C
330
1F
100
AcDbEntity
  8
002
 62
     3
370
    30
100
AcDbCircle
 10
235.444808
 20
107.585407
 30
0.0
 40
0.124981123574681
100
AcDbArc
 50
225.0
 51
302.005383
  0
LINE
  5
32D
330
1F
100
AcDbEntity
  8
002
 62
     3
370
    30
100
AcDbLine
 10
235.356433
 20
107.497032
 30
0.0
 11
234.992183
 21
107.861282
 31
0.0
  0
LINE
  5
32E
330
1F
100
AcDbEntity
  8
002
 62
     3
370
    30
100
AcDbLine
 10
234.992183
 20
107.861282
 30
0.0
 11
234.617183
 21
107.861282
 31
0.0
  0
LINE
  5
32F
330
1F
100
AcDbEntity
  8
002
 62
     3
370
    30
100
AcDbLine
 10
234.617183
 20
107.861282
 30
0.0
 11
234.504308
 21
107.748407
 31
0.0
  0
LINE
  5
330
330
1F
100
AcDbEntity
  8
002
 62
     3
370
    30
100
AcDbLine
 10
234.545683
 20
107.789782
 30
0.0
 11
234.367183
 21
107.778532
 31
0.0
  0
LINE
  5
331
330
1F
100
AcDbEntity
  8
002
 62
     3
370
    30
100
AcDbLine
 10
234.492183
 20
107.675282
 30
0.0
 11
234.492183
 21
106.603907
 31
0.0
  0
ARC
  5
332
330
1F
100
AcDbEntity
  8
002
 62
     3
370
    30
100
AcDbCircle
 10
234.684808
 20
106.598282
 30
0.0
 40
0.1927521481722085
100
AcDbArc
 50
110.53865
 51
200.503847
  0
ARC
  5
333
330
1F
100
AcDbEntity
  8
002
 62
     3
370
    30
100
AcDbCircle
 10
235.075558
 20
107.139532
 30
0.0
 40
0.5833852982806795
100
AcDbArc
 50
141.786922
 51
218.203431
  0
LINE
  5
334
330
1F
100
AcDbEntity
  8
002
 62
     3
370
    30
100
AcDbLine
 10
234.617183
 20
107.500407
 30
0.0
 11
234.992183
 21
107.500407
 31
0.0
  0
ARC
  5
335
330
1F
100
AcDbEntity
  8
002
 62
     3
370
    30
100
AcDbCircle
 10
234.533808
 20
107.139532
 30
0.0
 40
0.5833079830800667
100
AcDbArc
 50
321.796569
 51
38.213078
  0
LINE
  5
336
330
1F
100
AcDbEntity
  8
002
 62
     3
370
    30
100
AcDbLine
 10
234.992183
 20
106.778782
 30
0.0
 11
234.617183
 21
106.778782
 31
0.0
  0
LINE
  5
337
330
1F
100
AcDbEntity
  8
002
 62
     3
370
    30
100
AcDbLine
 10
234.504308
 20
106.530782
 30
0.0
 11
234.617183
 21
106.417907
 31
0.0
  0
LINE
  5
338
330
1F
100
AcDbEntity
  8
002
 62
     3
370
    30
100
AcDbLine
 10
234.545683
 20
106.489407
 30
0.0
 11
234.367183
 21
106.500532
 31
0.0
  0
ARC
  5
339
330
1F
100
AcDbEntity
  8
002
 62
     3
370
    30
100
AcDbCircle
 10
234.924558
 20
106.598282
 30
0.0
 40
0.1927083288288857
100
AcDbArc
 50
339.496153
 51
69.46135
  0
LINE
  5
33A
330
1F
100
AcDbEntity
  8
002
 62
     3
370
    30
100
AcDbLine
 10
235.426683
 20
106.852407
 30
0.0
 11
235.426683
 21
107.426782
 31
0.0
  0
LINE
  5
33B
330
1F
100
AcDbEntity
  8
002
 62
     3
370
    30
100
AcDbLine
 10
235.617183
 20
107.452032
 30
0.0
 11
235.617183
 21
106.827032
 31
0.0
  0
ARC
  5
33C
330
1F
100
AcDbEntity
  8
002
 62
     3
370
    30
100
AcDbCircle
 10
235.909558
 20
107.139532
 30
0.0
 40
0.1249638072603472
100
AcDbArc
 50
311.390802
 51
48.609198
  0
ARC
  5
33D
330
1F
100
AcDbEntity
  8
002
 62
     3
370
    30
100
AcDbCircle
 10
234.924558
 20
107.680782
 30
0.0
 40
0.1926350986969978
100
AcDbArc
 50
290.551694
 51
20.53865
  0
ARC
  5
33E
330
1F
100
AcDbEntity
  8
002
 62
     3
370
    30
100
AcDbCircle
 10
234.684808
 20
107.680782
 30
0.0
 40
0.1927521481721453
100
AcDbArc
 50
159.46135
 51
249.448306
  0
LINE
  5
33F
330
1F
100
AcDbEntity
  8
002
 62
     3
370
    30
100
AcDbLine
 10
234.367183
 20
108.389532
 30
0.0
 11
234.340558
 21
108.396657
 31
0.0
  0
ARC
  5
340
330
1F
100
AcDbEntity
  8
002
 62
     3
370
    30
100
AcDbCircle
 10
234.502308
 20
109.000407
 30
0.0
 40
0.6249958624862472
100
AcDbArc
 50
187.06532
 51
255.002154
  0
ARC
  5
341
330
1F
100
AcDbEntity
  8
002
 62
     3
370
    30
100
AcDbCircle
 10
192.242183
 20
95.639532
 30
0.0
 40
0.625
100
AcDbArc
 50
90.0
 51
180.0
  0
LINE
  5
342
330
1F
100
AcDbEntity
  8
002
 62
     3
370
    30
100
AcDbLine
 10
188.992183
 20
101.514532
 30
0.0
 11
188.992183
 21
113.139532
 31
0.0
  0
LINE
  5
343
330
1F
100
AcDbEntity
  8
002
 62
     3
370
    30
100
AcDbLine
 10
188.992183
 20
113.139532
 30
0.0
 11
188.617183
 21
113.139532
 31
0.0
  0
LINE
  5
344
330
1F
100
AcDbEntity
  8
002
 62
     3
370
    30
100
AcDbLine
 10
188.992183
 20
112.764532
 30
0.0
 11
187.367183
 21
112.764532
 31
0.0
  0
LINE
  5
345
330
1F
100
AcDbEntity
  8
002
 62
     3
370
    30
100
AcDbLine
 10
187.117183
 20
112.514532
 30
0.0
 11
187.117183
 21
101.764532
 31
0.0
  0
LINE
  5
346
330
1F
100
AcDbEntity
  8
002
 62
     3
370
    30
100
AcDbLine
 10
187.117183
 20
101.826407
 30
0.0
 11
186.565058
 21
101.826407
 31
0.0
  0
ARC
  5
347
330
1F
100
AcDbEntity
  8
002
 62
     3
370
    30
100
AcDbCircle
 10
186.700558
 20
102.060907
 30
0.0
 40
0.2709412124889916
100
AcDbArc
 50
120.007178
 51
239.979597
  0
ARC
  5
348
330
1F
100
AcDbEntity
  8
002
 62
     3
370
    30
100
AcDbCircle
 10
187.309808
 20
102.764532
 30
0.0
 40
0.8801879504542893
100
AcDbArc
 50
147.79279
 51
212.200325
  0
LINE
  5
349
330
1F
100
AcDbEntity
  8
002
 62
     3
370
    30
100
AcDbLine
 10
186.565058
 20
103.233657
 30
0.0
 11
187.117183
 21
103.233657
 31
0.0
  0
LINE
  5
34A
330
1F
100
AcDbEntity
  8
002
 62
     3
370
    30
100
AcDbLine
 10
187.117183
 20
103.702782
 30
0.0
 11
186.565058
 21
103.702782
 31
0.0
  0
LINE
  5
34B
330
1F
100
AcDbEntity
  8
002
 62
     3
370
    30
100
AcDbLine
 10
186.429683
 20
103.468157
 30
0.0
 11
186.429683
 21
102.060907
 31
0.0
  0
LINE
  5
34C
330
1F
100
AcDbEntity
  8
002
 62
     3
370
    30
100
AcDbLine
 10
186.565058
 20
102.295532
 30
0.0
 11
187.117183
 21
102.295532
 31
0.0
  0
LINE
  5
34D
330
1F
100
AcDbEntity
  8
002
 62
     3
370
    30
100
AcDbLine
 10
187.367183
 20
101.514532
 30
0.0
 11
188.992183
 21
101.514532
 31
0.0
  0
ARC
  5
34E
330
1F
100
AcDbEntity
  8
002
 62
     3
370
    30
100
AcDbCircle
 10
187.367183
 20
101.764532
 30
0.0
 40
0.25
100
AcDbArc
 50
180.0
 51
270.0
  0
ARC
  5
34F
330
1F
100
AcDbEntity
  8
002
 62
     3
370
    30
100
AcDbCircle
 10
186.700558
 20
103.468157
 30
0.0
 40
0.270941212488967
100
AcDbArc
 50
120.007178
 51
239.979597
  0
LINE
  5
350
330
1F
100
AcDbEntity
  8
002
 62
     3
370
    30
100
AcDbLine
 10
186.565058
 20
110.576407
 30
0.0
 11
187.117183
 21
110.576407
 31
0.0
  0
LINE
  5
351
330
1F
100
AcDbEntity
  8
002
 62
     3
370
    30
100
AcDbLine
 10
187.117183
 20
111.045532
 30
0.0
 11
186.565058
 21
111.045532
 31
0.0
  0
ARC
  5
352
330
1F
100
AcDbEntity
  8
002
 62
     3
370
    30
100
AcDbCircle
 10
187.309808
 20
111.514532
 30
0.0
 40
0.8801879504542893
100
AcDbArc
 50
147.79279
 51
212.200325
  0
LINE
  5
353
330
1F
100
AcDbEntity
  8
002
 62
     3
370
    30
100
AcDbLine
 10
186.565058
 20
111.983657
 30
0.0
 11
187.117183
 21
111.983657
 31
0.0
  0
LINE
  5
354
330
1F
100
AcDbEntity
  8
002
 62
     3
370
    30
100
AcDbLine
 10
187.117183
 20
112.452782
 30
0.0
 11
186.565058
 21
112.452782
 31
0.0
  0
LINE
  5
355
330
1F
100
AcDbEntity
  8
002
 62
     3
370
    30
100
AcDbLine
 10
186.429683
 20
112.218157
 30
0.0
 11
186.429683
 21
110.810907
 31
0.0
  0
ARC
  5
356
330
1F
100
AcDbEntity
  8
002
 62
     3
370
    30
100
AcDbCircle
 10
186.700558
 20
110.810907
 30
0.0
 40
0.2709412124889916
100
AcDbArc
 50
120.007178
 51
239.979597
  0
ARC
  5
357
330
1F
100
AcDbEntity
  8
002
 62
     3
370
    30
100
AcDbCircle
 10
186.700558
 20
112.218157
 30
0.0
 40
0.270941212488967
100
AcDbArc
 50
120.007178
 51
239.979597
  0
ARC
  5
358
330
1F
100
AcDbEntity
  8
002
 62
     3
370
    30
100
AcDbCircle
 10
187.367183
 20
112.514532
 30
0.0
 40
0.25
100
AcDbArc
 50
90.0
 51
180.0
  0
ARC
  5
359
330
1F
100
AcDbEntity
  8
002
 62
     3
370
    30
100
AcDbCircle
 10
186.794433
 20
112.700032
 30
0.0
 40
1.874987416624375
100
AcDbArc
 50
13.55635
 51
75.000177
  0
LINE
  5
35A
330
1F
100
AcDbEntity
  8
002
 62
     3
370
    30
100
AcDbLine
 10
206.756308
 20
152.139532
 30
0.0
 11
207.478058
 21
152.139532
 31
0.0
  0
LINE
  5
35B
330
1F
100
AcDbEntity
  8
002
 62
     3
370
    30
100
AcDbLine
 10
207.478058
 20
152.139532
 30
0.0
 11
207.838933
 21
152.764532
 31
0.0
  0
LINE
  5
35C
330
1F
100
AcDbEntity
  8
002
 62
     3
370
    30
100
AcDbLine
 10
207.838933
 20
152.764532
 30
0.0
 11
207.478058
 21
153.389532
 31
0.0
  0
LINE
  5
35D
330
1F
100
AcDbEntity
  8
002
 62
     3
370
    30
100
AcDbLine
 10
207.478058
 20
153.389532
 30
0.0
 11
206.756308
 21
153.389532
 31
0.0
  0
LINE
  5
35E
330
1F
100
AcDbEntity
  8
002
 62
     3
370
    30
100
AcDbLine
 10
206.756308
 20
153.389532
 30
0.0
 11
206.395558
 21
152.764532
 31
0.0
  0
LINE
  5
35F
330
1F
100
AcDbEntity
  8
002
 62
     3
370
    30
100
AcDbLine
 10
206.395558
 20
152.764532
 30
0.0
 11
206.756308
 21
152.139532
 31
0.0
  0
CIRCLE
  5
360
330
1F
100
AcDbEntity
  8
002
 62
     3
370
    30
100
AcDbCircle
 10
207.117183
 20
152.764532
 30
0.0
 40
0.40625
  0
CIRCLE
  5
361
330
1F
100
AcDbEntity
  8
002
 62
     3
370
    30
100
AcDbCircle
 10
207.117183
 20
152.764532
 30
0.0
 40
0.3125
  0
CIRCLE
  5
362
330
1F
100
AcDbEntity
  8
002
 62
     3
370
    30
100
AcDbCircle
 10
207.117183
 20
152.764532
 30
0.0
 40
0.09375
  0
CIRCLE
  5
363
330
1F
100
AcDbEntity
  8
002
 62
     3
370
    30
100
AcDbCircle
 10
207.117183
 20
152.764532
 30
0.0
 40
0.625
  0
LINE
  5
364
330
1F
100
AcDbEntity
  8
002
 62
     3
370
    30
100
AcDbLine
 10
199.543558
 20
162.764532
 30
0.0
 11
199.543558
 21
164.014532
 31
0.0
  0
LINE
  5
365
330
1F
100
AcDbEntity
  8
002
 62
     3
370
    30
100
AcDbLine
 10
197.543558
 20
164.014532
 30
0.0
 11
197.543558
 21
162.764532
 31
0.0
  0
LINE
  5
366
330
1F
100
AcDbEntity
  8
002
 62
     3
370
    30
100
AcDbLine
 10
216.690808
 20
162.764532
 30
0.0
 11
216.690808
 21
164.014532
 31
0.0
  0
LINE
  5
367
330
1F
100
AcDbEntity
  8
002
 62
     3
370
    30
100
AcDbLine
 10
214.690808
 20
164.014532
 30
0.0
 11
214.690808
 21
162.764532
 31
0.0
  0
LINE
  5
368
330
1F
100
AcDbEntity
  8
002
 62
     3
370
    30
100
AcDbLine
 10
214.690808
 20
164.014532
 30
0.0
 11
216.690808
 21
164.014532
 31
0.0
  0
LINE
  5
369
330
1F
100
AcDbEntity
  8
002
 62
     3
370
    30
100
AcDbLine
 10
220.742183
 20
162.764532
 30
0.0
 11
193.492183
 21
162.764532
 31
0.0
  0
LINE
  5
36A
330
1F
100
AcDbEntity
  8
002
 62
     3
370
    30
100
AcDbLine
 10
193.492183
 20
162.764532
 30
0.0
 11
193.492183
 21
161.514532
 31
0.0
  0
LINE
  5
36B
330
1F
100
AcDbEntity
  8
002
 62
     3
370
    30
100
AcDbLine
 10
197.543558
 20
164.014532
 30
0.0
 11
199.543558
 21
164.014532
 31
0.0
  0
LINE
  5
36C
330
1F
100
AcDbEntity
  8
002
 62
     3
370
    30
100
AcDbLine
 10
220.742183
 20
162.764532
 30
0.0
 11
220.742183
 21
161.514532
 31
0.0
  0
LINE
  5
36D
330
1F
100
AcDbEntity
  8
002
  6
CENTER
 62
    40
370
     9
100
AcDbLine
 10
215.690808
 20
164.782407
 30
0.0
 11
215.690808
 21
161.514532
 31
0.0
  0
LINE
  5
36E
330
1F
100
AcDbEntity
  8
002
  6
CENTER
 62
    40
370
     9
100
AcDbLine
 10
208.049558
 20
152.764532
 30
0.0
 11
206.237683
 21
152.764532
 31
0.0
  0
LINE
  5
36F
330
1F
100
AcDbEntity
  8
002
  6
CENTER
 62
    40
370
     9
100
AcDbLine
 10
198.543558
 20
161.514532
 30
0.0
 11
198.543558
 21
164.782407
 31
0.0
  0
LINE
  5
370
330
1F
100
AcDbEntity
  8
002
  6
CENTER
 62
    40
370
     9
100
AcDbLine
 10
197.742183
 20
126.899532
 30
0.0
 11
197.742183
 21
119.583532
 31
0.0
  0
LINE
  5
371
330
1F
100
AcDbEntity
  8
002
  6
CENTER
 62
    40
370
     9
100
AcDbLine
 10
190.879183
 20
119.583532
 30
0.0
 11
190.879183
 21
126.899532
 31
0.0
  0
LINE
  5
372
330
1F
100
AcDbEntity
  8
002
  6
CENTER
 62
    40
370
     9
100
AcDbLine
 10
188.367183
 20
126.899532
 30
0.0
 11
188.367183
 21
119.583532
 31
0.0
  0
LINE
  5
373
330
1F
100
AcDbEntity
  8
002
  6
CENTER
 62
    40
370
     9
100
AcDbLine
 10
189.610558
 20
111.514532
 30
0.0
 11
185.767683
 21
111.514532
 31
0.0
  0
LINE
  5
374
330
1F
100
AcDbEntity
  8
002
  6
CENTER
 62
    40
370
     9
100
AcDbLine
 10
184.933058
 20
107.139532
 30
0.0
 11
237.730433
 21
107.139532
 31
0.0
  0
LINE
  5
375
330
1F
100
AcDbEntity
  8
002
 62
    40
370
     9
100
AcDbLine
 10
234.444808
 20
107.783407
 30
0.0
 11
234.364808
 21
107.703407
 31
0.0
  0
LINE
  5
376
330
1F
100
AcDbEntity
  8
002
 62
    40
370
     9
100
AcDbLine
 10
234.364808
 20
106.575782
 30
0.0
 11
234.444808
 21
106.495657
 31
0.0
  0
LINE
  5
377
330
1F
100
AcDbEntity
  8
002
  6
CENTER
 62
    40
370
     9
100
AcDbLine
 10
223.992183
 20
94.964782
 30
0.0
 11
223.992183
 21
118.548907
 31
0.0
  0
LINE
  5
378
330
1F
100
AcDbEntity
  8
002
  6
CENTER
 62
    40
370
     9
100
AcDbLine
 10
223.355183
 20
119.583532
 30
0.0
 11
223.355183
 21
126.899532
 31
0.0
  0
LINE
  5
379
330
1F
100
AcDbEntity
  8
002
  6
CENTER
 62
    40
370
     9
100
AcDbLine
 10
225.867183
 20
126.899532
 30
0.0
 11
225.867183
 21
119.583532
 31
0.0
  0
LINE
  5
37A
330
1F
100
AcDbEntity
  8
002
  6
CENTER
 62
    40
370
     9
100
AcDbLine
 10
216.492183
 20
119.583532
 30
0.0
 11
216.492183
 21
126.899532
 31
0.0
  0
LINE
  5
37B
330
1F
100
AcDbEntity
  8
002
  6
CENTER
 62
    40
370
     9
100
AcDbLine
 10
216.617183
 20
97.960532
 30
0.0
 11
216.617183
 21
89.803407
 31
0.0
  0
LINE
  5
37C
330
1F
100
AcDbEntity
  8
002
  6
CENTER
 62
    40
370
     9
100
AcDbLine
 10
197.617183
 20
89.803407
 30
0.0
 11
197.617183
 21
97.960532
 31
0.0
  0
LINE
  5
37D
330
1F
100
AcDbEntity
  8
002
  6
CENTER
 62
    40
370
     9
100
AcDbLine
 10
189.610558
 20
102.764532
 30
0.0
 11
185.767683
 21
102.764532
 31
0.0
  0
LINE
  5
37E
330
1F
100
AcDbEntity
  8
002
 62
     3
370
    30
100
AcDbLine
 10
201.492183
 20
42.139532
 30
0.0
 11
212.742183
 21
42.139532
 31
0.0
  0
LINE
  5
37F
330
1F
100
AcDbEntity
  8
002
 62
     3
370
    30
100
AcDbLine
 10
212.742183
 20
42.139532
 30
0.0
 11
212.742183
 21
51.952032
 31
0.0
  0
LINE
  5
380
330
1F
100
AcDbEntity
  8
002
 62
     3
370
    30
100
AcDbLine
 10
212.742183
 20
51.952032
 30
0.0
 11
201.492183
 21
51.952032
 31
0.0
  0
LINE
  5
381
330
1F
100
AcDbEntity
  8
002
 62
     3
370
    30
100
AcDbLine
 10
201.492183
 20
51.952032
 30
0.0
 11
201.492183
 21
42.139532
 31
0.0
  0
LINE
  5
382
330
1F
100
AcDbEntity
  8
002
 62
     3
370
    30
100
AcDbLine
 10
201.679683
 20
51.952032
 30
0.0
 11
201.679683
 21
52.389532
 31
0.0
  0
LINE
  5
383
330
1F
100
AcDbEntity
  8
002
 62
     3
370
    30
100
AcDbLine
 10
200.867183
 20
52.389532
 30
0.0
 11
213.367183
 21
52.389532
 31
0.0
  0
LINE
  5
384
330
1F
100
AcDbEntity
  8
002
 62
     3
370
    30
100
AcDbLine
 10
212.554683
 20
52.389532
 30
0.0
 11
212.554683
 21
51.952032
 31
0.0
  0
LINE
  5
385
330
1F
100
AcDbEntity
  8
002
 62
    40
370
     9
100
AcDbLine
 10
212.635683
 20
63.639657
 30
0.0
 11
213.367183
 21
62.372782
 31
0.0
  0
LINE
  5
386
330
1F
100
AcDbEntity
  8
002
 62
    40
370
     9
100
AcDbLine
 10
201.667183
 20
42.139532
 30
0.0
 11
201.667183
 21
51.952032
 31
0.0
  0
LINE
  5
387
330
1F
100
AcDbEntity
  8
002
 62
    40
370
     9
100
AcDbLine
 10
200.867183
 20
62.372782
 30
0.0
 11
201.598683
 21
63.639657
 31
0.0
  0
LINE
  5
388
330
1F
100
AcDbEntity
  8
002
 62
    40
370
     9
100
AcDbLine
 10
200.867183
 20
63.639532
 30
0.0
 11
213.367183
 21
63.639532
 31
0.0
  0
LINE
  5
389
330
1F
100
AcDbEntity
  8
002
  6
HIDDEN
 62
    40
370
     9
100
AcDbLine
 10
219.429683
 20
96.139532
 30
0.0
 11
219.429683
 21
92.139532
 31
0.0
  0
LINE
  5
38A
330
1F
100
AcDbEntity
  8
002
  6
HIDDEN
 62
    40
370
     9
100
AcDbLine
 10
211.492183
 20
96.139532
 30
0.0
 11
221.742183
 21
96.139532
 31
0.0
  0
LINE
  5
38B
330
1F
100
AcDbEntity
  8
002
  6
HIDDEN
 62
    40
370
     9
100
AcDbLine
 10
213.804683
 20
92.139532
 30
0.0
 11
213.804683
 21
96.139532
 31
0.0
  0
LINE
  5
38C
330
1F
100
AcDbEntity
  8
002
  6
HIDDEN
 62
    40
370
     9
100
AcDbLine
 10
200.429683
 20
92.139532
 30
0.0
 11
200.429683
 21
96.139532
 31
0.0
  0
LINE
  5
38D
330
1F
100
AcDbEntity
  8
002
  6
HIDDEN
 62
    40
370
     9
100
AcDbLine
 10
202.742183
 20
96.139532
 30
0.0
 11
192.492183
 21
96.139532
 31
0.0
  0
LINE
  5
38E
330
1F
100
AcDbEntity
  8
002
  6
HIDDEN
 62
    40
370
     9
100
AcDbLine
 10
194.804683
 20
96.139532
 30
0.0
 11
194.804683
 21
92.139532
 31
0.0
  0
LINE
  5
38F
330
1F
100
AcDbEntity
  8
002
  6
HIDDEN
 62
    40
370
     9
100
AcDbLine
 10
221.742183
 20
96.139532
 30
0.0
 11
221.742183
 21
96.264532
 31
0.0
  0
LINE
  5
390
330
1F
100
AcDbEntity
  8
002
  6
HIDDEN
 62
    40
370
     9
100
AcDbLine
 10
211.492183
 20
96.139532
 30
0.0
 11
211.492183
 21
96.264532
 31
0.0
  0
LINE
  5
391
330
1F
100
AcDbEntity
  8
002
  6
HIDDEN
 62
    40
370
     9
100
AcDbLine
 10
202.742183
 20
96.264532
 30
0.0
 11
202.742183
 21
96.139532
 31
0.0
  0
LINE
  5
392
330
1F
100
AcDbEntity
  8
002
  6
HIDDEN
 62
    40
370
     9
100
AcDbLine
 10
192.492183
 20
96.139532
 30
0.0
 11
192.492183
 21
96.264532
 31
0.0
  0
LINE
  5
393
330
1F
100
AcDbEntity
  8
002
 62
    40
370
     9
100
AcDbLine
 10
212.567183
 20
42.139532
 30
0.0
 11
212.567183
 21
51.952032
 31
0.0
  0
TEXT
  5
394
330
1F
100
AcDbEntity
  8
002
 62
     3
370
    30
100
AcDbText
 10
186.774475
 20
111.690844
 30
0.0
 40
0.0375
  1
Ｍ８
 41
0.555556
100
AcDbText
  0
TEXT
  5
3B7
330
1F
100
AcDbEntity
  8
002
 62
     3
370
    30
100
AcDbText
 10
186.832891
 20
102.588219
 30
0.0
 40
0.0375
  1
Ｍ８
 50
180.000005
 41
0.555556
100
AcDbText
  0
LINE
  5
3B8
330
1F
100
AcDbEntity
  8
002
 62
     3
370
    30
100
AcDbLine
 10
175.632229
 20
106.827032
 30
0.0
 11
175.632229
 21
107.452032
 31
0.0
  0
LINE
  5
3B9
330
1F
100
AcDbEntity
  8
002
 62
     3
370
    30
100
AcDbLine
 10
175.632229
 20
107.452032
 30
0.0
 11
175.257229
 21
107.545782
 31
0.0
  0
LINE
  5
3BA
330
1F
100
AcDbEntity
  8
002
 62
     3
370
    30
100
AcDbLine
 10
175.257229
 20
107.545782
 30
0.0
 11
175.150979
 21
107.479407
 31
0.0
  0
LINE
  5
3BB
330
1F
100
AcDbEntity
  8
002
 62
     3
370
    30
100
AcDbLine
 10
175.066729
 20
107.426782
 30
0.0
 11
175.066729
 21
106.852407
 31
0.0
  0
LINE
  5
3BC
330
1F
100
AcDbEntity
  8
002
 62
     3
370
    30
100
AcDbLine
 10
175.150979
 20
106.799657
 30
0.0
 11
175.257229
 21
106.733282
 31
0.0
  0
LINE
  5
3BD
330
1F
100
AcDbEntity
  8
002
 62
     3
370
    30
100
AcDbLine
 10
175.257229
 20
106.733282
 30
0.0
 11
175.632229
 21
106.827032
 31
0.0
  0
ARC
  5
3BE
330
1F
100
AcDbEntity
  8
002
 62
     3
370
    30
100
AcDbCircle
 10
175.549479
 20
107.139532
 30
0.0
 40
0.1250464913542376
100
AcDbArc
 50
311.433771
 51
48.566229
  0
LINE
  5
3BF
330
1F
100
AcDbEntity
  8
002
 62
     3
370
    30
100
AcDbLine
 10
175.257229
 20
107.452032
 30
0.0
 11
175.257229
 21
106.827032
 31
0.0
  0
ARC
  5
3C0
330
1F
100
AcDbEntity
  8
002
 62
     3
370
    30
100
AcDbCircle
 10
175.084729
 20
106.693657
 30
0.0
 40
0.1249811235747011
100
AcDbArc
 50
57.994617
 51
135.0
  0
LINE
  5
3C1
330
1F
100
AcDbEntity
  8
002
 62
     3
370
    30
100
AcDbLine
 10
174.996354
 20
106.782032
 30
0.0
 11
174.632229
 21
106.417907
 31
0.0
  0
LINE
  5
3C2
330
1F
100
AcDbEntity
  8
002
 62
     3
370
    30
100
AcDbLine
 10
174.632229
 20
106.417907
 30
0.0
 11
174.257229
 21
106.417907
 31
0.0
  0
LINE
  5
3C3
330
1F
100
AcDbEntity
  8
002
 62
     3
370
    30
100
AcDbLine
 10
174.257229
 20
106.417907
 30
0.0
 11
174.144354
 21
106.530782
 31
0.0
  0
LINE
  5
3C4
330
1F
100
AcDbEntity
  8
002
 62
     3
370
    30
100
AcDbLine
 10
174.185604
 20
106.489407
 30
0.0
 11
174.007229
 21
106.500532
 31
0.0
  0
LINE
  5
3C5
330
1F
100
AcDbEntity
  8
002
 62
     3
370
    30
100
AcDbLine
 10
174.132229
 20
106.603907
 30
0.0
 11
174.132229
 21
107.675282
 31
0.0
  0
ARC
  5
3C6
330
1F
100
AcDbEntity
  8
002
 62
     3
370
    30
100
AcDbCircle
 10
174.324729
 20
107.680782
 30
0.0
 40
0.1925912527219205
100
AcDbArc
 50
159.448306
 51
249.483127
  0
LINE
  5
3C7
330
1F
100
AcDbEntity
  8
002
 62
     3
370
    30
100
AcDbLine
 10
174.257229
 20
107.500407
 30
0.0
 11
174.632229
 21
107.500407
 31
0.0
  0
ARC
  5
3C8
330
1F
100
AcDbEntity
  8
002
 62
     3
370
    30
100
AcDbCircle
 10
174.564604
 20
107.680782
 30
0.0
 40
0.1926350986970145
100
AcDbArc
 50
290.551694
 51
20.551694
  0
LINE
  5
3C9
330
1F
100
AcDbEntity
  8
002
 62
     3
370
    30
100
AcDbLine
 10
174.632229
 20
107.861282
 30
0.0
 11
174.257229
 21
107.861282
 31
0.0
  0
LINE
  5
3CA
330
1F
100
AcDbEntity
  8
002
 62
     3
370
    30
100
AcDbLine
 10
174.257229
 20
107.861282
 30
0.0
 11
174.144354
 21
107.748407
 31
0.0
  0
LINE
  5
3CB
330
1F
100
AcDbEntity
  8
002
 62
     3
370
    30
100
AcDbLine
 10
174.185604
 20
107.789782
 30
0.0
 11
174.007229
 21
107.778532
 31
0.0
  0
ARC
  5
3CC
330
1F
100
AcDbEntity
  8
002
 62
     3
370
    30
100
AcDbCircle
 10
174.715479
 20
107.139532
 30
0.0
 40
0.5832097607207583
100
AcDbArc
 50
141.779327
 51
218.211025
  0
ARC
  5
3CD
330
1F
100
AcDbEntity
  8
002
 62
     3
370
    30
100
AcDbCircle
 10
174.324729
 20
106.598282
 30
0.0
 40
0.1925912527219571
100
AcDbArc
 50
110.503847
 51
200.516873
  0
LINE
  5
3CE
330
1F
100
AcDbEntity
  8
002
 62
     3
370
    30
100
AcDbLine
 10
174.257229
 20
106.778782
 30
0.0
 11
174.632229
 21
106.778782
 31
0.0
  0
ARC
  5
3CF
330
1F
100
AcDbEntity
  8
002
 62
     3
370
    30
100
AcDbCircle
 10
174.173854
 20
107.139532
 30
0.0
 40
0.5833852982806795
100
AcDbArc
 50
321.796569
 51
38.213078
  0
LINE
  5
3D0
330
1F
100
AcDbEntity
  8
002
 62
     3
370
    30
100
AcDbLine
 10
174.632229
 20
107.861282
 30
0.0
 11
174.996354
 21
107.497032
 31
0.0
  0
ARC
  5
3D1
330
1F
100
AcDbEntity
  8
002
 62
     3
370
    30
100
AcDbCircle
 10
175.084729
 20
107.585407
 30
0.0
 40
0.1250002499997285
100
AcDbArc
 50
225.0
 51
302.005383
  0
ARC
  5
3D2
330
1F
100
AcDbEntity
  8
002
 62
     3
370
    30
100
AcDbCircle
 10
174.564604
 20
106.598282
 30
0.0
 40
0.1927521481722085
100
AcDbArc
 50
339.483127
 51
69.46135
  0
CIRCLE
  5
3D3
330
1F
100
AcDbEntity
  8
002
 62
     3
370
    30
100
AcDbCircle
 10
163.632229
 20
107.139532
 30
0.0
 40
10.0
  0
LINE
  5
3D4
330
1F
100
AcDbEntity
  8
002
 62
     3
370
    30
100
AcDbLine
 10
168.007229
 20
118.232282
 30
0.0
 11
168.007229
 21
123.014532
 31
0.0
  0
ARC
  5
3D5
330
1F
100
AcDbEntity
  8
002
 62
     3
370
    30
100
AcDbCircle
 10
167.382229
 20
123.014532
 30
0.0
 40
0.625
100
AcDbArc
 50
0.0
 51
53.130102
  0
LINE
  5
3D6
330
1F
100
AcDbEntity
  8
002
 62
     3
370
    30
100
AcDbLine
 10
167.757229
 20
123.514532
 30
0.0
 11
125.757229
 21
123.514532
 31
0.0
  0
ARC
  5
3D7
330
1F
100
AcDbEntity
  8
002
 62
     3
370
    30
100
AcDbCircle
 10
126.132229
 20
123.014532
 30
0.0
 40
0.625
100
AcDbArc
 50
126.869898
 51
180.0
  0
LINE
  5
3D8
330
1F
100
AcDbEntity
  8
002
 62
     3
370
    30
100
AcDbLine
 10
125.507229
 20
123.014532
 30
0.0
 11
125.507229
 21
115.848782
 31
0.0
  0
ARC
  5
3D9
330
1F
100
AcDbEntity
  8
002
 62
     3
370
    30
100
AcDbCircle
 10
126.757229
 20
115.848782
 30
0.0
 40
1.250115750890701
100
AcDbArc
 50
180.0
 51
254.99662
  0
LINE
  5
3DA
330
1F
100
AcDbEntity
  8
002
 62
     3
370
    30
100
AcDbLine
 10
126.433604
 20
114.641282
 30
0.0
 11
126.919729
 21
114.511032
 31
0.0
  0
LINE
  5
3DB
330
1F
100
AcDbEntity
  8
002
 62
     3
370
    30
100
AcDbLine
 10
126.854479
 20
114.889532
 30
0.0
 11
156.363854
 21
114.889532
 31
0.0
  0
ARC
  5
3DC
330
1F
100
AcDbEntity
  8
002
 62
     3
370
    30
100
AcDbCircle
 10
156.061229
 20
113.672532
 30
0.0
 40
0.6250140623418038
100
AcDbArc
 50
139.208565
 51
207.154388
  0
LINE
  5
3DD
330
1F
100
AcDbEntity
  8
002
 62
     3
370
    30
100
AcDbLine
 10
154.852604
 20
114.152657
 30
0.0
 11
149.139104
 21
114.152657
 31
0.0
  0
ARC
  5
3DE
330
1F
100
AcDbEntity
  8
002
 62
     3
370
    30
100
AcDbCircle
 10
149.257229
 20
113.639532
 30
0.0
 40
1.25
100
AcDbArc
 50
90.0
 51
180.0
  0
LINE
  5
3DF
330
1F
100
AcDbEntity
  8
002
 62
     3
370
    30
100
AcDbLine
 10
148.007229
 20
113.639532
 30
0.0
 11
148.007229
 21
97.514532
 31
0.0
  0
ARC
  5
3E0
330
1F
100
AcDbEntity
  8
002
 62
     3
370
    30
100
AcDbCircle
 10
149.257229
 20
97.514532
 30
0.0
 40
1.25
100
AcDbArc
 50
180.0
 51
270.0
  0
LINE
  5
3E1
330
1F
100
AcDbEntity
  8
002
 62
     3
370
    30
100
AcDbLine
 10
148.588729
 20
97.469532
 30
0.0
 11
148.007979
 21
113.594532
 31
0.0
  0
LINE
  5
3E2
330
1F
100
AcDbEntity
  8
002
 62
     3
370
    30
100
AcDbLine
 10
145.507229
 20
113.639532
 30
0.0
 11
145.507229
 21
97.514532
 31
0.0
  0
LINE
  5
3E3
330
1F
100
AcDbEntity
  8
002
 62
     3
370
    30
100
AcDbLine
 10
144.925604
 20
97.469532
 30
0.0
 11
145.506354
 21
113.594532
 31
0.0
  0
ARC
  5
3E4
330
1F
100
AcDbEntity
  8
002
 62
     3
370
    30
100
AcDbCircle
 10
144.257229
 20
113.639532
 30
0.0
 40
1.25
100
AcDbArc
 50
0.0
 51
90.0
  0
LINE
  5
3E5
330
1F
100
AcDbEntity
  8
002
 62
     3
370
    30
100
AcDbLine
 10
144.295104
 20
114.152657
 30
0.0
 11
133.824479
 21
114.152657
 31
0.0
  0
ARC
  5
3E6
330
1F
100
AcDbEntity
  8
002
 62
     3
370
    30
100
AcDbCircle
 10
133.824479
 20
112.277657
 30
0.0
 40
1.875
100
AcDbArc
 50
90.0
 51
180.0
  0
LINE
  5
3E7
330
1F
100
AcDbEntity
  8
002
 62
     3
370
    30
100
AcDbLine
 10
131.949479
 20
112.277657
 30
0.0
 11
131.949479
 21
101.514532
 31
0.0
  0
LINE
  5
3E8
330
1F
100
AcDbEntity
  8
002
 62
     3
370
    30
100
AcDbLine
 10
131.022979
 20
100.873907
 30
0.0
 11
128.632229
 21
101.514532
 31
0.0
  0
LINE
  5
3E9
330
1F
100
AcDbEntity
  8
002
 62
     3
370
    30
100
AcDbLine
 10
128.632229
 20
101.514532
 30
0.0
 11
128.632229
 21
113.139532
 31
0.0
  0
LINE
  5
3EA
330
1F
100
AcDbEntity
  8
002
 62
     3
370
    30
100
AcDbLine
 10
128.632229
 20
113.139532
 30
0.0
 11
128.257229
 21
113.139532
 31
0.0
  0
ARC
  5
3EB
330
1F
100
AcDbEntity
  8
002
 62
     3
370
    30
100
AcDbCircle
 10
126.434479
 20
112.700032
 30
0.0
 40
1.87488361305443
100
AcDbArc
 50
13.55635
 51
75.000177
  0
LINE
  5
3EC
330
1F
100
AcDbEntity
  8
002
 62
     3
370
    30
100
AcDbLine
 10
127.007229
 20
112.764532
 30
0.0
 11
128.632229
 21
112.764532
 31
0.0
  0
ARC
  5
3ED
330
1F
100
AcDbEntity
  8
002
 62
     3
370
    30
100
AcDbCircle
 10
127.007229
 20
112.514532
 30
0.0
 40
0.25
100
AcDbArc
 50
90.0
 51
180.0
  0
LINE
  5
3EE
330
1F
100
AcDbEntity
  8
002
 62
     3
370
    30
100
AcDbLine
 10
126.757229
 20
112.514532
 30
0.0
 11
126.757229
 21
101.764532
 31
0.0
  0
ARC
  5
3EF
330
1F
100
AcDbEntity
  8
002
 62
     3
370
    30
100
AcDbCircle
 10
127.007229
 20
101.764532
 30
0.0
 40
0.25
100
AcDbArc
 50
180.0
 51
270.0
  0
LINE
  5
3F0
330
1F
100
AcDbEntity
  8
002
 62
     3
370
    30
100
AcDbLine
 10
127.007229
 20
101.514532
 30
0.0
 11
128.632229
 21
101.514532
 31
0.0
  0
LINE
  5
3F1
330
1F
100
AcDbEntity
  8
002
 62
     3
370
    30
100
AcDbLine
 10
129.257229
 20
100.867532
 30
0.0
 11
129.257229
 21
92.139532
 31
0.0
  0
LINE
  5
3F2
330
1F
100
AcDbEntity
  8
002
 62
     3
370
    30
100
AcDbLine
 10
129.257229
 20
92.139532
 30
0.0
 11
162.257229
 21
92.139532
 31
0.0
  0
LINE
  5
3F3
330
1F
100
AcDbEntity
  8
002
 62
     3
370
    30
100
AcDbLine
 10
162.257229
 20
92.139532
 30
0.0
 11
162.257229
 21
95.639532
 31
0.0
  0
ARC
  5
3F4
330
1F
100
AcDbEntity
  8
002
 62
     3
370
    30
100
AcDbCircle
 10
161.632229
 20
95.639532
 30
0.0
 40
0.625
100
AcDbArc
 50
0.0
 51
90.0
  0
LINE
  5
3F5
330
1F
100
AcDbEntity
  8
002
 62
     3
370
    30
100
AcDbLine
 10
161.632229
 20
96.264532
 30
0.0
 11
131.882229
 21
96.264532
 31
0.0
  0
ARC
  5
3F6
330
1F
100
AcDbEntity
  8
002
 62
     3
370
    30
100
AcDbCircle
 10
131.882229
 20
95.639532
 30
0.0
 40
0.625
100
AcDbArc
 50
90.0
 51
180.0
  0
LINE
  5
3F7
330
1F
100
AcDbEntity
  8
002
 62
     3
370
    30
100
AcDbLine
 10
131.257229
 20
95.639532
 30
0.0
 11
131.257229
 21
92.139532
 31
0.0
  0
LINE
  5
3F8
330
1F
100
AcDbEntity
  8
002
 62
     3
370
    30
100
AcDbLine
 10
133.132229
 20
92.139532
 30
0.0
 11
133.132229
 21
90.889532
 31
0.0
  0
LINE
  5
3F9
330
1F
100
AcDbEntity
  8
002
 62
     3
370
    30
100
AcDbLine
 10
133.132229
 20
90.889532
 30
0.0
 11
160.382229
 21
90.889532
 31
0.0
  0
LINE
  5
3FA
330
1F
100
AcDbEntity
  8
002
 62
     3
370
    30
100
AcDbLine
 10
160.382229
 20
90.889532
 30
0.0
 11
160.382229
 21
92.139532
 31
0.0
  0
LINE
  5
3FB
330
1F
100
AcDbEntity
  8
002
 62
     3
370
    30
100
AcDbLine
 10
159.882229
 20
90.889532
 30
0.0
 11
159.882229
 21
89.639532
 31
0.0
  0
LINE
  5
3FC
330
1F
100
AcDbEntity
  8
002
 62
     3
370
    30
100
AcDbLine
 10
157.882229
 20
89.639532
 30
0.0
 11
159.882229
 21
89.639532
 31
0.0
  0
LINE
  5
3FD
330
1F
100
AcDbEntity
  8
002
 62
     3
370
    30
100
AcDbLine
 10
157.882229
 20
89.639532
 30
0.0
 11
157.882229
 21
90.889532
 31
0.0
  0
LINE
  5
3FE
330
1F
100
AcDbEntity
  8
002
 62
     3
370
    30
100
AcDbLine
 10
135.632229
 20
90.889532
 30
0.0
 11
135.632229
 21
89.639532
 31
0.0
  0
LINE
  5
3FF
330
1F
100
AcDbEntity
  8
002
 62
     3
370
    30
100
AcDbLine
 10
133.632229
 20
89.639532
 30
0.0
 11
135.632229
 21
89.639532
 31
0.0
  0
LINE
  5
400
330
1F
100
AcDbEntity
  8
002
 62
     3
370
    30
100
AcDbLine
 10
133.632229
 20
89.639532
 30
0.0
 11
133.632229
 21
90.889532
 31
0.0
  0
ARC
  5
401
330
1F
100
AcDbEntity
  8
002
 62
     3
370
    30
100
AcDbCircle
 10
130.699479
 20
99.666532
 30
0.0
 40
1.249962655692173
100
AcDbArc
 50
0.0
 51
75.000671
  0
ARC
  5
402
330
1F
100
AcDbEntity
  8
002
 62
     3
370
    30
100
AcDbCircle
 10
128.632229
 20
100.867532
 30
0.0
 40
0.6250416986089752
100
AcDbArc
 50
0.0
 51
75.002154
  0
LINE
  5
403
330
1F
100
AcDbEntity
  8
002
 62
     3
370
    30
100
AcDbLine
 10
126.757229
 20
101.826407
 30
0.0
 11
126.205104
 21
101.826407
 31
0.0
  0
LINE
  5
404
330
1F
100
AcDbEntity
  8
002
 62
     3
370
    30
100
AcDbLine
 10
126.069729
 20
102.060907
 30
0.0
 11
126.069729
 21
103.468157
 31
0.0
  0
ARC
  5
405
330
1F
100
AcDbEntity
  8
002
 62
     3
370
    30
100
AcDbCircle
 10
126.949854
 20
102.764532
 30
0.0
 40
0.8801213339648176
100
AcDbArc
 50
147.79279
 51
212.200325
  0
ARC
  5
406
330
1F
100
AcDbEntity
  8
002
 62
     3
370
    30
100
AcDbCircle
 10
126.340479
 20
102.060907
 30
0.0
 40
0.2707704574450497
100
AcDbArc
 50
119.984282
 51
240.002499
  0
LINE
  5
407
330
1F
100
AcDbEntity
  8
002
 62
     3
370
    30
100
AcDbLine
 10
126.205104
 20
102.295532
 30
0.0
 11
126.757229
 21
102.295532
 31
0.0
  0
LINE
  5
408
330
1F
100
AcDbEntity
  8
002
 62
     3
370
    30
100
AcDbLine
 10
126.757229
 20
103.233657
 30
0.0
 11
126.205104
 21
103.233657
 31
0.0
  0
LINE
  5
409
330
1F
100
AcDbEntity
  8
002
 62
     3
370
    30
100
AcDbLine
 10
126.205104
 20
103.702782
 30
0.0
 11
126.757229
 21
103.702782
 31
0.0
  0
ARC
  5
40A
330
1F
100
AcDbEntity
  8
002
 62
     3
370
    30
100
AcDbCircle
 10
126.340479
 20
103.468157
 30
0.0
 40
0.2707704574450497
100
AcDbArc
 50
119.984282
 51
240.002499
  0
LINE
  5
40B
330
1F
100
AcDbEntity
  8
002
 62
     3
370
    30
100
AcDbLine
 10
126.205104
 20
110.576407
 30
0.0
 11
126.757229
 21
110.576407
 31
0.0
  0
LINE
  5
40C
330
1F
100
AcDbEntity
  8
002
 62
     3
370
    30
100
AcDbLine
 10
126.757229
 20
111.045532
 30
0.0
 11
126.205104
 21
111.045532
 31
0.0
  0
ARC
  5
40D
330
1F
100
AcDbEntity
  8
002
 62
     3
370
    30
100
AcDbCircle
 10
126.340479
 20
110.810907
 30
0.0
 40
0.2707704574450497
100
AcDbArc
 50
119.984282
 51
240.002499
  0
LINE
  5
40E
330
1F
100
AcDbEntity
  8
002
 62
     3
370
    30
100
AcDbLine
 10
126.069729
 20
110.810907
 30
0.0
 11
126.069729
 21
112.218157
 31
0.0
  0
ARC
  5
40F
330
1F
100
AcDbEntity
  8
002
 62
     3
370
    30
100
AcDbCircle
 10
126.949854
 20
111.514532
 30
0.0
 40
0.8801213339648176
100
AcDbArc
 50
147.79279
 51
212.200325
  0
LINE
  5
410
330
1F
100
AcDbEntity
  8
002
 62
     3
370
    30
100
AcDbLine
 10
126.205104
 20
111.983657
 30
0.0
 11
126.757229
 21
111.983657
 31
0.0
  0
LINE
  5
411
330
1F
100
AcDbEntity
  8
002
 62
     3
370
    30
100
AcDbLine
 10
126.757229
 20
112.452782
 30
0.0
 11
126.205104
 21
112.452782
 31
0.0
  0
ARC
  5
412
330
1F
100
AcDbEntity
  8
002
 62
     3
370
    30
100
AcDbCircle
 10
126.340479
 20
112.218157
 30
0.0
 40
0.2707704574450497
100
AcDbArc
 50
119.984282
 51
240.002499
  0
LINE
  5
413
330
1F
100
AcDbEntity
  8
002
 62
     3
370
    30
100
AcDbLine
 10
125.507229
 20
120.514532
 30
0.0
 11
168.007229
 21
120.514532
 31
0.0
  0
ARC
  5
414
330
1F
100
AcDbEntity
  8
002
 62
     3
370
    30
100
AcDbCircle
 10
168.632229
 20
118.908782
 30
0.0
 40
0.62497476199045
100
AcDbArc
 50
180.0
 51
231.080686
  0
ARC
  5
415
330
1F
100
AcDbEntity
  8
002
 62
     3
370
    30
100
AcDbCircle
 10
171.757229
 20
118.232282
 30
0.0
 40
3.750139982803977
100
AcDbArc
 50
180.0
 51
233.778298
  0
ARC
  5
416
330
1F
100
AcDbEntity
  8
002
 62
     3
370
    30
100
AcDbCircle
 10
172.982104
 20
113.395782
 30
0.0
 40
1.249962655692153
100
AcDbArc
 50
213.787004
 51
255.000671
  0
LINE
  5
417
330
1F
100
AcDbEntity
  8
002
 62
     3
370
    30
100
AcDbLine
 10
172.658604
 20
112.188407
 30
0.0
 11
174.007229
 21
111.827032
 31
0.0
  0
LINE
  5
418
330
1F
100
AcDbEntity
  8
002
 62
     3
370
    30
100
AcDbLine
 10
174.007229
 20
111.827032
 30
0.0
 11
174.007229
 21
102.452032
 31
0.0
  0
LINE
  5
419
330
1F
100
AcDbEntity
  8
002
 62
     3
370
    30
100
AcDbLine
 10
174.007229
 20
102.452032
 30
0.0
 11
172.658604
 21
102.090782
 31
0.0
  0
ARC
  5
41A
330
1F
100
AcDbEntity
  8
002
 62
     3
370
    30
100
AcDbCircle
 10
172.982104
 20
100.883282
 30
0.0
 40
1.249984012397769
100
AcDbArc
 50
104.997846
 51
146.212996
  0
ARC
  5
41B
330
1F
100
AcDbEntity
  8
002
 62
     3
370
    30
100
AcDbCircle
 10
173.201979
 20
101.589282
 30
0.0
 40
0.6249878248814491
100
AcDbArc
 50
104.997846
 51
158.468842
  0
ARC
  5
41C
330
1F
100
AcDbEntity
  8
002
 62
     3
370
    30
100
AcDbCircle
 10
166.007229
 20
93.596282
 30
0.0
 40
3.75
100
AcDbArc
 50
99.946798
 51
180.0
  0
ARC
  5
41D
330
1F
100
AcDbEntity
  8
002
 62
     3
370
    30
100
AcDbCircle
 10
159.132229
 20
107.139532
 30
0.0
 40
14.49993003108115
100
AcDbArc
 50
284.355141
 51
338.471828
  0
ARC
  5
41E
330
1F
100
AcDbEntity
  8
002
 62
     3
370
    30
100
AcDbCircle
 10
162.882229
 20
92.486782
 30
0.0
 40
0.625
100
AcDbArc
 50
104.358626
 51
180.0
  0
LINE
  5
41F
330
1F
100
AcDbEntity
  8
002
 62
     3
370
    30
100
AcDbLine
 10
153.632229
 20
107.139532
 30
0.0
 11
153.632229
 21
96.264532
 31
0.0
  0
ARC
  5
420
330
1F
100
AcDbEntity
  8
002
 62
     3
370
    30
100
AcDbCircle
 10
149.837979
 20
97.514532
 30
0.0
 40
1.25
100
AcDbArc
 50
182.062994
 51
270.0
  0
ARC
  5
421
330
1F
100
AcDbEntity
  8
002
 62
     3
370
    30
100
AcDbCircle
 10
144.257229
 20
97.514532
 30
0.0
 40
1.25
100
AcDbArc
 50
270.0
 51
0.0
  0
ARC
  5
422
330
1F
100
AcDbEntity
  8
002
 62
     3
370
    30
100
AcDbCircle
 10
143.676354
 20
97.514532
 30
0.0
 40
1.25006022354924
100
AcDbArc
 50
270.0
 51
357.937006
  0
LINE
  5
423
330
1F
100
AcDbEntity
  8
002
 62
     3
370
    30
100
AcDbLine
 10
145.757229
 20
90.889532
 30
0.0
 11
145.757229
 21
89.639532
 31
0.0
  0
LINE
  5
424
330
1F
100
AcDbEntity
  8
002
 62
     3
370
    30
100
AcDbLine
 10
147.757229
 20
89.639532
 30
0.0
 11
145.757229
 21
89.639532
 31
0.0
  0
LINE
  5
425
330
1F
100
AcDbEntity
  8
002
 62
     3
370
    30
100
AcDbLine
 10
147.757229
 20
89.639532
 30
0.0
 11
147.757229
 21
90.889532
 31
0.0
  0
LINE
  5
426
330
1F
100
AcDbEntity
  8
002
 62
     3
370
    30
100
AcDbLine
 10
159.338854
 20
116.171032
 30
0.0
 11
159.338854
 21
116.858532
 31
0.0
  0
ARC
  5
427
330
1F
100
AcDbEntity
  8
002
 62
     3
370
    30
100
AcDbCircle
 10
163.632229
 20
107.139532
 30
0.0
 40
10.62509505619246
100
AcDbArc
 50
113.833478
 51
139.209125
  0
LINE
  5
428
330
1F
100
AcDbEntity
  8
002
 62
     3
370
    30
100
AcDbLine
 10
154.257229
 20
123.514532
 30
0.0
 11
154.257229
 21
126.014532
 31
0.0
  0
LINE
  5
429
330
1F
100
AcDbEntity
  8
002
 62
     3
370
    30
100
AcDbLine
 10
154.257229
 20
126.014532
 30
0.0
 11
158.007229
 21
126.014532
 31
0.0
  0
LINE
  5
42A
330
1F
100
AcDbEntity
  8
002
 62
     3
370
    30
100
AcDbLine
 10
158.007229
 20
126.014532
 30
0.0
 11
158.007229
 21
123.514532
 31
0.0
  0
LINE
  5
42B
330
1F
100
AcDbEntity
  8
002
 62
     3
370
    30
100
AcDbLine
 10
158.007229
 20
123.639532
 30
0.0
 11
161.132229
 21
123.639532
 31
0.0
  0
LINE
  5
42C
330
1F
100
AcDbEntity
  8
002
 62
     3
370
    30
100
AcDbLine
 10
161.132229
 20
123.514532
 30
0.0
 11
161.132229
 21
126.014532
 31
0.0
  0
LINE
  5
42D
330
1F
100
AcDbEntity
  8
002
 62
     3
370
    30
100
AcDbLine
 10
161.132229
 20
126.014532
 30
0.0
 11
167.382229
 21
126.014532
 31
0.0
  0
LINE
  5
42E
330
1F
100
AcDbEntity
  8
002
 62
     3
370
    30
100
AcDbLine
 10
167.382229
 20
126.014532
 30
0.0
 11
167.382229
 21
123.514532
 31
0.0
  0
LINE
  5
42F
330
1F
100
AcDbEntity
  8
002
 62
     3
370
    30
100
AcDbLine
 10
161.757229
 20
126.014532
 30
0.0
 11
161.757229
 21
161.514532
 31
0.0
  0
LINE
  5
430
330
1F
100
AcDbEntity
  8
002
 62
     3
370
    30
100
AcDbLine
 10
161.757229
 20
161.514532
 30
0.0
 11
131.757229
 21
161.514532
 31
0.0
  0
LINE
  5
431
330
1F
100
AcDbEntity
  8
002
 62
     3
370
    30
100
AcDbLine
 10
131.757229
 20
161.514532
 30
0.0
 11
131.757229
 21
126.014532
 31
0.0
  0
LINE
  5
432
330
1F
100
AcDbEntity
  8
002
 62
     3
370
    30
100
AcDbLine
 10
132.382229
 20
126.014532
 30
0.0
 11
132.382229
 21
123.514532
 31
0.0
  0
LINE
  5
433
330
1F
100
AcDbEntity
  8
002
 62
     3
370
    30
100
AcDbLine
 10
132.382229
 20
123.639532
 30
0.0
 11
135.507229
 21
123.639532
 31
0.0
  0
LINE
  5
434
330
1F
100
AcDbEntity
  8
002
 62
     3
370
    30
100
AcDbLine
 10
135.507229
 20
123.514532
 30
0.0
 11
135.507229
 21
126.014532
 31
0.0
  0
LINE
  5
435
330
1F
100
AcDbEntity
  8
002
 62
     3
370
    30
100
AcDbLine
 10
135.507229
 20
126.014532
 30
0.0
 11
139.257229
 21
126.014532
 31
0.0
  0
LINE
  5
436
330
1F
100
AcDbEntity
  8
002
 62
     3
370
    30
100
AcDbLine
 10
139.257229
 20
126.014532
 30
0.0
 11
139.257229
 21
123.514532
 31
0.0
  0
LINE
  5
437
330
1F
100
AcDbEntity
  8
002
 62
     3
370
    30
100
AcDbLine
 10
139.257229
 20
123.639532
 30
0.0
 11
144.882229
 21
123.639532
 31
0.0
  0
LINE
  5
438
330
1F
100
AcDbEntity
  8
002
 62
     3
370
    30
100
AcDbLine
 10
144.882229
 20
123.514532
 30
0.0
 11
144.882229
 21
126.014532
 31
0.0
  0
LINE
  5
439
330
1F
100
AcDbEntity
  8
002
 62
     3
370
    30
100
AcDbLine
 10
144.882229
 20
126.014532
 30
0.0
 11
148.632229
 21
126.014532
 31
0.0
  0
LINE
  5
43A
330
1F
100
AcDbEntity
  8
002
 62
     3
370
    30
100
AcDbLine
 10
148.632229
 20
126.014532
 30
0.0
 11
148.632229
 21
123.514532
 31
0.0
  0
LINE
  5
43B
330
1F
100
AcDbEntity
  8
002
 62
     3
370
    30
100
AcDbLine
 10
148.632229
 20
123.639532
 30
0.0
 11
154.257229
 21
123.639532
 31
0.0
  0
LINE
  5
43C
330
1F
100
AcDbEntity
  8
002
 62
     3
370
    30
100
AcDbLine
 10
164.882229
 20
126.014532
 30
0.0
 11
164.882229
 21
123.514532
 31
0.0
  0
ARC
  5
43D
330
1F
100
AcDbEntity
  8
002
 62
     3
370
    30
100
AcDbCircle
 10
173.663979
 20
113.213157
 30
0.0
 40
1.250083397217978
100
AcDbArc
 50
202.68774
 51
255.002154
  0
ARC
  5
43E
330
1F
100
AcDbEntity
  8
002
 62
     3
370
    30
100
AcDbCircle
 10
159.132229
 20
107.139532
 30
0.0
 40
14.50001270311942
100
AcDbArc
 50
22.682328
 51
51.090339
  0
LINE
  5
43F
330
1F
100
AcDbEntity
  8
002
 62
     3
370
    30
100
AcDbLine
 10
126.132229
 20
126.014532
 30
0.0
 11
132.382229
 21
126.014532
 31
0.0
  0
LINE
  5
440
330
1F
100
AcDbEntity
  8
002
 62
     3
370
    30
100
AcDbLine
 10
128.632229
 20
126.014532
 30
0.0
 11
128.632229
 21
123.514532
 31
0.0
  0
LINE
  5
441
330
1F
100
AcDbEntity
  8
002
 62
     3
370
    30
100
AcDbLine
 10
126.132229
 20
123.514532
 30
0.0
 11
126.132229
 21
126.014532
 31
0.0
  0
LINE
  5
442
330
1F
100
AcDbEntity
  8
002
 62
     3
370
    30
100
AcDbLine
 10
146.396354
 20
152.139532
 30
0.0
 11
147.117979
 21
152.139532
 31
0.0
  0
LINE
  5
443
330
1F
100
AcDbEntity
  8
002
 62
     3
370
    30
100
AcDbLine
 10
147.117979
 20
152.139532
 30
0.0
 11
147.478854
 21
152.764532
 31
0.0
  0
LINE
  5
444
330
1F
100
AcDbEntity
  8
002
 62
     3
370
    30
100
AcDbLine
 10
147.478854
 20
152.764532
 30
0.0
 11
147.117979
 21
153.389532
 31
0.0
  0
LINE
  5
445
330
1F
100
AcDbEntity
  8
002
 62
     3
370
    30
100
AcDbLine
 10
147.117979
 20
153.389532
 30
0.0
 11
146.396354
 21
153.389532
 31
0.0
  0
LINE
  5
446
330
1F
100
AcDbEntity
  8
002
 62
     3
370
    30
100
AcDbLine
 10
146.396354
 20
153.389532
 30
0.0
 11
146.035479
 21
152.764532
 31
0.0
  0
LINE
  5
447
330
1F
100
AcDbEntity
  8
002
 62
     3
370
    30
100
AcDbLine
 10
146.035479
 20
152.764532
 30
0.0
 11
146.396354
 21
152.139532
 31
0.0
  0
CIRCLE
  5
448
330
1F
100
AcDbEntity
  8
002
 62
     3
370
    30
100
AcDbCircle
 10
146.757229
 20
152.764532
 30
0.0
 40
0.09375
  0
CIRCLE
  5
449
330
1F
100
AcDbEntity
  8
002
 62
     3
370
    30
100
AcDbCircle
 10
146.757229
 20
152.764532
 30
0.0
 40
0.3125
  0
CIRCLE
  5
44A
330
1F
100
AcDbEntity
  8
002
 62
     3
370
    30
100
AcDbCircle
 10
146.757229
 20
152.764532
 30
0.0
 40
0.40625
  0
CIRCLE
  5
44B
330
1F
100
AcDbEntity
  8
002
 62
     3
370
    30
100
AcDbCircle
 10
146.757229
 20
152.764532
 30
0.0
 40
0.625
  0
LINE
  5
44C
330
1F
100
AcDbEntity
  8
002
  6
CENTER
 62
    40
370
     9
100
AcDbLine
 10
145.824729
 20
152.764532
 30
0.0
 11
147.636604
 21
152.764532
 31
0.0
  0
LINE
  5
44D
330
1F
100
AcDbEntity
  8
002
  6
CENTER
 62
    40
370
     9
100
AcDbLine
 10
137.382229
 20
126.899532
 30
0.0
 11
137.382229
 21
119.583532
 31
0.0
  0
LINE
  5
44E
330
1F
100
AcDbEntity
  8
002
  6
CENTER
 62
    40
370
     9
100
AcDbLine
 10
130.519229
 20
119.583532
 30
0.0
 11
130.519229
 21
126.899532
 31
0.0
  0
LINE
  5
44F
330
1F
100
AcDbEntity
  8
002
  6
CENTER
 62
    40
370
     9
100
AcDbLine
 10
128.007229
 20
126.899532
 30
0.0
 11
128.007229
 21
119.583532
 31
0.0
  0
LINE
  5
450
330
1F
100
AcDbEntity
  8
002
  6
CENTER
 62
    40
370
     9
100
AcDbLine
 10
129.250604
 20
111.514532
 30
0.0
 11
125.407729
 21
111.514532
 31
0.0
  0
LINE
  5
451
330
1F
100
AcDbEntity
  8
002
  6
CENTER
 62
    40
370
     9
100
AcDbLine
 10
124.878354
 20
107.139532
 30
0.0
 11
176.322229
 21
107.139532
 31
0.0
  0
LINE
  5
452
330
1F
100
AcDbEntity
  8
002
 62
    40
370
     9
100
AcDbLine
 10
174.084854
 20
107.783407
 30
0.0
 11
174.004729
 21
107.703407
 31
0.0
  0
LINE
  5
453
330
1F
100
AcDbEntity
  8
002
 62
    40
370
     9
100
AcDbLine
 10
174.004729
 20
106.575782
 30
0.0
 11
174.084854
 21
106.495657
 31
0.0
  0
LINE
  5
454
330
1F
100
AcDbEntity
  8
002
  6
CENTER
 62
    40
370
     9
100
AcDbLine
 10
163.632229
 20
96.489782
 30
0.0
 11
163.632229
 21
118.548907
 31
0.0
  0
LINE
  5
455
330
1F
100
AcDbEntity
  8
002
  6
CENTER
 62
    40
370
     9
100
AcDbLine
 10
162.995104
 20
119.583532
 30
0.0
 11
162.995104
 21
126.899532
 31
0.0
  0
LINE
  5
456
330
1F
100
AcDbEntity
  8
002
  6
CENTER
 62
    40
370
     9
100
AcDbLine
 10
165.507229
 20
126.899532
 30
0.0
 11
165.507229
 21
119.583532
 31
0.0
  0
LINE
  5
457
330
1F
100
AcDbEntity
  8
002
  6
CENTER
 62
    40
370
     9
100
AcDbLine
 10
156.132229
 20
119.583532
 30
0.0
 11
156.132229
 21
126.899532
 31
0.0
  0
LINE
  5
458
330
1F
100
AcDbEntity
  8
002
  6
CENTER
 62
    40
370
     9
100
AcDbLine
 10
156.257229
 20
97.960532
 30
0.0
 11
156.257229
 21
89.803407
 31
0.0
  0
LINE
  5
459
330
1F
100
AcDbEntity
  8
002
  6
CENTER
 62
    40
370
     9
100
AcDbLine
 10
158.882229
 20
88.871782
 30
0.0
 11
158.882229
 21
92.139532
 31
0.0
  0
LINE
  5
45A
330
1F
100
AcDbEntity
  8
002
  6
CENTER
 62
    40
370
     9
100
AcDbLine
 10
134.632229
 20
92.139532
 30
0.0
 11
134.632229
 21
88.871782
 31
0.0
  0
LINE
  5
45B
330
1F
100
AcDbEntity
  8
002
  6
CENTER
 62
    40
370
     9
100
AcDbLine
 10
137.257229
 20
89.803407
 30
0.0
 11
137.257229
 21
97.960532
 31
0.0
  0
LINE
  5
45C
330
1F
100
AcDbEntity
  8
002
  6
CENTER
 62
    40
370
     9
100
AcDbLine
 10
129.250604
 20
102.764532
 30
0.0
 11
125.407729
 21
102.764532
 31
0.0
  0
LINE
  5
45D
330
1F
100
AcDbEntity
  8
002
 62
     3
370
    30
100
AcDbLine
 10
138.132229
 20
168.389532
 30
0.0
 11
155.382229
 21
168.389532
 31
0.0
  0
ARC
  5
45E
330
1F
100
AcDbEntity
  8
002
 62
     3
370
    30
100
AcDbCircle
 10
155.632229
 20
168.389532
 30
0.0
 40
0.1250204514519679
100
AcDbArc
 50
180.0
 51
260.010272
  0
LINE
  5
45F
330
1F
100
AcDbEntity
  8
002
 62
     3
370
    30
100
AcDbLine
 10
155.610541
 20
168.266407
 30
0.0
 11
159.153929
 21
167.887657
 31
0.0
  0
LINE
  5
460
330
1F
100
AcDbEntity
  8
002
 62
     3
370
    30
100
AcDbLine
 10
159.132229
 20
167.764532
 30
0.0
 11
134.382229
 21
167.764532
 31
0.0
  0
ARC
  5
461
330
1F
100
AcDbEntity
  8
002
 62
     3
370
    30
100
AcDbCircle
 10
134.382229
 20
167.764532
 30
0.0
 40
0.1250204514519679
100
AcDbArc
 50
99.989728
 51
260.010272
  0
LINE
  5
462
330
1F
100
AcDbEntity
  8
002
 62
     3
370
    30
100
AcDbLine
 10
134.360541
 20
167.641407
 30
0.0
 11
137.903929
 21
167.262657
 31
0.0
  0
LINE
  5
463
330
1F
100
AcDbEntity
  8
002
 62
     3
370
    30
100
AcDbLine
 10
137.903929
 20
167.016407
 30
0.0
 11
134.360541
 21
166.637657
 31
0.0
  0
ARC
  5
464
330
1F
100
AcDbEntity
  8
002
 62
     3
370
    30
100
AcDbCircle
 10
134.382229
 20
166.514532
 30
0.0
 40
0.1250204514519679
100
AcDbArc
 50
99.989728
 51
260.010272
  0
LINE
  5
465
330
1F
100
AcDbEntity
  8
002
 62
     3
370
    30
100
AcDbLine
 10
134.360541
 20
166.391407
 30
0.0
 11
137.903929
 21
166.012657
 31
0.0
  0
ARC
  5
466
330
1F
100
AcDbEntity
  8
002
 62
     3
370
    30
100
AcDbCircle
 10
137.882229
 20
165.889532
 30
0.0
 40
0.1250226204532753
100
AcDbArc
 50
279.99537
 51
80.00463
  0
LINE
  5
467
330
1F
100
AcDbEntity
  8
002
 62
     3
370
    30
100
AcDbLine
 10
137.903929
 20
165.766407
 30
0.0
 11
134.360541
 21
165.387657
 31
0.0
  0
ARC
  5
468
330
1F
100
AcDbEntity
  8
002
 62
     3
370
    30
100
AcDbCircle
 10
134.382229
 20
165.264532
 30
0.0
 40
0.1250204514519679
100
AcDbArc
 50
99.989728
 51
260.010272
  0
LINE
  5
469
330
1F
100
AcDbEntity
  8
002
 62
     3
370
    30
100
AcDbLine
 10
134.360541
 20
165.141407
 30
0.0
 11
137.925979
 21
164.639532
 31
0.0
  0
LINE
  5
46A
330
1F
100
AcDbEntity
  8
002
 62
     3
370
    30
100
AcDbLine
 10
137.925979
 20
164.639532
 30
0.0
 11
137.925979
 21
164.514532
 31
0.0
  0
LINE
  5
46B
330
1F
100
AcDbEntity
  8
002
 62
     3
370
    30
100
AcDbLine
 10
137.850979
 20
164.514532
 30
0.0
 11
137.850979
 21
163.052032
 31
0.0
  0
LINE
  5
46C
330
1F
100
AcDbEntity
  8
002
 62
     3
370
    30
100
AcDbLine
 10
137.313466
 20
163.052032
 30
0.0
 11
139.053654
 21
163.052032
 31
0.0
  0
LINE
  5
46D
330
1F
100
AcDbEntity
  8
002
 62
     3
370
    30
100
AcDbLine
 10
139.053654
 20
163.052032
 30
0.0
 11
139.183566
 21
162.977032
 31
0.0
  0
LINE
  5
46E
330
1F
100
AcDbEntity
  8
002
 62
     3
370
    30
100
AcDbLine
 10
139.183566
 20
162.977032
 30
0.0
 11
137.183566
 21
162.977032
 31
0.0
  0
LINE
  5
46F
330
1F
100
AcDbEntity
  8
002
 62
     3
370
    30
100
AcDbLine
 10
137.183566
 20
162.977032
 30
0.0
 11
137.183566
 21
161.802032
 31
0.0
  0
LINE
  5
470
330
1F
100
AcDbEntity
  8
002
 62
     3
370
    30
100
AcDbLine
 10
137.183566
 20
162.889532
 30
0.0
 11
136.850979
 21
162.889532
 31
0.0
  0
LINE
  5
471
330
1F
100
AcDbEntity
  8
002
 62
     3
370
    30
100
AcDbLine
 10
137.183566
 20
162.977032
 30
0.0
 11
137.313466
 21
163.052032
 31
0.0
  0
CIRCLE
  5
472
330
1F
100
AcDbEntity
  8
002
 62
     3
370
    30
100
AcDbCircle
 10
137.225979
 20
163.702032
 30
0.0
 40
0.125
  0
LINE
  5
473
330
1F
100
AcDbEntity
  8
002
 62
     3
370
    30
100
AcDbLine
 10
136.600979
 20
164.264532
 30
0.0
 11
136.600979
 21
163.139532
 31
0.0
  0
ARC
  5
474
330
1F
100
AcDbEntity
  8
002
 62
     3
370
    30
100
AcDbCircle
 10
136.850979
 20
163.139532
 30
0.0
 40
0.25
100
AcDbArc
 50
180.0
 51
270.0
  0
LINE
  5
475
330
1F
100
AcDbEntity
  8
002
 62
     3
370
    30
100
AcDbLine
 10
136.850979
 20
164.514532
 30
0.0
 11
155.700979
 21
164.514532
 31
0.0
  0
LINE
  5
476
330
1F
100
AcDbEntity
  8
002
 62
     3
370
    30
100
AcDbLine
 10
155.700979
 20
164.514532
 30
0.0
 11
155.700979
 21
163.052032
 31
0.0
  0
LINE
  5
477
330
1F
100
AcDbEntity
  8
002
 62
     3
370
    30
100
AcDbLine
 10
156.201004
 20
163.052032
 30
0.0
 11
154.460804
 21
163.052032
 31
0.0
  0
LINE
  5
478
330
1F
100
AcDbEntity
  8
002
 62
     3
370
    30
100
AcDbLine
 10
154.460804
 20
163.052032
 30
0.0
 11
154.330904
 21
162.977032
 31
0.0
  0
LINE
  5
479
330
1F
100
AcDbEntity
  8
002
 62
     3
370
    30
100
AcDbLine
 10
154.330904
 20
162.977032
 30
0.0
 11
156.330904
 21
162.977032
 31
0.0
  0
LINE
  5
47A
330
1F
100
AcDbEntity
  8
002
 62
     3
370
    30
100
AcDbLine
 10
156.330904
 20
162.977032
 30
0.0
 11
156.330904
 21
161.802032
 31
0.0
  0
LINE
  5
47B
330
1F
100
AcDbEntity
  8
002
 62
     3
370
    30
100
AcDbLine
 10
156.330904
 20
162.977032
 30
0.0
 11
156.201004
 21
163.052032
 31
0.0
  0
LINE
  5
47C
330
1F
100
AcDbEntity
  8
002
 62
     3
370
    30
100
AcDbLine
 10
155.625979
 20
164.514532
 30
0.0
 11
155.625979
 21
164.639532
 31
0.0
  0
LINE
  5
47D
330
1F
100
AcDbEntity
  8
002
 62
     3
370
    30
100
AcDbLine
 10
155.625979
 20
164.639532
 30
0.0
 11
159.153929
 21
165.141407
 31
0.0
  0
ARC
  5
47E
330
1F
100
AcDbEntity
  8
002
 62
     3
370
    30
100
AcDbCircle
 10
159.132229
 20
165.264532
 30
0.0
 40
0.1250226204532753
100
AcDbArc
 50
279.99537
 51
80.00463
  0
LINE
  5
47F
330
1F
100
AcDbEntity
  8
002
 62
     3
370
    30
100
AcDbLine
 10
159.153929
 20
165.387657
 30
0.0
 11
155.610541
 21
165.766407
 31
0.0
  0
ARC
  5
480
330
1F
100
AcDbEntity
  8
002
 62
     3
370
    30
100
AcDbCircle
 10
155.632229
 20
165.889532
 30
0.0
 40
0.1250204514519679
100
AcDbArc
 50
99.989728
 51
260.010272
  0
LINE
  5
481
330
1F
100
AcDbEntity
  8
002
 62
     3
370
    30
100
AcDbLine
 10
155.610541
 20
166.012657
 30
0.0
 11
159.153929
 21
166.391407
 31
0.0
  0
ARC
  5
482
330
1F
100
AcDbEntity
  8
002
 62
     3
370
    30
100
AcDbCircle
 10
159.132229
 20
166.514532
 30
0.0
 40
0.1250226204532753
100
AcDbArc
 50
279.99537
 51
80.00463
  0
LINE
  5
483
330
1F
100
AcDbEntity
  8
002
 62
     3
370
    30
100
AcDbLine
 10
159.153929
 20
166.637657
 30
0.0
 11
155.610541
 21
167.016407
 31
0.0
  0
ARC
  5
484
330
1F
100
AcDbEntity
  8
002
 62
     3
370
    30
100
AcDbCircle
 10
155.632229
 20
167.139532
 30
0.0
 40
0.1250204514519679
100
AcDbArc
 50
99.989728
 51
260.010272
  0
LINE
  5
485
330
1F
100
AcDbEntity
  8
002
 62
     3
370
    30
100
AcDbLine
 10
155.610541
 20
167.262657
 30
0.0
 11
159.153929
 21
167.641407
 31
0.0
  0
ARC
  5
486
330
1F
100
AcDbEntity
  8
002
 62
     3
370
    30
100
AcDbCircle
 10
159.132229
 20
167.764532
 30
0.0
 40
0.1250226204532753
100
AcDbArc
 50
279.99537
 51
80.00463
  0
LINE
  5
487
330
1F
100
AcDbEntity
  8
002
 62
     3
370
    30
100
AcDbLine
 10
159.132229
 20
166.514532
 30
0.0
 11
134.382229
 21
166.514532
 31
0.0
  0
LINE
  5
488
330
1F
100
AcDbEntity
  8
002
 62
     3
370
    30
100
AcDbLine
 10
134.382229
 20
165.264532
 30
0.0
 11
159.132229
 21
165.264532
 31
0.0
  0
LINE
  5
489
330
1F
100
AcDbEntity
  8
002
 62
     3
370
    30
100
AcDbLine
 10
155.625979
 20
164.639532
 30
0.0
 11
137.925979
 21
164.639532
 31
0.0
  0
ARC
  5
48A
330
1F
100
AcDbEntity
  8
002
 62
     3
370
    30
100
AcDbCircle
 10
136.850979
 20
164.264532
 30
0.0
 40
0.25
100
AcDbArc
 50
90.0
 51
180.0
  0
LINE
  5
48B
330
1F
100
AcDbEntity
  8
002
 62
     3
370
    30
100
AcDbLine
 10
138.132229
 20
165.889532
 30
0.0
 11
155.382229
 21
165.889532
 31
0.0
  0
LINE
  5
48C
330
1F
100
AcDbEntity
  8
002
 62
     3
370
    30
100
AcDbLine
 10
155.382229
 20
167.139532
 30
0.0
 11
138.132229
 21
167.139532
 31
0.0
  0
ARC
  5
48D
330
1F
100
AcDbEntity
  8
002
 62
     3
370
    30
100
AcDbCircle
 10
137.882229
 20
167.139532
 30
0.0
 40
0.1250226204532753
100
AcDbArc
 50
279.99537
 51
80.00463
  0
LINE
  5
48E
330
1F
100
AcDbEntity
  8
002
 62
     3
370
    30
100
AcDbLine
 10
137.903929
 20
168.266407
 30
0.0
 11
134.360541
 21
167.887657
 31
0.0
  0
ARC
  5
48F
330
1F
100
AcDbEntity
  8
002
 62
     3
370
    30
100
AcDbCircle
 10
137.882229
 20
168.389532
 30
0.0
 40
0.125
100
AcDbArc
 50
279.99537
 51
0.0
  0
LINE
  5
490
330
1F
100
AcDbEntity
  8
002
 62
     3
370
    30
100
AcDbLine
 10
139.183566
 20
162.977032
 30
0.0
 11
139.183566
 21
161.802032
 31
0.0
  0
LINE
  5
491
330
1F
100
AcDbEntity
  8
002
 62
     3
370
    30
100
AcDbLine
 10
139.183566
 20
162.764532
 30
0.0
 11
154.330904
 21
162.764532
 31
0.0
  0
LINE
  5
492
330
1F
100
AcDbEntity
  8
002
 62
     3
370
    30
100
AcDbLine
 10
154.330904
 20
162.889532
 30
0.0
 11
139.183566
 21
162.889532
 31
0.0
  0
LINE
  5
493
330
1F
100
AcDbEntity
  8
002
 62
     3
370
    30
100
AcDbLine
 10
133.132229
 20
161.802032
 30
0.0
 11
160.382229
 21
161.802032
 31
0.0
  0
LINE
  5
494
330
1F
100
AcDbEntity
  8
002
 62
     3
370
    30
100
AcDbLine
 10
160.382229
 20
161.802032
 30
0.0
 11
160.382229
 21
161.514532
 31
0.0
  0
LINE
  5
495
330
1F
100
AcDbEntity
  8
002
 62
     3
370
    30
100
AcDbLine
 10
154.330904
 20
161.802032
 30
0.0
 11
154.330904
 21
162.977032
 31
0.0
  0
LINE
  5
496
330
1F
100
AcDbEntity
  8
002
 62
     3
370
    30
100
AcDbLine
 10
133.132229
 20
161.514532
 30
0.0
 11
133.132229
 21
161.802032
 31
0.0
  0
LINE
  5
497
330
1F
100
AcDbEntity
  8
002
  6
CENTER
 62
    40
370
     9
100
AcDbLine
 10
155.330904
 20
160.552032
 30
0.0
 11
155.330904
 21
163.819907
 31
0.0
  0
LINE
  5
498
330
1F
100
AcDbEntity
  8
002
  6
CENTER
 62
    40
370
     9
100
AcDbLine
 10
137.225979
 20
163.917907
 30
0.0
 11
137.225979
 21
163.504032
 31
0.0
  0
LINE
  5
499
330
1F
100
AcDbEntity
  8
002
  6
CENTER
 62
    40
370
     9
100
AcDbLine
 10
137.016529
 20
163.702032
 30
0.0
 11
137.451341
 21
163.702032
 31
0.0
  0
LINE
  5
49A
330
1F
100
AcDbEntity
  8
002
  6
CENTER
 62
    40
370
     9
100
AcDbLine
 10
138.183566
 20
163.819907
 30
0.0
 11
138.183566
 21
160.552032
 31
0.0
  0
LINE
  5
49B
330
1F
100
AcDbEntity
  8
002
  6
PHANTOM
 62
    40
370
     9
100
AcDbLine
 10
155.507229
 20
168.389532
 30
0.0
 11
155.507229
 21
194.889532
 31
0.0
  0
LINE
  5
49C
330
1F
100
AcDbEntity
  8
002
  6
PHANTOM
 62
    40
370
     9
100
AcDbLine
 10
159.257229
 20
195.514532
 30
0.0
 11
159.257229
 21
167.764532
 31
0.0
  0
LINE
  5
49D
330
1F
100
AcDbEntity
  8
002
  6
PHANTOM
 62
    40
370
     9
100
AcDbLine
 10
138.007229
 20
168.389532
 30
0.0
 11
138.007229
 21
194.889532
 31
0.0
  0
LINE
  5
49E
330
1F
100
AcDbEntity
  8
002
  6
PHANTOM
 62
    40
370
     9
100
AcDbLine
 10
134.257229
 20
195.514532
 30
0.0
 11
134.257229
 21
167.764532
 31
0.0
  0
LINE
  5
49F
330
1F
100
AcDbEntity
  8
002
 62
     3
370
    30
100
AcDbLine
 10
141.257279
 20
212.139532
 30
0.0
 11
152.257266
 21
212.139532
 31
0.0
  0
LINE
  5
4A0
330
1F
100
AcDbEntity
  8
002
 62
     3
370
    30
100
AcDbLine
 10
152.257241
 20
212.139407
 30
0.0
 11
152.382241
 21
212.014407
 31
0.0
  0
LINE
  5
4A1
330
1F
100
AcDbEntity
  8
002
 62
     3
370
    30
100
AcDbLine
 10
152.382266
 20
212.014532
 30
0.0
 11
152.382266
 21
202.327032
 31
0.0
  0
LINE
  5
4A2
330
1F
100
AcDbEntity
  8
002
 62
     3
370
    30
100
AcDbLine
 10
152.382266
 20
202.327032
 30
0.0
 11
141.132266
 21
202.327032
 31
0.0
  0
LINE
  5
4A3
330
1F
100
AcDbEntity
  8
002
 62
     3
370
    30
100
AcDbLine
 10
141.132266
 20
202.327032
 30
0.0
 11
141.132266
 21
212.014532
 31
0.0
  0
LINE
  5
4A4
330
1F
100
AcDbEntity
  8
002
 62
     3
370
    30
100
AcDbLine
 10
141.132204
 20
212.014282
 30
0.0
 11
141.257241
 21
212.139407
 31
0.0
  0
LINE
  5
4A5
330
1F
100
AcDbEntity
  8
002
 62
     3
370
    30
100
AcDbLine
 10
141.319766
 20
202.327032
 30
0.0
 11
141.319766
 21
201.889532
 31
0.0
  0
LINE
  5
4A6
330
1F
100
AcDbEntity
  8
002
 62
     3
370
    30
100
AcDbLine
 10
140.419729
 20
201.889532
 30
0.0
 11
153.094729
 21
201.889532
 31
0.0
  0
LINE
  5
4A7
330
1F
100
AcDbEntity
  8
002
 62
     3
370
    30
100
AcDbLine
 10
153.094729
 20
201.889532
 30
0.0
 11
153.094729
 21
201.639532
 31
0.0
  0
LINE
  5
4A8
330
1F
100
AcDbEntity
  8
002
 62
     3
370
    30
100
AcDbLine
 10
153.169729
 20
201.639532
 30
0.0
 11
139.344729
 21
201.639532
 31
0.0
  0
ARC
  5
4A9
330
1F
100
AcDbEntity
  8
002
 62
     3
370
    30
100
AcDbCircle
 10
139.344729
 20
201.389532
 30
0.0
 40
0.25
100
AcDbArc
 50
90.0
 51
180.0
  0
LINE
  5
4AA
330
1F
100
AcDbEntity
  8
002
 62
     3
370
    30
100
AcDbLine
 10
139.094729
 20
201.389532
 30
0.0
 11
139.094729
 21
200.264532
 31
0.0
  0
ARC
  5
4AB
330
1F
100
AcDbEntity
  8
002
 62
     3
370
    30
100
AcDbCircle
 10
139.344729
 20
200.264532
 30
0.0
 40
0.25
100
AcDbArc
 50
180.0
 51
270.0
  0
LINE
  5
4AC
330
1F
100
AcDbEntity
  8
002
 62
     3
370
    30
100
AcDbLine
 10
139.344729
 20
200.014532
 30
0.0
 11
153.169729
 21
200.014532
 31
0.0
  0
LINE
  5
4AD
330
1F
100
AcDbEntity
  8
002
 62
     3
370
    30
100
AcDbLine
 10
153.169729
 20
200.014532
 30
0.0
 11
153.169729
 21
201.639532
 31
0.0
  0
LINE
  5
4AE
330
1F
100
AcDbEntity
  8
002
 62
     3
370
    30
100
AcDbLine
 10
140.419729
 20
201.889532
 30
0.0
 11
140.419729
 21
201.639532
 31
0.0
  0
LINE
  5
4AF
330
1F
100
AcDbEntity
  8
002
 62
     3
370
    30
100
AcDbLine
 10
140.344729
 20
201.639532
 30
0.0
 11
140.344729
 21
200.014532
 31
0.0
  0
LINE
  5
4B0
330
1F
100
AcDbEntity
  8
002
 62
     3
370
    30
100
AcDbLine
 10
140.419729
 20
200.014532
 30
0.0
 11
140.419729
 21
199.889532
 31
0.0
  0
LINE
  5
4B1
330
1F
100
AcDbEntity
  8
002
 62
     3
370
    30
100
AcDbLine
 10
140.419729
 20
199.889532
 30
0.0
 11
153.094729
 21
199.889532
 31
0.0
  0
LINE
  5
4B2
330
1F
100
AcDbEntity
  8
002
 62
     3
370
    30
100
AcDbLine
 10
153.094729
 20
199.889532
 30
0.0
 11
159.153929
 21
199.387657
 31
0.0
  0
LINE
  5
4B3
330
1F
100
AcDbEntity
  8
002
 62
     3
370
    30
100
AcDbLine
 10
159.132229
 20
199.264532
 30
0.0
 11
134.382229
 21
199.264532
 31
0.0
  0
LINE
  5
4B4
330
1F
100
AcDbEntity
  8
002
 62
     3
370
    30
100
AcDbLine
 10
134.360541
 20
199.141407
 30
0.0
 11
137.903929
 21
198.762657
 31
0.0
  0
LINE
  5
4B5
330
1F
100
AcDbEntity
  8
002
 62
     3
370
    30
100
AcDbLine
 10
137.903929
 20
198.516407
 30
0.0
 11
134.360541
 21
198.137657
 31
0.0
  0
ARC
  5
4B6
330
1F
100
AcDbEntity
  8
002
 62
     3
370
    30
100
AcDbCircle
 10
134.382229
 20
198.014532
 30
0.0
 40
0.1250204514519679
100
AcDbArc
 50
99.989728
 51
260.010272
  0
LINE
  5
4B7
330
1F
100
AcDbEntity
  8
002
 62
     3
370
    30
100
AcDbLine
 10
134.360541
 20
197.891407
 30
0.0
 11
137.903929
 21
197.512657
 31
0.0
  0
LINE
  5
4B8
330
1F
100
AcDbEntity
  8
002
 62
     3
370
    30
100
AcDbLine
 10
137.903929
 20
197.266407
 30
0.0
 11
134.360541
 21
196.887657
 31
0.0
  0
ARC
  5
4B9
330
1F
100
AcDbEntity
  8
002
 62
     3
370
    30
100
AcDbCircle
 10
134.382229
 20
196.764532
 30
0.0
 40
0.1250204514519679
100
AcDbArc
 50
99.989728
 51
260.010272
  0
LINE
  5
4BA
330
1F
100
AcDbEntity
  8
002
 62
     3
370
    30
100
AcDbLine
 10
134.360541
 20
196.641407
 30
0.0
 11
137.903929
 21
196.262657
 31
0.0
  0
LINE
  5
4BB
330
1F
100
AcDbEntity
  8
002
 62
     3
370
    30
100
AcDbLine
 10
137.903929
 20
196.016407
 30
0.0
 11
134.360541
 21
195.637657
 31
0.0
  0
ARC
  5
4BC
330
1F
100
AcDbEntity
  8
002
 62
     3
370
    30
100
AcDbCircle
 10
134.382229
 20
195.514532
 30
0.0
 40
0.1250204514519679
100
AcDbArc
 50
99.989728
 51
260.010272
  0
LINE
  5
4BD
330
1F
100
AcDbEntity
  8
002
 62
     3
370
    30
100
AcDbLine
 10
134.360541
 20
195.391407
 30
0.0
 11
137.903929
 21
195.012657
 31
0.0
  0
ARC
  5
4BE
330
1F
100
AcDbEntity
  8
002
 62
     3
370
    30
100
AcDbCircle
 10
137.882229
 20
194.889532
 30
0.0
 40
0.1250226204532753
100
AcDbArc
 50
0.0
 51
80.00463
  0
LINE
  5
4BF
330
1F
100
AcDbEntity
  8
002
 62
     3
370
    30
100
AcDbLine
 10
138.132229
 20
194.889532
 30
0.0
 11
155.382229
 21
194.889532
 31
0.0
  0
ARC
  5
4C0
330
1F
100
AcDbEntity
  8
002
 62
     3
370
    30
100
AcDbCircle
 10
155.632229
 20
194.889532
 30
0.0
 40
0.125
100
AcDbArc
 50
99.989728
 51
180.0
  0
LINE
  5
4C1
330
1F
100
AcDbEntity
  8
002
 62
     3
370
    30
100
AcDbLine
 10
155.610541
 20
195.012657
 30
0.0
 11
159.153929
 21
195.391407
 31
0.0
  0
ARC
  5
4C2
330
1F
100
AcDbEntity
  8
002
 62
     3
370
    30
100
AcDbCircle
 10
159.132229
 20
195.514532
 30
0.0
 40
0.1250226204532753
100
AcDbArc
 50
279.99537
 51
80.00463
  0
LINE
  5
4C3
330
1F
100
AcDbEntity
  8
002
 62
     3
370
    30
100
AcDbLine
 10
159.153929
 20
195.637657
 30
0.0
 11
155.610541
 21
196.016407
 31
0.0
  0
LINE
  5
4C4
330
1F
100
AcDbEntity
  8
002
 62
     3
370
    30
100
AcDbLine
 10
155.610541
 20
196.262657
 30
0.0
 11
159.153929
 21
196.641407
 31
0.0
  0
ARC
  5
4C5
330
1F
100
AcDbEntity
  8
002
 62
     3
370
    30
100
AcDbCircle
 10
159.132229
 20
196.764532
 30
0.0
 40
0.1250226204532753
100
AcDbArc
 50
279.99537
 51
80.00463
  0
LINE
  5
4C6
330
1F
100
AcDbEntity
  8
002
 62
     3
370
    30
100
AcDbLine
 10
159.153929
 20
196.887657
 30
0.0
 11
155.610541
 21
197.266407
 31
0.0
  0
LINE
  5
4C7
330
1F
100
AcDbEntity
  8
002
 62
     3
370
    30
100
AcDbLine
 10
155.610541
 20
197.512657
 30
0.0
 11
159.153929
 21
197.891407
 31
0.0
  0
ARC
  5
4C8
330
1F
100
AcDbEntity
  8
002
 62
     3
370
    30
100
AcDbCircle
 10
159.132229
 20
198.014532
 30
0.0
 40
0.1250226204532753
100
AcDbArc
 50
279.99537
 51
80.00463
  0
LINE
  5
4C9
330
1F
100
AcDbEntity
  8
002
 62
     3
370
    30
100
AcDbLine
 10
159.153929
 20
198.137657
 30
0.0
 11
155.610541
 21
198.516407
 31
0.0
  0
LINE
  5
4CA
330
1F
100
AcDbEntity
  8
002
 62
     3
370
    30
100
AcDbLine
 10
155.610541
 20
198.762657
 30
0.0
 11
159.153929
 21
199.141407
 31
0.0
  0
ARC
  5
4CB
330
1F
100
AcDbEntity
  8
002
 62
     3
370
    30
100
AcDbCircle
 10
159.132229
 20
199.264532
 30
0.0
 40
0.1250226204532753
100
AcDbArc
 50
279.99537
 51
80.00463
  0
LINE
  5
4CC
330
1F
100
AcDbEntity
  8
002
 62
     3
370
    30
100
AcDbLine
 10
159.132229
 20
198.014532
 30
0.0
 11
134.382229
 21
198.014532
 31
0.0
  0
LINE
  5
4CD
330
1F
100
AcDbEntity
  8
002
 62
     3
370
    30
100
AcDbLine
 10
134.382229
 20
196.764532
 30
0.0
 11
159.132229
 21
196.764532
 31
0.0
  0
LINE
  5
4CE
330
1F
100
AcDbEntity
  8
002
 62
     3
370
    30
100
AcDbLine
 10
159.132229
 20
195.514532
 30
0.0
 11
134.382229
 21
195.514532
 31
0.0
  0
ARC
  5
4CF
330
1F
100
AcDbEntity
  8
002
 62
     3
370
    30
100
AcDbCircle
 10
137.882229
 20
196.139532
 30
0.0
 40
0.1250226204532753
100
AcDbArc
 50
279.99537
 51
80.00463
  0
LINE
  5
4D0
330
1F
100
AcDbEntity
  8
002
 62
     3
370
    30
100
AcDbLine
 10
138.132229
 20
196.139532
 30
0.0
 11
155.382229
 21
196.139532
 31
0.0
  0
ARC
  5
4D1
330
1F
100
AcDbEntity
  8
002
 62
     3
370
    30
100
AcDbCircle
 10
155.632229
 20
196.139532
 30
0.0
 40
0.1250204514519679
100
AcDbArc
 50
99.989728
 51
260.010272
  0
LINE
  5
4D2
330
1F
100
AcDbEntity
  8
002
 62
     3
370
    30
100
AcDbLine
 10
155.382229
 20
197.389532
 30
0.0
 11
138.132229
 21
197.389532
 31
0.0
  0
ARC
  5
4D3
330
1F
100
AcDbEntity
  8
002
 62
     3
370
    30
100
AcDbCircle
 10
137.882229
 20
197.389532
 30
0.0
 40
0.1250226204532753
100
AcDbArc
 50
279.99537
 51
80.00463
  0
ARC
  5
4D4
330
1F
100
AcDbEntity
  8
002
 62
     3
370
    30
100
AcDbCircle
 10
137.882229
 20
198.639532
 30
0.0
 40
0.1250226204532753
100
AcDbArc
 50
279.99537
 51
80.00463
  0
LINE
  5
4D5
330
1F
100
AcDbEntity
  8
002
 62
     3
370
    30
100
AcDbLine
 10
138.132229
 20
198.639532
 30
0.0
 11
155.382229
 21
198.639532
 31
0.0
  0
ARC
  5
4D6
330
1F
100
AcDbEntity
  8
002
 62
     3
370
    30
100
AcDbCircle
 10
155.632229
 20
198.639532
 30
0.0
 40
0.1250204514519679
100
AcDbArc
 50
99.989728
 51
260.010272
  0
ARC
  5
4D7
330
1F
100
AcDbEntity
  8
002
 62
     3
370
    30
100
AcDbCircle
 10
155.632229
 20
197.389532
 30
0.0
 40
0.1250204514519679
100
AcDbArc
 50
99.989728
 51
260.010272
  0
LINE
  5
4D8
330
1F
100
AcDbEntity
  8
002
 62
     3
370
    30
100
AcDbLine
 10
153.094729
 20
199.889532
 30
0.0
 11
153.094729
 21
200.014532
 31
0.0
  0
LINE
  5
4D9
330
1F
100
AcDbEntity
  8
002
 62
     3
370
    30
100
AcDbLine
 10
152.194754
 20
201.889532
 30
0.0
 11
152.194754
 21
202.327032
 31
0.0
  0
CIRCLE
  5
4DA
330
1F
100
AcDbEntity
  8
002
 62
     3
370
    30
100
AcDbCircle
 10
139.719729
 20
200.827032
 30
0.0
 40
0.125
  0
LINE
  5
4DB
330
1F
100
AcDbEntity
  8
002
 62
     3
370
    30
100
AcDbLine
 10
140.419729
 20
199.889532
 30
0.0
 11
134.360541
 21
199.387657
 31
0.0
  0
ARC
  5
4DC
330
1F
100
AcDbEntity
  8
002
 62
     3
370
    30
100
AcDbCircle
 10
134.382229
 20
199.264532
 30
0.0
 40
0.1250204514519679
100
AcDbArc
 50
99.989728
 51
260.010272
  0
LINE
  5
4DD
330
1F
100
AcDbEntity
  8
002
  6
CENTER
 62
    40
370
     9
100
AcDbLine
 10
139.719729
 20
200.420532
 30
0.0
 11
139.719729
 21
201.265532
 31
0.0
  0
LINE
  5
4DE
330
1F
100
AcDbEntity
  8
002
  6
CENTER
 62
    40
370
     9
100
AcDbLine
 10
139.423766
 20
200.827032
 30
0.0
 11
140.051904
 21
200.827032
 31
0.0
  0
LINE
  5
4DF
330
1F
100
AcDbEntity
  8
002
 62
    40
370
     9
100
AcDbLine
 10
141.307254
 20
202.327032
 30
0.0
 11
141.307254
 21
212.139532
 31
0.0
  0
LINE
  5
4E0
330
1F
100
AcDbEntity
  8
002
 62
    40
370
     9
100
AcDbLine
 10
152.207254
 20
212.139532
 30
0.0
 11
152.194754
 21
202.327032
 31
0.0
  0
LINE
  5
4E1
330
1F
100
AcDbEntity
  8
003
  6
HIDDEN
 62
    40
370
     9
100
AcDbLine
 10
159.069729
 20
92.139532
 30
0.0
 11
159.069729
 21
96.139532
 31
0.0
  0
LINE
  5
4E2
330
1F
100
AcDbEntity
  8
003
  6
HIDDEN
 62
    40
370
     9
100
AcDbLine
 10
153.444729
 20
96.139532
 30
0.0
 11
153.444729
 21
92.139532
 31
0.0
  0
LINE
  5
4E3
330
1F
100
AcDbEntity
  8
003
  6
HIDDEN
 62
    40
370
     9
100
AcDbLine
 10
161.382229
 20
96.139532
 30
0.0
 11
151.132229
 21
96.139532
 31
0.0
  0
LINE
  5
4E4
330
1F
100
AcDbEntity
  8
003
  6
HIDDEN
 62
    40
370
     9
100
AcDbLine
 10
140.069729
 20
96.139532
 30
0.0
 11
140.069729
 21
92.139532
 31
0.0
  0
LINE
  5
4E5
330
1F
100
AcDbEntity
  8
003
  6
HIDDEN
 62
    40
370
     9
100
AcDbLine
 10
142.382229
 20
96.139532
 30
0.0
 11
132.132229
 21
96.139532
 31
0.0
  0
LINE
  5
4E6
330
1F
100
AcDbEntity
  8
003
  6
HIDDEN
 62
    40
370
     9
100
AcDbLine
 10
134.444729
 20
96.139532
 30
0.0
 11
134.444729
 21
92.139532
 31
0.0
  0
LINE
  5
4E7
330
1F
100
AcDbEntity
  8
003
  6
HIDDEN
 62
    40
370
     9
100
AcDbLine
 10
161.382229
 20
96.139532
 30
0.0
 11
161.382229
 21
96.264532
 31
0.0
  0
LINE
  5
4E8
330
1F
100
AcDbEntity
  8
003
  6
HIDDEN
 62
    40
370
     9
100
AcDbLine
 10
151.132229
 20
96.139532
 30
0.0
 11
151.132229
 21
96.264532
 31
0.0
  0
LINE
  5
4E9
330
1F
100
AcDbEntity
  8
003
  6
HIDDEN
 62
    40
370
     9
100
AcDbLine
 10
142.382229
 20
96.139532
 30
0.0
 11
142.382229
 21
96.264532
 31
0.0
  0
LINE
  5
4EA
330
1F
100
AcDbEntity
  8
003
  6
HIDDEN
 62
    40
370
     9
100
AcDbLine
 10
132.132229
 20
96.139532
 30
0.0
 11
132.132229
 21
96.264532
 31
0.0
  0
TEXT
  5
4EB
330
1F
100
AcDbEntity
  8
002
 62
     3
370
    30
100
AcDbText
 10
126.431145
 20
111.690844
 30
0.0
 40
0.0375
  1
Ｍ８
 41
0.555556
100
AcDbText
  0
TEXT
  5
4EC
330
1F
100
AcDbEntity
  8
002
 62
     3
370
    30
100
AcDbText
 10
126.456187
 20
102.588219
 30
0.0
 40
0.0375
  1
Ｍ８
 50
180.000005
 41
0.555556
100
AcDbText
  0
LINE
  5
4ED
330
1F
100
AcDbEntity
  8
002
 62
     3
370
    30
100
AcDbLine
 10
48.830975
 20
201.889532
 30
0.0
 11
36.330975
 21
201.889532
 31
0.0
  0
LINE
  5
4EE
330
1F
100
AcDbEntity
  8
002
 62
    40
370
     9
100
AcDbLine
 10
36.330975
 20
191.906282
 30
0.0
 11
37.062475
 21
190.639407
 31
0.0
  0
LINE
  5
4EF
330
1F
100
AcDbEntity
  8
002
 62
    40
370
     9
100
AcDbLine
 10
48.09935
 20
190.639282
 30
0.0
 11
48.83085
 21
191.906282
 31
0.0
  0
LINE
  5
4F0
330
1F
100
AcDbEntity
  8
002
 62
    40
370
     9
100
AcDbLine
 10
36.330975
 20
190.639532
 30
0.0
 11
48.830975
 21
190.639532
 31
0.0
  0
LINE
  5
4F1
330
1F
100
AcDbEntity
  8
002
 62
     3
370
    30
100
AcDbLine
 10
71.455975
 20
106.827032
 30
0.0
 11
71.455975
 21
107.452032
 31
0.0
  0
LINE
  5
4F2
330
1F
100
AcDbEntity
  8
002
 62
     3
370
    30
100
AcDbLine
 10
71.455975
 20
107.452032
 30
0.0
 11
71.080975
 21
107.545782
 31
0.0
  0
LINE
  5
4F3
330
1F
100
AcDbEntity
  8
002
 62
     3
370
    30
100
AcDbLine
 10
71.080975
 20
107.545782
 30
0.0
 11
70.974725
 21
107.479407
 31
0.0
  0
LINE
  5
4F4
330
1F
100
AcDbEntity
  8
002
 62
     3
370
    30
100
AcDbLine
 10
70.890475
 20
107.426782
 30
0.0
 11
70.890475
 21
106.852407
 31
0.0
  0
LINE
  5
4F5
330
1F
100
AcDbEntity
  8
002
 62
     3
370
    30
100
AcDbLine
 10
70.974725
 20
106.799657
 30
0.0
 11
71.080975
 21
106.733282
 31
0.0
  0
LINE
  5
4F6
330
1F
100
AcDbEntity
  8
002
 62
     3
370
    30
100
AcDbLine
 10
71.080975
 20
106.733282
 30
0.0
 11
71.455975
 21
106.827032
 31
0.0
  0
ARC
  5
4F7
330
1F
100
AcDbEntity
  8
002
 62
     3
370
    30
100
AcDbCircle
 10
71.373225
 20
107.139532
 30
0.0
 40
0.1250464913542376
100
AcDbArc
 50
311.433771
 51
48.566229
  0
LINE
  5
4F8
330
1F
100
AcDbEntity
  8
002
 62
     3
370
    30
100
AcDbLine
 10
71.080975
 20
107.452032
 30
0.0
 11
71.080975
 21
106.827032
 31
0.0
  0
ARC
  5
4F9
330
1F
100
AcDbEntity
  8
002
 62
     3
370
    30
100
AcDbCircle
 10
70.908475
 20
106.693657
 30
0.0
 40
0.1249811235747011
100
AcDbArc
 50
57.994617
 51
135.0
  0
LINE
  5
4FA
330
1F
100
AcDbEntity
  8
002
 62
     3
370
    30
100
AcDbLine
 10
70.8201
 20
106.782032
 30
0.0
 11
70.455975
 21
106.417907
 31
0.0
  0
LINE
  5
4FB
330
1F
100
AcDbEntity
  8
002
 62
     3
370
    30
100
AcDbLine
 10
70.455975
 20
106.417907
 30
0.0
 11
70.080975
 21
106.417907
 31
0.0
  0
LINE
  5
4FC
330
1F
100
AcDbEntity
  8
002
 62
     3
370
    30
100
AcDbLine
 10
70.080975
 20
106.417907
 30
0.0
 11
69.9681
 21
106.530782
 31
0.0
  0
LINE
  5
4FD
330
1F
100
AcDbEntity
  8
002
 62
     3
370
    30
100
AcDbLine
 10
70.00935
 20
106.489407
 30
0.0
 11
69.830975
 21
106.500532
 31
0.0
  0
LINE
  5
4FE
330
1F
100
AcDbEntity
  8
002
 62
     3
370
    30
100
AcDbLine
 10
69.955975
 20
106.603907
 30
0.0
 11
69.955975
 21
107.675282
 31
0.0
  0
ARC
  5
4FF
330
1F
100
AcDbEntity
  8
002
 62
     3
370
    30
100
AcDbCircle
 10
70.148475
 20
107.680782
 30
0.0
 40
0.1925912527219205
100
AcDbArc
 50
159.448306
 51
249.483127
  0
LINE
  5
500
330
1F
100
AcDbEntity
  8
002
 62
     3
370
    30
100
AcDbLine
 10
70.080975
 20
107.500407
 30
0.0
 11
70.455975
 21
107.500407
 31
0.0
  0
ARC
  5
501
330
1F
100
AcDbEntity
  8
002
 62
     3
370
    30
100
AcDbCircle
 10
70.38835
 20
107.680782
 30
0.0
 40
0.1926350986970145
100
AcDbArc
 50
290.551694
 51
20.551694
  0
LINE
  5
502
330
1F
100
AcDbEntity
  8
002
 62
     3
370
    30
100
AcDbLine
 10
70.455975
 20
107.861282
 30
0.0
 11
70.080975
 21
107.861282
 31
0.0
  0
LINE
  5
503
330
1F
100
AcDbEntity
  8
002
 62
     3
370
    30
100
AcDbLine
 10
70.080975
 20
107.861282
 30
0.0
 11
69.9681
 21
107.748407
 31
0.0
  0
LINE
  5
504
330
1F
100
AcDbEntity
  8
002
 62
     3
370
    30
100
AcDbLine
 10
70.00935
 20
107.789782
 30
0.0
 11
69.830975
 21
107.778532
 31
0.0
  0
ARC
  5
505
330
1F
100
AcDbEntity
  8
002
 62
     3
370
    30
100
AcDbCircle
 10
70.539225
 20
107.139532
 30
0.0
 40
0.5832097607207583
100
AcDbArc
 50
141.779327
 51
218.211025
  0
ARC
  5
506
330
1F
100
AcDbEntity
  8
002
 62
     3
370
    30
100
AcDbCircle
 10
70.148475
 20
106.598282
 30
0.0
 40
0.1925912527219571
100
AcDbArc
 50
110.503847
 51
200.516873
  0
LINE
  5
507
330
1F
100
AcDbEntity
  8
002
 62
     3
370
    30
100
AcDbLine
 10
70.080975
 20
106.778782
 30
0.0
 11
70.455975
 21
106.778782
 31
0.0
  0
ARC
  5
508
330
1F
100
AcDbEntity
  8
002
 62
     3
370
    30
100
AcDbCircle
 10
69.9976
 20
107.139532
 30
0.0
 40
0.5833852982806795
100
AcDbArc
 50
321.796569
 51
38.213078
  0
LINE
  5
509
330
1F
100
AcDbEntity
  8
002
 62
     3
370
    30
100
AcDbLine
 10
70.455975
 20
107.861282
 30
0.0
 11
70.8201
 21
107.497032
 31
0.0
  0
ARC
  5
50A
330
1F
100
AcDbEntity
  8
002
 62
     3
370
    30
100
AcDbCircle
 10
70.908475
 20
107.585407
 30
0.0
 40
0.1250002499997285
100
AcDbArc
 50
225.0
 51
302.005383
  0
ARC
  5
50B
330
1F
100
AcDbEntity
  8
002
 62
     3
370
    30
100
AcDbCircle
 10
70.38835
 20
106.598282
 30
0.0
 40
0.1927521481722085
100
AcDbArc
 50
339.483127
 51
69.46135
  0
CIRCLE
  5
50C
330
1F
100
AcDbEntity
  8
002
 62
     3
370
    30
100
AcDbCircle
 10
59.455975
 20
107.139532
 30
0.0
 40
10.0
  0
LINE
  5
50D
330
1F
100
AcDbEntity
  8
002
 62
     3
370
    30
100
AcDbLine
 10
63.830975
 20
118.232282
 30
0.0
 11
63.830975
 21
123.014532
 31
0.0
  0
ARC
  5
50E
330
1F
100
AcDbEntity
  8
002
 62
     3
370
    30
100
AcDbCircle
 10
63.205975
 20
123.014532
 30
0.0
 40
0.625
100
AcDbArc
 50
0.0
 51
53.130102
  0
LINE
  5
50F
330
1F
100
AcDbEntity
  8
002
 62
     3
370
    30
100
AcDbLine
 10
63.580975
 20
123.514532
 30
0.0
 11
21.580975
 21
123.514532
 31
0.0
  0
ARC
  5
510
330
1F
100
AcDbEntity
  8
002
 62
     3
370
    30
100
AcDbCircle
 10
21.955975
 20
123.014532
 30
0.0
 40
0.625
100
AcDbArc
 50
126.869898
 51
180.0
  0
LINE
  5
511
330
1F
100
AcDbEntity
  8
002
 62
     3
370
    30
100
AcDbLine
 10
21.330975
 20
123.014532
 30
0.0
 11
21.330975
 21
115.848782
 31
0.0
  0
ARC
  5
512
330
1F
100
AcDbEntity
  8
002
 62
     3
370
    30
100
AcDbCircle
 10
22.580975
 20
115.848782
 30
0.0
 40
1.250115750890701
100
AcDbArc
 50
180.0
 51
254.99662
  0
LINE
  5
513
330
1F
100
AcDbEntity
  8
002
 62
     3
370
    30
100
AcDbLine
 10
22.25735
 20
114.641282
 30
0.0
 11
22.743475
 21
114.511032
 31
0.0
  0
LINE
  5
514
330
1F
100
AcDbEntity
  8
002
 62
     3
370
    30
100
AcDbLine
 10
22.678225
 20
114.889532
 30
0.0
 11
52.1876
 21
114.889532
 31
0.0
  0
ARC
  5
515
330
1F
100
AcDbEntity
  8
002
 62
     3
370
    30
100
AcDbCircle
 10
51.884975
 20
113.672532
 30
0.0
 40
0.6250140623418038
100
AcDbArc
 50
139.208565
 51
207.154388
  0
LINE
  5
516
330
1F
100
AcDbEntity
  8
002
 62
     3
370
    30
100
AcDbLine
 10
50.67635
 20
114.152657
 30
0.0
 11
44.96285
 21
114.152657
 31
0.0
  0
ARC
  5
517
330
1F
100
AcDbEntity
  8
002
 62
     3
370
    30
100
AcDbCircle
 10
45.080975
 20
113.639532
 30
0.0
 40
1.25
100
AcDbArc
 50
90.0
 51
180.0
  0
LINE
  5
518
330
1F
100
AcDbEntity
  8
002
 62
     3
370
    30
100
AcDbLine
 10
43.830975
 20
113.639532
 30
0.0
 11
43.830975
 21
97.514532
 31
0.0
  0
ARC
  5
519
330
1F
100
AcDbEntity
  8
002
 62
     3
370
    30
100
AcDbCircle
 10
45.080975
 20
97.514532
 30
0.0
 40
1.25
100
AcDbArc
 50
180.0
 51
270.0
  0
LINE
  5
51A
330
1F
100
AcDbEntity
  8
002
 62
     3
370
    30
100
AcDbLine
 10
44.412475
 20
97.469532
 30
0.0
 11
43.831725
 21
113.594532
 31
0.0
  0
LINE
  5
51B
330
1F
100
AcDbEntity
  8
002
 62
     3
370
    30
100
AcDbLine
 10
41.330975
 20
113.639532
 30
0.0
 11
41.330975
 21
97.514532
 31
0.0
  0
LINE
  5
51C
330
1F
100
AcDbEntity
  8
002
 62
     3
370
    30
100
AcDbLine
 10
40.74935
 20
97.469532
 30
0.0
 11
41.3301
 21
113.594532
 31
0.0
  0
ARC
  5
51D
330
1F
100
AcDbEntity
  8
002
 62
     3
370
    30
100
AcDbCircle
 10
40.080975
 20
113.639532
 30
0.0
 40
1.25
100
AcDbArc
 50
0.0
 51
90.0
  0
LINE
  5
51E
330
1F
100
AcDbEntity
  8
002
 62
     3
370
    30
100
AcDbLine
 10
40.11885
 20
114.152657
 30
0.0
 11
29.648225
 21
114.152657
 31
0.0
  0
ARC
  5
51F
330
1F
100
AcDbEntity
  8
002
 62
     3
370
    30
100
AcDbCircle
 10
29.648225
 20
112.277657
 30
0.0
 40
1.875
100
AcDbArc
 50
90.0
 51
180.0
  0
LINE
  5
520
330
1F
100
AcDbEntity
  8
002
 62
     3
370
    30
100
AcDbLine
 10
27.773225
 20
112.277657
 30
0.0
 11
27.773225
 21
101.514532
 31
0.0
  0
LINE
  5
521
330
1F
100
AcDbEntity
  8
002
 62
     3
370
    30
100
AcDbLine
 10
26.846725
 20
100.873907
 30
0.0
 11
24.455975
 21
101.514532
 31
0.0
  0
LINE
  5
522
330
1F
100
AcDbEntity
  8
002
 62
     3
370
    30
100
AcDbLine
 10
24.455975
 20
101.514532
 30
0.0
 11
24.455975
 21
113.139532
 31
0.0
  0
LINE
  5
523
330
1F
100
AcDbEntity
  8
002
 62
     3
370
    30
100
AcDbLine
 10
24.455975
 20
113.139532
 30
0.0
 11
24.080975
 21
113.139532
 31
0.0
  0
ARC
  5
524
330
1F
100
AcDbEntity
  8
002
 62
     3
370
    30
100
AcDbCircle
 10
22.258225
 20
112.700032
 30
0.0
 40
1.87488361305443
100
AcDbArc
 50
13.55635
 51
75.000177
  0
LINE
  5
525
330
1F
100
AcDbEntity
  8
002
 62
     3
370
    30
100
AcDbLine
 10
22.830975
 20
112.764532
 30
0.0
 11
24.455975
 21
112.764532
 31
0.0
  0
ARC
  5
526
330
1F
100
AcDbEntity
  8
002
 62
     3
370
    30
100
AcDbCircle
 10
22.830975
 20
112.514532
 30
0.0
 40
0.25
100
AcDbArc
 50
90.0
 51
180.0
  0
LINE
  5
527
330
1F
100
AcDbEntity
  8
002
 62
     3
370
    30
100
AcDbLine
 10
22.580975
 20
112.514532
 30
0.0
 11
22.580975
 21
101.764532
 31
0.0
  0
ARC
  5
528
330
1F
100
AcDbEntity
  8
002
 62
     3
370
    30
100
AcDbCircle
 10
22.830975
 20
101.764532
 30
0.0
 40
0.25
100
AcDbArc
 50
180.0
 51
270.0
  0
LINE
  5
529
330
1F
100
AcDbEntity
  8
002
 62
     3
370
    30
100
AcDbLine
 10
22.830975
 20
101.514532
 30
0.0
 11
24.455975
 21
101.514532
 31
0.0
  0
LINE
  5
52A
330
1F
100
AcDbEntity
  8
002
 62
     3
370
    30
100
AcDbLine
 10
25.080975
 20
100.867532
 30
0.0
 11
25.080975
 21
92.139532
 31
0.0
  0
LINE
  5
52B
330
1F
100
AcDbEntity
  8
002
 62
     3
370
    30
100
AcDbLine
 10
25.080975
 20
92.139532
 30
0.0
 11
58.080975
 21
92.139532
 31
0.0
  0
LINE
  5
52C
330
1F
100
AcDbEntity
  8
002
 62
     3
370
    30
100
AcDbLine
 10
58.080975
 20
92.139532
 30
0.0
 11
58.080975
 21
95.639532
 31
0.0
  0
ARC
  5
52D
330
1F
100
AcDbEntity
  8
002
 62
     3
370
    30
100
AcDbCircle
 10
57.455975
 20
95.639532
 30
0.0
 40
0.625
100
AcDbArc
 50
0.0
 51
90.0
  0
LINE
  5
52E
330
1F
100
AcDbEntity
  8
002
 62
     3
370
    30
100
AcDbLine
 10
57.455975
 20
96.264532
 30
0.0
 11
27.705975
 21
96.264532
 31
0.0
  0
ARC
  5
52F
330
1F
100
AcDbEntity
  8
002
 62
     3
370
    30
100
AcDbCircle
 10
27.705975
 20
95.639532
 30
0.0
 40
0.625
100
AcDbArc
 50
90.0
 51
180.0
  0
LINE
  5
530
330
1F
100
AcDbEntity
  8
002
 62
     3
370
    30
100
AcDbLine
 10
27.080975
 20
95.639532
 30
0.0
 11
27.080975
 21
92.139532
 31
0.0
  0
LINE
  5
531
330
1F
100
AcDbEntity
  8
002
 62
     3
370
    30
100
AcDbLine
 10
28.955975
 20
92.139532
 30
0.0
 11
28.955975
 21
90.889532
 31
0.0
  0
LINE
  5
532
330
1F
100
AcDbEntity
  8
002
 62
     3
370
    30
100
AcDbLine
 10
28.955975
 20
90.889532
 30
0.0
 11
56.205975
 21
90.889532
 31
0.0
  0
LINE
  5
533
330
1F
100
AcDbEntity
  8
002
 62
     3
370
    30
100
AcDbLine
 10
56.205975
 20
90.889532
 30
0.0
 11
56.205975
 21
92.139532
 31
0.0
  0
LINE
  5
534
330
1F
100
AcDbEntity
  8
002
 62
     3
370
    30
100
AcDbLine
 10
55.705975
 20
90.889532
 30
0.0
 11
55.705975
 21
89.639532
 31
0.0
  0
LINE
  5
535
330
1F
100
AcDbEntity
  8
002
 62
     3
370
    30
100
AcDbLine
 10
53.705975
 20
89.639532
 30
0.0
 11
55.705975
 21
89.639532
 31
0.0
  0
LINE
  5
536
330
1F
100
AcDbEntity
  8
002
 62
     3
370
    30
100
AcDbLine
 10
53.705975
 20
89.639532
 30
0.0
 11
53.705975
 21
90.889532
 31
0.0
  0
LINE
  5
537
330
1F
100
AcDbEntity
  8
002
 62
     3
370
    30
100
AcDbLine
 10
31.455975
 20
90.889532
 30
0.0
 11
31.455975
 21
89.639532
 31
0.0
  0
LINE
  5
538
330
1F
100
AcDbEntity
  8
002
 62
     3
370
    30
100
AcDbLine
 10
29.455975
 20
89.639532
 30
0.0
 11
31.455975
 21
89.639532
 31
0.0
  0
LINE
  5
539
330
1F
100
AcDbEntity
  8
002
 62
     3
370
    30
100
AcDbLine
 10
29.455975
 20
89.639532
 30
0.0
 11
29.455975
 21
90.889532
 31
0.0
  0
ARC
  5
53A
330
1F
100
AcDbEntity
  8
002
 62
     3
370
    30
100
AcDbCircle
 10
26.523225
 20
99.666532
 30
0.0
 40
1.249962655692173
100
AcDbArc
 50
0.0
 51
75.000671
  0
ARC
  5
53B
330
1F
100
AcDbEntity
  8
002
 62
     3
370
    30
100
AcDbCircle
 10
24.455975
 20
100.867532
 30
0.0
 40
0.6250416986089752
100
AcDbArc
 50
0.0
 51
75.002154
  0
LINE
  5
53C
330
1F
100
AcDbEntity
  8
002
 62
     3
370
    30
100
AcDbLine
 10
22.580975
 20
101.826407
 30
0.0
 11
22.02885
 21
101.826407
 31
0.0
  0
LINE
  5
53D
330
1F
100
AcDbEntity
  8
002
 62
     3
370
    30
100
AcDbLine
 10
21.893475
 20
102.060907
 30
0.0
 11
21.893475
 21
103.468157
 31
0.0
  0
ARC
  5
53E
330
1F
100
AcDbEntity
  8
002
 62
     3
370
    30
100
AcDbCircle
 10
22.7736
 20
102.764532
 30
0.0
 40
0.8801213339648176
100
AcDbArc
 50
147.79279
 51
212.200325
  0
ARC
  5
53F
330
1F
100
AcDbEntity
  8
002
 62
     3
370
    30
100
AcDbCircle
 10
22.164225
 20
102.060907
 30
0.0
 40
0.2707704574450497
100
AcDbArc
 50
119.984282
 51
240.002499
  0
LINE
  5
540
330
1F
100
AcDbEntity
  8
002
 62
     3
370
    30
100
AcDbLine
 10
22.02885
 20
102.295532
 30
0.0
 11
22.580975
 21
102.295532
 31
0.0
  0
LINE
  5
541
330
1F
100
AcDbEntity
  8
002
 62
     3
370
    30
100
AcDbLine
 10
22.580975
 20
103.233657
 30
0.0
 11
22.02885
 21
103.233657
 31
0.0
  0
LINE
  5
542
330
1F
100
AcDbEntity
  8
002
 62
     3
370
    30
100
AcDbLine
 10
22.02885
 20
103.702782
 30
0.0
 11
22.580975
 21
103.702782
 31
0.0
  0
ARC
  5
543
330
1F
100
AcDbEntity
  8
002
 62
     3
370
    30
100
AcDbCircle
 10
22.164225
 20
103.468157
 30
0.0
 40
0.2707704574450497
100
AcDbArc
 50
119.984282
 51
240.002499
  0
LINE
  5
544
330
1F
100
AcDbEntity
  8
002
 62
     3
370
    30
100
AcDbLine
 10
22.02885
 20
110.576407
 30
0.0
 11
22.580975
 21
110.576407
 31
0.0
  0
LINE
  5
545
330
1F
100
AcDbEntity
  8
002
 62
     3
370
    30
100
AcDbLine
 10
22.580975
 20
111.045532
 30
0.0
 11
22.02885
 21
111.045532
 31
0.0
  0
ARC
  5
546
330
1F
100
AcDbEntity
  8
002
 62
     3
370
    30
100
AcDbCircle
 10
22.164225
 20
110.810907
 30
0.0
 40
0.2707704574450497
100
AcDbArc
 50
119.984282
 51
240.002499
  0
LINE
  5
547
330
1F
100
AcDbEntity
  8
002
 62
     3
370
    30
100
AcDbLine
 10
21.893475
 20
110.810907
 30
0.0
 11
21.893475
 21
112.218157
 31
0.0
  0
ARC
  5
548
330
1F
100
AcDbEntity
  8
002
 62
     3
370
    30
100
AcDbCircle
 10
22.7736
 20
111.514532
 30
0.0
 40
0.8801213339648176
100
AcDbArc
 50
147.79279
 51
212.200325
  0
LINE
  5
549
330
1F
100
AcDbEntity
  8
002
 62
     3
370
    30
100
AcDbLine
 10
22.02885
 20
111.983657
 30
0.0
 11
22.580975
 21
111.983657
 31
0.0
  0
LINE
  5
54A
330
1F
100
AcDbEntity
  8
002
 62
     3
370
    30
100
AcDbLine
 10
22.580975
 20
112.452782
 30
0.0
 11
22.02885
 21
112.452782
 31
0.0
  0
ARC
  5
54B
330
1F
100
AcDbEntity
  8
002
 62
     3
370
    30
100
AcDbCircle
 10
22.164225
 20
112.218157
 30
0.0
 40
0.2707704574450497
100
AcDbArc
 50
119.984282
 51
240.002499
  0
LINE
  5
54C
330
1F
100
AcDbEntity
  8
002
 62
     3
370
    30
100
AcDbLine
 10
21.330975
 20
120.514532
 30
0.0
 11
63.830975
 21
120.514532
 31
0.0
  0
ARC
  5
54D
330
1F
100
AcDbEntity
  8
002
 62
     3
370
    30
100
AcDbCircle
 10
64.455975
 20
118.908782
 30
0.0
 40
0.62497476199045
100
AcDbArc
 50
180.0
 51
231.080686
  0
ARC
  5
54E
330
1F
100
AcDbEntity
  8
002
 62
     3
370
    30
100
AcDbCircle
 10
67.580975
 20
118.232282
 30
0.0
 40
3.750139982803977
100
AcDbArc
 50
180.0
 51
233.778298
  0
ARC
  5
54F
330
1F
100
AcDbEntity
  8
002
 62
     3
370
    30
100
AcDbCircle
 10
68.80585
 20
113.395782
 30
0.0
 40
1.249962655692153
100
AcDbArc
 50
213.787004
 51
255.000671
  0
LINE
  5
550
330
1F
100
AcDbEntity
  8
002
 62
     3
370
    30
100
AcDbLine
 10
68.48235
 20
112.188407
 30
0.0
 11
69.830975
 21
111.827032
 31
0.0
  0
LINE
  5
551
330
1F
100
AcDbEntity
  8
002
 62
     3
370
    30
100
AcDbLine
 10
69.830975
 20
111.827032
 30
0.0
 11
69.830975
 21
102.452032
 31
0.0
  0
LINE
  5
552
330
1F
100
AcDbEntity
  8
002
 62
     3
370
    30
100
AcDbLine
 10
69.830975
 20
102.452032
 30
0.0
 11
68.48235
 21
102.090782
 31
0.0
  0
ARC
  5
553
330
1F
100
AcDbEntity
  8
002
 62
     3
370
    30
100
AcDbCircle
 10
68.80585
 20
100.883282
 30
0.0
 40
1.249984012397769
100
AcDbArc
 50
104.997846
 51
146.212996
  0
ARC
  5
554
330
1F
100
AcDbEntity
  8
002
 62
     3
370
    30
100
AcDbCircle
 10
69.025725
 20
101.589282
 30
0.0
 40
0.6249878248814491
100
AcDbArc
 50
104.997846
 51
158.468842
  0
ARC
  5
555
330
1F
100
AcDbEntity
  8
002
 62
     3
370
    30
100
AcDbCircle
 10
61.830975
 20
93.596282
 30
0.0
 40
3.75
100
AcDbArc
 50
99.946798
 51
180.0
  0
ARC
  5
556
330
1F
100
AcDbEntity
  8
002
 62
     3
370
    30
100
AcDbCircle
 10
54.955975
 20
107.139532
 30
0.0
 40
14.49993003108115
100
AcDbArc
 50
284.355141
 51
338.471828
  0
ARC
  5
557
330
1F
100
AcDbEntity
  8
002
 62
     3
370
    30
100
AcDbCircle
 10
58.705975
 20
92.486782
 30
0.0
 40
0.625
100
AcDbArc
 50
104.358626
 51
180.0
  0
LINE
  5
558
330
1F
100
AcDbEntity
  8
002
 62
     3
370
    30
100
AcDbLine
 10
49.455975
 20
107.139532
 30
0.0
 11
49.455975
 21
96.264532
 31
0.0
  0
ARC
  5
559
330
1F
100
AcDbEntity
  8
002
 62
     3
370
    30
100
AcDbCircle
 10
45.661725
 20
97.514532
 30
0.0
 40
1.25
100
AcDbArc
 50
182.062994
 51
270.0
  0
ARC
  5
55A
330
1F
100
AcDbEntity
  8
002
 62
     3
370
    30
100
AcDbCircle
 10
40.080975
 20
97.514532
 30
0.0
 40
1.25
100
AcDbArc
 50
270.0
 51
0.0
  0
ARC
  5
55B
330
1F
100
AcDbEntity
  8
002
 62
     3
370
    30
100
AcDbCircle
 10
39.5001
 20
97.514532
 30
0.0
 40
1.25006022354924
100
AcDbArc
 50
270.0
 51
357.937006
  0
LINE
  5
55C
330
1F
100
AcDbEntity
  8
002
 62
     3
370
    30
100
AcDbLine
 10
41.580975
 20
90.889532
 30
0.0
 11
41.580975
 21
89.639532
 31
0.0
  0
LINE
  5
55D
330
1F
100
AcDbEntity
  8
002
 62
     3
370
    30
100
AcDbLine
 10
43.580975
 20
89.639532
 30
0.0
 11
41.580975
 21
89.639532
 31
0.0
  0
LINE
  5
55E
330
1F
100
AcDbEntity
  8
002
 62
     3
370
    30
100
AcDbLine
 10
43.580975
 20
89.639532
 30
0.0
 11
43.580975
 21
90.889532
 31
0.0
  0
LINE
  5
55F
330
1F
100
AcDbEntity
  8
002
 62
     3
370
    30
100
AcDbLine
 10
55.1626
 20
116.171032
 30
0.0
 11
55.1626
 21
116.858532
 31
0.0
  0
ARC
  5
560
330
1F
100
AcDbEntity
  8
002
 62
     3
370
    30
100
AcDbCircle
 10
59.455975
 20
107.139532
 30
0.0
 40
10.62509505619246
100
AcDbArc
 50
113.833478
 51
139.209125
  0
LINE
  5
561
330
1F
100
AcDbEntity
  8
002
 62
     3
370
    30
100
AcDbLine
 10
50.080975
 20
123.514532
 30
0.0
 11
50.080975
 21
126.014532
 31
0.0
  0
LINE
  5
562
330
1F
100
AcDbEntity
  8
002
 62
     3
370
    30
100
AcDbLine
 10
50.080975
 20
126.014532
 30
0.0
 11
53.830975
 21
126.014532
 31
0.0
  0
LINE
  5
563
330
1F
100
AcDbEntity
  8
002
 62
     3
370
    30
100
AcDbLine
 10
53.830975
 20
126.014532
 30
0.0
 11
53.830975
 21
123.514532
 31
0.0
  0
LINE
  5
564
330
1F
100
AcDbEntity
  8
002
 62
     3
370
    30
100
AcDbLine
 10
53.830975
 20
123.639532
 30
0.0
 11
56.955975
 21
123.639532
 31
0.0
  0
LINE
  5
565
330
1F
100
AcDbEntity
  8
002
 62
     3
370
    30
100
AcDbLine
 10
56.955975
 20
123.514532
 30
0.0
 11
56.955975
 21
126.014532
 31
0.0
  0
LINE
  5
566
330
1F
100
AcDbEntity
  8
002
 62
     3
370
    30
100
AcDbLine
 10
56.955975
 20
126.014532
 30
0.0
 11
63.205975
 21
126.014532
 31
0.0
  0
LINE
  5
567
330
1F
100
AcDbEntity
  8
002
 62
     3
370
    30
100
AcDbLine
 10
63.205975
 20
126.014532
 30
0.0
 11
63.205975
 21
123.514532
 31
0.0
  0
LINE
  5
568
330
1F
100
AcDbEntity
  8
002
 62
     3
370
    30
100
AcDbLine
 10
57.580975
 20
126.014532
 30
0.0
 11
57.580975
 21
161.514532
 31
0.0
  0
LINE
  5
569
330
1F
100
AcDbEntity
  8
002
 62
     3
370
    30
100
AcDbLine
 10
57.580975
 20
161.514532
 30
0.0
 11
27.580975
 21
161.514532
 31
0.0
  0
LINE
  5
56A
330
1F
100
AcDbEntity
  8
002
 62
     3
370
    30
100
AcDbLine
 10
27.580975
 20
161.514532
 30
0.0
 11
27.580975
 21
126.014532
 31
0.0
  0
LINE
  5
56B
330
1F
100
AcDbEntity
  8
002
 62
     3
370
    30
100
AcDbLine
 10
28.205975
 20
126.014532
 30
0.0
 11
28.205975
 21
123.514532
 31
0.0
  0
LINE
  5
56C
330
1F
100
AcDbEntity
  8
002
 62
     3
370
    30
100
AcDbLine
 10
28.205975
 20
123.639532
 30
0.0
 11
31.330975
 21
123.639532
 31
0.0
  0
LINE
  5
56D
330
1F
100
AcDbEntity
  8
002
 62
     3
370
    30
100
AcDbLine
 10
31.330975
 20
123.514532
 30
0.0
 11
31.330975
 21
126.014532
 31
0.0
  0
LINE
  5
56E
330
1F
100
AcDbEntity
  8
002
 62
     3
370
    30
100
AcDbLine
 10
31.330975
 20
126.014532
 30
0.0
 11
35.080975
 21
126.014532
 31
0.0
  0
LINE
  5
56F
330
1F
100
AcDbEntity
  8
002
 62
     3
370
    30
100
AcDbLine
 10
35.080975
 20
126.014532
 30
0.0
 11
35.080975
 21
123.514532
 31
0.0
  0
LINE
  5
570
330
1F
100
AcDbEntity
  8
002
 62
     3
370
    30
100
AcDbLine
 10
35.080975
 20
123.639532
 30
0.0
 11
40.705975
 21
123.639532
 31
0.0
  0
LINE
  5
571
330
1F
100
AcDbEntity
  8
002
 62
     3
370
    30
100
AcDbLine
 10
40.705975
 20
123.514532
 30
0.0
 11
40.705975
 21
126.014532
 31
0.0
  0
LINE
  5
572
330
1F
100
AcDbEntity
  8
002
 62
     3
370
    30
100
AcDbLine
 10
40.705975
 20
126.014532
 30
0.0
 11
44.455975
 21
126.014532
 31
0.0
  0
LINE
  5
573
330
1F
100
AcDbEntity
  8
002
 62
     3
370
    30
100
AcDbLine
 10
44.455975
 20
126.014532
 30
0.0
 11
44.455975
 21
123.514532
 31
0.0
  0
LINE
  5
574
330
1F
100
AcDbEntity
  8
002
 62
     3
370
    30
100
AcDbLine
 10
44.455975
 20
123.639532
 30
0.0
 11
50.080975
 21
123.639532
 31
0.0
  0
LINE
  5
575
330
1F
100
AcDbEntity
  8
002
 62
     3
370
    30
100
AcDbLine
 10
60.705975
 20
126.014532
 30
0.0
 11
60.705975
 21
123.514532
 31
0.0
  0
ARC
  5
576
330
1F
100
AcDbEntity
  8
002
 62
     3
370
    30
100
AcDbCircle
 10
69.487725
 20
113.213157
 30
0.0
 40
1.250083397217978
100
AcDbArc
 50
202.68774
 51
255.002154
  0
ARC
  5
577
330
1F
100
AcDbEntity
  8
002
 62
     3
370
    30
100
AcDbCircle
 10
54.955975
 20
107.139532
 30
0.0
 40
14.50001270311942
100
AcDbArc
 50
22.682328
 51
51.090339
  0
LINE
  5
578
330
1F
100
AcDbEntity
  8
002
 62
     3
370
    30
100
AcDbLine
 10
21.955975
 20
126.014532
 30
0.0
 11
28.205975
 21
126.014532
 31
0.0
  0
LINE
  5
579
330
1F
100
AcDbEntity
  8
002
 62
     3
370
    30
100
AcDbLine
 10
24.455975
 20
126.014532
 30
0.0
 11
24.455975
 21
123.514532
 31
0.0
  0
LINE
  5
57A
330
1F
100
AcDbEntity
  8
002
 62
     3
370
    30
100
AcDbLine
 10
21.955975
 20
123.514532
 30
0.0
 11
21.955975
 21
126.014532
 31
0.0
  0
LINE
  5
57B
330
1F
100
AcDbEntity
  8
002
 62
     3
370
    30
100
AcDbLine
 10
42.2201
 20
152.139532
 30
0.0
 11
42.941725
 21
152.139532
 31
0.0
  0
LINE
  5
57C
330
1F
100
AcDbEntity
  8
002
 62
     3
370
    30
100
AcDbLine
 10
42.941725
 20
152.139532
 30
0.0
 11
43.3026
 21
152.764532
 31
0.0
  0
LINE
  5
57D
330
1F
100
AcDbEntity
  8
002
 62
     3
370
    30
100
AcDbLine
 10
43.3026
 20
152.764532
 30
0.0
 11
42.941725
 21
153.389532
 31
0.0
  0
LINE
  5
57E
330
1F
100
AcDbEntity
  8
002
 62
     3
370
    30
100
AcDbLine
 10
42.941725
 20
153.389532
 30
0.0
 11
42.2201
 21
153.389532
 31
0.0
  0
LINE
  5
57F
330
1F
100
AcDbEntity
  8
002
 62
     3
370
    30
100
AcDbLine
 10
42.2201
 20
153.389532
 30
0.0
 11
41.859225
 21
152.764532
 31
0.0
  0
LINE
  5
580
330
1F
100
AcDbEntity
  8
002
 62
     3
370
    30
100
AcDbLine
 10
41.859225
 20
152.764532
 30
0.0
 11
42.2201
 21
152.139532
 31
0.0
  0
CIRCLE
  5
581
330
1F
100
AcDbEntity
  8
002
 62
     3
370
    30
100
AcDbCircle
 10
42.580975
 20
152.764532
 30
0.0
 40
0.09375
  0
CIRCLE
  5
582
330
1F
100
AcDbEntity
  8
002
 62
     3
370
    30
100
AcDbCircle
 10
42.580975
 20
152.764532
 30
0.0
 40
0.3125
  0
CIRCLE
  5
583
330
1F
100
AcDbEntity
  8
002
 62
     3
370
    30
100
AcDbCircle
 10
42.580975
 20
152.764532
 30
0.0
 40
0.40625
  0
CIRCLE
  5
584
330
1F
100
AcDbEntity
  8
002
 62
     3
370
    30
100
AcDbCircle
 10
42.580975
 20
152.764532
 30
0.0
 40
0.625
  0
LINE
  5
585
330
1F
100
AcDbEntity
  8
002
  6
CENTER
 62
    40
370
     9
100
AcDbLine
 10
41.648475
 20
152.764532
 30
0.0
 11
43.46035
 21
152.764532
 31
0.0
  0
LINE
  5
586
330
1F
100
AcDbEntity
  8
002
  6
CENTER
 62
    40
370
     9
100
AcDbLine
 10
33.205975
 20
126.899532
 30
0.0
 11
33.205975
 21
119.583532
 31
0.0
  0
LINE
  5
587
330
1F
100
AcDbEntity
  8
002
  6
CENTER
 62
    40
370
     9
100
AcDbLine
 10
26.342975
 20
119.583532
 30
0.0
 11
26.342975
 21
126.899532
 31
0.0
  0
LINE
  5
588
330
1F
100
AcDbEntity
  8
002
  6
CENTER
 62
    40
370
     9
100
AcDbLine
 10
23.830975
 20
126.899532
 30
0.0
 11
23.830975
 21
119.583532
 31
0.0
  0
LINE
  5
589
330
1F
100
AcDbEntity
  8
002
  6
CENTER
 62
    40
370
     9
100
AcDbLine
 10
25.07435
 20
111.514532
 30
0.0
 11
21.231475
 21
111.514532
 31
0.0
  0
LINE
  5
58A
330
1F
100
AcDbEntity
  8
002
  6
CENTER
 62
    40
370
     9
100
AcDbLine
 10
20.7021
 20
107.139532
 30
0.0
 11
72.145975
 21
107.139532
 31
0.0
  0
LINE
  5
58B
330
1F
100
AcDbEntity
  8
002
 62
    40
370
     9
100
AcDbLine
 10
69.9086
 20
107.783407
 30
0.0
 11
69.828475
 21
107.703407
 31
0.0
  0
LINE
  5
58C
330
1F
100
AcDbEntity
  8
002
 62
    40
370
     9
100
AcDbLine
 10
69.828475
 20
106.575782
 30
0.0
 11
69.9086
 21
106.495657
 31
0.0
  0
LINE
  5
58D
330
1F
100
AcDbEntity
  8
002
  6
CENTER
 62
    40
370
     9
100
AcDbLine
 10
59.455975
 20
96.489782
 30
0.0
 11
59.455975
 21
118.548907
 31
0.0
  0
LINE
  5
58E
330
1F
100
AcDbEntity
  8
002
  6
CENTER
 62
    40
370
     9
100
AcDbLine
 10
58.81885
 20
119.583532
 30
0.0
 11
58.81885
 21
126.899532
 31
0.0
  0
LINE
  5
58F
330
1F
100
AcDbEntity
  8
002
  6
CENTER
 62
    40
370
     9
100
AcDbLine
 10
61.330975
 20
126.899532
 30
0.0
 11
61.330975
 21
119.583532
 31
0.0
  0
LINE
  5
590
330
1F
100
AcDbEntity
  8
002
  6
CENTER
 62
    40
370
     9
100
AcDbLine
 10
51.955975
 20
119.583532
 30
0.0
 11
51.955975
 21
126.899532
 31
0.0
  0
LINE
  5
591
330
1F
100
AcDbEntity
  8
002
  6
CENTER
 62
    40
370
     9
100
AcDbLine
 10
52.080975
 20
97.960532
 30
0.0
 11
52.080975
 21
89.803407
 31
0.0
  0
LINE
  5
592
330
1F
100
AcDbEntity
  8
002
  6
CENTER
 62
    40
370
     9
100
AcDbLine
 10
54.705975
 20
88.871782
 30
0.0
 11
54.705975
 21
92.139532
 31
0.0
  0
LINE
  5
593
330
1F
100
AcDbEntity
  8
002
  6
CENTER
 62
    40
370
     9
100
AcDbLine
 10
30.455975
 20
92.139532
 30
0.0
 11
30.455975
 21
88.871782
 31
0.0
  0
LINE
  5
594
330
1F
100
AcDbEntity
  8
002
  6
CENTER
 62
    40
370
     9
100
AcDbLine
 10
33.080975
 20
89.803407
 30
0.0
 11
33.080975
 21
97.960532
 31
0.0
  0
LINE
  5
595
330
1F
100
AcDbEntity
  8
002
  6
CENTER
 62
    40
370
     9
100
AcDbLine
 10
25.07435
 20
102.764532
 30
0.0
 11
21.231475
 21
102.764532
 31
0.0
  0
LINE
  5
596
330
1F
100
AcDbEntity
  8
003
  6
HIDDEN
 62
    40
370
     9
100
AcDbLine
 10
54.893475
 20
92.139532
 30
0.0
 11
54.893475
 21
96.139532
 31
0.0
  0
LINE
  5
597
330
1F
100
AcDbEntity
  8
003
  6
HIDDEN
 62
    40
370
     9
100
AcDbLine
 10
49.268475
 20
96.139532
 30
0.0
 11
49.268475
 21
92.139532
 31
0.0
  0
LINE
  5
598
330
1F
100
AcDbEntity
  8
003
  6
HIDDEN
 62
    40
370
     9
100
AcDbLine
 10
57.205975
 20
96.139532
 30
0.0
 11
46.955975
 21
96.139532
 31
0.0
  0
LINE
  5
599
330
1F
100
AcDbEntity
  8
003
  6
HIDDEN
 62
    40
370
     9
100
AcDbLine
 10
35.893475
 20
96.139532
 30
0.0
 11
35.893475
 21
92.139532
 31
0.0
  0
LINE
  5
59A
330
1F
100
AcDbEntity
  8
003
  6
HIDDEN
 62
    40
370
     9
100
AcDbLine
 10
38.205975
 20
96.139532
 30
0.0
 11
27.955975
 21
96.139532
 31
0.0
  0
LINE
  5
59B
330
1F
100
AcDbEntity
  8
003
  6
HIDDEN
 62
    40
370
     9
100
AcDbLine
 10
30.268475
 20
96.139532
 30
0.0
 11
30.268475
 21
92.139532
 31
0.0
  0
LINE
  5
59C
330
1F
100
AcDbEntity
  8
003
  6
HIDDEN
 62
    40
370
     9
100
AcDbLine
 10
57.205975
 20
96.139532
 30
0.0
 11
57.205975
 21
96.264532
 31
0.0
  0
LINE
  5
59D
330
1F
100
AcDbEntity
  8
003
  6
HIDDEN
 62
    40
370
     9
100
AcDbLine
 10
46.955975
 20
96.139532
 30
0.0
 11
46.955975
 21
96.264532
 31
0.0
  0
LINE
  5
59E
330
1F
100
AcDbEntity
  8
003
  6
HIDDEN
 62
    40
370
     9
100
AcDbLine
 10
38.205975
 20
96.139532
 30
0.0
 11
38.205975
 21
96.264532
 31
0.0
  0
LINE
  5
59F
330
1F
100
AcDbEntity
  8
003
  6
HIDDEN
 62
    40
370
     9
100
AcDbLine
 10
27.955975
 20
96.139532
 30
0.0
 11
27.955975
 21
96.264532
 31
0.0
  0
TEXT
  5
5A0
330
1F
100
AcDbEntity
  8
002
 62
     3
370
    30
100
AcDbText
 10
22.254891
 20
111.690844
 30
0.0
 40
0.0375
  1
Ｍ８
 41
0.555556
100
AcDbText
  0
TEXT
  5
5A1
330
1F
100
AcDbEntity
  8
002
 62
     3
370
    30
100
AcDbText
 10
22.279933
 20
102.588219
 30
0.0
 40
0.0375
  1
Ｍ８
 50
180.000005
 41
0.555556
100
AcDbText
  0
CIRCLE
  5
5A2
330
1F
100
AcDbEntity
  8
002
 62
     3
370
    30
100
AcDbCircle
 10
42.580975
 20
354.626173
 30
0.0
 40
15.0
  0
CIRCLE
  5
5A3
330
1F
100
AcDbEntity
  8
002
 62
     3
370
    30
100
AcDbCircle
 10
42.580975
 20
354.626173
 30
0.0
 40
6.25
  0
CIRCLE
  5
5A4
330
1F
100
AcDbEntity
  8
002
 62
     3
370
    30
100
AcDbCircle
 10
42.580975
 20
354.626173
 30
0.0
 40
5.625
  0
CIRCLE
  5
5A5
330
1F
100
AcDbEntity
  8
002
 62
    40
370
     9
100
AcDbCircle
 10
42.580975
 20
354.626173
 30
0.0
 40
5.5
  0
LINE
  5
5A6
330
1F
100
AcDbEntity
  8
002
 62
     3
370
    30
100
AcDbLine
 10
42.893475
 20
371.251173
 30
0.0
 11
42.268475
 21
371.251173
 31
0.0
  0
LINE
  5
5A7
330
1F
100
AcDbEntity
  8
002
 62
     3
370
    30
100
AcDbLine
 10
42.268475
 20
371.251173
 30
0.0
 11
42.174725
 21
370.876173
 31
0.0
  0
LINE
  5
5A8
330
1F
100
AcDbEntity
  8
002
 62
     3
370
    30
100
AcDbLine
 10
42.174725
 20
370.876173
 30
0.0
 11
42.2411
 21
370.769923
 31
0.0
  0
LINE
  5
5A9
330
1F
100
AcDbEntity
  8
002
 62
     3
370
    30
100
AcDbLine
 10
42.293725
 20
370.685673
 30
0.0
 11
42.8681
 21
370.685673
 31
0.0
  0
LINE
  5
5AA
330
1F
100
AcDbEntity
  8
002
 62
     3
370
    30
100
AcDbLine
 10
42.92085
 20
370.769923
 30
0.0
 11
42.987225
 21
370.876173
 31
0.0
  0
LINE
  5
5AB
330
1F
100
AcDbEntity
  8
002
 62
     3
370
    30
100
AcDbLine
 10
42.987225
 20
370.876173
 30
0.0
 11
42.893475
 21
371.251173
 31
0.0
  0
ARC
  5
5AC
330
1F
100
AcDbEntity
  8
002
 62
     3
370
    30
100
AcDbCircle
 10
42.580975
 20
371.168423
 30
0.0
 40
0.1250464913542376
100
AcDbArc
 50
41.433771
 51
138.566229
  0
LINE
  5
5AD
330
1F
100
AcDbEntity
  8
002
 62
     3
370
    30
100
AcDbLine
 10
42.268475
 20
370.876173
 30
0.0
 11
42.893475
 21
370.876173
 31
0.0
  0
ARC
  5
5AE
330
1F
100
AcDbEntity
  8
002
 62
     3
370
    30
100
AcDbCircle
 10
43.02685
 20
370.703673
 30
0.0
 40
0.1249811235747011
100
AcDbArc
 50
147.994617
 51
225.0
  0
LINE
  5
5AF
330
1F
100
AcDbEntity
  8
002
 62
     3
370
    30
100
AcDbLine
 10
42.938475
 20
370.615298
 30
0.0
 11
43.3026
 21
370.251173
 31
0.0
  0
LINE
  5
5B0
330
1F
100
AcDbEntity
  8
002
 62
     3
370
    30
100
AcDbLine
 10
43.3026
 20
370.251173
 30
0.0
 11
43.3026
 21
369.876173
 31
0.0
  0
LINE
  5
5B1
330
1F
100
AcDbEntity
  8
002
 62
     3
370
    30
100
AcDbLine
 10
43.3026
 20
369.876173
 30
0.0
 11
43.189725
 21
369.763298
 31
0.0
  0
LINE
  5
5B2
330
1F
100
AcDbEntity
  8
002
 62
     3
370
    30
100
AcDbLine
 10
43.2311
 20
369.804548
 30
0.0
 11
43.219975
 21
369.626173
 31
0.0
  0
LINE
  5
5B3
330
1F
100
AcDbEntity
  8
002
 62
     3
370
    30
100
AcDbLine
 10
43.1166
 20
369.751173
 30
0.0
 11
42.045225
 21
369.751173
 31
0.0
  0
ARC
  5
5B4
330
1F
100
AcDbEntity
  8
002
 62
     3
370
    30
100
AcDbCircle
 10
42.039725
 20
369.943673
 30
0.0
 40
0.1925912527219205
100
AcDbArc
 50
249.448306
 51
339.483127
  0
LINE
  5
5B5
330
1F
100
AcDbEntity
  8
002
 62
     3
370
    30
100
AcDbLine
 10
42.2201
 20
369.876173
 30
0.0
 11
42.2201
 21
370.251173
 31
0.0
  0
ARC
  5
5B6
330
1F
100
AcDbEntity
  8
002
 62
     3
370
    30
100
AcDbCircle
 10
42.039725
 20
370.183548
 30
0.0
 40
0.1926350986970145
100
AcDbArc
 50
20.551694
 51
110.551694
  0
LINE
  5
5B7
330
1F
100
AcDbEntity
  8
002
 62
     3
370
    30
100
AcDbLine
 10
41.859225
 20
370.251173
 30
0.0
 11
41.859225
 21
369.876173
 31
0.0
  0
LINE
  5
5B8
330
1F
100
AcDbEntity
  8
002
 62
     3
370
    30
100
AcDbLine
 10
41.859225
 20
369.876173
 30
0.0
 11
41.9721
 21
369.763298
 31
0.0
  0
LINE
  5
5B9
330
1F
100
AcDbEntity
  8
002
 62
     3
370
    30
100
AcDbLine
 10
41.930725
 20
369.804548
 30
0.0
 11
41.941975
 21
369.626173
 31
0.0
  0
ARC
  5
5BA
330
1F
100
AcDbEntity
  8
002
 62
     3
370
    30
100
AcDbCircle
 10
42.580975
 20
370.334423
 30
0.0
 40
0.5832097607207583
100
AcDbArc
 50
231.779327
 51
308.211025
  0
ARC
  5
5BB
330
1F
100
AcDbEntity
  8
002
 62
     3
370
    30
100
AcDbCircle
 10
43.122225
 20
369.943673
 30
0.0
 40
0.1925912527219571
100
AcDbArc
 50
200.503847
 51
290.516873
  0
LINE
  5
5BC
330
1F
100
AcDbEntity
  8
002
 62
     3
370
    30
100
AcDbLine
 10
42.941725
 20
369.876173
 30
0.0
 11
42.941725
 21
370.251173
 31
0.0
  0
ARC
  5
5BD
330
1F
100
AcDbEntity
  8
002
 62
     3
370
    30
100
AcDbCircle
 10
42.580975
 20
369.792798
 30
0.0
 40
0.5833852982806795
100
AcDbArc
 50
51.796569
 51
128.213078
  0
LINE
  5
5BE
330
1F
100
AcDbEntity
  8
002
 62
     3
370
    30
100
AcDbLine
 10
41.859225
 20
370.251173
 30
0.0
 11
42.223475
 21
370.615298
 31
0.0
  0
ARC
  5
5BF
330
1F
100
AcDbEntity
  8
002
 62
     3
370
    30
100
AcDbCircle
 10
42.1351
 20
370.703673
 30
0.0
 40
0.1250002499997285
100
AcDbArc
 50
315.0
 51
32.005383
  0
ARC
  5
5C0
330
1F
100
AcDbEntity
  8
002
 62
     3
370
    30
100
AcDbCircle
 10
43.122225
 20
370.183548
 30
0.0
 40
0.1927521481722085
100
AcDbArc
 50
69.483127
 51
159.46135
  0
LINE
  5
5C1
330
1F
100
AcDbEntity
  8
002
 62
    40
370
     9
100
AcDbLine
 10
41.9371
 20
369.703798
 30
0.0
 11
42.0171
 21
369.623673
 31
0.0
  0
LINE
  5
5C2
330
1F
100
AcDbEntity
  8
002
 62
    40
370
     9
100
AcDbLine
 10
43.144725
 20
369.623673
 30
0.0
 11
43.22485
 21
369.703798
 31
0.0
  0
LINE
  5
5C3
330
1F
100
AcDbEntity
  8
002
 62
     3
370
    30
100
AcDbLine
 10
42.893475
 20
338.001173
 30
0.0
 11
42.268475
 21
338.001173
 31
0.0
  0
LINE
  5
5C4
330
1F
100
AcDbEntity
  8
002
 62
     3
370
    30
100
AcDbLine
 10
42.268475
 20
338.001173
 30
0.0
 11
42.174725
 21
338.376173
 31
0.0
  0
LINE
  5
5C5
330
1F
100
AcDbEntity
  8
002
 62
     3
370
    30
100
AcDbLine
 10
42.174725
 20
338.376173
 30
0.0
 11
42.2411
 21
338.482423
 31
0.0
  0
LINE
  5
5C6
330
1F
100
AcDbEntity
  8
002
 62
     3
370
    30
100
AcDbLine
 10
42.293725
 20
338.566673
 30
0.0
 11
42.8681
 21
338.566673
 31
0.0
  0
LINE
  5
5C7
330
1F
100
AcDbEntity
  8
002
 62
     3
370
    30
100
AcDbLine
 10
42.92085
 20
338.482423
 30
0.0
 11
42.987225
 21
338.376173
 31
0.0
  0
LINE
  5
5C8
330
1F
100
AcDbEntity
  8
002
 62
     3
370
    30
100
AcDbLine
 10
42.987225
 20
338.376173
 30
0.0
 11
42.893475
 21
338.001173
 31
0.0
  0
ARC
  5
5C9
330
1F
100
AcDbEntity
  8
002
 62
     3
370
    30
100
AcDbCircle
 10
42.580975
 20
338.083923
 30
0.0
 40
0.1250464913542376
100
AcDbArc
 50
221.433771
 51
318.566229
  0
LINE
  5
5CA
330
1F
100
AcDbEntity
  8
002
 62
     3
370
    30
100
AcDbLine
 10
42.268475
 20
338.376173
 30
0.0
 11
42.893475
 21
338.376173
 31
0.0
  0
ARC
  5
5CB
330
1F
100
AcDbEntity
  8
002
 62
     3
370
    30
100
AcDbCircle
 10
43.02685
 20
338.548673
 30
0.0
 40
0.1249811235747011
100
AcDbArc
 50
135.0
 51
212.005383
  0
LINE
  5
5CC
330
1F
100
AcDbEntity
  8
002
 62
     3
370
    30
100
AcDbLine
 10
42.938475
 20
338.637048
 30
0.0
 11
43.3026
 21
339.001173
 31
0.0
  0
LINE
  5
5CD
330
1F
100
AcDbEntity
  8
002
 62
     3
370
    30
100
AcDbLine
 10
43.3026
 20
339.001173
 30
0.0
 11
43.3026
 21
339.376173
 31
0.0
  0
LINE
  5
5CE
330
1F
100
AcDbEntity
  8
002
 62
     3
370
    30
100
AcDbLine
 10
43.3026
 20
339.376173
 30
0.0
 11
43.189725
 21
339.489048
 31
0.0
  0
LINE
  5
5CF
330
1F
100
AcDbEntity
  8
002
 62
     3
370
    30
100
AcDbLine
 10
43.2311
 20
339.447798
 30
0.0
 11
43.219975
 21
339.626173
 31
0.0
  0
LINE
  5
5D0
330
1F
100
AcDbEntity
  8
002
 62
     3
370
    30
100
AcDbLine
 10
43.1166
 20
339.501173
 30
0.0
 11
42.045225
 21
339.501173
 31
0.0
  0
ARC
  5
5D1
330
1F
100
AcDbEntity
  8
002
 62
     3
370
    30
100
AcDbCircle
 10
42.039725
 20
339.308673
 30
0.0
 40
0.1925912527219205
100
AcDbArc
 50
20.516873
 51
110.551694
  0
LINE
  5
5D2
330
1F
100
AcDbEntity
  8
002
 62
     3
370
    30
100
AcDbLine
 10
42.2201
 20
339.376173
 30
0.0
 11
42.2201
 21
339.001173
 31
0.0
  0
ARC
  5
5D3
330
1F
100
AcDbEntity
  8
002
 62
     3
370
    30
100
AcDbCircle
 10
42.039725
 20
339.068798
 30
0.0
 40
0.1926350986970145
100
AcDbArc
 50
249.448306
 51
339.448306
  0
LINE
  5
5D4
330
1F
100
AcDbEntity
  8
002
 62
     3
370
    30
100
AcDbLine
 10
41.859225
 20
339.001173
 30
0.0
 11
41.859225
 21
339.376173
 31
0.0
  0
LINE
  5
5D5
330
1F
100
AcDbEntity
  8
002
 62
     3
370
    30
100
AcDbLine
 10
41.859225
 20
339.376173
 30
0.0
 11
41.9721
 21
339.489048
 31
0.0
  0
LINE
  5
5D6
330
1F
100
AcDbEntity
  8
002
 62
     3
370
    30
100
AcDbLine
 10
41.930725
 20
339.447798
 30
0.0
 11
41.941975
 21
339.626173
 31
0.0
  0
ARC
  5
5D7
330
1F
100
AcDbEntity
  8
002
 62
     3
370
    30
100
AcDbCircle
 10
42.580975
 20
338.917923
 30
0.0
 40
0.5832097607207583
100
AcDbArc
 50
51.788975
 51
128.220673
  0
ARC
  5
5D8
330
1F
100
AcDbEntity
  8
002
 62
     3
370
    30
100
AcDbCircle
 10
43.122225
 20
339.308673
 30
0.0
 40
0.1925912527219571
100
AcDbArc
 50
69.483127
 51
159.496153
  0
LINE
  5
5D9
330
1F
100
AcDbEntity
  8
002
 62
     3
370
    30
100
AcDbLine
 10
42.941725
 20
339.376173
 30
0.0
 11
42.941725
 21
339.001173
 31
0.0
  0
ARC
  5
5DA
330
1F
100
AcDbEntity
  8
002
 62
     3
370
    30
100
AcDbCircle
 10
42.580975
 20
339.459548
 30
0.0
 40
0.5833852982806795
100
AcDbArc
 50
231.786922
 51
308.203431
  0
LINE
  5
5DB
330
1F
100
AcDbEntity
  8
002
 62
     3
370
    30
100
AcDbLine
 10
41.859225
 20
339.001173
 30
0.0
 11
42.223475
 21
338.637048
 31
0.0
  0
ARC
  5
5DC
330
1F
100
AcDbEntity
  8
002
 62
     3
370
    30
100
AcDbCircle
 10
42.1351
 20
338.548673
 30
0.0
 40
0.1250002499997285
100
AcDbArc
 50
327.994617
 51
45.0
  0
ARC
  5
5DD
330
1F
100
AcDbEntity
  8
002
 62
     3
370
    30
100
AcDbCircle
 10
43.122225
 20
339.068798
 30
0.0
 40
0.1927521481722085
100
AcDbArc
 50
200.53865
 51
290.516873
  0
LINE
  5
5DE
330
1F
100
AcDbEntity
  8
002
 62
    40
370
     9
100
AcDbLine
 10
41.9371
 20
339.548548
 30
0.0
 11
42.0171
 21
339.628673
 31
0.0
  0
LINE
  5
5DF
330
1F
100
AcDbEntity
  8
002
 62
    40
370
     9
100
AcDbLine
 10
43.144725
 20
339.628673
 30
0.0
 11
43.22485
 21
339.548548
 31
0.0
  0
ARC
  5
5E0
330
1F
100
AcDbEntity
  8
002
 62
     3
370
    30
100
AcDbCircle
 10
42.580975
 20
354.626173
 30
0.0
 40
16.25
100
AcDbArc
 50
91.421525
 51
268.578475
  0
ARC
  5
5E1
330
1F
100
AcDbEntity
  8
002
 62
     3
370
    30
100
AcDbCircle
 10
42.580975
 20
354.626173
 30
0.0
 40
16.25
100
AcDbArc
 50
271.421525
 51
88.578475
  0
LINE
  5
5E2
330
1F
100
AcDbEntity
  8
002
 62
     3
370
    30
100
AcDbLine
 10
196.792183
 20
219.639532
 30
0.0
 11
217.442183
 21
219.639532
 31
0.0
  0
LINE
  5
5E3
330
1F
100
AcDbEntity
  8
002
 62
     3
370
    30
100
AcDbLine
 10
157.082229
 20
42.139532
 30
0.0
 11
136.432229
 21
42.139532
 31
0.0
  0
LINE
  5
5E4
330
1F
100
AcDbEntity
  8
002
 62
     3
370
    30
100
AcDbLine
 10
52.905975
 20
42.139532
 30
0.0
 11
32.255975
 21
42.139532
 31
0.0
  0
LINE
  5
5E5
330
1F
100
AcDbEntity
  8
002
 62
     3
370
    30
100
AcDbLine
 10
224.617183
 20
109.889532
 30
0.0
 11
224.617183
 21
108.889532
 31
0.0
  0
LINE
  5
5E6
330
1F
100
AcDbEntity
  8
002
 62
     3
370
    30
100
AcDbLine
 10
224.617183
 20
108.889532
 30
0.0
 11
223.367183
 21
108.889532
 31
0.0
  0
LINE
  5
5E7
330
1F
100
AcDbEntity
  8
002
 62
     3
370
    30
100
AcDbLine
 10
223.367183
 20
108.889532
 30
0.0
 11
223.367183
 21
109.889532
 31
0.0
  0
LINE
  5
5E8
330
1F
100
AcDbEntity
  8
002
 62
     3
370
    30
100
AcDbLine
 10
223.367183
 20
109.889532
 30
0.0
 11
224.617183
 21
109.889532
 31
0.0
  0
ARC
  5
5E9
330
1F
100
AcDbEntity
  8
002
 62
     3
370
    30
100
AcDbCircle
 10
223.992183
 20
107.139532
 30
0.0
 40
2.3750840807485
100
AcDbArc
 50
105.25697
 51
74.74303
  0
CIRCLE
  5
5EA
330
1F
100
AcDbEntity
  8
002
 62
     3
370
    30
100
AcDbCircle
 10
223.992183
 20
107.139532
 30
0.0
 40
3.875
  0
ARC
  5
5EB
330
1F
100
AcDbEntity
  8
002
 62
     3
370
    30
100
AcDbCircle
 10
223.992183
 20
107.139532
 30
0.0
 40
2.812571787972693
100
AcDbArc
 50
77.891689
 51
102.108311
  0
ARC
  5
5EC
330
1F
100
AcDbEntity
  8
002
 62
     3
370
    30
100
AcDbCircle
 10
223.992183
 20
107.139532
 30
0.0
 40
2.812571787972693
100
AcDbArc
 50
102.839255
 51
77.160745
  0
LINE
  5
5ED
330
1F
100
AcDbEntity
  8
002
 62
     3
370
    30
100
AcDbLine
 10
164.257229
 20
109.889532
 30
0.0
 11
164.257229
 21
108.889532
 31
0.0
  0
LINE
  5
5EE
330
1F
100
AcDbEntity
  8
002
 62
     3
370
    30
100
AcDbLine
 10
164.257229
 20
108.889532
 30
0.0
 11
163.007229
 21
108.889532
 31
0.0
  0
LINE
  5
5EF
330
1F
100
AcDbEntity
  8
002
 62
     3
370
    30
100
AcDbLine
 10
163.007229
 20
108.889532
 30
0.0
 11
163.007229
 21
109.889532
 31
0.0
  0
LINE
  5
5F0
330
1F
100
AcDbEntity
  8
002
 62
     3
370
    30
100
AcDbLine
 10
163.007229
 20
109.889532
 30
0.0
 11
164.257229
 21
109.889532
 31
0.0
  0
ARC
  5
5F1
330
1F
100
AcDbEntity
  8
002
 62
     3
370
    30
100
AcDbCircle
 10
163.632229
 20
107.139532
 30
0.0
 40
2.3750840807485
100
AcDbArc
 50
105.25697
 51
74.74303
  0
CIRCLE
  5
5F2
330
1F
100
AcDbEntity
  8
002
 62
     3
370
    30
100
AcDbCircle
 10
163.632229
 20
107.139532
 30
0.0
 40
3.875
  0
ARC
  5
5F3
330
1F
100
AcDbEntity
  8
002
 62
     3
370
    30
100
AcDbCircle
 10
163.632229
 20
107.139532
 30
0.0
 40
2.812571787972693
100
AcDbArc
 50
77.891689
 51
102.108311
  0
ARC
  5
5F4
330
1F
100
AcDbEntity
  8
002
 62
     3
370
    30
100
AcDbCircle
 10
163.632229
 20
107.139532
 30
0.0
 40
2.812571787972693
100
AcDbArc
 50
102.839255
 51
77.160745
  0
LINE
  5
5F5
330
1F
100
AcDbEntity
  8
002
 62
     3
370
    30
100
AcDbLine
 10
60.080975
 20
109.889532
 30
0.0
 11
60.080975
 21
108.889532
 31
0.0
  0
LINE
  5
5F6
330
1F
100
AcDbEntity
  8
002
 62
     3
370
    30
100
AcDbLine
 10
60.080975
 20
108.889532
 30
0.0
 11
58.830975
 21
108.889532
 31
0.0
  0
LINE
  5
5F7
330
1F
100
AcDbEntity
  8
002
 62
     3
370
    30
100
AcDbLine
 10
58.830975
 20
108.889532
 30
0.0
 11
58.830975
 21
109.889532
 31
0.0
  0
LINE
  5
5F8
330
1F
100
AcDbEntity
  8
002
 62
     3
370
    30
100
AcDbLine
 10
58.830975
 20
109.889532
 30
0.0
 11
60.080975
 21
109.889532
 31
0.0
  0
ARC
  5
5F9
330
1F
100
AcDbEntity
  8
002
 62
     3
370
    30
100
AcDbCircle
 10
59.455975
 20
107.139532
 30
0.0
 40
2.3750840807485
100
AcDbArc
 50
105.25697
 51
74.74303
  0
CIRCLE
  5
5FA
330
1F
100
AcDbEntity
  8
002
 62
     3
370
    30
100
AcDbCircle
 10
59.455975
 20
107.139532
 30
0.0
 40
3.875
  0
ARC
  5
5FB
330
1F
100
AcDbEntity
  8
002
 62
     3
370
    30
100
AcDbCircle
 10
59.455975
 20
107.139532
 30
0.0
 40
2.812571787972693
100
AcDbArc
 50
77.891689
 51
102.108311
  0
ARC
  5
5FC
330
1F
100
AcDbEntity
  8
002
 62
     3
370
    30
100
AcDbCircle
 10
59.455975
 20
107.139532
 30
0.0
 40
2.812571787972693
100
AcDbArc
 50
102.839255
 51
77.160745
  0
LINE
  5
5FD
330
1F
100
AcDbEntity
  8
002
 62
     3
370
    30
100
AcDbLine
 10
150.48884
 20
264.223273
 30
0.0
 11
150.48884
 21
277.476093
 31
0.0
  0
LINE
  5
5FE
330
1F
100
AcDbEntity
  8
002
 62
     3
370
    30
100
AcDbLine
 10
137.98884
 20
277.476093
 30
0.0
 11
137.98884
 21
264.223273
 31
0.0
  0
LINE
  5
5FF
330
1F
100
AcDbEntity
  8
002
 62
     3
370
    30
100
AcDbLine
 10
235.611821
 20
264.223273
 30
0.0
 11
235.611821
 21
277.476093
 31
0.0
  0
LINE
  5
600
330
1F
100
AcDbEntity
  8
002
 62
     3
370
    30
100
AcDbLine
 10
223.111821
 20
277.476093
 30
0.0
 11
223.111821
 21
264.223273
 31
0.0
  0
LINE
  5
601
330
1F
100
AcDbEntity
  8
002
 62
     3
370
    30
100
AcDbLine
 10
36.955975
 20
212.139532
 30
0.0
 11
48.205975
 21
212.139532
 31
0.0
  0
LINE
  5
602
330
1F
100
AcDbEntity
  8
002
 62
     3
370
    30
100
AcDbLine
 10
48.205975
 20
212.139532
 30
0.0
 11
48.205975
 21
202.327032
 31
0.0
  0
LINE
  5
603
330
1F
100
AcDbEntity
  8
002
 62
     3
370
    30
100
AcDbLine
 10
48.205975
 20
202.327032
 30
0.0
 11
36.955975
 21
202.327032
 31
0.0
  0
LINE
  5
604
330
1F
100
AcDbEntity
  8
002
 62
     3
370
    30
100
AcDbLine
 10
36.955975
 20
202.327032
 30
0.0
 11
36.955975
 21
212.139532
 31
0.0
  0
LINE
  5
605
330
1F
100
AcDbEntity
  8
002
 62
     3
370
    30
100
AcDbLine
 10
37.143475
 20
202.327032
 30
0.0
 11
37.143475
 21
201.889532
 31
0.0
  0
LINE
  5
606
330
1F
100
AcDbEntity
  8
002
 62
     3
370
    30
100
AcDbLine
 10
48.018475
 20
201.889532
 30
0.0
 11
48.018475
 21
202.327032
 31
0.0
  0
LINE
  5
607
330
1F
100
AcDbEntity
  8
002
 62
    40
370
     9
100
AcDbLine
 10
37.130975
 20
212.139532
 30
0.0
 11
37.130975
 21
202.327032
 31
0.0
  0
LINE
  5
608
330
1F
100
AcDbEntity
  8
002
 62
    40
370
     9
100
AcDbLine
 10
48.030975
 20
212.139532
 30
0.0
 11
48.030975
 21
202.327032
 31
0.0
  0
LINE
  5
609
330
1F
100
AcDbEntity
  8
002
 62
     3
370
    30
100
AcDbLine
 10
291.789558
 20
96.264532
 30
0.0
 11
291.789558
 21
107.139532
 31
0.0
  0
CIRCLE
  5
60A
330
1F
100
AcDbEntity
  8
002
 62
     3
370
    30
100
AcDbCircle
 10
301.789558
 20
107.139532
 30
0.0
 40
10.0
  0
LINE
  5
60B
330
1F
100
AcDbEntity
  8
002
 62
     3
370
    30
100
AcDbLine
 10
297.496183
 20
116.171032
 30
0.0
 11
297.496183
 21
116.858532
 31
0.0
  0
ARC
  5
60C
330
1F
100
AcDbEntity
  8
002
 62
     3
370
    30
100
AcDbCircle
 10
294.218558
 20
113.672532
 30
0.0
 40
0.6249939249705518
100
AcDbArc
 50
139.201079
 51
207.154388
  0
ARC
  5
60D
330
1F
100
AcDbEntity
  8
002
 62
     3
370
    30
100
AcDbCircle
 10
301.789558
 20
107.139532
 30
0.0
 40
10.6250661122943
100
AcDbArc
 50
113.833478
 51
139.208684
  0
LINE
  5
60E
330
1F
100
AcDbEntity
  8
002
 62
     3
370
    30
100
AcDbLine
 10
294.521308
 20
114.889532
 30
0.0
 11
265.011933
 21
114.889532
 31
0.0
  0
LINE
  5
60F
330
1F
100
AcDbEntity
  8
002
 62
     3
370
    30
100
AcDbLine
 10
265.077058
 20
114.511032
 30
0.0
 11
264.591058
 21
114.641282
 31
0.0
  0
ARC
  5
610
330
1F
100
AcDbEntity
  8
002
 62
     3
370
    30
100
AcDbCircle
 10
264.914558
 20
115.848782
 30
0.0
 40
1.25
100
AcDbArc
 50
180.0
 51
255.002154
  0
LINE
  5
611
330
1F
100
AcDbEntity
  8
002
 62
     3
370
    30
100
AcDbLine
 10
263.664558
 20
115.848782
 30
0.0
 11
263.664558
 21
123.014532
 31
0.0
  0
ARC
  5
612
330
1F
100
AcDbEntity
  8
002
 62
     3
370
    30
100
AcDbCircle
 10
264.289558
 20
123.014532
 30
0.0
 40
0.625
100
AcDbArc
 50
126.869898
 51
180.0
  0
LINE
  5
613
330
1F
100
AcDbEntity
  8
002
 62
     3
370
    30
100
AcDbLine
 10
263.914558
 20
123.514532
 30
0.0
 11
305.914558
 21
123.514532
 31
0.0
  0
ARC
  5
614
330
1F
100
AcDbEntity
  8
002
 62
     3
370
    30
100
AcDbCircle
 10
305.539558
 20
123.014532
 30
0.0
 40
0.625
100
AcDbArc
 50
0.0
 51
53.130102
  0
LINE
  5
615
330
1F
100
AcDbEntity
  8
002
 62
     3
370
    30
100
AcDbLine
 10
306.164558
 20
123.014532
 30
0.0
 11
306.164558
 21
118.232282
 31
0.0
  0
ARC
  5
616
330
1F
100
AcDbEntity
  8
002
 62
     3
370
    30
100
AcDbCircle
 10
297.289558
 20
107.139532
 30
0.0
 40
14.49997439868429
100
AcDbArc
 50
284.355141
 51
51.089954
  0
ARC
  5
617
330
1F
100
AcDbEntity
  8
002
 62
     3
370
    30
100
AcDbCircle
 10
304.164558
 20
93.596282
 30
0.0
 40
3.749992760409671
100
AcDbArc
 50
99.946798
 51
180.0
  0
LINE
  5
618
330
1F
100
AcDbEntity
  8
002
 62
     3
370
    30
100
AcDbLine
 10
299.789558
 20
96.264532
 30
0.0
 11
270.039558
 21
96.264532
 31
0.0
  0
LINE
  5
619
330
1F
100
AcDbEntity
  8
002
 62
     3
370
    30
100
AcDbLine
 10
269.414558
 20
95.639532
 30
0.0
 11
269.414558
 21
92.139532
 31
0.0
  0
LINE
  5
61A
330
1F
100
AcDbEntity
  8
002
 62
     3
370
    30
100
AcDbLine
 10
267.414558
 20
92.139532
 30
0.0
 11
300.414558
 21
92.139532
 31
0.0
  0
LINE
  5
61B
330
1F
100
AcDbEntity
  8
002
 62
     3
370
    30
100
AcDbLine
 10
300.414558
 20
92.139532
 30
0.0
 11
300.414558
 21
95.639532
 31
0.0
  0
ARC
  5
61C
330
1F
100
AcDbEntity
  8
002
 62
     3
370
    30
100
AcDbCircle
 10
299.789558
 20
95.639532
 30
0.0
 40
0.625
100
AcDbArc
 50
0.0
 51
90.0
  0
ARC
  5
61D
330
1F
100
AcDbEntity
  8
002
 62
     3
370
    30
100
AcDbCircle
 10
301.039558
 20
92.486782
 30
0.0
 40
0.6250241995315056
100
AcDbArc
 50
104.358626
 51
180.0
  0
ARC
  5
61E
330
1F
100
AcDbEntity
  8
002
 62
     3
370
    30
100
AcDbCircle
 10
287.995308
 20
97.514532
 30
0.0
 40
1.249935304575851
100
AcDbArc
 50
182.063201
 51
270.0
  0
LINE
  5
61F
330
1F
100
AcDbEntity
  8
002
 62
     3
370
    30
100
AcDbLine
 10
286.746183
 20
97.469532
 30
0.0
 11
286.165433
 21
113.594532
 31
0.0
  0
LINE
  5
620
330
1F
100
AcDbEntity
  8
002
 62
     3
370
    30
100
AcDbLine
 10
286.164558
 20
113.639532
 30
0.0
 11
286.164558
 21
97.514532
 31
0.0
  0
ARC
  5
621
330
1F
100
AcDbEntity
  8
002
 62
     3
370
    30
100
AcDbCircle
 10
287.414558
 20
97.514532
 30
0.0
 40
1.25
100
AcDbArc
 50
180.0
 51
270.0
  0
LINE
  5
622
330
1F
100
AcDbEntity
  8
002
 62
     3
370
    30
100
AcDbLine
 10
283.664558
 20
97.514532
 30
0.0
 11
283.664558
 21
113.639532
 31
0.0
  0
LINE
  5
623
330
1F
100
AcDbEntity
  8
002
 62
     3
370
    30
100
AcDbLine
 10
283.663808
 20
113.594532
 30
0.0
 11
283.082933
 21
97.469532
 31
0.0
  0
ARC
  5
624
330
1F
100
AcDbEntity
  8
002
 62
     3
370
    30
100
AcDbCircle
 10
281.833808
 20
97.514532
 30
0.0
 40
1.25
100
AcDbArc
 50
270.0
 51
357.936799
  0
ARC
  5
625
330
1F
100
AcDbEntity
  8
002
 62
     3
370
    30
100
AcDbCircle
 10
282.414558
 20
97.514532
 30
0.0
 40
1.25
100
AcDbArc
 50
270.0
 51
0.0
  0
LINE
  5
626
330
1F
100
AcDbEntity
  8
002
 62
     3
370
    30
100
AcDbLine
 10
267.414558
 20
92.139532
 30
0.0
 11
267.414558
 21
100.867532
 31
0.0
  0
ARC
  5
627
330
1F
100
AcDbEntity
  8
002
 62
     3
370
    30
100
AcDbCircle
 10
266.789558
 20
100.867532
 30
0.0
 40
0.625
100
AcDbArc
 50
0.0
 51
75.002154
  0
LINE
  5
628
330
1F
100
AcDbEntity
  8
002
 62
     3
370
    30
100
AcDbLine
 10
266.789558
 20
101.514532
 30
0.0
 11
269.180308
 21
100.873907
 31
0.0
  0
ARC
  5
629
330
1F
100
AcDbEntity
  8
002
 62
     3
370
    30
100
AcDbCircle
 10
268.856808
 20
99.666532
 30
0.0
 40
1.25
100
AcDbArc
 50
0.0
 51
75.000671
  0
LINE
  5
62A
330
1F
100
AcDbEntity
  8
002
 62
     3
370
    30
100
AcDbLine
 10
270.106808
 20
101.514532
 30
0.0
 11
270.106808
 21
112.277657
 31
0.0
  0
ARC
  5
62B
330
1F
100
AcDbEntity
  8
002
 62
     3
370
    30
100
AcDbCircle
 10
271.981808
 20
112.277657
 30
0.0
 40
1.875
100
AcDbArc
 50
90.0
 51
180.0
  0
LINE
  5
62C
330
1F
100
AcDbEntity
  8
002
 62
     3
370
    30
100
AcDbLine
 10
271.981808
 20
114.152657
 30
0.0
 11
282.452433
 21
114.152657
 31
0.0
  0
ARC
  5
62D
330
1F
100
AcDbEntity
  8
002
 62
     3
370
    30
100
AcDbCircle
 10
282.414558
 20
113.639532
 30
0.0
 40
1.25
100
AcDbArc
 50
0.0
 51
90.0
  0
ARC
  5
62E
330
1F
100
AcDbEntity
  8
002
 62
     3
370
    30
100
AcDbCircle
 10
287.414558
 20
113.639532
 30
0.0
 40
1.25
100
AcDbArc
 50
90.0
 51
180.0
  0
LINE
  5
62F
330
1F
100
AcDbEntity
  8
002
 62
     3
370
    30
100
AcDbLine
 10
287.296433
 20
114.152657
 30
0.0
 11
293.009933
 21
114.152657
 31
0.0
  0
LINE
  5
630
330
1F
100
AcDbEntity
  8
002
 62
     3
370
    30
100
AcDbLine
 10
292.414558
 20
123.514532
 30
0.0
 11
292.414558
 21
126.014532
 31
0.0
  0
LINE
  5
631
330
1F
100
AcDbEntity
  8
002
 62
     3
370
    30
100
AcDbLine
 10
292.414558
 20
126.014532
 30
0.0
 11
296.164558
 21
126.014532
 31
0.0
  0
LINE
  5
632
330
1F
100
AcDbEntity
  8
002
 62
     3
370
    30
100
AcDbLine
 10
296.164558
 20
126.014532
 30
0.0
 11
296.164558
 21
123.514532
 31
0.0
  0
LINE
  5
633
330
1F
100
AcDbEntity
  8
002
 62
     3
370
    30
100
AcDbLine
 10
296.164558
 20
123.639532
 30
0.0
 11
299.289558
 21
123.639532
 31
0.0
  0
LINE
  5
634
330
1F
100
AcDbEntity
  8
002
 62
     3
370
    30
100
AcDbLine
 10
299.289558
 20
123.514532
 30
0.0
 11
299.289558
 21
126.014532
 31
0.0
  0
LINE
  5
635
330
1F
100
AcDbEntity
  8
002
 62
     3
370
    30
100
AcDbLine
 10
299.289558
 20
126.014532
 30
0.0
 11
305.539558
 21
126.014532
 31
0.0
  0
LINE
  5
636
330
1F
100
AcDbEntity
  8
002
 62
     3
370
    30
100
AcDbLine
 10
305.539558
 20
126.014532
 30
0.0
 11
305.539558
 21
123.514532
 31
0.0
  0
LINE
  5
637
330
1F
100
AcDbEntity
  8
002
 62
     3
370
    30
100
AcDbLine
 10
299.914558
 20
126.014532
 30
0.0
 11
299.914558
 21
161.514532
 31
0.0
  0
LINE
  5
638
330
1F
100
AcDbEntity
  8
002
 62
     3
370
    30
100
AcDbLine
 10
299.914558
 20
161.514532
 30
0.0
 11
269.914558
 21
161.514532
 31
0.0
  0
LINE
  5
639
330
1F
100
AcDbEntity
  8
002
 62
     3
370
    30
100
AcDbLine
 10
269.914558
 20
161.514532
 30
0.0
 11
269.914558
 21
126.014532
 31
0.0
  0
LINE
  5
63A
330
1F
100
AcDbEntity
  8
002
 62
     3
370
    30
100
AcDbLine
 10
270.539558
 20
126.014532
 30
0.0
 11
264.289558
 21
126.014532
 31
0.0
  0
LINE
  5
63B
330
1F
100
AcDbEntity
  8
002
 62
     3
370
    30
100
AcDbLine
 10
264.289558
 20
126.014532
 30
0.0
 11
264.289558
 21
123.514532
 31
0.0
  0
LINE
  5
63C
330
1F
100
AcDbEntity
  8
002
 62
     3
370
    30
100
AcDbLine
 10
270.539558
 20
126.014532
 30
0.0
 11
270.539558
 21
123.514532
 31
0.0
  0
LINE
  5
63D
330
1F
100
AcDbEntity
  8
002
 62
     3
370
    30
100
AcDbLine
 10
270.539558
 20
123.639532
 30
0.0
 11
273.664558
 21
123.639532
 31
0.0
  0
LINE
  5
63E
330
1F
100
AcDbEntity
  8
002
 62
     3
370
    30
100
AcDbLine
 10
273.664558
 20
123.514532
 30
0.0
 11
273.664558
 21
126.014532
 31
0.0
  0
LINE
  5
63F
330
1F
100
AcDbEntity
  8
002
 62
     3
370
    30
100
AcDbLine
 10
273.664558
 20
126.014532
 30
0.0
 11
277.414558
 21
126.014532
 31
0.0
  0
LINE
  5
640
330
1F
100
AcDbEntity
  8
002
 62
     3
370
    30
100
AcDbLine
 10
277.414558
 20
126.014532
 30
0.0
 11
277.414558
 21
123.514532
 31
0.0
  0
LINE
  5
641
330
1F
100
AcDbEntity
  8
002
 62
     3
370
    30
100
AcDbLine
 10
277.414558
 20
123.639532
 30
0.0
 11
283.039558
 21
123.639532
 31
0.0
  0
LINE
  5
642
330
1F
100
AcDbEntity
  8
002
 62
     3
370
    30
100
AcDbLine
 10
283.039558
 20
123.514532
 30
0.0
 11
283.039558
 21
126.014532
 31
0.0
  0
LINE
  5
643
330
1F
100
AcDbEntity
  8
002
 62
     3
370
    30
100
AcDbLine
 10
283.039558
 20
126.014532
 30
0.0
 11
286.789558
 21
126.014532
 31
0.0
  0
LINE
  5
644
330
1F
100
AcDbEntity
  8
002
 62
     3
370
    30
100
AcDbLine
 10
286.789558
 20
126.014532
 30
0.0
 11
286.789558
 21
123.514532
 31
0.0
  0
LINE
  5
645
330
1F
100
AcDbEntity
  8
002
 62
     3
370
    30
100
AcDbLine
 10
286.789558
 20
123.639532
 30
0.0
 11
292.414558
 21
123.639532
 31
0.0
  0
LINE
  5
646
330
1F
100
AcDbEntity
  8
002
 62
     3
370
    30
100
AcDbLine
 10
303.039558
 20
126.014532
 30
0.0
 11
303.039558
 21
123.514532
 31
0.0
  0
LINE
  5
647
330
1F
100
AcDbEntity
  8
002
 62
     3
370
    30
100
AcDbLine
 10
306.164558
 20
120.514532
 30
0.0
 11
263.664558
 21
120.514532
 31
0.0
  0
LINE
  5
648
330
1F
100
AcDbEntity
  8
002
 62
     3
370
    30
100
AcDbLine
 10
266.789558
 20
123.514532
 30
0.0
 11
266.789558
 21
126.014532
 31
0.0
  0
ARC
  5
649
330
1F
100
AcDbEntity
  8
002
 62
     3
370
    30
100
AcDbCircle
 10
306.789558
 20
118.908782
 30
0.0
 40
0.625
100
AcDbArc
 50
180.0
 51
231.089603
  0
ARC
  5
64A
330
1F
100
AcDbEntity
  8
002
 62
     3
370
    30
100
AcDbCircle
 10
309.914558
 20
118.232282
 30
0.0
 40
3.75
100
AcDbArc
 50
180.0
 51
233.779839
  0
ARC
  5
64B
330
1F
100
AcDbEntity
  8
002
 62
     3
370
    30
100
AcDbCircle
 10
311.821433
 20
113.213157
 30
0.0
 40
1.250087359447313
100
AcDbArc
 50
202.68553
 51
255.002154
  0
LINE
  5
64C
330
1F
100
AcDbEntity
  8
002
 62
     3
370
    30
100
AcDbLine
 10
311.497933
 20
112.005657
 30
0.0
 11
312.164558
 21
111.827032
 31
0.0
  0
LINE
  5
64D
330
1F
100
AcDbEntity
  8
002
 62
     3
370
    30
100
AcDbLine
 10
312.164558
 20
111.827032
 30
0.0
 11
312.164558
 21
102.452032
 31
0.0
  0
LINE
  5
64E
330
1F
100
AcDbEntity
  8
002
 62
     3
370
    30
100
AcDbLine
 10
312.164558
 20
102.452032
 30
0.0
 11
311.497933
 21
102.273407
 31
0.0
  0
ARC
  5
64F
330
1F
100
AcDbEntity
  8
002
 62
     3
370
    30
100
AcDbCircle
 10
311.821433
 20
101.066032
 30
0.0
 40
1.249962655692138
100
AcDbArc
 50
104.999329
 51
157.319756
  0
ARC
  5
650
330
1F
100
AcDbEntity
  8
002
 62
     3
370
    30
100
AcDbCircle
 10
312.299683
 20
105.278782
 30
0.0
 40
0.6249209575018166
100
AcDbArc
 50
105.000812
 51
172.93468
  0
LINE
  5
651
330
1F
100
AcDbEntity
  8
002
 62
     3
370
    30
100
AcDbLine
 10
312.137933
 20
105.882407
 30
0.0
 11
312.164558
 21
105.889532
 31
0.0
  0
LINE
  5
652
330
1F
100
AcDbEntity
  8
002
 62
     3
370
    30
100
AcDbLine
 10
312.414558
 20
106.417907
 30
0.0
 11
312.789558
 21
106.417907
 31
0.0
  0
LINE
  5
653
330
1F
100
AcDbEntity
  8
002
 62
     3
370
    30
100
AcDbLine
 10
312.789558
 20
106.417907
 30
0.0
 11
313.153808
 21
106.782032
 31
0.0
  0
ARC
  5
654
330
1F
100
AcDbEntity
  8
002
 62
     3
370
    30
100
AcDbCircle
 10
313.242183
 20
106.693657
 30
0.0
 40
0.1250002499997285
100
AcDbArc
 50
57.994617
 51
135.0
  0
LINE
  5
655
330
1F
100
AcDbEntity
  8
002
 62
     3
370
    30
100
AcDbLine
 10
313.308433
 20
106.799657
 30
0.0
 11
313.414558
 21
106.733282
 31
0.0
  0
LINE
  5
656
330
1F
100
AcDbEntity
  8
002
 62
     3
370
    30
100
AcDbLine
 10
313.414558
 20
106.733282
 30
0.0
 11
313.789558
 21
106.827032
 31
0.0
  0
LINE
  5
657
330
1F
100
AcDbEntity
  8
002
 62
     3
370
    30
100
AcDbLine
 10
313.789558
 20
106.827032
 30
0.0
 11
313.789558
 21
107.452032
 31
0.0
  0
LINE
  5
658
330
1F
100
AcDbEntity
  8
002
 62
     3
370
    30
100
AcDbLine
 10
313.789558
 20
107.452032
 30
0.0
 11
313.414558
 21
107.545782
 31
0.0
  0
LINE
  5
659
330
1F
100
AcDbEntity
  8
002
 62
     3
370
    30
100
AcDbLine
 10
313.414558
 20
107.545782
 30
0.0
 11
313.308433
 21
107.479407
 31
0.0
  0
ARC
  5
65A
330
1F
100
AcDbEntity
  8
002
 62
     3
370
    30
100
AcDbCircle
 10
313.242183
 20
107.585407
 30
0.0
 40
0.124981123574681
100
AcDbArc
 50
225.0
 51
302.005383
  0
LINE
  5
65B
330
1F
100
AcDbEntity
  8
002
 62
     3
370
    30
100
AcDbLine
 10
313.153808
 20
107.497032
 30
0.0
 11
312.789558
 21
107.861282
 31
0.0
  0
LINE
  5
65C
330
1F
100
AcDbEntity
  8
002
 62
     3
370
    30
100
AcDbLine
 10
312.789558
 20
107.861282
 30
0.0
 11
312.414558
 21
107.861282
 31
0.0
  0
LINE
  5
65D
330
1F
100
AcDbEntity
  8
002
 62
     3
370
    30
100
AcDbLine
 10
312.414558
 20
107.861282
 30
0.0
 11
312.301683
 21
107.748407
 31
0.0
  0
LINE
  5
65E
330
1F
100
AcDbEntity
  8
002
 62
     3
370
    30
100
AcDbLine
 10
312.343058
 20
107.789782
 30
0.0
 11
312.164558
 21
107.778532
 31
0.0
  0
LINE
  5
65F
330
1F
100
AcDbEntity
  8
002
 62
     3
370
    30
100
AcDbLine
 10
312.289558
 20
107.675282
 30
0.0
 11
312.289558
 21
106.603907
 31
0.0
  0
ARC
  5
660
330
1F
100
AcDbEntity
  8
002
 62
     3
370
    30
100
AcDbCircle
 10
312.482183
 20
106.598282
 30
0.0
 40
0.1927521481722085
100
AcDbArc
 50
110.53865
 51
200.503847
  0
ARC
  5
661
330
1F
100
AcDbEntity
  8
002
 62
     3
370
    30
100
AcDbCircle
 10
312.872933
 20
107.139532
 30
0.0
 40
0.5833852982806795
100
AcDbArc
 50
141.786922
 51
218.203431
  0
LINE
  5
662
330
1F
100
AcDbEntity
  8
002
 62
     3
370
    30
100
AcDbLine
 10
312.414558
 20
107.500407
 30
0.0
 11
312.789558
 21
107.500407
 31
0.0
  0
ARC
  5
663
330
1F
100
AcDbEntity
  8
002
 62
     3
370
    30
100
AcDbCircle
 10
312.331183
 20
107.139532
 30
0.0
 40
0.5833079830800667
100
AcDbArc
 50
321.796569
 51
38.213078
  0
LINE
  5
664
330
1F
100
AcDbEntity
  8
002
 62
     3
370
    30
100
AcDbLine
 10
312.789558
 20
106.778782
 30
0.0
 11
312.414558
 21
106.778782
 31
0.0
  0
LINE
  5
665
330
1F
100
AcDbEntity
  8
002
 62
     3
370
    30
100
AcDbLine
 10
312.301683
 20
106.530782
 30
0.0
 11
312.414558
 21
106.417907
 31
0.0
  0
LINE
  5
666
330
1F
100
AcDbEntity
  8
002
 62
     3
370
    30
100
AcDbLine
 10
312.343058
 20
106.489407
 30
0.0
 11
312.164558
 21
106.500532
 31
0.0
  0
ARC
  5
667
330
1F
100
AcDbEntity
  8
002
 62
     3
370
    30
100
AcDbCircle
 10
312.721933
 20
106.598282
 30
0.0
 40
0.1927083288288857
100
AcDbArc
 50
339.496153
 51
69.46135
  0
LINE
  5
668
330
1F
100
AcDbEntity
  8
002
 62
     3
370
    30
100
AcDbLine
 10
313.224058
 20
106.852407
 30
0.0
 11
313.224058
 21
107.426782
 31
0.0
  0
LINE
  5
669
330
1F
100
AcDbEntity
  8
002
 62
     3
370
    30
100
AcDbLine
 10
313.414558
 20
107.452032
 30
0.0
 11
313.414558
 21
106.827032
 31
0.0
  0
ARC
  5
66A
330
1F
100
AcDbEntity
  8
002
 62
     3
370
    30
100
AcDbCircle
 10
313.706933
 20
107.139532
 30
0.0
 40
0.1249638072603472
100
AcDbArc
 50
311.390802
 51
48.609198
  0
ARC
  5
66B
330
1F
100
AcDbEntity
  8
002
 62
     3
370
    30
100
AcDbCircle
 10
312.721933
 20
107.680782
 30
0.0
 40
0.1926350986969978
100
AcDbArc
 50
290.551694
 51
20.53865
  0
ARC
  5
66C
330
1F
100
AcDbEntity
  8
002
 62
     3
370
    30
100
AcDbCircle
 10
312.482183
 20
107.680782
 30
0.0
 40
0.1927521481721453
100
AcDbArc
 50
159.46135
 51
249.448306
  0
LINE
  5
66D
330
1F
100
AcDbEntity
  8
002
 62
     3
370
    30
100
AcDbLine
 10
312.164558
 20
108.389532
 30
0.0
 11
312.137933
 21
108.396657
 31
0.0
  0
ARC
  5
66E
330
1F
100
AcDbEntity
  8
002
 62
     3
370
    30
100
AcDbCircle
 10
312.299683
 20
109.000407
 30
0.0
 40
0.6249958624862472
100
AcDbArc
 50
187.06532
 51
255.002154
  0
ARC
  5
66F
330
1F
100
AcDbEntity
  8
002
 62
     3
370
    30
100
AcDbCircle
 10
270.039558
 20
95.639532
 30
0.0
 40
0.625
100
AcDbArc
 50
90.0
 51
180.0
  0
LINE
  5
670
330
1F
100
AcDbEntity
  8
002
 62
     3
370
    30
100
AcDbLine
 10
266.789558
 20
101.514532
 30
0.0
 11
266.789558
 21
113.139532
 31
0.0
  0
LINE
  5
671
330
1F
100
AcDbEntity
  8
002
 62
     3
370
    30
100
AcDbLine
 10
266.789558
 20
113.139532
 30
0.0
 11
266.414558
 21
113.139532
 31
0.0
  0
LINE
  5
672
330
1F
100
AcDbEntity
  8
002
 62
     3
370
    30
100
AcDbLine
 10
266.789558
 20
112.764532
 30
0.0
 11
265.164558
 21
112.764532
 31
0.0
  0
LINE
  5
673
330
1F
100
AcDbEntity
  8
002
 62
     3
370
    30
100
AcDbLine
 10
264.914558
 20
112.514532
 30
0.0
 11
264.914558
 21
101.764532
 31
0.0
  0
LINE
  5
674
330
1F
100
AcDbEntity
  8
002
 62
     3
370
    30
100
AcDbLine
 10
264.914558
 20
101.826407
 30
0.0
 11
264.362433
 21
101.826407
 31
0.0
  0
ARC
  5
675
330
1F
100
AcDbEntity
  8
002
 62
     3
370
    30
100
AcDbCircle
 10
264.497933
 20
102.060907
 30
0.0
 40
0.2709412124889916
100
AcDbArc
 50
120.007178
 51
239.979597
  0
ARC
  5
676
330
1F
100
AcDbEntity
  8
002
 62
     3
370
    30
100
AcDbCircle
 10
265.107183
 20
102.764532
 30
0.0
 40
0.8801879504542893
100
AcDbArc
 50
147.79279
 51
212.200325
  0
LINE
  5
677
330
1F
100
AcDbEntity
  8
002
 62
     3
370
    30
100
AcDbLine
 10
264.362433
 20
103.233657
 30
0.0
 11
264.914558
 21
103.233657
 31
0.0
  0
LINE
  5
678
330
1F
100
AcDbEntity
  8
002
 62
     3
370
    30
100
AcDbLine
 10
264.914558
 20
103.702782
 30
0.0
 11
264.362433
 21
103.702782
 31
0.0
  0
LINE
  5
679
330
1F
100
AcDbEntity
  8
002
 62
     3
370
    30
100
AcDbLine
 10
264.227058
 20
103.468157
 30
0.0
 11
264.227058
 21
102.060907
 31
0.0
  0
LINE
  5
67A
330
1F
100
AcDbEntity
  8
002
 62
     3
370
    30
100
AcDbLine
 10
264.362433
 20
102.295532
 30
0.0
 11
264.914558
 21
102.295532
 31
0.0
  0
LINE
  5
67B
330
1F
100
AcDbEntity
  8
002
 62
     3
370
    30
100
AcDbLine
 10
265.164558
 20
101.514532
 30
0.0
 11
266.789558
 21
101.514532
 31
0.0
  0
ARC
  5
67C
330
1F
100
AcDbEntity
  8
002
 62
     3
370
    30
100
AcDbCircle
 10
265.164558
 20
101.764532
 30
0.0
 40
0.25
100
AcDbArc
 50
180.0
 51
270.0
  0
ARC
  5
67D
330
1F
100
AcDbEntity
  8
002
 62
     3
370
    30
100
AcDbCircle
 10
264.497933
 20
103.468157
 30
0.0
 40
0.270941212488967
100
AcDbArc
 50
120.007178
 51
239.979597
  0
LINE
  5
67E
330
1F
100
AcDbEntity
  8
002
 62
     3
370
    30
100
AcDbLine
 10
264.362433
 20
110.576407
 30
0.0
 11
264.914558
 21
110.576407
 31
0.0
  0
LINE
  5
67F
330
1F
100
AcDbEntity
  8
002
 62
     3
370
    30
100
AcDbLine
 10
264.914558
 20
111.045532
 30
0.0
 11
264.362433
 21
111.045532
 31
0.0
  0
ARC
  5
680
330
1F
100
AcDbEntity
  8
002
 62
     3
370
    30
100
AcDbCircle
 10
265.107183
 20
111.514532
 30
0.0
 40
0.8801879504542893
100
AcDbArc
 50
147.79279
 51
212.200325
  0
LINE
  5
681
330
1F
100
AcDbEntity
  8
002
 62
     3
370
    30
100
AcDbLine
 10
264.362433
 20
111.983657
 30
0.0
 11
264.914558
 21
111.983657
 31
0.0
  0
LINE
  5
682
330
1F
100
AcDbEntity
  8
002
 62
     3
370
    30
100
AcDbLine
 10
264.914558
 20
112.452782
 30
0.0
 11
264.362433
 21
112.452782
 31
0.0
  0
LINE
  5
683
330
1F
100
AcDbEntity
  8
002
 62
     3
370
    30
100
AcDbLine
 10
264.227058
 20
112.218157
 30
0.0
 11
264.227058
 21
110.810907
 31
0.0
  0
ARC
  5
684
330
1F
100
AcDbEntity
  8
002
 62
     3
370
    30
100
AcDbCircle
 10
264.497933
 20
110.810907
 30
0.0
 40
0.2709412124889916
100
AcDbArc
 50
120.007178
 51
239.979597
  0
ARC
  5
685
330
1F
100
AcDbEntity
  8
002
 62
     3
370
    30
100
AcDbCircle
 10
264.497933
 20
112.218157
 30
0.0
 40
0.270941212488967
100
AcDbArc
 50
120.007178
 51
239.979597
  0
ARC
  5
686
330
1F
100
AcDbEntity
  8
002
 62
     3
370
    30
100
AcDbCircle
 10
265.164558
 20
112.514532
 30
0.0
 40
0.25
100
AcDbArc
 50
90.0
 51
180.0
  0
ARC
  5
687
330
1F
100
AcDbEntity
  8
002
 62
     3
370
    30
100
AcDbCircle
 10
264.591808
 20
112.700032
 30
0.0
 40
1.874987416624375
100
AcDbArc
 50
13.55635
 51
75.000177
  0
LINE
  5
688
330
1F
100
AcDbEntity
  8
002
 62
     3
370
    30
100
AcDbLine
 10
284.553683
 20
152.139532
 30
0.0
 11
285.275433
 21
152.139532
 31
0.0
  0
LINE
  5
689
330
1F
100
AcDbEntity
  8
002
 62
     3
370
    30
100
AcDbLine
 10
285.275433
 20
152.139532
 30
0.0
 11
285.636308
 21
152.764532
 31
0.0
  0
LINE
  5
68A
330
1F
100
AcDbEntity
  8
002
 62
     3
370
    30
100
AcDbLine
 10
285.636308
 20
152.764532
 30
0.0
 11
285.275433
 21
153.389532
 31
0.0
  0
LINE
  5
68B
330
1F
100
AcDbEntity
  8
002
 62
     3
370
    30
100
AcDbLine
 10
285.275433
 20
153.389532
 30
0.0
 11
284.553683
 21
153.389532
 31
0.0
  0
LINE
  5
68C
330
1F
100
AcDbEntity
  8
002
 62
     3
370
    30
100
AcDbLine
 10
284.553683
 20
153.389532
 30
0.0
 11
284.192933
 21
152.764532
 31
0.0
  0
LINE
  5
68D
330
1F
100
AcDbEntity
  8
002
 62
     3
370
    30
100
AcDbLine
 10
284.192933
 20
152.764532
 30
0.0
 11
284.553683
 21
152.139532
 31
0.0
  0
CIRCLE
  5
68E
330
1F
100
AcDbEntity
  8
002
 62
     3
370
    30
100
AcDbCircle
 10
284.914558
 20
152.764532
 30
0.0
 40
0.40625
  0
CIRCLE
  5
68F
330
1F
100
AcDbEntity
  8
002
 62
     3
370
    30
100
AcDbCircle
 10
284.914558
 20
152.764532
 30
0.0
 40
0.3125
  0
CIRCLE
  5
690
330
1F
100
AcDbEntity
  8
002
 62
     3
370
    30
100
AcDbCircle
 10
284.914558
 20
152.764532
 30
0.0
 40
0.09375
  0
CIRCLE
  5
691
330
1F
100
AcDbEntity
  8
002
 62
     3
370
    30
100
AcDbCircle
 10
284.914558
 20
152.764532
 30
0.0
 40
0.625
  0
LINE
  5
692
330
1F
100
AcDbEntity
  8
002
 62
     3
370
    30
100
AcDbLine
 10
277.340933
 20
162.764532
 30
0.0
 11
277.340933
 21
164.014532
 31
0.0
  0
LINE
  5
693
330
1F
100
AcDbEntity
  8
002
 62
     3
370
    30
100
AcDbLine
 10
275.340933
 20
164.014532
 30
0.0
 11
275.340933
 21
162.764532
 31
0.0
  0
LINE
  5
694
330
1F
100
AcDbEntity
  8
002
 62
     3
370
    30
100
AcDbLine
 10
294.488183
 20
162.764532
 30
0.0
 11
294.488183
 21
164.014532
 31
0.0
  0
LINE
  5
695
330
1F
100
AcDbEntity
  8
002
 62
     3
370
    30
100
AcDbLine
 10
292.488183
 20
164.014532
 30
0.0
 11
292.488183
 21
162.764532
 31
0.0
  0
LINE
  5
696
330
1F
100
AcDbEntity
  8
002
 62
     3
370
    30
100
AcDbLine
 10
292.488183
 20
164.014532
 30
0.0
 11
294.488183
 21
164.014532
 31
0.0
  0
LINE
  5
697
330
1F
100
AcDbEntity
  8
002
 62
     3
370
    30
100
AcDbLine
 10
298.539558
 20
162.764532
 30
0.0
 11
271.289558
 21
162.764532
 31
0.0
  0
LINE
  5
698
330
1F
100
AcDbEntity
  8
002
 62
     3
370
    30
100
AcDbLine
 10
271.289558
 20
162.764532
 30
0.0
 11
271.289558
 21
161.514532
 31
0.0
  0
LINE
  5
699
330
1F
100
AcDbEntity
  8
002
 62
     3
370
    30
100
AcDbLine
 10
275.340933
 20
164.014532
 30
0.0
 11
277.340933
 21
164.014532
 31
0.0
  0
LINE
  5
69A
330
1F
100
AcDbEntity
  8
002
 62
     3
370
    30
100
AcDbLine
 10
298.539558
 20
162.764532
 30
0.0
 11
298.539558
 21
161.514532
 31
0.0
  0
LINE
  5
69B
330
1F
100
AcDbEntity
  8
002
  6
CENTER
 62
    40
370
     9
100
AcDbLine
 10
293.488183
 20
164.782407
 30
0.0
 11
293.488183
 21
161.514532
 31
0.0
  0
LINE
  5
69C
330
1F
100
AcDbEntity
  8
002
  6
CENTER
 62
    40
370
     9
100
AcDbLine
 10
285.846933
 20
152.764532
 30
0.0
 11
284.035058
 21
152.764532
 31
0.0
  0
LINE
  5
69D
330
1F
100
AcDbEntity
  8
002
  6
CENTER
 62
    40
370
     9
100
AcDbLine
 10
276.340933
 20
161.514532
 30
0.0
 11
276.340933
 21
164.782407
 31
0.0
  0
LINE
  5
69E
330
1F
100
AcDbEntity
  8
002
  6
CENTER
 62
    40
370
     9
100
AcDbLine
 10
275.539558
 20
126.899532
 30
0.0
 11
275.539558
 21
119.583532
 31
0.0
  0
LINE
  5
69F
330
1F
100
AcDbEntity
  8
002
  6
CENTER
 62
    40
370
     9
100
AcDbLine
 10
268.676558
 20
119.583532
 30
0.0
 11
268.676558
 21
126.899532
 31
0.0
  0
LINE
  5
6A0
330
1F
100
AcDbEntity
  8
002
  6
CENTER
 62
    40
370
     9
100
AcDbLine
 10
266.164558
 20
126.899532
 30
0.0
 11
266.164558
 21
119.583532
 31
0.0
  0
LINE
  5
6A1
330
1F
100
AcDbEntity
  8
002
  6
CENTER
 62
    40
370
     9
100
AcDbLine
 10
267.407933
 20
111.514532
 30
0.0
 11
263.565058
 21
111.514532
 31
0.0
  0
LINE
  5
6A2
330
1F
100
AcDbEntity
  8
002
  6
CENTER
 62
    40
370
     9
100
AcDbLine
 10
262.730433
 20
107.139532
 30
0.0
 11
315.527808
 21
107.139532
 31
0.0
  0
LINE
  5
6A3
330
1F
100
AcDbEntity
  8
002
 62
    40
370
     9
100
AcDbLine
 10
312.242183
 20
107.783407
 30
0.0
 11
312.162183
 21
107.703407
 31
0.0
  0
LINE
  5
6A4
330
1F
100
AcDbEntity
  8
002
 62
    40
370
     9
100
AcDbLine
 10
312.162183
 20
106.575782
 30
0.0
 11
312.242183
 21
106.495657
 31
0.0
  0
LINE
  5
6A5
330
1F
100
AcDbEntity
  8
002
  6
CENTER
 62
    40
370
     9
100
AcDbLine
 10
301.789558
 20
94.964782
 30
0.0
 11
301.789558
 21
118.548907
 31
0.0
  0
LINE
  5
6A6
330
1F
100
AcDbEntity
  8
002
  6
CENTER
 62
    40
370
     9
100
AcDbLine
 10
301.152558
 20
119.583532
 30
0.0
 11
301.152558
 21
126.899532
 31
0.0
  0
LINE
  5
6A7
330
1F
100
AcDbEntity
  8
002
  6
CENTER
 62
    40
370
     9
100
AcDbLine
 10
303.664558
 20
126.899532
 30
0.0
 11
303.664558
 21
119.583532
 31
0.0
  0
LINE
  5
6A8
330
1F
100
AcDbEntity
  8
002
  6
CENTER
 62
    40
370
     9
100
AcDbLine
 10
294.289558
 20
119.583532
 30
0.0
 11
294.289558
 21
126.899532
 31
0.0
  0
LINE
  5
6A9
330
1F
100
AcDbEntity
  8
002
  6
CENTER
 62
    40
370
     9
100
AcDbLine
 10
294.414558
 20
97.960532
 30
0.0
 11
294.414558
 21
89.803407
 31
0.0
  0
LINE
  5
6AA
330
1F
100
AcDbEntity
  8
002
  6
CENTER
 62
    40
370
     9
100
AcDbLine
 10
275.414558
 20
89.803407
 30
0.0
 11
275.414558
 21
97.960532
 31
0.0
  0
LINE
  5
6AB
330
1F
100
AcDbEntity
  8
002
  6
CENTER
 62
    40
370
     9
100
AcDbLine
 10
267.407933
 20
102.764532
 30
0.0
 11
263.565058
 21
102.764532
 31
0.0
  0
LINE
  5
6AC
330
1F
100
AcDbEntity
  8
002
  6
HIDDEN
 62
    40
370
     9
100
AcDbLine
 10
297.227058
 20
96.139532
 30
0.0
 11
297.227058
 21
92.139532
 31
0.0
  0
LINE
  5
6AD
330
1F
100
AcDbEntity
  8
002
  6
HIDDEN
 62
    40
370
     9
100
AcDbLine
 10
289.289558
 20
96.139532
 30
0.0
 11
299.539558
 21
96.139532
 31
0.0
  0
LINE
  5
6AE
330
1F
100
AcDbEntity
  8
002
  6
HIDDEN
 62
    40
370
     9
100
AcDbLine
 10
291.602058
 20
92.139532
 30
0.0
 11
291.602058
 21
96.139532
 31
0.0
  0
LINE
  5
6AF
330
1F
100
AcDbEntity
  8
002
  6
HIDDEN
 62
    40
370
     9
100
AcDbLine
 10
278.227058
 20
92.139532
 30
0.0
 11
278.227058
 21
96.139532
 31
0.0
  0
LINE
  5
6B0
330
1F
100
AcDbEntity
  8
002
  6
HIDDEN
 62
    40
370
     9
100
AcDbLine
 10
280.539558
 20
96.139532
 30
0.0
 11
270.289558
 21
96.139532
 31
0.0
  0
LINE
  5
6B1
330
1F
100
AcDbEntity
  8
002
  6
HIDDEN
 62
    40
370
     9
100
AcDbLine
 10
272.602058
 20
96.139532
 30
0.0
 11
272.602058
 21
92.139532
 31
0.0
  0
LINE
  5
6B2
330
1F
100
AcDbEntity
  8
002
  6
HIDDEN
 62
    40
370
     9
100
AcDbLine
 10
299.539558
 20
96.139532
 30
0.0
 11
299.539558
 21
96.264532
 31
0.0
  0
LINE
  5
6B3
330
1F
100
AcDbEntity
  8
002
  6
HIDDEN
 62
    40
370
     9
100
AcDbLine
 10
289.289558
 20
96.139532
 30
0.0
 11
289.289558
 21
96.264532
 31
0.0
  0
LINE
  5
6B4
330
1F
100
AcDbEntity
  8
002
  6
HIDDEN
 62
    40
370
     9
100
AcDbLine
 10
280.539558
 20
96.264532
 30
0.0
 11
280.539558
 21
96.139532
 31
0.0
  0
LINE
  5
6B5
330
1F
100
AcDbEntity
  8
002
  6
HIDDEN
 62
    40
370
     9
100
AcDbLine
 10
270.289558
 20
96.139532
 30
0.0
 11
270.289558
 21
96.264532
 31
0.0
  0
LINE
  5
6B6
330
1F
100
AcDbEntity
  8
002
 62
     3
370
    30
100
AcDbLine
 10
274.589558
 20
219.639532
 30
0.0
 11
295.239558
 21
219.639532
 31
0.0
  0
LINE
  5
6B7
330
1F
100
AcDbEntity
  8
002
 62
     3
370
    30
100
AcDbLine
 10
302.414558
 20
109.889532
 30
0.0
 11
302.414558
 21
108.889532
 31
0.0
  0
LINE
  5
6B8
330
1F
100
AcDbEntity
  8
002
 62
     3
370
    30
100
AcDbLine
 10
302.414558
 20
108.889532
 30
0.0
 11
301.164558
 21
108.889532
 31
0.0
  0
LINE
  5
6B9
330
1F
100
AcDbEntity
  8
002
 62
     3
370
    30
100
AcDbLine
 10
301.164558
 20
108.889532
 30
0.0
 11
301.164558
 21
109.889532
 31
0.0
  0
LINE
  5
6BA
330
1F
100
AcDbEntity
  8
002
 62
     3
370
    30
100
AcDbLine
 10
301.164558
 20
109.889532
 30
0.0
 11
302.414558
 21
109.889532
 31
0.0
  0
ARC
  5
6BB
330
1F
100
AcDbEntity
  8
002
 62
     3
370
    30
100
AcDbCircle
 10
301.789558
 20
107.139532
 30
0.0
 40
2.3750840807485
100
AcDbArc
 50
105.25697
 51
74.74303
  0
CIRCLE
  5
6BC
330
1F
100
AcDbEntity
  8
002
 62
     3
370
    30
100
AcDbCircle
 10
301.789558
 20
107.139532
 30
0.0
 40
3.875
  0
ARC
  5
6BD
330
1F
100
AcDbEntity
  8
002
 62
     3
370
    30
100
AcDbCircle
 10
301.789558
 20
107.139532
 30
0.0
 40
2.812571787972693
100
AcDbArc
 50
77.891689
 51
102.108311
  0
ARC
  5
6BE
330
1F
100
AcDbEntity
  8
002
 62
     3
370
    30
100
AcDbCircle
 10
301.789558
 20
107.139532
 30
0.0
 40
2.812571787972693
100
AcDbArc
 50
102.839255
 51
77.160745
  0
TEXT
  5
6BF
330
1F
100
AcDbEntity
  8
002
 62
     3
370
    30
100
AcDbText
 10
264.57185
 20
111.690844
 30
0.0
 40
0.0375
  1
Ｍ８
 41
0.555556
100
AcDbText
  0
TEXT
  5
6C0
330
1F
100
AcDbEntity
  8
002
 62
     3
370
    30
100
AcDbText
 10
264.630266
 20
102.588219
 30
0.0
 40
0.0375
  1
Ｍ８
 50
180.000005
 41
0.555556
100
AcDbText
  0
LINE
  5
6C1
330
1F
100
AcDbEntity
  8
002
 62
     3
370
    30
100
AcDbLine
 10
276.289558
 20
85.264532
 30
0.0
 11
293.539558
 21
85.264532
 31
0.0
  0
ARC
  5
6C2
330
1F
100
AcDbEntity
  8
002
 62
     3
370
    30
100
AcDbCircle
 10
293.789558
 20
85.264532
 30
0.0
 40
0.1250204514519679
100
AcDbArc
 50
99.989728
 51
180.0
  0
LINE
  5
6C3
330
1F
100
AcDbEntity
  8
002
 62
     3
370
    30
100
AcDbLine
 10
293.767871
 20
85.387657
 30
0.0
 11
297.311258
 21
85.766407
 31
0.0
  0
LINE
  5
6C4
330
1F
100
AcDbEntity
  8
002
 62
     3
370
    30
100
AcDbLine
 10
297.289558
 20
85.889532
 30
0.0
 11
272.539558
 21
85.889532
 31
0.0
  0
ARC
  5
6C5
330
1F
100
AcDbEntity
  8
002
 62
     3
370
    30
100
AcDbCircle
 10
272.539558
 20
85.889532
 30
0.0
 40
0.1250204514519679
100
AcDbArc
 50
99.989728
 51
260.010272
  0
LINE
  5
6C6
330
1F
100
AcDbEntity
  8
002
 62
     3
370
    30
100
AcDbLine
 10
272.517871
 20
86.012657
 30
0.0
 11
276.061258
 21
86.391407
 31
0.0
  0
LINE
  5
6C7
330
1F
100
AcDbEntity
  8
002
 62
     3
370
    30
100
AcDbLine
 10
276.061258
 20
86.637657
 30
0.0
 11
272.517871
 21
87.016407
 31
0.0
  0
ARC
  5
6C8
330
1F
100
AcDbEntity
  8
002
 62
     3
370
    30
100
AcDbCircle
 10
272.539558
 20
87.139532
 30
0.0
 40
0.1250204514519679
100
AcDbArc
 50
99.989728
 51
260.010272
  0
LINE
  5
6C9
330
1F
100
AcDbEntity
  8
002
 62
     3
370
    30
100
AcDbLine
 10
272.517871
 20
87.262657
 30
0.0
 11
276.061258
 21
87.641407
 31
0.0
  0
ARC
  5
6CA
330
1F
100
AcDbEntity
  8
002
 62
     3
370
    30
100
AcDbCircle
 10
276.039558
 20
87.764532
 30
0.0
 40
0.1250226204532753
100
AcDbArc
 50
279.99537
 51
80.00463
  0
LINE
  5
6CB
330
1F
100
AcDbEntity
  8
002
 62
     3
370
    30
100
AcDbLine
 10
276.061258
 20
87.887657
 30
0.0
 11
272.517871
 21
88.266407
 31
0.0
  0
ARC
  5
6CC
330
1F
100
AcDbEntity
  8
002
 62
     3
370
    30
100
AcDbCircle
 10
272.539558
 20
88.389532
 30
0.0
 40
0.1250204514519679
100
AcDbArc
 50
99.989728
 51
260.010272
  0
LINE
  5
6CD
330
1F
100
AcDbEntity
  8
002
 62
     3
370
    30
100
AcDbLine
 10
272.517871
 20
88.512657
 30
0.0
 11
276.083308
 21
89.014532
 31
0.0
  0
LINE
  5
6CE
330
1F
100
AcDbEntity
  8
002
 62
     3
370
    30
100
AcDbLine
 10
276.083308
 20
89.014532
 30
0.0
 11
276.083308
 21
89.139532
 31
0.0
  0
LINE
  5
6CF
330
1F
100
AcDbEntity
  8
002
 62
     3
370
    30
100
AcDbLine
 10
276.008308
 20
89.139532
 30
0.0
 11
276.008308
 21
90.602032
 31
0.0
  0
LINE
  5
6D0
330
1F
100
AcDbEntity
  8
002
 62
     3
370
    30
100
AcDbLine
 10
275.470796
 20
90.602032
 30
0.0
 11
277.210983
 21
90.602032
 31
0.0
  0
LINE
  5
6D1
330
1F
100
AcDbEntity
  8
002
 62
     3
370
    30
100
AcDbLine
 10
277.210983
 20
90.602032
 30
0.0
 11
277.340896
 21
90.677032
 31
0.0
  0
LINE
  5
6D2
330
1F
100
AcDbEntity
  8
002
 62
     3
370
    30
100
AcDbLine
 10
277.340896
 20
90.677032
 30
0.0
 11
275.340896
 21
90.677032
 31
0.0
  0
LINE
  5
6D3
330
1F
100
AcDbEntity
  8
002
 62
     3
370
    30
100
AcDbLine
 10
275.340896
 20
90.677032
 30
0.0
 11
275.340896
 21
91.852032
 31
0.0
  0
LINE
  5
6D4
330
1F
100
AcDbEntity
  8
002
 62
     3
370
    30
100
AcDbLine
 10
275.340896
 20
90.764532
 30
0.0
 11
275.008308
 21
90.764532
 31
0.0
  0
LINE
  5
6D5
330
1F
100
AcDbEntity
  8
002
 62
     3
370
    30
100
AcDbLine
 10
275.340896
 20
90.677032
 30
0.0
 11
275.470796
 21
90.602032
 31
0.0
  0
CIRCLE
  5
6D6
330
1F
100
AcDbEntity
  8
002
 62
     3
370
    30
100
AcDbCircle
 10
275.383308
 20
89.952032
 30
0.0
 40
0.125
  0
LINE
  5
6D7
330
1F
100
AcDbEntity
  8
002
 62
     3
370
    30
100
AcDbLine
 10
274.758308
 20
89.389532
 30
0.0
 11
274.758308
 21
90.514532
 31
0.0
  0
ARC
  5
6D8
330
1F
100
AcDbEntity
  8
002
 62
     3
370
    30
100
AcDbCircle
 10
275.008308
 20
90.514532
 30
0.0
 40
0.25
100
AcDbArc
 50
90.0
 51
180.0
  0
LINE
  5
6D9
330
1F
100
AcDbEntity
  8
002
 62
     3
370
    30
100
AcDbLine
 10
275.008308
 20
89.139532
 30
0.0
 11
293.858308
 21
89.139532
 31
0.0
  0
LINE
  5
6DA
330
1F
100
AcDbEntity
  8
002
 62
     3
370
    30
100
AcDbLine
 10
293.858308
 20
89.139532
 30
0.0
 11
293.858308
 21
90.602032
 31
0.0
  0
LINE
  5
6DB
330
1F
100
AcDbEntity
  8
002
 62
     3
370
    30
100
AcDbLine
 10
294.358333
 20
90.602032
 30
0.0
 11
292.618133
 21
90.602032
 31
0.0
  0
LINE
  5
6DC
330
1F
100
AcDbEntity
  8
002
 62
     3
370
    30
100
AcDbLine
 10
292.618133
 20
90.602032
 30
0.0
 11
292.488233
 21
90.677032
 31
0.0
  0
LINE
  5
6DD
330
1F
100
AcDbEntity
  8
002
 62
     3
370
    30
100
AcDbLine
 10
292.488233
 20
90.677032
 30
0.0
 11
294.488233
 21
90.677032
 31
0.0
  0
LINE
  5
6DE
330
1F
100
AcDbEntity
  8
002
 62
     3
370
    30
100
AcDbLine
 10
294.488233
 20
90.677032
 30
0.0
 11
294.488233
 21
91.852032
 31
0.0
  0
LINE
  5
6DF
330
1F
100
AcDbEntity
  8
002
 62
     3
370
    30
100
AcDbLine
 10
294.488233
 20
90.677032
 30
0.0
 11
294.358333
 21
90.602032
 31
0.0
  0
LINE
  5
6E0
330
1F
100
AcDbEntity
  8
002
 62
     3
370
    30
100
AcDbLine
 10
293.783308
 20
89.139532
 30
0.0
 11
293.783308
 21
89.014532
 31
0.0
  0
LINE
  5
6E1
330
1F
100
AcDbEntity
  8
002
 62
     3
370
    30
100
AcDbLine
 10
293.783308
 20
89.014532
 30
0.0
 11
297.311258
 21
88.512657
 31
0.0
  0
ARC
  5
6E2
330
1F
100
AcDbEntity
  8
002
 62
     3
370
    30
100
AcDbCircle
 10
297.289558
 20
88.389532
 30
0.0
 40
0.1250226204532753
100
AcDbArc
 50
279.99537
 51
80.00463
  0
LINE
  5
6E3
330
1F
100
AcDbEntity
  8
002
 62
     3
370
    30
100
AcDbLine
 10
297.311258
 20
88.266407
 30
0.0
 11
293.767871
 21
87.887657
 31
0.0
  0
ARC
  5
6E4
330
1F
100
AcDbEntity
  8
002
 62
     3
370
    30
100
AcDbCircle
 10
293.789558
 20
87.764532
 30
0.0
 40
0.1250204514519679
100
AcDbArc
 50
99.989728
 51
260.010272
  0
LINE
  5
6E5
330
1F
100
AcDbEntity
  8
002
 62
     3
370
    30
100
AcDbLine
 10
293.767871
 20
87.641407
 30
0.0
 11
297.311258
 21
87.262657
 31
0.0
  0
ARC
  5
6E6
330
1F
100
AcDbEntity
  8
002
 62
     3
370
    30
100
AcDbCircle
 10
297.289558
 20
87.139532
 30
0.0
 40
0.1250226204532753
100
AcDbArc
 50
279.99537
 51
80.00463
  0
LINE
  5
6E7
330
1F
100
AcDbEntity
  8
002
 62
     3
370
    30
100
AcDbLine
 10
297.311258
 20
87.016407
 30
0.0
 11
293.767871
 21
86.637657
 31
0.0
  0
ARC
  5
6E8
330
1F
100
AcDbEntity
  8
002
 62
     3
370
    30
100
AcDbCircle
 10
293.789558
 20
86.514532
 30
0.0
 40
0.1250204514519679
100
AcDbArc
 50
99.989728
 51
260.010272
  0
LINE
  5
6E9
330
1F
100
AcDbEntity
  8
002
 62
     3
370
    30
100
AcDbLine
 10
293.767871
 20
86.391407
 30
0.0
 11
297.311258
 21
86.012657
 31
0.0
  0
ARC
  5
6EA
330
1F
100
AcDbEntity
  8
002
 62
     3
370
    30
100
AcDbCircle
 10
297.289558
 20
85.889532
 30
0.0
 40
0.1250226204532753
100
AcDbArc
 50
279.99537
 51
80.00463
  0
LINE
  5
6EB
330
1F
100
AcDbEntity
  8
002
 62
     3
370
    30
100
AcDbLine
 10
297.289558
 20
87.139532
 30
0.0
 11
272.539558
 21
87.139532
 31
0.0
  0
LINE
  5
6EC
330
1F
100
AcDbEntity
  8
002
 62
     3
370
    30
100
AcDbLine
 10
272.539558
 20
88.389532
 30
0.0
 11
297.289558
 21
88.389532
 31
0.0
  0
LINE
  5
6ED
330
1F
100
AcDbEntity
  8
002
 62
     3
370
    30
100
AcDbLine
 10
293.783308
 20
89.014532
 30
0.0
 11
276.083308
 21
89.014532
 31
0.0
  0
ARC
  5
6EE
330
1F
100
AcDbEntity
  8
002
 62
     3
370
    30
100
AcDbCircle
 10
275.008308
 20
89.389532
 30
0.0
 40
0.25
100
AcDbArc
 50
180.0
 51
270.0
  0
LINE
  5
6EF
330
1F
100
AcDbEntity
  8
002
 62
     3
370
    30
100
AcDbLine
 10
276.289558
 20
87.764532
 30
0.0
 11
293.539558
 21
87.764532
 31
0.0
  0
LINE
  5
6F0
330
1F
100
AcDbEntity
  8
002
 62
     3
370
    30
100
AcDbLine
 10
293.539558
 20
86.514532
 30
0.0
 11
276.289558
 21
86.514532
 31
0.0
  0
ARC
  5
6F1
330
1F
100
AcDbEntity
  8
002
 62
     3
370
    30
100
AcDbCircle
 10
276.039558
 20
86.514532
 30
0.0
 40
0.1250226204532753
100
AcDbArc
 50
279.99537
 51
80.00463
  0
LINE
  5
6F2
330
1F
100
AcDbEntity
  8
002
 62
     3
370
    30
100
AcDbLine
 10
276.061258
 20
85.387657
 30
0.0
 11
272.517871
 21
85.766407
 31
0.0
  0
ARC
  5
6F3
330
1F
100
AcDbEntity
  8
002
 62
     3
370
    30
100
AcDbCircle
 10
276.039558
 20
85.264532
 30
0.0
 40
0.125
100
AcDbArc
 50
0.0
 51
80.00463
  0
LINE
  5
6F4
330
1F
100
AcDbEntity
  8
002
 62
     3
370
    30
100
AcDbLine
 10
277.340896
 20
90.677032
 30
0.0
 11
277.340896
 21
91.852032
 31
0.0
  0
LINE
  5
6F5
330
1F
100
AcDbEntity
  8
002
 62
     3
370
    30
100
AcDbLine
 10
277.340896
 20
90.889532
 30
0.0
 11
292.488233
 21
90.889532
 31
0.0
  0
LINE
  5
6F6
330
1F
100
AcDbEntity
  8
002
 62
     3
370
    30
100
AcDbLine
 10
292.488233
 20
90.764532
 30
0.0
 11
277.340896
 21
90.764532
 31
0.0
  0
LINE
  5
6F7
330
1F
100
AcDbEntity
  8
002
 62
     3
370
    30
100
AcDbLine
 10
271.289558
 20
91.852032
 30
0.0
 11
298.539558
 21
91.852032
 31
0.0
  0
LINE
  5
6F8
330
1F
100
AcDbEntity
  8
002
 62
     3
370
    30
100
AcDbLine
 10
298.539558
 20
91.852032
 30
0.0
 11
298.539558
 21
92.139532
 31
0.0
  0
LINE
  5
6F9
330
1F
100
AcDbEntity
  8
002
 62
     3
370
    30
100
AcDbLine
 10
292.488233
 20
91.852032
 30
0.0
 11
292.488233
 21
90.677032
 31
0.0
  0
LINE
  5
6FA
330
1F
100
AcDbEntity
  8
002
 62
     3
370
    30
100
AcDbLine
 10
271.289558
 20
92.139532
 30
0.0
 11
271.289558
 21
91.852032
 31
0.0
  0
LINE
  5
6FB
330
1F
100
AcDbEntity
  8
002
  6
CENTER
 62
    40
370
     9
100
AcDbLine
 10
293.488233
 20
93.102032
 30
0.0
 11
293.488233
 21
89.834157
 31
0.0
  0
LINE
  5
6FC
330
1F
100
AcDbEntity
  8
002
  6
CENTER
 62
    40
370
     9
100
AcDbLine
 10
275.383308
 20
89.736157
 30
0.0
 11
275.383308
 21
90.150032
 31
0.0
  0
LINE
  5
6FD
330
1F
100
AcDbEntity
  8
002
  6
CENTER
 62
    40
370
     9
100
AcDbLine
 10
275.173858
 20
89.952032
 30
0.0
 11
275.608671
 21
89.952032
 31
0.0
  0
LINE
  5
6FE
330
1F
100
AcDbEntity
  8
002
  6
CENTER
 62
    40
370
     9
100
AcDbLine
 10
276.340896
 20
89.834157
 30
0.0
 11
276.340896
 21
93.102032
 31
0.0
  0
LINE
  5
6FF
330
1F
100
AcDbEntity
  8
002
  6
PHANTOM
 62
    40
370
     9
100
AcDbLine
 10
293.664558
 20
85.264532
 30
0.0
 11
293.664558
 21
58.764532
 31
0.0
  0
LINE
  5
700
330
1F
100
AcDbEntity
  8
002
  6
PHANTOM
 62
    40
370
     9
100
AcDbLine
 10
297.414558
 20
58.139532
 30
0.0
 11
297.414558
 21
85.889532
 31
0.0
  0
LINE
  5
701
330
1F
100
AcDbEntity
  8
002
  6
PHANTOM
 62
    40
370
     9
100
AcDbLine
 10
276.164558
 20
85.264532
 30
0.0
 11
276.164558
 21
58.764532
 31
0.0
  0
LINE
  5
702
330
1F
100
AcDbEntity
  8
002
  6
PHANTOM
 62
    40
370
     9
100
AcDbLine
 10
272.414558
 20
58.139532
 30
0.0
 11
272.414558
 21
85.889532
 31
0.0
  0
LINE
  5
703
330
1F
100
AcDbEntity
  8
002
 62
     3
370
    30
100
AcDbLine
 10
279.414608
 20
41.514532
 30
0.0
 11
290.414596
 21
41.514532
 31
0.0
  0
LINE
  5
704
330
1F
100
AcDbEntity
  8
002
 62
     3
370
    30
100
AcDbLine
 10
290.414571
 20
41.514657
 30
0.0
 11
290.539571
 21
41.639657
 31
0.0
  0
LINE
  5
705
330
1F
100
AcDbEntity
  8
002
 62
     3
370
    30
100
AcDbLine
 10
290.539596
 20
41.639532
 30
0.0
 11
290.539596
 21
51.327032
 31
0.0
  0
LINE
  5
706
330
1F
100
AcDbEntity
  8
002
 62
     3
370
    30
100
AcDbLine
 10
290.539596
 20
51.327032
 30
0.0
 11
279.289596
 21
51.327032
 31
0.0
  0
LINE
  5
707
330
1F
100
AcDbEntity
  8
002
 62
     3
370
    30
100
AcDbLine
 10
279.289596
 20
51.327032
 30
0.0
 11
279.289596
 21
41.639532
 31
0.0
  0
LINE
  5
708
330
1F
100
AcDbEntity
  8
002
 62
     3
370
    30
100
AcDbLine
 10
279.289533
 20
41.639782
 30
0.0
 11
279.414571
 21
41.514657
 31
0.0
  0
LINE
  5
709
330
1F
100
AcDbEntity
  8
002
 62
     3
370
    30
100
AcDbLine
 10
279.477096
 20
51.327032
 30
0.0
 11
279.477096
 21
51.764532
 31
0.0
  0
LINE
  5
70A
330
1F
100
AcDbEntity
  8
002
 62
     3
370
    30
100
AcDbLine
 10
278.577058
 20
51.764532
 30
0.0
 11
291.252058
 21
51.764532
 31
0.0
  0
LINE
  5
70B
330
1F
100
AcDbEntity
  8
002
 62
     3
370
    30
100
AcDbLine
 10
291.252058
 20
51.764532
 30
0.0
 11
291.252058
 21
52.014532
 31
0.0
  0
LINE
  5
70C
330
1F
100
AcDbEntity
  8
002
 62
     3
370
    30
100
AcDbLine
 10
291.327058
 20
52.014532
 30
0.0
 11
277.502058
 21
52.014532
 31
0.0
  0
ARC
  5
70D
330
1F
100
AcDbEntity
  8
002
 62
     3
370
    30
100
AcDbCircle
 10
277.502058
 20
52.264532
 30
0.0
 40
0.25
100
AcDbArc
 50
180.0
 51
270.0
  0
LINE
  5
70E
330
1F
100
AcDbEntity
  8
002
 62
     3
370
    30
100
AcDbLine
 10
277.252058
 20
52.264532
 30
0.0
 11
277.252058
 21
53.389532
 31
0.0
  0
ARC
  5
70F
330
1F
100
AcDbEntity
  8
002
 62
     3
370
    30
100
AcDbCircle
 10
277.502058
 20
53.389532
 30
0.0
 40
0.25
100
AcDbArc
 50
90.0
 51
180.0
  0
LINE
  5
710
330
1F
100
AcDbEntity
  8
002
 62
     3
370
    30
100
AcDbLine
 10
277.502058
 20
53.639532
 30
0.0
 11
291.327058
 21
53.639532
 31
0.0
  0
LINE
  5
711
330
1F
100
AcDbEntity
  8
002
 62
     3
370
    30
100
AcDbLine
 10
291.327058
 20
53.639532
 30
0.0
 11
291.327058
 21
52.014532
 31
0.0
  0
LINE
  5
712
330
1F
100
AcDbEntity
  8
002
 62
     3
370
    30
100
AcDbLine
 10
278.577058
 20
51.764532
 30
0.0
 11
278.577058
 21
52.014532
 31
0.0
  0
LINE
  5
713
330
1F
100
AcDbEntity
  8
002
 62
     3
370
    30
100
AcDbLine
 10
278.502058
 20
52.014532
 30
0.0
 11
278.502058
 21
53.639532
 31
0.0
  0
LINE
  5
714
330
1F
100
AcDbEntity
  8
002
 62
     3
370
    30
100
AcDbLine
 10
278.577058
 20
53.639532
 30
0.0
 11
278.577058
 21
53.764532
 31
0.0
  0
LINE
  5
715
330
1F
100
AcDbEntity
  8
002
 62
     3
370
    30
100
AcDbLine
 10
278.577058
 20
53.764532
 30
0.0
 11
291.252058
 21
53.764532
 31
0.0
  0
LINE
  5
716
330
1F
100
AcDbEntity
  8
002
 62
     3
370
    30
100
AcDbLine
 10
291.252058
 20
53.764532
 30
0.0
 11
297.311258
 21
54.266407
 31
0.0
  0
LINE
  5
717
330
1F
100
AcDbEntity
  8
002
 62
     3
370
    30
100
AcDbLine
 10
297.289558
 20
54.389532
 30
0.0
 11
272.539558
 21
54.389532
 31
0.0
  0
LINE
  5
718
330
1F
100
AcDbEntity
  8
002
 62
     3
370
    30
100
AcDbLine
 10
272.517871
 20
54.512657
 30
0.0
 11
276.061258
 21
54.891407
 31
0.0
  0
LINE
  5
719
330
1F
100
AcDbEntity
  8
002
 62
     3
370
    30
100
AcDbLine
 10
276.061258
 20
55.137657
 30
0.0
 11
272.517871
 21
55.516407
 31
0.0
  0
ARC
  5
71A
330
1F
100
AcDbEntity
  8
002
 62
     3
370
    30
100
AcDbCircle
 10
272.539558
 20
55.639532
 30
0.0
 40
0.1250204514519679
100
AcDbArc
 50
99.989728
 51
260.010272
  0
LINE
  5
71B
330
1F
100
AcDbEntity
  8
002
 62
     3
370
    30
100
AcDbLine
 10
272.517871
 20
55.762657
 30
0.0
 11
276.061258
 21
56.141407
 31
0.0
  0
LINE
  5
71C
330
1F
100
AcDbEntity
  8
002
 62
     3
370
    30
100
AcDbLine
 10
276.061258
 20
56.387657
 30
0.0
 11
272.517871
 21
56.766407
 31
0.0
  0
ARC
  5
71D
330
1F
100
AcDbEntity
  8
002
 62
     3
370
    30
100
AcDbCircle
 10
272.539558
 20
56.889532
 30
0.0
 40
0.1250204514519679
100
AcDbArc
 50
99.989728
 51
260.010272
  0
LINE
  5
71E
330
1F
100
AcDbEntity
  8
002
 62
     3
370
    30
100
AcDbLine
 10
272.517871
 20
57.012657
 30
0.0
 11
276.061258
 21
57.391407
 31
0.0
  0
LINE
  5
71F
330
1F
100
AcDbEntity
  8
002
 62
     3
370
    30
100
AcDbLine
 10
276.061258
 20
57.637657
 30
0.0
 11
272.517871
 21
58.016407
 31
0.0
  0
ARC
  5
720
330
1F
100
AcDbEntity
  8
002
 62
     3
370
    30
100
AcDbCircle
 10
272.539558
 20
58.139532
 30
0.0
 40
0.1250204514519679
100
AcDbArc
 50
99.989728
 51
260.010272
  0
LINE
  5
721
330
1F
100
AcDbEntity
  8
002
 62
     3
370
    30
100
AcDbLine
 10
272.517871
 20
58.262657
 30
0.0
 11
276.061258
 21
58.641407
 31
0.0
  0
ARC
  5
722
330
1F
100
AcDbEntity
  8
002
 62
     3
370
    30
100
AcDbCircle
 10
276.039558
 20
58.764532
 30
0.0
 40
0.1250226204532753
100
AcDbArc
 50
279.99537
 51
0.0
  0
LINE
  5
723
330
1F
100
AcDbEntity
  8
002
 62
     3
370
    30
100
AcDbLine
 10
276.289558
 20
58.764532
 30
0.0
 11
293.539558
 21
58.764532
 31
0.0
  0
ARC
  5
724
330
1F
100
AcDbEntity
  8
002
 62
     3
370
    30
100
AcDbCircle
 10
293.789558
 20
58.764532
 30
0.0
 40
0.125
100
AcDbArc
 50
180.0
 51
260.010272
  0
LINE
  5
725
330
1F
100
AcDbEntity
  8
002
 62
     3
370
    30
100
AcDbLine
 10
293.767871
 20
58.641407
 30
0.0
 11
297.311258
 21
58.262657
 31
0.0
  0
ARC
  5
726
330
1F
100
AcDbEntity
  8
002
 62
     3
370
    30
100
AcDbCircle
 10
297.289558
 20
58.139532
 30
0.0
 40
0.1250226204532753
100
AcDbArc
 50
279.99537
 51
80.00463
  0
LINE
  5
727
330
1F
100
AcDbEntity
  8
002
 62
     3
370
    30
100
AcDbLine
 10
297.311258
 20
58.016407
 30
0.0
 11
293.767871
 21
57.637657
 31
0.0
  0
LINE
  5
728
330
1F
100
AcDbEntity
  8
002
 62
     3
370
    30
100
AcDbLine
 10
293.767871
 20
57.391407
 30
0.0
 11
297.311258
 21
57.012657
 31
0.0
  0
ARC
  5
729
330
1F
100
AcDbEntity
  8
002
 62
     3
370
    30
100
AcDbCircle
 10
297.289558
 20
56.889532
 30
0.0
 40
0.1250226204532753
100
AcDbArc
 50
279.99537
 51
80.00463
  0
LINE
  5
72A
330
1F
100
AcDbEntity
  8
002
 62
     3
370
    30
100
AcDbLine
 10
297.311258
 20
56.766407
 30
0.0
 11
293.767871
 21
56.387657
 31
0.0
  0
LINE
  5
72B
330
1F
100
AcDbEntity
  8
002
 62
     3
370
    30
100
AcDbLine
 10
293.767871
 20
56.141407
 30
0.0
 11
297.311258
 21
55.762657
 31
0.0
  0
ARC
  5
72C
330
1F
100
AcDbEntity
  8
002
 62
     3
370
    30
100
AcDbCircle
 10
297.289558
 20
55.639532
 30
0.0
 40
0.1250226204532753
100
AcDbArc
 50
279.99537
 51
80.00463
  0
LINE
  5
72D
330
1F
100
AcDbEntity
  8
002
 62
     3
370
    30
100
AcDbLine
 10
297.311258
 20
55.516407
 30
0.0
 11
293.767871
 21
55.137657
 31
0.0
  0
LINE
  5
72E
330
1F
100
AcDbEntity
  8
002
 62
     3
370
    30
100
AcDbLine
 10
293.767871
 20
54.891407
 30
0.0
 11
297.311258
 21
54.512657
 31
0.0
  0
ARC
  5
72F
330
1F
100
AcDbEntity
  8
002
 62
     3
370
    30
100
AcDbCircle
 10
297.289558
 20
54.389532
 30
0.0
 40
0.1250226204532753
100
AcDbArc
 50
279.99537
 51
80.00463
  0
LINE
  5
730
330
1F
100
AcDbEntity
  8
002
 62
     3
370
    30
100
AcDbLine
 10
297.289558
 20
55.639532
 30
0.0
 11
272.539558
 21
55.639532
 31
0.0
  0
LINE
  5
731
330
1F
100
AcDbEntity
  8
002
 62
     3
370
    30
100
AcDbLine
 10
272.539558
 20
56.889532
 30
0.0
 11
297.289558
 21
56.889532
 31
0.0
  0
LINE
  5
732
330
1F
100
AcDbEntity
  8
002
 62
     3
370
    30
100
AcDbLine
 10
297.289558
 20
58.139532
 30
0.0
 11
272.539558
 21
58.139532
 31
0.0
  0
ARC
  5
733
330
1F
100
AcDbEntity
  8
002
 62
     3
370
    30
100
AcDbCircle
 10
276.039558
 20
57.514532
 30
0.0
 40
0.1250226204532753
100
AcDbArc
 50
279.99537
 51
80.00463
  0
LINE
  5
734
330
1F
100
AcDbEntity
  8
002
 62
     3
370
    30
100
AcDbLine
 10
276.289558
 20
57.514532
 30
0.0
 11
293.539558
 21
57.514532
 31
0.0
  0
ARC
  5
735
330
1F
100
AcDbEntity
  8
002
 62
     3
370
    30
100
AcDbCircle
 10
293.789558
 20
57.514532
 30
0.0
 40
0.1250204514519679
100
AcDbArc
 50
99.989728
 51
260.010272
  0
LINE
  5
736
330
1F
100
AcDbEntity
  8
002
 62
     3
370
    30
100
AcDbLine
 10
293.539558
 20
56.264532
 30
0.0
 11
276.289558
 21
56.264532
 31
0.0
  0
ARC
  5
737
330
1F
100
AcDbEntity
  8
002
 62
     3
370
    30
100
AcDbCircle
 10
276.039558
 20
56.264532
 30
0.0
 40
0.1250226204532753
100
AcDbArc
 50
279.99537
 51
80.00463
  0
ARC
  5
738
330
1F
100
AcDbEntity
  8
002
 62
     3
370
    30
100
AcDbCircle
 10
276.039558
 20
55.014532
 30
0.0
 40
0.1250226204532753
100
AcDbArc
 50
279.99537
 51
80.00463
  0
LINE
  5
739
330
1F
100
AcDbEntity
  8
002
 62
     3
370
    30
100
AcDbLine
 10
276.289558
 20
55.014532
 30
0.0
 11
293.539558
 21
55.014532
 31
0.0
  0
ARC
  5
73A
330
1F
100
AcDbEntity
  8
002
 62
     3
370
    30
100
AcDbCircle
 10
293.789558
 20
55.014532
 30
0.0
 40
0.1250204514519679
100
AcDbArc
 50
99.989728
 51
260.010272
  0
ARC
  5
73B
330
1F
100
AcDbEntity
  8
002
 62
     3
370
    30
100
AcDbCircle
 10
293.789558
 20
56.264532
 30
0.0
 40
0.1250204514519679
100
AcDbArc
 50
99.989728
 51
260.010272
  0
LINE
  5
73C
330
1F
100
AcDbEntity
  8
002
 62
     3
370
    30
100
AcDbLine
 10
291.252058
 20
53.764532
 30
0.0
 11
291.252058
 21
53.639532
 31
0.0
  0
LINE
  5
73D
330
1F
100
AcDbEntity
  8
002
 62
     3
370
    30
100
AcDbLine
 10
290.352083
 20
51.764532
 30
0.0
 11
290.352083
 21
51.327032
 31
0.0
  0
CIRCLE
  5
73E
330
1F
100
AcDbEntity
  8
002
 62
     3
370
    30
100
AcDbCircle
 10
277.877058
 20
52.827032
 30
0.0
 40
0.125
  0
LINE
  5
73F
330
1F
100
AcDbEntity
  8
002
 62
     3
370
    30
100
AcDbLine
 10
278.577058
 20
53.764532
 30
0.0
 11
272.517871
 21
54.266407
 31
0.0
  0
ARC
  5
740
330
1F
100
AcDbEntity
  8
002
 62
     3
370
    30
100
AcDbCircle
 10
272.539558
 20
54.389532
 30
0.0
 40
0.1250204514519679
100
AcDbArc
 50
99.989728
 51
260.010272
  0
LINE
  5
741
330
1F
100
AcDbEntity
  8
002
  6
CENTER
 62
    40
370
     9
100
AcDbLine
 10
277.877058
 20
53.233532
 30
0.0
 11
277.877058
 21
52.388532
 31
0.0
  0
LINE
  5
742
330
1F
100
AcDbEntity
  8
002
  6
CENTER
 62
    40
370
     9
100
AcDbLine
 10
277.581096
 20
52.827032
 30
0.0
 11
278.209233
 21
52.827032
 31
0.0
  0
LINE
  5
743
330
1F
100
AcDbEntity
  8
002
 62
    40
370
     9
100
AcDbLine
 10
279.464583
 20
51.327032
 30
0.0
 11
279.464583
 21
41.514532
 31
0.0
  0
LINE
  5
744
330
1F
100
AcDbEntity
  8
002
 62
    40
370
     9
100
AcDbLine
 10
290.364583
 20
41.514532
 30
0.0
 11
290.352083
 21
51.327032
 31
0.0
  0
LINE
  5
745
330
1F
100
AcDbEntity
  8
002
 62
     3
370
    30
100
AcDbLine
 10
66.455975
 20
374.001173
 30
0.0
 11
66.455975
 21
372.876173
 31
0.0
  0
LINE
  5
746
330
1F
100
AcDbEntity
  8
002
  6
CENTER
 62
    40
370
     9
100
AcDbLine
 10
68.205975
 20
375.001171
 30
0.0
 11
68.205975
 21
371.626173
 31
0.0
  0
LINE
  5
747
330
1F
100
AcDbEntity
  8
002
 62
     3
370
    30
100
AcDbLine
 10
66.455975
 20
374.001173
 30
0.0
 11
52.455975
 21
374.001173
 31
0.0
  0
LINE
  5
748
330
1F
100
AcDbEntity
  8
002
 62
     3
370
    30
100
AcDbLine
 10
52.455975
 20
374.001173
 30
0.0
 11
52.455975
 21
373.442306
 31
0.0
  0
LINE
  5
749
330
1F
100
AcDbEntity
  8
002
 62
     3
370
    30
100
AcDbLine
 10
66.455975
 20
335.251173
 30
0.0
 11
66.455975
 21
336.376173
 31
0.0
  0
LINE
  5
74A
330
1F
100
AcDbEntity
  8
002
 62
     3
370
    30
100
AcDbLine
 10
66.455975
 20
335.251173
 30
0.0
 11
52.455975
 21
335.251173
 31
0.0
  0
LINE
  5
74B
330
1F
100
AcDbEntity
  8
002
 62
     3
370
    30
100
AcDbLine
 10
52.455975
 20
335.251173
 30
0.0
 11
52.455975
 21
335.810039
 31
0.0
  0
LINE
  5
74C
330
1F
100
AcDbEntity
  8
002
  6
CENTER
 62
    40
370
     9
100
AcDbLine
 10
68.205975
 20
334.251174
 30
0.0
 11
68.205975
 21
337.626173
 31
0.0
  0
POLYLINE
  5
74D
330
1F
100
AcDbEntity
  8
002
 62
     3
370
     9
100
AcDb2dPolyline
 66
     1
 10
0.0
 20
0.0
 30
0.0
  0
VERTEX
  5
74F
330
74D
100
AcDbEntity
  8
002
 62
     3
370
     9
100
AcDbVertex
100
AcDb2dVertex
 10
36.330975
 20
179.702032
 30
0.0
  0
VERTEX
  5
750
330
74D
100
AcDbEntity
  8
002
 62
     3
370
     9
100
AcDbVertex
100
AcDb2dVertex
 10
37.893475
 20
178.327032
 30
0.0
  0
VERTEX
  5
751
330
74D
100
AcDbEntity
  8
002
 62
     3
370
     9
100
AcDbVertex
100
AcDb2dVertex
 10
39.455975
 20
177.702032
 30
0.0
  0
VERTEX
  5
752
330
74D
100
AcDbEntity
  8
002
 62
     3
370
     9
100
AcDbVertex
100
AcDb2dVertex
 10
41.018475
 20
178.327032
 30
0.0
  0
VERTEX
  5
753
330
74D
100
AcDbEntity
  8
002
 62
     3
370
     9
100
AcDbVertex
100
AcDb2dVertex
 10
42.580975
 20
179.702032
 30
0.0
  0
VERTEX
  5
754
330
74D
100
AcDbEntity
  8
002
 62
     3
370
     9
100
AcDbVertex
100
AcDb2dVertex
 10
44.143475
 20
181.077032
 30
0.0
  0
VERTEX
  5
755
330
74D
100
AcDbEntity
  8
002
 62
     3
370
     9
100
AcDbVertex
100
AcDb2dVertex
 10
45.705975
 20
181.702032
 30
0.0
  0
VERTEX
  5
756
330
74D
100
AcDbEntity
  8
002
 62
     3
370
     9
100
AcDbVertex
100
AcDb2dVertex
 10
47.268475
 20
181.077032
 30
0.0
  0
VERTEX
  5
757
330
74D
100
AcDbEntity
  8
002
 62
     3
370
     9
100
AcDbVertex
100
AcDb2dVertex
 10
48.830975
 20
179.702032
 30
0.0
  0
SEQEND
  5
74E
330
74D
100
AcDbEntity
  8
002
370
     9
  0
POLYLINE
  5
758
330
1F
100
AcDbEntity
  8
002
 62
     3
370
     9
100
AcDb2dPolyline
 66
     1
 10
0.0
 20
0.0
 30
0.0
  0
VERTEX
  5
75A
330
758
100
AcDbEntity
  8
002
 62
     3
370
     9
100
AcDbVertex
100
AcDb2dVertex
 10
36.330975
 20
183.702032
 30
0.0
  0
VERTEX
  5
75B
330
758
100
AcDbEntity
  8
002
 62
     3
370
     9
100
AcDbVertex
100
AcDb2dVertex
 10
37.893475
 20
182.327032
 30
0.0
  0
VERTEX
  5
75C
330
758
100
AcDbEntity
  8
002
 62
     3
370
     9
100
AcDbVertex
100
AcDb2dVertex
 10
39.455975
 20
181.702032
 30
0.0
  0
VERTEX
  5
75D
330
758
100
AcDbEntity
  8
002
 62
     3
370
     9
100
AcDbVertex
100
AcDb2dVertex
 10
41.018475
 20
182.327032
 30
0.0
  0
VERTEX
  5
75E
330
758
100
AcDbEntity
  8
002
 62
     3
370
     9
100
AcDbVertex
100
AcDb2dVertex
 10
42.580975
 20
183.702032
 30
0.0
  0
VERTEX
  5
75F
330
758
100
AcDbEntity
  8
002
 62
     3
370
     9
100
AcDbVertex
100
AcDb2dVertex
 10
44.143475
 20
185.077032
 30
0.0
  0
VERTEX
  5
760
330
758
100
AcDbEntity
  8
002
 62
     3
370
     9
100
AcDbVertex
100
AcDb2dVertex
 10
45.705975
 20
185.702032
 30
0.0
  0
VERTEX
  5
761
330
758
100
AcDbEntity
  8
002
 62
     3
370
     9
100
AcDbVertex
100
AcDb2dVertex
 10
47.268475
 20
185.077032
 30
0.0
  0
VERTEX
  5
762
330
758
100
AcDbEntity
  8
002
 62
     3
370
     9
100
AcDbVertex
100
AcDb2dVertex
 10
48.830975
 20
183.702032
 30
0.0
  0
SEQEND
  5
759
330
758
100
AcDbEntity
  8
002
370
     9
  0
LINE
  5
763
330
1F
100
AcDbEntity
  8
002
 62
     3
370
    30
100
AcDbLine
 10
48.830975
 20
161.514532
 30
0.0
 11
48.830975
 21
179.702032
 31
0.0
  0
LINE
  5
764
330
1F
100
AcDbEntity
  8
002
 62
     3
370
    30
100
AcDbLine
 10
48.830975
 20
183.702032
 30
0.0
 11
48.830975
 21
201.889532
 31
0.0
  0
LINE
  5
765
330
1F
100
AcDbEntity
  8
002
 62
     3
370
    30
100
AcDbLine
 10
36.330975
 20
201.889532
 30
0.0
 11
36.330975
 21
183.702032
 31
0.0
  0
LINE
  5
766
330
1F
100
AcDbEntity
  8
002
 62
     3
370
    30
100
AcDbLine
 10
36.330975
 20
179.702032
 30
0.0
 11
36.330975
 21
161.514532
 31
0.0
  0
LINE
  5
767
330
1F
100
AcDbEntity
  8
002
 62
    40
370
     9
100
AcDbLine
 10
37.062475
 20
190.639407
 30
0.0
 11
37.062475
 21
183.012618
 31
0.0
  0
LINE
  5
768
330
1F
100
AcDbEntity
  8
002
 62
    40
370
     9
100
AcDbLine
 10
37.062475
 20
179.012618
 30
0.0
 11
37.062475
 21
161.514532
 31
0.0
  0
LINE
  5
769
330
1F
100
AcDbEntity
  8
002
 62
    40
370
     9
100
AcDbLine
 10
48.099475
 20
161.514532
 30
0.0
 11
48.099475
 21
180.391445
 31
0.0
  0
LINE
  5
76A
330
1F
100
AcDbEntity
  8
002
 62
    40
370
     9
100
AcDbLine
 10
48.099475
 20
184.391445
 30
0.0
 11
48.099475
 21
190.639407
 31
0.0
  0
POLYLINE
  5
76B
330
1F
100
AcDbEntity
  8
002
 62
     3
370
     9
100
AcDb2dPolyline
 66
     1
 10
0.0
 20
0.0
 30
0.0
  0
VERTEX
  5
76D
330
76B
100
AcDbEntity
  8
002
 62
     3
370
     9
100
AcDbVertex
100
AcDb2dVertex
 10
52.905975
 20
68.514532
 30
0.0
  0
VERTEX
  5
76E
330
76B
100
AcDbEntity
  8
002
 62
     3
370
     9
100
AcDbVertex
100
AcDb2dVertex
 10
50.324725
 20
69.889532
 30
0.0
  0
VERTEX
  5
76F
330
76B
100
AcDbEntity
  8
002
 62
     3
370
     9
100
AcDbVertex
100
AcDb2dVertex
 10
47.743475
 20
70.514532
 30
0.0
  0
VERTEX
  5
770
330
76B
100
AcDbEntity
  8
002
 62
     3
370
     9
100
AcDbVertex
100
AcDb2dVertex
 10
45.162225
 20
69.889532
 30
0.0
  0
VERTEX
  5
771
330
76B
100
AcDbEntity
  8
002
 62
     3
370
     9
100
AcDbVertex
100
AcDb2dVertex
 10
42.580975
 20
68.514532
 30
0.0
  0
VERTEX
  5
772
330
76B
100
AcDbEntity
  8
002
 62
     3
370
     9
100
AcDbVertex
100
AcDb2dVertex
 10
39.999725
 20
67.139532
 30
0.0
  0
VERTEX
  5
773
330
76B
100
AcDbEntity
  8
002
 62
     3
370
     9
100
AcDbVertex
100
AcDb2dVertex
 10
37.418475
 20
66.514532
 30
0.0
  0
VERTEX
  5
774
330
76B
100
AcDbEntity
  8
002
 62
     3
370
     9
100
AcDbVertex
100
AcDb2dVertex
 10
34.837225
 20
67.139532
 30
0.0
  0
VERTEX
  5
775
330
76B
100
AcDbEntity
  8
002
 62
     3
370
     9
100
AcDbVertex
100
AcDb2dVertex
 10
32.255975
 20
68.514532
 30
0.0
  0
SEQEND
  5
76C
330
76B
100
AcDbEntity
  8
002
370
     9
  0
POLYLINE
  5
776
330
1F
100
AcDbEntity
  8
002
 62
     3
370
     9
100
AcDb2dPolyline
 66
     1
 10
0.0
 20
0.0
 30
0.0
  0
VERTEX
  5
778
330
776
100
AcDbEntity
  8
002
 62
     3
370
     9
100
AcDbVertex
100
AcDb2dVertex
 10
52.905975
 20
64.514532
 30
0.0
  0
VERTEX
  5
779
330
776
100
AcDbEntity
  8
002
 62
     3
370
     9
100
AcDbVertex
100
AcDb2dVertex
 10
50.324725
 20
65.889532
 30
0.0
  0
VERTEX
  5
77A
330
776
100
AcDbEntity
  8
002
 62
     3
370
     9
100
AcDbVertex
100
AcDb2dVertex
 10
47.743475
 20
66.514532
 30
0.0
  0
VERTEX
  5
77B
330
776
100
AcDbEntity
  8
002
 62
     3
370
     9
100
AcDbVertex
100
AcDb2dVertex
 10
45.162225
 20
65.889532
 30
0.0
  0
VERTEX
  5
77C
330
776
100
AcDbEntity
  8
002
 62
     3
370
     9
100
AcDbVertex
100
AcDb2dVertex
 10
42.580975
 20
64.514532
 30
0.0
  0
VERTEX
  5
77D
330
776
100
AcDbEntity
  8
002
 62
     3
370
     9
100
AcDbVertex
100
AcDb2dVertex
 10
39.999725
 20
63.139532
 30
0.0
  0
VERTEX
  5
77E
330
776
100
AcDbEntity
  8
002
 62
     3
370
     9
100
AcDbVertex
100
AcDb2dVertex
 10
37.418475
 20
62.514532
 30
0.0
  0
VERTEX
  5
77F
330
776
100
AcDbEntity
  8
002
 62
     3
370
     9
100
AcDbVertex
100
AcDb2dVertex
 10
34.837225
 20
63.139532
 30
0.0
  0
VERTEX
  5
780
330
776
100
AcDbEntity
  8
002
 62
     3
370
     9
100
AcDbVertex
100
AcDb2dVertex
 10
32.255975
 20
64.514532
 30
0.0
  0
SEQEND
  5
777
330
776
100
AcDbEntity
  8
002
370
     9
  0
LINE
  5
781
330
1F
100
AcDbEntity
  8
002
 62
     3
370
    30
100
AcDbLine
 10
52.905975
 20
90.889532
 30
0.0
 11
52.905975
 21
68.514532
 31
0.0
  0
LINE
  5
782
330
1F
100
AcDbEntity
  8
002
 62
     3
370
    30
100
AcDbLine
 10
52.905975
 20
64.514532
 30
0.0
 11
52.905975
 21
42.139532
 31
0.0
  0
LINE
  5
783
330
1F
100
AcDbEntity
  8
002
 62
     3
370
    30
100
AcDbLine
 10
32.255975
 20
42.139532
 30
0.0
 11
32.255975
 21
64.514532
 31
0.0
  0
LINE
  5
784
330
1F
100
AcDbEntity
  8
002
 62
     3
370
    30
100
AcDbLine
 10
32.255975
 20
68.514532
 30
0.0
 11
32.255975
 21
90.889532
 31
0.0
  0
POLYLINE
  5
785
330
1F
100
AcDbEntity
  8
002
 62
     3
370
     9
100
AcDb2dPolyline
 66
     1
 10
0.0
 20
0.0
 30
0.0
  0
VERTEX
  5
787
330
785
100
AcDbEntity
  8
002
 62
     3
370
     9
100
AcDbVertex
100
AcDb2dVertex
 10
136.432229
 20
64.514532
 30
0.0
  0
VERTEX
  5
788
330
785
100
AcDbEntity
  8
002
 62
     3
370
     9
100
AcDbVertex
100
AcDb2dVertex
 10
139.013479
 20
63.139532
 30
0.0
  0
VERTEX
  5
789
330
785
100
AcDbEntity
  8
002
 62
     3
370
     9
100
AcDbVertex
100
AcDb2dVertex
 10
141.594729
 20
62.514532
 30
0.0
  0
VERTEX
  5
78A
330
785
100
AcDbEntity
  8
002
 62
     3
370
     9
100
AcDbVertex
100
AcDb2dVertex
 10
144.175979
 20
63.139532
 30
0.0
  0
VERTEX
  5
78B
330
785
100
AcDbEntity
  8
002
 62
     3
370
     9
100
AcDbVertex
100
AcDb2dVertex
 10
146.757229
 20
64.514532
 30
0.0
  0
VERTEX
  5
78C
330
785
100
AcDbEntity
  8
002
 62
     3
370
     9
100
AcDbVertex
100
AcDb2dVertex
 10
149.338479
 20
65.889532
 30
0.0
  0
VERTEX
  5
78D
330
785
100
AcDbEntity
  8
002
 62
     3
370
     9
100
AcDbVertex
100
AcDb2dVertex
 10
151.919729
 20
66.514532
 30
0.0
  0
VERTEX
  5
78E
330
785
100
AcDbEntity
  8
002
 62
     3
370
     9
100
AcDbVertex
100
AcDb2dVertex
 10
154.500979
 20
65.889532
 30
0.0
  0
VERTEX
  5
78F
330
785
100
AcDbEntity
  8
002
 62
     3
370
     9
100
AcDbVertex
100
AcDb2dVertex
 10
157.082229
 20
64.514532
 30
0.0
  0
SEQEND
  5
786
330
785
100
AcDbEntity
  8
002
370
     9
  0
POLYLINE
  5
790
330
1F
100
AcDbEntity
  8
002
 62
     3
370
     9
100
AcDb2dPolyline
 66
     1
 10
0.0
 20
0.0
 30
0.0
  0
VERTEX
  5
792
330
790
100
AcDbEntity
  8
002
 62
     3
370
     9
100
AcDbVertex
100
AcDb2dVertex
 10
136.432229
 20
68.514532
 30
0.0
  0
VERTEX
  5
793
330
790
100
AcDbEntity
  8
002
 62
     3
370
     9
100
AcDbVertex
100
AcDb2dVertex
 10
139.013479
 20
67.139532
 30
0.0
  0
VERTEX
  5
794
330
790
100
AcDbEntity
  8
002
 62
     3
370
     9
100
AcDbVertex
100
AcDb2dVertex
 10
141.594729
 20
66.514532
 30
0.0
  0
VERTEX
  5
795
330
790
100
AcDbEntity
  8
002
 62
     3
370
     9
100
AcDbVertex
100
AcDb2dVertex
 10
144.175979
 20
67.139532
 30
0.0
  0
VERTEX
  5
796
330
790
100
AcDbEntity
  8
002
 62
     3
370
     9
100
AcDbVertex
100
AcDb2dVertex
 10
146.757229
 20
68.514532
 30
0.0
  0
VERTEX
  5
797
330
790
100
AcDbEntity
  8
002
 62
     3
370
     9
100
AcDbVertex
100
AcDb2dVertex
 10
149.338479
 20
69.889532
 30
0.0
  0
VERTEX
  5
798
330
790
100
AcDbEntity
  8
002
 62
     3
370
     9
100
AcDbVertex
100
AcDb2dVertex
 10
151.919729
 20
70.514532
 30
0.0
  0
VERTEX
  5
799
330
790
100
AcDbEntity
  8
002
 62
     3
370
     9
100
AcDbVertex
100
AcDb2dVertex
 10
154.500979
 20
69.889532
 30
0.0
  0
VERTEX
  5
79A
330
790
100
AcDbEntity
  8
002
 62
     3
370
     9
100
AcDbVertex
100
AcDb2dVertex
 10
157.082229
 20
68.514532
 30
0.0
  0
SEQEND
  5
791
330
790
100
AcDbEntity
  8
002
370
     9
  0
LINE
  5
79B
330
1F
100
AcDbEntity
  8
002
 62
     3
370
    30
100
AcDbLine
 10
157.082229
 20
90.889532
 30
0.0
 11
157.082229
 21
68.514532
 31
0.0
  0
LINE
  5
79C
330
1F
100
AcDbEntity
  8
002
 62
     3
370
    30
100
AcDbLine
 10
157.082229
 20
64.514532
 30
0.0
 11
157.082229
 21
42.139532
 31
0.0
  0
LINE
  5
79D
330
1F
100
AcDbEntity
  8
002
 62
     3
370
    30
100
AcDbLine
 10
136.432229
 20
42.139532
 30
0.0
 11
136.432229
 21
64.514532
 31
0.0
  0
LINE
  5
79E
330
1F
100
AcDbEntity
  8
002
 62
     3
370
    30
100
AcDbLine
 10
136.432229
 20
68.514532
 30
0.0
 11
136.432229
 21
90.889532
 31
0.0
  0
POLYLINE
  5
79F
330
1F
100
AcDbEntity
  8
002
 62
     3
370
     9
100
AcDb2dPolyline
 66
     1
 10
0.0
 20
0.0
 30
0.0
  0
VERTEX
  5
7A1
330
79F
100
AcDbEntity
  8
002
 62
     3
370
     9
100
AcDbVertex
100
AcDb2dVertex
 10
200.867183
 20
70.264532
 30
0.0
  0
VERTEX
  5
7A2
330
79F
100
AcDbEntity
  8
002
 62
     3
370
     9
100
AcDbVertex
100
AcDb2dVertex
 10
202.429683
 20
68.889532
 30
0.0
  0
VERTEX
  5
7A3
330
79F
100
AcDbEntity
  8
002
 62
     3
370
     9
100
AcDbVertex
100
AcDb2dVertex
 10
203.992183
 20
68.264532
 30
0.0
  0
VERTEX
  5
7A4
330
79F
100
AcDbEntity
  8
002
 62
     3
370
     9
100
AcDbVertex
100
AcDb2dVertex
 10
205.554683
 20
68.889532
 30
0.0
  0
VERTEX
  5
7A5
330
79F
100
AcDbEntity
  8
002
 62
     3
370
     9
100
AcDbVertex
100
AcDb2dVertex
 10
207.117183
 20
70.264532
 30
0.0
  0
VERTEX
  5
7A6
330
79F
100
AcDbEntity
  8
002
 62
     3
370
     9
100
AcDbVertex
100
AcDb2dVertex
 10
208.679683
 20
71.639532
 30
0.0
  0
VERTEX
  5
7A7
330
79F
100
AcDbEntity
  8
002
 62
     3
370
     9
100
AcDbVertex
100
AcDb2dVertex
 10
210.242183
 20
72.264532
 30
0.0
  0
VERTEX
  5
7A8
330
79F
100
AcDbEntity
  8
002
 62
     3
370
     9
100
AcDbVertex
100
AcDb2dVertex
 10
211.804683
 20
71.639532
 30
0.0
  0
VERTEX
  5
7A9
330
79F
100
AcDbEntity
  8
002
 62
     3
370
     9
100
AcDbVertex
100
AcDb2dVertex
 10
213.367183
 20
70.264532
 30
0.0
  0
SEQEND
  5
7A0
330
79F
100
AcDbEntity
  8
002
370
     9
  0
POLYLINE
  5
7AA
330
1F
100
AcDbEntity
  8
002
 62
     3
370
     9
100
AcDb2dPolyline
 66
     1
 10
0.0
 20
0.0
 30
0.0
  0
VERTEX
  5
7AC
330
7AA
100
AcDbEntity
  8
002
 62
     3
370
     9
100
AcDbVertex
100
AcDb2dVertex
 10
200.867183
 20
74.264532
 30
0.0
  0
VERTEX
  5
7AD
330
7AA
100
AcDbEntity
  8
002
 62
     3
370
     9
100
AcDbVertex
100
AcDb2dVertex
 10
202.429683
 20
72.889532
 30
0.0
  0
VERTEX
  5
7AE
330
7AA
100
AcDbEntity
  8
002
 62
     3
370
     9
100
AcDbVertex
100
AcDb2dVertex
 10
203.992183
 20
72.264532
 30
0.0
  0
VERTEX
  5
7AF
330
7AA
100
AcDbEntity
  8
002
 62
     3
370
     9
100
AcDbVertex
100
AcDb2dVertex
 10
205.554683
 20
72.889532
 30
0.0
  0
VERTEX
  5
7B0
330
7AA
100
AcDbEntity
  8
002
 62
     3
370
     9
100
AcDbVertex
100
AcDb2dVertex
 10
207.117183
 20
74.264532
 30
0.0
  0
VERTEX
  5
7B1
330
7AA
100
AcDbEntity
  8
002
 62
     3
370
     9
100
AcDbVertex
100
AcDb2dVertex
 10
208.679683
 20
75.639532
 30
0.0
  0
VERTEX
  5
7B2
330
7AA
100
AcDbEntity
  8
002
 62
     3
370
     9
100
AcDbVertex
100
AcDb2dVertex
 10
210.242183
 20
76.264532
 30
0.0
  0
VERTEX
  5
7B3
330
7AA
100
AcDbEntity
  8
002
 62
     3
370
     9
100
AcDbVertex
100
AcDb2dVertex
 10
211.804683
 20
75.639532
 30
0.0
  0
VERTEX
  5
7B4
330
7AA
100
AcDbEntity
  8
002
 62
     3
370
     9
100
AcDbVertex
100
AcDb2dVertex
 10
213.367183
 20
74.264532
 30
0.0
  0
SEQEND
  5
7AB
330
7AA
100
AcDbEntity
  8
002
370
     9
  0
LINE
  5
7B5
330
1F
100
AcDbEntity
  8
002
 62
     3
370
    30
100
AcDbLine
 10
213.367183
 20
52.389532
 30
0.0
 11
213.367183
 21
70.264532
 31
0.0
  0
LINE
  5
7B6
330
1F
100
AcDbEntity
  8
002
 62
     3
370
    30
100
AcDbLine
 10
213.367183
 20
74.264532
 30
0.0
 11
213.367183
 21
92.139532
 31
0.0
  0
LINE
  5
7B7
330
1F
100
AcDbEntity
  8
002
 62
     3
370
    30
100
AcDbLine
 10
200.867183
 20
92.139532
 30
0.0
 11
200.867183
 21
74.264532
 31
0.0
  0
LINE
  5
7B8
330
1F
100
AcDbEntity
  8
002
 62
     3
370
    30
100
AcDbLine
 10
200.867183
 20
70.264532
 30
0.0
 11
200.867183
 21
52.389532
 31
0.0
  0
LINE
  5
7B9
330
1F
100
AcDbEntity
  8
002
 62
    40
370
     9
100
AcDbLine
 10
212.635683
 20
92.139532
 30
0.0
 11
212.635683
 21
74.953945
 31
0.0
  0
LINE
  5
7BA
330
1F
100
AcDbEntity
  8
002
 62
    40
370
     9
100
AcDbLine
 10
212.635683
 20
70.953945
 30
0.0
 11
212.635683
 21
63.639657
 31
0.0
  0
LINE
  5
7BB
330
1F
100
AcDbEntity
  8
002
 62
    40
370
     9
100
AcDbLine
 10
201.598683
 20
63.639657
 30
0.0
 11
201.598683
 21
69.575118
 31
0.0
  0
LINE
  5
7BC
330
1F
100
AcDbEntity
  8
002
 62
    40
370
     9
100
AcDbLine
 10
201.598683
 20
73.575118
 30
0.0
 11
201.598683
 21
92.139532
 31
0.0
  0
POLYLINE
  5
7BD
330
1F
100
AcDbEntity
  8
002
 62
     3
370
     9
100
AcDb2dPolyline
 66
     1
 10
0.0
 20
0.0
 30
0.0
  0
VERTEX
  5
7BF
330
7BD
100
AcDbEntity
  8
002
 62
     3
370
     9
100
AcDbVertex
100
AcDb2dVertex
 10
196.792183
 20
189.202032
 30
0.0
  0
VERTEX
  5
7C0
330
7BD
100
AcDbEntity
  8
002
 62
     3
370
     9
100
AcDbVertex
100
AcDb2dVertex
 10
199.373433
 20
187.827032
 30
0.0
  0
VERTEX
  5
7C1
330
7BD
100
AcDbEntity
  8
002
 62
     3
370
     9
100
AcDbVertex
100
AcDb2dVertex
 10
201.954683
 20
187.202032
 30
0.0
  0
VERTEX
  5
7C2
330
7BD
100
AcDbEntity
  8
002
 62
     3
370
     9
100
AcDbVertex
100
AcDb2dVertex
 10
204.535933
 20
187.827032
 30
0.0
  0
VERTEX
  5
7C3
330
7BD
100
AcDbEntity
  8
002
 62
     3
370
     9
100
AcDbVertex
100
AcDb2dVertex
 10
207.117183
 20
189.202032
 30
0.0
  0
VERTEX
  5
7C4
330
7BD
100
AcDbEntity
  8
002
 62
     3
370
     9
100
AcDbVertex
100
AcDb2dVertex
 10
209.698433
 20
190.577032
 30
0.0
  0
VERTEX
  5
7C5
330
7BD
100
AcDbEntity
  8
002
 62
     3
370
     9
100
AcDbVertex
100
AcDb2dVertex
 10
212.279683
 20
191.202032
 30
0.0
  0
VERTEX
  5
7C6
330
7BD
100
AcDbEntity
  8
002
 62
     3
370
     9
100
AcDbVertex
100
AcDb2dVertex
 10
214.860933
 20
190.577032
 30
0.0
  0
VERTEX
  5
7C7
330
7BD
100
AcDbEntity
  8
002
 62
     3
370
     9
100
AcDbVertex
100
AcDb2dVertex
 10
217.442183
 20
189.202032
 30
0.0
  0
SEQEND
  5
7BE
330
7BD
100
AcDbEntity
  8
002
370
     9
  0
POLYLINE
  5
7C8
330
1F
100
AcDbEntity
  8
002
 62
     3
370
     9
100
AcDb2dPolyline
 66
     1
 10
0.0
 20
0.0
 30
0.0
  0
VERTEX
  5
7CA
330
7C8
100
AcDbEntity
  8
002
 62
     3
370
     9
100
AcDbVertex
100
AcDb2dVertex
 10
196.792183
 20
193.202032
 30
0.0
  0
VERTEX
  5
7CB
330
7C8
100
AcDbEntity
  8
002
 62
     3
370
     9
100
AcDbVertex
100
AcDb2dVertex
 10
199.373433
 20
191.827032
 30
0.0
  0
VERTEX
  5
7CC
330
7C8
100
AcDbEntity
  8
002
 62
     3
370
     9
100
AcDbVertex
100
AcDb2dVertex
 10
201.954683
 20
191.202032
 30
0.0
  0
VERTEX
  5
7CD
330
7C8
100
AcDbEntity
  8
002
 62
     3
370
     9
100
AcDbVertex
100
AcDb2dVertex
 10
204.535933
 20
191.827032
 30
0.0
  0
VERTEX
  5
7CE
330
7C8
100
AcDbEntity
  8
002
 62
     3
370
     9
100
AcDbVertex
100
AcDb2dVertex
 10
207.117183
 20
193.202032
 30
0.0
  0
VERTEX
  5
7CF
330
7C8
100
AcDbEntity
  8
002
 62
     3
370
     9
100
AcDbVertex
100
AcDb2dVertex
 10
209.698433
 20
194.577032
 30
0.0
  0
VERTEX
  5
7D0
330
7C8
100
AcDbEntity
  8
002
 62
     3
370
     9
100
AcDbVertex
100
AcDb2dVertex
 10
212.279683
 20
195.202032
 30
0.0
  0
VERTEX
  5
7D1
330
7C8
100
AcDbEntity
  8
002
 62
     3
370
     9
100
AcDbVertex
100
AcDb2dVertex
 10
214.860933
 20
194.577032
 30
0.0
  0
VERTEX
  5
7D2
330
7C8
100
AcDbEntity
  8
002
 62
     3
370
     9
100
AcDbVertex
100
AcDb2dVertex
 10
217.442183
 20
193.202032
 30
0.0
  0
SEQEND
  5
7C9
330
7C8
100
AcDbEntity
  8
002
370
     9
  0
LINE
  5
7D3
330
1F
100
AcDbEntity
  8
002
 62
     3
370
    30
100
AcDbLine
 10
196.792183
 20
162.764532
 30
0.0
 11
196.792183
 21
189.202032
 31
0.0
  0
LINE
  5
7D4
330
1F
100
AcDbEntity
  8
002
 62
     3
370
    30
100
AcDbLine
 10
196.792183
 20
193.202032
 30
0.0
 11
196.792183
 21
219.639532
 31
0.0
  0
LINE
  5
7D5
330
1F
100
AcDbEntity
  8
002
 62
     3
370
    30
100
AcDbLine
 10
217.442183
 20
219.639532
 30
0.0
 11
217.442183
 21
193.202032
 31
0.0
  0
LINE
  5
7D6
330
1F
100
AcDbEntity
  8
002
 62
     3
370
    30
100
AcDbLine
 10
217.442183
 20
189.202032
 30
0.0
 11
217.442183
 21
162.764532
 31
0.0
  0
POLYLINE
  5
7D7
330
1F
100
AcDbEntity
  8
002
 62
     3
370
     9
100
AcDb2dPolyline
 66
     1
 10
0.0
 20
0.0
 30
0.0
  0
VERTEX
  5
7D9
330
7D7
100
AcDbEntity
  8
002
 62
     3
370
     9
100
AcDbVertex
100
AcDb2dVertex
 10
274.589558
 20
189.202032
 30
0.0
  0
VERTEX
  5
7DA
330
7D7
100
AcDbEntity
  8
002
 62
     3
370
     9
100
AcDbVertex
100
AcDb2dVertex
 10
277.170808
 20
187.827032
 30
0.0
  0
VERTEX
  5
7DB
330
7D7
100
AcDbEntity
  8
002
 62
     3
370
     9
100
AcDbVertex
100
AcDb2dVertex
 10
279.752058
 20
187.202032
 30
0.0
  0
VERTEX
  5
7DC
330
7D7
100
AcDbEntity
  8
002
 62
     3
370
     9
100
AcDbVertex
100
AcDb2dVertex
 10
282.333308
 20
187.827032
 30
0.0
  0
VERTEX
  5
7DD
330
7D7
100
AcDbEntity
  8
002
 62
     3
370
     9
100
AcDbVertex
100
AcDb2dVertex
 10
284.914558
 20
189.202032
 30
0.0
  0
VERTEX
  5
7DE
330
7D7
100
AcDbEntity
  8
002
 62
     3
370
     9
100
AcDbVertex
100
AcDb2dVertex
 10
287.495808
 20
190.577032
 30
0.0
  0
VERTEX
  5
7DF
330
7D7
100
AcDbEntity
  8
002
 62
     3
370
     9
100
AcDbVertex
100
AcDb2dVertex
 10
290.077058
 20
191.202032
 30
0.0
  0
VERTEX
  5
7E0
330
7D7
100
AcDbEntity
  8
002
 62
     3
370
     9
100
AcDbVertex
100
AcDb2dVertex
 10
292.658308
 20
190.577032
 30
0.0
  0
VERTEX
  5
7E1
330
7D7
100
AcDbEntity
  8
002
 62
     3
370
     9
100
AcDbVertex
100
AcDb2dVertex
 10
295.239558
 20
189.202032
 30
0.0
  0
SEQEND
  5
7D8
330
7D7
100
AcDbEntity
  8
002
370
     9
  0
POLYLINE
  5
7E2
330
1F
100
AcDbEntity
  8
002
 62
     3
370
     9
100
AcDb2dPolyline
 66
     1
 10
0.0
 20
0.0
 30
0.0
  0
VERTEX
  5
7E4
330
7E2
100
AcDbEntity
  8
002
 62
     3
370
     9
100
AcDbVertex
100
AcDb2dVertex
 10
274.589558
 20
193.202032
 30
0.0
  0
VERTEX
  5
7E5
330
7E2
100
AcDbEntity
  8
002
 62
     3
370
     9
100
AcDbVertex
100
AcDb2dVertex
 10
277.170808
 20
191.827032
 30
0.0
  0
VERTEX
  5
7E6
330
7E2
100
AcDbEntity
  8
002
 62
     3
370
     9
100
AcDbVertex
100
AcDb2dVertex
 10
279.752058
 20
191.202032
 30
0.0
  0
VERTEX
  5
7E7
330
7E2
100
AcDbEntity
  8
002
 62
     3
370
     9
100
AcDbVertex
100
AcDb2dVertex
 10
282.333308
 20
191.827032
 30
0.0
  0
VERTEX
  5
7E8
330
7E2
100
AcDbEntity
  8
002
 62
     3
370
     9
100
AcDbVertex
100
AcDb2dVertex
 10
284.914558
 20
193.202032
 30
0.0
  0
VERTEX
  5
7E9
330
7E2
100
AcDbEntity
  8
002
 62
     3
370
     9
100
AcDbVertex
100
AcDb2dVertex
 10
287.495808
 20
194.577032
 30
0.0
  0
VERTEX
  5
7EA
330
7E2
100
AcDbEntity
  8
002
 62
     3
370
     9
100
AcDbVertex
100
AcDb2dVertex
 10
290.077058
 20
195.202032
 30
0.0
  0
VERTEX
  5
7EB
330
7E2
100
AcDbEntity
  8
002
 62
     3
370
     9
100
AcDbVertex
100
AcDb2dVertex
 10
292.658308
 20
194.577032
 30
0.0
  0
VERTEX
  5
7EC
330
7E2
100
AcDbEntity
  8
002
 62
     3
370
     9
100
AcDbVertex
100
AcDb2dVertex
 10
295.239558
 20
193.202032
 30
0.0
  0
SEQEND
  5
7E3
330
7E2
100
AcDbEntity
  8
002
370
     9
  0
LINE
  5
7ED
330
1F
100
AcDbEntity
  8
002
 62
     3
370
    30
100
AcDbLine
 10
274.589558
 20
162.764532
 30
0.0
 11
274.589558
 21
189.202032
 31
0.0
  0
LINE
  5
7EE
330
1F
100
AcDbEntity
  8
002
 62
     3
370
    30
100
AcDbLine
 10
274.589558
 20
193.202032
 30
0.0
 11
274.589558
 21
219.639532
 31
0.0
  0
LINE
  5
7EF
330
1F
100
AcDbEntity
  8
002
 62
     3
370
    30
100
AcDbLine
 10
295.239558
 20
219.639532
 30
0.0
 11
295.239558
 21
193.202032
 31
0.0
  0
LINE
  5
7F0
330
1F
100
AcDbEntity
  8
002
 62
     3
370
    30
100
AcDbLine
 10
295.239558
 20
189.202032
 30
0.0
 11
295.239558
 21
162.764532
 31
0.0
  0
LINE
  5
7F1
330
1F
100
AcDbEntity
  8
002
  6
CENTER
 62
    40
370
     9
100
AcDbLine
 10
42.580975
 20
215.314982
 30
0.0
 11
42.580975
 21
38.462239
 31
0.0
  0
LINE
  5
7F2
330
1F
100
AcDbEntity
  8
002
  6
CENTER
 62
    40
370
     9
100
AcDbLine
 10
146.757229
 20
213.942305
 30
0.0
 11
146.757229
 21
39.508022
 31
0.0
  0
LINE
  5
7F3
330
1F
100
AcDbEntity
  8
002
  6
CENTER
 62
    40
370
     9
100
AcDbLine
 10
207.117183
 20
40.786489
 30
0.0
 11
207.117183
 21
221.458434
 31
0.0
  0
LINE
  5
7F4
330
1F
100
AcDbEntity
  8
002
  6
CENTER
 62
    40
370
     9
100
AcDbLine
 10
284.914558
 20
40.786489
 30
0.0
 11
284.914558
 21
221.458434
 31
0.0
  0
CIRCLE
  5
7F5
330
1F
100
AcDbEntity
  8
002
  6
CENTER
 62
    40
370
     9
100
AcDbCircle
 10
59.455975
 20
107.139532
 30
0.0
 40
8.75
  0
LINE
  5
7F6
330
1F
100
AcDbEntity
  8
002
  6
CENTER
 62
    40
370
     9
100
AcDbLine
 10
64.759225
 20
101.836282
 30
0.0
 11
66.526975
 21
100.068532
 31
0.0
  0
LINE
  5
7F7
330
1F
100
AcDbEntity
  8
002
  6
CENTER
 62
    40
370
     9
100
AcDbLine
 10
66.526975
 20
114.210657
 30
0.0
 11
64.759225
 21
112.442907
 31
0.0
  0
LINE
  5
7F8
330
1F
100
AcDbEntity
  8
002
  6
CENTER
 62
    40
370
     9
100
AcDbLine
 10
54.1526
 20
112.442907
 30
0.0
 11
52.38485
 21
114.210657
 31
0.0
  0
LINE
  5
7F9
330
1F
100
AcDbEntity
  8
002
  6
CENTER
 62
    40
370
     9
100
AcDbLine
 10
54.1526
 20
101.836282
 30
0.0
 11
52.38485
 21
100.068532
 31
0.0
  0
CIRCLE
  5
7FA
330
1F
100
AcDbEntity
  8
002
 62
     3
370
    30
100
AcDbCircle
 10
59.455975
 20
107.139532
 30
0.0
 40
7.0
  0
CIRCLE
  5
7FB
330
1F
100
AcDbEntity
  8
002
  6
CENTER
 62
    40
370
     9
100
AcDbCircle
 10
163.632229
 20
107.139532
 30
0.0
 40
8.75
  0
LINE
  5
7FC
330
1F
100
AcDbEntity
  8
002
  6
CENTER
 62
    40
370
     9
100
AcDbLine
 10
168.935479
 20
101.836282
 30
0.0
 11
170.703229
 21
100.068532
 31
0.0
  0
LINE
  5
7FD
330
1F
100
AcDbEntity
  8
002
  6
CENTER
 62
    40
370
     9
100
AcDbLine
 10
170.703229
 20
114.210657
 30
0.0
 11
168.935479
 21
112.442907
 31
0.0
  0
LINE
  5
7FE
330
1F
100
AcDbEntity
  8
002
  6
CENTER
 62
    40
370
     9
100
AcDbLine
 10
158.328854
 20
112.442907
 30
0.0
 11
156.561104
 21
114.210657
 31
0.0
  0
LINE
  5
7FF
330
1F
100
AcDbEntity
  8
002
  6
CENTER
 62
    40
370
     9
100
AcDbLine
 10
158.328854
 20
101.836282
 30
0.0
 11
156.561104
 21
100.068532
 31
0.0
  0
CIRCLE
  5
800
330
1F
100
AcDbEntity
  8
002
 62
     3
370
    30
100
AcDbCircle
 10
163.632229
 20
107.139532
 30
0.0
 40
7.0
  0
CIRCLE
  5
801
330
1F
100
AcDbEntity
  8
002
  6
CENTER
 62
    40
370
     9
100
AcDbCircle
 10
223.992183
 20
107.139532
 30
0.0
 40
8.75
  0
LINE
  5
802
330
1F
100
AcDbEntity
  8
002
  6
CENTER
 62
    40
370
     9
100
AcDbLine
 10
229.295433
 20
101.836282
 30
0.0
 11
231.063183
 21
100.068532
 31
0.0
  0
LINE
  5
803
330
1F
100
AcDbEntity
  8
002
  6
CENTER
 62
    40
370
     9
100
AcDbLine
 10
231.063183
 20
114.210657
 30
0.0
 11
229.295433
 21
112.442907
 31
0.0
  0
LINE
  5
804
330
1F
100
AcDbEntity
  8
002
  6
CENTER
 62
    40
370
     9
100
AcDbLine
 10
218.688808
 20
112.442907
 30
0.0
 11
216.921058
 21
114.210657
 31
0.0
  0
LINE
  5
805
330
1F
100
AcDbEntity
  8
002
  6
CENTER
 62
    40
370
     9
100
AcDbLine
 10
218.688808
 20
101.836282
 30
0.0
 11
216.921058
 21
100.068532
 31
0.0
  0
CIRCLE
  5
806
330
1F
100
AcDbEntity
  8
002
 62
     3
370
    30
100
AcDbCircle
 10
223.992183
 20
107.139532
 30
0.0
 40
7.0
  0
CIRCLE
  5
807
330
1F
100
AcDbEntity
  8
002
  6
CENTER
 62
    40
370
     9
100
AcDbCircle
 10
301.789558
 20
107.139532
 30
0.0
 40
8.75
  0
LINE
  5
808
330
1F
100
AcDbEntity
  8
002
  6
CENTER
 62
    40
370
     9
100
AcDbLine
 10
307.092808
 20
101.836282
 30
0.0
 11
308.860558
 21
100.068532
 31
0.0
  0
LINE
  5
809
330
1F
100
AcDbEntity
  8
002
  6
CENTER
 62
    40
370
     9
100
AcDbLine
 10
308.860558
 20
114.210657
 30
0.0
 11
307.092808
 21
112.442907
 31
0.0
  0
LINE
  5
80A
330
1F
100
AcDbEntity
  8
002
  6
CENTER
 62
    40
370
     9
100
AcDbLine
 10
296.486183
 20
112.442907
 30
0.0
 11
294.718433
 21
114.210657
 31
0.0
  0
LINE
  5
80B
330
1F
100
AcDbEntity
  8
002
  6
CENTER
 62
    40
370
     9
100
AcDbLine
 10
296.486183
 20
101.836282
 30
0.0
 11
294.718433
 21
100.068532
 31
0.0
  0
CIRCLE
  5
80C
330
1F
100
AcDbEntity
  8
002
 62
     3
370
    30
100
AcDbCircle
 10
301.789558
 20
107.139532
 30
0.0
 40
7.0
  0
ENDSEC
  0
SECTION
  2
OBJECTS
  0
DICTIONARY
  5
C
330
0
100
AcDbDictionary
281
     1
  3
ACAD_GROUP
350
D
  3
ACAD_LAYOUT
350
1A
  3
ACAD_MLEADERSTYLE
350
80F
  3
ACAD_MLINESTYLE
350
17
  3
ACAD_PLOTSETTINGS
350
19
  3
ACAD_PLOTSTYLENAME
350
E
  3
ACAD_SCALELIST
350
395
  3
ACAD_VISUALSTYLE
350
2A
  3
AcDbVariableDictionary
350
80D
  0
DICTIONARY
  5
D
102
{ACAD_REACTORS
330
C
102
}
330
C
100
AcDbDictionary
281
     1
  0
DICTIONARY
  5
1A
102
{ACAD_REACTORS
330
C
102
}
330
C
100
AcDbDictionary
281
     1
  3
Layout1
350
1E
  3
Layout2
350
26
  3
Model
350
22
  0
DICTIONARY
  5
80F
102
{ACAD_REACTORS
330
C
102
}
330
C
100
AcDbDictionary
281
     1
  0
DICTIONARY
  5
17
102
{ACAD_REACTORS
330
C
102
}
330
C
100
AcDbDictionary
281
     1
  3
Standard
350
18
  0
DICTIONARY
  5
19
102
{ACAD_REACTORS
330
C
102
}
330
C
100
AcDbDictionary
281
     1
  0
ACDBDICTIONARYWDFLT
  5
E
102
{ACAD_REACTORS
330
C
102
}
330
C
100
AcDbDictionary
281
     1
  3
Normal
350
F
100
AcDbDictionaryWithDefault
340
F
  0
DICTIONARY
  5
395
102
{ACAD_REACTORS
330
C
102
}
330
C
100
AcDbDictionary
281
     1
  3
A0
350
396
  3
A1
350
397
  3
A2
350
398
  3
A3
350
399
  3
A4
350
39A
  3
A5
350
39B
  3
A6
350
39C
  3
A7
350
39D
  3
A8
350
39E
  3
A9
350
39F
  3
B0
350
3A0
  3
B1
350
3A1
  3
B2
350
3A2
  3
B3
350
3A3
  3
B4
350
3A4
  3
B5
350
3A5
  3
B6
350
3A6
  3
B7
350
3A7
  3
B8
350
3A8
  3
B9
350
3A9
  3
C0
350
3AA
  3
C1
350
3AB
  3
C2
350
3AC
  3
C3
350
3AD
  3
C4
350
3AE
  3
C5
350
3AF
  3
C6
350
3B0
  3
C7
350
3B1
  3
C8
350
3B2
  3
C9
350
3B3
  3
D0
350
3B4
  3
D1
350
3B5
  3
D2
350
3B6
  0
DICTIONARY
  5
2A
102
{ACAD_REACTORS
330
C
102
}
330
C
100
AcDbDictionary
281
     1
  3
2dWireframe
350
2F
  3
3D Hidden
350
31
  3
3dWireframe
350
30
  3
Basic
350
32
  3
Brighten
350
36
  3
ColorChange
350
3A
  3
Conceptual
350
34
  3
Dim
350
35
  3
Facepattern
350
39
  3
Flat
350
2B
  3
FlatWithEdges
350
2C
  3
Gouraud
350
2D
  3
GouraudWithEdges
350
2E
  3
Linepattern
350
38
  3
Realistic
350
33
  3
Thicken
350
37
  0
DICTIONARY
  5
80D
102
{ACAD_REACTORS
330
C
102
}
330
C
100
AcDbDictionary
281
     1
  3
CANNOSCALE
350
812
  3
PSOLHEIGHT
350
811
  3
PSOLWIDTH
350
810
  0
LAYOUT
  5
1E
102
{ACAD_REACTORS
330
1A
102
}
330
1A
100
AcDbPlotSettings
  1

  2
none_device
  4

  6

 40
0.0
 41
0.0
 42
0.0
 43
0.0
 44
0.0
 45
0.0
 46
0.0
 47
0.0
 48
0.0
 49
0.0
140
0.0
141
0.0
142
1.0
143
1.0
 70
   688
 72
     0
 73
     0
 74
     5
  7

 75
    16
147
1.0
148
0.0
149
0.0
100
AcDbLayout
  1
Layout1
 70
     1
 71
     1
 10
0.0
 20
0.0
 11
12.0
 21
9.0
 12
0.0
 22
0.0
 32
0.0
 14
1.000000E+20
 24
1.000000E+20
 34
0.0
 15
-1.000000E+20
 25
-1.000000E+20
 35
0.0
146
0.0
 13
0.0
 23
0.0
 33
0.0
 16
1.0
 26
0.0
 36
0.0
 17
0.0
 27
1.0
 37
0.0
 76
     0
330
1B
  0
LAYOUT
  5
26
102
{ACAD_REACTORS
330
1A
102
}
330
1A
100
AcDbPlotSettings
  1

  2
none_device
  4

  6

 40
0.0
 41
0.0
 42
0.0
 43
0.0
 44
0.0
 45
0.0
 46
0.0
 47
0.0
 48
0.0
 49
0.0
140
0.0
141
0.0
142
1.0
143
1.0
 70
   688
 72
     0
 73
     0
 74
     5
  7

 75
    16
147
1.0
148
0.0
149
0.0
100
AcDbLayout
  1
Layout2
 70
     1
 71
     2
 10
0.0
 20
0.0
 11
0.0
 21
0.0
 12
0.0
 22
0.0
 32
0.0
 14
0.0
 24
0.0
 34
0.0
 15
0.0
 25
0.0
 35
0.0
146
0.0
 13
0.0
 23
0.0
 33
0.0
 16
1.0
 26
0.0
 36
0.0
 17
0.0
 27
1.0
 37
0.0
 76
     0
330
23
  0
LAYOUT
  5
22
102
{ACAD_REACTORS
330
1A
102
}
330
1A
100
AcDbPlotSettings
  1

  2
none_device
  4

  6

 40
0.0
 41
0.0
 42
0.0
 43
0.0
 44
0.0
 45
0.0
 46
0.0
 47
0.0
 48
0.0
 49
0.0
140
0.0
141
0.0
142
1.0
143
1.0
 70
  1712
 72
     0
 73
     0
 74
     0
  7

 75
     0
147
1.0
148
0.0
149
0.0
100
AcDbLayout
  1
Model
 70
     1
 71
     0
 10
0.0
 20
0.0
 11
12.0
 21
9.0
 12
0.0
 22
0.0
 32
0.0
 14
18.830963
 24
38.46225
 34
0.0
 15
315.527802
 25
392.00116
 35
0.0
146
0.0
 13
0.0
 23
0.0
 33
0.0
 16
1.0
 26
0.0
 36
0.0
 17
0.0
 27
1.0
 37
0.0
 76
     0
330
1F
331
29
  0
MLINESTYLE
  5
18
102
{ACAD_REACTORS
330
17
102
}
330
17
100
AcDbMlineStyle
  2
Standard
 70
     0
  3

 62
   256
 51
90.0
 52
90.0
 71
     2
 49
0.5
 62
   256
  6
BYLAYER
 49
-0.5
 62
   256
  6
BYLAYER
  0
ACDBPLACEHOLDER
  5
F
102
{ACAD_REACTORS
330
E
102
}
330
E
  0
SCALE
  5
396
102
{ACAD_REACTORS
330
395
102
}
330
395
100
AcDbScale
 70
     0
300
1:1
140
1.0
141
1.0
290
     1
  0
SCALE
  5
397
102
{ACAD_REACTORS
330
395
102
}
330
395
100
AcDbScale
 70
     0
300
1:2
140
1.0
141
2.0
290
     0
  0
SCALE
  5
398
102
{ACAD_REACTORS
330
395
102
}
330
395
100
AcDbScale
 70
     0
300
1:4
140
1.0
141
4.0
290
     0
  0
SCALE
  5
399
102
{ACAD_REACTORS
330
395
102
}
330
395
100
AcDbScale
 70
     0
300
1:5
140
1.0
141
5.0
290
     0
  0
SCALE
  5
39A
102
{ACAD_REACTORS
330
395
102
}
330
395
100
AcDbScale
 70
     0
300
1:8
140
1.0
141
8.0
290
     0
  0
SCALE
  5
39B
102
{ACAD_REACTORS
330
395
102
}
330
395
100
AcDbScale
 70
     0
300
1:10
140
1.0
141
10.0
290
     0
  0
SCALE
  5
39C
102
{ACAD_REACTORS
330
395
102
}
330
395
100
AcDbScale
 70
     0
300
1:16
140
1.0
141
16.0
290
     0
  0
SCALE
  5
39D
102
{ACAD_REACTORS
330
395
102
}
330
395
100
AcDbScale
 70
     0
300
1:20
140
1.0
141
20.0
290
     0
  0
SCALE
  5
39E
102
{ACAD_REACTORS
330
395
102
}
330
395
100
AcDbScale
 70
     0
300
1:30
140
1.0
141
30.0
290
     0
  0
SCALE
  5
39F
102
{ACAD_REACTORS
330
395
102
}
330
395
100
AcDbScale
 70
     0
300
1:40
140
1.0
141
40.0
290
     0
  0
SCALE
  5
3A0
102
{ACAD_REACTORS
330
395
102
}
330
395
100
AcDbScale
 70
     0
300
1:50
140
1.0
141
50.0
290
     0
  0
SCALE
  5
3A1
102
{ACAD_REACTORS
330
395
102
}
330
395
100
AcDbScale
 70
     0
300
1:100
140
1.0
141
100.0
290
     0
  0
SCALE
  5
3A2
102
{ACAD_REACTORS
330
395
102
}
330
395
100
AcDbScale
 70
     0
300
2:1
140
2.0
141
1.0
290
     0
  0
SCALE
  5
3A3
102
{ACAD_REACTORS
330
395
102
}
330
395
100
AcDbScale
 70
     0
300
4:1
140
4.0
141
1.0
290
     0
  0
SCALE
  5
3A4
102
{ACAD_REACTORS
330
395
102
}
330
395
100
AcDbScale
 70
     0
300
8:1
140
8.0
141
1.0
290
     0
  0
SCALE
  5
3A5
102
{ACAD_REACTORS
330
395
102
}
330
395
100
AcDbScale
 70
     0
300
10:1
140
10.0
141
1.0
290
     0
  0
SCALE
  5
3A6
102
{ACAD_REACTORS
330
395
102
}
330
395
100
AcDbScale
 70
     0
300
100:1
140
100.0
141
1.0
290
     0
  0
SCALE
  5
3A7
102
{ACAD_REACTORS
330
395
102
}
330
395
100
AcDbScale
 70
     0
300
1/128" = 1'-0"
140
0.007812
141
12.0
290
     0
  0
SCALE
  5
3A8
102
{ACAD_REACTORS
330
395
102
}
330
395
100
AcDbScale
 70
     0
300
1/64" = 1'-0"
140
0.015625
141
12.0
290
     0
  0
SCALE
  5
3A9
102
{ACAD_REACTORS
330
395
102
}
330
395
100
AcDbScale
 70
     0
300
1/32" = 1'-0"
140
0.03125
141
12.0
290
     0
  0
SCALE
  5
3AA
102
{ACAD_REACTORS
330
395
102
}
330
395
100
AcDbScale
 70
     0
300
1/16" = 1'-0"
140
0.0625
141
12.0
290
     0
  0
SCALE
  5
3AB
102
{ACAD_REACTORS
330
395
102
}
330
395
100
AcDbScale
 70
     0
300
3/32" = 1'-0"
140
0.09375
141
12.0
290
     0
  0
SCALE
  5
3AC
102
{ACAD_REACTORS
330
395
102
}
330
395
100
AcDbScale
 70
     0
300
1/8" = 1'-0"
140
0.125
141
12.0
290
     0
  0
SCALE
  5
3AD
102
{ACAD_REACTORS
330
395
102
}
330
395
100
AcDbScale
 70
     0
300
3/16" = 1'-0"
140
0.1875
141
12.0
290
     0
  0
SCALE
  5
3AE
102
{ACAD_REACTORS
330
395
102
}
330
395
100
AcDbScale
 70
     0
300
1/4" = 1'-0"
140
0.25
141
12.0
290
     0
  0
SCALE
  5
3AF
102
{ACAD_REACTORS
330
395
102
}
330
395
100
AcDbScale
 70
     0
300
3/8" = 1'-0"
140
0.375
141
12.0
290
     0
  0
SCALE
  5
3B0
102
{ACAD_REACTORS
330
395
102
}
330
395
100
AcDbScale
 70
     0
300
1/2" = 1'-0"
140
0.5
141
12.0
290
     0
  0
SCALE
  5
3B1
102
{ACAD_REACTORS
330
395
102
}
330
395
100
AcDbScale
 70
     0
300
3/4" = 1'-0"
140
0.75
141
12.0
290
     0
  0
SCALE
  5
3B2
102
{ACAD_REACTORS
330
395
102
}
330
395
100
AcDbScale
 70
     0
300
1" = 1'-0"
140
1.0
141
12.0
290
     0
  0
SCALE
  5
3B3
102
{ACAD_REACTORS
330
395
102
}
330
395
100
AcDbScale
 70
     0
300
1-1/2" = 1'-0"
140
1.5
141
12.0
290
     0
  0
SCALE
  5
3B4
102
{ACAD_REACTORS
330
395
102
}
330
395
100
AcDbScale
 70
     0
300
3" = 1'-0"
140
3.0
141
12.0
290
     0
  0
SCALE
  5
3B5
102
{ACAD_REACTORS
330
395
102
}
330
395
100
AcDbScale
 70
     0
300
6" = 1'-0"
140
6.0
141
12.0
290
     0
  0
SCALE
  5
3B6
102
{ACAD_REACTORS
330
395
102
}
330
395
100
AcDbScale
 70
     0
300
1'-0" = 1'-0"
140
12.0
141
12.0
290
     0
  0
VISUALSTYLE
  5
2F
102
{ACAD_REACTORS
330
2A
102
}
330
2A
100
AcDbVisualStyle
  2
2dWireframe
 70
     4
 71
     0
 72
     2
 73
     0
 90
        0
 40
-0.6
 41
-30.0
 62
     5
 63
     7
 74
     1
 91
        4
 64
     7
 65
   257
 75
     1
175
     1
 42
1.0
 92
        0
 66
   257
 43
1.0
 76
     1
 77
     6
 78
     2
 67
     7
 79
     5
170
     0
171
     0
290
     0
174
     0
 93
        1
 44
0.0
173
     0
291
     0
 45
0.0
1001
ACAD
1000
AcDbSavedByObjectVersion
1070
     0
  0
VISUALSTYLE
  5
31
102
{ACAD_REACTORS
330
2A
102
}
330
2A
100
AcDbVisualStyle
  2
3D Hidden
 70
     6
 71
     1
 72
     2
 73
     2
 90
        0
 40
-0.6
 41
-30.0
 62
     5
 63
     7
 74
     2
 91
        2
 64
     7
 65
   257
 75
     2
175
     1
 42
40.0
 92
        0
 66
   257
 43
1.0
 76
     1
 77
     6
 78
     2
 67
     7
 79
     3
170
     0
171
     0
290
     0
174
     0
 93
        1
 44
0.0
173
     0
291
     0
 45
0.0
1001
ACAD
1000
AcDbSavedByObjectVersion
1070
     0
  0
VISUALSTYLE
  5
30
102
{ACAD_REACTORS
330
2A
102
}
330
2A
100
AcDbVisualStyle
  2
3dWireframe
 70
     5
 71
     0
 72
     2
 73
     0
 90
        0
 40
-0.6
 41
-30.0
 62
     5
 63
     7
 74
     1
 91
        4
 64
     7
 65
   257
 75
     1
175
     1
 42
1.0
 92
        0
 66
   257
 43
1.0
 76
     1
 77
     6
 78
     2
 67
     7
 79
     5
170
     0
171
     0
290
     0
174
     0
 93
        1
 44
0.0
173
     0
291
     0
 45
0.0
1001
ACAD
1000
AcDbSavedByObjectVersion
1070
     0
  0
VISUALSTYLE
  5
32
102
{ACAD_REACTORS
330
2A
102
}
330
2A
100
AcDbVisualStyle
  2
Basic
 70
     7
 71
     1
 72
     0
 73
     1
 90
        0
 40
-0.6
 41
-30.0
 62
     5
 63
     7
 74
     0
 91
        4
 64
     7
 65
   257
 75
     1
175
     1
 42
1.0
 92
        8
 66
     7
 43
1.0
 76
     1
 77
     6
 78
     2
 67
     7
 79
     5
170
     0
171
     0
290
     0
174
     0
 93
        1
 44
0.0
173
     0
291
     1
 45
0.0
1001
ACAD
1000
AcDbSavedByObjectVersion
1070
     0
  0
VISUALSTYLE
  5
36
102
{ACAD_REACTORS
330
2A
102
}
330
2A
100
AcDbVisualStyle
  2
Brighten
 70
    12
 71
     2
 72
     2
 73
     0
 90
        0
 40
-0.6
 41
-30.0
 62
     5
 63
     7
 74
     1
 91
        4
 64
     7
 65
   257
 75
     1
175
     1
 42
1.0
 92
        8
 66
     7
 43
1.0
 76
     1
 77
     6
 78
     2
 67
     7
 79
     5
170
     0
171
     0
290
     0
174
     0
 93
        1
 44
50.0
173
     0
291
     1
 45
0.0
1001
ACAD
1000
AcDbSavedByObjectVersion
1070
     0
  0
VISUALSTYLE
  5
3A
102
{ACAD_REACTORS
330
2A
102
}
330
2A
100
AcDbVisualStyle
  2
ColorChange
 70
    16
 71
     2
 72
     2
 73
     3
 90
        0
 40
-0.6
 41
-30.0
 62
     5
 63
     8
 74
     1
 91
        4
 64
     7
 65
   257
 75
     1
175
     1
 42
1.0
 92
        8
 66
     8
 43
1.0
 76
     1
 77
     6
 78
     2
 67
     7
 79
     5
170
     0
171
     0
290
     0
174
     0
 93
        1
 44
0.0
173
     0
291
     1
 45
0.0
1001
ACAD
1000
AcDbSavedByObjectVersion
1070
     0
  0
VISUALSTYLE
  5
34
102
{ACAD_REACTORS
330
2A
102
}
330
2A
100
AcDbVisualStyle
  2
Conceptual
 70
     9
 71
     3
 72
     2
 73
     0
 90
        0
 40
-0.6
 41
-30.0
 62
     5
 63
     7
 74
     2
 91
        2
 64
     7
 65
   257
 75
     1
175
     1
 42
40.0
 92
        8
 66
     7
 43
1.0
 76
     1
 77
     6
 78
     2
 67
     7
 79
     3
170
     0
171
     0
290
     0
174
     0
 93
        1
 44
0.0
173
     0
291
     0
 45
0.0
1001
ACAD
1000
AcDbSavedByObjectVersion
1070
     0
  0
VISUALSTYLE
  5
35
102
{ACAD_REACTORS
330
2A
102
}
330
2A
100
AcDbVisualStyle
  2
Dim
 70
    11
 71
     2
 72
     2
 73
     0
 90
        0
 40
-0.6
 41
-30.0
 62
     5
 63
     7
 74
     1
 91
        4
 64
     7
 65
   257
 75
     1
175
     1
 42
1.0
 92
        8
 66
     7
 43
1.0
 76
     1
 77
     6
 78
     2
 67
     7
 79
     5
170
     0
171
     0
290
     0
174
     0
 93
        1
 44
-50.0
173
     0
291
     1
 45
0.0
1001
ACAD
1000
AcDbSavedByObjectVersion
1070
     0
  0
VISUALSTYLE
  5
39
102
{ACAD_REACTORS
330
2A
102
}
330
2A
100
AcDbVisualStyle
  2
Facepattern
 70
    15
 71
     2
 72
     2
 73
     0
 90
        0
 40
-0.6
 41
-30.0
 62
     5
 63
     7
 74
     1
 91
        4
 64
     7
 65
   257
 75
     1
175
     1
 42
1.0
 92
        8
 66
     7
 43
1.0
 76
     1
 77
     6
 78
     2
 67
     7
 79
     5
170
     0
171
     0
290
     0
174
     0
 93
        1
 44
0.0
173
     0
291
     1
 45
0.0
1001
ACAD
1000
AcDbSavedByObjectVersion
1070
     0
  0
VISUALSTYLE
  5
2B
102
{ACAD_REACTORS
330
2A
102
}
330
2A
100
AcDbVisualStyle
  2
Flat
 70
     0
 71
     2
 72
     1
 73
     1
 90
        2
 40
-0.6
 41
30.0
 62
     5
 63
     7
 74
     0
 91
        4
 64
     7
 65
   257
 75
     1
175
     1
 42
1.0
 92
        8
 66
     7
 43
1.0
 76
     1
 77
     6
 78
     2
 67
     7
 79
     5
170
     0
171
     0
290
     0
174
     0
 93
       13
 44
0.0
173
     0
291
     1
 45
0.0
1001
ACAD
1000
AcDbSavedByObjectVersion
1070
     0
  0
VISUALSTYLE
  5
2C
102
{ACAD_REACTORS
330
2A
102
}
330
2A
100
AcDbVisualStyle
  2
FlatWithEdges
 70
     1
 71
     2
 72
     1
 73
     1
 90
        2
 40
-0.6
 41
30.0
 62
     5
 63
     7
 74
     1
 91
        4
 64
     7
 65
   257
 75
     1
175
     1
 42
1.0
 92
        0
 66
   257
 43
1.0
 76
     1
 77
     6
 78
     2
 67
     7
 79
     5
170
     0
171
     0
290
     0
174
     0
 93
       13
 44
0.0
173
     0
291
     1
 45
0.0
1001
ACAD
1000
AcDbSavedByObjectVersion
1070
     0
  0
VISUALSTYLE
  5
2D
102
{ACAD_REACTORS
330
2A
102
}
330
2A
100
AcDbVisualStyle
  2
Gouraud
 70
     2
 71
     2
 72
     2
 73
     1
 90
        2
 40
-0.6
 41
30.0
 62
     5
 63
     7
 74
     0
 91
        4
 64
     7
 65
   257
 75
     1
175
     1
 42
1.0
 92
        0
 66
     7
 43
1.0
 76
     1
 77
     6
 78
     2
 67
     7
 79
     5
170
     0
171
     0
290
     0
174
     0
 93
       13
 44
0.0
173
     0
291
     1
 45
0.0
1001
ACAD
1000
AcDbSavedByObjectVersion
1070
     0
  0
VISUALSTYLE
  5
2E
102
{ACAD_REACTORS
330
2A
102
}
330
2A
100
AcDbVisualStyle
  2
GouraudWithEdges
 70
     3
 71
     2
 72
     2
 73
     1
 90
        2
 40
-0.6
 41
30.0
 62
     5
 63
     7
 74
     1
 91
        4
 64
     7
 65
   257
 75
     1
175
     1
 42
1.0
 92
        0
 66
   257
 43
1.0
 76
     1
 77
     6
 78
     2
 67
     7
 79
     5
170
     0
171
     0
290
     0
174
     0
 93
       13
 44
0.0
173
     0
291
     1
 45
0.0
1001
ACAD
1000
AcDbSavedByObjectVersion
1070
     0
  0
VISUALSTYLE
  5
38
102
{ACAD_REACTORS
330
2A
102
}
330
2A
100
AcDbVisualStyle
  2
Linepattern
 70
    14
 71
     2
 72
     2
 73
     0
 90
        0
 40
-0.6
 41
-30.0
 62
     5
 63
     7
 74
     1
 91
        4
 64
     7
 65
   257
 75
     7
175
     7
 42
1.0
 92
        8
 66
     7
 43
1.0
 76
     1
 77
     6
 78
     2
 67
     7
 79
     5
170
     0
171
     0
290
     0
174
     0
 93
        1
 44
0.0
173
     0
291
     1
 45
0.0
1001
ACAD
1000
AcDbSavedByObjectVersion
1070
     0
  0
VISUALSTYLE
  5
33
102
{ACAD_REACTORS
330
2A
102
}
330
2A
100
AcDbVisualStyle
  2
Realistic
 70
     8
 71
     2
 72
     2
 73
     0
 90
        0
 40
-0.6
 41
-30.0
 62
     5
 63
     7
 74
     1
 91
        0
 64
     7
 65
   257
 75
     1
175
     1
 42
1.0
 92
        8
 66
     8
 43
1.0
 76
     1
 77
     6
 78
     2
 67
     7
 79
     5
170
     0
171
     0
290
     0
174
     0
 93
       13
 44
0.0
173
     0
291
     0
 45
0.0
1001
ACAD
1000
AcDbSavedByObjectVersion
1070
     0
  0
VISUALSTYLE
  5
37
102
{ACAD_REACTORS
330
2A
102
}
330
2A
100
AcDbVisualStyle
  2
Thicken
 70
    13
 71
     2
 72
     2
 73
     0
 90
        0
 40
-0.6
 41
-30.0
 62
     5
 63
     7
 74
     1
 91
        4
 64
     7
 65
   257
 75
     1
175
     1
 42
1.0
 92
       12
 66
     7
 43
1.0
 76
     1
 77
     6
 78
     2
 67
     7
 79
     5
170
     0
171
     0
290
     0
174
     0
 93
        1
 44
0.0
173
     0
291
     1
 45
0.0
1001
ACAD
1000
AcDbSavedByObjectVersion
1070
     0
  0
DICTIONARYVAR
  5
812
102
{ACAD_REACTORS
330
80D
102
}
330
80D
100
DictionaryVariables
280
     0
  1
1:1
  0
DICTIONARYVAR
  5
811
102
{ACAD_REACTORS
330
80D
102
}
330
80D
100
DictionaryVariables
280
     0
  1
80.000000
  0
DICTIONARYVAR
  5
810
102
{ACAD_REACTORS
330
80D
102
}
330
80D
100
DictionaryVariables
280
     0
  1
5.000000
  0
ENDSEC
  0
EOF
