  0
SECTION
  2
HEADER
  9
$ACADVER
  1
AC1015
  9
$ACADMAINTVER
 70
     6
  9
$DWGCODEPAGE
  3
ANSI_932
  9
$INSBASE
 10
0.0
 20
0.0
 30
0.0
  9
$EXTMIN
 10
340.511292
 20
27.449188
 30
0.0
  9
$EXTMAX
 10
613.036804
 20
448.907562
 30
0.0
  9
$LIMMIN
 10
0.0
 20
0.0
  9
$LIMMAX
 10
12.0
 20
9.0
  9
$ORTHOMODE
 70
     0
  9
$REGENMODE
 70
     1
  9
$FILLMODE
 70
     1
  9
$QTEXTMODE
 70
     0
  9
$MIRRTEXT
 70
     1
  9
$LTSCALE
 40
5.018937
  9
$ATTMODE
 70
     1
  9
$TEXTSIZE
 40
3.2
  9
$TRACEWID
 40
1.0
  9
$TEXTSTYLE
  7
Standard
  9
$CLAYER
  8
0
  9
$CELTYPE
  6
ByLayer
  9
$CECOLOR
 62
   256
  9
$CELTSCALE
 40
1.0
  9
$DISPSILH
 70
     0
  9
$DIMSCALE
 40
1.0
  9
$DIMASZ
 40
2.5
  9
$DIMEXO
 40
0.625
  9
$DIMDLI
 40
3.75
  9
$DIMRND
 40
0.0
  9
$DIMDLE
 40
0.0
  9
$DIMEXE
 40
1.25
  9
$DIMTP
 40
0.0
  9
$DIMTM
 40
0.0
  9
$DIMTXT
 40
2.5
  9
$DIMCEN
 40
0.09
  9
$DIMTSZ
 40
0.0
  9
$DIMTOL
 70
     0
  9
$DIMLIM
 70
     0
  9
$DIMTIH
 70
     0
  9
$DIMTOH
 70
     0
  9
$DIMSE1
 70
     0
  9
$DIMSE2
 70
     0
  9
$DIMTAD
 70
     0
  9
$DIMZIN
 70
     8
  9
$DIMBLK
  1

  9
$DIMASO
 70
     1
  9
$DIMSHO
 70
     0
  9
$DIMPOST
  1

  9
$DIMAPOST
  1

  9
$DIMALT
 70
     0
  9
$DIMALTD
 70
     3
  9
$DIMALTF
 40
0.03937
  9
$DIMLFAC
 40
1.0
  9
$DIMTOFL
 70
     1
  9
$DIMTVP
 40
0.0
  9
$DIMTIX
 70
     0
  9
$DIMSOXD
 70
     0
  9
$DIMSAH
 70
     0
  9
$DIMBLK1
  1

  9
$DIMBLK2
  1

  9
$DIMSTYLE
  2
ISO-25
  9
$DIMCLRD
 70
     0
  9
$DIMCLRE
 70
     0
  9
$DIMCLRT
 70
     0
  9
$DIMTFAC
 40
1.0
  9
$DIMGAP
 40
0.625
  9
$DIMJUST
 70
     0
  9
$DIMSD1
 70
     0
  9
$DIMSD2
 70
     0
  9
$DIMTOLJ
 70
     0
  9
$DIMTZIN
 70
     8
  9
$DIMALTZ
 70
     0
  9
$DIMALTTZ
 70
     0
  9
$DIMUPT
 70
     0
  9
$DIMDEC
 70
     2
  9
$DIMTDEC
 70
     2
  9
$DIMALTU
 70
     2
  9
$DIMALTTD
 70
     3
  9
$DIMTXSTY
  7
Standard
  9
$DIMAUNIT
 70
     0
  9
$DIMADEC
 70
     0
  9
$DIMALTRND
 40
0.0
  9
$DIMAZIN
 70
     0
  9
$DIMDSEP
 70
    44
  9
$DIMATFIT
 70
     3
  9
$DIMFRAC
 70
     0
  9
$DIMLDRBLK
  1

  9
$DIMLUNIT
 70
     2
  9
$DIMLWD
 70
    -2
  9
$DIMLWE
 70
    -2
  9
$DIMTMOVE
 70
     0
  9
$LUNITS
 70
     2
  9
$LUPREC
 70
     4
  9
$SKETCHINC
 40
1.0
  9
$FILLETRAD
 40
0.0
  9
$AUNITS
 70
     0
  9
$AUPREC
 70
     0
  9
$MENU
  1
.
  9
$ELEVATION
 40
0.0
  9
$PELEVATION
 40
0.0
  9
$THICKNESS
 40
0.0
  9
$LIMCHECK
 70
     0
  9
$CHAMFERA
 40
10.0
  9
$CHAMFERB
 40
10.0
  9
$CHAMFERC
 40
20.0
  9
$CHAMFERD
 40
0.0
  9
$SKPOLY
 70
     0
  9
$TDCREATE
 40
2455649.657784827
  9
$TDUCREATE
 40
2455649.282784827
  9
$TDUPDATE
 40
2455649.657784838
  9
$TDUUPDATE
 40
2455649.282784838
  9
$TDINDWG
 40
0.0000000116
  9
$TDUSRTIMER
 40
0.0000000116
  9
$USRTIMER
 70
     1
  9
$ANGBASE
 50
0.0
  9
$ANGDIR
 70
     0
  9
$PDMODE
 70
     0
  9
$PDSIZE
 40
0.0
  9
$PLINEWID
 40
0.0
  9
$SPLFRAME
 70
     0
  9
$SPLINETYPE
 70
     6
  9
$SPLINESEGS
 70
     8
  9
$HANDSEED
  5
816
  9
$SURFTAB1
 70
     6
  9
$SURFTAB2
 70
     6
  9
$SURFTYPE
 70
     6
  9
$SURFU
 70
     6
  9
$SURFV
 70
     6
  9
$UCSBASE
  2

  9
$UCSNAME
  2

  9
$UCSORG
 10
0.0
 20
0.0
 30
0.0
  9
$UCSXDIR
 10
1.0
 20
0.0
 30
0.0
  9
$UCSYDIR
 10
0.0
 20
1.0
 30
0.0
  9
$UCSORTHOREF
  2

  9
$UCSORTHOVIEW
 70
     0
  9
$UCSORGTOP
 10
0.0
 20
0.0
 30
0.0
  9
$UCSORGBOTTOM
 10
0.0
 20
0.0
 30
0.0
  9
$UCSORGLEFT
 10
0.0
 20
0.0
 30
0.0
  9
$UCSORGRIGHT
 10
0.0
 20
0.0
 30
0.0
  9
$UCSORGFRONT
 10
0.0
 20
0.0
 30
0.0
  9
$UCSORGBACK
 10
0.0
 20
0.0
 30
0.0
  9
$PUCSBASE
  2

  9
$PUCSNAME
  2

  9
$PUCSORG
 10
0.0
 20
0.0
 30
0.0
  9
$PUCSXDIR
 10
1.0
 20
0.0
 30
0.0
  9
$PUCSYDIR
 10
0.0
 20
1.0
 30
0.0
  9
$PUCSORTHOREF
  2

  9
$PUCSORTHOVIEW
 70
     0
  9
$PUCSORGTOP
 10
0.0
 20
0.0
 30
0.0
  9
$PUCSORGBOTTOM
 10
0.0
 20
0.0
 30
0.0
  9
$PUCSORGLEFT
 10
0.0
 20
0.0
 30
0.0
  9
$PUCSORGRIGHT
 10
0.0
 20
0.0
 30
0.0
  9
$PUCSORGFRONT
 10
0.0
 20
0.0
 30
0.0
  9
$PUCSORGBACK
 10
0.0
 20
0.0
 30
0.0
  9
$USERI1
 70
     0
  9
$USERI2
 70
     0
  9
$USERI3
 70
     0
  9
$USERI4
 70
     0
  9
$USERI5
 70
     0
  9
$USERR1
 40
0.0
  9
$USERR2
 40
0.0
  9
$USERR3
 40
0.0
  9
$USERR4
 40
0.0
  9
$USERR5
 40
0.0
  9
$WORLDVIEW
 70
     1
  9
$SHADEDGE
 70
     3
  9
$SHADEDIF
 70
    70
  9
$TILEMODE
 70
     1
  9
$MAXACTVP
 70
    64
  9
$PINSBASE
 10
0.0
 20
0.0
 30
0.0
  9
$PLIMCHECK
 70
     0
  9
$PEXTMIN
 10
1.000000E+20
 20
1.000000E+20
 30
0.0
  9
$PEXTMAX
 10
-1.000000E+20
 20
-1.000000E+20
 30
0.0
  9
$PLIMMIN
 10
0.0
 20
0.0
  9
$PLIMMAX
 10
12.0
 20
9.0
  9
$UNITMODE
 70
     0
  9
$VISRETAIN
 70
     1
  9
$PLINEGEN
 70
     0
  9
$PSLTSCALE
 70
     1
  9
$TREEDEPTH
 70
  3020
  9
$CMLSTYLE
  2
Standard
  9
$CMLJUST
 70
     0
  9
$CMLSCALE
 40
20.0
  9
$PROXYGRAPHICS
 70
     1
  9
$MEASUREMENT
 70
     1
  9
$CELWEIGHT
370
    -1
  9
$ENDCAPS
280
     0
  9
$JOINSTYLE
280
     0
  9
$LWDISPLAY
290
     0
  9
$INSUNITS
 70
     4
  9
$HYPERLINKBASE
  1

  9
$STYLESHEET
  1

  9
$XEDIT
290
     1
  9
$CEPSNTYPE
380
     0
  9
$PSTYLEMODE
290
     1
  9
$FINGERPRINTGUID
  2
{A1BFA378-56E0-4C79-8EC0-E1A5877B4384}
  9
$VERSIONGUID
  2
{FAEB1C32-E019-11D5-929B-00C0DF256EC4}
  9
$EXTNAMES
290
     1
  9
$PSVPSCALE
 40
0.0
  9
$OLESTARTUP
290
     0
  0
ENDSEC
  0
SECTION
  2
CLASSES
  0
CLASS
  1
ACDBDICTIONARYWDFLT
  2
AcDbDictionaryWithDefault
  3
ObjectDBX Classes
 90
        0
280
     0
281
     0
  0
CLASS
  1
VISUALSTYLE
  2
AcDbVisualStyle
  3
ObjectDBX Classes
 90
     4095
280
     0
281
     0
  0
CLASS
  1
SCALE
  2
AcDbScale
  3
ObjectDBX Classes
 90
     1153
280
     0
281
     0
  0
CLASS
  1
DICTIONARYVAR
  2
AcDbDictionaryVar
  3
ObjectDBX Classes
 90
        0
280
     0
281
     0
  0
CLASS
  1
ACDBPLACEHOLDER
  2
AcDbPlaceHolder
  3
ObjectDBX Classes
 90
        0
280
     0
281
     0
  0
CLASS
  1
LAYOUT
  2
AcDbLayout
  3
ObjectDBX Classes
 90
        0
280
     0
281
     0
  0
ENDSEC
  0
SECTION
  2
TABLES
  0
TABLE
  2
VPORT
  5
8
330
0
100
AcDbSymbolTable
 70
     1
  0
VPORT
  5
29
330
8
100
AcDbSymbolTableRecord
100
AcDbViewportTableRecord
  2
*Active
 70
     0
 10
0.0
 20
0.0
 11
1.0
 21
1.0
 12
476.774048
 22
238.178375
 13
0.0
 23
0.0
 14
1.0
 24
1.0
 15
0.0
 25
0.0
 16
0.0
 26
0.0
 36
1.0
 17
0.0
 27
0.0
 37
0.0
 40
425.672958
 41
1.691288
 42
50.0
 43
0.0
 44
0.0
 50
0.0
 51
0.0
 71
     0
 72
   100
 73
     1
 74
     3
 75
     0
 76
     0
 77
     0
 78
     0
281
     0
 65
     1
110
0.0
120
0.0
130
0.0
111
1.0
121
0.0
131
0.0
112
0.0
122
1.0
132
0.0
 79
     0
146
0.0
  0
ENDTAB
  0
TABLE
  2
LTYPE
  5
5
330
0
100
AcDbSymbolTable
 70
     5
  0
LTYPE
  5
14
330
5
100
AcDbSymbolTableRecord
100
AcDbLinetypeTableRecord
  2
ByBlock
 70
     0
  3

 72
    65
 73
     0
 40
0.0
  0
LTYPE
  5
15
330
5
100
AcDbSymbolTableRecord
100
AcDbLinetypeTableRecord
  2
ByLayer
 70
     0
  3

 72
    65
 73
     0
 40
0.0
  0
LTYPE
  5
16
330
5
100
AcDbSymbolTableRecord
100
AcDbLinetypeTableRecord
  2
Continuous
 70
     0
  3
Solid line
 72
    65
 73
     0
 40
0.0
  0
LTYPE
  5
3B
330
5
100
AcDbSymbolTableRecord
100
AcDbLinetypeTableRecord
  2
DASHED
 70
     0
  3
DASHED
 72
    83
 73
     2
 40
0.75
 49
0.5
 74
     0
 49
-0.25
 74
     0
  0
LTYPE
  5
3C
330
5
100
AcDbSymbolTableRecord
100
AcDbLinetypeTableRecord
  2
HIDDEN
 70
     0
  3
HIDDEN
 72
    83
 73
     2
 40
0.375
 49
0.25
 74
     0
 49
-0.125
 74
     0
  0
LTYPE
  5
3D
330
5
100
AcDbSymbolTableRecord
100
AcDbLinetypeTableRecord
  2
CENTER
 70
     0
  3
CENTER
 72
    83
 73
     4
 40
2.0
 49
1.25
 74
     0
 49
-0.25
 74
     0
 49
0.25
 74
     0
 49
-0.25
 74
     0
  0
LTYPE
  5
3E
330
5
100
AcDbSymbolTableRecord
100
AcDbLinetypeTableRecord
  2
PHANTOM
 70
     0
  3
PHANTOM
 72
    83
 73
     6
 40
2.5
 49
1.25
 74
     0
 49
-0.25
 74
     0
 49
0.25
 74
     0
 49
-0.25
 74
     0
 49
0.25
 74
     0
 49
-0.25
 74
     0
  0
ENDTAB
  0
TABLE
  2
LAYER
  5
2
330
0
100
AcDbSymbolTable
 70
     4
  0
LAYER
  5
10
330
2
100
AcDbSymbolTableRecord
100
AcDbLayerTableRecord
  2
0
 70
     0
 62
     7
  6
Continuous
370
    -3
390
F
  0
LAYER
  5
3F
330
2
100
AcDbSymbolTableRecord
100
AcDbLayerTableRecord
  2
001
 70
     0
 62
     7
  6
Continuous
370
    -3
390
F
  0
LAYER
  5
40
330
2
100
AcDbSymbolTableRecord
100
AcDbLayerTableRecord
  2
002
 70
     0
 62
     7
  6
Continuous
370
    -3
390
F
  0
LAYER
  5
41
330
2
100
AcDbSymbolTableRecord
100
AcDbLayerTableRecord
  2
003
 70
     0
 62
     7
  6
Continuous
370
    -3
390
F
  0
ENDTAB
  0
TABLE
  2
STYLE
  5
3
330
0
100
AcDbSymbolTable
 70
     2
  0
STYLE
  5
11
330
3
100
AcDbSymbolTableRecord
100
AcDbTextStyleTableRecord
  2
Standard
 70
     0
 40
0.0
 41
1.0
 50
0.0
 71
     0
 42
0.2
  3
TXT
  4
BIGFONT
  0
STYLE
  5
42
330
3
100
AcDbSymbolTableRecord
100
AcDbTextStyleTableRecord
  2
TATEGAKI
 70
     4
 40
1.0
 41
1.0
 50
0.0
 71
     0
 42
0.2
  3
TXT
  4
BIGFONT
  0
ENDTAB
  0
TABLE
  2
VIEW
  5
6
330
0
100
AcDbSymbolTable
 70
     0
  0
ENDTAB
  0
TABLE
  2
UCS
  5
7
330
0
100
AcDbSymbolTable
 70
     0
  0
ENDTAB
  0
TABLE
  2
APPID
  5
9
330
0
100
AcDbSymbolTable
 70
     1
  0
APPID
  5
12
330
9
100
AcDbSymbolTableRecord
100
AcDbRegAppTableRecord
  2
ACAD
 70
     0
  0
ENDTAB
  0
TABLE
  2
DIMSTYLE
  5
A
330
0
100
AcDbSymbolTable
 70
     2
100
AcDbDimStyleTable
  0
DIMSTYLE
105
27
330
A
100
AcDbSymbolTableRecord
100
AcDbDimStyleTableRecord
  2
ISO-25
 70
     0
 41
2.5
 42
0.625
 43
3.75
 44
1.25
 73
     0
 74
     0
 77
     1
 78
     8
140
2.5
141
2.5
143
0.03937
147
0.625
171
     3
172
     1
271
     2
272
     2
274
     3
278
    44
283
     0
284
     8
340
11
  0
DIMSTYLE
105
43
330
A
100
AcDbSymbolTableRecord
100
AcDbDimStyleTableRecord
  2
Standard
 70
     0
 41
3.0
 42
0.5
 44
0.7
 73
     0
 74
     0
 77
     1
 78
     8
 79
     2
140
4.0
146
0.65
147
1.0
172
     1
179
     3
271
     3
283
     2
340
11
  0
ENDTAB
  0
TABLE
  2
BLOCK_RECORD
  5
1
330
0
100
AcDbSymbolTable
 70
    35
  0
BLOCK_RECORD
  5
1F
330
1
100
AcDbSymbolTableRecord
100
AcDbBlockTableRecord
  2
*Model_Space
340
22
  0
BLOCK_RECORD
  5
1B
330
1
100
AcDbSymbolTableRecord
100
AcDbBlockTableRecord
  2
*Paper_Space
340
1E
  0
BLOCK_RECORD
  5
23
330
1
100
AcDbSymbolTableRecord
100
AcDbBlockTableRecord
  2
*Paper_Space0
340
26
  0
BLOCK_RECORD
  5
44
330
1
100
AcDbSymbolTableRecord
100
AcDbBlockTableRecord
  2
JZB-1
340
0
102
{BLKREFS
331
1A6
102
}
  0
BLOCK_RECORD
  5
55
330
1
100
AcDbSymbolTableRecord
100
AcDbBlockTableRecord
  2
JZB-2
340
0
102
{BLKREFS
331
1A7
102
}
  0
BLOCK_RECORD
  5
66
330
1
100
AcDbSymbolTableRecord
100
AcDbBlockTableRecord
  2
JZB-3
340
0
102
{BLKREFS
331
1A8
102
}
  0
BLOCK_RECORD
  5
70
330
1
100
AcDbSymbolTableRecord
100
AcDbBlockTableRecord
  2
JZB-4
340
0
102
{BLKREFS
331
1A9
102
}
  0
BLOCK_RECORD
  5
7A
330
1
100
AcDbSymbolTableRecord
100
AcDbBlockTableRecord
  2
JZB-5
340
0
102
{BLKREFS
331
1AA
102
}
  0
BLOCK_RECORD
  5
84
330
1
100
AcDbSymbolTableRecord
100
AcDbBlockTableRecord
  2
JZB-6
340
0
102
{BLKREFS
331
1AB
102
}
  0
BLOCK_RECORD
  5
8E
330
1
100
AcDbSymbolTableRecord
100
AcDbBlockTableRecord
  2
JZB-7
340
0
102
{BLKREFS
331
1AC
102
}
  0
BLOCK_RECORD
  5
98
330
1
100
AcDbSymbolTableRecord
100
AcDbBlockTableRecord
  2
JZB-8
340
0
102
{BLKREFS
331
1AD
102
}
  0
BLOCK_RECORD
  5
A2
330
1
100
AcDbSymbolTableRecord
100
AcDbBlockTableRecord
  2
JZB-9
340
0
102
{BLKREFS
331
1AE
102
}
  0
BLOCK_RECORD
  5
AC
330
1
100
AcDbSymbolTableRecord
100
AcDbBlockTableRecord
  2
JZB-10
340
0
102
{BLKREFS
331
1AF
102
}
  0
BLOCK_RECORD
  5
B6
330
1
100
AcDbSymbolTableRecord
100
AcDbBlockTableRecord
  2
JZB-11
340
0
102
{BLKREFS
331
1B0
102
}
  0
BLOCK_RECORD
  5
C0
330
1
100
AcDbSymbolTableRecord
100
AcDbBlockTableRecord
  2
JZB-12
340
0
102
{BLKREFS
331
1B1
102
}
  0
BLOCK_RECORD
  5
CA
330
1
100
AcDbSymbolTableRecord
100
AcDbBlockTableRecord
  2
JZB-13
340
0
102
{BLKREFS
331
1B2
102
}
  0
BLOCK_RECORD
  5
D4
330
1
100
AcDbSymbolTableRecord
100
AcDbBlockTableRecord
  2
JZB-14
340
0
102
{BLKREFS
331
1B3
102
}
  0
BLOCK_RECORD
  5
DE
330
1
100
AcDbSymbolTableRecord
100
AcDbBlockTableRecord
  2
JZB-15
340
0
102
{BLKREFS
331
1B4
102
}
  0
BLOCK_RECORD
  5
E8
330
1
100
AcDbSymbolTableRecord
100
AcDbBlockTableRecord
  2
JZB-16
340
0
102
{BLKREFS
331
1B5
102
}
  0
BLOCK_RECORD
  5
F2
330
1
100
AcDbSymbolTableRecord
100
AcDbBlockTableRecord
  2
JZB-17
340
0
102
{BLKREFS
331
1B6
102
}
  0
BLOCK_RECORD
  5
FC
330
1
100
AcDbSymbolTableRecord
100
AcDbBlockTableRecord
  2
JZB-18
340
0
102
{BLKREFS
331
1B7
102
}
  0
BLOCK_RECORD
  5
106
330
1
100
AcDbSymbolTableRecord
100
AcDbBlockTableRecord
  2
JZB-19
340
0
102
{BLKREFS
331
1B8
102
}
  0
BLOCK_RECORD
  5
110
330
1
100
AcDbSymbolTableRecord
100
AcDbBlockTableRecord
  2
JZB-20
340
0
102
{BLKREFS
331
1B9
102
}
  0
BLOCK_RECORD
  5
11A
330
1
100
AcDbSymbolTableRecord
100
AcDbBlockTableRecord
  2
JZB-21
340
0
102
{BLKREFS
331
1BA
102
}
  0
BLOCK_RECORD
  5
124
330
1
100
AcDbSymbolTableRecord
100
AcDbBlockTableRecord
  2
JZB-22
340
0
102
{BLKREFS
331
1BB
102
}
  0
BLOCK_RECORD
  5
12E
330
1
100
AcDbSymbolTableRecord
100
AcDbBlockTableRecord
  2
JZB-23
340
0
102
{BLKREFS
331
1BC
102
}
  0
BLOCK_RECORD
  5
138
330
1
100
AcDbSymbolTableRecord
100
AcDbBlockTableRecord
  2
JZB-24
340
0
102
{BLKREFS
331
1BD
102
}
  0
BLOCK_RECORD
  5
142
330
1
100
AcDbSymbolTableRecord
100
AcDbBlockTableRecord
  2
JZB-25
340
0
102
{BLKREFS
331
1BE
102
}
  0
BLOCK_RECORD
  5
14C
330
1
100
AcDbSymbolTableRecord
100
AcDbBlockTableRecord
  2
JZB-26
340
0
102
{BLKREFS
331
1BF
102
}
  0
BLOCK_RECORD
  5
156
330
1
100
AcDbSymbolTableRecord
100
AcDbBlockTableRecord
  2
JZB-27
340
0
102
{BLKREFS
331
1C0
102
}
  0
BLOCK_RECORD
  5
160
330
1
100
AcDbSymbolTableRecord
100
AcDbBlockTableRecord
  2
JZB-28
340
0
102
{BLKREFS
331
1C1
102
}
  0
BLOCK_RECORD
  5
16A
330
1
100
AcDbSymbolTableRecord
100
AcDbBlockTableRecord
  2
JZB-29
340
0
102
{BLKREFS
331
1C2
102
}
  0
BLOCK_RECORD
  5
174
330
1
100
AcDbSymbolTableRecord
100
AcDbBlockTableRecord
  2
JZB-30
340
0
102
{BLKREFS
331
1C3
102
}
  0
BLOCK_RECORD
  5
17E
330
1
100
AcDbSymbolTableRecord
100
AcDbBlockTableRecord
  2
JZB-31
340
0
102
{BLKREFS
331
1C4
102
}
  0
BLOCK_RECORD
  5
188
330
1
100
AcDbSymbolTableRecord
100
AcDbBlockTableRecord
  2
JZB-32
340
0
102
{BLKREFS
331
1C5
102
}
  0
BLOCK_RECORD
  5
192
330
1
100
AcDbSymbolTableRecord
100
AcDbBlockTableRecord
  2
JZB-33
340
0
102
{BLKREFS
331
1C6
102
}
  0
BLOCK_RECORD
  5
19C
330
1
100
AcDbSymbolTableRecord
100
AcDbBlockTableRecord
  2
JZB-34
340
0
102
{BLKREFS
331
1C7
102
}
  0
ENDTAB
  0
ENDSEC
  0
SECTION
  2
BLOCKS
  0
BLOCK
  5
20
330
1F
100
AcDbEntity
  8
0
100
AcDbBlockBegin
  2
*Model_Space
 70
     0
 10
0.0
 20
0.0
 30
0.0
  3
*Model_Space
  1

  0
ENDBLK
  5
21
330
1F
100
AcDbEntity
  8
0
100
AcDbBlockEnd
  0
BLOCK
  5
1C
330
1B
100
AcDbEntity
 67
     1
  8
0
100
AcDbBlockBegin
  2
*Paper_Space
 70
     0
 10
0.0
 20
0.0
 30
0.0
  3
*Paper_Space
  1

  0
ENDBLK
  5
1D
330
1B
100
AcDbEntity
 67
     1
  8
0
100
AcDbBlockEnd
  0
BLOCK
  5
24
330
23
100
AcDbEntity
  8
0
100
AcDbBlockBegin
  2
*Paper_Space0
 70
     0
 10
0.0
 20
0.0
 30
0.0
  3
*Paper_Space0
  1

  0
ENDBLK
  5
25
330
23
100
AcDbEntity
  8
0
100
AcDbBlockEnd
  0
BLOCK
  5
45
330
44
100
AcDbEntity
  8
0
100
AcDbBlockBegin
  2
JZB-1
 70
     0
 10
0.0
 20
0.0
 30
0.0
  3
JZB-1
  1

  0
LINE
  5
47
330
44
100
AcDbEntity
  8
002
 62
     3
370
    30
100
AcDbLine
 10
391.111255
 20
430.545702
 30
0.0
 11
391.111255
 21
429.782565
 31
0.0
  0
LINE
  5
48
330
44
100
AcDbEntity
  8
002
 62
     3
370
    30
100
AcDbLine
 10
390.917505
 20
430.657564
 30
0.0
 11
388.855005
 21
430.657564
 31
0.0
  0
LINE
  5
49
330
44
100
AcDbEntity
  8
002
 62
     3
370
    30
100
AcDbLine
 10
391.111255
 20
429.782565
 30
0.0
 11
388.661255
 21
429.782565
 31
0.0
  0
LINE
  5
4A
330
44
100
AcDbEntity
  8
002
 62
     3
370
    30
100
AcDbLine
 10
390.917505
 20
430.657564
 30
0.0
 11
391.111255
 21
430.545702
 31
0.0
  0
LINE
  5
4B
330
44
100
AcDbEntity
  8
002
 62
     3
370
    30
100
AcDbLine
 10
388.855005
 20
430.657564
 30
0.0
 11
388.661255
 21
430.545702
 31
0.0
  0
LINE
  5
4C
330
44
100
AcDbEntity
  8
002
 62
     3
370
    30
100
AcDbLine
 10
388.661255
 20
430.545702
 30
0.0
 11
388.661255
 21
429.782565
 31
0.0
  0
LINE
  5
4D
330
44
100
AcDbEntity
  8
002
 62
     3
370
    30
100
AcDbLine
 10
390.498755
 20
429.782565
 30
0.0
 11
390.498755
 21
430.545702
 31
0.0
  0
LINE
  5
4E
330
44
100
AcDbEntity
  8
002
 62
     3
370
    30
100
AcDbLine
 10
389.273755
 20
429.782565
 30
0.0
 11
389.273755
 21
430.545702
 31
0.0
  0
ARC
  5
4F
330
44
100
AcDbEntity
  8
002
 62
     3
370
    30
100
AcDbCircle
 10
388.967505
 20
430.182414
 30
0.0
 40
0.4751499594419462
100
AcDbArc
 50
49.869303
 51
90.0
  0
ARC
  5
50
330
44
100
AcDbEntity
  8
002
 62
     3
370
    30
100
AcDbCircle
 10
390.805005
 20
430.182414
 30
0.0
 40
0.4751499594419462
100
AcDbArc
 50
90.0
 51
130.130697
  0
ARC
  5
51
330
44
100
AcDbEntity
  8
002
 62
     3
370
    30
100
AcDbCircle
 10
389.886255
 20
428.924756
 30
0.0
 40
1.732807415784542
100
AcDbArc
 50
69.300135
 51
110.699865
  0
LINE
  5
52
330
44
100
AcDbEntity
  8
002
 62
     3
370
    30
100
AcDbLine
 10
389.886254
 20
429.782564
 30
0.0
 11
389.886254
 21
429.782565
 31
0.0
  0
LINE
  5
53
330
44
100
AcDbEntity
  8
002
 62
     3
370
    30
100
AcDbLine
 10
389.886254
 20
429.782564
 30
0.0
 11
389.886255
 21
429.782564
 31
0.0
  0
LINE
  5
54
330
44
100
AcDbEntity
  8
002
 62
     3
370
    30
100
AcDbLine
 10
389.886255
 20
429.782564
 30
0.0
 11
389.886255
 21
429.782565
 31
0.0
  0
ENDBLK
  5
46
330
44
100
AcDbEntity
  8
0
100
AcDbBlockEnd
  0
BLOCK
  5
56
330
55
100
AcDbEntity
  8
0
100
AcDbBlockBegin
  2
JZB-2
 70
     0
 10
0.0
 20
0.0
 30
0.0
  3
JZB-2
  1

  0
LINE
  5
58
330
55
100
AcDbEntity
  8
002
 62
     3
370
    30
100
AcDbLine
 10
391.111255
 20
392.519428
 30
0.0
 11
391.111255
 21
393.282565
 31
0.0
  0
LINE
  5
59
330
55
100
AcDbEntity
  8
002
 62
     3
370
    30
100
AcDbLine
 10
390.917505
 20
392.407566
 30
0.0
 11
388.855005
 21
392.407566
 31
0.0
  0
LINE
  5
5A
330
55
100
AcDbEntity
  8
002
 62
     3
370
    30
100
AcDbLine
 10
391.111255
 20
393.282565
 30
0.0
 11
388.661255
 21
393.282565
 31
0.0
  0
LINE
  5
5B
330
55
100
AcDbEntity
  8
002
 62
     3
370
    30
100
AcDbLine
 10
390.917505
 20
392.407566
 30
0.0
 11
391.111255
 21
392.519428
 31
0.0
  0
LINE
  5
5C
330
55
100
AcDbEntity
  8
002
 62
     3
370
    30
100
AcDbLine
 10
388.855005
 20
392.407566
 30
0.0
 11
388.661255
 21
392.519428
 31
0.0
  0
LINE
  5
5D
330
55
100
AcDbEntity
  8
002
 62
     3
370
    30
100
AcDbLine
 10
388.661255
 20
392.519428
 30
0.0
 11
388.661255
 21
393.282565
 31
0.0
  0
LINE
  5
5E
330
55
100
AcDbEntity
  8
002
 62
     3
370
    30
100
AcDbLine
 10
390.498755
 20
393.282565
 30
0.0
 11
390.498755
 21
392.519428
 31
0.0
  0
LINE
  5
5F
330
55
100
AcDbEntity
  8
002
 62
     3
370
    30
100
AcDbLine
 10
389.273755
 20
393.282565
 30
0.0
 11
389.273755
 21
392.519428
 31
0.0
  0
ARC
  5
60
330
55
100
AcDbEntity
  8
002
 62
     3
370
    30
100
AcDbCircle
 10
388.967505
 20
392.882716
 30
0.0
 40
0.4751499594419462
100
AcDbArc
 50
270.0
 51
310.130697
  0
ARC
  5
61
330
55
100
AcDbEntity
  8
002
 62
     3
370
    30
100
AcDbCircle
 10
390.805005
 20
392.882716
 30
0.0
 40
0.4751499594419462
100
AcDbArc
 50
229.869303
 51
270.0
  0
ARC
  5
62
330
55
100
AcDbEntity
  8
002
 62
     3
370
    30
100
AcDbCircle
 10
389.886255
 20
394.140374
 30
0.0
 40
1.732807415784542
100
AcDbArc
 50
249.300135
 51
290.699865
  0
LINE
  5
63
330
55
100
AcDbEntity
  8
002
 62
     3
370
    30
100
AcDbLine
 10
389.886254
 20
393.282566
 30
0.0
 11
389.886254
 21
393.282565
 31
0.0
  0
LINE
  5
64
330
55
100
AcDbEntity
  8
002
 62
     3
370
    30
100
AcDbLine
 10
389.886254
 20
393.282566
 30
0.0
 11
389.886255
 21
393.282566
 31
0.0
  0
LINE
  5
65
330
55
100
AcDbEntity
  8
002
 62
     3
370
    30
100
AcDbLine
 10
389.886255
 20
393.282566
 30
0.0
 11
389.886255
 21
393.282565
 31
0.0
  0
ENDBLK
  5
57
330
55
100
AcDbEntity
  8
0
100
AcDbBlockEnd
  0
BLOCK
  5
67
330
66
100
AcDbEntity
  8
0
100
AcDbBlockBegin
  2
JZB-3
 70
     0
 10
0.0
 20
0.0
 30
0.0
  3
JZB-3
  1

  0
LINE
  5
69
330
66
100
AcDbEntity
  8
003
 62
     3
370
    30
100
AcDbLine
 10
373.764006
 20
79.869366
 30
0.0
 11
374.081543
 21
81.054431
 31
0.0
  0
LINE
  5
6A
330
66
100
AcDbEntity
  8
003
 62
     3
370
    30
100
AcDbLine
 10
375.816598
 20
79.319376
 30
0.0
 11
376.134135
 21
80.504441
 31
0.0
  0
LINE
  5
6B
330
66
100
AcDbEntity
  8
003
 62
     3
370
    30
100
AcDbLine
 10
374.631533
 20
79.001839
 30
0.0
 11
375.816598
 21
79.319376
 31
0.0
  0
LINE
  5
6C
330
66
100
AcDbEntity
  8
003
 62
     3
370
    30
100
AcDbLine
 10
375.266607
 20
81.371968
 30
0.0
 11
374.081543
 21
81.054431
 31
0.0
  0
LINE
  5
6D
330
66
100
AcDbEntity
  8
003
 62
     3
370
    30
100
AcDbLine
 10
376.134135
 20
80.504441
 30
0.0
 11
375.266607
 21
81.371968
 31
0.0
  0
LINE
  5
6E
330
66
100
AcDbEntity
  8
003
 62
     3
370
    30
100
AcDbLine
 10
373.764006
 20
79.869366
 30
0.0
 11
374.631533
 21
79.001839
 31
0.0
  0
CIRCLE
  5
6F
330
66
100
AcDbEntity
  8
003
 62
     3
370
    30
100
AcDbCircle
 10
374.94907
 20
80.186903
 30
0.0
 40
1.0625
  0
ENDBLK
  5
68
330
66
100
AcDbEntity
  8
0
100
AcDbBlockEnd
  0
BLOCK
  5
71
330
70
100
AcDbEntity
  8
0
100
AcDbBlockBegin
  2
JZB-4
 70
     0
 10
0.0
 20
0.0
 30
0.0
  3
JZB-4
  1

  0
LINE
  5
73
330
70
100
AcDbEntity
  8
003
 62
     3
370
    30
100
AcDbLine
 10
371.77282
 20
72.937219
 30
0.0
 11
371.159385
 21
73.999719
 31
0.0
  0
LINE
  5
74
330
70
100
AcDbEntity
  8
003
 62
     3
370
    30
100
AcDbLine
 10
373.613124
 20
73.999719
 30
0.0
 11
372.999689
 21
75.062219
 31
0.0
  0
LINE
  5
75
330
70
100
AcDbEntity
  8
003
 62
     3
370
    30
100
AcDbLine
 10
372.999689
 20
72.937219
 30
0.0
 11
373.613124
 21
73.999719
 31
0.0
  0
LINE
  5
76
330
70
100
AcDbEntity
  8
003
 62
     3
370
    30
100
AcDbLine
 10
371.77282
 20
75.062219
 30
0.0
 11
371.159385
 21
73.999719
 31
0.0
  0
LINE
  5
77
330
70
100
AcDbEntity
  8
003
 62
     3
370
    30
100
AcDbLine
 10
372.999689
 20
75.062219
 30
0.0
 11
371.77282
 21
75.062219
 31
0.0
  0
LINE
  5
78
330
70
100
AcDbEntity
  8
003
 62
     3
370
    30
100
AcDbLine
 10
371.77282
 20
72.937219
 30
0.0
 11
372.999689
 21
72.937219
 31
0.0
  0
CIRCLE
  5
79
330
70
100
AcDbEntity
  8
003
 62
     3
370
    30
100
AcDbCircle
 10
372.386255
 20
73.999719
 30
0.0
 40
1.0625
  0
ENDBLK
  5
72
330
70
100
AcDbEntity
  8
0
100
AcDbBlockEnd
  0
BLOCK
  5
7B
330
7A
100
AcDbEntity
  8
0
100
AcDbBlockBegin
  2
JZB-5
 70
     0
 10
0.0
 20
0.0
 30
0.0
  3
JZB-5
  1

  0
LINE
  5
7D
330
7A
100
AcDbEntity
  8
003
 62
     3
370
    30
100
AcDbLine
 10
375.266607
 20
66.62747
 30
0.0
 11
374.081543
 21
66.945007
 31
0.0
  0
LINE
  5
7E
330
7A
100
AcDbEntity
  8
003
 62
     3
370
    30
100
AcDbLine
 10
375.816598
 20
68.680062
 30
0.0
 11
374.631533
 21
68.997599
 31
0.0
  0
LINE
  5
7F
330
7A
100
AcDbEntity
  8
003
 62
     3
370
    30
100
AcDbLine
 10
376.134135
 20
67.494998
 30
0.0
 11
375.816598
 21
68.680062
 31
0.0
  0
LINE
  5
80
330
7A
100
AcDbEntity
  8
003
 62
     3
370
    30
100
AcDbLine
 10
373.764006
 20
68.130072
 30
0.0
 11
374.081543
 21
66.945007
 31
0.0
  0
LINE
  5
81
330
7A
100
AcDbEntity
  8
003
 62
     3
370
    30
100
AcDbLine
 10
374.631533
 20
68.997599
 30
0.0
 11
373.764006
 21
68.130072
 31
0.0
  0
LINE
  5
82
330
7A
100
AcDbEntity
  8
003
 62
     3
370
    30
100
AcDbLine
 10
375.266607
 20
66.62747
 30
0.0
 11
376.134135
 21
67.494998
 31
0.0
  0
CIRCLE
  5
83
330
7A
100
AcDbEntity
  8
003
 62
     3
370
    30
100
AcDbCircle
 10
374.94907
 20
67.812535
 30
0.0
 40
1.0625
  0
ENDBLK
  5
7C
330
7A
100
AcDbEntity
  8
0
100
AcDbBlockEnd
  0
BLOCK
  5
85
330
84
100
AcDbEntity
  8
0
100
AcDbBlockBegin
  2
JZB-6
 70
     0
 10
0.0
 20
0.0
 30
0.0
  3
JZB-6
  1

  0
LINE
  5
87
330
84
100
AcDbEntity
  8
003
 62
     3
370
    30
100
AcDbLine
 10
382.198755
 20
64.636284
 30
0.0
 11
381.136255
 21
64.02285
 31
0.0
  0
LINE
  5
88
330
84
100
AcDbEntity
  8
003
 62
     3
370
    30
100
AcDbLine
 10
381.136255
 20
66.476588
 30
0.0
 11
380.073755
 21
65.863154
 31
0.0
  0
LINE
  5
89
330
84
100
AcDbEntity
  8
003
 62
     3
370
    30
100
AcDbLine
 10
382.198755
 20
65.863154
 30
0.0
 11
381.136255
 21
66.476588
 31
0.0
  0
LINE
  5
8A
330
84
100
AcDbEntity
  8
003
 62
     3
370
    30
100
AcDbLine
 10
380.073755
 20
64.636284
 30
0.0
 11
381.136255
 21
64.02285
 31
0.0
  0
LINE
  5
8B
330
84
100
AcDbEntity
  8
003
 62
     3
370
    30
100
AcDbLine
 10
380.073755
 20
65.863154
 30
0.0
 11
380.073755
 21
64.636284
 31
0.0
  0
LINE
  5
8C
330
84
100
AcDbEntity
  8
003
 62
     3
370
    30
100
AcDbLine
 10
382.198755
 20
64.636284
 30
0.0
 11
382.198755
 21
65.863154
 31
0.0
  0
CIRCLE
  5
8D
330
84
100
AcDbEntity
  8
003
 62
     3
370
    30
100
AcDbCircle
 10
381.136255
 20
65.249719
 30
0.0
 40
1.0625
  0
ENDBLK
  5
86
330
84
100
AcDbEntity
  8
0
100
AcDbBlockEnd
  0
BLOCK
  5
8F
330
8E
100
AcDbEntity
  8
0
100
AcDbBlockBegin
  2
JZB-7
 70
     0
 10
0.0
 20
0.0
 30
0.0
  3
JZB-7
  1

  0
LINE
  5
91
330
8E
100
AcDbEntity
  8
003
 62
     3
370
    30
100
AcDbLine
 10
388.508504
 20
68.130072
 30
0.0
 11
388.190967
 21
66.945007
 31
0.0
  0
LINE
  5
92
330
8E
100
AcDbEntity
  8
003
 62
     3
370
    30
100
AcDbLine
 10
386.455911
 20
68.680062
 30
0.0
 11
386.138374
 21
67.494998
 31
0.0
  0
LINE
  5
93
330
8E
100
AcDbEntity
  8
003
 62
     3
370
    30
100
AcDbLine
 10
387.640976
 20
68.997599
 30
0.0
 11
386.455911
 21
68.680062
 31
0.0
  0
LINE
  5
94
330
8E
100
AcDbEntity
  8
003
 62
     3
370
    30
100
AcDbLine
 10
387.005902
 20
66.62747
 30
0.0
 11
388.190967
 21
66.945007
 31
0.0
  0
LINE
  5
95
330
8E
100
AcDbEntity
  8
003
 62
     3
370
    30
100
AcDbLine
 10
386.138374
 20
67.494998
 30
0.0
 11
387.005902
 21
66.62747
 31
0.0
  0
LINE
  5
96
330
8E
100
AcDbEntity
  8
003
 62
     3
370
    30
100
AcDbLine
 10
388.508504
 20
68.130072
 30
0.0
 11
387.640976
 21
68.997599
 31
0.0
  0
CIRCLE
  5
97
330
8E
100
AcDbEntity
  8
003
 62
     3
370
    30
100
AcDbCircle
 10
387.323439
 20
67.812535
 30
0.0
 40
1.0625
  0
ENDBLK
  5
90
330
8E
100
AcDbEntity
  8
0
100
AcDbBlockEnd
  0
BLOCK
  5
99
330
98
100
AcDbEntity
  8
0
100
AcDbBlockBegin
  2
JZB-8
 70
     0
 10
0.0
 20
0.0
 30
0.0
  3
JZB-8
  1

  0
LINE
  5
9B
330
98
100
AcDbEntity
  8
003
 62
     3
370
    30
100
AcDbLine
 10
390.499689
 20
75.062219
 30
0.0
 11
391.113124
 21
73.999719
 31
0.0
  0
LINE
  5
9C
330
98
100
AcDbEntity
  8
003
 62
     3
370
    30
100
AcDbLine
 10
388.659385
 20
73.999719
 30
0.0
 11
389.27282
 21
72.937219
 31
0.0
  0
LINE
  5
9D
330
98
100
AcDbEntity
  8
003
 62
     3
370
    30
100
AcDbLine
 10
389.27282
 20
75.062219
 30
0.0
 11
388.659385
 21
73.999719
 31
0.0
  0
LINE
  5
9E
330
98
100
AcDbEntity
  8
003
 62
     3
370
    30
100
AcDbLine
 10
390.499689
 20
72.937219
 30
0.0
 11
391.113124
 21
73.999719
 31
0.0
  0
LINE
  5
9F
330
98
100
AcDbEntity
  8
003
 62
     3
370
    30
100
AcDbLine
 10
389.27282
 20
72.937219
 30
0.0
 11
390.499689
 21
72.937219
 31
0.0
  0
LINE
  5
A0
330
98
100
AcDbEntity
  8
003
 62
     3
370
    30
100
AcDbLine
 10
390.499689
 20
75.062219
 30
0.0
 11
389.27282
 21
75.062219
 31
0.0
  0
CIRCLE
  5
A1
330
98
100
AcDbEntity
  8
003
 62
     3
370
    30
100
AcDbCircle
 10
389.886255
 20
73.999719
 30
0.0
 40
1.0625
  0
ENDBLK
  5
9A
330
98
100
AcDbEntity
  8
0
100
AcDbBlockEnd
  0
BLOCK
  5
A3
330
A2
100
AcDbEntity
  8
0
100
AcDbBlockBegin
  2
JZB-9
 70
     0
 10
0.0
 20
0.0
 30
0.0
  3
JZB-9
  1

  0
LINE
  5
A5
330
A2
100
AcDbEntity
  8
003
 62
     3
370
    30
100
AcDbLine
 10
387.005902
 20
81.371968
 30
0.0
 11
388.190967
 21
81.054431
 31
0.0
  0
LINE
  5
A6
330
A2
100
AcDbEntity
  8
003
 62
     3
370
    30
100
AcDbLine
 10
386.455911
 20
79.319376
 30
0.0
 11
387.640976
 21
79.001839
 31
0.0
  0
LINE
  5
A7
330
A2
100
AcDbEntity
  8
003
 62
     3
370
    30
100
AcDbLine
 10
386.138374
 20
80.504441
 30
0.0
 11
386.455911
 21
79.319376
 31
0.0
  0
LINE
  5
A8
330
A2
100
AcDbEntity
  8
003
 62
     3
370
    30
100
AcDbLine
 10
388.508504
 20
79.869366
 30
0.0
 11
388.190967
 21
81.054431
 31
0.0
  0
LINE
  5
A9
330
A2
100
AcDbEntity
  8
003
 62
     3
370
    30
100
AcDbLine
 10
387.640976
 20
79.001839
 30
0.0
 11
388.508504
 21
79.869366
 31
0.0
  0
LINE
  5
AA
330
A2
100
AcDbEntity
  8
003
 62
     3
370
    30
100
AcDbLine
 10
387.005902
 20
81.371968
 30
0.0
 11
386.138374
 21
80.504441
 31
0.0
  0
CIRCLE
  5
AB
330
A2
100
AcDbEntity
  8
003
 62
     3
370
    30
100
AcDbCircle
 10
387.323439
 20
80.186903
 30
0.0
 40
1.0625
  0
ENDBLK
  5
A4
330
A2
100
AcDbEntity
  8
0
100
AcDbBlockEnd
  0
BLOCK
  5
AD
330
AC
100
AcDbEntity
  8
0
100
AcDbBlockBegin
  2
JZB-10
 70
     0
 10
0.0
 20
0.0
 30
0.0
  3
JZB-10
  1

  0
LINE
  5
AF
330
AC
100
AcDbEntity
  8
003
 62
     3
370
    30
100
AcDbLine
 10
380.073755
 20
83.363154
 30
0.0
 11
381.136255
 21
83.976588
 31
0.0
  0
LINE
  5
B0
330
AC
100
AcDbEntity
  8
003
 62
     3
370
    30
100
AcDbLine
 10
381.136255
 20
81.52285
 30
0.0
 11
382.198755
 21
82.136284
 31
0.0
  0
LINE
  5
B1
330
AC
100
AcDbEntity
  8
003
 62
     3
370
    30
100
AcDbLine
 10
380.073755
 20
82.136284
 30
0.0
 11
381.136255
 21
81.52285
 31
0.0
  0
LINE
  5
B2
330
AC
100
AcDbEntity
  8
003
 62
     3
370
    30
100
AcDbLine
 10
382.198755
 20
83.363154
 30
0.0
 11
381.136255
 21
83.976588
 31
0.0
  0
LINE
  5
B3
330
AC
100
AcDbEntity
  8
003
 62
     3
370
    30
100
AcDbLine
 10
382.198755
 20
82.136284
 30
0.0
 11
382.198755
 21
83.363154
 31
0.0
  0
LINE
  5
B4
330
AC
100
AcDbEntity
  8
003
 62
     3
370
    30
100
AcDbLine
 10
380.073755
 20
83.363154
 30
0.0
 11
380.073755
 21
82.136284
 31
0.0
  0
CIRCLE
  5
B5
330
AC
100
AcDbEntity
  8
003
 62
     3
370
    30
100
AcDbCircle
 10
381.136255
 20
82.749719
 30
0.0
 40
1.0625
  0
ENDBLK
  5
AE
330
AC
100
AcDbEntity
  8
0
100
AcDbBlockEnd
  0
BLOCK
  5
B7
330
B6
100
AcDbEntity
  8
0
100
AcDbBlockBegin
  2
JZB-11
 70
     0
 10
0.0
 20
0.0
 30
0.0
  3
JZB-11
  1

  0
LINE
  5
B9
330
B6
100
AcDbEntity
  8
003
 62
     3
370
    30
100
AcDbLine
 10
443.957881
 20
79.869366
 30
0.0
 11
444.275418
 21
81.054431
 31
0.0
  0
LINE
  5
BA
330
B6
100
AcDbEntity
  8
003
 62
     3
370
    30
100
AcDbLine
 10
446.010473
 20
79.319376
 30
0.0
 11
446.32801
 21
80.504441
 31
0.0
  0
LINE
  5
BB
330
B6
100
AcDbEntity
  8
003
 62
     3
370
    30
100
AcDbLine
 10
444.825408
 20
79.001839
 30
0.0
 11
446.010473
 21
79.319376
 31
0.0
  0
LINE
  5
BC
330
B6
100
AcDbEntity
  8
003
 62
     3
370
    30
100
AcDbLine
 10
445.460482
 20
81.371968
 30
0.0
 11
444.275418
 21
81.054431
 31
0.0
  0
LINE
  5
BD
330
B6
100
AcDbEntity
  8
003
 62
     3
370
    30
100
AcDbLine
 10
446.32801
 20
80.504441
 30
0.0
 11
445.460482
 21
81.371968
 31
0.0
  0
LINE
  5
BE
330
B6
100
AcDbEntity
  8
003
 62
     3
370
    30
100
AcDbLine
 10
443.957881
 20
79.869366
 30
0.0
 11
444.825408
 21
79.001839
 31
0.0
  0
CIRCLE
  5
BF
330
B6
100
AcDbEntity
  8
003
 62
     3
370
    30
100
AcDbCircle
 10
445.142945
 20
80.186903
 30
0.0
 40
1.0625
  0
ENDBLK
  5
B8
330
B6
100
AcDbEntity
  8
0
100
AcDbBlockEnd
  0
BLOCK
  5
C1
330
C0
100
AcDbEntity
  8
0
100
AcDbBlockBegin
  2
JZB-12
 70
     0
 10
0.0
 20
0.0
 30
0.0
  3
JZB-12
  1

  0
LINE
  5
C3
330
C0
100
AcDbEntity
  8
003
 62
     3
370
    30
100
AcDbLine
 10
441.966695
 20
72.937219
 30
0.0
 11
441.35326
 21
73.999719
 31
0.0
  0
LINE
  5
C4
330
C0
100
AcDbEntity
  8
003
 62
     3
370
    30
100
AcDbLine
 10
443.806999
 20
73.999719
 30
0.0
 11
443.193564
 21
75.062219
 31
0.0
  0
LINE
  5
C5
330
C0
100
AcDbEntity
  8
003
 62
     3
370
    30
100
AcDbLine
 10
443.193564
 20
72.937219
 30
0.0
 11
443.806999
 21
73.999719
 31
0.0
  0
LINE
  5
C6
330
C0
100
AcDbEntity
  8
003
 62
     3
370
    30
100
AcDbLine
 10
441.966695
 20
75.062219
 30
0.0
 11
441.35326
 21
73.999719
 31
0.0
  0
LINE
  5
C7
330
C0
100
AcDbEntity
  8
003
 62
     3
370
    30
100
AcDbLine
 10
443.193564
 20
75.062219
 30
0.0
 11
441.966695
 21
75.062219
 31
0.0
  0
LINE
  5
C8
330
C0
100
AcDbEntity
  8
003
 62
     3
370
    30
100
AcDbLine
 10
441.966695
 20
72.937219
 30
0.0
 11
443.193564
 21
72.937219
 31
0.0
  0
CIRCLE
  5
C9
330
C0
100
AcDbEntity
  8
003
 62
     3
370
    30
100
AcDbCircle
 10
442.58013
 20
73.999719
 30
0.0
 40
1.0625
  0
ENDBLK
  5
C2
330
C0
100
AcDbEntity
  8
0
100
AcDbBlockEnd
  0
BLOCK
  5
CB
330
CA
100
AcDbEntity
  8
0
100
AcDbBlockBegin
  2
JZB-13
 70
     0
 10
0.0
 20
0.0
 30
0.0
  3
JZB-13
  1

  0
LINE
  5
CD
330
CA
100
AcDbEntity
  8
003
 62
     3
370
    30
100
AcDbLine
 10
445.460482
 20
66.62747
 30
0.0
 11
444.275418
 21
66.945007
 31
0.0
  0
LINE
  5
CE
330
CA
100
AcDbEntity
  8
003
 62
     3
370
    30
100
AcDbLine
 10
446.010473
 20
68.680062
 30
0.0
 11
444.825408
 21
68.997599
 31
0.0
  0
LINE
  5
CF
330
CA
100
AcDbEntity
  8
003
 62
     3
370
    30
100
AcDbLine
 10
446.32801
 20
67.494998
 30
0.0
 11
446.010473
 21
68.680062
 31
0.0
  0
LINE
  5
D0
330
CA
100
AcDbEntity
  8
003
 62
     3
370
    30
100
AcDbLine
 10
443.957881
 20
68.130072
 30
0.0
 11
444.275418
 21
66.945007
 31
0.0
  0
LINE
  5
D1
330
CA
100
AcDbEntity
  8
003
 62
     3
370
    30
100
AcDbLine
 10
444.825408
 20
68.997599
 30
0.0
 11
443.957881
 21
68.130072
 31
0.0
  0
LINE
  5
D2
330
CA
100
AcDbEntity
  8
003
 62
     3
370
    30
100
AcDbLine
 10
445.460482
 20
66.62747
 30
0.0
 11
446.32801
 21
67.494998
 31
0.0
  0
CIRCLE
  5
D3
330
CA
100
AcDbEntity
  8
003
 62
     3
370
    30
100
AcDbCircle
 10
445.142945
 20
67.812535
 30
0.0
 40
1.0625
  0
ENDBLK
  5
CC
330
CA
100
AcDbEntity
  8
0
100
AcDbBlockEnd
  0
BLOCK
  5
D5
330
D4
100
AcDbEntity
  8
0
100
AcDbBlockBegin
  2
JZB-14
 70
     0
 10
0.0
 20
0.0
 30
0.0
  3
JZB-14
  1

  0
LINE
  5
D7
330
D4
100
AcDbEntity
  8
003
 62
     3
370
    30
100
AcDbLine
 10
452.39263
 20
64.636284
 30
0.0
 11
451.33013
 21
64.02285
 31
0.0
  0
LINE
  5
D8
330
D4
100
AcDbEntity
  8
003
 62
     3
370
    30
100
AcDbLine
 10
451.33013
 20
66.476588
 30
0.0
 11
450.26763
 21
65.863154
 31
0.0
  0
LINE
  5
D9
330
D4
100
AcDbEntity
  8
003
 62
     3
370
    30
100
AcDbLine
 10
452.39263
 20
65.863154
 30
0.0
 11
451.33013
 21
66.476588
 31
0.0
  0
LINE
  5
DA
330
D4
100
AcDbEntity
  8
003
 62
     3
370
    30
100
AcDbLine
 10
450.26763
 20
64.636284
 30
0.0
 11
451.33013
 21
64.02285
 31
0.0
  0
LINE
  5
DB
330
D4
100
AcDbEntity
  8
003
 62
     3
370
    30
100
AcDbLine
 10
450.26763
 20
65.863154
 30
0.0
 11
450.26763
 21
64.636284
 31
0.0
  0
LINE
  5
DC
330
D4
100
AcDbEntity
  8
003
 62
     3
370
    30
100
AcDbLine
 10
452.39263
 20
64.636284
 30
0.0
 11
452.39263
 21
65.863154
 31
0.0
  0
CIRCLE
  5
DD
330
D4
100
AcDbEntity
  8
003
 62
     3
370
    30
100
AcDbCircle
 10
451.33013
 20
65.249719
 30
0.0
 40
1.0625
  0
ENDBLK
  5
D6
330
D4
100
AcDbEntity
  8
0
100
AcDbBlockEnd
  0
BLOCK
  5
DF
330
DE
100
AcDbEntity
  8
0
100
AcDbBlockBegin
  2
JZB-15
 70
     0
 10
0.0
 20
0.0
 30
0.0
  3
JZB-15
  1

  0
LINE
  5
E1
330
DE
100
AcDbEntity
  8
003
 62
     3
370
    30
100
AcDbLine
 10
458.702379
 20
68.130072
 30
0.0
 11
458.384842
 21
66.945007
 31
0.0
  0
LINE
  5
E2
330
DE
100
AcDbEntity
  8
003
 62
     3
370
    30
100
AcDbLine
 10
456.649786
 20
68.680062
 30
0.0
 11
456.332249
 21
67.494998
 31
0.0
  0
LINE
  5
E3
330
DE
100
AcDbEntity
  8
003
 62
     3
370
    30
100
AcDbLine
 10
457.834851
 20
68.997599
 30
0.0
 11
456.649786
 21
68.680062
 31
0.0
  0
LINE
  5
E4
330
DE
100
AcDbEntity
  8
003
 62
     3
370
    30
100
AcDbLine
 10
457.199777
 20
66.62747
 30
0.0
 11
458.384842
 21
66.945007
 31
0.0
  0
LINE
  5
E5
330
DE
100
AcDbEntity
  8
003
 62
     3
370
    30
100
AcDbLine
 10
456.332249
 20
67.494998
 30
0.0
 11
457.199777
 21
66.62747
 31
0.0
  0
LINE
  5
E6
330
DE
100
AcDbEntity
  8
003
 62
     3
370
    30
100
AcDbLine
 10
458.702379
 20
68.130072
 30
0.0
 11
457.834851
 21
68.997599
 31
0.0
  0
CIRCLE
  5
E7
330
DE
100
AcDbEntity
  8
003
 62
     3
370
    30
100
AcDbCircle
 10
457.517314
 20
67.812535
 30
0.0
 40
1.0625
  0
ENDBLK
  5
E0
330
DE
100
AcDbEntity
  8
0
100
AcDbBlockEnd
  0
BLOCK
  5
E9
330
E8
100
AcDbEntity
  8
0
100
AcDbBlockBegin
  2
JZB-16
 70
     0
 10
0.0
 20
0.0
 30
0.0
  3
JZB-16
  1

  0
LINE
  5
EB
330
E8
100
AcDbEntity
  8
003
 62
     3
370
    30
100
AcDbLine
 10
460.693564
 20
75.062219
 30
0.0
 11
461.306999
 21
73.999719
 31
0.0
  0
LINE
  5
EC
330
E8
100
AcDbEntity
  8
003
 62
     3
370
    30
100
AcDbLine
 10
458.85326
 20
73.999719
 30
0.0
 11
459.466695
 21
72.937219
 31
0.0
  0
LINE
  5
ED
330
E8
100
AcDbEntity
  8
003
 62
     3
370
    30
100
AcDbLine
 10
459.466695
 20
75.062219
 30
0.0
 11
458.85326
 21
73.999719
 31
0.0
  0
LINE
  5
EE
330
E8
100
AcDbEntity
  8
003
 62
     3
370
    30
100
AcDbLine
 10
460.693564
 20
72.937219
 30
0.0
 11
461.306999
 21
73.999719
 31
0.0
  0
LINE
  5
EF
330
E8
100
AcDbEntity
  8
003
 62
     3
370
    30
100
AcDbLine
 10
459.466695
 20
72.937219
 30
0.0
 11
460.693564
 21
72.937219
 31
0.0
  0
LINE
  5
F0
330
E8
100
AcDbEntity
  8
003
 62
     3
370
    30
100
AcDbLine
 10
460.693564
 20
75.062219
 30
0.0
 11
459.466695
 21
75.062219
 31
0.0
  0
CIRCLE
  5
F1
330
E8
100
AcDbEntity
  8
003
 62
     3
370
    30
100
AcDbCircle
 10
460.08013
 20
73.999719
 30
0.0
 40
1.0625
  0
ENDBLK
  5
EA
330
E8
100
AcDbEntity
  8
0
100
AcDbBlockEnd
  0
BLOCK
  5
F3
330
F2
100
AcDbEntity
  8
0
100
AcDbBlockBegin
  2
JZB-17
 70
     0
 10
0.0
 20
0.0
 30
0.0
  3
JZB-17
  1

  0
LINE
  5
F5
330
F2
100
AcDbEntity
  8
003
 62
     3
370
    30
100
AcDbLine
 10
457.199777
 20
81.371968
 30
0.0
 11
458.384842
 21
81.054431
 31
0.0
  0
LINE
  5
F6
330
F2
100
AcDbEntity
  8
003
 62
     3
370
    30
100
AcDbLine
 10
456.649786
 20
79.319376
 30
0.0
 11
457.834851
 21
79.001839
 31
0.0
  0
LINE
  5
F7
330
F2
100
AcDbEntity
  8
003
 62
     3
370
    30
100
AcDbLine
 10
456.332249
 20
80.504441
 30
0.0
 11
456.649786
 21
79.319376
 31
0.0
  0
LINE
  5
F8
330
F2
100
AcDbEntity
  8
003
 62
     3
370
    30
100
AcDbLine
 10
458.702379
 20
79.869366
 30
0.0
 11
458.384842
 21
81.054431
 31
0.0
  0
LINE
  5
F9
330
F2
100
AcDbEntity
  8
003
 62
     3
370
    30
100
AcDbLine
 10
457.834851
 20
79.001839
 30
0.0
 11
458.702379
 21
79.869366
 31
0.0
  0
LINE
  5
FA
330
F2
100
AcDbEntity
  8
003
 62
     3
370
    30
100
AcDbLine
 10
457.199777
 20
81.371968
 30
0.0
 11
456.332249
 21
80.504441
 31
0.0
  0
CIRCLE
  5
FB
330
F2
100
AcDbEntity
  8
003
 62
     3
370
    30
100
AcDbCircle
 10
457.517314
 20
80.186903
 30
0.0
 40
1.0625
  0
ENDBLK
  5
F4
330
F2
100
AcDbEntity
  8
0
100
AcDbBlockEnd
  0
BLOCK
  5
FD
330
FC
100
AcDbEntity
  8
0
100
AcDbBlockBegin
  2
JZB-18
 70
     0
 10
0.0
 20
0.0
 30
0.0
  3
JZB-18
  1

  0
LINE
  5
FF
330
FC
100
AcDbEntity
  8
003
 62
     3
370
    30
100
AcDbLine
 10
450.26763
 20
83.363154
 30
0.0
 11
451.33013
 21
83.976588
 31
0.0
  0
LINE
  5
100
330
FC
100
AcDbEntity
  8
003
 62
     3
370
    30
100
AcDbLine
 10
451.33013
 20
81.52285
 30
0.0
 11
452.39263
 21
82.136284
 31
0.0
  0
LINE
  5
101
330
FC
100
AcDbEntity
  8
003
 62
     3
370
    30
100
AcDbLine
 10
450.26763
 20
82.136284
 30
0.0
 11
451.33013
 21
81.52285
 31
0.0
  0
LINE
  5
102
330
FC
100
AcDbEntity
  8
003
 62
     3
370
    30
100
AcDbLine
 10
452.39263
 20
83.363154
 30
0.0
 11
451.33013
 21
83.976588
 31
0.0
  0
LINE
  5
103
330
FC
100
AcDbEntity
  8
003
 62
     3
370
    30
100
AcDbLine
 10
452.39263
 20
82.136284
 30
0.0
 11
452.39263
 21
83.363154
 31
0.0
  0
LINE
  5
104
330
FC
100
AcDbEntity
  8
003
 62
     3
370
    30
100
AcDbLine
 10
450.26763
 20
83.363154
 30
0.0
 11
450.26763
 21
82.136284
 31
0.0
  0
CIRCLE
  5
105
330
FC
100
AcDbEntity
  8
003
 62
     3
370
    30
100
AcDbCircle
 10
451.33013
 20
82.749719
 30
0.0
 40
1.0625
  0
ENDBLK
  5
FE
330
FC
100
AcDbEntity
  8
0
100
AcDbBlockEnd
  0
BLOCK
  5
107
330
106
100
AcDbEntity
  8
0
100
AcDbBlockBegin
  2
JZB-19
 70
     0
 10
0.0
 20
0.0
 30
0.0
  3
JZB-19
  1

  0
LINE
  5
109
330
106
100
AcDbEntity
  8
003
 62
     3
370
    30
100
AcDbLine
 10
519.128925
 20
164.084754
 30
0.0
 11
519.446462
 21
165.269819
 31
0.0
  0
LINE
  5
10A
330
106
100
AcDbEntity
  8
003
 62
     3
370
    30
100
AcDbLine
 10
521.181517
 20
163.534764
 30
0.0
 11
521.499055
 21
164.719829
 31
0.0
  0
LINE
  5
10B
330
106
100
AcDbEntity
  8
003
 62
     3
370
    30
100
AcDbLine
 10
519.996453
 20
163.217227
 30
0.0
 11
521.181517
 21
163.534764
 31
0.0
  0
LINE
  5
10C
330
106
100
AcDbEntity
  8
003
 62
     3
370
    30
100
AcDbLine
 10
520.631527
 20
165.587356
 30
0.0
 11
519.446462
 21
165.269819
 31
0.0
  0
LINE
  5
10D
330
106
100
AcDbEntity
  8
003
 62
     3
370
    30
100
AcDbLine
 10
521.499055
 20
164.719829
 30
0.0
 11
520.631527
 21
165.587356
 31
0.0
  0
LINE
  5
10E
330
106
100
AcDbEntity
  8
003
 62
     3
370
    30
100
AcDbLine
 10
519.128925
 20
164.084754
 30
0.0
 11
519.996453
 21
163.217227
 31
0.0
  0
CIRCLE
  5
10F
330
106
100
AcDbEntity
  8
003
 62
     3
370
    30
100
AcDbCircle
 10
520.31399
 20
164.402291
 30
0.0
 40
1.0625
  0
ENDBLK
  5
108
330
106
100
AcDbEntity
  8
0
100
AcDbBlockEnd
  0
BLOCK
  5
111
330
110
100
AcDbEntity
  8
0
100
AcDbBlockBegin
  2
JZB-20
 70
     0
 10
0.0
 20
0.0
 30
0.0
  3
JZB-20
  1

  0
LINE
  5
113
330
110
100
AcDbEntity
  8
003
 62
     3
370
    30
100
AcDbLine
 10
517.137739
 20
157.152607
 30
0.0
 11
516.524305
 21
158.215107
 31
0.0
  0
LINE
  5
114
330
110
100
AcDbEntity
  8
003
 62
     3
370
    30
100
AcDbLine
 10
518.978043
 20
158.215107
 30
0.0
 11
518.364609
 21
159.277607
 31
0.0
  0
LINE
  5
115
330
110
100
AcDbEntity
  8
003
 62
     3
370
    30
100
AcDbLine
 10
518.364609
 20
157.152607
 30
0.0
 11
518.978043
 21
158.215107
 31
0.0
  0
LINE
  5
116
330
110
100
AcDbEntity
  8
003
 62
     3
370
    30
100
AcDbLine
 10
517.137739
 20
159.277607
 30
0.0
 11
516.524305
 21
158.215107
 31
0.0
  0
LINE
  5
117
330
110
100
AcDbEntity
  8
003
 62
     3
370
    30
100
AcDbLine
 10
518.364609
 20
159.277607
 30
0.0
 11
517.137739
 21
159.277607
 31
0.0
  0
LINE
  5
118
330
110
100
AcDbEntity
  8
003
 62
     3
370
    30
100
AcDbLine
 10
517.137739
 20
157.152607
 30
0.0
 11
518.364609
 21
157.152607
 31
0.0
  0
CIRCLE
  5
119
330
110
100
AcDbEntity
  8
003
 62
     3
370
    30
100
AcDbCircle
 10
517.751174
 20
158.215107
 30
0.0
 40
1.0625
  0
ENDBLK
  5
112
330
110
100
AcDbEntity
  8
0
100
AcDbBlockEnd
  0
BLOCK
  5
11B
330
11A
100
AcDbEntity
  8
0
100
AcDbBlockBegin
  2
JZB-21
 70
     0
 10
0.0
 20
0.0
 30
0.0
  3
JZB-21
  1

  0
LINE
  5
11D
330
11A
100
AcDbEntity
  8
003
 62
     3
370
    30
100
AcDbLine
 10
520.631527
 20
150.842858
 30
0.0
 11
519.446462
 21
151.160395
 31
0.0
  0
LINE
  5
11E
330
11A
100
AcDbEntity
  8
003
 62
     3
370
    30
100
AcDbLine
 10
521.181517
 20
152.89545
 30
0.0
 11
519.996453
 21
153.212988
 31
0.0
  0
LINE
  5
11F
330
11A
100
AcDbEntity
  8
003
 62
     3
370
    30
100
AcDbLine
 10
521.499055
 20
151.710386
 30
0.0
 11
521.181517
 21
152.89545
 31
0.0
  0
LINE
  5
120
330
11A
100
AcDbEntity
  8
003
 62
     3
370
    30
100
AcDbLine
 10
519.128925
 20
152.34546
 30
0.0
 11
519.446462
 21
151.160395
 31
0.0
  0
LINE
  5
121
330
11A
100
AcDbEntity
  8
003
 62
     3
370
    30
100
AcDbLine
 10
519.996453
 20
153.212988
 30
0.0
 11
519.128925
 21
152.34546
 31
0.0
  0
LINE
  5
122
330
11A
100
AcDbEntity
  8
003
 62
     3
370
    30
100
AcDbLine
 10
520.631527
 20
150.842858
 30
0.0
 11
521.499055
 21
151.710386
 31
0.0
  0
CIRCLE
  5
123
330
11A
100
AcDbEntity
  8
003
 62
     3
370
    30
100
AcDbCircle
 10
520.31399
 20
152.027923
 30
0.0
 40
1.0625
  0
ENDBLK
  5
11C
330
11A
100
AcDbEntity
  8
0
100
AcDbBlockEnd
  0
BLOCK
  5
125
330
124
100
AcDbEntity
  8
0
100
AcDbBlockBegin
  2
JZB-22
 70
     0
 10
0.0
 20
0.0
 30
0.0
  3
JZB-22
  1

  0
LINE
  5
127
330
124
100
AcDbEntity
  8
003
 62
     3
370
    30
100
AcDbLine
 10
527.563674
 20
148.851672
 30
0.0
 11
526.501174
 21
148.238238
 31
0.0
  0
LINE
  5
128
330
124
100
AcDbEntity
  8
003
 62
     3
370
    30
100
AcDbLine
 10
526.501174
 20
150.691976
 30
0.0
 11
525.438674
 21
150.078542
 31
0.0
  0
LINE
  5
129
330
124
100
AcDbEntity
  8
003
 62
     3
370
    30
100
AcDbLine
 10
527.563674
 20
150.078542
 30
0.0
 11
526.501174
 21
150.691976
 31
0.0
  0
LINE
  5
12A
330
124
100
AcDbEntity
  8
003
 62
     3
370
    30
100
AcDbLine
 10
525.438674
 20
148.851672
 30
0.0
 11
526.501174
 21
148.238238
 31
0.0
  0
LINE
  5
12B
330
124
100
AcDbEntity
  8
003
 62
     3
370
    30
100
AcDbLine
 10
525.438674
 20
150.078542
 30
0.0
 11
525.438674
 21
148.851672
 31
0.0
  0
LINE
  5
12C
330
124
100
AcDbEntity
  8
003
 62
     3
370
    30
100
AcDbLine
 10
527.563674
 20
148.851672
 30
0.0
 11
527.563674
 21
150.078542
 31
0.0
  0
CIRCLE
  5
12D
330
124
100
AcDbEntity
  8
003
 62
     3
370
    30
100
AcDbCircle
 10
526.501174
 20
149.465107
 30
0.0
 40
1.0625
  0
ENDBLK
  5
126
330
124
100
AcDbEntity
  8
0
100
AcDbBlockEnd
  0
BLOCK
  5
12F
330
12E
100
AcDbEntity
  8
0
100
AcDbBlockBegin
  2
JZB-23
 70
     0
 10
0.0
 20
0.0
 30
0.0
  3
JZB-23
  1

  0
LINE
  5
131
330
12E
100
AcDbEntity
  8
003
 62
     3
370
    30
100
AcDbLine
 10
533.873423
 20
152.34546
 30
0.0
 11
533.555886
 21
151.160395
 31
0.0
  0
LINE
  5
132
330
12E
100
AcDbEntity
  8
003
 62
     3
370
    30
100
AcDbLine
 10
531.820831
 20
152.89545
 30
0.0
 11
531.503294
 21
151.710386
 31
0.0
  0
LINE
  5
133
330
12E
100
AcDbEntity
  8
003
 62
     3
370
    30
100
AcDbLine
 10
533.005896
 20
153.212988
 30
0.0
 11
531.820831
 21
152.89545
 31
0.0
  0
LINE
  5
134
330
12E
100
AcDbEntity
  8
003
 62
     3
370
    30
100
AcDbLine
 10
532.370821
 20
150.842858
 30
0.0
 11
533.555886
 21
151.160395
 31
0.0
  0
LINE
  5
135
330
12E
100
AcDbEntity
  8
003
 62
     3
370
    30
100
AcDbLine
 10
531.503294
 20
151.710386
 30
0.0
 11
532.370821
 21
150.842858
 31
0.0
  0
LINE
  5
136
330
12E
100
AcDbEntity
  8
003
 62
     3
370
    30
100
AcDbLine
 10
533.873423
 20
152.34546
 30
0.0
 11
533.005896
 21
153.212988
 31
0.0
  0
CIRCLE
  5
137
330
12E
100
AcDbEntity
  8
003
 62
     3
370
    30
100
AcDbCircle
 10
532.688358
 20
152.027923
 30
0.0
 40
1.0625
  0
ENDBLK
  5
130
330
12E
100
AcDbEntity
  8
0
100
AcDbBlockEnd
  0
BLOCK
  5
139
330
138
100
AcDbEntity
  8
0
100
AcDbBlockBegin
  2
JZB-24
 70
     0
 10
0.0
 20
0.0
 30
0.0
  3
JZB-24
  1

  0
LINE
  5
13B
330
138
100
AcDbEntity
  8
003
 62
     3
370
    30
100
AcDbLine
 10
535.864609
 20
159.277607
 30
0.0
 11
536.478043
 21
158.215107
 31
0.0
  0
LINE
  5
13C
330
138
100
AcDbEntity
  8
003
 62
     3
370
    30
100
AcDbLine
 10
534.024305
 20
158.215107
 30
0.0
 11
534.637739
 21
157.152607
 31
0.0
  0
LINE
  5
13D
330
138
100
AcDbEntity
  8
003
 62
     3
370
    30
100
AcDbLine
 10
534.637739
 20
159.277607
 30
0.0
 11
534.024305
 21
158.215107
 31
0.0
  0
LINE
  5
13E
330
138
100
AcDbEntity
  8
003
 62
     3
370
    30
100
AcDbLine
 10
535.864609
 20
157.152607
 30
0.0
 11
536.478043
 21
158.215107
 31
0.0
  0
LINE
  5
13F
330
138
100
AcDbEntity
  8
003
 62
     3
370
    30
100
AcDbLine
 10
534.637739
 20
157.152607
 30
0.0
 11
535.864609
 21
157.152607
 31
0.0
  0
LINE
  5
140
330
138
100
AcDbEntity
  8
003
 62
     3
370
    30
100
AcDbLine
 10
535.864609
 20
159.277607
 30
0.0
 11
534.637739
 21
159.277607
 31
0.0
  0
CIRCLE
  5
141
330
138
100
AcDbEntity
  8
003
 62
     3
370
    30
100
AcDbCircle
 10
535.251174
 20
158.215107
 30
0.0
 40
1.0625
  0
ENDBLK
  5
13A
330
138
100
AcDbEntity
  8
0
100
AcDbBlockEnd
  0
BLOCK
  5
143
330
142
100
AcDbEntity
  8
0
100
AcDbBlockBegin
  2
JZB-25
 70
     0
 10
0.0
 20
0.0
 30
0.0
  3
JZB-25
  1

  0
LINE
  5
145
330
142
100
AcDbEntity
  8
003
 62
     3
370
    30
100
AcDbLine
 10
532.370821
 20
165.587356
 30
0.0
 11
533.555886
 21
165.269819
 31
0.0
  0
LINE
  5
146
330
142
100
AcDbEntity
  8
003
 62
     3
370
    30
100
AcDbLine
 10
531.820831
 20
163.534764
 30
0.0
 11
533.005896
 21
163.217227
 31
0.0
  0
LINE
  5
147
330
142
100
AcDbEntity
  8
003
 62
     3
370
    30
100
AcDbLine
 10
531.503294
 20
164.719829
 30
0.0
 11
531.820831
 21
163.534764
 31
0.0
  0
LINE
  5
148
330
142
100
AcDbEntity
  8
003
 62
     3
370
    30
100
AcDbLine
 10
533.873423
 20
164.084754
 30
0.0
 11
533.555886
 21
165.269819
 31
0.0
  0
LINE
  5
149
330
142
100
AcDbEntity
  8
003
 62
     3
370
    30
100
AcDbLine
 10
533.005896
 20
163.217227
 30
0.0
 11
533.873423
 21
164.084754
 31
0.0
  0
LINE
  5
14A
330
142
100
AcDbEntity
  8
003
 62
     3
370
    30
100
AcDbLine
 10
532.370821
 20
165.587356
 30
0.0
 11
531.503294
 21
164.719829
 31
0.0
  0
CIRCLE
  5
14B
330
142
100
AcDbEntity
  8
003
 62
     3
370
    30
100
AcDbCircle
 10
532.688358
 20
164.402291
 30
0.0
 40
1.0625
  0
ENDBLK
  5
144
330
142
100
AcDbEntity
  8
0
100
AcDbBlockEnd
  0
BLOCK
  5
14D
330
14C
100
AcDbEntity
  8
0
100
AcDbBlockBegin
  2
JZB-26
 70
     0
 10
0.0
 20
0.0
 30
0.0
  3
JZB-26
  1

  0
LINE
  5
14F
330
14C
100
AcDbEntity
  8
003
 62
     3
370
    30
100
AcDbLine
 10
525.438674
 20
167.578542
 30
0.0
 11
526.501174
 21
168.191976
 31
0.0
  0
LINE
  5
150
330
14C
100
AcDbEntity
  8
003
 62
     3
370
    30
100
AcDbLine
 10
526.501174
 20
165.738238
 30
0.0
 11
527.563674
 21
166.351672
 31
0.0
  0
LINE
  5
151
330
14C
100
AcDbEntity
  8
003
 62
     3
370
    30
100
AcDbLine
 10
525.438674
 20
166.351672
 30
0.0
 11
526.501174
 21
165.738238
 31
0.0
  0
LINE
  5
152
330
14C
100
AcDbEntity
  8
003
 62
     3
370
    30
100
AcDbLine
 10
527.563674
 20
167.578542
 30
0.0
 11
526.501174
 21
168.191976
 31
0.0
  0
LINE
  5
153
330
14C
100
AcDbEntity
  8
003
 62
     3
370
    30
100
AcDbLine
 10
527.563674
 20
166.351672
 30
0.0
 11
527.563674
 21
167.578542
 31
0.0
  0
LINE
  5
154
330
14C
100
AcDbEntity
  8
003
 62
     3
370
    30
100
AcDbLine
 10
525.438674
 20
167.578542
 30
0.0
 11
525.438674
 21
166.351672
 31
0.0
  0
CIRCLE
  5
155
330
14C
100
AcDbEntity
  8
003
 62
     3
370
    30
100
AcDbCircle
 10
526.501174
 20
166.965107
 30
0.0
 40
1.0625
  0
ENDBLK
  5
14E
330
14C
100
AcDbEntity
  8
0
100
AcDbBlockEnd
  0
BLOCK
  5
157
330
156
100
AcDbEntity
  8
0
100
AcDbBlockBegin
  2
JZB-27
 70
     0
 10
0.0
 20
0.0
 30
0.0
  3
JZB-27
  1

  0
LINE
  5
159
330
156
100
AcDbEntity
  8
003
 62
     3
370
    30
100
AcDbLine
 10
591.9263
 20
164.084754
 30
0.0
 11
592.243837
 21
165.269819
 31
0.0
  0
LINE
  5
15A
330
156
100
AcDbEntity
  8
003
 62
     3
370
    30
100
AcDbLine
 10
593.978892
 20
163.534764
 30
0.0
 11
594.29643
 21
164.719829
 31
0.0
  0
LINE
  5
15B
330
156
100
AcDbEntity
  8
003
 62
     3
370
    30
100
AcDbLine
 10
592.793828
 20
163.217227
 30
0.0
 11
593.978892
 21
163.534764
 31
0.0
  0
LINE
  5
15C
330
156
100
AcDbEntity
  8
003
 62
     3
370
    30
100
AcDbLine
 10
593.428902
 20
165.587356
 30
0.0
 11
592.243837
 21
165.269819
 31
0.0
  0
LINE
  5
15D
330
156
100
AcDbEntity
  8
003
 62
     3
370
    30
100
AcDbLine
 10
594.29643
 20
164.719829
 30
0.0
 11
593.428902
 21
165.587356
 31
0.0
  0
LINE
  5
15E
330
156
100
AcDbEntity
  8
003
 62
     3
370
    30
100
AcDbLine
 10
591.9263
 20
164.084754
 30
0.0
 11
592.793828
 21
163.217227
 31
0.0
  0
CIRCLE
  5
15F
330
156
100
AcDbEntity
  8
003
 62
     3
370
    30
100
AcDbCircle
 10
593.111365
 20
164.402291
 30
0.0
 40
1.0625
  0
ENDBLK
  5
158
330
156
100
AcDbEntity
  8
0
100
AcDbBlockEnd
  0
BLOCK
  5
161
330
160
100
AcDbEntity
  8
0
100
AcDbBlockBegin
  2
JZB-28
 70
     0
 10
0.0
 20
0.0
 30
0.0
  3
JZB-28
  1

  0
LINE
  5
163
330
160
100
AcDbEntity
  8
003
 62
     3
370
    30
100
AcDbLine
 10
589.935114
 20
157.152607
 30
0.0
 11
589.32168
 21
158.215107
 31
0.0
  0
LINE
  5
164
330
160
100
AcDbEntity
  8
003
 62
     3
370
    30
100
AcDbLine
 10
591.775418
 20
158.215107
 30
0.0
 11
591.161984
 21
159.277607
 31
0.0
  0
LINE
  5
165
330
160
100
AcDbEntity
  8
003
 62
     3
370
    30
100
AcDbLine
 10
591.161984
 20
157.152607
 30
0.0
 11
591.775418
 21
158.215107
 31
0.0
  0
LINE
  5
166
330
160
100
AcDbEntity
  8
003
 62
     3
370
    30
100
AcDbLine
 10
589.935114
 20
159.277607
 30
0.0
 11
589.32168
 21
158.215107
 31
0.0
  0
LINE
  5
167
330
160
100
AcDbEntity
  8
003
 62
     3
370
    30
100
AcDbLine
 10
591.161984
 20
159.277607
 30
0.0
 11
589.935114
 21
159.277607
 31
0.0
  0
LINE
  5
168
330
160
100
AcDbEntity
  8
003
 62
     3
370
    30
100
AcDbLine
 10
589.935114
 20
157.152607
 30
0.0
 11
591.161984
 21
157.152607
 31
0.0
  0
CIRCLE
  5
169
330
160
100
AcDbEntity
  8
003
 62
     3
370
    30
100
AcDbCircle
 10
590.548549
 20
158.215107
 30
0.0
 40
1.0625
  0
ENDBLK
  5
162
330
160
100
AcDbEntity
  8
0
100
AcDbBlockEnd
  0
BLOCK
  5
16B
330
16A
100
AcDbEntity
  8
0
100
AcDbBlockBegin
  2
JZB-29
 70
     0
 10
0.0
 20
0.0
 30
0.0
  3
JZB-29
  1

  0
LINE
  5
16D
330
16A
100
AcDbEntity
  8
003
 62
     3
370
    30
100
AcDbLine
 10
593.428902
 20
150.842858
 30
0.0
 11
592.243837
 21
151.160395
 31
0.0
  0
LINE
  5
16E
330
16A
100
AcDbEntity
  8
003
 62
     3
370
    30
100
AcDbLine
 10
593.978892
 20
152.89545
 30
0.0
 11
592.793828
 21
153.212988
 31
0.0
  0
LINE
  5
16F
330
16A
100
AcDbEntity
  8
003
 62
     3
370
    30
100
AcDbLine
 10
594.29643
 20
151.710386
 30
0.0
 11
593.978892
 21
152.89545
 31
0.0
  0
LINE
  5
170
330
16A
100
AcDbEntity
  8
003
 62
     3
370
    30
100
AcDbLine
 10
591.9263
 20
152.34546
 30
0.0
 11
592.243837
 21
151.160395
 31
0.0
  0
LINE
  5
171
330
16A
100
AcDbEntity
  8
003
 62
     3
370
    30
100
AcDbLine
 10
592.793828
 20
153.212988
 30
0.0
 11
591.9263
 21
152.34546
 31
0.0
  0
LINE
  5
172
330
16A
100
AcDbEntity
  8
003
 62
     3
370
    30
100
AcDbLine
 10
593.428902
 20
150.842858
 30
0.0
 11
594.29643
 21
151.710386
 31
0.0
  0
CIRCLE
  5
173
330
16A
100
AcDbEntity
  8
003
 62
     3
370
    30
100
AcDbCircle
 10
593.111365
 20
152.027923
 30
0.0
 40
1.0625
  0
ENDBLK
  5
16C
330
16A
100
AcDbEntity
  8
0
100
AcDbBlockEnd
  0
BLOCK
  5
175
330
174
100
AcDbEntity
  8
0
100
AcDbBlockBegin
  2
JZB-30
 70
     0
 10
0.0
 20
0.0
 30
0.0
  3
JZB-30
  1

  0
LINE
  5
177
330
174
100
AcDbEntity
  8
003
 62
     3
370
    30
100
AcDbLine
 10
600.361049
 20
148.851672
 30
0.0
 11
599.298549
 21
148.238238
 31
0.0
  0
LINE
  5
178
330
174
100
AcDbEntity
  8
003
 62
     3
370
    30
100
AcDbLine
 10
599.298549
 20
150.691976
 30
0.0
 11
598.236049
 21
150.078542
 31
0.0
  0
LINE
  5
179
330
174
100
AcDbEntity
  8
003
 62
     3
370
    30
100
AcDbLine
 10
600.361049
 20
150.078542
 30
0.0
 11
599.298549
 21
150.691976
 31
0.0
  0
LINE
  5
17A
330
174
100
AcDbEntity
  8
003
 62
     3
370
    30
100
AcDbLine
 10
598.236049
 20
148.851672
 30
0.0
 11
599.298549
 21
148.238238
 31
0.0
  0
LINE
  5
17B
330
174
100
AcDbEntity
  8
003
 62
     3
370
    30
100
AcDbLine
 10
598.236049
 20
150.078542
 30
0.0
 11
598.236049
 21
148.851672
 31
0.0
  0
LINE
  5
17C
330
174
100
AcDbEntity
  8
003
 62
     3
370
    30
100
AcDbLine
 10
600.361049
 20
148.851672
 30
0.0
 11
600.361049
 21
150.078542
 31
0.0
  0
CIRCLE
  5
17D
330
174
100
AcDbEntity
  8
003
 62
     3
370
    30
100
AcDbCircle
 10
599.298549
 20
149.465107
 30
0.0
 40
1.0625
  0
ENDBLK
  5
176
330
174
100
AcDbEntity
  8
0
100
AcDbBlockEnd
  0
BLOCK
  5
17F
330
17E
100
AcDbEntity
  8
0
100
AcDbBlockBegin
  2
JZB-31
 70
     0
 10
0.0
 20
0.0
 30
0.0
  3
JZB-31
  1

  0
LINE
  5
181
330
17E
100
AcDbEntity
  8
003
 62
     3
370
    30
100
AcDbLine
 10
606.670798
 20
152.34546
 30
0.0
 11
606.353261
 21
151.160395
 31
0.0
  0
LINE
  5
182
330
17E
100
AcDbEntity
  8
003
 62
     3
370
    30
100
AcDbLine
 10
604.618206
 20
152.89545
 30
0.0
 11
604.300669
 21
151.710386
 31
0.0
  0
LINE
  5
183
330
17E
100
AcDbEntity
  8
003
 62
     3
370
    30
100
AcDbLine
 10
605.803271
 20
153.212988
 30
0.0
 11
604.618206
 21
152.89545
 31
0.0
  0
LINE
  5
184
330
17E
100
AcDbEntity
  8
003
 62
     3
370
    30
100
AcDbLine
 10
605.168196
 20
150.842858
 30
0.0
 11
606.353261
 21
151.160395
 31
0.0
  0
LINE
  5
185
330
17E
100
AcDbEntity
  8
003
 62
     3
370
    30
100
AcDbLine
 10
604.300669
 20
151.710386
 30
0.0
 11
605.168196
 21
150.842858
 31
0.0
  0
LINE
  5
186
330
17E
100
AcDbEntity
  8
003
 62
     3
370
    30
100
AcDbLine
 10
606.670798
 20
152.34546
 30
0.0
 11
605.803271
 21
153.212988
 31
0.0
  0
CIRCLE
  5
187
330
17E
100
AcDbEntity
  8
003
 62
     3
370
    30
100
AcDbCircle
 10
605.485733
 20
152.027923
 30
0.0
 40
1.0625
  0
ENDBLK
  5
180
330
17E
100
AcDbEntity
  8
0
100
AcDbBlockEnd
  0
BLOCK
  5
189
330
188
100
AcDbEntity
  8
0
100
AcDbBlockBegin
  2
JZB-32
 70
     0
 10
0.0
 20
0.0
 30
0.0
  3
JZB-32
  1

  0
LINE
  5
18B
330
188
100
AcDbEntity
  8
003
 62
     3
370
    30
100
AcDbLine
 10
608.661984
 20
159.277607
 30
0.0
 11
609.275418
 21
158.215107
 31
0.0
  0
LINE
  5
18C
330
188
100
AcDbEntity
  8
003
 62
     3
370
    30
100
AcDbLine
 10
606.82168
 20
158.215107
 30
0.0
 11
607.435114
 21
157.152607
 31
0.0
  0
LINE
  5
18D
330
188
100
AcDbEntity
  8
003
 62
     3
370
    30
100
AcDbLine
 10
607.435114
 20
159.277607
 30
0.0
 11
606.82168
 21
158.215107
 31
0.0
  0
LINE
  5
18E
330
188
100
AcDbEntity
  8
003
 62
     3
370
    30
100
AcDbLine
 10
608.661984
 20
157.152607
 30
0.0
 11
609.275418
 21
158.215107
 31
0.0
  0
LINE
  5
18F
330
188
100
AcDbEntity
  8
003
 62
     3
370
    30
100
AcDbLine
 10
607.435114
 20
157.152607
 30
0.0
 11
608.661984
 21
157.152607
 31
0.0
  0
LINE
  5
190
330
188
100
AcDbEntity
  8
003
 62
     3
370
    30
100
AcDbLine
 10
608.661984
 20
159.277607
 30
0.0
 11
607.435114
 21
159.277607
 31
0.0
  0
CIRCLE
  5
191
330
188
100
AcDbEntity
  8
003
 62
     3
370
    30
100
AcDbCircle
 10
608.048549
 20
158.215107
 30
0.0
 40
1.0625
  0
ENDBLK
  5
18A
330
188
100
AcDbEntity
  8
0
100
AcDbBlockEnd
  0
BLOCK
  5
193
330
192
100
AcDbEntity
  8
0
100
AcDbBlockBegin
  2
JZB-33
 70
     0
 10
0.0
 20
0.0
 30
0.0
  3
JZB-33
  1

  0
LINE
  5
195
330
192
100
AcDbEntity
  8
003
 62
     3
370
    30
100
AcDbLine
 10
605.168196
 20
165.587356
 30
0.0
 11
606.353261
 21
165.269819
 31
0.0
  0
LINE
  5
196
330
192
100
AcDbEntity
  8
003
 62
     3
370
    30
100
AcDbLine
 10
604.618206
 20
163.534764
 30
0.0
 11
605.803271
 21
163.217227
 31
0.0
  0
LINE
  5
197
330
192
100
AcDbEntity
  8
003
 62
     3
370
    30
100
AcDbLine
 10
604.300669
 20
164.719829
 30
0.0
 11
604.618206
 21
163.534764
 31
0.0
  0
LINE
  5
198
330
192
100
AcDbEntity
  8
003
 62
     3
370
    30
100
AcDbLine
 10
606.670798
 20
164.084754
 30
0.0
 11
606.353261
 21
165.269819
 31
0.0
  0
LINE
  5
199
330
192
100
AcDbEntity
  8
003
 62
     3
370
    30
100
AcDbLine
 10
605.803271
 20
163.217227
 30
0.0
 11
606.670798
 21
164.084754
 31
0.0
  0
LINE
  5
19A
330
192
100
AcDbEntity
  8
003
 62
     3
370
    30
100
AcDbLine
 10
605.168196
 20
165.587356
 30
0.0
 11
604.300669
 21
164.719829
 31
0.0
  0
CIRCLE
  5
19B
330
192
100
AcDbEntity
  8
003
 62
     3
370
    30
100
AcDbCircle
 10
605.485733
 20
164.402291
 30
0.0
 40
1.0625
  0
ENDBLK
  5
194
330
192
100
AcDbEntity
  8
0
100
AcDbBlockEnd
  0
BLOCK
  5
19D
330
19C
100
AcDbEntity
  8
0
100
AcDbBlockBegin
  2
JZB-34
 70
     0
 10
0.0
 20
0.0
 30
0.0
  3
JZB-34
  1

  0
LINE
  5
19F
330
19C
100
AcDbEntity
  8
003
 62
     3
370
    30
100
AcDbLine
 10
598.236049
 20
167.578542
 30
0.0
 11
599.298549
 21
168.191976
 31
0.0
  0
LINE
  5
1A0
330
19C
100
AcDbEntity
  8
003
 62
     3
370
    30
100
AcDbLine
 10
599.298549
 20
165.738238
 30
0.0
 11
600.361049
 21
166.351672
 31
0.0
  0
LINE
  5
1A1
330
19C
100
AcDbEntity
  8
003
 62
     3
370
    30
100
AcDbLine
 10
598.236049
 20
166.351672
 30
0.0
 11
599.298549
 21
165.738238
 31
0.0
  0
LINE
  5
1A2
330
19C
100
AcDbEntity
  8
003
 62
     3
370
    30
100
AcDbLine
 10
600.361049
 20
167.578542
 30
0.0
 11
599.298549
 21
168.191976
 31
0.0
  0
LINE
  5
1A3
330
19C
100
AcDbEntity
  8
003
 62
     3
370
    30
100
AcDbLine
 10
600.361049
 20
166.351672
 30
0.0
 11
600.361049
 21
167.578542
 31
0.0
  0
LINE
  5
1A4
330
19C
100
AcDbEntity
  8
003
 62
     3
370
    30
100
AcDbLine
 10
598.236049
 20
167.578542
 30
0.0
 11
598.236049
 21
166.351672
 31
0.0
  0
CIRCLE
  5
1A5
330
19C
100
AcDbEntity
  8
003
 62
     3
370
    30
100
AcDbCircle
 10
599.298549
 20
166.965107
 30
0.0
 40
1.0625
  0
ENDBLK
  5
19E
330
19C
100
AcDbEntity
  8
0
100
AcDbBlockEnd
  0
ENDSEC
  0
SECTION
  2
ENTITIES
  0
INSERT
  5
1A6
330
1F
100
AcDbEntity
  8
002
  6
ByBlock
 62
     0
370
    -2
100
AcDbBlockReference
  2
JZB-1
 10
0.0
 20
0.0
 30
0.0
  0
INSERT
  5
1A7
330
1F
100
AcDbEntity
  8
002
  6
ByBlock
 62
     0
370
    -2
100
AcDbBlockReference
  2
JZB-2
 10
0.0
 20
0.0
 30
0.0
  0
INSERT
  5
1A8
330
1F
100
AcDbEntity
  8
003
  6
ByBlock
 62
     0
370
    -2
100
AcDbBlockReference
  2
JZB-3
 10
0.0
 20
0.0
 30
0.0
  0
INSERT
  5
1A9
330
1F
100
AcDbEntity
  8
003
  6
ByBlock
 62
     0
370
    -2
100
AcDbBlockReference
  2
JZB-4
 10
0.0
 20
0.0
 30
0.0
  0
INSERT
  5
1AA
330
1F
100
AcDbEntity
  8
003
  6
ByBlock
 62
     0
370
    -2
100
AcDbBlockReference
  2
JZB-5
 10
0.0
 20
0.0
 30
0.0
  0
INSERT
  5
1AB
330
1F
100
AcDbEntity
  8
003
  6
ByBlock
 62
     0
370
    -2
100
AcDbBlockReference
  2
JZB-6
 10
0.0
 20
0.0
 30
0.0
  0
INSERT
  5
1AC
330
1F
100
AcDbEntity
  8
003
  6
ByBlock
 62
     0
370
    -2
100
AcDbBlockReference
  2
JZB-7
 10
0.0
 20
0.0
 30
0.0
  0
INSERT
  5
1AD
330
1F
100
AcDbEntity
  8
003
  6
ByBlock
 62
     0
370
    -2
100
AcDbBlockReference
  2
JZB-8
 10
0.0
 20
0.0
 30
0.0
  0
INSERT
  5
1AE
330
1F
100
AcDbEntity
  8
003
  6
ByBlock
 62
     0
370
    -2
100
AcDbBlockReference
  2
JZB-9
 10
0.0
 20
0.0
 30
0.0
  0
INSERT
  5
1AF
330
1F
100
AcDbEntity
  8
003
  6
ByBlock
 62
     0
370
    -2
100
AcDbBlockReference
  2
JZB-10
 10
0.0
 20
0.0
 30
0.0
  0
INSERT
  5
1B0
330
1F
100
AcDbEntity
  8
003
  6
ByBlock
 62
     0
370
    -2
100
AcDbBlockReference
  2
JZB-11
 10
0.0
 20
0.0
 30
0.0
  0
INSERT
  5
1B1
330
1F
100
AcDbEntity
  8
003
  6
ByBlock
 62
     0
370
    -2
100
AcDbBlockReference
  2
JZB-12
 10
0.0
 20
0.0
 30
0.0
  0
INSERT
  5
1B2
330
1F
100
AcDbEntity
  8
003
  6
ByBlock
 62
     0
370
    -2
100
AcDbBlockReference
  2
JZB-13
 10
0.0
 20
0.0
 30
0.0
  0
INSERT
  5
1B3
330
1F
100
AcDbEntity
  8
003
  6
ByBlock
 62
     0
370
    -2
100
AcDbBlockReference
  2
JZB-14
 10
0.0
 20
0.0
 30
0.0
  0
INSERT
  5
1B4
330
1F
100
AcDbEntity
  8
003
  6
ByBlock
 62
     0
370
    -2
100
AcDbBlockReference
  2
JZB-15
 10
0.0
 20
0.0
 30
0.0
  0
INSERT
  5
1B5
330
1F
100
AcDbEntity
  8
003
  6
ByBlock
 62
     0
370
    -2
100
AcDbBlockReference
  2
JZB-16
 10
0.0
 20
0.0
 30
0.0
  0
INSERT
  5
1B6
330
1F
100
AcDbEntity
  8
003
  6
ByBlock
 62
     0
370
    -2
100
AcDbBlockReference
  2
JZB-17
 10
0.0
 20
0.0
 30
0.0
  0
INSERT
  5
1B7
330
1F
100
AcDbEntity
  8
003
  6
ByBlock
 62
     0
370
    -2
100
AcDbBlockReference
  2
JZB-18
 10
0.0
 20
0.0
 30
0.0
  0
INSERT
  5
1B8
330
1F
100
AcDbEntity
  8
003
  6
ByBlock
 62
     0
370
    -2
100
AcDbBlockReference
  2
JZB-19
 10
0.0
 20
0.0
 30
0.0
  0
INSERT
  5
1B9
330
1F
100
AcDbEntity
  8
003
  6
ByBlock
 62
     0
370
    -2
100
AcDbBlockReference
  2
JZB-20
 10
0.0
 20
0.0
 30
0.0
  0
INSERT
  5
1BA
330
1F
100
AcDbEntity
  8
003
  6
ByBlock
 62
     0
370
    -2
100
AcDbBlockReference
  2
JZB-21
 10
0.0
 20
0.0
 30
0.0
  0
INSERT
  5
1BB
330
1F
100
AcDbEntity
  8
003
  6
ByBlock
 62
     0
370
    -2
100
AcDbBlockReference
  2
JZB-22
 10
0.0
 20
0.0
 30
0.0
  0
INSERT
  5
1BC
330
1F
100
AcDbEntity
  8
003
  6
ByBlock
 62
     0
370
    -2
100
AcDbBlockReference
  2
JZB-23
 10
0.0
 20
0.0
 30
0.0
  0
INSERT
  5
1BD
330
1F
100
AcDbEntity
  8
003
  6
ByBlock
 62
     0
370
    -2
100
AcDbBlockReference
  2
JZB-24
 10
0.0
 20
0.0
 30
0.0
  0
INSERT
  5
1BE
330
1F
100
AcDbEntity
  8
003
  6
ByBlock
 62
     0
370
    -2
100
AcDbBlockReference
  2
JZB-25
 10
0.0
 20
0.0
 30
0.0
  0
INSERT
  5
1BF
330
1F
100
AcDbEntity
  8
003
  6
ByBlock
 62
     0
370
    -2
100
AcDbBlockReference
  2
JZB-26
 10
0.0
 20
0.0
 30
0.0
  0
INSERT
  5
1C0
330
1F
100
AcDbEntity
  8
003
  6
ByBlock
 62
     0
370
    -2
100
AcDbBlockReference
  2
JZB-27
 10
0.0
 20
0.0
 30
0.0
  0
INSERT
  5
1C1
330
1F
100
AcDbEntity
  8
003
  6
ByBlock
 62
     0
370
    -2
100
AcDbBlockReference
  2
JZB-28
 10
0.0
 20
0.0
 30
0.0
  0
INSERT
  5
1C2
330
1F
100
AcDbEntity
  8
003
  6
ByBlock
 62
     0
370
    -2
100
AcDbBlockReference
  2
JZB-29
 10
0.0
 20
0.0
 30
0.0
  0
INSERT
  5
1C3
330
1F
100
AcDbEntity
  8
003
  6
ByBlock
 62
     0
370
    -2
100
AcDbBlockReference
  2
JZB-30
 10
0.0
 20
0.0
 30
0.0
  0
INSERT
  5
1C4
330
1F
100
AcDbEntity
  8
003
  6
ByBlock
 62
     0
370
    -2
100
AcDbBlockReference
  2
JZB-31
 10
0.0
 20
0.0
 30
0.0
  0
INSERT
  5
1C5
330
1F
100
AcDbEntity
  8
003
  6
ByBlock
 62
     0
370
    -2
100
AcDbBlockReference
  2
JZB-32
 10
0.0
 20
0.0
 30
0.0
  0
INSERT
  5
1C6
330
1F
100
AcDbEntity
  8
003
  6
ByBlock
 62
     0
370
    -2
100
AcDbBlockReference
  2
JZB-33
 10
0.0
 20
0.0
 30
0.0
  0
INSERT
  5
1C7
330
1F
100
AcDbEntity
  8
003
  6
ByBlock
 62
     0
370
    -2
100
AcDbBlockReference
  2
JZB-34
 10
0.0
 20
0.0
 30
0.0
  0
LINE
  5
1C8
330
1F
100
AcDbEntity
  8
002
 62
     3
370
    30
100
AcDbLine
 10
380.511255
 20
320.282565
 30
0.0
 11
381.761255
 21
320.282565
 31
0.0
  0
LINE
  5
1C9
330
1F
100
AcDbEntity
  8
002
 62
     3
370
    30
100
AcDbLine
 10
381.761255
 20
320.282565
 30
0.0
 11
381.761255
 21
321.282565
 31
0.0
  0
LINE
  5
1CA
330
1F
100
AcDbEntity
  8
002
 62
     3
370
    30
100
AcDbLine
 10
381.761255
 20
321.282565
 30
0.0
 11
380.511255
 21
321.282565
 31
0.0
  0
LINE
  5
1CB
330
1F
100
AcDbEntity
  8
002
 62
     3
370
    30
100
AcDbLine
 10
380.511255
 20
321.282565
 30
0.0
 11
380.511255
 21
320.282565
 31
0.0
  0
LINE
  5
1CC
330
1F
100
AcDbEntity
  8
002
 62
     3
370
    30
100
AcDbLine
 10
380.511255
 20
446.407565
 30
0.0
 11
380.511255
 21
437.11894
 31
0.0
  0
LINE
  5
1CD
330
1F
100
AcDbEntity
  8
002
 62
     3
370
    30
100
AcDbLine
 10
380.511255
 20
437.11894
 30
0.0
 11
381.761255
 21
437.11894
 31
0.0
  0
LINE
  5
1CE
330
1F
100
AcDbEntity
  8
002
 62
     3
370
    30
100
AcDbLine
 10
381.761255
 20
437.11894
 30
0.0
 11
381.761255
 21
446.407565
 31
0.0
  0
LINE
  5
1CF
330
1F
100
AcDbEntity
  8
002
 62
     3
370
    30
100
AcDbLine
 10
383.511255
 20
446.407565
 30
0.0
 11
383.511255
 21
431.157565
 31
0.0
  0
LINE
  5
1D0
330
1F
100
AcDbEntity
  8
002
 62
     3
370
    30
100
AcDbLine
 10
383.948755
 20
431.157565
 30
0.0
 11
378.323755
 21
431.157565
 31
0.0
  0
LINE
  5
1D1
330
1F
100
AcDbEntity
  8
002
 62
     3
370
    30
100
AcDbLine
 10
378.323755
 20
431.157565
 30
0.0
 11
378.323755
 21
430.907565
 31
0.0
  0
LINE
  5
1D2
330
1F
100
AcDbEntity
  8
002
 62
     3
370
    30
100
AcDbLine
 10
383.948755
 20
431.157565
 30
0.0
 11
383.948755
 21
430.907565
 31
0.0
  0
CIRCLE
  5
1D3
330
1F
100
AcDbEntity
  8
002
 62
     3
370
    30
100
AcDbCircle
 10
373.636255
 20
427.770565
 30
0.0
 40
1.875
  0
LINE
  5
1D4
330
1F
100
AcDbEntity
  8
002
 62
     3
370
    30
100
AcDbLine
 10
373.022755
 20
428.833065
 30
0.0
 11
372.40938
 21
427.770565
 31
0.0
  0
LINE
  5
1D5
330
1F
100
AcDbEntity
  8
002
 62
     3
370
    30
100
AcDbLine
 10
372.40938
 20
427.770565
 30
0.0
 11
373.022755
 21
426.708065
 31
0.0
  0
LINE
  5
1D6
330
1F
100
AcDbEntity
  8
002
 62
     3
370
    30
100
AcDbLine
 10
373.022755
 20
426.708065
 30
0.0
 11
374.24963
 21
426.708065
 31
0.0
  0
LINE
  5
1D7
330
1F
100
AcDbEntity
  8
002
 62
     3
370
    30
100
AcDbLine
 10
374.24963
 20
426.708065
 30
0.0
 11
374.86313
 21
427.770565
 31
0.0
  0
LINE
  5
1D8
330
1F
100
AcDbEntity
  8
002
 62
     3
370
    30
100
AcDbLine
 10
374.86313
 20
427.770565
 30
0.0
 11
374.24963
 21
428.833065
 31
0.0
  0
LINE
  5
1D9
330
1F
100
AcDbEntity
  8
002
 62
     3
370
    30
100
AcDbLine
 10
374.24963
 20
428.833065
 30
0.0
 11
373.022755
 21
428.833065
 31
0.0
  0
LINE
  5
1DA
330
1F
100
AcDbEntity
  8
002
 62
     3
370
    30
100
AcDbLine
 10
391.136255
 20
429.782565
 30
0.0
 11
391.136255
 21
412.782565
 31
0.0
  0
LINE
  5
1DB
330
1F
100
AcDbEntity
  8
002
 62
     3
370
    30
100
AcDbLine
 10
391.511255
 20
412.782565
 30
0.0
 11
385.47438
 21
412.782565
 31
0.0
  0
LINE
  5
1DC
330
1F
100
AcDbEntity
  8
002
 62
     3
370
    30
100
AcDbLine
 10
384.23813
 20
411.532565
 30
0.0
 11
383.62463
 21
410.470065
 31
0.0
  0
LINE
  5
1DD
330
1F
100
AcDbEntity
  8
002
 62
     3
370
    30
100
AcDbLine
 10
383.62463
 20
410.470065
 30
0.0
 11
382.397755
 21
410.470065
 31
0.0
  0
LINE
  5
1DE
330
1F
100
AcDbEntity
  8
002
 62
     3
370
    30
100
AcDbLine
 10
382.397755
 20
410.470065
 30
0.0
 11
381.78438
 21
411.532565
 31
0.0
  0
LINE
  5
1DF
330
1F
100
AcDbEntity
  8
002
 62
     3
370
    30
100
AcDbLine
 10
381.78438
 20
411.532565
 30
0.0
 11
382.397755
 21
412.595065
 31
0.0
  0
LINE
  5
1E0
330
1F
100
AcDbEntity
  8
002
 62
     3
370
    30
100
AcDbLine
 10
382.397755
 20
412.595065
 30
0.0
 11
383.62463
 21
412.595065
 31
0.0
  0
LINE
  5
1E1
330
1F
100
AcDbEntity
  8
002
 62
     3
370
    30
100
AcDbLine
 10
383.62463
 20
412.595065
 30
0.0
 11
384.23813
 21
411.532565
 31
0.0
  0
LINE
  5
1E2
330
1F
100
AcDbEntity
  8
002
 62
     3
370
    30
100
AcDbLine
 10
385.47438
 20
410.282565
 30
0.0
 11
389.61113
 21
410.282565
 31
0.0
  0
LINE
  5
1E3
330
1F
100
AcDbEntity
  8
002
 62
     3
370
    30
100
AcDbLine
 10
389.693255
 20
409.657565
 30
0.0
 11
389.693255
 21
396.532565
 31
0.0
  0
LINE
  5
1E4
330
1F
100
AcDbEntity
  8
002
 62
     3
370
    30
100
AcDbLine
 10
390.156505
 20
396.169565
 30
0.0
 11
391.511255
 21
396.532565
 31
0.0
  0
LINE
  5
1E5
330
1F
100
AcDbEntity
  8
002
 62
     3
370
    30
100
AcDbLine
 10
391.511255
 20
396.532565
 30
0.0
 11
391.511255
 21
412.782565
 31
0.0
  0
LINE
  5
1E6
330
1F
100
AcDbEntity
  8
002
 62
     3
370
    30
100
AcDbLine
 10
391.761255
 20
412.254315
 30
0.0
 11
392.136255
 21
412.254315
 31
0.0
  0
LINE
  5
1E7
330
1F
100
AcDbEntity
  8
002
 62
     3
370
    30
100
AcDbLine
 10
392.136255
 20
412.254315
 30
0.0
 11
392.50038
 21
411.890065
 31
0.0
  0
ARC
  5
1E8
330
1F
100
AcDbEntity
  8
002
 62
     3
370
    30
100
AcDbCircle
 10
392.588755
 20
411.97844
 30
0.0
 40
0.1250002499997767
100
AcDbArc
 50
225.0
 51
302.005383
  0
LINE
  5
1E9
330
1F
100
AcDbEntity
  8
002
 62
     3
370
    30
100
AcDbLine
 10
392.655005
 20
411.87244
 30
0.0
 11
392.761255
 21
411.938815
 31
0.0
  0
LINE
  5
1EA
330
1F
100
AcDbEntity
  8
002
 62
     3
370
    30
100
AcDbLine
 10
392.761255
 20
411.938815
 30
0.0
 11
393.136255
 21
411.845065
 31
0.0
  0
LINE
  5
1EB
330
1F
100
AcDbEntity
  8
002
 62
     3
370
    30
100
AcDbLine
 10
393.136255
 20
411.845065
 30
0.0
 11
393.136255
 21
411.220065
 31
0.0
  0
LINE
  5
1EC
330
1F
100
AcDbEntity
  8
002
 62
     3
370
    30
100
AcDbLine
 10
393.136255
 20
411.220065
 30
0.0
 11
392.761255
 21
411.126315
 31
0.0
  0
LINE
  5
1ED
330
1F
100
AcDbEntity
  8
002
 62
     3
370
    30
100
AcDbLine
 10
392.761255
 20
411.126315
 30
0.0
 11
392.655005
 21
411.19269
 31
0.0
  0
ARC
  5
1EE
330
1F
100
AcDbEntity
  8
002
 62
     3
370
    30
100
AcDbCircle
 10
392.588755
 20
411.08669
 30
0.0
 40
0.1249811235747413
100
AcDbArc
 50
57.994617
 51
135.0
  0
LINE
  5
1EF
330
1F
100
AcDbEntity
  8
002
 62
     3
370
    30
100
AcDbLine
 10
392.50038
 20
411.175065
 30
0.0
 11
392.136255
 21
410.81094
 31
0.0
  0
LINE
  5
1F0
330
1F
100
AcDbEntity
  8
002
 62
     3
370
    30
100
AcDbLine
 10
392.136255
 20
410.81094
 30
0.0
 11
391.761255
 21
410.81094
 31
0.0
  0
LINE
  5
1F1
330
1F
100
AcDbEntity
  8
002
 62
     3
370
    30
100
AcDbLine
 10
391.761255
 20
410.81094
 30
0.0
 11
391.64838
 21
410.92369
 31
0.0
  0
LINE
  5
1F2
330
1F
100
AcDbEntity
  8
002
 62
     3
370
    30
100
AcDbLine
 10
391.68963
 20
410.88244
 30
0.0
 11
391.511255
 21
410.893565
 31
0.0
  0
LINE
  5
1F3
330
1F
100
AcDbEntity
  8
002
 62
     3
370
    30
100
AcDbLine
 10
391.636255
 20
410.996815
 30
0.0
 11
391.636255
 21
412.068315
 31
0.0
  0
ARC
  5
1F4
330
1F
100
AcDbEntity
  8
002
 62
     3
370
    30
100
AcDbCircle
 10
391.828755
 20
412.073815
 30
0.0
 40
0.1925912527219471
100
AcDbArc
 50
159.448306
 51
249.483127
  0
ARC
  5
1F5
330
1F
100
AcDbEntity
  8
002
 62
     3
370
    30
100
AcDbCircle
 10
392.219505
 20
411.532565
 30
0.0
 40
0.5832097607208029
100
AcDbArc
 50
141.779327
 51
218.211025
  0
LINE
  5
1F6
330
1F
100
AcDbEntity
  8
002
 62
     3
370
    30
100
AcDbLine
 10
391.761255
 20
411.171815
 30
0.0
 11
392.136255
 21
411.171815
 31
0.0
  0
ARC
  5
1F7
330
1F
100
AcDbEntity
  8
002
 62
     3
370
    30
100
AcDbCircle
 10
391.67788
 20
411.532565
 30
0.0
 40
0.5833852982806172
100
AcDbArc
 50
321.796569
 51
38.213078
  0
LINE
  5
1F8
330
1F
100
AcDbEntity
  8
002
 62
     3
370
    30
100
AcDbLine
 10
392.136255
 20
411.89344
 30
0.0
 11
391.761255
 21
411.89344
 31
0.0
  0
LINE
  5
1F9
330
1F
100
AcDbEntity
  8
002
 62
     3
370
    30
100
AcDbLine
 10
391.64838
 20
412.14144
 30
0.0
 11
391.761255
 21
412.254315
 31
0.0
  0
LINE
  5
1FA
330
1F
100
AcDbEntity
  8
002
 62
     3
370
    30
100
AcDbLine
 10
391.68963
 20
412.182815
 30
0.0
 11
391.511255
 21
412.171565
 31
0.0
  0
LINE
  5
1FB
330
1F
100
AcDbEntity
  8
002
 62
     3
370
    30
100
AcDbLine
 10
391.511255
 20
411.532565
 30
0.0
 11
390.69938
 21
411.75019
 31
0.0
  0
ARC
  5
1FC
330
1F
100
AcDbEntity
  8
002
 62
     3
370
    30
100
AcDbCircle
 10
390.86113
 20
412.353815
 30
0.0
 40
0.6249209575017892
100
AcDbArc
 50
180.0
 51
254.999188
  0
LINE
  5
1FD
330
1F
100
AcDbEntity
  8
002
 62
     3
370
    30
100
AcDbLine
 10
390.23613
 20
412.353815
 30
0.0
 11
390.23613
 21
412.782565
 31
0.0
  0
ARC
  5
1FE
330
1F
100
AcDbEntity
  8
002
 62
     3
370
    30
100
AcDbCircle
 10
392.06863
 20
412.073815
 30
0.0
 40
0.1926350986969513
100
AcDbArc
 50
290.551694
 51
20.551694
  0
LINE
  5
1FF
330
1F
100
AcDbEntity
  8
002
 62
     3
370
    30
100
AcDbLine
 10
392.570755
 20
411.819815
 30
0.0
 11
392.570755
 21
411.24544
 31
0.0
  0
LINE
  5
200
330
1F
100
AcDbEntity
  8
002
 62
     3
370
    30
100
AcDbLine
 10
392.761255
 20
411.220065
 30
0.0
 11
392.761255
 21
411.845065
 31
0.0
  0
ARC
  5
201
330
1F
100
AcDbEntity
  8
002
 62
     3
370
    30
100
AcDbCircle
 10
393.053505
 20
411.532565
 30
0.0
 40
0.1250464913542
100
AcDbArc
 50
311.433771
 51
48.566229
  0
ARC
  5
202
330
1F
100
AcDbEntity
  8
002
 62
     3
370
    30
100
AcDbCircle
 10
392.06863
 20
410.991315
 30
0.0
 40
0.1927521481722418
100
AcDbArc
 50
339.448306
 51
69.46135
  0
ARC
  5
203
330
1F
100
AcDbEntity
  8
002
 62
     3
370
    30
100
AcDbCircle
 10
391.828755
 20
410.991315
 30
0.0
 40
0.1926350986969513
100
AcDbArc
 50
110.503847
 51
200.551694
  0
ARC
  5
204
330
1F
100
AcDbEntity
  8
002
 62
     3
370
    30
100
AcDbCircle
 10
389.61113
 20
409.657565
 30
0.0
 40
0.625
100
AcDbArc
 50
0.0
 51
90.0
  0
ARC
  5
205
330
1F
100
AcDbEntity
  8
002
 62
     3
370
    30
100
AcDbCircle
 10
389.068255
 20
409.657565
 30
0.0
 40
0.625
100
AcDbArc
 50
0.0
 51
90.0
  0
CIRCLE
  5
206
330
1F
100
AcDbEntity
  8
002
 62
     3
370
    30
100
AcDbCircle
 10
383.011255
 20
411.532565
 30
0.0
 40
1.875
  0
LINE
  5
207
330
1F
100
AcDbEntity
  8
002
 62
     3
370
    30
100
AcDbLine
 10
380.49913
 20
419.68069
 30
0.0
 11
381.56163
 21
420.29419
 31
0.0
  0
LINE
  5
208
330
1F
100
AcDbEntity
  8
002
 62
     3
370
    30
100
AcDbLine
 10
381.56163
 20
420.29419
 30
0.0
 11
381.56163
 21
421.521065
 31
0.0
  0
LINE
  5
209
330
1F
100
AcDbEntity
  8
002
 62
     3
370
    30
100
AcDbLine
 10
381.56163
 20
421.521065
 30
0.0
 11
380.49913
 21
422.13444
 31
0.0
  0
LINE
  5
20A
330
1F
100
AcDbEntity
  8
002
 62
     3
370
    30
100
AcDbLine
 10
380.49913
 20
422.13444
 30
0.0
 11
379.43663
 21
421.521065
 31
0.0
  0
LINE
  5
20B
330
1F
100
AcDbEntity
  8
002
 62
     3
370
    30
100
AcDbLine
 10
379.43663
 20
421.521065
 30
0.0
 11
379.43663
 21
420.29419
 31
0.0
  0
LINE
  5
20C
330
1F
100
AcDbEntity
  8
002
 62
     3
370
    30
100
AcDbLine
 10
379.43663
 20
420.29419
 30
0.0
 11
380.49913
 21
419.68069
 31
0.0
  0
CIRCLE
  5
20D
330
1F
100
AcDbEntity
  8
002
 62
     3
370
    30
100
AcDbCircle
 10
380.49913
 20
420.907565
 30
0.0
 40
1.875
  0
LINE
  5
20E
330
1F
100
AcDbEntity
  8
002
 62
     3
370
    30
100
AcDbLine
 10
376.842755
 20
428.657565
 30
0.0
 11
391.136255
 21
428.657565
 31
0.0
  0
LINE
  5
20F
330
1F
100
AcDbEntity
  8
002
 62
     3
370
    30
100
AcDbLine
 10
381.761255
 20
438.907565
 30
0.0
 11
380.511255
 21
438.907565
 31
0.0
  0
ARC
  5
210
330
1F
100
AcDbEntity
  8
002
 62
     3
370
    30
100
AcDbCircle
 10
373.761255
 20
436.907565
 30
0.0
 40
5.125
100
AcDbArc
 50
12.680383
 51
347.319617
  0
LINE
  5
211
330
1F
100
AcDbEntity
  8
002
 62
     3
370
    30
100
AcDbLine
 10
378.761255
 20
431.157565
 30
0.0
 11
378.761255
 21
446.407565
 31
0.0
  0
LINE
  5
212
330
1F
100
AcDbEntity
  8
002
 62
     3
370
    30
100
AcDbLine
 10
378.761255
 20
446.407565
 30
0.0
 11
383.511255
 21
446.407565
 31
0.0
  0
LINE
  5
213
330
1F
100
AcDbEntity
  8
002
 62
     3
370
    30
100
AcDbLine
 10
373.886255
 20
442.782565
 30
0.0
 11
354.636255
 21
442.782565
 31
0.0
  0
ARC
  5
214
330
1F
100
AcDbEntity
  8
002
 62
     3
370
    30
100
AcDbCircle
 10
354.636255
 20
436.907565
 30
0.0
 40
5.875
100
AcDbArc
 50
90.0
 51
180.0
  0
LINE
  5
215
330
1F
100
AcDbEntity
  8
002
 62
     3
370
    30
100
AcDbLine
 10
348.761255
 20
436.907565
 30
0.0
 11
348.761255
 21
426.06919
 31
0.0
  0
CIRCLE
  5
216
330
1F
100
AcDbEntity
  8
002
 62
     3
370
    30
100
AcDbCircle
 10
348.023255
 20
420.907565
 30
0.0
 40
1.875
  0
LINE
  5
217
330
1F
100
AcDbEntity
  8
002
 62
     3
370
    30
100
AcDbLine
 10
348.023255
 20
422.13444
 30
0.0
 11
346.960755
 21
421.521065
 31
0.0
  0
LINE
  5
218
330
1F
100
AcDbEntity
  8
002
 62
     3
370
    30
100
AcDbLine
 10
346.960755
 20
421.521065
 30
0.0
 11
346.960755
 21
420.29419
 31
0.0
  0
LINE
  5
219
330
1F
100
AcDbEntity
  8
002
 62
     3
370
    30
100
AcDbLine
 10
346.960755
 20
420.29419
 30
0.0
 11
348.023255
 21
419.68069
 31
0.0
  0
LINE
  5
21A
330
1F
100
AcDbEntity
  8
002
 62
     3
370
    30
100
AcDbLine
 10
348.023255
 20
419.68069
 30
0.0
 11
349.085755
 21
420.29419
 31
0.0
  0
LINE
  5
21B
330
1F
100
AcDbEntity
  8
002
 62
     3
370
    30
100
AcDbLine
 10
349.085755
 20
420.29419
 30
0.0
 11
349.085755
 21
421.521065
 31
0.0
  0
LINE
  5
21C
330
1F
100
AcDbEntity
  8
002
 62
     3
370
    30
100
AcDbLine
 10
349.085755
 20
421.521065
 30
0.0
 11
348.023255
 21
422.13444
 31
0.0
  0
LINE
  5
21D
330
1F
100
AcDbEntity
  8
002
 62
     3
370
    30
100
AcDbLine
 10
355.49963
 20
426.708065
 30
0.0
 11
354.272755
 21
426.708065
 31
0.0
  0
LINE
  5
21E
330
1F
100
AcDbEntity
  8
002
 62
     3
370
    30
100
AcDbLine
 10
354.272755
 20
426.708065
 30
0.0
 11
353.65938
 21
427.770565
 31
0.0
  0
LINE
  5
21F
330
1F
100
AcDbEntity
  8
002
 62
     3
370
    30
100
AcDbLine
 10
353.65938
 20
427.770565
 30
0.0
 11
354.272755
 21
428.833065
 31
0.0
  0
LINE
  5
220
330
1F
100
AcDbEntity
  8
002
 62
     3
370
    30
100
AcDbLine
 10
354.272755
 20
428.833065
 30
0.0
 11
355.49963
 21
428.833065
 31
0.0
  0
LINE
  5
221
330
1F
100
AcDbEntity
  8
002
 62
     3
370
    30
100
AcDbLine
 10
355.49963
 20
428.833065
 30
0.0
 11
356.11313
 21
427.770565
 31
0.0
  0
LINE
  5
222
330
1F
100
AcDbEntity
  8
002
 62
     3
370
    30
100
AcDbLine
 10
356.11313
 20
427.770565
 30
0.0
 11
355.49963
 21
426.708065
 31
0.0
  0
CIRCLE
  5
223
330
1F
100
AcDbEntity
  8
002
 62
     3
370
    30
100
AcDbCircle
 10
354.886255
 20
427.770565
 30
0.0
 40
1.875
  0
LINE
  5
224
330
1F
100
AcDbEntity
  8
002
 62
     3
370
    30
100
AcDbLine
 10
362.564755
 20
432.714815
 30
0.0
 11
363.01188
 21
442.187065
 31
0.0
  0
LINE
  5
225
330
1F
100
AcDbEntity
  8
002
 62
     3
370
    30
100
AcDbLine
 10
363.011255
 20
442.157565
 30
0.0
 11
363.011255
 21
432.745815
 31
0.0
  0
CIRCLE
  5
226
330
1F
100
AcDbEntity
  8
002
 62
     3
370
    30
100
AcDbCircle
 10
364.261255
 20
411.532565
 30
0.0
 40
21.25
  0
CIRCLE
  5
227
330
1F
100
AcDbEntity
  8
002
 62
     3
370
    30
100
AcDbCircle
 10
364.261255
 20
430.282565
 30
0.0
 40
1.875
  0
LINE
  5
228
330
1F
100
AcDbEntity
  8
002
 62
     3
370
    30
100
AcDbLine
 10
364.261255
 20
431.50944
 30
0.0
 11
365.323755
 21
430.896065
 31
0.0
  0
LINE
  5
229
330
1F
100
AcDbEntity
  8
002
 62
     3
370
    30
100
AcDbLine
 10
365.323755
 20
430.896065
 30
0.0
 11
365.323755
 21
429.66919
 31
0.0
  0
LINE
  5
22A
330
1F
100
AcDbEntity
  8
002
 62
     3
370
    30
100
AcDbLine
 10
365.323755
 20
429.66919
 30
0.0
 11
364.261255
 21
429.05569
 31
0.0
  0
LINE
  5
22B
330
1F
100
AcDbEntity
  8
002
 62
     3
370
    30
100
AcDbLine
 10
364.261255
 20
429.05569
 30
0.0
 11
363.198755
 21
429.66919
 31
0.0
  0
LINE
  5
22C
330
1F
100
AcDbEntity
  8
002
 62
     3
370
    30
100
AcDbLine
 10
363.198755
 20
429.66919
 30
0.0
 11
363.198755
 21
430.896065
 31
0.0
  0
LINE
  5
22D
330
1F
100
AcDbEntity
  8
002
 62
     3
370
    30
100
AcDbLine
 10
363.198755
 20
430.896065
 30
0.0
 11
364.261255
 21
431.50944
 31
0.0
  0
LINE
  5
22E
330
1F
100
AcDbEntity
  8
002
 62
     3
370
    30
100
AcDbLine
 10
365.511255
 20
432.745815
 30
0.0
 11
365.511255
 21
442.157565
 31
0.0
  0
ARC
  5
22F
330
1F
100
AcDbEntity
  8
002
 62
     3
370
    30
100
AcDbCircle
 10
364.886255
 20
442.157565
 30
0.0
 40
0.625
100
AcDbArc
 50
0.0
 51
90.0
  0
LINE
  5
230
330
1F
100
AcDbEntity
  8
002
 62
     3
370
    30
100
AcDbLine
 10
365.510505
 20
442.187065
 30
0.0
 11
365.95763
 21
432.714815
 31
0.0
  0
ARC
  5
231
330
1F
100
AcDbEntity
  8
002
 62
     3
370
    30
100
AcDbCircle
 10
373.886255
 20
436.907565
 30
0.0
 40
5.875
100
AcDbArc
 50
33.923361
 51
90.0
  0
CIRCLE
  5
232
330
1F
100
AcDbEntity
  8
002
 62
     3
370
    30
100
AcDbCircle
 10
373.761255
 20
436.907565
 30
0.0
 40
2.8125
  0
ARC
  5
233
330
1F
100
AcDbEntity
  8
002
 62
     3
370
    30
100
AcDbCircle
 10
363.636255
 20
442.157565
 30
0.0
 40
0.625
100
AcDbArc
 50
90.0
 51
180.0
  0
CIRCLE
  5
234
330
1F
100
AcDbEntity
  8
002
 62
     3
370
    30
100
AcDbCircle
 10
354.761255
 20
436.907565
 30
0.0
 40
5.125
  0
CIRCLE
  5
235
330
1F
100
AcDbEntity
  8
002
 62
     3
370
    30
100
AcDbCircle
 10
354.761255
 20
436.907565
 30
0.0
 40
2.8125
  0
CIRCLE
  5
236
330
1F
100
AcDbEntity
  8
002
 62
     3
370
    30
100
AcDbCircle
 10
345.511255
 20
411.532565
 30
0.0
 40
1.875
  0
LINE
  5
237
330
1F
100
AcDbEntity
  8
002
 62
     3
370
    30
100
AcDbLine
 10
344.897755
 20
412.595065
 30
0.0
 11
344.28438
 21
411.532565
 31
0.0
  0
LINE
  5
238
330
1F
100
AcDbEntity
  8
002
 62
     3
370
    30
100
AcDbLine
 10
344.28438
 20
411.532565
 30
0.0
 11
344.897755
 21
410.470065
 31
0.0
  0
LINE
  5
239
330
1F
100
AcDbEntity
  8
002
 62
     3
370
    30
100
AcDbLine
 10
344.897755
 20
410.470065
 30
0.0
 11
346.12463
 21
410.470065
 31
0.0
  0
LINE
  5
23A
330
1F
100
AcDbEntity
  8
002
 62
     3
370
    30
100
AcDbLine
 10
346.12463
 20
410.470065
 30
0.0
 11
346.73813
 21
411.532565
 31
0.0
  0
LINE
  5
23B
330
1F
100
AcDbEntity
  8
002
 62
     3
370
    30
100
AcDbLine
 10
346.73813
 20
411.532565
 30
0.0
 11
346.12463
 21
412.595065
 31
0.0
  0
LINE
  5
23C
330
1F
100
AcDbEntity
  8
002
 62
     3
370
    30
100
AcDbLine
 10
346.12463
 20
412.595065
 30
0.0
 11
344.897755
 21
412.595065
 31
0.0
  0
CIRCLE
  5
23D
330
1F
100
AcDbEntity
  8
002
 62
     3
370
    30
100
AcDbCircle
 10
348.023255
 20
402.157565
 30
0.0
 40
1.875
  0
LINE
  5
23E
330
1F
100
AcDbEntity
  8
002
 62
     3
370
    30
100
AcDbLine
 10
348.023255
 20
403.38444
 30
0.0
 11
346.960755
 21
402.771065
 31
0.0
  0
LINE
  5
23F
330
1F
100
AcDbEntity
  8
002
 62
     3
370
    30
100
AcDbLine
 10
346.960755
 20
402.771065
 30
0.0
 11
346.960755
 21
401.54419
 31
0.0
  0
LINE
  5
240
330
1F
100
AcDbEntity
  8
002
 62
     3
370
    30
100
AcDbLine
 10
346.960755
 20
401.54419
 30
0.0
 11
348.023255
 21
400.93069
 31
0.0
  0
LINE
  5
241
330
1F
100
AcDbEntity
  8
002
 62
     3
370
    30
100
AcDbLine
 10
348.023255
 20
400.93069
 30
0.0
 11
349.085755
 21
401.54419
 31
0.0
  0
LINE
  5
242
330
1F
100
AcDbEntity
  8
002
 62
     3
370
    30
100
AcDbLine
 10
349.085755
 20
401.54419
 30
0.0
 11
349.085755
 21
402.771065
 31
0.0
  0
LINE
  5
243
330
1F
100
AcDbEntity
  8
002
 62
     3
370
    30
100
AcDbLine
 10
349.085755
 20
402.771065
 30
0.0
 11
348.023255
 21
403.38444
 31
0.0
  0
LINE
  5
244
330
1F
100
AcDbEntity
  8
002
 62
     3
370
    30
100
AcDbLine
 10
348.761255
 20
396.996065
 30
0.0
 11
348.761255
 21
386.157565
 31
0.0
  0
ARC
  5
245
330
1F
100
AcDbEntity
  8
002
 62
     3
370
    30
100
AcDbCircle
 10
354.636255
 20
386.157565
 30
0.0
 40
5.875
100
AcDbArc
 50
180.0
 51
270.0
  0
LINE
  5
246
330
1F
100
AcDbEntity
  8
002
 62
     3
370
    30
100
AcDbLine
 10
354.636255
 20
380.282565
 30
0.0
 11
373.886255
 21
380.282565
 31
0.0
  0
ARC
  5
247
330
1F
100
AcDbEntity
  8
002
 62
     3
370
    30
100
AcDbCircle
 10
373.886255
 20
386.157565
 30
0.0
 40
5.874947394711311
100
AcDbArc
 50
270.0
 51
326.077651
  0
LINE
  5
248
330
1F
100
AcDbEntity
  8
002
 62
     3
370
    30
100
AcDbLine
 10
380.511255
 20
384.157565
 30
0.0
 11
381.761255
 21
384.157565
 31
0.0
  0
LINE
  5
249
330
1F
100
AcDbEntity
  8
002
 62
     3
370
    30
100
AcDbLine
 10
381.761255
 20
385.94619
 30
0.0
 11
381.761255
 21
376.657565
 31
0.0
  0
LINE
  5
24A
330
1F
100
AcDbEntity
  8
002
 62
     3
370
    30
100
AcDbLine
 10
383.511255
 20
376.657565
 30
0.0
 11
383.511255
 21
391.907565
 31
0.0
  0
LINE
  5
24B
330
1F
100
AcDbEntity
  8
002
 62
     3
370
    30
100
AcDbLine
 10
383.948755
 20
391.907565
 30
0.0
 11
378.323755
 21
391.907565
 31
0.0
  0
LINE
  5
24C
330
1F
100
AcDbEntity
  8
002
 62
     3
370
    30
100
AcDbLine
 10
378.323755
 20
391.907565
 30
0.0
 11
378.323755
 21
392.157565
 31
0.0
  0
LINE
  5
24D
330
1F
100
AcDbEntity
  8
002
 62
     3
370
    30
100
AcDbLine
 10
383.948755
 20
391.907565
 30
0.0
 11
383.948755
 21
392.157565
 31
0.0
  0
LINE
  5
24E
330
1F
100
AcDbEntity
  8
002
 62
     3
370
    30
100
AcDbLine
 10
375.35388
 20
393.282565
 30
0.0
 11
391.136255
 21
393.282565
 31
0.0
  0
LINE
  5
24F
330
1F
100
AcDbEntity
  8
002
 62
     3
370
    30
100
AcDbLine
 10
391.136255
 20
393.282565
 30
0.0
 11
391.136255
 21
395.959815
 31
0.0
  0
ARC
  5
250
330
1F
100
AcDbEntity
  8
002
 62
     3
370
    30
100
AcDbCircle
 10
391.761255
 20
395.959815
 30
0.0
 40
0.625
100
AcDbArc
 50
113.580818
 51
180.0
  0
ARC
  5
251
330
1F
100
AcDbEntity
  8
002
 62
     3
370
    30
100
AcDbCircle
 10
390.318255
 20
395.56594
 30
0.0
 40
0.625
100
AcDbArc
 50
105.000812
 51
180.0
  0
LINE
  5
252
330
1F
100
AcDbEntity
  8
002
 62
     3
370
    30
100
AcDbLine
 10
391.136255
 20
394.407565
 30
0.0
 11
376.842755
 21
394.407565
 31
0.0
  0
LINE
  5
253
330
1F
100
AcDbEntity
  8
002
 62
     3
370
    30
100
AcDbLine
 10
374.86313
 20
395.294565
 30
0.0
 11
374.24963
 21
396.357065
 31
0.0
  0
LINE
  5
254
330
1F
100
AcDbEntity
  8
002
 62
     3
370
    30
100
AcDbLine
 10
374.24963
 20
396.357065
 30
0.0
 11
373.022755
 21
396.357065
 31
0.0
  0
LINE
  5
255
330
1F
100
AcDbEntity
  8
002
 62
     3
370
    30
100
AcDbLine
 10
373.022755
 20
396.357065
 30
0.0
 11
372.40938
 21
395.294565
 31
0.0
  0
LINE
  5
256
330
1F
100
AcDbEntity
  8
002
 62
     3
370
    30
100
AcDbLine
 10
372.40938
 20
395.294565
 30
0.0
 11
373.022755
 21
394.232065
 31
0.0
  0
LINE
  5
257
330
1F
100
AcDbEntity
  8
002
 62
     3
370
    30
100
AcDbLine
 10
373.022755
 20
394.232065
 30
0.0
 11
374.24963
 21
394.232065
 31
0.0
  0
LINE
  5
258
330
1F
100
AcDbEntity
  8
002
 62
     3
370
    30
100
AcDbLine
 10
374.24963
 20
394.232065
 30
0.0
 11
374.86313
 21
395.294565
 31
0.0
  0
CIRCLE
  5
259
330
1F
100
AcDbEntity
  8
002
 62
     3
370
    30
100
AcDbCircle
 10
373.636255
 20
395.294565
 30
0.0
 40
1.875
  0
LINE
  5
25A
330
1F
100
AcDbEntity
  8
002
 62
     3
370
    30
100
AcDbLine
 10
379.43663
 20
402.771065
 30
0.0
 11
380.49913
 21
403.38444
 31
0.0
  0
LINE
  5
25B
330
1F
100
AcDbEntity
  8
002
 62
     3
370
    30
100
AcDbLine
 10
380.49913
 20
403.38444
 30
0.0
 11
381.56163
 21
402.771065
 31
0.0
  0
LINE
  5
25C
330
1F
100
AcDbEntity
  8
002
 62
     3
370
    30
100
AcDbLine
 10
381.56163
 20
402.771065
 30
0.0
 11
381.56163
 21
401.54419
 31
0.0
  0
LINE
  5
25D
330
1F
100
AcDbEntity
  8
002
 62
     3
370
    30
100
AcDbLine
 10
381.56163
 20
401.54419
 30
0.0
 11
380.49913
 21
400.93069
 31
0.0
  0
LINE
  5
25E
330
1F
100
AcDbEntity
  8
002
 62
     3
370
    30
100
AcDbLine
 10
380.49913
 20
400.93069
 30
0.0
 11
379.43663
 21
401.54419
 31
0.0
  0
LINE
  5
25F
330
1F
100
AcDbEntity
  8
002
 62
     3
370
    30
100
AcDbLine
 10
379.43663
 20
401.54419
 30
0.0
 11
379.43663
 21
402.771065
 31
0.0
  0
CIRCLE
  5
260
330
1F
100
AcDbEntity
  8
002
 62
     3
370
    30
100
AcDbCircle
 10
380.49913
 20
402.157565
 30
0.0
 40
1.875
  0
LINE
  5
261
330
1F
100
AcDbEntity
  8
002
 62
     3
370
    30
100
AcDbLine
 10
378.761255
 20
391.907565
 30
0.0
 11
378.761255
 21
376.657565
 31
0.0
  0
LINE
  5
262
330
1F
100
AcDbEntity
  8
002
 62
     3
370
    30
100
AcDbLine
 10
378.761255
 20
376.657565
 30
0.0
 11
383.511255
 21
376.657565
 31
0.0
  0
LINE
  5
263
330
1F
100
AcDbEntity
  8
002
 62
     3
370
    30
100
AcDbLine
 10
380.511255
 20
376.657565
 30
0.0
 11
380.511255
 21
385.94619
 31
0.0
  0
LINE
  5
264
330
1F
100
AcDbEntity
  8
002
 62
     3
370
    30
100
AcDbLine
 10
380.511255
 20
385.94619
 30
0.0
 11
381.761255
 21
385.94619
 31
0.0
  0
ARC
  5
265
330
1F
100
AcDbEntity
  8
002
 62
     3
370
    30
100
AcDbCircle
 10
373.761255
 20
386.157565
 30
0.0
 40
5.125
100
AcDbArc
 50
12.680383
 51
347.319617
  0
CIRCLE
  5
266
330
1F
100
AcDbEntity
  8
002
 62
     3
370
    30
100
AcDbCircle
 10
373.761255
 20
386.157565
 30
0.0
 40
2.8125
  0
LINE
  5
267
330
1F
100
AcDbEntity
  8
002
 62
     3
370
    30
100
AcDbLine
 10
365.95763
 20
390.35044
 30
0.0
 11
365.510505
 21
380.87819
 31
0.0
  0
LINE
  5
268
330
1F
100
AcDbEntity
  8
002
 62
     3
370
    30
100
AcDbLine
 10
365.511255
 20
380.907565
 30
0.0
 11
365.511255
 21
390.31944
 31
0.0
  0
LINE
  5
269
330
1F
100
AcDbEntity
  8
002
 62
     3
370
    30
100
AcDbLine
 10
364.261255
 20
391.55569
 30
0.0
 11
363.198755
 21
392.16919
 31
0.0
  0
LINE
  5
26A
330
1F
100
AcDbEntity
  8
002
 62
     3
370
    30
100
AcDbLine
 10
363.198755
 20
392.16919
 30
0.0
 11
363.198755
 21
393.396065
 31
0.0
  0
LINE
  5
26B
330
1F
100
AcDbEntity
  8
002
 62
     3
370
    30
100
AcDbLine
 10
363.198755
 20
393.396065
 30
0.0
 11
364.261255
 21
394.00944
 31
0.0
  0
LINE
  5
26C
330
1F
100
AcDbEntity
  8
002
 62
     3
370
    30
100
AcDbLine
 10
364.261255
 20
394.00944
 30
0.0
 11
365.323755
 21
393.396065
 31
0.0
  0
LINE
  5
26D
330
1F
100
AcDbEntity
  8
002
 62
     3
370
    30
100
AcDbLine
 10
365.323755
 20
393.396065
 30
0.0
 11
365.323755
 21
392.16919
 31
0.0
  0
LINE
  5
26E
330
1F
100
AcDbEntity
  8
002
 62
     3
370
    30
100
AcDbLine
 10
365.323755
 20
392.16919
 30
0.0
 11
364.261255
 21
391.55569
 31
0.0
  0
LINE
  5
26F
330
1F
100
AcDbEntity
  8
002
 62
     3
370
    30
100
AcDbLine
 10
363.011255
 20
390.31944
 30
0.0
 11
363.011255
 21
380.907565
 31
0.0
  0
ARC
  5
270
330
1F
100
AcDbEntity
  8
002
 62
     3
370
    30
100
AcDbCircle
 10
363.636255
 20
380.907565
 30
0.0
 40
0.625
100
AcDbArc
 50
180.0
 51
270.0
  0
LINE
  5
271
330
1F
100
AcDbEntity
  8
002
 62
     3
370
    30
100
AcDbLine
 10
363.01188
 20
380.87819
 30
0.0
 11
362.564755
 21
390.35044
 31
0.0
  0
CIRCLE
  5
272
330
1F
100
AcDbEntity
  8
002
 62
     3
370
    30
100
AcDbCircle
 10
364.261255
 20
392.782565
 30
0.0
 40
1.875
  0
LINE
  5
273
330
1F
100
AcDbEntity
  8
002
 62
     3
370
    30
100
AcDbLine
 10
356.11313
 20
395.294565
 30
0.0
 11
355.49963
 21
396.357065
 31
0.0
  0
LINE
  5
274
330
1F
100
AcDbEntity
  8
002
 62
     3
370
    30
100
AcDbLine
 10
355.49963
 20
396.357065
 30
0.0
 11
354.272755
 21
396.357065
 31
0.0
  0
LINE
  5
275
330
1F
100
AcDbEntity
  8
002
 62
     3
370
    30
100
AcDbLine
 10
354.272755
 20
396.357065
 30
0.0
 11
353.65938
 21
395.294565
 31
0.0
  0
LINE
  5
276
330
1F
100
AcDbEntity
  8
002
 62
     3
370
    30
100
AcDbLine
 10
353.65938
 20
395.294565
 30
0.0
 11
354.272755
 21
394.232065
 31
0.0
  0
LINE
  5
277
330
1F
100
AcDbEntity
  8
002
 62
     3
370
    30
100
AcDbLine
 10
354.272755
 20
394.232065
 30
0.0
 11
355.49963
 21
394.232065
 31
0.0
  0
LINE
  5
278
330
1F
100
AcDbEntity
  8
002
 62
     3
370
    30
100
AcDbLine
 10
355.49963
 20
394.232065
 30
0.0
 11
356.11313
 21
395.294565
 31
0.0
  0
CIRCLE
  5
279
330
1F
100
AcDbEntity
  8
002
 62
     3
370
    30
100
AcDbCircle
 10
354.886255
 20
395.294565
 30
0.0
 40
1.875
  0
CIRCLE
  5
27A
330
1F
100
AcDbEntity
  8
002
 62
     3
370
    30
100
AcDbCircle
 10
354.761255
 20
386.157565
 30
0.0
 40
5.125
  0
CIRCLE
  5
27B
330
1F
100
AcDbEntity
  8
002
 62
     3
370
    30
100
AcDbCircle
 10
354.761255
 20
386.157565
 30
0.0
 40
2.8125
  0
ARC
  5
27C
330
1F
100
AcDbEntity
  8
002
 62
     3
370
    30
100
AcDbCircle
 10
364.886255
 20
380.907565
 30
0.0
 40
0.625
100
AcDbArc
 50
270.0
 51
0.0
  0
LINE
  5
27D
330
1F
100
AcDbEntity
  8
002
 62
    40
370
    30
100
AcDbLine
 10
391.58888
 20
410.88869
 30
0.0
 11
391.508755
 21
410.968815
 31
0.0
  0
LINE
  5
27E
330
1F
100
AcDbEntity
  8
002
 62
    40
370
    30
100
AcDbLine
 10
391.508755
 20
412.09644
 30
0.0
 11
391.58888
 21
412.17644
 31
0.0
  0
LINE
  5
27F
330
1F
100
AcDbEntity
  8
002
  6
CENTER
 62
    40
370
     9
100
AcDbLine
 10
367.886255
 20
436.907565
 30
0.0
 11
381.248005
 21
436.907565
 31
0.0
  0
LINE
  5
280
330
1F
100
AcDbEntity
  8
002
  6
CENTER
 62
    40
370
     9
100
AcDbLine
 10
373.761255
 20
431.032565
 30
0.0
 11
373.761255
 21
444.195815
 31
0.0
  0
LINE
  5
281
330
1F
100
AcDbEntity
  8
002
  6
CENTER
 62
    40
370
     9
100
AcDbLine
 10
354.761255
 20
444.195815
 30
0.0
 11
354.761255
 21
431.032565
 31
0.0
  0
LINE
  5
282
330
1F
100
AcDbEntity
  8
002
  6
CENTER
 62
    40
370
     9
100
AcDbLine
 10
347.27438
 20
436.907565
 30
0.0
 11
360.636255
 21
436.907565
 31
0.0
  0
LINE
  5
283
330
1F
100
AcDbEntity
  8
002
  6
CENTER
 62
    40
370
     9
100
AcDbLine
 10
353.810755
 20
429.63319
 30
0.0
 11
355.98138
 21
425.873815
 31
0.0
  0
CIRCLE
  5
284
330
1F
100
AcDbEntity
  8
002
  6
CENTER
 62
    40
370
     9
100
AcDbCircle
 10
364.261255
 20
411.532565
 30
0.0
 40
18.75
  0
LINE
  5
285
330
1F
100
AcDbEntity
  8
002
  6
CENTER
 62
    40
370
     9
100
AcDbLine
 10
349.920005
 20
419.81244
 30
0.0
 11
346.160505
 21
421.983065
 31
0.0
  0
LINE
  5
286
330
1F
100
AcDbEntity
  8
002
  6
CENTER
 62
    40
370
     9
100
AcDbLine
 10
374.71163
 20
429.63319
 30
0.0
 11
372.54113
 21
425.873815
 31
0.0
  0
LINE
  5
287
330
1F
100
AcDbEntity
  8
002
  6
CENTER
 62
    40
370
     9
100
AcDbLine
 10
378.60238
 20
419.81244
 30
0.0
 11
382.36188
 21
421.983065
 31
0.0
  0
LINE
  5
288
330
1F
100
AcDbEntity
  8
002
  6
CENTER
 62
    40
370
     9
100
AcDbLine
 10
378.60238
 20
403.25269
 30
0.0
 11
382.36188
 21
401.08219
 31
0.0
  0
LINE
  5
289
330
1F
100
AcDbEntity
  8
002
  6
CENTER
 62
    40
370
     9
100
AcDbLine
 10
374.71163
 20
393.30694
 30
0.0
 11
372.54113
 21
397.19144
 31
0.0
  0
LINE
  5
28A
330
1F
100
AcDbEntity
  8
002
  6
CENTER
 62
    40
370
     9
100
AcDbLine
 10
355.98138
 20
397.19144
 30
0.0
 11
353.810755
 21
393.43194
 31
0.0
  0
LINE
  5
28B
330
1F
100
AcDbEntity
  8
002
  6
CENTER
 62
    40
370
     9
100
AcDbLine
 10
346.160505
 20
401.08219
 30
0.0
 11
349.920005
 21
403.25269
 31
0.0
  0
LINE
  5
28C
330
1F
100
AcDbEntity
  8
002
  6
CENTER
 62
    40
370
     9
100
AcDbLine
 10
354.761255
 20
392.032565
 30
0.0
 11
354.761255
 21
378.869315
 31
0.0
  0
LINE
  5
28D
330
1F
100
AcDbEntity
  8
002
  6
CENTER
 62
    40
370
     9
100
AcDbLine
 10
360.636255
 20
386.157565
 30
0.0
 11
347.27438
 21
386.157565
 31
0.0
  0
LINE
  5
28E
330
1F
100
AcDbEntity
  8
002
  6
CENTER
 62
    40
370
     9
100
AcDbLine
 10
373.761255
 20
378.869315
 30
0.0
 11
373.761255
 21
392.032565
 31
0.0
  0
LINE
  5
28F
330
1F
100
AcDbEntity
  8
002
  6
CENTER
 62
    40
370
     9
100
AcDbLine
 10
367.886255
 20
386.157565
 30
0.0
 11
381.248005
 21
386.157565
 31
0.0
  0
ARC
  5
290
330
1F
100
AcDbEntity
  8
002
 62
     3
370
    30
100
AcDbCircle
 10
381.136255
 20
318.532565
 30
0.0
 40
2.375
100
AcDbArc
 50
105.257523
 51
74.742477
  0
LINE
  5
291
330
1F
100
AcDbEntity
  8
002
  6
CENTER
 62
    40
370
     9
100
AcDbLine
 10
385.386255
 20
318.532565
 30
0.0
 11
376.886255
 21
318.532565
 31
0.0
  0
LINE
  5
292
330
1F
100
AcDbEntity
  8
002
  6
CENTER
 62
    40
370
     9
100
AcDbLine
 10
381.136255
 20
314.282565
 30
0.0
 11
381.136255
 21
322.782565
 31
0.0
  0
LINE
  5
293
330
1F
100
AcDbEntity
  8
002
  6
CENTER
 62
    40
370
     9
100
AcDbLine
 10
364.261255
 20
375.282565
 30
0.0
 11
364.261255
 21
447.782565
 31
0.0
  0
LINE
  5
294
330
1F
100
AcDbEntity
  8
002
  6
CENTER
 62
    40
370
     9
100
AcDbLine
 10
381.136255
 20
448.907565
 30
0.0
 11
381.136255
 21
374.157565
 31
0.0
  0
LINE
  5
295
330
1F
100
AcDbEntity
  8
002
  6
CENTER
 62
    40
370
     9
100
AcDbLine
 10
395.636255
 20
411.532565
 30
0.0
 11
340.511255
 21
411.532565
 31
0.0
  0
LINE
  5
296
330
1F
100
AcDbEntity
  8
002
 62
     3
370
    30
100
AcDbLine
 10
375.147025
 20
429.782565
 30
0.0
 11
391.136255
 21
429.782565
 31
0.0
  0
LINE
  5
297
330
1F
100
AcDbEntity
  8
002
 62
     3
370
    30
100
AcDbLine
 10
377.886255
 20
93.874719
 30
0.0
 11
377.886255
 21
92.749719
 31
0.0
  0
LINE
  5
298
330
1F
100
AcDbEntity
  8
002
 62
     3
370
    30
100
AcDbLine
 10
377.886255
 20
92.749719
 30
0.0
 11
378.24088
 21
91.426219
 31
0.0
  0
ARC
  5
299
330
1F
100
AcDbEntity
  8
002
 62
     3
370
    30
100
AcDbCircle
 10
379.448255
 20
91.749719
 30
0.0
 40
1.249927622904602
100
AcDbArc
 50
194.999329
 51
229.485715
  0
LINE
  5
29A
330
1F
100
AcDbEntity
  8
002
 62
     3
370
    30
100
AcDbLine
 10
378.636255
 20
90.499719
 30
0.0
 11
375.511255
 21
90.499719
 31
0.0
  0
LINE
  5
29B
330
1F
100
AcDbEntity
  8
002
 62
     3
370
    30
100
AcDbLine
 10
375.511255
 20
90.374719
 30
0.0
 11
375.511255
 21
92.874719
 31
0.0
  0
LINE
  5
29C
330
1F
100
AcDbEntity
  8
002
 62
     3
370
    30
100
AcDbLine
 10
375.511255
 20
92.874719
 30
0.0
 11
371.761255
 21
92.874719
 31
0.0
  0
LINE
  5
29D
330
1F
100
AcDbEntity
  8
002
 62
     3
370
    30
100
AcDbLine
 10
371.761255
 20
92.874719
 30
0.0
 11
371.761255
 21
90.374719
 31
0.0
  0
LINE
  5
29E
330
1F
100
AcDbEntity
  8
002
 62
     3
370
    30
100
AcDbLine
 10
371.761255
 20
90.499719
 30
0.0
 11
366.136255
 21
90.499719
 31
0.0
  0
LINE
  5
29F
330
1F
100
AcDbEntity
  8
002
 62
     3
370
    30
100
AcDbLine
 10
366.136255
 20
90.374719
 30
0.0
 11
366.136255
 21
92.874719
 31
0.0
  0
LINE
  5
2A0
330
1F
100
AcDbEntity
  8
002
 62
     3
370
    30
100
AcDbLine
 10
366.136255
 20
92.874719
 30
0.0
 11
362.386255
 21
92.874719
 31
0.0
  0
LINE
  5
2A1
330
1F
100
AcDbEntity
  8
002
 62
     3
370
    30
100
AcDbLine
 10
362.386255
 20
92.874719
 30
0.0
 11
362.386255
 21
90.374719
 31
0.0
  0
LINE
  5
2A2
330
1F
100
AcDbEntity
  8
002
 62
     3
370
    30
100
AcDbLine
 10
362.386255
 20
90.499719
 30
0.0
 11
356.761255
 21
90.499719
 31
0.0
  0
LINE
  5
2A3
330
1F
100
AcDbEntity
  8
002
 62
     3
370
    30
100
AcDbLine
 10
356.761255
 20
90.374719
 30
0.0
 11
356.761255
 21
92.874719
 31
0.0
  0
LINE
  5
2A4
330
1F
100
AcDbEntity
  8
002
 62
     3
370
    30
100
AcDbLine
 10
356.761255
 20
92.874719
 30
0.0
 11
353.011255
 21
92.874719
 31
0.0
  0
LINE
  5
2A5
330
1F
100
AcDbEntity
  8
002
 62
     3
370
    30
100
AcDbLine
 10
353.011255
 20
92.874719
 30
0.0
 11
353.011255
 21
90.374719
 31
0.0
  0
LINE
  5
2A6
330
1F
100
AcDbEntity
  8
002
 62
     3
370
    30
100
AcDbLine
 10
353.011255
 20
90.499719
 30
0.0
 11
349.886255
 21
90.499719
 31
0.0
  0
LINE
  5
2A7
330
1F
100
AcDbEntity
  8
002
 62
     3
370
    30
100
AcDbLine
 10
349.886255
 20
90.374719
 30
0.0
 11
349.886255
 21
92.874719
 31
0.0
  0
LINE
  5
2A8
330
1F
100
AcDbEntity
  8
002
 62
     3
370
    30
100
AcDbLine
 10
349.886255
 20
92.874719
 30
0.0
 11
343.636255
 21
92.874719
 31
0.0
  0
LINE
  5
2A9
330
1F
100
AcDbEntity
  8
002
 62
     3
370
    30
100
AcDbLine
 10
343.636255
 20
92.874719
 30
0.0
 11
343.636255
 21
90.374719
 31
0.0
  0
ARC
  5
2AA
330
1F
100
AcDbEntity
  8
002
 62
     3
370
    30
100
AcDbCircle
 10
343.636255
 20
89.874719
 30
0.0
 40
0.625
100
AcDbArc
 50
126.869898
 51
180.0
  0
LINE
  5
2AB
330
1F
100
AcDbEntity
  8
002
 62
     3
370
    30
100
AcDbLine
 10
343.011255
 20
89.874719
 30
0.0
 11
343.011255
 21
82.708969
 31
0.0
  0
ARC
  5
2AC
330
1F
100
AcDbEntity
  8
002
 62
     3
370
    30
100
AcDbCircle
 10
344.261255
 20
82.708969
 30
0.0
 40
1.250115750890701
100
AcDbArc
 50
180.0
 51
254.99662
  0
LINE
  5
2AD
330
1F
100
AcDbEntity
  8
002
 62
     3
370
    30
100
AcDbLine
 10
343.93763
 20
81.501469
 30
0.0
 11
344.423755
 21
81.371219
 31
0.0
  0
LINE
  5
2AE
330
1F
100
AcDbEntity
  8
002
 62
     3
370
    30
100
AcDbLine
 10
344.358505
 20
81.749719
 30
0.0
 11
373.86788
 21
81.749719
 31
0.0
  0
ARC
  5
2AF
330
1F
100
AcDbEntity
  8
002
 62
     3
370
    30
100
AcDbCircle
 10
373.565255
 20
80.532719
 30
0.0
 40
0.6250140623418038
100
AcDbArc
 50
139.208565
 51
207.154388
  0
LINE
  5
2B0
330
1F
100
AcDbEntity
  8
002
 62
     3
370
    30
100
AcDbLine
 10
372.35663
 20
81.012844
 30
0.0
 11
366.64313
 21
81.012844
 31
0.0
  0
ARC
  5
2B1
330
1F
100
AcDbEntity
  8
002
 62
     3
370
    30
100
AcDbCircle
 10
366.761255
 20
80.499719
 30
0.0
 40
1.25
100
AcDbArc
 50
90.0
 51
180.0
  0
LINE
  5
2B2
330
1F
100
AcDbEntity
  8
002
 62
     3
370
    30
100
AcDbLine
 10
365.511255
 20
80.499719
 30
0.0
 11
365.511255
 21
64.374719
 31
0.0
  0
ARC
  5
2B3
330
1F
100
AcDbEntity
  8
002
 62
     3
370
    30
100
AcDbCircle
 10
366.761255
 20
64.374719
 30
0.0
 40
1.25
100
AcDbArc
 50
180.0
 51
270.0
  0
LINE
  5
2B4
330
1F
100
AcDbEntity
  8
002
 62
     3
370
    30
100
AcDbLine
 10
366.092755
 20
64.329719
 30
0.0
 11
365.512005
 21
80.454719
 31
0.0
  0
LINE
  5
2B5
330
1F
100
AcDbEntity
  8
002
 62
     3
370
    30
100
AcDbLine
 10
363.011255
 20
80.499719
 30
0.0
 11
363.011255
 21
64.374719
 31
0.0
  0
LINE
  5
2B6
330
1F
100
AcDbEntity
  8
002
 62
     3
370
    30
100
AcDbLine
 10
362.42963
 20
64.329719
 30
0.0
 11
363.01038
 21
80.454719
 31
0.0
  0
ARC
  5
2B7
330
1F
100
AcDbEntity
  8
002
 62
     3
370
    30
100
AcDbCircle
 10
361.761255
 20
80.499719
 30
0.0
 40
1.25
100
AcDbArc
 50
0.0
 51
90.0
  0
LINE
  5
2B8
330
1F
100
AcDbEntity
  8
002
 62
     3
370
    30
100
AcDbLine
 10
361.79913
 20
81.012844
 30
0.0
 11
351.328505
 21
81.012844
 31
0.0
  0
ARC
  5
2B9
330
1F
100
AcDbEntity
  8
002
 62
     3
370
    30
100
AcDbCircle
 10
351.328505
 20
79.137844
 30
0.0
 40
1.875
100
AcDbArc
 50
90.0
 51
180.0
  0
LINE
  5
2BA
330
1F
100
AcDbEntity
  8
002
 62
     3
370
    30
100
AcDbLine
 10
349.453505
 20
79.137844
 30
0.0
 11
349.453505
 21
68.374719
 31
0.0
  0
LINE
  5
2BB
330
1F
100
AcDbEntity
  8
002
 62
     3
370
    30
100
AcDbLine
 10
348.527005
 20
67.734094
 30
0.0
 11
346.136255
 21
68.374719
 31
0.0
  0
LINE
  5
2BC
330
1F
100
AcDbEntity
  8
002
 62
     3
370
    30
100
AcDbLine
 10
346.136255
 20
68.374719
 30
0.0
 11
346.136255
 21
79.999719
 31
0.0
  0
LINE
  5
2BD
330
1F
100
AcDbEntity
  8
002
 62
     3
370
    30
100
AcDbLine
 10
346.136255
 20
79.999719
 30
0.0
 11
345.761255
 21
79.999719
 31
0.0
  0
ARC
  5
2BE
330
1F
100
AcDbEntity
  8
002
 62
     3
370
    30
100
AcDbCircle
 10
343.938505
 20
79.560219
 30
0.0
 40
1.87488361305443
100
AcDbArc
 50
13.55635
 51
75.000177
  0
LINE
  5
2BF
330
1F
100
AcDbEntity
  8
002
 62
     3
370
    30
100
AcDbLine
 10
344.511255
 20
79.624719
 30
0.0
 11
346.136255
 21
79.624719
 31
0.0
  0
ARC
  5
2C0
330
1F
100
AcDbEntity
  8
002
 62
     3
370
    30
100
AcDbCircle
 10
344.511255
 20
79.374719
 30
0.0
 40
0.25
100
AcDbArc
 50
90.0
 51
180.0
  0
LINE
  5
2C1
330
1F
100
AcDbEntity
  8
002
 62
     3
370
    30
100
AcDbLine
 10
344.261255
 20
79.374719
 30
0.0
 11
344.261255
 21
68.624719
 31
0.0
  0
ARC
  5
2C2
330
1F
100
AcDbEntity
  8
002
 62
     3
370
    30
100
AcDbCircle
 10
344.511255
 20
68.624719
 30
0.0
 40
0.25
100
AcDbArc
 50
180.0
 51
270.0
  0
LINE
  5
2C3
330
1F
100
AcDbEntity
  8
002
 62
     3
370
    30
100
AcDbLine
 10
344.511255
 20
68.374719
 30
0.0
 11
346.136255
 21
68.374719
 31
0.0
  0
LINE
  5
2C4
330
1F
100
AcDbEntity
  8
002
 62
     3
370
    30
100
AcDbLine
 10
346.761255
 20
67.727719
 30
0.0
 11
346.761255
 21
58.999719
 31
0.0
  0
LINE
  5
2C5
330
1F
100
AcDbEntity
  8
002
 62
     3
370
    30
100
AcDbLine
 10
346.761255
 20
58.999719
 30
0.0
 11
379.761255
 21
58.999719
 31
0.0
  0
LINE
  5
2C6
330
1F
100
AcDbEntity
  8
002
 62
     3
370
    30
100
AcDbLine
 10
379.761255
 20
58.999719
 30
0.0
 11
379.761255
 21
62.499719
 31
0.0
  0
ARC
  5
2C7
330
1F
100
AcDbEntity
  8
002
 62
     3
370
    30
100
AcDbCircle
 10
379.136255
 20
62.499719
 30
0.0
 40
0.625
100
AcDbArc
 50
0.0
 51
90.0
  0
LINE
  5
2C8
330
1F
100
AcDbEntity
  8
002
 62
     3
370
    30
100
AcDbLine
 10
379.136255
 20
63.124719
 30
0.0
 11
349.386255
 21
63.124719
 31
0.0
  0
ARC
  5
2C9
330
1F
100
AcDbEntity
  8
002
 62
     3
370
    30
100
AcDbCircle
 10
349.386255
 20
62.499719
 30
0.0
 40
0.625
100
AcDbArc
 50
90.0
 51
180.0
  0
LINE
  5
2CA
330
1F
100
AcDbEntity
  8
002
 62
     3
370
    30
100
AcDbLine
 10
348.761255
 20
62.499719
 30
0.0
 11
348.761255
 21
58.999719
 31
0.0
  0
LINE
  5
2CB
330
1F
100
AcDbEntity
  8
002
 62
     3
370
    30
100
AcDbLine
 10
350.636255
 20
58.999719
 30
0.0
 11
350.636255
 21
57.749719
 31
0.0
  0
LINE
  5
2CC
330
1F
100
AcDbEntity
  8
002
 62
     3
370
    30
100
AcDbLine
 10
350.636255
 20
57.749719
 30
0.0
 11
377.886255
 21
57.749719
 31
0.0
  0
LINE
  5
2CD
330
1F
100
AcDbEntity
  8
002
 62
     3
370
    30
100
AcDbLine
 10
377.886255
 20
57.749719
 30
0.0
 11
377.886255
 21
58.999719
 31
0.0
  0
LINE
  5
2CE
330
1F
100
AcDbEntity
  8
002
 62
     3
370
    30
100
AcDbLine
 10
377.386255
 20
57.749719
 30
0.0
 11
377.386255
 21
56.499719
 31
0.0
  0
LINE
  5
2CF
330
1F
100
AcDbEntity
  8
002
 62
     3
370
    30
100
AcDbLine
 10
375.386255
 20
56.499719
 30
0.0
 11
377.386255
 21
56.499719
 31
0.0
  0
LINE
  5
2D0
330
1F
100
AcDbEntity
  8
002
 62
     3
370
    30
100
AcDbLine
 10
375.386255
 20
56.499719
 30
0.0
 11
375.386255
 21
57.749719
 31
0.0
  0
LINE
  5
2D1
330
1F
100
AcDbEntity
  8
002
 62
     3
370
    30
100
AcDbLine
 10
353.136255
 20
57.749719
 30
0.0
 11
353.136255
 21
56.499719
 31
0.0
  0
LINE
  5
2D2
330
1F
100
AcDbEntity
  8
002
 62
     3
370
    30
100
AcDbLine
 10
351.136255
 20
56.499719
 30
0.0
 11
353.136255
 21
56.499719
 31
0.0
  0
LINE
  5
2D3
330
1F
100
AcDbEntity
  8
002
 62
     3
370
    30
100
AcDbLine
 10
351.136255
 20
56.499719
 30
0.0
 11
351.136255
 21
57.749719
 31
0.0
  0
ARC
  5
2D4
330
1F
100
AcDbEntity
  8
002
 62
     3
370
    30
100
AcDbCircle
 10
348.203505
 20
66.526719
 30
0.0
 40
1.249962655692173
100
AcDbArc
 50
0.0
 51
75.000671
  0
ARC
  5
2D5
330
1F
100
AcDbEntity
  8
002
 62
     3
370
    30
100
AcDbCircle
 10
346.136255
 20
67.727719
 30
0.0
 40
0.6250416986089752
100
AcDbArc
 50
0.0
 51
75.002154
  0
LINE
  5
2D6
330
1F
100
AcDbEntity
  8
002
 62
     3
370
    30
100
AcDbLine
 10
344.261255
 20
68.686594
 30
0.0
 11
343.70913
 21
68.686594
 31
0.0
  0
LINE
  5
2D7
330
1F
100
AcDbEntity
  8
002
 62
     3
370
    30
100
AcDbLine
 10
343.573755
 20
68.921094
 30
0.0
 11
343.573755
 21
70.328344
 31
0.0
  0
ARC
  5
2D8
330
1F
100
AcDbEntity
  8
002
 62
     3
370
    30
100
AcDbCircle
 10
344.45388
 20
69.624719
 30
0.0
 40
0.8801213339648176
100
AcDbArc
 50
147.79279
 51
212.200325
  0
ARC
  5
2D9
330
1F
100
AcDbEntity
  8
002
 62
     3
370
    30
100
AcDbCircle
 10
343.844505
 20
68.921094
 30
0.0
 40
0.2707704574450497
100
AcDbArc
 50
119.984282
 51
240.002499
  0
LINE
  5
2DA
330
1F
100
AcDbEntity
  8
002
 62
     3
370
    30
100
AcDbLine
 10
343.70913
 20
69.155719
 30
0.0
 11
344.261255
 21
69.155719
 31
0.0
  0
LINE
  5
2DB
330
1F
100
AcDbEntity
  8
002
 62
     3
370
    30
100
AcDbLine
 10
344.261255
 20
70.093844
 30
0.0
 11
343.70913
 21
70.093844
 31
0.0
  0
LINE
  5
2DC
330
1F
100
AcDbEntity
  8
002
 62
     3
370
    30
100
AcDbLine
 10
343.70913
 20
70.562969
 30
0.0
 11
344.261255
 21
70.562969
 31
0.0
  0
ARC
  5
2DD
330
1F
100
AcDbEntity
  8
002
 62
     3
370
    30
100
AcDbCircle
 10
343.844505
 20
70.328344
 30
0.0
 40
0.2707704574450497
100
AcDbArc
 50
119.984282
 51
240.002499
  0
LINE
  5
2DE
330
1F
100
AcDbEntity
  8
002
 62
     3
370
    30
100
AcDbLine
 10
343.70913
 20
77.436594
 30
0.0
 11
344.261255
 21
77.436594
 31
0.0
  0
LINE
  5
2DF
330
1F
100
AcDbEntity
  8
002
 62
     3
370
    30
100
AcDbLine
 10
344.261255
 20
77.905719
 30
0.0
 11
343.70913
 21
77.905719
 31
0.0
  0
ARC
  5
2E0
330
1F
100
AcDbEntity
  8
002
 62
     3
370
    30
100
AcDbCircle
 10
343.844505
 20
77.671094
 30
0.0
 40
0.2707704574450497
100
AcDbArc
 50
119.984282
 51
240.002499
  0
LINE
  5
2E1
330
1F
100
AcDbEntity
  8
002
 62
     3
370
    30
100
AcDbLine
 10
343.573755
 20
77.671094
 30
0.0
 11
343.573755
 21
79.078344
 31
0.0
  0
ARC
  5
2E2
330
1F
100
AcDbEntity
  8
002
 62
     3
370
    30
100
AcDbCircle
 10
344.45388
 20
78.374719
 30
0.0
 40
0.8801213339648176
100
AcDbArc
 50
147.79279
 51
212.200325
  0
LINE
  5
2E3
330
1F
100
AcDbEntity
  8
002
 62
     3
370
    30
100
AcDbLine
 10
343.70913
 20
78.843844
 30
0.0
 11
344.261255
 21
78.843844
 31
0.0
  0
LINE
  5
2E4
330
1F
100
AcDbEntity
  8
002
 62
     3
370
    30
100
AcDbLine
 10
344.261255
 20
79.312969
 30
0.0
 11
343.70913
 21
79.312969
 31
0.0
  0
ARC
  5
2E5
330
1F
100
AcDbEntity
  8
002
 62
     3
370
    30
100
AcDbCircle
 10
343.844505
 20
79.078344
 30
0.0
 40
0.2707704574450497
100
AcDbArc
 50
119.984282
 51
240.002499
  0
LINE
  5
2E6
330
1F
100
AcDbEntity
  8
002
 62
     3
370
    30
100
AcDbLine
 10
343.011255
 20
87.374719
 30
0.0
 11
385.511255
 21
87.374719
 31
0.0
  0
ARC
  5
2E7
330
1F
100
AcDbEntity
  8
002
 62
     3
370
    30
100
AcDbCircle
 10
386.136255
 20
85.768969
 30
0.0
 40
0.62497476199045
100
AcDbArc
 50
180.0
 51
231.080686
  0
ARC
  5
2E8
330
1F
100
AcDbEntity
  8
002
 62
     3
370
    30
100
AcDbCircle
 10
389.261255
 20
85.092469
 30
0.0
 40
3.750139982803977
100
AcDbArc
 50
180.0
 51
233.778298
  0
ARC
  5
2E9
330
1F
100
AcDbEntity
  8
002
 62
     3
370
    30
100
AcDbCircle
 10
390.48613
 20
80.255969
 30
0.0
 40
1.249962655692153
100
AcDbArc
 50
213.787004
 51
255.000671
  0
LINE
  5
2EA
330
1F
100
AcDbEntity
  8
002
 62
     3
370
    30
100
AcDbLine
 10
390.16263
 20
79.048594
 30
0.0
 11
391.511255
 21
78.687219
 31
0.0
  0
LINE
  5
2EB
330
1F
100
AcDbEntity
  8
002
 62
     3
370
    30
100
AcDbLine
 10
391.511255
 20
78.687219
 30
0.0
 11
391.511255
 21
69.312219
 31
0.0
  0
LINE
  5
2EC
330
1F
100
AcDbEntity
  8
002
 62
     3
370
    30
100
AcDbLine
 10
391.511255
 20
69.312219
 30
0.0
 11
390.16263
 21
68.950969
 31
0.0
  0
ARC
  5
2ED
330
1F
100
AcDbEntity
  8
002
 62
     3
370
    30
100
AcDbCircle
 10
390.48613
 20
67.743469
 30
0.0
 40
1.249984012397769
100
AcDbArc
 50
104.997846
 51
146.212996
  0
ARC
  5
2EE
330
1F
100
AcDbEntity
  8
002
 62
     3
370
    30
100
AcDbCircle
 10
390.706005
 20
68.449469
 30
0.0
 40
0.6249878248814491
100
AcDbArc
 50
104.997846
 51
158.468842
  0
CIRCLE
  5
2EF
330
1F
100
AcDbEntity
  8
002
 62
     3
370
    30
100
AcDbCircle
 10
381.136255
 20
73.999719
 30
0.0
 40
10.0
  0
LINE
  5
2F0
330
1F
100
AcDbEntity
  8
002
 62
     3
370
    30
100
AcDbLine
 10
391.761255
 20
74.360594
 30
0.0
 11
392.136255
 21
74.360594
 31
0.0
  0
ARC
  5
2F1
330
1F
100
AcDbEntity
  8
002
 62
     3
370
    30
100
AcDbCircle
 10
392.06863
 20
74.540969
 30
0.0
 40
0.1926350986970145
100
AcDbArc
 50
290.551694
 51
20.551694
  0
LINE
  5
2F2
330
1F
100
AcDbEntity
  8
002
 62
     3
370
    30
100
AcDbLine
 10
392.136255
 20
74.721469
 30
0.0
 11
391.761255
 21
74.721469
 31
0.0
  0
LINE
  5
2F3
330
1F
100
AcDbEntity
  8
002
 62
     3
370
    30
100
AcDbLine
 10
391.761255
 20
74.721469
 30
0.0
 11
391.64838
 21
74.608594
 31
0.0
  0
ARC
  5
2F4
330
1F
100
AcDbEntity
  8
002
 62
     3
370
    30
100
AcDbCircle
 10
391.828755
 20
74.540969
 30
0.0
 40
0.1925912527219205
100
AcDbArc
 50
159.448306
 51
249.483127
  0
ARC
  5
2F5
330
1F
100
AcDbEntity
  8
002
 62
     3
370
    30
100
AcDbCircle
 10
392.219505
 20
73.999719
 30
0.0
 40
0.5832097607207583
100
AcDbArc
 50
141.779327
 51
218.211025
  0
ARC
  5
2F6
330
1F
100
AcDbEntity
  8
002
 62
     3
370
    30
100
AcDbCircle
 10
391.828755
 20
73.458469
 30
0.0
 40
0.1925912527219571
100
AcDbArc
 50
110.503847
 51
200.516873
  0
LINE
  5
2F7
330
1F
100
AcDbEntity
  8
002
 62
     3
370
    30
100
AcDbLine
 10
391.64838
 20
73.390969
 30
0.0
 11
391.761255
 21
73.278094
 31
0.0
  0
LINE
  5
2F8
330
1F
100
AcDbEntity
  8
002
 62
     3
370
    30
100
AcDbLine
 10
391.761255
 20
73.278094
 30
0.0
 11
392.136255
 21
73.278094
 31
0.0
  0
LINE
  5
2F9
330
1F
100
AcDbEntity
  8
002
 62
     3
370
    30
100
AcDbLine
 10
392.136255
 20
73.278094
 30
0.0
 11
392.50038
 21
73.642219
 31
0.0
  0
LINE
  5
2FA
330
1F
100
AcDbEntity
  8
002
 62
     3
370
    30
100
AcDbLine
 10
392.570755
 20
73.712594
 30
0.0
 11
392.570755
 21
74.286969
 31
0.0
  0
ARC
  5
2FB
330
1F
100
AcDbEntity
  8
002
 62
     3
370
    30
100
AcDbCircle
 10
392.588755
 20
74.445594
 30
0.0
 40
0.1250002499997285
100
AcDbArc
 50
225.0
 51
302.005383
  0
LINE
  5
2FC
330
1F
100
AcDbEntity
  8
002
 62
     3
370
    30
100
AcDbLine
 10
392.655005
 20
74.339594
 30
0.0
 11
392.761255
 21
74.405969
 31
0.0
  0
LINE
  5
2FD
330
1F
100
AcDbEntity
  8
002
 62
     3
370
    30
100
AcDbLine
 10
392.761255
 20
74.405969
 30
0.0
 11
393.136255
 21
74.312219
 31
0.0
  0
LINE
  5
2FE
330
1F
100
AcDbEntity
  8
002
 62
     3
370
    30
100
AcDbLine
 10
393.136255
 20
74.312219
 30
0.0
 11
393.136255
 21
73.687219
 31
0.0
  0
LINE
  5
2FF
330
1F
100
AcDbEntity
  8
002
 62
     3
370
    30
100
AcDbLine
 10
393.136255
 20
73.687219
 30
0.0
 11
392.761255
 21
73.593469
 31
0.0
  0
LINE
  5
300
330
1F
100
AcDbEntity
  8
002
 62
     3
370
    30
100
AcDbLine
 10
392.761255
 20
73.593469
 30
0.0
 11
392.655005
 21
73.659844
 31
0.0
  0
ARC
  5
301
330
1F
100
AcDbEntity
  8
002
 62
     3
370
    30
100
AcDbCircle
 10
392.588755
 20
73.553844
 30
0.0
 40
0.1249811235747011
100
AcDbArc
 50
57.994617
 51
135.0
  0
LINE
  5
302
330
1F
100
AcDbEntity
  8
002
 62
     3
370
    30
100
AcDbLine
 10
392.761255
 20
73.687219
 30
0.0
 11
392.761255
 21
74.312219
 31
0.0
  0
LINE
  5
303
330
1F
100
AcDbEntity
  8
002
 62
     3
370
    30
100
AcDbLine
 10
392.50038
 20
74.357219
 30
0.0
 11
392.136255
 21
74.721469
 31
0.0
  0
LINE
  5
304
330
1F
100
AcDbEntity
  8
002
 62
     3
370
    30
100
AcDbLine
 10
391.68963
 20
74.649969
 30
0.0
 11
391.511255
 21
74.638719
 31
0.0
  0
LINE
  5
305
330
1F
100
AcDbEntity
  8
002
 62
     3
370
    30
100
AcDbLine
 10
391.636255
 20
74.535469
 30
0.0
 11
391.636255
 21
73.464094
 31
0.0
  0
LINE
  5
306
330
1F
100
AcDbEntity
  8
002
 62
     3
370
    30
100
AcDbLine
 10
391.68963
 20
73.349594
 30
0.0
 11
391.511255
 21
73.360719
 31
0.0
  0
LINE
  5
307
330
1F
100
AcDbEntity
  8
002
 62
     3
370
    30
100
AcDbLine
 10
391.761255
 20
73.638969
 30
0.0
 11
392.136255
 21
73.638969
 31
0.0
  0
ARC
  5
308
330
1F
100
AcDbEntity
  8
002
 62
     3
370
    30
100
AcDbCircle
 10
391.67788
 20
73.999719
 30
0.0
 40
0.5833852982806795
100
AcDbArc
 50
321.796569
 51
38.213078
  0
ARC
  5
309
330
1F
100
AcDbEntity
  8
002
 62
     3
370
    30
100
AcDbCircle
 10
392.06863
 20
73.458469
 30
0.0
 40
0.1927521481722085
100
AcDbArc
 50
339.483127
 51
69.46135
  0
ARC
  5
30A
330
1F
100
AcDbEntity
  8
002
 62
     3
370
    30
100
AcDbCircle
 10
393.053505
 20
73.999719
 30
0.0
 40
0.1250464913542376
100
AcDbArc
 50
311.433771
 51
48.566229
  0
ARC
  5
30B
330
1F
100
AcDbEntity
  8
002
 62
     3
370
    30
100
AcDbCircle
 10
391.168005
 20
80.073344
 30
0.0
 40
1.250083397217978
100
AcDbArc
 50
202.68774
 51
255.002154
  0
ARC
  5
30C
330
1F
100
AcDbEntity
  8
002
 62
     3
370
    30
100
AcDbCircle
 10
376.636255
 20
73.999719
 30
0.0
 40
14.50001270311942
100
AcDbArc
 50
22.682328
 51
51.090339
  0
LINE
  5
30D
330
1F
100
AcDbEntity
  8
002
 62
     3
370
    30
100
AcDbLine
 10
385.511255
 20
85.092469
 30
0.0
 11
385.511255
 21
89.874719
 31
0.0
  0
ARC
  5
30E
330
1F
100
AcDbEntity
  8
002
 62
     3
370
    30
100
AcDbCircle
 10
384.886255
 20
89.874719
 30
0.0
 40
0.625
100
AcDbArc
 50
0.0
 51
53.130102
  0
LINE
  5
30F
330
1F
100
AcDbEntity
  8
002
 62
     3
370
    30
100
AcDbLine
 10
385.261255
 20
90.374719
 30
0.0
 11
343.261255
 21
90.374719
 31
0.0
  0
LINE
  5
310
330
1F
100
AcDbEntity
  8
002
 62
     3
370
    30
100
AcDbLine
 10
350.636255
 20
93.874719
 30
0.0
 11
350.636255
 21
92.749719
 31
0.0
  0
LINE
  5
311
330
1F
100
AcDbEntity
  8
002
 62
     3
370
    30
100
AcDbLine
 10
378.636255
 20
92.874719
 30
0.0
 11
378.636255
 21
90.374719
 31
0.0
  0
LINE
  5
312
330
1F
100
AcDbEntity
  8
002
 62
     3
370
    30
100
AcDbLine
 10
384.886255
 20
92.874719
 30
0.0
 11
378.636255
 21
92.874719
 31
0.0
  0
LINE
  5
313
330
1F
100
AcDbEntity
  8
002
 62
     3
370
    30
100
AcDbLine
 10
382.386255
 20
92.874719
 30
0.0
 11
382.386255
 21
90.374719
 31
0.0
  0
LINE
  5
314
330
1F
100
AcDbEntity
  8
002
 62
     3
370
    30
100
AcDbLine
 10
384.886255
 20
90.374719
 30
0.0
 11
384.886255
 21
92.874719
 31
0.0
  0
LINE
  5
315
330
1F
100
AcDbEntity
  8
002
 62
     3
370
    30
100
AcDbLine
 10
350.636255
 20
92.749719
 30
0.0
 11
350.28163
 21
91.426219
 31
0.0
  0
ARC
  5
316
330
1F
100
AcDbEntity
  8
002
 62
     3
370
    30
100
AcDbCircle
 10
349.07413
 20
91.749719
 30
0.0
 40
1.250083397217943
100
AcDbArc
 50
310.518641
 51
345.002154
  0
LINE
  5
317
330
1F
100
AcDbEntity
  8
002
 62
     3
370
    30
100
AcDbLine
 10
346.136255
 20
92.874719
 30
0.0
 11
346.136255
 21
90.374719
 31
0.0
  0
ARC
  5
318
330
1F
100
AcDbEntity
  8
002
 62
     3
370
    30
100
AcDbCircle
 10
381.136255
 20
73.999719
 30
0.0
 40
10.62509505619246
100
AcDbArc
 50
113.833478
 51
139.209125
  0
LINE
  5
319
330
1F
100
AcDbEntity
  8
002
 62
     3
370
    30
100
AcDbLine
 10
376.84288
 20
83.031219
 30
0.0
 11
376.84288
 21
83.718719
 31
0.0
  0
LINE
  5
31A
330
1F
100
AcDbEntity
  8
002
 62
     3
370
    30
100
AcDbLine
 10
381.761255
 20
76.749719
 30
0.0
 11
381.761255
 21
75.749719
 31
0.0
  0
LINE
  5
31B
330
1F
100
AcDbEntity
  8
002
 62
     3
370
    30
100
AcDbLine
 10
381.761255
 20
75.749719
 30
0.0
 11
380.511255
 21
75.749719
 31
0.0
  0
LINE
  5
31C
330
1F
100
AcDbEntity
  8
002
 62
     3
370
    30
100
AcDbLine
 10
380.511255
 20
75.749719
 30
0.0
 11
380.511255
 21
76.749719
 31
0.0
  0
LINE
  5
31D
330
1F
100
AcDbEntity
  8
002
 62
     3
370
    30
100
AcDbLine
 10
380.511255
 20
76.749719
 30
0.0
 11
381.761255
 21
76.749719
 31
0.0
  0
ARC
  5
31E
330
1F
100
AcDbEntity
  8
002
 62
     3
370
    30
100
AcDbCircle
 10
381.136255
 20
73.999719
 30
0.0
 40
2.3750840807485
100
AcDbArc
 50
105.25697
 51
74.74303
  0
CIRCLE
  5
31F
330
1F
100
AcDbEntity
  8
002
 62
     3
370
    30
100
AcDbCircle
 10
381.136255
 20
73.999719
 30
0.0
 40
3.875
  0
ARC
  5
320
330
1F
100
AcDbEntity
  8
002
 62
     3
370
    30
100
AcDbCircle
 10
383.511255
 20
60.456469
 30
0.0
 40
3.75
100
AcDbArc
 50
99.946798
 51
180.0
  0
ARC
  5
321
330
1F
100
AcDbEntity
  8
002
 62
     3
370
    30
100
AcDbCircle
 10
376.636255
 20
73.999719
 30
0.0
 40
14.49993003108115
100
AcDbArc
 50
284.355141
 51
338.471828
  0
ARC
  5
322
330
1F
100
AcDbEntity
  8
002
 62
     3
370
    30
100
AcDbCircle
 10
380.386255
 20
59.346969
 30
0.0
 40
0.625
100
AcDbArc
 50
104.358626
 51
180.0
  0
LINE
  5
323
330
1F
100
AcDbEntity
  8
002
 62
     3
370
    30
100
AcDbLine
 10
371.136255
 20
73.999719
 30
0.0
 11
371.136255
 21
63.124719
 31
0.0
  0
ARC
  5
324
330
1F
100
AcDbEntity
  8
002
 62
     3
370
    30
100
AcDbCircle
 10
367.342005
 20
64.374719
 30
0.0
 40
1.25
100
AcDbArc
 50
182.062994
 51
270.0
  0
ARC
  5
325
330
1F
100
AcDbEntity
  8
002
 62
     3
370
    30
100
AcDbCircle
 10
361.761255
 20
64.374719
 30
0.0
 40
1.25
100
AcDbArc
 50
270.0
 51
0.0
  0
ARC
  5
326
330
1F
100
AcDbEntity
  8
002
 62
     3
370
    30
100
AcDbCircle
 10
361.18038
 20
64.374719
 30
0.0
 40
1.25006022354924
100
AcDbArc
 50
270.0
 51
357.937006
  0
LINE
  5
327
330
1F
100
AcDbEntity
  8
002
 62
     3
370
    30
100
AcDbLine
 10
363.261255
 20
57.749719
 30
0.0
 11
363.261255
 21
56.499719
 31
0.0
  0
LINE
  5
328
330
1F
100
AcDbEntity
  8
002
 62
     3
370
    30
100
AcDbLine
 10
365.261255
 20
56.499719
 30
0.0
 11
363.261255
 21
56.499719
 31
0.0
  0
LINE
  5
329
330
1F
100
AcDbEntity
  8
002
 62
     3
370
    30
100
AcDbLine
 10
365.261255
 20
56.499719
 30
0.0
 11
365.261255
 21
57.749719
 31
0.0
  0
LINE
  5
32A
330
1F
100
AcDbEntity
  8
002
 62
    40
370
    30
100
AcDbLine
 10
391.58888
 20
74.643594
 30
0.0
 11
391.508755
 21
74.563594
 31
0.0
  0
LINE
  5
32B
330
1F
100
AcDbEntity
  8
002
 62
    40
370
    30
100
AcDbLine
 10
391.508755
 20
73.435969
 30
0.0
 11
391.58888
 21
73.355844
 31
0.0
  0
LINE
  5
32C
330
1F
100
AcDbEntity
  8
002
  6
CENTER
 62
    40
370
     9
100
AcDbLine
 10
345.511255
 20
93.759719
 30
0.0
 11
345.511255
 21
86.443719
 31
0.0
  0
LINE
  5
32D
330
1F
100
AcDbEntity
  8
002
  6
CENTER
 62
    40
370
     9
100
AcDbLine
 10
348.023255
 20
86.443719
 30
0.0
 11
348.023255
 21
93.759719
 31
0.0
  0
LINE
  5
32E
330
1F
100
AcDbEntity
  8
002
  6
CENTER
 62
    40
370
     9
100
AcDbLine
 10
354.886255
 20
93.759719
 30
0.0
 11
354.886255
 21
86.443719
 31
0.0
  0
LINE
  5
32F
330
1F
100
AcDbEntity
  8
002
  6
CENTER
 62
    40
370
     9
100
AcDbLine
 10
373.636255
 20
86.443719
 30
0.0
 11
373.636255
 21
93.759719
 31
0.0
  0
LINE
  5
330
330
1F
100
AcDbEntity
  8
002
  6
CENTER
 62
    40
370
     9
100
AcDbLine
 10
380.49913
 20
86.443719
 30
0.0
 11
380.49913
 21
93.759719
 31
0.0
  0
LINE
  5
331
330
1F
100
AcDbEntity
  8
002
  6
CENTER
 62
    40
370
     9
100
AcDbLine
 10
383.011255
 20
93.759719
 30
0.0
 11
383.011255
 21
86.443719
 31
0.0
  0
LINE
  5
332
330
1F
100
AcDbEntity
  8
002
  6
CENTER
 62
    40
370
     9
100
AcDbLine
 10
346.75463
 20
69.624719
 30
0.0
 11
342.911755
 21
69.624719
 31
0.0
  0
LINE
  5
333
330
1F
100
AcDbEntity
  8
002
  6
CENTER
 62
    40
370
     9
100
AcDbLine
 10
346.75463
 20
78.374719
 30
0.0
 11
342.911755
 21
78.374719
 31
0.0
  0
LINE
  5
334
330
1F
100
AcDbEntity
  8
002
  6
CENTER
 62
    40
370
     9
100
AcDbLine
 10
342.38238
 20
73.999719
 30
0.0
 11
393.826255
 21
73.999719
 31
0.0
  0
LINE
  5
335
330
1F
100
AcDbEntity
  8
002
  6
CENTER
 62
    40
370
     9
100
AcDbLine
 10
381.136255
 20
63.349969
 30
0.0
 11
381.136255
 21
85.409094
 31
0.0
  0
LINE
  5
336
330
1F
100
AcDbEntity
  8
002
  6
CENTER
 62
    40
370
     9
100
AcDbLine
 10
373.761255
 20
64.820719
 30
0.0
 11
373.761255
 21
56.663594
 31
0.0
  0
LINE
  5
337
330
1F
100
AcDbEntity
  8
002
  6
DASHED
 62
    40
370
     9
100
AcDbLine
 10
378.886255
 20
62.999719
 30
0.0
 11
378.886255
 21
63.124719
 31
0.0
  0
LINE
  5
338
330
1F
100
AcDbEntity
  8
002
  6
DASHED
 62
    40
370
     9
100
AcDbLine
 10
368.636255
 20
62.999719
 30
0.0
 11
368.636255
 21
63.124719
 31
0.0
  0
LINE
  5
339
330
1F
100
AcDbEntity
  8
002
  6
CENTER
 62
    40
370
     9
100
AcDbLine
 10
376.386255
 20
55.731969
 30
0.0
 11
376.386255
 21
58.999719
 31
0.0
  0
LINE
  5
33A
330
1F
100
AcDbEntity
  8
002
  6
CENTER
 62
    40
370
     9
100
AcDbLine
 10
354.761255
 20
56.663594
 30
0.0
 11
354.761255
 21
64.820719
 31
0.0
  0
LINE
  5
33B
330
1F
100
AcDbEntity
  8
002
  6
CENTER
 62
    40
370
     9
100
AcDbLine
 10
352.136255
 20
58.999719
 30
0.0
 11
352.136255
 21
55.731969
 31
0.0
  0
LINE
  5
33C
330
1F
100
AcDbEntity
  8
002
  6
DASHED
 62
    40
370
     9
100
AcDbLine
 10
359.886255
 20
62.999719
 30
0.0
 11
359.886255
 21
63.124719
 31
0.0
  0
LINE
  5
33D
330
1F
100
AcDbEntity
  8
002
  6
DASHED
 62
    40
370
     9
100
AcDbLine
 10
349.636255
 20
62.999719
 30
0.0
 11
349.636255
 21
63.124719
 31
0.0
  0
LINE
  5
33E
330
1F
100
AcDbEntity
  8
002
 62
     3
370
    30
100
AcDbLine
 10
377.761255
 20
93.999719
 30
0.0
 11
350.761255
 21
93.999719
 31
0.0
  0
LINE
  5
33F
330
1F
100
AcDbEntity
  8
002
 62
     3
370
    30
100
AcDbLine
 10
350.636255
 20
93.874719
 30
0.0
 11
350.761255
 21
93.999719
 31
0.0
  0
LINE
  5
340
330
1F
100
AcDbEntity
  8
002
 62
     3
370
    30
100
AcDbLine
 10
377.886255
 20
93.874719
 30
0.0
 11
377.761255
 21
93.999719
 31
0.0
  0
LINE
  5
341
330
1F
100
AcDbEntity
  8
002
  6
HIDDEN
 62
    40
370
     9
100
AcDbLine
 10
370.948755
 20
62.999719
 30
0.0
 11
370.948755
 21
58.999719
 31
0.0
  0
LINE
  5
342
330
1F
100
AcDbEntity
  8
002
  6
HIDDEN
 62
    40
370
     9
100
AcDbLine
 10
378.886255
 20
62.999719
 30
0.0
 11
368.636255
 21
62.999719
 31
0.0
  0
LINE
  5
343
330
1F
100
AcDbEntity
  8
002
  6
HIDDEN
 62
    40
370
     9
100
AcDbLine
 10
376.573755
 20
58.999719
 30
0.0
 11
376.573755
 21
62.999719
 31
0.0
  0
LINE
  5
344
330
1F
100
AcDbEntity
  8
002
  6
HIDDEN
 62
    40
370
     9
100
AcDbLine
 10
351.948755
 20
62.999719
 30
0.0
 11
351.948755
 21
58.999719
 31
0.0
  0
LINE
  5
345
330
1F
100
AcDbEntity
  8
002
  6
HIDDEN
 62
    40
370
     9
100
AcDbLine
 10
359.886255
 20
62.999719
 30
0.0
 11
349.636255
 21
62.999719
 31
0.0
  0
LINE
  5
346
330
1F
100
AcDbEntity
  8
002
  6
HIDDEN
 62
    40
370
     9
100
AcDbLine
 10
357.573755
 20
62.999719
 30
0.0
 11
357.573755
 21
58.999719
 31
0.0
  0
ARC
  5
347
330
1F
100
AcDbEntity
  8
002
 62
     3
370
    30
100
AcDbCircle
 10
381.136255
 20
73.999719
 30
0.0
 40
2.812571787972693
100
AcDbArc
 50
77.891689
 51
102.108311
  0
ARC
  5
348
330
1F
100
AcDbEntity
  8
002
 62
     3
370
    30
100
AcDbCircle
 10
381.136255
 20
73.999719
 30
0.0
 40
2.812571787972693
100
AcDbArc
 50
102.839255
 51
77.160745
  0
TEXT
  5
349
330
1F
100
AcDbEntity
  8
002
 62
     3
370
    30
100
AcDbText
 10
343.935171
 20
78.551032
 30
0.0
 40
0.0375
  1
Ｍ８
 41
0.555556
100
AcDbText
  0
TEXT
  5
36C
330
1F
100
AcDbEntity
  8
002
 62
     3
370
    30
100
AcDbText
 10
343.960213
 20
69.448407
 30
0.0
 40
0.0375
  1
Ｍ８
 50
180.000005
 41
0.555556
100
AcDbText
  0
LINE
  5
36D
330
1F
100
AcDbEntity
  8
002
 62
     3
370
    30
100
AcDbLine
 10
374.586255
 20
57.749719
 30
0.0
 11
374.586255
 21
33.999719
 31
0.0
  0
LINE
  5
36E
330
1F
100
AcDbEntity
  8
002
 62
     3
370
    30
100
AcDbLine
 10
353.936255
 20
33.999719
 30
0.0
 11
353.936255
 21
57.749719
 31
0.0
  0
LINE
  5
36F
330
1F
100
AcDbEntity
  8
002
 62
     3
370
    30
100
AcDbLine
 10
353.936255
 20
33.999719
 30
0.0
 11
374.586255
 21
33.999719
 31
0.0
  0
LINE
  5
370
330
1F
100
AcDbEntity
  8
002
 62
     3
370
    30
100
AcDbLine
 10
507.794549
 20
148.545107
 30
0.0
 11
508.375424
 21
164.670107
 31
0.0
  0
LINE
  5
371
330
1F
100
AcDbEntity
  8
002
 62
     3
370
    30
100
AcDbLine
 10
508.376174
 20
164.715107
 30
0.0
 11
508.376174
 21
148.590107
 31
0.0
  0
ARC
  5
372
330
1F
100
AcDbEntity
  8
002
 62
     3
370
    30
100
AcDbCircle
 10
507.126174
 20
148.590107
 30
0.0
 40
1.25
100
AcDbArc
 50
270.0
 51
0.0
  0
ARC
  5
373
330
1F
100
AcDbEntity
  8
002
 62
     3
370
    30
100
AcDbCircle
 10
506.545424
 20
148.590107
 30
0.0
 40
1.25
100
AcDbArc
 50
270.0
 51
357.936799
  0
LINE
  5
374
330
1F
100
AcDbEntity
  8
002
 62
     3
370
    30
100
AcDbLine
 10
510.876174
 20
148.590107
 30
0.0
 11
510.876174
 21
164.715107
 31
0.0
  0
ARC
  5
375
330
1F
100
AcDbEntity
  8
002
 62
     3
370
    30
100
AcDbCircle
 10
512.126174
 20
164.715107
 30
0.0
 40
1.25
100
AcDbArc
 50
90.0
 51
180.0
  0
LINE
  5
376
330
1F
100
AcDbEntity
  8
002
 62
     3
370
    30
100
AcDbLine
 10
512.008049
 20
165.228232
 30
0.0
 11
517.721549
 21
165.228232
 31
0.0
  0
ARC
  5
377
330
1F
100
AcDbEntity
  8
002
 62
     3
370
    30
100
AcDbCircle
 10
526.501174
 20
158.215107
 30
0.0
 40
10.6250661122943
100
AcDbArc
 50
113.833478
 51
139.208684
  0
LINE
  5
378
330
1F
100
AcDbEntity
  8
002
 62
     3
370
    30
100
AcDbLine
 10
522.207799
 20
167.934107
 30
0.0
 11
522.207799
 21
167.246607
 31
0.0
  0
ARC
  5
379
330
1F
100
AcDbEntity
  8
002
 62
     3
370
    30
100
AcDbCircle
 10
518.930174
 20
164.748107
 30
0.0
 40
0.6249939249705518
100
AcDbArc
 50
139.201079
 51
207.154388
  0
LINE
  5
37A
330
1F
100
AcDbEntity
  8
002
 62
     3
370
    30
100
AcDbLine
 10
519.232924
 20
165.965107
 30
0.0
 11
489.723549
 21
165.965107
 31
0.0
  0
LINE
  5
37B
330
1F
100
AcDbEntity
  8
002
 62
     3
370
    30
100
AcDbLine
 10
489.788674
 20
165.586607
 30
0.0
 11
489.302674
 21
165.716857
 31
0.0
  0
ARC
  5
37C
330
1F
100
AcDbEntity
  8
002
 62
     3
370
    30
100
AcDbCircle
 10
489.626174
 20
166.924357
 30
0.0
 40
1.25
100
AcDbArc
 50
180.0
 51
255.002154
  0
LINE
  5
37D
330
1F
100
AcDbEntity
  8
002
 62
     3
370
    30
100
AcDbLine
 10
488.376174
 20
166.924357
 30
0.0
 11
488.376174
 21
174.090107
 31
0.0
  0
ARC
  5
37E
330
1F
100
AcDbEntity
  8
002
 62
     3
370
    30
100
AcDbCircle
 10
489.001174
 20
174.090107
 30
0.0
 40
0.625
100
AcDbArc
 50
126.869898
 51
180.0
  0
LINE
  5
37F
330
1F
100
AcDbEntity
  8
002
 62
     3
370
    30
100
AcDbLine
 10
488.626174
 20
174.590107
 30
0.0
 11
530.626174
 21
174.590107
 31
0.0
  0
ARC
  5
380
330
1F
100
AcDbEntity
  8
002
 62
     3
370
    30
100
AcDbCircle
 10
530.251174
 20
174.090107
 30
0.0
 40
0.625
100
AcDbArc
 50
0.0
 51
53.130102
  0
LINE
  5
381
330
1F
100
AcDbEntity
  8
002
 62
     3
370
    30
100
AcDbLine
 10
530.876174
 20
174.090107
 30
0.0
 11
530.876174
 21
169.307857
 31
0.0
  0
ARC
  5
382
330
1F
100
AcDbEntity
  8
002
 62
     3
370
    30
100
AcDbCircle
 10
522.001174
 20
158.215107
 30
0.0
 40
14.49997439868429
100
AcDbArc
 50
284.355141
 51
51.089954
  0
ARC
  5
383
330
1F
100
AcDbEntity
  8
002
 62
     3
370
    30
100
AcDbCircle
 10
528.876174
 20
144.671857
 30
0.0
 40
3.749992760409671
100
AcDbArc
 50
99.946798
 51
180.0
  0
LINE
  5
384
330
1F
100
AcDbEntity
  8
002
 62
     3
370
    30
100
AcDbLine
 10
524.501174
 20
147.340107
 30
0.0
 11
494.751174
 21
147.340107
 31
0.0
  0
LINE
  5
385
330
1F
100
AcDbEntity
  8
002
 62
     3
370
    30
100
AcDbLine
 10
494.126174
 20
146.715107
 30
0.0
 11
494.126174
 21
143.215107
 31
0.0
  0
LINE
  5
386
330
1F
100
AcDbEntity
  8
002
 62
     3
370
    30
100
AcDbLine
 10
492.126174
 20
143.215107
 30
0.0
 11
525.126174
 21
143.215107
 31
0.0
  0
LINE
  5
387
330
1F
100
AcDbEntity
  8
002
 62
     3
370
    30
100
AcDbLine
 10
525.126174
 20
143.215107
 30
0.0
 11
525.126174
 21
146.715107
 31
0.0
  0
ARC
  5
388
330
1F
100
AcDbEntity
  8
002
 62
     3
370
    30
100
AcDbCircle
 10
524.501174
 20
146.715107
 30
0.0
 40
0.625
100
AcDbArc
 50
0.0
 51
90.0
  0
ARC
  5
389
330
1F
100
AcDbEntity
  8
002
 62
     3
370
    30
100
AcDbCircle
 10
525.751174
 20
143.562357
 30
0.0
 40
0.6250241995315056
100
AcDbArc
 50
104.358626
 51
180.0
  0
LINE
  5
38A
330
1F
100
AcDbEntity
  8
002
 62
     3
370
    30
100
AcDbLine
 10
516.501174
 20
147.340107
 30
0.0
 11
516.501174
 21
158.215107
 31
0.0
  0
CIRCLE
  5
38B
330
1F
100
AcDbEntity
  8
002
 62
     3
370
    30
100
AcDbCircle
 10
526.501174
 20
158.215107
 30
0.0
 40
10.0
  0
CIRCLE
  5
38C
330
1F
100
AcDbEntity
  8
002
 62
     3
370
    30
100
AcDbCircle
 10
526.501174
 20
158.215107
 30
0.0
 40
3.875
  0
ARC
  5
38D
330
1F
100
AcDbEntity
  8
002
 62
     3
370
    30
100
AcDbCircle
 10
531.501174
 20
169.984357
 30
0.0
 40
0.625
100
AcDbArc
 50
180.0
 51
231.089603
  0
LINE
  5
38E
330
1F
100
AcDbEntity
  8
002
 62
     3
370
    30
100
AcDbLine
 10
530.876174
 20
171.590107
 30
0.0
 11
488.376174
 21
171.590107
 31
0.0
  0
LINE
  5
38F
330
1F
100
AcDbEntity
  8
002
 62
     3
370
    30
100
AcDbLine
 10
489.001174
 20
174.590107
 30
0.0
 11
489.001174
 21
177.090107
 31
0.0
  0
LINE
  5
390
330
1F
100
AcDbEntity
  8
002
 62
     3
370
    30
100
AcDbLine
 10
489.001174
 20
177.090107
 30
0.0
 11
495.251174
 21
177.090107
 31
0.0
  0
LINE
  5
391
330
1F
100
AcDbEntity
  8
002
 62
     3
370
    30
100
AcDbLine
 10
495.251174
 20
177.090107
 30
0.0
 11
495.251174
 21
174.590107
 31
0.0
  0
LINE
  5
392
330
1F
100
AcDbEntity
  8
002
 62
     3
370
    30
100
AcDbLine
 10
495.251174
 20
174.715107
 30
0.0
 11
498.376174
 21
174.715107
 31
0.0
  0
LINE
  5
393
330
1F
100
AcDbEntity
  8
002
 62
     3
370
    30
100
AcDbLine
 10
498.376174
 20
174.590107
 30
0.0
 11
498.376174
 21
177.090107
 31
0.0
  0
LINE
  5
394
330
1F
100
AcDbEntity
  8
002
 62
     3
370
    30
100
AcDbLine
 10
498.376174
 20
177.090107
 30
0.0
 11
502.126174
 21
177.090107
 31
0.0
  0
LINE
  5
395
330
1F
100
AcDbEntity
  8
002
 62
     3
370
    30
100
AcDbLine
 10
502.126174
 20
177.090107
 30
0.0
 11
502.126174
 21
174.590107
 31
0.0
  0
LINE
  5
396
330
1F
100
AcDbEntity
  8
002
 62
     3
370
    30
100
AcDbLine
 10
502.126174
 20
174.715107
 30
0.0
 11
507.751174
 21
174.715107
 31
0.0
  0
LINE
  5
397
330
1F
100
AcDbEntity
  8
002
 62
     3
370
    30
100
AcDbLine
 10
507.751174
 20
174.590107
 30
0.0
 11
507.751174
 21
177.090107
 31
0.0
  0
LINE
  5
398
330
1F
100
AcDbEntity
  8
002
 62
     3
370
    30
100
AcDbLine
 10
507.751174
 20
177.090107
 30
0.0
 11
511.501174
 21
177.090107
 31
0.0
  0
LINE
  5
399
330
1F
100
AcDbEntity
  8
002
 62
     3
370
    30
100
AcDbLine
 10
511.501174
 20
177.090107
 30
0.0
 11
511.501174
 21
174.590107
 31
0.0
  0
LINE
  5
39A
330
1F
100
AcDbEntity
  8
002
 62
     3
370
    30
100
AcDbLine
 10
511.501174
 20
174.715107
 30
0.0
 11
517.126174
 21
174.715107
 31
0.0
  0
LINE
  5
39B
330
1F
100
AcDbEntity
  8
002
 62
     3
370
    30
100
AcDbLine
 10
517.126174
 20
174.590107
 30
0.0
 11
517.126174
 21
177.090107
 31
0.0
  0
LINE
  5
39C
330
1F
100
AcDbEntity
  8
002
 62
     3
370
    30
100
AcDbLine
 10
517.126174
 20
177.090107
 30
0.0
 11
520.876174
 21
177.090107
 31
0.0
  0
LINE
  5
39D
330
1F
100
AcDbEntity
  8
002
 62
     3
370
    30
100
AcDbLine
 10
520.876174
 20
177.090107
 30
0.0
 11
520.876174
 21
174.590107
 31
0.0
  0
LINE
  5
39E
330
1F
100
AcDbEntity
  8
002
 62
     3
370
    30
100
AcDbLine
 10
520.876174
 20
174.715107
 30
0.0
 11
524.001174
 21
174.715107
 31
0.0
  0
LINE
  5
39F
330
1F
100
AcDbEntity
  8
002
 62
     3
370
    30
100
AcDbLine
 10
524.001174
 20
174.590107
 30
0.0
 11
524.001174
 21
177.090107
 31
0.0
  0
LINE
  5
3A0
330
1F
100
AcDbEntity
  8
002
 62
     3
370
    30
100
AcDbLine
 10
524.001174
 20
177.090107
 30
0.0
 11
530.251174
 21
177.090107
 31
0.0
  0
LINE
  5
3A1
330
1F
100
AcDbEntity
  8
002
 62
     3
370
    30
100
AcDbLine
 10
530.251174
 20
177.090107
 30
0.0
 11
530.251174
 21
174.590107
 31
0.0
  0
LINE
  5
3A2
330
1F
100
AcDbEntity
  8
002
 62
     3
370
    30
100
AcDbLine
 10
523.251174
 20
176.965107
 30
0.0
 11
523.251174
 21
178.090107
 31
0.0
  0
LINE
  5
3A3
330
1F
100
AcDbEntity
  8
002
 62
     3
370
    30
100
AcDbLine
 10
523.251174
 20
178.090107
 30
0.0
 11
523.126174
 21
178.215107
 31
0.0
  0
LINE
  5
3A4
330
1F
100
AcDbEntity
  8
002
 62
     3
370
    30
100
AcDbLine
 10
523.251174
 20
178.215107
 30
0.0
 11
496.001174
 21
178.215107
 31
0.0
  0
LINE
  5
3A5
330
1F
100
AcDbEntity
  8
002
 62
     3
370
    30
100
AcDbLine
 10
496.001174
 20
178.215107
 30
0.0
 11
496.001174
 21
179.465107
 31
0.0
  0
LINE
  5
3A6
330
1F
100
AcDbEntity
  8
002
 62
     3
370
    30
100
AcDbLine
 10
496.001174
 20
179.465107
 30
0.0
 11
523.251174
 21
179.465107
 31
0.0
  0
LINE
  5
3A7
330
1F
100
AcDbEntity
  8
002
 62
     3
370
    30
100
AcDbLine
 10
523.251174
 20
179.465107
 30
0.0
 11
523.251174
 21
178.215107
 31
0.0
  0
LINE
  5
3A8
330
1F
100
AcDbEntity
  8
002
 62
     3
370
    30
100
AcDbLine
 10
500.052549
 20
179.465107
 30
0.0
 11
500.052549
 21
180.715107
 31
0.0
  0
LINE
  5
3A9
330
1F
100
AcDbEntity
  8
002
 62
     3
370
    30
100
AcDbLine
 10
502.052549
 20
180.715107
 30
0.0
 11
502.052549
 21
179.465107
 31
0.0
  0
LINE
  5
3AA
330
1F
100
AcDbEntity
  8
002
 62
     3
370
    30
100
AcDbLine
 10
502.052549
 20
180.715107
 30
0.0
 11
500.052549
 21
180.715107
 31
0.0
  0
LINE
  5
3AB
330
1F
100
AcDbEntity
  8
002
 62
     3
370
    30
100
AcDbLine
 10
496.126174
 20
178.215107
 30
0.0
 11
496.001174
 21
178.090107
 31
0.0
  0
LINE
  5
3AC
330
1F
100
AcDbEntity
  8
002
 62
     3
370
    30
100
AcDbLine
 10
496.001174
 20
178.090107
 30
0.0
 11
496.001174
 21
176.965107
 31
0.0
  0
LINE
  5
3AD
330
1F
100
AcDbEntity
  8
002
 62
     3
370
    30
100
AcDbLine
 10
496.001174
 20
176.965107
 30
0.0
 11
495.646549
 21
175.641607
 31
0.0
  0
ARC
  5
3AE
330
1F
100
AcDbEntity
  8
002
 62
     3
370
    30
100
AcDbCircle
 10
494.439174
 20
175.965107
 30
0.0
 40
1.249927622904639
100
AcDbArc
 50
310.514285
 51
345.000671
  0
LINE
  5
3AF
330
1F
100
AcDbEntity
  8
002
 62
     3
370
    30
100
AcDbLine
 10
491.501174
 20
177.090107
 30
0.0
 11
491.501174
 21
174.590107
 31
0.0
  0
LINE
  5
3B0
330
1F
100
AcDbEntity
  8
002
 62
     3
370
    30
100
AcDbLine
 10
523.251174
 20
176.965107
 30
0.0
 11
523.605799
 21
175.641607
 31
0.0
  0
ARC
  5
3B1
330
1F
100
AcDbEntity
  8
002
 62
     3
370
    30
100
AcDbCircle
 10
524.813174
 20
175.965107
 30
0.0
 40
1.249962655692118
100
AcDbArc
 50
194.999329
 51
229.485715
  0
LINE
  5
3B2
330
1F
100
AcDbEntity
  8
002
 62
     3
370
    30
100
AcDbLine
 10
527.751174
 20
177.090107
 30
0.0
 11
527.751174
 21
174.590107
 31
0.0
  0
ARC
  5
3B3
330
1F
100
AcDbEntity
  8
002
 62
     3
370
    30
100
AcDbCircle
 10
534.626174
 20
169.307857
 30
0.0
 40
3.75
100
AcDbArc
 50
180.0
 51
233.779839
  0
ARC
  5
3B4
330
1F
100
AcDbEntity
  8
002
 62
     3
370
    30
100
AcDbCircle
 10
536.533049
 20
164.288732
 30
0.0
 40
1.250087359447313
100
AcDbArc
 50
202.68553
 51
255.002154
  0
LINE
  5
3B5
330
1F
100
AcDbEntity
  8
002
 62
     3
370
    30
100
AcDbLine
 10
536.209549
 20
163.081232
 30
0.0
 11
536.876174
 21
162.902607
 31
0.0
  0
LINE
  5
3B6
330
1F
100
AcDbEntity
  8
002
 62
     3
370
    30
100
AcDbLine
 10
536.876174
 20
162.902607
 30
0.0
 11
536.876174
 21
153.527607
 31
0.0
  0
LINE
  5
3B7
330
1F
100
AcDbEntity
  8
002
 62
     3
370
    30
100
AcDbLine
 10
536.876174
 20
153.527607
 30
0.0
 11
536.209549
 21
153.348982
 31
0.0
  0
ARC
  5
3B8
330
1F
100
AcDbEntity
  8
002
 62
     3
370
    30
100
AcDbCircle
 10
536.533049
 20
152.141607
 30
0.0
 40
1.249962655692138
100
AcDbArc
 50
104.999329
 51
157.319756
  0
ARC
  5
3B9
330
1F
100
AcDbEntity
  8
002
 62
     3
370
    30
100
AcDbCircle
 10
537.011299
 20
156.354357
 30
0.0
 40
0.6249209575018166
100
AcDbArc
 50
105.000812
 51
172.93468
  0
LINE
  5
3BA
330
1F
100
AcDbEntity
  8
002
 62
     3
370
    30
100
AcDbLine
 10
536.849549
 20
156.957982
 30
0.0
 11
536.876174
 21
156.965107
 31
0.0
  0
LINE
  5
3BB
330
1F
100
AcDbEntity
  8
002
 62
     3
370
    30
100
AcDbLine
 10
537.126174
 20
157.493482
 30
0.0
 11
537.501174
 21
157.493482
 31
0.0
  0
LINE
  5
3BC
330
1F
100
AcDbEntity
  8
002
 62
     3
370
    30
100
AcDbLine
 10
537.501174
 20
157.493482
 30
0.0
 11
537.865424
 21
157.857607
 31
0.0
  0
ARC
  5
3BD
330
1F
100
AcDbEntity
  8
002
 62
     3
370
    30
100
AcDbCircle
 10
537.953799
 20
157.769232
 30
0.0
 40
0.1250002499997285
100
AcDbArc
 50
57.994617
 51
135.0
  0
LINE
  5
3BE
330
1F
100
AcDbEntity
  8
002
 62
     3
370
    30
100
AcDbLine
 10
538.020049
 20
157.875232
 30
0.0
 11
538.126174
 21
157.808857
 31
0.0
  0
LINE
  5
3BF
330
1F
100
AcDbEntity
  8
002
 62
     3
370
    30
100
AcDbLine
 10
538.126174
 20
157.808857
 30
0.0
 11
538.501174
 21
157.902607
 31
0.0
  0
LINE
  5
3C0
330
1F
100
AcDbEntity
  8
002
 62
     3
370
    30
100
AcDbLine
 10
538.501174
 20
157.902607
 30
0.0
 11
538.501174
 21
158.527607
 31
0.0
  0
LINE
  5
3C1
330
1F
100
AcDbEntity
  8
002
 62
     3
370
    30
100
AcDbLine
 10
538.501174
 20
158.527607
 30
0.0
 11
538.126174
 21
158.621357
 31
0.0
  0
LINE
  5
3C2
330
1F
100
AcDbEntity
  8
002
 62
     3
370
    30
100
AcDbLine
 10
538.126174
 20
158.621357
 30
0.0
 11
538.020049
 21
158.554982
 31
0.0
  0
ARC
  5
3C3
330
1F
100
AcDbEntity
  8
002
 62
     3
370
    30
100
AcDbCircle
 10
537.953799
 20
158.660982
 30
0.0
 40
0.124981123574681
100
AcDbArc
 50
225.0
 51
302.005383
  0
LINE
  5
3C4
330
1F
100
AcDbEntity
  8
002
 62
     3
370
    30
100
AcDbLine
 10
537.865424
 20
158.572607
 30
0.0
 11
537.501174
 21
158.936857
 31
0.0
  0
LINE
  5
3C5
330
1F
100
AcDbEntity
  8
002
 62
     3
370
    30
100
AcDbLine
 10
537.501174
 20
158.936857
 30
0.0
 11
537.126174
 21
158.936857
 31
0.0
  0
LINE
  5
3C6
330
1F
100
AcDbEntity
  8
002
 62
     3
370
    30
100
AcDbLine
 10
537.126174
 20
158.936857
 30
0.0
 11
537.013299
 21
158.823982
 31
0.0
  0
LINE
  5
3C7
330
1F
100
AcDbEntity
  8
002
 62
     3
370
    30
100
AcDbLine
 10
537.054674
 20
158.865357
 30
0.0
 11
536.876174
 21
158.854107
 31
0.0
  0
LINE
  5
3C8
330
1F
100
AcDbEntity
  8
002
 62
     3
370
    30
100
AcDbLine
 10
537.001174
 20
158.750857
 30
0.0
 11
537.001174
 21
157.679482
 31
0.0
  0
ARC
  5
3C9
330
1F
100
AcDbEntity
  8
002
 62
     3
370
    30
100
AcDbCircle
 10
537.193799
 20
157.673857
 30
0.0
 40
0.1927521481722085
100
AcDbArc
 50
110.53865
 51
200.503847
  0
LINE
  5
3CA
330
1F
100
AcDbEntity
  8
002
 62
     3
370
    30
100
AcDbLine
 10
537.126174
 20
157.854357
 30
0.0
 11
537.501174
 21
157.854357
 31
0.0
  0
ARC
  5
3CB
330
1F
100
AcDbEntity
  8
002
 62
     3
370
    30
100
AcDbCircle
 10
537.433549
 20
157.673857
 30
0.0
 40
0.1927083288288857
100
AcDbArc
 50
339.496153
 51
69.46135
  0
LINE
  5
3CC
330
1F
100
AcDbEntity
  8
002
 62
     3
370
    30
100
AcDbLine
 10
537.935674
 20
157.927982
 30
0.0
 11
537.935674
 21
158.502357
 31
0.0
  0
LINE
  5
3CD
330
1F
100
AcDbEntity
  8
002
 62
     3
370
    30
100
AcDbLine
 10
538.126174
 20
158.527607
 30
0.0
 11
538.126174
 21
157.902607
 31
0.0
  0
ARC
  5
3CE
330
1F
100
AcDbEntity
  8
002
 62
     3
370
    30
100
AcDbCircle
 10
538.418549
 20
158.215107
 30
0.0
 40
0.1249638072603472
100
AcDbArc
 50
311.390802
 51
48.609198
  0
ARC
  5
3CF
330
1F
100
AcDbEntity
  8
002
 62
     3
370
    30
100
AcDbCircle
 10
537.042799
 20
158.215107
 30
0.0
 40
0.5833079830800667
100
AcDbArc
 50
321.796569
 51
38.213078
  0
ARC
  5
3D0
330
1F
100
AcDbEntity
  8
002
 62
     3
370
    30
100
AcDbCircle
 10
537.584549
 20
158.215107
 30
0.0
 40
0.5833852982806795
100
AcDbArc
 50
141.786922
 51
218.203431
  0
LINE
  5
3D1
330
1F
100
AcDbEntity
  8
002
 62
     3
370
    30
100
AcDbLine
 10
537.126174
 20
158.575982
 30
0.0
 11
537.501174
 21
158.575982
 31
0.0
  0
ARC
  5
3D2
330
1F
100
AcDbEntity
  8
002
 62
     3
370
    30
100
AcDbCircle
 10
537.433549
 20
158.756357
 30
0.0
 40
0.1926350986969978
100
AcDbArc
 50
290.551694
 51
20.53865
  0
ARC
  5
3D3
330
1F
100
AcDbEntity
  8
002
 62
     3
370
    30
100
AcDbCircle
 10
537.193799
 20
158.756357
 30
0.0
 40
0.1927521481721453
100
AcDbArc
 50
159.46135
 51
249.448306
  0
LINE
  5
3D4
330
1F
100
AcDbEntity
  8
002
 62
     3
370
    30
100
AcDbLine
 10
536.876174
 20
159.465107
 30
0.0
 11
536.849549
 21
159.472232
 31
0.0
  0
ARC
  5
3D5
330
1F
100
AcDbEntity
  8
002
 62
     3
370
    30
100
AcDbCircle
 10
537.011299
 20
160.075982
 30
0.0
 40
0.6249958624862472
100
AcDbArc
 50
187.06532
 51
255.002154
  0
LINE
  5
3D6
330
1F
100
AcDbEntity
  8
002
 62
     3
370
    30
100
AcDbLine
 10
536.876174
 20
157.576107
 30
0.0
 11
537.054674
 21
157.564982
 31
0.0
  0
LINE
  5
3D7
330
1F
100
AcDbEntity
  8
002
 62
     3
370
    30
100
AcDbLine
 10
537.013299
 20
157.606357
 30
0.0
 11
537.126174
 21
157.493482
 31
0.0
  0
ARC
  5
3D8
330
1F
100
AcDbEntity
  8
002
 62
     3
370
    30
100
AcDbCircle
 10
512.706924
 20
148.590107
 30
0.0
 40
1.249935304575851
100
AcDbArc
 50
182.063201
 51
270.0
  0
LINE
  5
3D9
330
1F
100
AcDbEntity
  8
002
 62
     3
370
    30
100
AcDbLine
 10
511.457799
 20
148.545107
 30
0.0
 11
510.877049
 21
164.670107
 31
0.0
  0
LINE
  5
3DA
330
1F
100
AcDbEntity
  8
002
 62
     3
370
    30
100
AcDbLine
 10
507.164049
 20
165.228232
 30
0.0
 11
496.693424
 21
165.228232
 31
0.0
  0
LINE
  5
3DB
330
1F
100
AcDbEntity
  8
002
 62
     3
370
    30
100
AcDbLine
 10
494.818424
 20
163.353232
 30
0.0
 11
494.818424
 21
152.590107
 31
0.0
  0
LINE
  5
3DC
330
1F
100
AcDbEntity
  8
002
 62
     3
370
    30
100
AcDbLine
 10
493.891924
 20
151.949482
 30
0.0
 11
491.501174
 21
152.590107
 31
0.0
  0
LINE
  5
3DD
330
1F
100
AcDbEntity
  8
002
 62
     3
370
    30
100
AcDbLine
 10
491.501174
 20
152.590107
 30
0.0
 11
491.501174
 21
164.215107
 31
0.0
  0
LINE
  5
3DE
330
1F
100
AcDbEntity
  8
002
 62
     3
370
    30
100
AcDbLine
 10
491.501174
 20
164.215107
 30
0.0
 11
491.126174
 21
164.215107
 31
0.0
  0
LINE
  5
3DF
330
1F
100
AcDbEntity
  8
002
 62
     3
370
    30
100
AcDbLine
 10
491.501174
 20
163.840107
 30
0.0
 11
489.876174
 21
163.840107
 31
0.0
  0
LINE
  5
3E0
330
1F
100
AcDbEntity
  8
002
 62
     3
370
    30
100
AcDbLine
 10
489.626174
 20
163.590107
 30
0.0
 11
489.626174
 21
152.840107
 31
0.0
  0
LINE
  5
3E1
330
1F
100
AcDbEntity
  8
002
 62
     3
370
    30
100
AcDbLine
 10
489.626174
 20
152.901982
 30
0.0
 11
489.074049
 21
152.901982
 31
0.0
  0
ARC
  5
3E2
330
1F
100
AcDbEntity
  8
002
 62
     3
370
    30
100
AcDbCircle
 10
489.209549
 20
153.136482
 30
0.0
 40
0.2709412124889916
100
AcDbArc
 50
120.007178
 51
239.979597
  0
ARC
  5
3E3
330
1F
100
AcDbEntity
  8
002
 62
     3
370
    30
100
AcDbCircle
 10
489.818799
 20
153.840107
 30
0.0
 40
0.8801879504542893
100
AcDbArc
 50
147.79279
 51
212.200325
  0
LINE
  5
3E4
330
1F
100
AcDbEntity
  8
002
 62
     3
370
    30
100
AcDbLine
 10
489.074049
 20
154.309232
 30
0.0
 11
489.626174
 21
154.309232
 31
0.0
  0
LINE
  5
3E5
330
1F
100
AcDbEntity
  8
002
 62
     3
370
    30
100
AcDbLine
 10
489.626174
 20
154.778357
 30
0.0
 11
489.074049
 21
154.778357
 31
0.0
  0
LINE
  5
3E6
330
1F
100
AcDbEntity
  8
002
 62
     3
370
    30
100
AcDbLine
 10
488.938674
 20
154.543732
 30
0.0
 11
488.938674
 21
153.136482
 31
0.0
  0
LINE
  5
3E7
330
1F
100
AcDbEntity
  8
002
 62
     3
370
    30
100
AcDbLine
 10
489.074049
 20
153.371107
 30
0.0
 11
489.626174
 21
153.371107
 31
0.0
  0
LINE
  5
3E8
330
1F
100
AcDbEntity
  8
002
 62
     3
370
    30
100
AcDbLine
 10
489.876174
 20
152.590107
 30
0.0
 11
491.501174
 21
152.590107
 31
0.0
  0
ARC
  5
3E9
330
1F
100
AcDbEntity
  8
002
 62
     3
370
    30
100
AcDbCircle
 10
491.501174
 20
151.943107
 30
0.0
 40
0.625
100
AcDbArc
 50
0.0
 51
75.002154
  0
LINE
  5
3EA
330
1F
100
AcDbEntity
  8
002
 62
     3
370
    30
100
AcDbLine
 10
492.126174
 20
151.943107
 30
0.0
 11
492.126174
 21
143.215107
 31
0.0
  0
ARC
  5
3EB
330
1F
100
AcDbEntity
  8
002
 62
     3
370
    30
100
AcDbCircle
 10
494.751174
 20
146.715107
 30
0.0
 40
0.625
100
AcDbArc
 50
90.0
 51
180.0
  0
ARC
  5
3EC
330
1F
100
AcDbEntity
  8
002
 62
     3
370
    30
100
AcDbCircle
 10
493.568424
 20
150.742107
 30
0.0
 40
1.25
100
AcDbArc
 50
0.0
 51
75.000671
  0
ARC
  5
3ED
330
1F
100
AcDbEntity
  8
002
 62
     3
370
    30
100
AcDbCircle
 10
489.876174
 20
152.840107
 30
0.0
 40
0.25
100
AcDbArc
 50
180.0
 51
270.0
  0
ARC
  5
3EE
330
1F
100
AcDbEntity
  8
002
 62
     3
370
    30
100
AcDbCircle
 10
489.209549
 20
154.543732
 30
0.0
 40
0.270941212488967
100
AcDbArc
 50
120.007178
 51
239.979597
  0
LINE
  5
3EF
330
1F
100
AcDbEntity
  8
002
 62
     3
370
    30
100
AcDbLine
 10
489.074049
 20
161.651982
 30
0.0
 11
489.626174
 21
161.651982
 31
0.0
  0
LINE
  5
3F0
330
1F
100
AcDbEntity
  8
002
 62
     3
370
    30
100
AcDbLine
 10
489.626174
 20
162.121107
 30
0.0
 11
489.074049
 21
162.121107
 31
0.0
  0
ARC
  5
3F1
330
1F
100
AcDbEntity
  8
002
 62
     3
370
    30
100
AcDbCircle
 10
489.818799
 20
162.590107
 30
0.0
 40
0.8801879504542893
100
AcDbArc
 50
147.79279
 51
212.200325
  0
LINE
  5
3F2
330
1F
100
AcDbEntity
  8
002
 62
     3
370
    30
100
AcDbLine
 10
489.074049
 20
163.059232
 30
0.0
 11
489.626174
 21
163.059232
 31
0.0
  0
LINE
  5
3F3
330
1F
100
AcDbEntity
  8
002
 62
     3
370
    30
100
AcDbLine
 10
489.626174
 20
163.528357
 30
0.0
 11
489.074049
 21
163.528357
 31
0.0
  0
LINE
  5
3F4
330
1F
100
AcDbEntity
  8
002
 62
     3
370
    30
100
AcDbLine
 10
488.938674
 20
163.293732
 30
0.0
 11
488.938674
 21
161.886482
 31
0.0
  0
ARC
  5
3F5
330
1F
100
AcDbEntity
  8
002
 62
     3
370
    30
100
AcDbCircle
 10
489.209549
 20
161.886482
 30
0.0
 40
0.2709412124889916
100
AcDbArc
 50
120.007178
 51
239.979597
  0
ARC
  5
3F6
330
1F
100
AcDbEntity
  8
002
 62
     3
370
    30
100
AcDbCircle
 10
489.209549
 20
163.293732
 30
0.0
 40
0.270941212488967
100
AcDbArc
 50
120.007178
 51
239.979597
  0
ARC
  5
3F7
330
1F
100
AcDbEntity
  8
002
 62
     3
370
    30
100
AcDbCircle
 10
489.876174
 20
163.590107
 30
0.0
 40
0.25
100
AcDbArc
 50
90.0
 51
180.0
  0
ARC
  5
3F8
330
1F
100
AcDbEntity
  8
002
 62
     3
370
    30
100
AcDbCircle
 10
489.303424
 20
163.775607
 30
0.0
 40
1.874987416624375
100
AcDbArc
 50
13.55635
 51
75.000177
  0
ARC
  5
3F9
330
1F
100
AcDbEntity
  8
002
 62
     3
370
    30
100
AcDbCircle
 10
496.693424
 20
163.353232
 30
0.0
 40
1.875
100
AcDbArc
 50
90.0
 51
180.0
  0
ARC
  5
3FA
330
1F
100
AcDbEntity
  8
002
 62
     3
370
    30
100
AcDbCircle
 10
507.126174
 20
164.715107
 30
0.0
 40
1.25
100
AcDbArc
 50
0.0
 51
90.0
  0
ARC
  5
3FB
330
1F
100
AcDbEntity
  8
002
 62
     3
370
    30
100
AcDbCircle
 10
512.126174
 20
148.590107
 30
0.0
 40
1.25
100
AcDbArc
 50
180.0
 51
270.0
  0
LINE
  5
3FC
330
1F
100
AcDbEntity
  8
002
 62
     3
370
    30
100
AcDbLine
 10
517.199799
 20
179.465107
 30
0.0
 11
517.199799
 21
180.715107
 31
0.0
  0
LINE
  5
3FD
330
1F
100
AcDbEntity
  8
002
 62
     3
370
    30
100
AcDbLine
 10
519.199799
 20
180.715107
 30
0.0
 11
519.199799
 21
179.465107
 31
0.0
  0
LINE
  5
3FE
330
1F
100
AcDbEntity
  8
002
 62
     3
370
    30
100
AcDbLine
 10
519.199799
 20
180.715107
 30
0.0
 11
517.199799
 21
180.715107
 31
0.0
  0
LINE
  5
3FF
330
1F
100
AcDbEntity
  8
002
 62
    40
370
    30
100
AcDbLine
 10
536.873799
 20
158.778982
 30
0.0
 11
536.953799
 21
158.858982
 31
0.0
  0
LINE
  5
400
330
1F
100
AcDbEntity
  8
002
 62
    40
370
    30
100
AcDbLine
 10
536.873799
 20
157.651357
 30
0.0
 11
536.953799
 21
157.571232
 31
0.0
  0
LINE
  5
401
330
1F
100
AcDbEntity
  8
002
  6
CENTER
 62
    40
370
     9
100
AcDbLine
 10
501.052549
 20
178.215107
 30
0.0
 11
501.052549
 21
181.482982
 31
0.0
  0
LINE
  5
402
330
1F
100
AcDbEntity
  8
002
  6
CENTER
 62
    40
370
     9
100
AcDbLine
 10
518.199799
 20
181.482982
 30
0.0
 11
518.199799
 21
178.215107
 31
0.0
  0
LINE
  5
403
330
1F
100
AcDbEntity
  8
002
  6
CENTER
 62
    40
370
     9
100
AcDbLine
 10
490.876174
 20
170.659107
 30
0.0
 11
490.876174
 21
177.975107
 31
0.0
  0
LINE
  5
404
330
1F
100
AcDbEntity
  8
002
  6
CENTER
 62
    40
370
     9
100
AcDbLine
 10
493.388174
 20
177.975107
 30
0.0
 11
493.388174
 21
170.659107
 31
0.0
  0
LINE
  5
405
330
1F
100
AcDbEntity
  8
002
  6
CENTER
 62
    40
370
     9
100
AcDbLine
 10
500.251174
 20
170.659107
 30
0.0
 11
500.251174
 21
177.975107
 31
0.0
  0
LINE
  5
406
330
1F
100
AcDbEntity
  8
002
  6
CENTER
 62
    40
370
     9
100
AcDbLine
 10
519.001174
 20
177.975107
 30
0.0
 11
519.001174
 21
170.659107
 31
0.0
  0
LINE
  5
407
330
1F
100
AcDbEntity
  8
002
  6
CENTER
 62
    40
370
     9
100
AcDbLine
 10
525.864174
 20
170.659107
 30
0.0
 11
525.864174
 21
177.975107
 31
0.0
  0
LINE
  5
408
330
1F
100
AcDbEntity
  8
002
  6
CENTER
 62
    40
370
     9
100
AcDbLine
 10
528.376174
 20
177.975107
 30
0.0
 11
528.376174
 21
170.659107
 31
0.0
  0
LINE
  5
409
330
1F
100
AcDbEntity
  8
002
  6
CENTER
 62
    40
370
     9
100
AcDbLine
 10
526.501174
 20
146.040357
 30
0.0
 11
526.501174
 21
169.624482
 31
0.0
  0
LINE
  5
40A
330
1F
100
AcDbEntity
  8
002
  6
CENTER
 62
    40
370
     9
100
AcDbLine
 10
540.239424
 20
158.215107
 30
0.0
 11
487.442049
 21
158.215107
 31
0.0
  0
LINE
  5
40B
330
1F
100
AcDbEntity
  8
002
  6
CENTER
 62
    40
370
     9
100
AcDbLine
 10
488.276674
 20
153.840107
 30
0.0
 11
492.119549
 21
153.840107
 31
0.0
  0
LINE
  5
40C
330
1F
100
AcDbEntity
  8
002
  6
CENTER
 62
    40
370
     9
100
AcDbLine
 10
492.119549
 20
162.590107
 30
0.0
 11
488.276674
 21
162.590107
 31
0.0
  0
LINE
  5
40D
330
1F
100
AcDbEntity
  8
002
  6
CENTER
 62
    40
370
     9
100
AcDbLine
 10
500.126174
 20
140.878982
 30
0.0
 11
500.126174
 21
149.036107
 31
0.0
  0
LINE
  5
40E
330
1F
100
AcDbEntity
  8
002
  6
DASHED
 62
    40
370
     9
100
AcDbLine
 10
495.001174
 20
147.340107
 30
0.0
 11
495.001174
 21
147.215107
 31
0.0
  0
LINE
  5
40F
330
1F
100
AcDbEntity
  8
002
  6
DASHED
 62
    40
370
     9
100
AcDbLine
 10
505.251174
 20
147.215107
 30
0.0
 11
505.251174
 21
147.340107
 31
0.0
  0
LINE
  5
410
330
1F
100
AcDbEntity
  8
002
  6
CENTER
 62
    40
370
     9
100
AcDbLine
 10
519.126174
 20
149.036107
 30
0.0
 11
519.126174
 21
140.878982
 31
0.0
  0
LINE
  5
411
330
1F
100
AcDbEntity
  8
002
  6
DASHED
 62
    40
370
     9
100
AcDbLine
 10
524.251174
 20
147.215107
 30
0.0
 11
524.251174
 21
147.340107
 31
0.0
  0
LINE
  5
412
330
1F
100
AcDbEntity
  8
002
  6
DASHED
 62
    40
370
     9
100
AcDbLine
 10
514.001174
 20
147.215107
 30
0.0
 11
514.001174
 21
147.340107
 31
0.0
  0
LINE
  5
413
330
1F
100
AcDbEntity
  8
002
  6
HIDDEN
 62
    40
370
     9
100
AcDbLine
 10
495.001174
 20
147.215107
 30
0.0
 11
505.251174
 21
147.215107
 31
0.0
  0
LINE
  5
414
330
1F
100
AcDbEntity
  8
002
  6
HIDDEN
 62
    40
370
     9
100
AcDbLine
 10
497.313674
 20
147.215107
 30
0.0
 11
497.313674
 21
143.215107
 31
0.0
  0
LINE
  5
415
330
1F
100
AcDbEntity
  8
002
  6
HIDDEN
 62
    40
370
     9
100
AcDbLine
 10
502.938674
 20
147.215107
 30
0.0
 11
502.938674
 21
143.215107
 31
0.0
  0
LINE
  5
416
330
1F
100
AcDbEntity
  8
002
  6
HIDDEN
 62
    40
370
     9
100
AcDbLine
 10
516.313674
 20
143.215107
 30
0.0
 11
516.313674
 21
147.215107
 31
0.0
  0
LINE
  5
417
330
1F
100
AcDbEntity
  8
002
  6
HIDDEN
 62
    40
370
     9
100
AcDbLine
 10
514.001174
 20
147.215107
 30
0.0
 11
524.251174
 21
147.215107
 31
0.0
  0
LINE
  5
418
330
1F
100
AcDbEntity
  8
002
  6
HIDDEN
 62
    40
370
     9
100
AcDbLine
 10
521.938674
 20
147.215107
 30
0.0
 11
521.938674
 21
143.215107
 31
0.0
  0
LINE
  5
419
330
1F
100
AcDbEntity
  8
002
 62
     3
370
    30
100
AcDbLine
 10
527.126174
 20
160.965107
 30
0.0
 11
527.126174
 21
159.965107
 31
0.0
  0
LINE
  5
41A
330
1F
100
AcDbEntity
  8
002
 62
     3
370
    30
100
AcDbLine
 10
527.126174
 20
159.965107
 30
0.0
 11
525.876174
 21
159.965107
 31
0.0
  0
LINE
  5
41B
330
1F
100
AcDbEntity
  8
002
 62
     3
370
    30
100
AcDbLine
 10
525.876174
 20
159.965107
 30
0.0
 11
525.876174
 21
160.965107
 31
0.0
  0
LINE
  5
41C
330
1F
100
AcDbEntity
  8
002
 62
     3
370
    30
100
AcDbLine
 10
525.876174
 20
160.965107
 30
0.0
 11
527.126174
 21
160.965107
 31
0.0
  0
ARC
  5
41D
330
1F
100
AcDbEntity
  8
002
 62
     3
370
    30
100
AcDbCircle
 10
526.501174
 20
158.215107
 30
0.0
 40
2.3750840807485
100
AcDbArc
 50
105.25697
 51
74.74303
  0
ARC
  5
41E
330
1F
100
AcDbEntity
  8
002
 62
     3
370
    30
100
AcDbCircle
 10
526.501174
 20
158.215107
 30
0.0
 40
2.812571787972693
100
AcDbArc
 50
77.891689
 51
102.108311
  0
ARC
  5
41F
330
1F
100
AcDbEntity
  8
002
 62
     3
370
    30
100
AcDbCircle
 10
526.501174
 20
158.215107
 30
0.0
 40
2.812571787972693
100
AcDbArc
 50
102.839255
 51
77.160745
  0
TEXT
  5
420
330
1F
100
AcDbEntity
  8
002
 62
     3
370
    30
100
AcDbText
 10
489.283466
 20
162.76642
 30
0.0
 40
0.0375
  1
Ｍ８
 41
0.555556
100
AcDbText
  0
TEXT
  5
421
330
1F
100
AcDbEntity
  8
002
 62
     3
370
    30
100
AcDbText
 10
489.341882
 20
153.663795
 30
0.0
 40
0.0375
  1
Ｍ８
 50
180.000005
 41
0.555556
100
AcDbText
  0
LINE
  5
422
330
1F
100
AcDbEntity
  8
002
 62
     3
370
    30
100
AcDbLine
 10
519.951174
 20
179.465107
 30
0.0
 11
519.951174
 21
203.215107
 31
0.0
  0
LINE
  5
423
330
1F
100
AcDbEntity
  8
002
 62
     3
370
    30
100
AcDbLine
 10
519.951174
 20
203.215107
 30
0.0
 11
499.301174
 21
203.215107
 31
0.0
  0
LINE
  5
424
330
1F
100
AcDbEntity
  8
002
 62
     3
370
    30
100
AcDbLine
 10
499.301174
 20
203.215107
 30
0.0
 11
499.301174
 21
179.465107
 31
0.0
  0
CIRCLE
  5
425
330
1F
100
AcDbEntity
  8
002
 62
     3
370
    30
100
AcDbCircle
 10
364.261255
 20
411.532565
 30
0.0
 40
15.0
  0
CIRCLE
  5
426
330
1F
100
AcDbEntity
  8
002
 62
     3
370
    30
100
AcDbCircle
 10
364.261255
 20
411.532565
 30
0.0
 40
6.25
  0
CIRCLE
  5
427
330
1F
100
AcDbEntity
  8
002
 62
     3
370
    30
100
AcDbCircle
 10
364.261255
 20
411.532565
 30
0.0
 40
5.625
  0
CIRCLE
  5
428
330
1F
100
AcDbEntity
  8
002
 62
    40
370
     9
100
AcDbCircle
 10
364.261255
 20
411.532565
 30
0.0
 40
5.5
  0
LINE
  5
429
330
1F
100
AcDbEntity
  8
002
 62
     3
370
    30
100
AcDbLine
 10
364.573755
 20
428.157565
 30
0.0
 11
363.948755
 21
428.157565
 31
0.0
  0
LINE
  5
42A
330
1F
100
AcDbEntity
  8
002
 62
     3
370
    30
100
AcDbLine
 10
363.948755
 20
428.157565
 30
0.0
 11
363.855005
 21
427.782565
 31
0.0
  0
LINE
  5
42B
330
1F
100
AcDbEntity
  8
002
 62
     3
370
    30
100
AcDbLine
 10
363.855005
 20
427.782565
 30
0.0
 11
363.92138
 21
427.676315
 31
0.0
  0
LINE
  5
42C
330
1F
100
AcDbEntity
  8
002
 62
     3
370
    30
100
AcDbLine
 10
363.974005
 20
427.592065
 30
0.0
 11
364.54838
 21
427.592065
 31
0.0
  0
LINE
  5
42D
330
1F
100
AcDbEntity
  8
002
 62
     3
370
    30
100
AcDbLine
 10
364.60113
 20
427.676315
 30
0.0
 11
364.667505
 21
427.782565
 31
0.0
  0
LINE
  5
42E
330
1F
100
AcDbEntity
  8
002
 62
     3
370
    30
100
AcDbLine
 10
364.667505
 20
427.782565
 30
0.0
 11
364.573755
 21
428.157565
 31
0.0
  0
ARC
  5
42F
330
1F
100
AcDbEntity
  8
002
 62
     3
370
    30
100
AcDbCircle
 10
364.261255
 20
428.074815
 30
0.0
 40
0.1250464913542376
100
AcDbArc
 50
41.433771
 51
138.566229
  0
LINE
  5
430
330
1F
100
AcDbEntity
  8
002
 62
     3
370
    30
100
AcDbLine
 10
363.948755
 20
427.782565
 30
0.0
 11
364.573755
 21
427.782565
 31
0.0
  0
ARC
  5
431
330
1F
100
AcDbEntity
  8
002
 62
     3
370
    30
100
AcDbCircle
 10
364.70713
 20
427.610065
 30
0.0
 40
0.1249811235747011
100
AcDbArc
 50
147.994617
 51
225.0
  0
LINE
  5
432
330
1F
100
AcDbEntity
  8
002
 62
     3
370
    30
100
AcDbLine
 10
364.618755
 20
427.52169
 30
0.0
 11
364.98288
 21
427.157565
 31
0.0
  0
LINE
  5
433
330
1F
100
AcDbEntity
  8
002
 62
     3
370
    30
100
AcDbLine
 10
364.98288
 20
427.157565
 30
0.0
 11
364.98288
 21
426.782565
 31
0.0
  0
LINE
  5
434
330
1F
100
AcDbEntity
  8
002
 62
     3
370
    30
100
AcDbLine
 10
364.98288
 20
426.782565
 30
0.0
 11
364.870005
 21
426.66969
 31
0.0
  0
LINE
  5
435
330
1F
100
AcDbEntity
  8
002
 62
     3
370
    30
100
AcDbLine
 10
364.91138
 20
426.71094
 30
0.0
 11
364.900255
 21
426.532565
 31
0.0
  0
LINE
  5
436
330
1F
100
AcDbEntity
  8
002
 62
     3
370
    30
100
AcDbLine
 10
364.79688
 20
426.657565
 30
0.0
 11
363.725505
 21
426.657565
 31
0.0
  0
ARC
  5
437
330
1F
100
AcDbEntity
  8
002
 62
     3
370
    30
100
AcDbCircle
 10
363.720005
 20
426.850065
 30
0.0
 40
0.1925912527219205
100
AcDbArc
 50
249.448306
 51
339.483127
  0
LINE
  5
438
330
1F
100
AcDbEntity
  8
002
 62
     3
370
    30
100
AcDbLine
 10
363.90038
 20
426.782565
 30
0.0
 11
363.90038
 21
427.157565
 31
0.0
  0
ARC
  5
439
330
1F
100
AcDbEntity
  8
002
 62
     3
370
    30
100
AcDbCircle
 10
363.720005
 20
427.08994
 30
0.0
 40
0.1926350986970145
100
AcDbArc
 50
20.551694
 51
110.551694
  0
LINE
  5
43A
330
1F
100
AcDbEntity
  8
002
 62
     3
370
    30
100
AcDbLine
 10
363.539505
 20
427.157565
 30
0.0
 11
363.539505
 21
426.782565
 31
0.0
  0
LINE
  5
43B
330
1F
100
AcDbEntity
  8
002
 62
     3
370
    30
100
AcDbLine
 10
363.539505
 20
426.782565
 30
0.0
 11
363.65238
 21
426.66969
 31
0.0
  0
LINE
  5
43C
330
1F
100
AcDbEntity
  8
002
 62
     3
370
    30
100
AcDbLine
 10
363.611005
 20
426.71094
 30
0.0
 11
363.622255
 21
426.532565
 31
0.0
  0
ARC
  5
43D
330
1F
100
AcDbEntity
  8
002
 62
     3
370
    30
100
AcDbCircle
 10
364.261255
 20
427.240815
 30
0.0
 40
0.5832097607207583
100
AcDbArc
 50
231.779327
 51
308.211025
  0
ARC
  5
43E
330
1F
100
AcDbEntity
  8
002
 62
     3
370
    30
100
AcDbCircle
 10
364.802505
 20
426.850065
 30
0.0
 40
0.1925912527219571
100
AcDbArc
 50
200.503847
 51
290.516873
  0
LINE
  5
43F
330
1F
100
AcDbEntity
  8
002
 62
     3
370
    30
100
AcDbLine
 10
364.622005
 20
426.782565
 30
0.0
 11
364.622005
 21
427.157565
 31
0.0
  0
ARC
  5
440
330
1F
100
AcDbEntity
  8
002
 62
     3
370
    30
100
AcDbCircle
 10
364.261255
 20
426.69919
 30
0.0
 40
0.5833852982806795
100
AcDbArc
 50
51.796569
 51
128.213078
  0
LINE
  5
441
330
1F
100
AcDbEntity
  8
002
 62
     3
370
    30
100
AcDbLine
 10
363.539505
 20
427.157565
 30
0.0
 11
363.903755
 21
427.52169
 31
0.0
  0
ARC
  5
442
330
1F
100
AcDbEntity
  8
002
 62
     3
370
    30
100
AcDbCircle
 10
363.81538
 20
427.610065
 30
0.0
 40
0.1250002499997285
100
AcDbArc
 50
315.0
 51
32.005383
  0
ARC
  5
443
330
1F
100
AcDbEntity
  8
002
 62
     3
370
    30
100
AcDbCircle
 10
364.802505
 20
427.08994
 30
0.0
 40
0.1927521481722085
100
AcDbArc
 50
69.483127
 51
159.46135
  0
LINE
  5
444
330
1F
100
AcDbEntity
  8
002
 62
    40
370
     9
100
AcDbLine
 10
363.61738
 20
426.61019
 30
0.0
 11
363.69738
 21
426.530065
 31
0.0
  0
LINE
  5
445
330
1F
100
AcDbEntity
  8
002
 62
    40
370
     9
100
AcDbLine
 10
364.825005
 20
426.530065
 30
0.0
 11
364.90513
 21
426.61019
 31
0.0
  0
LINE
  5
446
330
1F
100
AcDbEntity
  8
002
 62
     3
370
    30
100
AcDbLine
 10
364.573755
 20
394.907565
 30
0.0
 11
363.948755
 21
394.907565
 31
0.0
  0
LINE
  5
447
330
1F
100
AcDbEntity
  8
002
 62
     3
370
    30
100
AcDbLine
 10
363.948755
 20
394.907565
 30
0.0
 11
363.855005
 21
395.282565
 31
0.0
  0
LINE
  5
448
330
1F
100
AcDbEntity
  8
002
 62
     3
370
    30
100
AcDbLine
 10
363.855005
 20
395.282565
 30
0.0
 11
363.92138
 21
395.388815
 31
0.0
  0
LINE
  5
449
330
1F
100
AcDbEntity
  8
002
 62
     3
370
    30
100
AcDbLine
 10
363.974005
 20
395.473065
 30
0.0
 11
364.54838
 21
395.473065
 31
0.0
  0
LINE
  5
44A
330
1F
100
AcDbEntity
  8
002
 62
     3
370
    30
100
AcDbLine
 10
364.60113
 20
395.388815
 30
0.0
 11
364.667505
 21
395.282565
 31
0.0
  0
LINE
  5
44B
330
1F
100
AcDbEntity
  8
002
 62
     3
370
    30
100
AcDbLine
 10
364.667505
 20
395.282565
 30
0.0
 11
364.573755
 21
394.907565
 31
0.0
  0
ARC
  5
44C
330
1F
100
AcDbEntity
  8
002
 62
     3
370
    30
100
AcDbCircle
 10
364.261255
 20
394.990315
 30
0.0
 40
0.1250464913542376
100
AcDbArc
 50
221.433771
 51
318.566229
  0
LINE
  5
44D
330
1F
100
AcDbEntity
  8
002
 62
     3
370
    30
100
AcDbLine
 10
363.948755
 20
395.282565
 30
0.0
 11
364.573755
 21
395.282565
 31
0.0
  0
ARC
  5
44E
330
1F
100
AcDbEntity
  8
002
 62
     3
370
    30
100
AcDbCircle
 10
364.70713
 20
395.455065
 30
0.0
 40
0.1249811235747011
100
AcDbArc
 50
135.0
 51
212.005383
  0
LINE
  5
44F
330
1F
100
AcDbEntity
  8
002
 62
     3
370
    30
100
AcDbLine
 10
364.618755
 20
395.54344
 30
0.0
 11
364.98288
 21
395.907565
 31
0.0
  0
LINE
  5
450
330
1F
100
AcDbEntity
  8
002
 62
     3
370
    30
100
AcDbLine
 10
364.98288
 20
395.907565
 30
0.0
 11
364.98288
 21
396.282565
 31
0.0
  0
LINE
  5
451
330
1F
100
AcDbEntity
  8
002
 62
     3
370
    30
100
AcDbLine
 10
364.98288
 20
396.282565
 30
0.0
 11
364.870005
 21
396.39544
 31
0.0
  0
LINE
  5
452
330
1F
100
AcDbEntity
  8
002
 62
     3
370
    30
100
AcDbLine
 10
364.91138
 20
396.35419
 30
0.0
 11
364.900255
 21
396.532565
 31
0.0
  0
LINE
  5
453
330
1F
100
AcDbEntity
  8
002
 62
     3
370
    30
100
AcDbLine
 10
364.79688
 20
396.407565
 30
0.0
 11
363.725505
 21
396.407565
 31
0.0
  0
ARC
  5
454
330
1F
100
AcDbEntity
  8
002
 62
     3
370
    30
100
AcDbCircle
 10
363.720005
 20
396.215065
 30
0.0
 40
0.1925912527219205
100
AcDbArc
 50
20.516873
 51
110.551694
  0
LINE
  5
455
330
1F
100
AcDbEntity
  8
002
 62
     3
370
    30
100
AcDbLine
 10
363.90038
 20
396.282565
 30
0.0
 11
363.90038
 21
395.907565
 31
0.0
  0
ARC
  5
456
330
1F
100
AcDbEntity
  8
002
 62
     3
370
    30
100
AcDbCircle
 10
363.720005
 20
395.97519
 30
0.0
 40
0.1926350986970145
100
AcDbArc
 50
249.448306
 51
339.448306
  0
LINE
  5
457
330
1F
100
AcDbEntity
  8
002
 62
     3
370
    30
100
AcDbLine
 10
363.539505
 20
395.907565
 30
0.0
 11
363.539505
 21
396.282565
 31
0.0
  0
LINE
  5
458
330
1F
100
AcDbEntity
  8
002
 62
     3
370
    30
100
AcDbLine
 10
363.539505
 20
396.282565
 30
0.0
 11
363.65238
 21
396.39544
 31
0.0
  0
LINE
  5
459
330
1F
100
AcDbEntity
  8
002
 62
     3
370
    30
100
AcDbLine
 10
363.611005
 20
396.35419
 30
0.0
 11
363.622255
 21
396.532565
 31
0.0
  0
ARC
  5
45A
330
1F
100
AcDbEntity
  8
002
 62
     3
370
    30
100
AcDbCircle
 10
364.261255
 20
395.824315
 30
0.0
 40
0.5832097607207583
100
AcDbArc
 50
51.788975
 51
128.220673
  0
ARC
  5
45B
330
1F
100
AcDbEntity
  8
002
 62
     3
370
    30
100
AcDbCircle
 10
364.802505
 20
396.215065
 30
0.0
 40
0.1925912527219571
100
AcDbArc
 50
69.483127
 51
159.496153
  0
LINE
  5
45C
330
1F
100
AcDbEntity
  8
002
 62
     3
370
    30
100
AcDbLine
 10
364.622005
 20
396.282565
 30
0.0
 11
364.622005
 21
395.907565
 31
0.0
  0
ARC
  5
45D
330
1F
100
AcDbEntity
  8
002
 62
     3
370
    30
100
AcDbCircle
 10
364.261255
 20
396.36594
 30
0.0
 40
0.5833852982806795
100
AcDbArc
 50
231.786922
 51
308.203431
  0
LINE
  5
45E
330
1F
100
AcDbEntity
  8
002
 62
     3
370
    30
100
AcDbLine
 10
363.539505
 20
395.907565
 30
0.0
 11
363.903755
 21
395.54344
 31
0.0
  0
ARC
  5
45F
330
1F
100
AcDbEntity
  8
002
 62
     3
370
    30
100
AcDbCircle
 10
363.81538
 20
395.455065
 30
0.0
 40
0.1250002499997285
100
AcDbArc
 50
327.994617
 51
45.0
  0
ARC
  5
460
330
1F
100
AcDbEntity
  8
002
 62
     3
370
    30
100
AcDbCircle
 10
364.802505
 20
395.97519
 30
0.0
 40
0.1927521481722085
100
AcDbArc
 50
200.53865
 51
290.516873
  0
LINE
  5
461
330
1F
100
AcDbEntity
  8
002
 62
    40
370
     9
100
AcDbLine
 10
363.61738
 20
396.45494
 30
0.0
 11
363.69738
 21
396.535065
 31
0.0
  0
LINE
  5
462
330
1F
100
AcDbEntity
  8
002
 62
    40
370
     9
100
AcDbLine
 10
364.825005
 20
396.535065
 30
0.0
 11
364.90513
 21
396.45494
 31
0.0
  0
ARC
  5
463
330
1F
100
AcDbEntity
  8
002
 62
     3
370
    30
100
AcDbCircle
 10
364.261255
 20
411.532565
 30
0.0
 40
16.25
100
AcDbArc
 50
91.421525
 51
268.578475
  0
ARC
  5
464
330
1F
100
AcDbEntity
  8
002
 62
     3
370
    30
100
AcDbCircle
 10
364.261255
 20
411.532565
 30
0.0
 40
16.25
100
AcDbArc
 50
271.421525
 51
88.578475
  0
LINE
  5
465
330
1F
100
AcDbEntity
  8
001
 62
     3
370
    30
100
AcDbLine
 10
362.890037
 20
254.37728
 30
0.0
 11
365.632454
 21
254.37728
 31
0.0
  0
ARC
  5
466
330
1F
100
AcDbEntity
  8
001
 62
     3
370
    30
100
AcDbCircle
 10
364.261248
 20
264.75808
 30
0.0
 40
9.875003439957373
100
AcDbArc
 50
292.388506
 51
247.611504
  0
LINE
  5
467
330
1F
100
AcDbEntity
  8
001
 62
     3
370
    30
100
AcDbLine
 10
368.023213
 20
255.627455
 30
0.0
 11
360.499384
 21
255.627455
 31
0.0
  0
LINE
  5
468
330
1F
100
AcDbEntity
  8
001
 62
     3
370
    30
100
AcDbLine
 10
361.818513
 20
252.502368
 30
0.0
 11
361.818513
 21
255.62743
 31
0.0
  0
LINE
  5
469
330
1F
100
AcDbEntity
  8
001
 62
     3
370
    30
100
AcDbLine
 10
362.448764
 20
252.502368
 30
0.0
 11
362.448764
 21
254.627318
 31
0.0
  0
LINE
  5
46A
330
1F
100
AcDbEntity
  8
001
 62
     3
370
    30
100
AcDbLine
 10
366.704092
 20
252.502393
 30
0.0
 11
361.8185
 21
252.502393
 31
0.0
  0
LINE
  5
46B
330
1F
100
AcDbEntity
  8
001
 62
     3
370
    30
100
AcDbLine
 10
366.704104
 20
252.502368
 30
0.0
 11
366.704104
 21
255.62743
 31
0.0
  0
LINE
  5
46C
330
1F
100
AcDbEntity
  8
001
 62
     3
370
    30
100
AcDbLine
 10
366.073757
 20
252.502368
 30
0.0
 11
366.073757
 21
254.627318
 31
0.0
  0
LINE
  5
46D
330
1F
100
AcDbEntity
  8
001
 62
     3
370
    30
100
AcDbLine
 10
366.073744
 20
254.62733
 30
0.0
 11
362.448745
 21
254.62733
 31
0.0
  0
LINE
  5
46E
330
1F
100
AcDbEntity
  8
001
 62
     3
370
    30
100
AcDbLine
 10
365.886245
 20
254.377305
 30
0.0
 11
362.636244
 21
254.377305
 31
0.0
  0
LINE
  5
46F
330
1F
100
AcDbEntity
  8
001
 62
     3
370
    30
100
AcDbLine
 10
364.946857
 20
253.51943
 30
0.0
 11
364.946857
 21
254.37728
 31
0.0
  0
LINE
  5
470
330
1F
100
AcDbEntity
  8
001
 62
     3
370
    30
100
AcDbLine
 10
365.632454
 20
253.51943
 30
0.0
 11
365.632454
 21
254.37728
 31
0.0
  0
LINE
  5
471
330
1F
100
AcDbEntity
  8
001
 62
     3
370
    30
100
AcDbLine
 10
368.289652
 20
253.12743
 30
0.0
 11
366.704092
 21
253.12743
 31
0.0
  0
CIRCLE
  5
472
330
1F
100
AcDbEntity
  8
001
 62
     3
370
    30
100
AcDbCircle
 10
364.261248
 20
264.75808
 30
0.0
 40
6.82499875
  0
CIRCLE
  5
473
330
1F
100
AcDbEntity
  8
001
 62
     3
370
    30
100
AcDbCircle
 10
364.261248
 20
264.75808
 30
0.0
 40
6.24999625
  0
LINE
  5
474
330
1F
100
AcDbEntity
  8
001
 62
     3
370
    30
100
AcDbLine
 10
362.636264
 20
254.37728
 30
0.0
 11
362.636264
 21
254.627318
 31
0.0
  0
LINE
  5
475
330
1F
100
AcDbEntity
  8
001
 62
     3
370
    30
100
AcDbLine
 10
365.886252
 20
254.37728
 30
0.0
 11
365.886252
 21
254.627318
 31
0.0
  0
LINE
  5
476
330
1F
100
AcDbEntity
  8
001
 62
     3
370
    30
100
AcDbLine
 10
364.477829
 20
254.627293
 30
0.0
 11
364.33347
 21
254.377255
 31
0.0
  0
LINE
  5
477
330
1F
100
AcDbEntity
  8
001
 62
     3
370
    30
100
AcDbLine
 10
364.189121
 20
254.62728
 30
0.0
 11
364.044765
 21
254.377255
 31
0.0
  0
LINE
  5
478
330
1F
100
AcDbEntity
  8
001
 62
     3
370
    30
100
AcDbLine
 10
362.890037
 20
254.37728
 30
0.0
 11
362.890037
 21
253.51943
 31
0.0
  0
LINE
  5
479
330
1F
100
AcDbEntity
  8
001
 62
     3
370
    30
100
AcDbLine
 10
363.575639
 20
254.37728
 30
0.0
 11
363.575639
 21
253.51943
 31
0.0
  0
LINE
  5
47A
330
1F
100
AcDbEntity
  8
001
 62
     3
370
    30
100
AcDbLine
 10
363.800649
 20
253.46343
 30
0.0
 11
363.914872
 21
253.442343
 31
0.0
  0
LINE
  5
47B
330
1F
100
AcDbEntity
  8
001
 62
     3
370
    30
100
AcDbLine
 10
363.232844
 20
253.413355
 30
0.0
 11
363.351859
 21
253.427568
 31
0.0
  0
LINE
  5
47C
330
1F
100
AcDbEntity
  8
001
 62
     3
370
    30
100
AcDbLine
 10
363.51126
 20
253.38448
 30
0.0
 11
363.51126
 21
252.759455
 31
0.0
  0
LINE
  5
47D
330
1F
100
AcDbEntity
  8
001
 62
     3
370
    30
100
AcDbLine
 10
363.636271
 20
252.634455
 30
0.0
 11
363.511327
 21
252.759405
 31
0.0
  0
LINE
  5
47E
330
1F
100
AcDbEntity
  8
001
 62
     3
370
    30
100
AcDbLine
 10
363.636248
 20
252.634505
 30
0.0
 11
364.886248
 21
252.634505
 31
0.0
  0
LINE
  5
47F
330
1F
100
AcDbEntity
  8
001
 62
     3
370
    30
100
AcDbLine
 10
365.011256
 20
253.38448
 30
0.0
 11
365.011256
 21
252.759455
 31
0.0
  0
LINE
  5
480
330
1F
100
AcDbEntity
  8
001
 62
     3
370
    30
100
AcDbLine
 10
364.886292
 20
252.634418
 30
0.0
 11
365.0113
 21
252.75943
 31
0.0
  0
LINE
  5
481
330
1F
100
AcDbEntity
  8
001
 62
     3
370
    30
100
AcDbLine
 10
365.408663
 20
253.427555
 30
0.0
 11
365.289646
 21
253.413355
 31
0.0
  0
LINE
  5
482
330
1F
100
AcDbEntity
  8
001
 62
     3
370
    30
100
AcDbLine
 10
365.170631
 20
253.427568
 30
0.0
 11
365.055179
 21
253.465343
 31
0.0
  0
LINE
  5
483
330
1F
100
AcDbEntity
  8
001
 62
     3
370
    30
100
AcDbLine
 10
364.721851
 20
253.463418
 30
0.0
 11
364.835016
 21
253.489293
 31
0.0
  0
LINE
  5
484
330
1F
100
AcDbEntity
  8
001
 62
     3
370
    30
100
AcDbLine
 10
364.377061
 20
253.416755
 30
0.0
 11
364.492609
 21
253.426593
 31
0.0
  0
LINE
  5
485
330
1F
100
AcDbEntity
  8
001
 62
     3
370
    30
100
AcDbLine
 10
363.914872
 20
253.442343
 30
0.0
 11
364.029889
 21
253.426605
 31
0.0
  0
LINE
  5
486
330
1F
100
AcDbEntity
  8
001
 62
     3
370
    30
100
AcDbLine
 10
363.136237
 20
253.37728
 30
0.0
 11
365.386247
 21
253.37728
 31
0.0
  0
LINE
  5
487
330
1F
100
AcDbEntity
  8
001
 62
     3
370
    30
100
AcDbLine
 10
363.467312
 20
253.465343
 30
0.0
 11
363.575645
 21
253.51943
 31
0.0
  0
LINE
  5
488
330
1F
100
AcDbEntity
  8
001
 62
     3
370
    30
100
AcDbLine
 10
363.351859
 20
253.427568
 30
0.0
 11
363.467312
 21
253.465343
 31
0.0
  0
LINE
  5
489
330
1F
100
AcDbEntity
  8
001
 62
     3
370
    30
100
AcDbLine
 10
363.113827
 20
253.427555
 30
0.0
 11
363.232844
 21
253.413355
 31
0.0
  0
LINE
  5
48A
330
1F
100
AcDbEntity
  8
001
 62
     3
370
    30
100
AcDbLine
 10
363.687485
 20
253.489305
 30
0.0
 11
363.800649
 21
253.46343
 31
0.0
  0
LINE
  5
48B
330
1F
100
AcDbEntity
  8
001
 62
     3
370
    30
100
AcDbLine
 10
363.575645
 20
253.51943
 30
0.0
 11
363.687485
 21
253.489305
 31
0.0
  0
LINE
  5
48C
330
1F
100
AcDbEntity
  8
001
 62
     3
370
    30
100
AcDbLine
 10
362.890045
 20
253.51943
 30
0.0
 11
363.136248
 21
253.37728
 31
0.0
  0
LINE
  5
48D
330
1F
100
AcDbEntity
  8
001
 62
     3
370
    30
100
AcDbLine
 10
362.890037
 20
253.51943
 30
0.0
 11
362.998372
 21
253.465343
 31
0.0
  0
LINE
  5
48E
330
1F
100
AcDbEntity
  8
001
 62
     3
370
    30
100
AcDbLine
 10
362.998372
 20
253.465343
 30
0.0
 11
363.113827
 21
253.427555
 31
0.0
  0
LINE
  5
48F
330
1F
100
AcDbEntity
  8
001
 62
     3
370
    30
100
AcDbLine
 10
364.029889
 20
253.426605
 30
0.0
 11
364.145436
 21
253.416755
 31
0.0
  0
LINE
  5
490
330
1F
100
AcDbEntity
  8
001
 62
     3
370
    30
100
AcDbLine
 10
364.261248
 20
253.413355
 30
0.0
 11
364.377061
 21
253.416755
 31
0.0
  0
LINE
  5
491
330
1F
100
AcDbEntity
  8
001
 62
     3
370
    30
100
AcDbLine
 10
364.607627
 20
253.442343
 30
0.0
 11
364.721851
 21
253.463418
 31
0.0
  0
LINE
  5
492
330
1F
100
AcDbEntity
  8
001
 62
     3
370
    30
100
AcDbLine
 10
364.492609
 20
253.426593
 30
0.0
 11
364.607627
 21
253.442343
 31
0.0
  0
LINE
  5
493
330
1F
100
AcDbEntity
  8
001
 62
     3
370
    30
100
AcDbLine
 10
364.145436
 20
253.416755
 30
0.0
 11
364.261248
 21
253.413355
 31
0.0
  0
LINE
  5
494
330
1F
100
AcDbEntity
  8
001
 62
     3
370
    30
100
AcDbLine
 10
364.835016
 20
253.489293
 30
0.0
 11
364.946857
 21
253.51943
 31
0.0
  0
LINE
  5
495
330
1F
100
AcDbEntity
  8
001
 62
     3
370
    30
100
AcDbLine
 10
365.055179
 20
253.465343
 30
0.0
 11
364.946845
 21
253.51943
 31
0.0
  0
LINE
  5
496
330
1F
100
AcDbEntity
  8
001
 62
     3
370
    30
100
AcDbLine
 10
365.289646
 20
253.413355
 30
0.0
 11
365.170631
 21
253.427568
 31
0.0
  0
LINE
  5
497
330
1F
100
AcDbEntity
  8
001
 62
     3
370
    30
100
AcDbLine
 10
365.524119
 20
253.465343
 30
0.0
 11
365.408663
 21
253.427555
 31
0.0
  0
LINE
  5
498
330
1F
100
AcDbEntity
  8
001
 62
     3
370
    30
100
AcDbLine
 10
365.386245
 20
253.37728
 30
0.0
 11
365.632458
 21
253.51943
 31
0.0
  0
LINE
  5
499
330
1F
100
AcDbEntity
  8
001
 62
     3
370
    30
100
AcDbLine
 10
365.632454
 20
253.51943
 30
0.0
 11
365.524119
 21
253.465343
 31
0.0
  0
ARC
  5
49A
330
1F
100
AcDbEntity
  8
001
 62
     3
370
    30
100
AcDbCircle
 10
360.23289
 20
256.427343
 30
0.0
 40
3.30000375
100
AcDbArc
 50
180.000022
 51
270.0
  0
LINE
  5
49B
330
1F
100
AcDbEntity
  8
001
 62
     3
370
    30
100
AcDbLine
 10
361.8185
 20
253.12743
 30
0.0
 11
360.23287
 21
253.12743
 31
0.0
  0
ARC
  5
49C
330
1F
100
AcDbEntity
  8
001
 62
     3
370
    30
100
AcDbCircle
 10
368.289657
 20
256.427343
 30
0.0
 40
3.299999999999997
100
AcDbArc
 50
270.0
 51
0.0
  0
LINE
  5
49D
330
1F
100
AcDbEntity
  8
001
 62
     3
370
    30
100
AcDbLine
 10
371.589663
 20
258.138918
 30
0.0
 11
371.589663
 21
256.427343
 31
0.0
  0
LINE
  5
49E
330
1F
100
AcDbEntity
  8
001
 62
     3
370
    30
100
AcDbLine
 10
363.675324
 20
253.38448
 30
0.0
 11
363.675324
 21
252.63448
 31
0.0
  0
LINE
  5
49F
330
1F
100
AcDbEntity
  8
001
 62
     3
370
    30
100
AcDbLine
 10
364.847192
 20
253.38448
 30
0.0
 11
364.847192
 21
252.63448
 31
0.0
  0
LINE
  5
4A0
330
1F
100
AcDbEntity
  8
001
 62
     3
370
    30
100
AcDbLine
 10
356.93289
 20
258.138918
 30
0.0
 11
356.93289
 21
256.427343
 31
0.0
  0
CIRCLE
  5
4A1
330
1F
100
AcDbEntity
  8
001
 62
     3
370
    30
100
AcDbCircle
 10
364.261248
 20
264.75808
 30
0.0
 40
5.5185
  0
CIRCLE
  5
4A2
330
1F
100
AcDbEntity
  8
001
 62
     3
370
    30
100
AcDbCircle
 10
364.261248
 20
264.75808
 30
0.0
 40
7.556495
  0
ARC
  5
4A3
330
1F
100
AcDbEntity
  8
001
  6
PHANTOM
 62
    40
370
     9
100
AcDbCircle
 10
364.261255
 20
264.758105
 30
0.0
 40
13.125
100
AcDbArc
 50
225.0
 51
315.0
  0
CIRCLE
  5
4A4
330
1F
100
AcDbEntity
  8
001
 62
     3
370
    30
100
AcDbCircle
 10
364.261255
 20
264.758105
 30
0.0
 40
18.75
  0
LINE
  5
4A5
330
1F
100
AcDbEntity
  8
001
  6
CENTER
 62
    40
370
     9
100
AcDbLine
 10
341.846006
 20
264.758105
 30
0.0
 11
386.070864
 21
264.758105
 31
0.0
  0
CIRCLE
  5
4A6
330
1F
100
AcDbEntity
  8
001
  6
CENTER
 62
    40
370
     9
100
AcDbCircle
 10
364.261255
 20
264.758105
 30
0.0
 40
14.375
  0
CIRCLE
  5
4A7
330
1F
100
AcDbEntity
  8
001
 62
     3
370
    30
100
AcDbCircle
 10
351.812139
 20
257.570605
 30
0.0
 40
2.0625
  0
CIRCLE
  5
4A8
330
1F
100
AcDbEntity
  8
001
 62
     3
370
    30
100
AcDbCircle
 10
351.812139
 20
271.945605
 30
0.0
 40
2.0625
  0
CIRCLE
  5
4A9
330
1F
100
AcDbEntity
  8
001
 62
     3
370
    30
100
AcDbCircle
 10
376.71037
 20
257.570605
 30
0.0
 40
2.0625
  0
CIRCLE
  5
4AA
330
1F
100
AcDbEntity
  8
001
 62
     3
370
    30
100
AcDbCircle
 10
376.71037
 20
271.945605
 30
0.0
 40
2.0625
  0
LINE
  5
4AB
330
1F
100
AcDbEntity
  8
001
  6
CENTER
 62
    40
370
     9
100
AcDbLine
 10
348.023278
 20
255.383105
 30
0.0
 11
355.709235
 21
259.820594
 31
0.0
  0
LINE
  5
4AC
330
1F
100
AcDbEntity
  8
001
  6
CENTER
 62
    40
370
     9
100
AcDbLine
 10
348.023278
 20
274.133105
 30
0.0
 11
355.709257
 21
269.695603
 31
0.0
  0
LINE
  5
4AD
330
1F
100
AcDbEntity
  8
001
  6
CENTER
 62
    40
370
     9
100
AcDbLine
 10
372.813243
 20
269.695598
 30
0.0
 11
379.861757
 21
273.765059
 31
0.0
  0
LINE
  5
4AE
330
1F
100
AcDbEntity
  8
001
  6
CENTER
 62
    40
370
     9
100
AcDbLine
 10
372.813265
 20
259.8206
 30
0.0
 11
380.499231
 21
255.383105
 31
0.0
  0
LINE
  5
4AF
330
1F
100
AcDbEntity
  8
001
 62
     3
370
    30
100
AcDbLine
 10
374.136289
 20
139.698712
 30
0.0
 11
374.111286
 21
139.673712
 31
0.0
  0
LINE
  5
4B0
330
1F
100
AcDbEntity
  8
001
 62
     3
370
    30
100
AcDbLine
 10
354.41127
 20
139.6737
 30
0.0
 11
354.386267
 21
139.6987
 31
0.0
  0
LINE
  5
4B1
330
1F
100
AcDbEntity
  8
001
 62
     3
370
    30
100
AcDbLine
 10
366.698799
 20
146.068721
 30
0.0
 11
371.457324
 21
141.95943
 31
0.0
  0
LINE
  5
4B2
330
1F
100
AcDbEntity
  8
001
 62
     3
370
    30
100
AcDbLine
 10
366.698802
 20
147.720321
 30
0.0
 11
371.328251
 21
143.722496
 31
0.0
  0
LINE
  5
4B3
330
1F
100
AcDbEntity
  8
001
 62
     3
370
    30
100
AcDbLine
 10
366.6988
 20
144.417154
 30
0.0
 11
369.694277
 21
141.830369
 31
0.0
  0
LINE
  5
4B4
330
1F
100
AcDbEntity
  8
001
 62
     3
370
    30
100
AcDbLine
 10
361.823731
 20
148.627064
 30
0.0
 11
357.194282
 21
152.624887
 31
0.0
  0
LINE
  5
4B5
330
1F
100
AcDbEntity
  8
001
 62
     3
370
    30
100
AcDbLine
 10
361.823734
 20
150.278634
 30
0.0
 11
357.065209
 21
154.387924
 31
0.0
  0
LINE
  5
4B6
330
1F
100
AcDbEntity
  8
001
 62
     3
370
    30
100
AcDbLine
 10
361.823731
 20
151.930221
 30
0.0
 11
358.828254
 21
154.517006
 31
0.0
  0
LINE
  5
4B7
330
1F
100
AcDbEntity
  8
001
 62
     3
370
    30
100
AcDbLine
 10
360.511286
 20
161.76044
 30
0.0
 11
360.511286
 21
153.063611
 31
0.0
  0
LINE
  5
4B8
330
1F
100
AcDbEntity
  8
001
 62
     3
370
    30
100
AcDbLine
 10
361.82374
 20
140.42365
 30
0.0
 11
361.82374
 21
167.923687
 31
0.0
  0
LINE
  5
4B9
330
1F
100
AcDbEntity
  8
001
 62
     3
370
    30
100
AcDbLine
 10
366.698797
 20
158.068716
 30
0.0
 11
371.457322
 21
153.959425
 31
0.0
  0
LINE
  5
4BA
330
1F
100
AcDbEntity
  8
001
 62
     3
370
    30
100
AcDbLine
 10
366.698795
 20
159.72031
 30
0.0
 11
371.328244
 21
155.722485
 31
0.0
  0
LINE
  5
4BB
330
1F
100
AcDbEntity
  8
001
 62
     3
370
    30
100
AcDbLine
 10
366.698801
 20
156.417146
 30
0.0
 11
369.694279
 21
153.83036
 31
0.0
  0
LINE
  5
4BC
330
1F
100
AcDbEntity
  8
001
 62
     3
370
    30
100
AcDbLine
 10
361.823736
 20
160.627069
 30
0.0
 11
357.19429
 21
164.62489
 31
0.0
  0
LINE
  5
4BD
330
1F
100
AcDbEntity
  8
001
 62
     3
370
    30
100
AcDbLine
 10
360.511286
 20
168.173712
 30
0.0
 11
360.511286
 21
165.063605
 31
0.0
  0
ARC
  5
4BE
330
1F
100
AcDbEntity
  8
001
 62
     3
370
    30
100
AcDbCircle
 10
358.011267
 20
165.57095
 30
0.0
 40
1.250000314638085
100
AcDbArc
 50
49.187346
 51
229.187266
  0
LINE
  5
4BF
330
1F
100
AcDbEntity
  8
001
 62
     3
370
    30
100
AcDbLine
 10
361.82373
 20
162.278635
 30
0.0
 11
357.065206
 21
166.387924
 31
0.0
  0
LINE
  5
4C0
330
1F
100
AcDbEntity
  8
001
 62
     3
370
    30
100
AcDbLine
 10
361.823722
 20
163.930215
 30
0.0
 11
358.828245
 21
166.517001
 31
0.0
  0
LINE
  5
4C1
330
1F
100
AcDbEntity
  8
001
 62
     3
370
    30
100
AcDbLine
 10
368.011286
 20
168.173712
 30
0.0
 11
368.011286
 21
158.586879
 31
0.0
  0
LINE
  5
4C2
330
1F
100
AcDbEntity
  8
001
 62
     3
370
    30
100
AcDbLine
 10
361.82374
 20
167.923687
 30
0.0
 11
366.698737
 21
167.923687
 31
0.0
  0
LINE
  5
4C3
330
1F
100
AcDbEntity
  8
001
 62
     3
370
    30
100
AcDbLine
 10
366.698795
 20
167.923725
 30
0.0
 11
366.698795
 21
140.423687
 31
0.0
  0
LINE
  5
4C4
330
1F
100
AcDbEntity
  8
001
 62
     3
370
    30
100
AcDbLine
 10
366.073764
 20
166.173685
 30
0.0
 11
366.073764
 21
167.923687
 31
0.0
  0
ARC
  5
4C5
330
1F
100
AcDbEntity
  8
001
 62
     3
370
    30
100
AcDbCircle
 10
364.261274
 20
166.173689
 30
0.0
 40
1.812500000001724
100
AcDbArc
 50
180.0
 51
359.99996
  0
LINE
  5
4C6
330
1F
100
AcDbEntity
  8
001
 62
     3
370
    30
100
AcDbLine
 10
362.448771
 20
166.173685
 30
0.0
 11
362.448771
 21
167.923687
 31
0.0
  0
LINE
  5
4C7
330
1F
100
AcDbEntity
  8
001
 62
     3
370
    30
100
AcDbLine
 10
362.890056
 20
166.173692
 30
0.0
 11
363.575659
 21
167.361187
 31
0.0
  0
LINE
  5
4C8
330
1F
100
AcDbEntity
  8
001
 62
     3
370
    30
100
AcDbLine
 10
368.011286
 20
155.283713
 30
0.0
 11
368.011286
 21
146.586884
 31
0.0
  0
LINE
  5
4C9
330
1F
100
AcDbEntity
  8
001
 62
     3
370
    30
100
AcDbLine
 10
368.011286
 20
143.283719
 30
0.0
 11
368.011286
 21
140.173712
 31
0.0
  0
LINE
  5
4CA
330
1F
100
AcDbEntity
  8
001
 62
     3
370
    30
100
AcDbLine
 10
366.698795
 20
140.423687
 30
0.0
 11
361.82379
 21
140.423687
 31
0.0
  0
LINE
  5
4CB
330
1F
100
AcDbEntity
  8
001
 62
     3
370
    30
100
AcDbLine
 10
368.011292
 20
140.173725
 30
0.0
 11
360.511292
 21
140.173725
 31
0.0
  0
ARC
  5
4CC
330
1F
100
AcDbEntity
  8
001
 62
     3
370
    30
100
AcDbCircle
 10
364.261274
 20
142.173686
 30
0.0
 40
1.812500000000431
100
AcDbArc
 50
0.0
 51
179.999921
  0
LINE
  5
4CD
330
1F
100
AcDbEntity
  8
001
 62
     3
370
    30
100
AcDbLine
 10
362.448771
 20
142.17368
 30
0.0
 11
362.448771
 21
140.423687
 31
0.0
  0
LINE
  5
4CE
330
1F
100
AcDbEntity
  8
001
 62
     3
370
    30
100
AcDbLine
 10
366.073764
 20
142.17368
 30
0.0
 11
366.073764
 21
140.423687
 31
0.0
  0
LINE
  5
4CF
330
1F
100
AcDbEntity
  8
001
 62
     3
370
    30
100
AcDbLine
 10
360.511286
 20
149.760445
 30
0.0
 11
360.511286
 21
140.173712
 31
0.0
  0
LINE
  5
4D0
330
1F
100
AcDbEntity
  8
001
 62
     3
370
    30
100
AcDbLine
 10
364.946869
 20
164.986191
 30
0.0
 11
365.632471
 21
166.17369
 31
0.0
  0
CIRCLE
  5
4D1
330
1F
100
AcDbEntity
  8
001
 62
     3
370
    30
100
AcDbCircle
 10
364.261274
 20
166.173689
 30
0.0
 40
1.12499975
  0
LINE
  5
4D2
330
1F
100
AcDbEntity
  8
001
 62
     3
370
    30
100
AcDbLine
 10
363.575665
 20
164.986185
 30
0.0
 11
364.94687
 21
164.986185
 31
0.0
  0
LINE
  5
4D3
330
1F
100
AcDbEntity
  8
001
 62
     3
370
    30
100
AcDbLine
 10
363.575654
 20
164.986185
 30
0.0
 11
362.890051
 21
166.173685
 31
0.0
  0
LINE
  5
4D4
330
1F
100
AcDbEntity
  8
001
 62
     3
370
    30
100
AcDbLine
 10
363.575665
 20
167.361187
 30
0.0
 11
364.94687
 21
167.361187
 31
0.0
  0
LINE
  5
4D5
330
1F
100
AcDbEntity
  8
001
 62
     3
370
    30
100
AcDbLine
 10
365.63247
 20
166.173686
 30
0.0
 11
364.946867
 21
167.361187
 31
0.0
  0
CIRCLE
  5
4D6
330
1F
100
AcDbEntity
  8
001
 62
     3
370
    30
100
AcDbCircle
 10
364.261274
 20
166.173689
 30
0.0
 40
0.625
  0
CIRCLE
  5
4D7
330
1F
100
AcDbEntity
  8
001
 62
     3
370
    30
100
AcDbCircle
 10
364.261293
 20
154.173687
 30
0.0
 40
1.81249875
  0
LINE
  5
4D8
330
1F
100
AcDbEntity
  8
001
 62
     3
370
    30
100
AcDbLine
 10
364.946869
 20
152.986193
 30
0.0
 11
365.632472
 21
154.173692
 31
0.0
  0
CIRCLE
  5
4D9
330
1F
100
AcDbEntity
  8
001
 62
     3
370
    30
100
AcDbCircle
 10
364.261274
 20
154.173687
 30
0.0
 40
1.12499975
  0
CIRCLE
  5
4DA
330
1F
100
AcDbEntity
  8
001
 62
     3
370
    30
100
AcDbCircle
 10
364.261274
 20
154.173687
 30
0.0
 40
0.625
  0
LINE
  5
4DB
330
1F
100
AcDbEntity
  8
001
 62
     3
370
    30
100
AcDbLine
 10
363.575665
 20
152.986185
 30
0.0
 11
364.94687
 21
152.986185
 31
0.0
  0
LINE
  5
4DC
330
1F
100
AcDbEntity
  8
001
 62
     3
370
    30
100
AcDbLine
 10
365.63247
 20
154.173685
 30
0.0
 11
364.946867
 21
155.361183
 31
0.0
  0
LINE
  5
4DD
330
1F
100
AcDbEntity
  8
001
 62
     3
370
    30
100
AcDbLine
 10
363.575665
 20
155.36119
 30
0.0
 11
364.94687
 21
155.36119
 31
0.0
  0
LINE
  5
4DE
330
1F
100
AcDbEntity
  8
001
 62
     3
370
    30
100
AcDbLine
 10
362.89005
 20
154.173683
 30
0.0
 11
363.575656
 21
155.361187
 31
0.0
  0
LINE
  5
4DF
330
1F
100
AcDbEntity
  8
001
 62
     3
370
    30
100
AcDbLine
 10
363.57566
 20
152.986188
 30
0.0
 11
362.890057
 21
154.173687
 31
0.0
  0
LINE
  5
4E0
330
1F
100
AcDbEntity
  8
001
 62
     3
370
    30
100
AcDbLine
 10
364.946865
 20
140.986187
 30
0.0
 11
365.632471
 21
142.173686
 31
0.0
  0
CIRCLE
  5
4E1
330
1F
100
AcDbEntity
  8
001
 62
     3
370
    30
100
AcDbCircle
 10
364.261274
 20
142.173686
 30
0.0
 40
1.12499975
  0
LINE
  5
4E2
330
1F
100
AcDbEntity
  8
001
 62
     3
370
    30
100
AcDbLine
 10
365.632466
 20
142.173675
 30
0.0
 11
364.946863
 21
143.361176
 31
0.0
  0
LINE
  5
4E3
330
1F
100
AcDbEntity
  8
001
 62
     3
370
    30
100
AcDbLine
 10
363.575665
 20
140.986187
 30
0.0
 11
364.94687
 21
140.986187
 31
0.0
  0
CIRCLE
  5
4E4
330
1F
100
AcDbEntity
  8
001
 62
     3
370
    30
100
AcDbCircle
 10
364.261274
 20
142.173686
 30
0.0
 40
0.625
  0
LINE
  5
4E5
330
1F
100
AcDbEntity
  8
001
 62
     3
370
    30
100
AcDbLine
 10
363.57564
 20
140.986187
 30
0.0
 11
362.890037
 21
142.173681
 31
0.0
  0
LINE
  5
4E6
330
1F
100
AcDbEntity
  8
001
 62
     3
370
    30
100
AcDbLine
 10
362.890055
 20
142.173681
 30
0.0
 11
363.575661
 21
143.361186
 31
0.0
  0
LINE
  5
4E7
330
1F
100
AcDbEntity
  8
001
 62
     3
370
    30
100
AcDbLine
 10
363.575665
 20
143.36119
 30
0.0
 11
364.94687
 21
143.36119
 31
0.0
  0
ARC
  5
4E8
330
1F
100
AcDbEntity
  8
001
 62
     3
370
    30
100
AcDbCircle
 10
358.011267
 20
153.570953
 30
0.0
 40
1.250000409244314
100
AcDbArc
 50
49.187269
 51
229.187269
  0
LINE
  5
4E9
330
1F
100
AcDbEntity
  8
001
 62
    40
370
     9
100
AcDbLine
 10
369.779755
 20
101.499719
 30
0.0
 11
370.511255
 21
100.232724
 31
0.0
  0
LINE
  5
4EA
330
1F
100
AcDbEntity
  8
001
 62
     3
370
    30
100
AcDbLine
 10
374.136285
 20
168.048712
 30
0.0
 11
374.136285
 21
139.698712
 31
0.0
  0
LINE
  5
4EB
330
1F
100
AcDbEntity
  8
001
 62
     3
370
    30
100
AcDbLine
 10
374.011316
 20
168.173737
 30
0.0
 11
374.136311
 21
168.048725
 31
0.0
  0
LINE
  5
4EC
330
1F
100
AcDbEntity
  8
001
 62
     3
370
    30
100
AcDbLine
 10
374.011296
 20
168.173725
 30
0.0
 11
354.511295
 21
168.173725
 31
0.0
  0
LINE
  5
4ED
330
1F
100
AcDbEntity
  8
001
 62
     3
370
    30
100
AcDbLine
 10
354.511265
 20
168.1737
 30
0.0
 11
354.386261
 21
168.048687
 31
0.0
  0
LINE
  5
4EE
330
1F
100
AcDbEntity
  8
001
 62
     3
370
    30
100
AcDbLine
 10
354.386287
 20
168.048712
 30
0.0
 11
354.386287
 21
139.698712
 31
0.0
  0
ARC
  5
4EF
330
1F
100
AcDbEntity
  8
001
 62
     3
370
    30
100
AcDbCircle
 10
370.511261
 20
154.776416
 30
0.0
 40
1.249999686864986
100
AcDbArc
 50
229.18732
 51
49.187316
  0
ARC
  5
4F0
330
1F
100
AcDbEntity
  8
001
 62
     3
370
    30
100
AcDbCircle
 10
370.511261
 20
142.776427
 30
0.0
 40
1.250000443715546
100
AcDbArc
 50
229.187309
 51
49.187346
  0
CIRCLE
  5
4F1
330
1F
100
AcDbEntity
  8
001
 62
     3
370
    30
100
AcDbCircle
 10
364.261274
 20
166.173689
 30
0.0
 40
0.75
  0
CIRCLE
  5
4F2
330
1F
100
AcDbEntity
  8
001
 62
     3
370
    30
100
AcDbCircle
 10
364.261274
 20
154.173687
 30
0.0
 40
0.75
  0
CIRCLE
  5
4F3
330
1F
100
AcDbEntity
  8
001
 62
     3
370
    30
100
AcDbCircle
 10
364.261274
 20
142.173686
 30
0.0
 40
0.75
  0
LINE
  5
4F4
330
1F
100
AcDbEntity
  8
001
 62
     3
370
    30
100
AcDbLine
 10
383.011255
 20
133.423725
 30
0.0
 11
383.011255
 21
139.673725
 31
0.0
  0
LINE
  5
4F5
330
1F
100
AcDbEntity
  8
001
 62
     3
370
    30
100
AcDbLine
 10
383.011255
 20
139.673725
 30
0.0
 11
345.511255
 21
139.673725
 31
0.0
  0
LINE
  5
4F6
330
1F
100
AcDbEntity
  8
001
 62
     3
370
    30
100
AcDbLine
 10
383.011255
 20
133.423725
 30
0.0
 11
345.511255
 21
133.423725
 31
0.0
  0
LINE
  5
4F7
330
1F
100
AcDbEntity
  8
001
 62
     3
370
    30
100
AcDbLine
 10
345.511255
 20
133.423725
 30
0.0
 11
345.511255
 21
139.673725
 31
0.0
  0
LINE
  5
4F8
330
1F
100
AcDbEntity
  8
001
 62
    40
370
     9
100
AcDbLine
 10
358.742755
 20
101.499719
 30
0.0
 11
358.011255
 21
100.232724
 31
0.0
  0
LINE
  5
4F9
330
1F
100
AcDbEntity
  8
001
 62
     3
370
    30
100
AcDbLine
 10
370.511255
 20
101.499719
 30
0.0
 11
358.011255
 21
101.499719
 31
0.0
  0
LINE
  5
4FA
330
1F
100
AcDbEntity
  8
001
 62
     3
370
    30
100
AcDbLine
 10
369.573755
 20
204.63581
 30
0.0
 11
358.948755
 21
204.63581
 31
0.0
  0
LINE
  5
4FB
330
1F
100
AcDbEntity
  8
001
 62
     3
370
    30
100
AcDbLine
 10
358.011255
 20
187.13581
 30
0.0
 11
370.511255
 21
187.13581
 31
0.0
  0
LINE
  5
4FC
330
1F
100
AcDbEntity
  8
001
 62
     3
370
    30
100
AcDbLine
 10
369.573755
 20
204.63581
 30
0.0
 11
369.573755
 21
187.13581
 31
0.0
  0
LINE
  5
4FD
330
1F
100
AcDbEntity
  8
001
 62
     3
370
    30
100
AcDbLine
 10
358.948755
 20
204.63581
 30
0.0
 11
358.948755
 21
187.13581
 31
0.0
  0
LINE
  5
4FE
330
1F
100
AcDbEntity
  8
001
 62
     3
370
    30
100
AcDbLine
 10
370.511255
 20
168.173725
 30
0.0
 11
370.511255
 21
187.13581
 31
0.0
  0
LINE
  5
4FF
330
1F
100
AcDbEntity
  8
001
 62
    40
370
     9
100
AcDbLine
 10
369.779755
 20
168.173725
 30
0.0
 11
369.779755
 21
187.13581
 31
0.0
  0
LINE
  5
500
330
1F
100
AcDbEntity
  8
001
 62
     3
370
    30
100
AcDbLine
 10
358.011255
 20
187.13581
 30
0.0
 11
358.011255
 21
168.173725
 31
0.0
  0
LINE
  5
501
330
1F
100
AcDbEntity
  8
001
 62
    40
370
     9
100
AcDbLine
 10
358.742755
 20
187.13581
 30
0.0
 11
358.742755
 21
168.173725
 31
0.0
  0
LINE
  5
502
330
1F
100
AcDbEntity
  8
003
 62
     3
370
    30
100
AcDbLine
 10
518.376174
 20
138.215107
 30
0.0
 11
500.876174
 21
138.215107
 31
0.0
  0
LINE
  5
503
330
1F
100
AcDbEntity
  8
003
 62
     3
370
    30
100
AcDbLine
 10
519.001174
 20
142.290107
 30
0.0
 11
500.251174
 21
142.290107
 31
0.0
  0
LINE
  5
504
330
1F
100
AcDbEntity
  8
003
 62
    40
370
     9
100
AcDbLine
 10
515.144674
 20
130.715107
 30
0.0
 11
515.876174
 21
131.982102
 31
0.0
  0
LINE
  5
505
330
1F
100
AcDbEntity
  8
003
 62
     3
370
    30
100
AcDbLine
 10
519.001174
 20
142.290107
 30
0.0
 11
519.001174
 21
143.215107
 31
0.0
  0
LINE
  5
506
330
1F
100
AcDbEntity
  8
003
 62
     3
370
    30
100
AcDbLine
 10
500.251174
 20
142.290107
 30
0.0
 11
500.251174
 21
143.215107
 31
0.0
  0
LINE
  5
507
330
1F
100
AcDbEntity
  8
003
 62
     3
370
    30
100
AcDbLine
 10
500.876174
 20
138.215107
 30
0.0
 11
500.876174
 21
142.290107
 31
0.0
  0
LINE
  5
508
330
1F
100
AcDbEntity
  8
003
 62
    40
370
     9
100
AcDbLine
 10
504.107674
 20
130.715107
 30
0.0
 11
503.376174
 21
131.982102
 31
0.0
  0
LINE
  5
509
330
1F
100
AcDbEntity
  8
003
 62
     3
370
    30
100
AcDbLine
 10
518.376174
 20
138.215107
 30
0.0
 11
518.376174
 21
142.290107
 31
0.0
  0
LINE
  5
50A
330
1F
100
AcDbEntity
  8
003
 62
     3
370
    30
100
AcDbLine
 10
515.876174
 20
130.715107
 30
0.0
 11
503.376174
 21
130.715107
 31
0.0
  0
LINE
  5
50B
330
1F
100
AcDbEntity
  8
003
 62
     3
370
    30
100
AcDbLine
 10
519.501208
 20
76.566089
 30
0.0
 11
519.476206
 21
76.541089
 31
0.0
  0
LINE
  5
50C
330
1F
100
AcDbEntity
  8
003
 62
     3
370
    30
100
AcDbLine
 10
499.776189
 20
76.541076
 30
0.0
 11
499.751187
 21
76.566076
 31
0.0
  0
LINE
  5
50D
330
1F
100
AcDbEntity
  8
003
 62
     3
370
    30
100
AcDbLine
 10
512.063718
 20
82.936098
 30
0.0
 11
516.822243
 21
78.826806
 31
0.0
  0
LINE
  5
50E
330
1F
100
AcDbEntity
  8
003
 62
     3
370
    30
100
AcDbLine
 10
512.063722
 20
84.587698
 30
0.0
 11
516.693171
 21
80.589873
 31
0.0
  0
LINE
  5
50F
330
1F
100
AcDbEntity
  8
003
 62
     3
370
    30
100
AcDbLine
 10
512.063719
 20
81.28453
 30
0.0
 11
515.059197
 21
78.697745
 31
0.0
  0
LINE
  5
510
330
1F
100
AcDbEntity
  8
003
 62
     3
370
    30
100
AcDbLine
 10
507.188651
 20
85.49444
 30
0.0
 11
502.559202
 21
89.492264
 31
0.0
  0
LINE
  5
511
330
1F
100
AcDbEntity
  8
003
 62
     3
370
    30
100
AcDbLine
 10
507.188653
 20
87.14601
 30
0.0
 11
502.430128
 21
91.2553
 31
0.0
  0
LINE
  5
512
330
1F
100
AcDbEntity
  8
003
 62
     3
370
    30
100
AcDbLine
 10
507.188651
 20
88.797598
 30
0.0
 11
504.193173
 21
91.384382
 31
0.0
  0
LINE
  5
513
330
1F
100
AcDbEntity
  8
003
 62
     3
370
    30
100
AcDbLine
 10
505.876206
 20
98.627816
 30
0.0
 11
505.876206
 21
89.930987
 31
0.0
  0
LINE
  5
514
330
1F
100
AcDbEntity
  8
003
 62
     3
370
    30
100
AcDbLine
 10
507.188659
 20
77.291026
 30
0.0
 11
507.188659
 21
104.791064
 31
0.0
  0
LINE
  5
515
330
1F
100
AcDbEntity
  8
003
 62
     3
370
    30
100
AcDbLine
 10
512.063717
 20
94.936093
 30
0.0
 11
516.822242
 21
90.826801
 31
0.0
  0
LINE
  5
516
330
1F
100
AcDbEntity
  8
003
 62
     3
370
    30
100
AcDbLine
 10
512.063714
 20
96.587686
 30
0.0
 11
516.693163
 21
92.589861
 31
0.0
  0
LINE
  5
517
330
1F
100
AcDbEntity
  8
003
 62
     3
370
    30
100
AcDbLine
 10
512.063721
 20
93.284523
 30
0.0
 11
515.059198
 21
90.697737
 31
0.0
  0
LINE
  5
518
330
1F
100
AcDbEntity
  8
003
 62
     3
370
    30
100
AcDbLine
 10
507.188656
 20
97.494445
 30
0.0
 11
502.559209
 21
101.492266
 31
0.0
  0
LINE
  5
519
330
1F
100
AcDbEntity
  8
003
 62
     3
370
    30
100
AcDbLine
 10
505.876206
 20
105.041089
 30
0.0
 11
505.876206
 21
101.930981
 31
0.0
  0
ARC
  5
51A
330
1F
100
AcDbEntity
  8
003
 62
     3
370
    30
100
AcDbCircle
 10
503.376187
 20
102.438326
 30
0.0
 40
1.250000314638085
100
AcDbArc
 50
49.187346
 51
229.187266
  0
LINE
  5
51B
330
1F
100
AcDbEntity
  8
003
 62
     3
370
    30
100
AcDbLine
 10
507.188649
 20
99.146011
 30
0.0
 11
502.430126
 21
103.2553
 31
0.0
  0
LINE
  5
51C
330
1F
100
AcDbEntity
  8
003
 62
     3
370
    30
100
AcDbLine
 10
507.188642
 20
100.797591
 30
0.0
 11
504.193164
 21
103.384378
 31
0.0
  0
LINE
  5
51D
330
1F
100
AcDbEntity
  8
003
 62
     3
370
    30
100
AcDbLine
 10
513.376206
 20
105.041089
 30
0.0
 11
513.376206
 21
95.454255
 31
0.0
  0
LINE
  5
51E
330
1F
100
AcDbEntity
  8
003
 62
     3
370
    30
100
AcDbLine
 10
507.188659
 20
104.791064
 30
0.0
 11
512.063657
 21
104.791064
 31
0.0
  0
LINE
  5
51F
330
1F
100
AcDbEntity
  8
003
 62
     3
370
    30
100
AcDbLine
 10
512.063714
 20
104.791101
 30
0.0
 11
512.063714
 21
77.291064
 31
0.0
  0
LINE
  5
520
330
1F
100
AcDbEntity
  8
003
 62
     3
370
    30
100
AcDbLine
 10
511.438683
 20
103.041061
 30
0.0
 11
511.438683
 21
104.791064
 31
0.0
  0
ARC
  5
521
330
1F
100
AcDbEntity
  8
003
 62
     3
370
    30
100
AcDbCircle
 10
509.626193
 20
103.041065
 30
0.0
 40
1.812500000001724
100
AcDbArc
 50
180.0
 51
359.99996
  0
LINE
  5
522
330
1F
100
AcDbEntity
  8
003
 62
     3
370
    30
100
AcDbLine
 10
507.813691
 20
103.041061
 30
0.0
 11
507.813691
 21
104.791064
 31
0.0
  0
LINE
  5
523
330
1F
100
AcDbEntity
  8
003
 62
     3
370
    30
100
AcDbLine
 10
508.254976
 20
103.041069
 30
0.0
 11
508.940578
 21
104.228564
 31
0.0
  0
LINE
  5
524
330
1F
100
AcDbEntity
  8
003
 62
     3
370
    30
100
AcDbLine
 10
513.376206
 20
92.15109
 30
0.0
 11
513.376206
 21
83.45426
 31
0.0
  0
LINE
  5
525
330
1F
100
AcDbEntity
  8
003
 62
     3
370
    30
100
AcDbLine
 10
513.376206
 20
80.151095
 30
0.0
 11
513.376206
 21
77.041089
 31
0.0
  0
LINE
  5
526
330
1F
100
AcDbEntity
  8
003
 62
     3
370
    30
100
AcDbLine
 10
512.063714
 20
77.291064
 30
0.0
 11
507.188709
 21
77.291064
 31
0.0
  0
LINE
  5
527
330
1F
100
AcDbEntity
  8
003
 62
     3
370
    30
100
AcDbLine
 10
513.376212
 20
77.041101
 30
0.0
 11
505.876212
 21
77.041101
 31
0.0
  0
ARC
  5
528
330
1F
100
AcDbEntity
  8
003
 62
     3
370
    30
100
AcDbCircle
 10
509.626193
 20
79.041063
 30
0.0
 40
1.812500000000431
100
AcDbArc
 50
0.0
 51
179.999921
  0
LINE
  5
529
330
1F
100
AcDbEntity
  8
003
 62
     3
370
    30
100
AcDbLine
 10
507.813691
 20
79.041056
 30
0.0
 11
507.813691
 21
77.291064
 31
0.0
  0
LINE
  5
52A
330
1F
100
AcDbEntity
  8
003
 62
     3
370
    30
100
AcDbLine
 10
511.438683
 20
79.041056
 30
0.0
 11
511.438683
 21
77.291064
 31
0.0
  0
LINE
  5
52B
330
1F
100
AcDbEntity
  8
003
 62
     3
370
    30
100
AcDbLine
 10
505.876206
 20
86.627821
 30
0.0
 11
505.876206
 21
77.041089
 31
0.0
  0
LINE
  5
52C
330
1F
100
AcDbEntity
  8
003
 62
     3
370
    30
100
AcDbLine
 10
510.311788
 20
101.853568
 30
0.0
 11
510.997391
 21
103.041066
 31
0.0
  0
CIRCLE
  5
52D
330
1F
100
AcDbEntity
  8
003
 62
     3
370
    30
100
AcDbCircle
 10
509.626193
 20
103.041065
 30
0.0
 40
1.12499975
  0
LINE
  5
52E
330
1F
100
AcDbEntity
  8
003
 62
     3
370
    30
100
AcDbLine
 10
508.940584
 20
101.853561
 30
0.0
 11
510.31179
 21
101.853561
 31
0.0
  0
LINE
  5
52F
330
1F
100
AcDbEntity
  8
003
 62
     3
370
    30
100
AcDbLine
 10
508.940574
 20
101.853561
 30
0.0
 11
508.254971
 21
103.041061
 31
0.0
  0
LINE
  5
530
330
1F
100
AcDbEntity
  8
003
 62
     3
370
    30
100
AcDbLine
 10
508.940584
 20
104.228564
 30
0.0
 11
510.31179
 21
104.228564
 31
0.0
  0
LINE
  5
531
330
1F
100
AcDbEntity
  8
003
 62
     3
370
    30
100
AcDbLine
 10
510.997389
 20
103.041063
 30
0.0
 11
510.311786
 21
104.228564
 31
0.0
  0
CIRCLE
  5
532
330
1F
100
AcDbEntity
  8
003
 62
     3
370
    30
100
AcDbCircle
 10
509.626193
 20
103.041065
 30
0.0
 40
0.625
  0
CIRCLE
  5
533
330
1F
100
AcDbEntity
  8
003
 62
     3
370
    30
100
AcDbCircle
 10
509.626212
 20
91.041064
 30
0.0
 40
1.81249875
  0
LINE
  5
534
330
1F
100
AcDbEntity
  8
003
 62
     3
370
    30
100
AcDbLine
 10
510.311789
 20
89.853569
 30
0.0
 11
510.997392
 21
91.041068
 31
0.0
  0
CIRCLE
  5
535
330
1F
100
AcDbEntity
  8
003
 62
     3
370
    30
100
AcDbCircle
 10
509.626193
 20
91.041064
 30
0.0
 40
1.12499975
  0
CIRCLE
  5
536
330
1F
100
AcDbEntity
  8
003
 62
     3
370
    30
100
AcDbCircle
 10
509.626193
 20
91.041064
 30
0.0
 40
0.625
  0
LINE
  5
537
330
1F
100
AcDbEntity
  8
003
 62
     3
370
    30
100
AcDbLine
 10
508.940584
 20
89.853561
 30
0.0
 11
510.31179
 21
89.853561
 31
0.0
  0
LINE
  5
538
330
1F
100
AcDbEntity
  8
003
 62
     3
370
    30
100
AcDbLine
 10
510.997389
 20
91.041061
 30
0.0
 11
510.311787
 21
92.228559
 31
0.0
  0
LINE
  5
539
330
1F
100
AcDbEntity
  8
003
 62
     3
370
    30
100
AcDbLine
 10
508.940584
 20
92.228566
 30
0.0
 11
510.31179
 21
92.228566
 31
0.0
  0
LINE
  5
53A
330
1F
100
AcDbEntity
  8
003
 62
     3
370
    30
100
AcDbLine
 10
508.254969
 20
91.041059
 30
0.0
 11
508.940576
 21
92.228564
 31
0.0
  0
LINE
  5
53B
330
1F
100
AcDbEntity
  8
003
 62
     3
370
    30
100
AcDbLine
 10
508.940579
 20
89.853564
 30
0.0
 11
508.254977
 21
91.041063
 31
0.0
  0
LINE
  5
53C
330
1F
100
AcDbEntity
  8
003
 62
     3
370
    30
100
AcDbLine
 10
510.311785
 20
77.853564
 30
0.0
 11
510.997391
 21
79.041063
 31
0.0
  0
CIRCLE
  5
53D
330
1F
100
AcDbEntity
  8
003
 62
     3
370
    30
100
AcDbCircle
 10
509.626193
 20
79.041063
 30
0.0
 40
1.12499975
  0
LINE
  5
53E
330
1F
100
AcDbEntity
  8
003
 62
     3
370
    30
100
AcDbLine
 10
510.997386
 20
79.041051
 30
0.0
 11
510.311782
 21
80.228553
 31
0.0
  0
LINE
  5
53F
330
1F
100
AcDbEntity
  8
003
 62
     3
370
    30
100
AcDbLine
 10
508.940584
 20
77.853564
 30
0.0
 11
510.31179
 21
77.853564
 31
0.0
  0
CIRCLE
  5
540
330
1F
100
AcDbEntity
  8
003
 62
     3
370
    30
100
AcDbCircle
 10
509.626193
 20
79.041063
 30
0.0
 40
0.625
  0
LINE
  5
541
330
1F
100
AcDbEntity
  8
003
 62
     3
370
    30
100
AcDbLine
 10
508.940559
 20
77.853564
 30
0.0
 11
508.254957
 21
79.041058
 31
0.0
  0
LINE
  5
542
330
1F
100
AcDbEntity
  8
003
 62
     3
370
    30
100
AcDbLine
 10
508.254974
 20
79.041058
 30
0.0
 11
508.940581
 21
80.228563
 31
0.0
  0
LINE
  5
543
330
1F
100
AcDbEntity
  8
003
 62
     3
370
    30
100
AcDbLine
 10
508.940584
 20
80.228566
 30
0.0
 11
510.31179
 21
80.228566
 31
0.0
  0
ARC
  5
544
330
1F
100
AcDbEntity
  8
003
 62
     3
370
    30
100
AcDbCircle
 10
503.376187
 20
90.438329
 30
0.0
 40
1.250000409244314
100
AcDbArc
 50
49.187269
 51
229.187269
  0
LINE
  5
545
330
1F
100
AcDbEntity
  8
003
 62
     3
370
    30
100
AcDbLine
 10
519.501204
 20
104.916089
 30
0.0
 11
519.501204
 21
76.566089
 31
0.0
  0
LINE
  5
546
330
1F
100
AcDbEntity
  8
003
 62
     3
370
    30
100
AcDbLine
 10
519.376236
 20
105.041114
 30
0.0
 11
519.501231
 21
104.916101
 31
0.0
  0
LINE
  5
547
330
1F
100
AcDbEntity
  8
003
 62
     3
370
    30
100
AcDbLine
 10
519.376216
 20
105.041101
 30
0.0
 11
499.876214
 21
105.041101
 31
0.0
  0
LINE
  5
548
330
1F
100
AcDbEntity
  8
003
 62
     3
370
    30
100
AcDbLine
 10
499.876184
 20
105.041076
 30
0.0
 11
499.751181
 21
104.916064
 31
0.0
  0
LINE
  5
549
330
1F
100
AcDbEntity
  8
003
 62
     3
370
    30
100
AcDbLine
 10
499.751207
 20
104.916089
 30
0.0
 11
499.751207
 21
76.566089
 31
0.0
  0
ARC
  5
54A
330
1F
100
AcDbEntity
  8
003
 62
     3
370
    30
100
AcDbCircle
 10
515.876181
 20
91.643792
 30
0.0
 40
1.249999686864986
100
AcDbArc
 50
229.18732
 51
49.187316
  0
ARC
  5
54B
330
1F
100
AcDbEntity
  8
003
 62
     3
370
    30
100
AcDbCircle
 10
515.876181
 20
79.643804
 30
0.0
 40
1.250000443715546
100
AcDbArc
 50
229.187309
 51
49.187346
  0
CIRCLE
  5
54C
330
1F
100
AcDbEntity
  8
003
 62
     3
370
    30
100
AcDbCircle
 10
509.626193
 20
103.041065
 30
0.0
 40
0.75
  0
CIRCLE
  5
54D
330
1F
100
AcDbEntity
  8
003
 62
     3
370
    30
100
AcDbCircle
 10
509.626193
 20
91.041064
 30
0.0
 40
0.75
  0
CIRCLE
  5
54E
330
1F
100
AcDbEntity
  8
003
 62
     3
370
    30
100
AcDbCircle
 10
509.626193
 20
79.041063
 30
0.0
 40
0.75
  0
LINE
  5
54F
330
1F
100
AcDbEntity
  8
003
 62
     3
370
    30
100
AcDbLine
 10
528.376174
 20
70.291101
 30
0.0
 11
528.376174
 21
76.541101
 31
0.0
  0
LINE
  5
550
330
1F
100
AcDbEntity
  8
003
 62
     3
370
    30
100
AcDbLine
 10
528.376174
 20
76.541101
 30
0.0
 11
490.876174
 21
76.541101
 31
0.0
  0
LINE
  5
551
330
1F
100
AcDbEntity
  8
003
 62
     3
370
    30
100
AcDbLine
 10
528.376174
 20
70.291101
 30
0.0
 11
490.876174
 21
70.291101
 31
0.0
  0
LINE
  5
552
330
1F
100
AcDbEntity
  8
003
 62
     3
370
    30
100
AcDbLine
 10
490.876174
 20
70.291101
 30
0.0
 11
490.876174
 21
76.541101
 31
0.0
  0
LINE
  5
553
330
1F
100
AcDbEntity
  8
003
 62
     3
370
    30
100
AcDbLine
 10
514.938674
 20
33.829017
 30
0.0
 11
504.313674
 21
33.829017
 31
0.0
  0
LINE
  5
554
330
1F
100
AcDbEntity
  8
003
 62
     3
370
    30
100
AcDbLine
 10
503.376174
 20
51.329017
 30
0.0
 11
515.876174
 21
51.329017
 31
0.0
  0
LINE
  5
555
330
1F
100
AcDbEntity
  8
003
 62
     3
370
    30
100
AcDbLine
 10
514.938674
 20
33.829017
 30
0.0
 11
514.938674
 21
51.329017
 31
0.0
  0
LINE
  5
556
330
1F
100
AcDbEntity
  8
003
 62
     3
370
    30
100
AcDbLine
 10
504.313674
 20
33.829017
 30
0.0
 11
504.313674
 21
51.329017
 31
0.0
  0
LINE
  5
557
330
1F
100
AcDbEntity
  8
003
 62
     3
370
    30
100
AcDbLine
 10
515.876174
 20
70.291101
 30
0.0
 11
515.876174
 21
51.329017
 31
0.0
  0
LINE
  5
558
330
1F
100
AcDbEntity
  8
003
 62
    40
370
     9
100
AcDbLine
 10
515.144674
 20
70.291101
 30
0.0
 11
515.144674
 21
51.329017
 31
0.0
  0
LINE
  5
559
330
1F
100
AcDbEntity
  8
003
 62
     3
370
    30
100
AcDbLine
 10
503.376174
 20
51.329017
 30
0.0
 11
503.376174
 21
70.291101
 31
0.0
  0
LINE
  5
55A
330
1F
100
AcDbEntity
  8
003
 62
    40
370
     9
100
AcDbLine
 10
504.107674
 20
51.329017
 30
0.0
 11
504.107674
 21
70.291101
 31
0.0
  0
LINE
  5
55B
330
1F
100
AcDbEntity
  8
001
  6
CENTER
 62
    40
370
     9
100
AcDbLine
 10
364.261255
 20
244.695681
 30
0.0
 11
364.261255
 21
287.782565
 31
0.0
  0
LINE
  5
55C
330
1F
100
AcDbEntity
  8
002
 62
     3
370
    30
100
AcDbLine
 10
448.08013
 20
93.874719
 30
0.0
 11
448.08013
 21
92.749719
 31
0.0
  0
LINE
  5
55D
330
1F
100
AcDbEntity
  8
002
 62
     3
370
    30
100
AcDbLine
 10
448.08013
 20
92.749719
 30
0.0
 11
448.434755
 21
91.426219
 31
0.0
  0
ARC
  5
55E
330
1F
100
AcDbEntity
  8
002
 62
     3
370
    30
100
AcDbCircle
 10
449.64213
 20
91.749719
 30
0.0
 40
1.249927622904602
100
AcDbArc
 50
194.999329
 51
229.485715
  0
LINE
  5
55F
330
1F
100
AcDbEntity
  8
002
 62
     3
370
    30
100
AcDbLine
 10
448.83013
 20
90.499719
 30
0.0
 11
445.70513
 21
90.499719
 31
0.0
  0
LINE
  5
560
330
1F
100
AcDbEntity
  8
002
 62
     3
370
    30
100
AcDbLine
 10
445.70513
 20
90.374719
 30
0.0
 11
445.70513
 21
92.874719
 31
0.0
  0
LINE
  5
561
330
1F
100
AcDbEntity
  8
002
 62
     3
370
    30
100
AcDbLine
 10
445.70513
 20
92.874719
 30
0.0
 11
441.95513
 21
92.874719
 31
0.0
  0
LINE
  5
562
330
1F
100
AcDbEntity
  8
002
 62
     3
370
    30
100
AcDbLine
 10
441.95513
 20
92.874719
 30
0.0
 11
441.95513
 21
90.374719
 31
0.0
  0
LINE
  5
563
330
1F
100
AcDbEntity
  8
002
 62
     3
370
    30
100
AcDbLine
 10
441.95513
 20
90.499719
 30
0.0
 11
436.33013
 21
90.499719
 31
0.0
  0
LINE
  5
564
330
1F
100
AcDbEntity
  8
002
 62
     3
370
    30
100
AcDbLine
 10
436.33013
 20
90.374719
 30
0.0
 11
436.33013
 21
92.874719
 31
0.0
  0
LINE
  5
565
330
1F
100
AcDbEntity
  8
002
 62
     3
370
    30
100
AcDbLine
 10
436.33013
 20
92.874719
 30
0.0
 11
432.58013
 21
92.874719
 31
0.0
  0
LINE
  5
566
330
1F
100
AcDbEntity
  8
002
 62
     3
370
    30
100
AcDbLine
 10
432.58013
 20
92.874719
 30
0.0
 11
432.58013
 21
90.374719
 31
0.0
  0
LINE
  5
567
330
1F
100
AcDbEntity
  8
002
 62
     3
370
    30
100
AcDbLine
 10
432.58013
 20
90.499719
 30
0.0
 11
426.95513
 21
90.499719
 31
0.0
  0
LINE
  5
568
330
1F
100
AcDbEntity
  8
002
 62
     3
370
    30
100
AcDbLine
 10
426.95513
 20
90.374719
 30
0.0
 11
426.95513
 21
92.874719
 31
0.0
  0
LINE
  5
569
330
1F
100
AcDbEntity
  8
002
 62
     3
370
    30
100
AcDbLine
 10
426.95513
 20
92.874719
 30
0.0
 11
423.20513
 21
92.874719
 31
0.0
  0
LINE
  5
56A
330
1F
100
AcDbEntity
  8
002
 62
     3
370
    30
100
AcDbLine
 10
423.20513
 20
92.874719
 30
0.0
 11
423.20513
 21
90.374719
 31
0.0
  0
LINE
  5
56B
330
1F
100
AcDbEntity
  8
002
 62
     3
370
    30
100
AcDbLine
 10
423.20513
 20
90.499719
 30
0.0
 11
420.08013
 21
90.499719
 31
0.0
  0
LINE
  5
56C
330
1F
100
AcDbEntity
  8
002
 62
     3
370
    30
100
AcDbLine
 10
420.08013
 20
90.374719
 30
0.0
 11
420.08013
 21
92.874719
 31
0.0
  0
LINE
  5
56D
330
1F
100
AcDbEntity
  8
002
 62
     3
370
    30
100
AcDbLine
 10
420.08013
 20
92.874719
 30
0.0
 11
413.83013
 21
92.874719
 31
0.0
  0
LINE
  5
56E
330
1F
100
AcDbEntity
  8
002
 62
     3
370
    30
100
AcDbLine
 10
413.83013
 20
92.874719
 30
0.0
 11
413.83013
 21
90.374719
 31
0.0
  0
ARC
  5
56F
330
1F
100
AcDbEntity
  8
002
 62
     3
370
    30
100
AcDbCircle
 10
413.83013
 20
89.874719
 30
0.0
 40
0.625
100
AcDbArc
 50
126.869898
 51
180.0
  0
LINE
  5
570
330
1F
100
AcDbEntity
  8
002
 62
     3
370
    30
100
AcDbLine
 10
413.20513
 20
89.874719
 30
0.0
 11
413.20513
 21
82.708969
 31
0.0
  0
ARC
  5
571
330
1F
100
AcDbEntity
  8
002
 62
     3
370
    30
100
AcDbCircle
 10
414.45513
 20
82.708969
 30
0.0
 40
1.250115750890701
100
AcDbArc
 50
180.0
 51
254.99662
  0
LINE
  5
572
330
1F
100
AcDbEntity
  8
002
 62
     3
370
    30
100
AcDbLine
 10
414.131505
 20
81.501469
 30
0.0
 11
414.61763
 21
81.371219
 31
0.0
  0
LINE
  5
573
330
1F
100
AcDbEntity
  8
002
 62
     3
370
    30
100
AcDbLine
 10
414.55238
 20
81.749719
 30
0.0
 11
444.061755
 21
81.749719
 31
0.0
  0
ARC
  5
574
330
1F
100
AcDbEntity
  8
002
 62
     3
370
    30
100
AcDbCircle
 10
443.75913
 20
80.532719
 30
0.0
 40
0.6250140623418038
100
AcDbArc
 50
139.208565
 51
207.154388
  0
LINE
  5
575
330
1F
100
AcDbEntity
  8
002
 62
     3
370
    30
100
AcDbLine
 10
442.550505
 20
81.012844
 30
0.0
 11
436.837005
 21
81.012844
 31
0.0
  0
ARC
  5
576
330
1F
100
AcDbEntity
  8
002
 62
     3
370
    30
100
AcDbCircle
 10
436.95513
 20
80.499719
 30
0.0
 40
1.25
100
AcDbArc
 50
90.0
 51
180.0
  0
LINE
  5
577
330
1F
100
AcDbEntity
  8
002
 62
     3
370
    30
100
AcDbLine
 10
435.70513
 20
80.499719
 30
0.0
 11
435.70513
 21
64.374719
 31
0.0
  0
ARC
  5
578
330
1F
100
AcDbEntity
  8
002
 62
     3
370
    30
100
AcDbCircle
 10
436.95513
 20
64.374719
 30
0.0
 40
1.25
100
AcDbArc
 50
180.0
 51
270.0
  0
LINE
  5
579
330
1F
100
AcDbEntity
  8
002
 62
     3
370
    30
100
AcDbLine
 10
436.28663
 20
64.329719
 30
0.0
 11
435.70588
 21
80.454719
 31
0.0
  0
LINE
  5
57A
330
1F
100
AcDbEntity
  8
002
 62
     3
370
    30
100
AcDbLine
 10
433.20513
 20
80.499719
 30
0.0
 11
433.20513
 21
64.374719
 31
0.0
  0
LINE
  5
57B
330
1F
100
AcDbEntity
  8
002
 62
     3
370
    30
100
AcDbLine
 10
432.623505
 20
64.329719
 30
0.0
 11
433.204255
 21
80.454719
 31
0.0
  0
ARC
  5
57C
330
1F
100
AcDbEntity
  8
002
 62
     3
370
    30
100
AcDbCircle
 10
431.95513
 20
80.499719
 30
0.0
 40
1.25
100
AcDbArc
 50
0.0
 51
90.0
  0
LINE
  5
57D
330
1F
100
AcDbEntity
  8
002
 62
     3
370
    30
100
AcDbLine
 10
431.993005
 20
81.012844
 30
0.0
 11
421.52238
 21
81.012844
 31
0.0
  0
ARC
  5
57E
330
1F
100
AcDbEntity
  8
002
 62
     3
370
    30
100
AcDbCircle
 10
421.52238
 20
79.137844
 30
0.0
 40
1.875
100
AcDbArc
 50
90.0
 51
180.0
  0
LINE
  5
57F
330
1F
100
AcDbEntity
  8
002
 62
     3
370
    30
100
AcDbLine
 10
419.64738
 20
79.137844
 30
0.0
 11
419.64738
 21
68.374719
 31
0.0
  0
LINE
  5
580
330
1F
100
AcDbEntity
  8
002
 62
     3
370
    30
100
AcDbLine
 10
418.72088
 20
67.734094
 30
0.0
 11
416.33013
 21
68.374719
 31
0.0
  0
LINE
  5
581
330
1F
100
AcDbEntity
  8
002
 62
     3
370
    30
100
AcDbLine
 10
416.33013
 20
68.374719
 30
0.0
 11
416.33013
 21
79.999719
 31
0.0
  0
LINE
  5
582
330
1F
100
AcDbEntity
  8
002
 62
     3
370
    30
100
AcDbLine
 10
416.33013
 20
79.999719
 30
0.0
 11
415.95513
 21
79.999719
 31
0.0
  0
ARC
  5
583
330
1F
100
AcDbEntity
  8
002
 62
     3
370
    30
100
AcDbCircle
 10
414.13238
 20
79.560219
 30
0.0
 40
1.87488361305443
100
AcDbArc
 50
13.55635
 51
75.000177
  0
LINE
  5
584
330
1F
100
AcDbEntity
  8
002
 62
     3
370
    30
100
AcDbLine
 10
414.70513
 20
79.624719
 30
0.0
 11
416.33013
 21
79.624719
 31
0.0
  0
ARC
  5
585
330
1F
100
AcDbEntity
  8
002
 62
     3
370
    30
100
AcDbCircle
 10
414.70513
 20
79.374719
 30
0.0
 40
0.25
100
AcDbArc
 50
90.0
 51
180.0
  0
LINE
  5
586
330
1F
100
AcDbEntity
  8
002
 62
     3
370
    30
100
AcDbLine
 10
414.45513
 20
79.374719
 30
0.0
 11
414.45513
 21
68.624719
 31
0.0
  0
ARC
  5
587
330
1F
100
AcDbEntity
  8
002
 62
     3
370
    30
100
AcDbCircle
 10
414.70513
 20
68.624719
 30
0.0
 40
0.25
100
AcDbArc
 50
180.0
 51
270.0
  0
LINE
  5
588
330
1F
100
AcDbEntity
  8
002
 62
     3
370
    30
100
AcDbLine
 10
414.70513
 20
68.374719
 30
0.0
 11
416.33013
 21
68.374719
 31
0.0
  0
LINE
  5
589
330
1F
100
AcDbEntity
  8
002
 62
     3
370
    30
100
AcDbLine
 10
416.95513
 20
67.727719
 30
0.0
 11
416.95513
 21
58.999719
 31
0.0
  0
LINE
  5
58A
330
1F
100
AcDbEntity
  8
002
 62
     3
370
    30
100
AcDbLine
 10
416.95513
 20
58.999719
 30
0.0
 11
449.95513
 21
58.999719
 31
0.0
  0
LINE
  5
58B
330
1F
100
AcDbEntity
  8
002
 62
     3
370
    30
100
AcDbLine
 10
449.95513
 20
58.999719
 30
0.0
 11
449.95513
 21
62.499719
 31
0.0
  0
ARC
  5
58C
330
1F
100
AcDbEntity
  8
002
 62
     3
370
    30
100
AcDbCircle
 10
449.33013
 20
62.499719
 30
0.0
 40
0.625
100
AcDbArc
 50
0.0
 51
90.0
  0
LINE
  5
58D
330
1F
100
AcDbEntity
  8
002
 62
     3
370
    30
100
AcDbLine
 10
449.33013
 20
63.124719
 30
0.0
 11
419.58013
 21
63.124719
 31
0.0
  0
ARC
  5
58E
330
1F
100
AcDbEntity
  8
002
 62
     3
370
    30
100
AcDbCircle
 10
419.58013
 20
62.499719
 30
0.0
 40
0.625
100
AcDbArc
 50
90.0
 51
180.0
  0
LINE
  5
58F
330
1F
100
AcDbEntity
  8
002
 62
     3
370
    30
100
AcDbLine
 10
418.95513
 20
62.499719
 30
0.0
 11
418.95513
 21
58.999719
 31
0.0
  0
LINE
  5
590
330
1F
100
AcDbEntity
  8
002
 62
     3
370
    30
100
AcDbLine
 10
420.83013
 20
58.999719
 30
0.0
 11
420.83013
 21
57.749719
 31
0.0
  0
LINE
  5
591
330
1F
100
AcDbEntity
  8
002
 62
     3
370
    30
100
AcDbLine
 10
420.83013
 20
57.749719
 30
0.0
 11
448.08013
 21
57.749719
 31
0.0
  0
LINE
  5
592
330
1F
100
AcDbEntity
  8
002
 62
     3
370
    30
100
AcDbLine
 10
448.08013
 20
57.749719
 30
0.0
 11
448.08013
 21
58.999719
 31
0.0
  0
LINE
  5
593
330
1F
100
AcDbEntity
  8
002
 62
     3
370
    30
100
AcDbLine
 10
447.58013
 20
57.749719
 30
0.0
 11
447.58013
 21
56.499719
 31
0.0
  0
LINE
  5
594
330
1F
100
AcDbEntity
  8
002
 62
     3
370
    30
100
AcDbLine
 10
445.58013
 20
56.499719
 30
0.0
 11
447.58013
 21
56.499719
 31
0.0
  0
LINE
  5
595
330
1F
100
AcDbEntity
  8
002
 62
     3
370
    30
100
AcDbLine
 10
445.58013
 20
56.499719
 30
0.0
 11
445.58013
 21
57.749719
 31
0.0
  0
LINE
  5
596
330
1F
100
AcDbEntity
  8
002
 62
     3
370
    30
100
AcDbLine
 10
423.33013
 20
57.749719
 30
0.0
 11
423.33013
 21
56.499719
 31
0.0
  0
LINE
  5
597
330
1F
100
AcDbEntity
  8
002
 62
     3
370
    30
100
AcDbLine
 10
421.33013
 20
56.499719
 30
0.0
 11
423.33013
 21
56.499719
 31
0.0
  0
LINE
  5
598
330
1F
100
AcDbEntity
  8
002
 62
     3
370
    30
100
AcDbLine
 10
421.33013
 20
56.499719
 30
0.0
 11
421.33013
 21
57.749719
 31
0.0
  0
ARC
  5
599
330
1F
100
AcDbEntity
  8
002
 62
     3
370
    30
100
AcDbCircle
 10
418.39738
 20
66.526719
 30
0.0
 40
1.249962655692173
100
AcDbArc
 50
0.0
 51
75.000671
  0
ARC
  5
59A
330
1F
100
AcDbEntity
  8
002
 62
     3
370
    30
100
AcDbCircle
 10
416.33013
 20
67.727719
 30
0.0
 40
0.6250416986089752
100
AcDbArc
 50
0.0
 51
75.002154
  0
LINE
  5
59B
330
1F
100
AcDbEntity
  8
002
 62
     3
370
    30
100
AcDbLine
 10
414.45513
 20
68.686594
 30
0.0
 11
413.903005
 21
68.686594
 31
0.0
  0
LINE
  5
59C
330
1F
100
AcDbEntity
  8
002
 62
     3
370
    30
100
AcDbLine
 10
413.76763
 20
68.921094
 30
0.0
 11
413.76763
 21
70.328344
 31
0.0
  0
ARC
  5
59D
330
1F
100
AcDbEntity
  8
002
 62
     3
370
    30
100
AcDbCircle
 10
414.647755
 20
69.624719
 30
0.0
 40
0.8801213339648176
100
AcDbArc
 50
147.79279
 51
212.200325
  0
ARC
  5
59E
330
1F
100
AcDbEntity
  8
002
 62
     3
370
    30
100
AcDbCircle
 10
414.03838
 20
68.921094
 30
0.0
 40
0.2707704574450497
100
AcDbArc
 50
119.984282
 51
240.002499
  0
LINE
  5
59F
330
1F
100
AcDbEntity
  8
002
 62
     3
370
    30
100
AcDbLine
 10
413.903005
 20
69.155719
 30
0.0
 11
414.45513
 21
69.155719
 31
0.0
  0
LINE
  5
5A0
330
1F
100
AcDbEntity
  8
002
 62
     3
370
    30
100
AcDbLine
 10
414.45513
 20
70.093844
 30
0.0
 11
413.903005
 21
70.093844
 31
0.0
  0
LINE
  5
5A1
330
1F
100
AcDbEntity
  8
002
 62
     3
370
    30
100
AcDbLine
 10
413.903005
 20
70.562969
 30
0.0
 11
414.45513
 21
70.562969
 31
0.0
  0
ARC
  5
5A2
330
1F
100
AcDbEntity
  8
002
 62
     3
370
    30
100
AcDbCircle
 10
414.03838
 20
70.328344
 30
0.0
 40
0.2707704574450497
100
AcDbArc
 50
119.984282
 51
240.002499
  0
LINE
  5
5A3
330
1F
100
AcDbEntity
  8
002
 62
     3
370
    30
100
AcDbLine
 10
413.903005
 20
77.436594
 30
0.0
 11
414.45513
 21
77.436594
 31
0.0
  0
LINE
  5
5A4
330
1F
100
AcDbEntity
  8
002
 62
     3
370
    30
100
AcDbLine
 10
414.45513
 20
77.905719
 30
0.0
 11
413.903005
 21
77.905719
 31
0.0
  0
ARC
  5
5A5
330
1F
100
AcDbEntity
  8
002
 62
     3
370
    30
100
AcDbCircle
 10
414.03838
 20
77.671094
 30
0.0
 40
0.2707704574450497
100
AcDbArc
 50
119.984282
 51
240.002499
  0
LINE
  5
5A6
330
1F
100
AcDbEntity
  8
002
 62
     3
370
    30
100
AcDbLine
 10
413.76763
 20
77.671094
 30
0.0
 11
413.76763
 21
79.078344
 31
0.0
  0
ARC
  5
5A7
330
1F
100
AcDbEntity
  8
002
 62
     3
370
    30
100
AcDbCircle
 10
414.647755
 20
78.374719
 30
0.0
 40
0.8801213339648176
100
AcDbArc
 50
147.79279
 51
212.200325
  0
LINE
  5
5A8
330
1F
100
AcDbEntity
  8
002
 62
     3
370
    30
100
AcDbLine
 10
413.903005
 20
78.843844
 30
0.0
 11
414.45513
 21
78.843844
 31
0.0
  0
LINE
  5
5A9
330
1F
100
AcDbEntity
  8
002
 62
     3
370
    30
100
AcDbLine
 10
414.45513
 20
79.312969
 30
0.0
 11
413.903005
 21
79.312969
 31
0.0
  0
ARC
  5
5AA
330
1F
100
AcDbEntity
  8
002
 62
     3
370
    30
100
AcDbCircle
 10
414.03838
 20
79.078344
 30
0.0
 40
0.2707704574450497
100
AcDbArc
 50
119.984282
 51
240.002499
  0
LINE
  5
5AB
330
1F
100
AcDbEntity
  8
002
 62
     3
370
    30
100
AcDbLine
 10
413.20513
 20
87.374719
 30
0.0
 11
455.70513
 21
87.374719
 31
0.0
  0
ARC
  5
5AC
330
1F
100
AcDbEntity
  8
002
 62
     3
370
    30
100
AcDbCircle
 10
456.33013
 20
85.768969
 30
0.0
 40
0.62497476199045
100
AcDbArc
 50
180.0
 51
231.080686
  0
ARC
  5
5AD
330
1F
100
AcDbEntity
  8
002
 62
     3
370
    30
100
AcDbCircle
 10
459.45513
 20
85.092469
 30
0.0
 40
3.750139982803977
100
AcDbArc
 50
180.0
 51
233.778298
  0
ARC
  5
5AE
330
1F
100
AcDbEntity
  8
002
 62
     3
370
    30
100
AcDbCircle
 10
460.680005
 20
80.255969
 30
0.0
 40
1.249962655692153
100
AcDbArc
 50
213.787004
 51
255.000671
  0
LINE
  5
5AF
330
1F
100
AcDbEntity
  8
002
 62
     3
370
    30
100
AcDbLine
 10
460.356505
 20
79.048594
 30
0.0
 11
461.70513
 21
78.687219
 31
0.0
  0
LINE
  5
5B0
330
1F
100
AcDbEntity
  8
002
 62
     3
370
    30
100
AcDbLine
 10
461.70513
 20
78.687219
 30
0.0
 11
461.70513
 21
69.312219
 31
0.0
  0
LINE
  5
5B1
330
1F
100
AcDbEntity
  8
002
 62
     3
370
    30
100
AcDbLine
 10
461.70513
 20
69.312219
 30
0.0
 11
460.356505
 21
68.950969
 31
0.0
  0
ARC
  5
5B2
330
1F
100
AcDbEntity
  8
002
 62
     3
370
    30
100
AcDbCircle
 10
460.680005
 20
67.743469
 30
0.0
 40
1.249984012397769
100
AcDbArc
 50
104.997846
 51
146.212996
  0
ARC
  5
5B3
330
1F
100
AcDbEntity
  8
002
 62
     3
370
    30
100
AcDbCircle
 10
460.89988
 20
68.449469
 30
0.0
 40
0.6249878248814491
100
AcDbArc
 50
104.997846
 51
158.468842
  0
CIRCLE
  5
5B4
330
1F
100
AcDbEntity
  8
002
 62
     3
370
    30
100
AcDbCircle
 10
451.33013
 20
73.999719
 30
0.0
 40
10.0
  0
LINE
  5
5B5
330
1F
100
AcDbEntity
  8
002
 62
     3
370
    30
100
AcDbLine
 10
461.95513
 20
74.360594
 30
0.0
 11
462.33013
 21
74.360594
 31
0.0
  0
ARC
  5
5B6
330
1F
100
AcDbEntity
  8
002
 62
     3
370
    30
100
AcDbCircle
 10
462.262505
 20
74.540969
 30
0.0
 40
0.1926350986970145
100
AcDbArc
 50
290.551694
 51
20.551694
  0
LINE
  5
5B7
330
1F
100
AcDbEntity
  8
002
 62
     3
370
    30
100
AcDbLine
 10
462.33013
 20
74.721469
 30
0.0
 11
461.95513
 21
74.721469
 31
0.0
  0
LINE
  5
5B8
330
1F
100
AcDbEntity
  8
002
 62
     3
370
    30
100
AcDbLine
 10
461.95513
 20
74.721469
 30
0.0
 11
461.842255
 21
74.608594
 31
0.0
  0
ARC
  5
5B9
330
1F
100
AcDbEntity
  8
002
 62
     3
370
    30
100
AcDbCircle
 10
462.02263
 20
74.540969
 30
0.0
 40
0.1925912527219205
100
AcDbArc
 50
159.448306
 51
249.483127
  0
ARC
  5
5BA
330
1F
100
AcDbEntity
  8
002
 62
     3
370
    30
100
AcDbCircle
 10
462.41338
 20
73.999719
 30
0.0
 40
0.5832097607207583
100
AcDbArc
 50
141.779327
 51
218.211025
  0
ARC
  5
5BB
330
1F
100
AcDbEntity
  8
002
 62
     3
370
    30
100
AcDbCircle
 10
462.02263
 20
73.458469
 30
0.0
 40
0.1925912527219571
100
AcDbArc
 50
110.503847
 51
200.516873
  0
LINE
  5
5BC
330
1F
100
AcDbEntity
  8
002
 62
     3
370
    30
100
AcDbLine
 10
461.842255
 20
73.390969
 30
0.0
 11
461.95513
 21
73.278094
 31
0.0
  0
LINE
  5
5BD
330
1F
100
AcDbEntity
  8
002
 62
     3
370
    30
100
AcDbLine
 10
461.95513
 20
73.278094
 30
0.0
 11
462.33013
 21
73.278094
 31
0.0
  0
LINE
  5
5BE
330
1F
100
AcDbEntity
  8
002
 62
     3
370
    30
100
AcDbLine
 10
462.33013
 20
73.278094
 30
0.0
 11
462.694255
 21
73.642219
 31
0.0
  0
LINE
  5
5BF
330
1F
100
AcDbEntity
  8
002
 62
     3
370
    30
100
AcDbLine
 10
462.76463
 20
73.712594
 30
0.0
 11
462.76463
 21
74.286969
 31
0.0
  0
ARC
  5
5C0
330
1F
100
AcDbEntity
  8
002
 62
     3
370
    30
100
AcDbCircle
 10
462.78263
 20
74.445594
 30
0.0
 40
0.1250002499997285
100
AcDbArc
 50
225.0
 51
302.005383
  0
LINE
  5
5C1
330
1F
100
AcDbEntity
  8
002
 62
     3
370
    30
100
AcDbLine
 10
462.84888
 20
74.339594
 30
0.0
 11
462.95513
 21
74.405969
 31
0.0
  0
LINE
  5
5C2
330
1F
100
AcDbEntity
  8
002
 62
     3
370
    30
100
AcDbLine
 10
462.95513
 20
74.405969
 30
0.0
 11
463.33013
 21
74.312219
 31
0.0
  0
LINE
  5
5C3
330
1F
100
AcDbEntity
  8
002
 62
     3
370
    30
100
AcDbLine
 10
463.33013
 20
74.312219
 30
0.0
 11
463.33013
 21
73.687219
 31
0.0
  0
LINE
  5
5C4
330
1F
100
AcDbEntity
  8
002
 62
     3
370
    30
100
AcDbLine
 10
463.33013
 20
73.687219
 30
0.0
 11
462.95513
 21
73.593469
 31
0.0
  0
LINE
  5
5C5
330
1F
100
AcDbEntity
  8
002
 62
     3
370
    30
100
AcDbLine
 10
462.95513
 20
73.593469
 30
0.0
 11
462.84888
 21
73.659844
 31
0.0
  0
ARC
  5
5C6
330
1F
100
AcDbEntity
  8
002
 62
     3
370
    30
100
AcDbCircle
 10
462.78263
 20
73.553844
 30
0.0
 40
0.1249811235747011
100
AcDbArc
 50
57.994617
 51
135.0
  0
LINE
  5
5C7
330
1F
100
AcDbEntity
  8
002
 62
     3
370
    30
100
AcDbLine
 10
462.95513
 20
73.687219
 30
0.0
 11
462.95513
 21
74.312219
 31
0.0
  0
LINE
  5
5C8
330
1F
100
AcDbEntity
  8
002
 62
     3
370
    30
100
AcDbLine
 10
462.694255
 20
74.357219
 30
0.0
 11
462.33013
 21
74.721469
 31
0.0
  0
LINE
  5
5C9
330
1F
100
AcDbEntity
  8
002
 62
     3
370
    30
100
AcDbLine
 10
461.883505
 20
74.649969
 30
0.0
 11
461.70513
 21
74.638719
 31
0.0
  0
LINE
  5
5CA
330
1F
100
AcDbEntity
  8
002
 62
     3
370
    30
100
AcDbLine
 10
461.83013
 20
74.535469
 30
0.0
 11
461.83013
 21
73.464094
 31
0.0
  0
LINE
  5
5CB
330
1F
100
AcDbEntity
  8
002
 62
     3
370
    30
100
AcDbLine
 10
461.883505
 20
73.349594
 30
0.0
 11
461.70513
 21
73.360719
 31
0.0
  0
LINE
  5
5CC
330
1F
100
AcDbEntity
  8
002
 62
     3
370
    30
100
AcDbLine
 10
461.95513
 20
73.638969
 30
0.0
 11
462.33013
 21
73.638969
 31
0.0
  0
ARC
  5
5CD
330
1F
100
AcDbEntity
  8
002
 62
     3
370
    30
100
AcDbCircle
 10
461.871755
 20
73.999719
 30
0.0
 40
0.5833852982806795
100
AcDbArc
 50
321.796569
 51
38.213078
  0
ARC
  5
5CE
330
1F
100
AcDbEntity
  8
002
 62
     3
370
    30
100
AcDbCircle
 10
462.262505
 20
73.458469
 30
0.0
 40
0.1927521481722085
100
AcDbArc
 50
339.483127
 51
69.46135
  0
ARC
  5
5CF
330
1F
100
AcDbEntity
  8
002
 62
     3
370
    30
100
AcDbCircle
 10
463.24738
 20
73.999719
 30
0.0
 40
0.1250464913542376
100
AcDbArc
 50
311.433771
 51
48.566229
  0
ARC
  5
5D0
330
1F
100
AcDbEntity
  8
002
 62
     3
370
    30
100
AcDbCircle
 10
461.36188
 20
80.073344
 30
0.0
 40
1.250083397217978
100
AcDbArc
 50
202.68774
 51
255.002154
  0
ARC
  5
5D1
330
1F
100
AcDbEntity
  8
002
 62
     3
370
    30
100
AcDbCircle
 10
446.83013
 20
73.999719
 30
0.0
 40
14.50001270311942
100
AcDbArc
 50
22.682328
 51
51.090339
  0
LINE
  5
5D2
330
1F
100
AcDbEntity
  8
002
 62
     3
370
    30
100
AcDbLine
 10
455.70513
 20
85.092469
 30
0.0
 11
455.70513
 21
89.874719
 31
0.0
  0
ARC
  5
5D3
330
1F
100
AcDbEntity
  8
002
 62
     3
370
    30
100
AcDbCircle
 10
455.08013
 20
89.874719
 30
0.0
 40
0.625
100
AcDbArc
 50
0.0
 51
53.130102
  0
LINE
  5
5D4
330
1F
100
AcDbEntity
  8
002
 62
     3
370
    30
100
AcDbLine
 10
455.45513
 20
90.374719
 30
0.0
 11
413.45513
 21
90.374719
 31
0.0
  0
LINE
  5
5D5
330
1F
100
AcDbEntity
  8
002
 62
     3
370
    30
100
AcDbLine
 10
420.83013
 20
93.874719
 30
0.0
 11
420.83013
 21
92.749719
 31
0.0
  0
LINE
  5
5D6
330
1F
100
AcDbEntity
  8
002
 62
     3
370
    30
100
AcDbLine
 10
448.83013
 20
92.874719
 30
0.0
 11
448.83013
 21
90.374719
 31
0.0
  0
LINE
  5
5D7
330
1F
100
AcDbEntity
  8
002
 62
     3
370
    30
100
AcDbLine
 10
455.08013
 20
92.874719
 30
0.0
 11
448.83013
 21
92.874719
 31
0.0
  0
LINE
  5
5D8
330
1F
100
AcDbEntity
  8
002
 62
     3
370
    30
100
AcDbLine
 10
452.58013
 20
92.874719
 30
0.0
 11
452.58013
 21
90.374719
 31
0.0
  0
LINE
  5
5D9
330
1F
100
AcDbEntity
  8
002
 62
     3
370
    30
100
AcDbLine
 10
455.08013
 20
90.374719
 30
0.0
 11
455.08013
 21
92.874719
 31
0.0
  0
LINE
  5
5DA
330
1F
100
AcDbEntity
  8
002
 62
     3
370
    30
100
AcDbLine
 10
420.83013
 20
92.749719
 30
0.0
 11
420.475505
 21
91.426219
 31
0.0
  0
ARC
  5
5DB
330
1F
100
AcDbEntity
  8
002
 62
     3
370
    30
100
AcDbCircle
 10
419.268005
 20
91.749719
 30
0.0
 40
1.250083397217943
100
AcDbArc
 50
310.518641
 51
345.002154
  0
LINE
  5
5DC
330
1F
100
AcDbEntity
  8
002
 62
     3
370
    30
100
AcDbLine
 10
416.33013
 20
92.874719
 30
0.0
 11
416.33013
 21
90.374719
 31
0.0
  0
ARC
  5
5DD
330
1F
100
AcDbEntity
  8
002
 62
     3
370
    30
100
AcDbCircle
 10
451.33013
 20
73.999719
 30
0.0
 40
10.62509505619246
100
AcDbArc
 50
113.833478
 51
139.209125
  0
LINE
  5
5DE
330
1F
100
AcDbEntity
  8
002
 62
     3
370
    30
100
AcDbLine
 10
447.036755
 20
83.031219
 30
0.0
 11
447.036755
 21
83.718719
 31
0.0
  0
LINE
  5
5DF
330
1F
100
AcDbEntity
  8
002
 62
     3
370
    30
100
AcDbLine
 10
451.95513
 20
76.749719
 30
0.0
 11
451.95513
 21
75.749719
 31
0.0
  0
LINE
  5
5E0
330
1F
100
AcDbEntity
  8
002
 62
     3
370
    30
100
AcDbLine
 10
451.95513
 20
75.749719
 30
0.0
 11
450.70513
 21
75.749719
 31
0.0
  0
LINE
  5
5E1
330
1F
100
AcDbEntity
  8
002
 62
     3
370
    30
100
AcDbLine
 10
450.70513
 20
75.749719
 30
0.0
 11
450.70513
 21
76.749719
 31
0.0
  0
LINE
  5
5E2
330
1F
100
AcDbEntity
  8
002
 62
     3
370
    30
100
AcDbLine
 10
450.70513
 20
76.749719
 30
0.0
 11
451.95513
 21
76.749719
 31
0.0
  0
ARC
  5
5E3
330
1F
100
AcDbEntity
  8
002
 62
     3
370
    30
100
AcDbCircle
 10
451.33013
 20
73.999719
 30
0.0
 40
2.3750840807485
100
AcDbArc
 50
105.25697
 51
74.74303
  0
CIRCLE
  5
5E4
330
1F
100
AcDbEntity
  8
002
 62
     3
370
    30
100
AcDbCircle
 10
451.33013
 20
73.999719
 30
0.0
 40
3.875
  0
ARC
  5
5E5
330
1F
100
AcDbEntity
  8
002
 62
     3
370
    30
100
AcDbCircle
 10
453.70513
 20
60.456469
 30
0.0
 40
3.75
100
AcDbArc
 50
99.946798
 51
180.0
  0
ARC
  5
5E6
330
1F
100
AcDbEntity
  8
002
 62
     3
370
    30
100
AcDbCircle
 10
446.83013
 20
73.999719
 30
0.0
 40
14.49993003108115
100
AcDbArc
 50
284.355141
 51
338.471828
  0
ARC
  5
5E7
330
1F
100
AcDbEntity
  8
002
 62
     3
370
    30
100
AcDbCircle
 10
450.58013
 20
59.346969
 30
0.0
 40
0.625
100
AcDbArc
 50
104.358626
 51
180.0
  0
LINE
  5
5E8
330
1F
100
AcDbEntity
  8
002
 62
     3
370
    30
100
AcDbLine
 10
441.33013
 20
73.999719
 30
0.0
 11
441.33013
 21
63.124719
 31
0.0
  0
ARC
  5
5E9
330
1F
100
AcDbEntity
  8
002
 62
     3
370
    30
100
AcDbCircle
 10
437.53588
 20
64.374719
 30
0.0
 40
1.25
100
AcDbArc
 50
182.062994
 51
270.0
  0
ARC
  5
5EA
330
1F
100
AcDbEntity
  8
002
 62
     3
370
    30
100
AcDbCircle
 10
431.95513
 20
64.374719
 30
0.0
 40
1.25
100
AcDbArc
 50
270.0
 51
0.0
  0
ARC
  5
5EB
330
1F
100
AcDbEntity
  8
002
 62
     3
370
    30
100
AcDbCircle
 10
431.374255
 20
64.374719
 30
0.0
 40
1.25006022354924
100
AcDbArc
 50
270.0
 51
357.937006
  0
LINE
  5
5EC
330
1F
100
AcDbEntity
  8
002
 62
     3
370
    30
100
AcDbLine
 10
433.45513
 20
57.749719
 30
0.0
 11
433.45513
 21
56.499719
 31
0.0
  0
LINE
  5
5ED
330
1F
100
AcDbEntity
  8
002
 62
     3
370
    30
100
AcDbLine
 10
435.45513
 20
56.499719
 30
0.0
 11
433.45513
 21
56.499719
 31
0.0
  0
LINE
  5
5EE
330
1F
100
AcDbEntity
  8
002
 62
     3
370
    30
100
AcDbLine
 10
435.45513
 20
56.499719
 30
0.0
 11
435.45513
 21
57.749719
 31
0.0
  0
LINE
  5
5EF
330
1F
100
AcDbEntity
  8
002
 62
    40
370
    30
100
AcDbLine
 10
461.782755
 20
74.643594
 30
0.0
 11
461.70263
 21
74.563594
 31
0.0
  0
LINE
  5
5F0
330
1F
100
AcDbEntity
  8
002
 62
    40
370
    30
100
AcDbLine
 10
461.70263
 20
73.435969
 30
0.0
 11
461.782755
 21
73.355844
 31
0.0
  0
LINE
  5
5F1
330
1F
100
AcDbEntity
  8
002
  6
CENTER
 62
    40
370
     9
100
AcDbLine
 10
415.70513
 20
93.759719
 30
0.0
 11
415.70513
 21
86.443719
 31
0.0
  0
LINE
  5
5F2
330
1F
100
AcDbEntity
  8
002
  6
CENTER
 62
    40
370
     9
100
AcDbLine
 10
418.21713
 20
86.443719
 30
0.0
 11
418.21713
 21
93.759719
 31
0.0
  0
LINE
  5
5F3
330
1F
100
AcDbEntity
  8
002
  6
CENTER
 62
    40
370
     9
100
AcDbLine
 10
425.08013
 20
93.759719
 30
0.0
 11
425.08013
 21
86.443719
 31
0.0
  0
LINE
  5
5F4
330
1F
100
AcDbEntity
  8
002
  6
CENTER
 62
    40
370
     9
100
AcDbLine
 10
443.83013
 20
86.443719
 30
0.0
 11
443.83013
 21
93.759719
 31
0.0
  0
LINE
  5
5F5
330
1F
100
AcDbEntity
  8
002
  6
CENTER
 62
    40
370
     9
100
AcDbLine
 10
450.693005
 20
86.443719
 30
0.0
 11
450.693005
 21
93.759719
 31
0.0
  0
LINE
  5
5F6
330
1F
100
AcDbEntity
  8
002
  6
CENTER
 62
    40
370
     9
100
AcDbLine
 10
453.20513
 20
93.759719
 30
0.0
 11
453.20513
 21
86.443719
 31
0.0
  0
LINE
  5
5F7
330
1F
100
AcDbEntity
  8
002
  6
CENTER
 62
    40
370
     9
100
AcDbLine
 10
416.948505
 20
69.624719
 30
0.0
 11
413.10563
 21
69.624719
 31
0.0
  0
LINE
  5
5F8
330
1F
100
AcDbEntity
  8
002
  6
CENTER
 62
    40
370
     9
100
AcDbLine
 10
416.948505
 20
78.374719
 30
0.0
 11
413.10563
 21
78.374719
 31
0.0
  0
LINE
  5
5F9
330
1F
100
AcDbEntity
  8
002
  6
CENTER
 62
    40
370
     9
100
AcDbLine
 10
412.576255
 20
73.999719
 30
0.0
 11
464.02013
 21
73.999719
 31
0.0
  0
LINE
  5
5FA
330
1F
100
AcDbEntity
  8
002
  6
CENTER
 62
    40
370
     9
100
AcDbLine
 10
451.33013
 20
63.349969
 30
0.0
 11
451.33013
 21
85.409094
 31
0.0
  0
LINE
  5
5FB
330
1F
100
AcDbEntity
  8
002
  6
CENTER
 62
    40
370
     9
100
AcDbLine
 10
443.95513
 20
64.820719
 30
0.0
 11
443.95513
 21
56.663594
 31
0.0
  0
LINE
  5
5FC
330
1F
100
AcDbEntity
  8
002
  6
DASHED
 62
    40
370
     9
100
AcDbLine
 10
449.08013
 20
62.999719
 30
0.0
 11
449.08013
 21
63.124719
 31
0.0
  0
LINE
  5
5FD
330
1F
100
AcDbEntity
  8
002
  6
DASHED
 62
    40
370
     9
100
AcDbLine
 10
438.83013
 20
62.999719
 30
0.0
 11
438.83013
 21
63.124719
 31
0.0
  0
LINE
  5
5FE
330
1F
100
AcDbEntity
  8
002
  6
CENTER
 62
    40
370
     9
100
AcDbLine
 10
446.58013
 20
55.731969
 30
0.0
 11
446.58013
 21
58.999719
 31
0.0
  0
LINE
  5
5FF
330
1F
100
AcDbEntity
  8
002
  6
CENTER
 62
    40
370
     9
100
AcDbLine
 10
424.95513
 20
56.663594
 30
0.0
 11
424.95513
 21
64.820719
 31
0.0
  0
LINE
  5
600
330
1F
100
AcDbEntity
  8
002
  6
CENTER
 62
    40
370
     9
100
AcDbLine
 10
422.33013
 20
58.999719
 30
0.0
 11
422.33013
 21
55.731969
 31
0.0
  0
LINE
  5
601
330
1F
100
AcDbEntity
  8
002
  6
DASHED
 62
    40
370
     9
100
AcDbLine
 10
430.08013
 20
62.999719
 30
0.0
 11
430.08013
 21
63.124719
 31
0.0
  0
LINE
  5
602
330
1F
100
AcDbEntity
  8
002
  6
DASHED
 62
    40
370
     9
100
AcDbLine
 10
419.83013
 20
62.999719
 30
0.0
 11
419.83013
 21
63.124719
 31
0.0
  0
LINE
  5
603
330
1F
100
AcDbEntity
  8
002
 62
     3
370
    30
100
AcDbLine
 10
447.95513
 20
93.999719
 30
0.0
 11
420.95513
 21
93.999719
 31
0.0
  0
LINE
  5
604
330
1F
100
AcDbEntity
  8
002
 62
     3
370
    30
100
AcDbLine
 10
420.83013
 20
93.874719
 30
0.0
 11
420.95513
 21
93.999719
 31
0.0
  0
LINE
  5
605
330
1F
100
AcDbEntity
  8
002
 62
     3
370
    30
100
AcDbLine
 10
448.08013
 20
93.874719
 30
0.0
 11
447.95513
 21
93.999719
 31
0.0
  0
LINE
  5
606
330
1F
100
AcDbEntity
  8
002
  6
HIDDEN
 62
    40
370
     9
100
AcDbLine
 10
441.14263
 20
62.999719
 30
0.0
 11
441.14263
 21
58.999719
 31
0.0
  0
LINE
  5
607
330
1F
100
AcDbEntity
  8
002
  6
HIDDEN
 62
    40
370
     9
100
AcDbLine
 10
449.08013
 20
62.999719
 30
0.0
 11
438.83013
 21
62.999719
 31
0.0
  0
LINE
  5
608
330
1F
100
AcDbEntity
  8
002
  6
HIDDEN
 62
    40
370
     9
100
AcDbLine
 10
446.76763
 20
58.999719
 30
0.0
 11
446.76763
 21
62.999719
 31
0.0
  0
LINE
  5
609
330
1F
100
AcDbEntity
  8
002
  6
HIDDEN
 62
    40
370
     9
100
AcDbLine
 10
422.14263
 20
62.999719
 30
0.0
 11
422.14263
 21
58.999719
 31
0.0
  0
LINE
  5
60A
330
1F
100
AcDbEntity
  8
002
  6
HIDDEN
 62
    40
370
     9
100
AcDbLine
 10
430.08013
 20
62.999719
 30
0.0
 11
419.83013
 21
62.999719
 31
0.0
  0
LINE
  5
60B
330
1F
100
AcDbEntity
  8
002
  6
HIDDEN
 62
    40
370
     9
100
AcDbLine
 10
427.76763
 20
62.999719
 30
0.0
 11
427.76763
 21
58.999719
 31
0.0
  0
ARC
  5
60C
330
1F
100
AcDbEntity
  8
002
 62
     3
370
    30
100
AcDbCircle
 10
451.33013
 20
73.999719
 30
0.0
 40
2.812571787972693
100
AcDbArc
 50
77.891689
 51
102.108311
  0
ARC
  5
60D
330
1F
100
AcDbEntity
  8
002
 62
     3
370
    30
100
AcDbCircle
 10
451.33013
 20
73.999719
 30
0.0
 40
2.812571787972693
100
AcDbArc
 50
102.839255
 51
77.160745
  0
LINE
  5
60E
330
1F
100
AcDbEntity
  8
002
 62
     3
370
    30
100
AcDbLine
 10
444.78013
 20
57.749719
 30
0.0
 11
444.78013
 21
33.999719
 31
0.0
  0
LINE
  5
60F
330
1F
100
AcDbEntity
  8
002
 62
     3
370
    30
100
AcDbLine
 10
424.13013
 20
33.999719
 30
0.0
 11
424.13013
 21
57.749719
 31
0.0
  0
LINE
  5
610
330
1F
100
AcDbEntity
  8
002
 62
     3
370
    30
100
AcDbLine
 10
424.13013
 20
33.999719
 30
0.0
 11
444.78013
 21
33.999719
 31
0.0
  0
LINE
  5
611
330
1F
100
AcDbEntity
  8
001
 62
     3
370
    30
100
AcDbLine
 10
424.580095
 20
161.898737
 30
0.0
 11
424.605098
 21
161.923737
 31
0.0
  0
LINE
  5
612
330
1F
100
AcDbEntity
  8
001
 62
     3
370
    30
100
AcDbLine
 10
444.305114
 20
161.92375
 30
0.0
 11
444.330117
 21
161.89875
 31
0.0
  0
LINE
  5
613
330
1F
100
AcDbEntity
  8
001
 62
     3
370
    30
100
AcDbLine
 10
432.017585
 20
155.528729
 30
0.0
 11
427.25906
 21
159.63802
 31
0.0
  0
LINE
  5
614
330
1F
100
AcDbEntity
  8
001
 62
     3
370
    30
100
AcDbLine
 10
432.017582
 20
153.877129
 30
0.0
 11
427.388133
 21
157.874954
 31
0.0
  0
LINE
  5
615
330
1F
100
AcDbEntity
  8
001
 62
     3
370
    30
100
AcDbLine
 10
432.017584
 20
157.180296
 30
0.0
 11
429.022107
 21
159.767081
 31
0.0
  0
LINE
  5
616
330
1F
100
AcDbEntity
  8
001
 62
     3
370
    30
100
AcDbLine
 10
436.892653
 20
152.970386
 30
0.0
 11
441.522102
 21
148.972562
 31
0.0
  0
LINE
  5
617
330
1F
100
AcDbEntity
  8
001
 62
     3
370
    30
100
AcDbLine
 10
436.89265
 20
151.318816
 30
0.0
 11
441.651175
 21
147.209526
 31
0.0
  0
LINE
  5
618
330
1F
100
AcDbEntity
  8
001
 62
     3
370
    30
100
AcDbLine
 10
436.892653
 20
149.667229
 30
0.0
 11
439.88813
 21
147.080444
 31
0.0
  0
LINE
  5
619
330
1F
100
AcDbEntity
  8
001
 62
     3
370
    30
100
AcDbLine
 10
438.205098
 20
139.83701
 30
0.0
 11
438.205098
 21
148.533839
 31
0.0
  0
LINE
  5
61A
330
1F
100
AcDbEntity
  8
001
 62
     3
370
    30
100
AcDbLine
 10
436.892644
 20
161.1738
 30
0.0
 11
436.892644
 21
133.673762
 31
0.0
  0
LINE
  5
61B
330
1F
100
AcDbEntity
  8
001
 62
     3
370
    30
100
AcDbLine
 10
432.017587
 20
143.528734
 30
0.0
 11
427.259062
 21
147.638025
 31
0.0
  0
LINE
  5
61C
330
1F
100
AcDbEntity
  8
001
 62
     3
370
    30
100
AcDbLine
 10
432.017589
 20
141.87714
 30
0.0
 11
427.38814
 21
145.874965
 31
0.0
  0
LINE
  5
61D
330
1F
100
AcDbEntity
  8
001
 62
     3
370
    30
100
AcDbLine
 10
432.017583
 20
145.180304
 30
0.0
 11
429.022105
 21
147.76709
 31
0.0
  0
LINE
  5
61E
330
1F
100
AcDbEntity
  8
001
 62
     3
370
    30
100
AcDbLine
 10
436.892648
 20
140.970381
 30
0.0
 11
441.522094
 21
136.97256
 31
0.0
  0
LINE
  5
61F
330
1F
100
AcDbEntity
  8
001
 62
     3
370
    30
100
AcDbLine
 10
438.205098
 20
133.423737
 30
0.0
 11
438.205098
 21
136.533845
 31
0.0
  0
ARC
  5
620
330
1F
100
AcDbEntity
  8
001
 62
     3
370
    30
100
AcDbCircle
 10
440.705117
 20
136.0265
 30
0.0
 40
1.250000314638085
100
AcDbArc
 50
229.187346
 51
49.187266
  0
LINE
  5
621
330
1F
100
AcDbEntity
  8
001
 62
     3
370
    30
100
AcDbLine
 10
436.892654
 20
139.318815
 30
0.0
 11
441.651178
 21
135.209526
 31
0.0
  0
LINE
  5
622
330
1F
100
AcDbEntity
  8
001
 62
     3
370
    30
100
AcDbLine
 10
436.892662
 20
137.667235
 30
0.0
 11
439.888139
 21
135.080449
 31
0.0
  0
LINE
  5
623
330
1F
100
AcDbEntity
  8
001
 62
     3
370
    30
100
AcDbLine
 10
430.705098
 20
133.423737
 30
0.0
 11
430.705098
 21
143.010571
 31
0.0
  0
LINE
  5
624
330
1F
100
AcDbEntity
  8
001
 62
     3
370
    30
100
AcDbLine
 10
436.892644
 20
133.673762
 30
0.0
 11
432.017647
 21
133.673762
 31
0.0
  0
LINE
  5
625
330
1F
100
AcDbEntity
  8
001
 62
     3
370
    30
100
AcDbLine
 10
432.017589
 20
133.673725
 30
0.0
 11
432.017589
 21
161.173762
 31
0.0
  0
LINE
  5
626
330
1F
100
AcDbEntity
  8
001
 62
     3
370
    30
100
AcDbLine
 10
432.64262
 20
135.423765
 30
0.0
 11
432.64262
 21
133.673762
 31
0.0
  0
ARC
  5
627
330
1F
100
AcDbEntity
  8
001
 62
     3
370
    30
100
AcDbCircle
 10
434.45511
 20
135.423761
 30
0.0
 40
1.812500000001724
100
AcDbArc
 50
0.0
 51
179.99996
  0
LINE
  5
628
330
1F
100
AcDbEntity
  8
001
 62
     3
370
    30
100
AcDbLine
 10
436.267613
 20
135.423765
 30
0.0
 11
436.267613
 21
133.673762
 31
0.0
  0
LINE
  5
629
330
1F
100
AcDbEntity
  8
001
 62
     3
370
    30
100
AcDbLine
 10
435.826328
 20
135.423757
 30
0.0
 11
435.140725
 21
134.236262
 31
0.0
  0
LINE
  5
62A
330
1F
100
AcDbEntity
  8
001
 62
     3
370
    30
100
AcDbLine
 10
430.705098
 20
146.313736
 30
0.0
 11
430.705098
 21
155.010566
 31
0.0
  0
LINE
  5
62B
330
1F
100
AcDbEntity
  8
001
 62
     3
370
    30
100
AcDbLine
 10
430.705098
 20
158.313731
 30
0.0
 11
430.705098
 21
161.423737
 31
0.0
  0
LINE
  5
62C
330
1F
100
AcDbEntity
  8
001
 62
     3
370
    30
100
AcDbLine
 10
432.017589
 20
161.173762
 30
0.0
 11
436.892594
 21
161.173762
 31
0.0
  0
LINE
  5
62D
330
1F
100
AcDbEntity
  8
001
 62
     3
370
    30
100
AcDbLine
 10
430.705092
 20
161.423725
 30
0.0
 11
438.205092
 21
161.423725
 31
0.0
  0
ARC
  5
62E
330
1F
100
AcDbEntity
  8
001
 62
     3
370
    30
100
AcDbCircle
 10
434.45511
 20
159.423764
 30
0.0
 40
1.812500000000431
100
AcDbArc
 50
180.0
 51
359.999921
  0
LINE
  5
62F
330
1F
100
AcDbEntity
  8
001
 62
     3
370
    30
100
AcDbLine
 10
436.267613
 20
159.42377
 30
0.0
 11
436.267613
 21
161.173762
 31
0.0
  0
LINE
  5
630
330
1F
100
AcDbEntity
  8
001
 62
     3
370
    30
100
AcDbLine
 10
432.64262
 20
159.42377
 30
0.0
 11
432.64262
 21
161.173762
 31
0.0
  0
LINE
  5
631
330
1F
100
AcDbEntity
  8
001
 62
     3
370
    30
100
AcDbLine
 10
438.205098
 20
151.837005
 30
0.0
 11
438.205098
 21
161.423737
 31
0.0
  0
LINE
  5
632
330
1F
100
AcDbEntity
  8
001
 62
     3
370
    30
100
AcDbLine
 10
433.769515
 20
136.611259
 30
0.0
 11
433.083913
 21
135.42376
 31
0.0
  0
CIRCLE
  5
633
330
1F
100
AcDbEntity
  8
001
 62
     3
370
    30
100
AcDbCircle
 10
434.45511
 20
135.423761
 30
0.0
 40
1.12499975
  0
LINE
  5
634
330
1F
100
AcDbEntity
  8
001
 62
     3
370
    30
100
AcDbLine
 10
435.14072
 20
136.611265
 30
0.0
 11
433.769514
 21
136.611265
 31
0.0
  0
LINE
  5
635
330
1F
100
AcDbEntity
  8
001
 62
     3
370
    30
100
AcDbLine
 10
435.14073
 20
136.611265
 30
0.0
 11
435.826333
 21
135.423765
 31
0.0
  0
LINE
  5
636
330
1F
100
AcDbEntity
  8
001
 62
     3
370
    30
100
AcDbLine
 10
435.14072
 20
134.236262
 30
0.0
 11
433.769514
 21
134.236262
 31
0.0
  0
LINE
  5
637
330
1F
100
AcDbEntity
  8
001
 62
     3
370
    30
100
AcDbLine
 10
433.083914
 20
135.423764
 30
0.0
 11
433.769517
 21
134.236262
 31
0.0
  0
CIRCLE
  5
638
330
1F
100
AcDbEntity
  8
001
 62
     3
370
    30
100
AcDbCircle
 10
434.45511
 20
135.423761
 30
0.0
 40
0.625
  0
CIRCLE
  5
639
330
1F
100
AcDbEntity
  8
001
 62
     3
370
    30
100
AcDbCircle
 10
434.455091
 20
147.423762
 30
0.0
 40
1.81249875
  0
LINE
  5
63A
330
1F
100
AcDbEntity
  8
001
 62
     3
370
    30
100
AcDbLine
 10
433.769515
 20
148.611257
 30
0.0
 11
433.083912
 21
147.423758
 31
0.0
  0
CIRCLE
  5
63B
330
1F
100
AcDbEntity
  8
001
 62
     3
370
    30
100
AcDbCircle
 10
434.45511
 20
147.423762
 30
0.0
 40
1.12499975
  0
CIRCLE
  5
63C
330
1F
100
AcDbEntity
  8
001
 62
     3
370
    30
100
AcDbCircle
 10
434.45511
 20
147.423762
 30
0.0
 40
0.625
  0
LINE
  5
63D
330
1F
100
AcDbEntity
  8
001
 62
     3
370
    30
100
AcDbLine
 10
435.14072
 20
148.611265
 30
0.0
 11
433.769514
 21
148.611265
 31
0.0
  0
LINE
  5
63E
330
1F
100
AcDbEntity
  8
001
 62
     3
370
    30
100
AcDbLine
 10
433.083914
 20
147.423765
 30
0.0
 11
433.769517
 21
146.236267
 31
0.0
  0
LINE
  5
63F
330
1F
100
AcDbEntity
  8
001
 62
     3
370
    30
100
AcDbLine
 10
435.14072
 20
146.23626
 30
0.0
 11
433.769514
 21
146.23626
 31
0.0
  0
LINE
  5
640
330
1F
100
AcDbEntity
  8
001
 62
     3
370
    30
100
AcDbLine
 10
435.826334
 20
147.423767
 30
0.0
 11
435.140728
 21
146.236262
 31
0.0
  0
LINE
  5
641
330
1F
100
AcDbEntity
  8
001
 62
     3
370
    30
100
AcDbLine
 10
435.140724
 20
148.611262
 30
0.0
 11
435.826327
 21
147.423763
 31
0.0
  0
LINE
  5
642
330
1F
100
AcDbEntity
  8
001
 62
     3
370
    30
100
AcDbLine
 10
433.769519
 20
160.611262
 30
0.0
 11
433.083913
 21
159.423764
 31
0.0
  0
CIRCLE
  5
643
330
1F
100
AcDbEntity
  8
001
 62
     3
370
    30
100
AcDbCircle
 10
434.45511
 20
159.423764
 30
0.0
 40
1.12499975
  0
LINE
  5
644
330
1F
100
AcDbEntity
  8
001
 62
     3
370
    30
100
AcDbLine
 10
433.083918
 20
159.423775
 30
0.0
 11
433.769521
 21
158.236274
 31
0.0
  0
LINE
  5
645
330
1F
100
AcDbEntity
  8
001
 62
     3
370
    30
100
AcDbLine
 10
435.14072
 20
160.611262
 30
0.0
 11
433.769514
 21
160.611262
 31
0.0
  0
CIRCLE
  5
646
330
1F
100
AcDbEntity
  8
001
 62
     3
370
    30
100
AcDbCircle
 10
434.45511
 20
159.423764
 30
0.0
 40
0.625
  0
LINE
  5
647
330
1F
100
AcDbEntity
  8
001
 62
     3
370
    30
100
AcDbLine
 10
435.140744
 20
160.611262
 30
0.0
 11
435.826347
 21
159.423769
 31
0.0
  0
LINE
  5
648
330
1F
100
AcDbEntity
  8
001
 62
     3
370
    30
100
AcDbLine
 10
435.826329
 20
159.423769
 30
0.0
 11
435.140723
 21
158.236264
 31
0.0
  0
LINE
  5
649
330
1F
100
AcDbEntity
  8
001
 62
     3
370
    30
100
AcDbLine
 10
435.14072
 20
158.23626
 30
0.0
 11
433.769514
 21
158.23626
 31
0.0
  0
ARC
  5
64A
330
1F
100
AcDbEntity
  8
001
 62
     3
370
    30
100
AcDbCircle
 10
440.705117
 20
148.026497
 30
0.0
 40
1.250000409244314
100
AcDbArc
 50
229.187269
 51
49.187269
  0
LINE
  5
64B
330
1F
100
AcDbEntity
  8
001
 62
    40
370
     9
100
AcDbLine
 10
439.97363
 20
101.499719
 30
0.0
 11
440.70513
 21
100.232724
 31
0.0
  0
LINE
  5
64C
330
1F
100
AcDbEntity
  8
001
 62
     3
370
    30
100
AcDbLine
 10
424.580099
 20
133.548737
 30
0.0
 11
424.580099
 21
161.898737
 31
0.0
  0
LINE
  5
64D
330
1F
100
AcDbEntity
  8
001
 62
     3
370
    30
100
AcDbLine
 10
424.705068
 20
133.423712
 30
0.0
 11
424.580073
 21
133.548725
 31
0.0
  0
LINE
  5
64E
330
1F
100
AcDbEntity
  8
001
 62
     3
370
    30
100
AcDbLine
 10
424.705088
 20
133.423725
 30
0.0
 11
444.205089
 21
133.423725
 31
0.0
  0
LINE
  5
64F
330
1F
100
AcDbEntity
  8
001
 62
     3
370
    30
100
AcDbLine
 10
444.205119
 20
133.42375
 30
0.0
 11
444.330123
 21
133.548762
 31
0.0
  0
LINE
  5
650
330
1F
100
AcDbEntity
  8
001
 62
     3
370
    30
100
AcDbLine
 10
444.330097
 20
133.548737
 30
0.0
 11
444.330097
 21
161.898737
 31
0.0
  0
ARC
  5
651
330
1F
100
AcDbEntity
  8
001
 62
     3
370
    30
100
AcDbCircle
 10
428.205123
 20
146.821034
 30
0.0
 40
1.249999686864986
100
AcDbArc
 50
49.18732
 51
229.187316
  0
ARC
  5
652
330
1F
100
AcDbEntity
  8
001
 62
     3
370
    30
100
AcDbCircle
 10
428.205123
 20
158.821022
 30
0.0
 40
1.250000443715546
100
AcDbArc
 50
49.187309
 51
229.187346
  0
CIRCLE
  5
653
330
1F
100
AcDbEntity
  8
001
 62
     3
370
    30
100
AcDbCircle
 10
434.45511
 20
135.423761
 30
0.0
 40
0.75
  0
CIRCLE
  5
654
330
1F
100
AcDbEntity
  8
001
 62
     3
370
    30
100
AcDbCircle
 10
434.45511
 20
147.423762
 30
0.0
 40
0.75
  0
CIRCLE
  5
655
330
1F
100
AcDbEntity
  8
001
 62
     3
370
    30
100
AcDbCircle
 10
434.45511
 20
159.423764
 30
0.0
 40
0.75
  0
LINE
  5
656
330
1F
100
AcDbEntity
  8
001
 62
     3
370
    30
100
AcDbLine
 10
415.70513
 20
168.173725
 30
0.0
 11
415.70513
 21
161.923725
 31
0.0
  0
LINE
  5
657
330
1F
100
AcDbEntity
  8
001
 62
     3
370
    30
100
AcDbLine
 10
415.70513
 20
161.923725
 30
0.0
 11
453.20513
 21
161.923725
 31
0.0
  0
LINE
  5
658
330
1F
100
AcDbEntity
  8
001
 62
     3
370
    30
100
AcDbLine
 10
415.70513
 20
168.173725
 30
0.0
 11
453.20513
 21
168.173725
 31
0.0
  0
LINE
  5
659
330
1F
100
AcDbEntity
  8
001
 62
     3
370
    30
100
AcDbLine
 10
453.20513
 20
168.173725
 30
0.0
 11
453.20513
 21
161.923725
 31
0.0
  0
LINE
  5
65A
330
1F
100
AcDbEntity
  8
001
 62
    40
370
     9
100
AcDbLine
 10
428.93663
 20
101.499719
 30
0.0
 11
428.20513
 21
100.232724
 31
0.0
  0
LINE
  5
65B
330
1F
100
AcDbEntity
  8
001
 62
     3
370
    30
100
AcDbLine
 10
440.70513
 20
101.499719
 30
0.0
 11
428.20513
 21
101.499719
 31
0.0
  0
LINE
  5
65C
330
1F
100
AcDbEntity
  8
001
 62
     3
370
    30
100
AcDbLine
 10
439.76763
 20
204.63581
 30
0.0
 11
429.14263
 21
204.63581
 31
0.0
  0
LINE
  5
65D
330
1F
100
AcDbEntity
  8
001
 62
     3
370
    30
100
AcDbLine
 10
428.20513
 20
187.13581
 30
0.0
 11
440.70513
 21
187.13581
 31
0.0
  0
LINE
  5
65E
330
1F
100
AcDbEntity
  8
001
 62
     3
370
    30
100
AcDbLine
 10
439.76763
 20
204.63581
 30
0.0
 11
439.76763
 21
187.13581
 31
0.0
  0
LINE
  5
65F
330
1F
100
AcDbEntity
  8
001
 62
     3
370
    30
100
AcDbLine
 10
429.14263
 20
204.63581
 30
0.0
 11
429.14263
 21
187.13581
 31
0.0
  0
LINE
  5
660
330
1F
100
AcDbEntity
  8
001
 62
     3
370
    30
100
AcDbLine
 10
440.70513
 20
168.173725
 30
0.0
 11
440.70513
 21
187.13581
 31
0.0
  0
LINE
  5
661
330
1F
100
AcDbEntity
  8
001
 62
    40
370
     9
100
AcDbLine
 10
439.97363
 20
168.173725
 30
0.0
 11
439.97363
 21
187.13581
 31
0.0
  0
LINE
  5
662
330
1F
100
AcDbEntity
  8
001
 62
     3
370
    30
100
AcDbLine
 10
428.20513
 20
187.13581
 30
0.0
 11
428.20513
 21
168.173725
 31
0.0
  0
LINE
  5
663
330
1F
100
AcDbEntity
  8
001
 62
    40
370
     9
100
AcDbLine
 10
428.93663
 20
187.13581
 30
0.0
 11
428.93663
 21
168.173725
 31
0.0
  0
TEXT
  5
664
330
1F
100
AcDbEntity
  8
002
 62
     3
370
    30
100
AcDbText
 10
414.129046
 20
78.551032
 30
0.0
 40
0.0375
  1
Ｍ８
 41
0.555556
100
AcDbText
  0
TEXT
  5
665
330
1F
100
AcDbEntity
  8
002
 62
     3
370
    30
100
AcDbText
 10
414.154088
 20
69.448407
 30
0.0
 40
0.0375
  1
Ｍ８
 50
180.000005
 41
0.555556
100
AcDbText
  0
LINE
  5
666
330
1F
100
AcDbEntity
  8
002
 62
     3
370
    30
100
AcDbLine
 10
580.591924
 20
148.545107
 30
0.0
 11
581.172799
 21
164.670107
 31
0.0
  0
LINE
  5
667
330
1F
100
AcDbEntity
  8
002
 62
     3
370
    30
100
AcDbLine
 10
581.173549
 20
164.715107
 30
0.0
 11
581.173549
 21
148.590107
 31
0.0
  0
ARC
  5
668
330
1F
100
AcDbEntity
  8
002
 62
     3
370
    30
100
AcDbCircle
 10
579.923549
 20
148.590107
 30
0.0
 40
1.25
100
AcDbArc
 50
270.0
 51
0.0
  0
ARC
  5
669
330
1F
100
AcDbEntity
  8
002
 62
     3
370
    30
100
AcDbCircle
 10
579.342799
 20
148.590107
 30
0.0
 40
1.25
100
AcDbArc
 50
270.0
 51
357.936799
  0
LINE
  5
66A
330
1F
100
AcDbEntity
  8
002
 62
     3
370
    30
100
AcDbLine
 10
583.673549
 20
148.590107
 30
0.0
 11
583.673549
 21
164.715107
 31
0.0
  0
ARC
  5
66B
330
1F
100
AcDbEntity
  8
002
 62
     3
370
    30
100
AcDbCircle
 10
584.923549
 20
164.715107
 30
0.0
 40
1.25
100
AcDbArc
 50
90.0
 51
180.0
  0
LINE
  5
66C
330
1F
100
AcDbEntity
  8
002
 62
     3
370
    30
100
AcDbLine
 10
584.805424
 20
165.228232
 30
0.0
 11
590.518924
 21
165.228232
 31
0.0
  0
ARC
  5
66D
330
1F
100
AcDbEntity
  8
002
 62
     3
370
    30
100
AcDbCircle
 10
599.298549
 20
158.215107
 30
0.0
 40
10.6250661122943
100
AcDbArc
 50
113.833478
 51
139.208684
  0
LINE
  5
66E
330
1F
100
AcDbEntity
  8
002
 62
     3
370
    30
100
AcDbLine
 10
595.005174
 20
167.934107
 30
0.0
 11
595.005174
 21
167.246607
 31
0.0
  0
ARC
  5
66F
330
1F
100
AcDbEntity
  8
002
 62
     3
370
    30
100
AcDbCircle
 10
591.727549
 20
164.748107
 30
0.0
 40
0.6249939249705518
100
AcDbArc
 50
139.201079
 51
207.154388
  0
LINE
  5
670
330
1F
100
AcDbEntity
  8
002
 62
     3
370
    30
100
AcDbLine
 10
592.030299
 20
165.965107
 30
0.0
 11
562.520924
 21
165.965107
 31
0.0
  0
LINE
  5
671
330
1F
100
AcDbEntity
  8
002
 62
     3
370
    30
100
AcDbLine
 10
562.586049
 20
165.586607
 30
0.0
 11
562.100049
 21
165.716857
 31
0.0
  0
ARC
  5
672
330
1F
100
AcDbEntity
  8
002
 62
     3
370
    30
100
AcDbCircle
 10
562.423549
 20
166.924357
 30
0.0
 40
1.25
100
AcDbArc
 50
180.0
 51
255.002154
  0
LINE
  5
673
330
1F
100
AcDbEntity
  8
002
 62
     3
370
    30
100
AcDbLine
 10
561.173549
 20
166.924357
 30
0.0
 11
561.173549
 21
174.090107
 31
0.0
  0
ARC
  5
674
330
1F
100
AcDbEntity
  8
002
 62
     3
370
    30
100
AcDbCircle
 10
561.798549
 20
174.090107
 30
0.0
 40
0.625
100
AcDbArc
 50
126.869898
 51
180.0
  0
LINE
  5
675
330
1F
100
AcDbEntity
  8
002
 62
     3
370
    30
100
AcDbLine
 10
561.423549
 20
174.590107
 30
0.0
 11
603.423549
 21
174.590107
 31
0.0
  0
ARC
  5
676
330
1F
100
AcDbEntity
  8
002
 62
     3
370
    30
100
AcDbCircle
 10
603.048549
 20
174.090107
 30
0.0
 40
0.625
100
AcDbArc
 50
0.0
 51
53.130102
  0
LINE
  5
677
330
1F
100
AcDbEntity
  8
002
 62
     3
370
    30
100
AcDbLine
 10
603.673549
 20
174.090107
 30
0.0
 11
603.673549
 21
169.307857
 31
0.0
  0
ARC
  5
678
330
1F
100
AcDbEntity
  8
002
 62
     3
370
    30
100
AcDbCircle
 10
594.798549
 20
158.215107
 30
0.0
 40
14.49997439868429
100
AcDbArc
 50
284.355141
 51
51.089954
  0
ARC
  5
679
330
1F
100
AcDbEntity
  8
002
 62
     3
370
    30
100
AcDbCircle
 10
601.673549
 20
144.671857
 30
0.0
 40
3.749992760409671
100
AcDbArc
 50
99.946798
 51
180.0
  0
LINE
  5
67A
330
1F
100
AcDbEntity
  8
002
 62
     3
370
    30
100
AcDbLine
 10
597.298549
 20
147.340107
 30
0.0
 11
567.548549
 21
147.340107
 31
0.0
  0
LINE
  5
67B
330
1F
100
AcDbEntity
  8
002
 62
     3
370
    30
100
AcDbLine
 10
566.923549
 20
146.715107
 30
0.0
 11
566.923549
 21
143.215107
 31
0.0
  0
LINE
  5
67C
330
1F
100
AcDbEntity
  8
002
 62
     3
370
    30
100
AcDbLine
 10
564.923549
 20
143.215107
 30
0.0
 11
597.923549
 21
143.215107
 31
0.0
  0
LINE
  5
67D
330
1F
100
AcDbEntity
  8
002
 62
     3
370
    30
100
AcDbLine
 10
597.923549
 20
143.215107
 30
0.0
 11
597.923549
 21
146.715107
 31
0.0
  0
ARC
  5
67E
330
1F
100
AcDbEntity
  8
002
 62
     3
370
    30
100
AcDbCircle
 10
597.298549
 20
146.715107
 30
0.0
 40
0.625
100
AcDbArc
 50
0.0
 51
90.0
  0
ARC
  5
67F
330
1F
100
AcDbEntity
  8
002
 62
     3
370
    30
100
AcDbCircle
 10
598.548549
 20
143.562357
 30
0.0
 40
0.6250241995315056
100
AcDbArc
 50
104.358626
 51
180.0
  0
LINE
  5
680
330
1F
100
AcDbEntity
  8
002
 62
     3
370
    30
100
AcDbLine
 10
589.298549
 20
147.340107
 30
0.0
 11
589.298549
 21
158.215107
 31
0.0
  0
CIRCLE
  5
681
330
1F
100
AcDbEntity
  8
002
 62
     3
370
    30
100
AcDbCircle
 10
599.298549
 20
158.215107
 30
0.0
 40
10.0
  0
CIRCLE
  5
682
330
1F
100
AcDbEntity
  8
002
 62
     3
370
    30
100
AcDbCircle
 10
599.298549
 20
158.215107
 30
0.0
 40
3.875
  0
ARC
  5
683
330
1F
100
AcDbEntity
  8
002
 62
     3
370
    30
100
AcDbCircle
 10
604.298549
 20
169.984357
 30
0.0
 40
0.625
100
AcDbArc
 50
180.0
 51
231.089603
  0
LINE
  5
684
330
1F
100
AcDbEntity
  8
002
 62
     3
370
    30
100
AcDbLine
 10
603.673549
 20
171.590107
 30
0.0
 11
561.173549
 21
171.590107
 31
0.0
  0
LINE
  5
685
330
1F
100
AcDbEntity
  8
002
 62
     3
370
    30
100
AcDbLine
 10
561.798549
 20
174.590107
 30
0.0
 11
561.798549
 21
177.090107
 31
0.0
  0
LINE
  5
686
330
1F
100
AcDbEntity
  8
002
 62
     3
370
    30
100
AcDbLine
 10
561.798549
 20
177.090107
 30
0.0
 11
568.048549
 21
177.090107
 31
0.0
  0
LINE
  5
687
330
1F
100
AcDbEntity
  8
002
 62
     3
370
    30
100
AcDbLine
 10
568.048549
 20
177.090107
 30
0.0
 11
568.048549
 21
174.590107
 31
0.0
  0
LINE
  5
688
330
1F
100
AcDbEntity
  8
002
 62
     3
370
    30
100
AcDbLine
 10
568.048549
 20
174.715107
 30
0.0
 11
571.173549
 21
174.715107
 31
0.0
  0
LINE
  5
689
330
1F
100
AcDbEntity
  8
002
 62
     3
370
    30
100
AcDbLine
 10
571.173549
 20
174.590107
 30
0.0
 11
571.173549
 21
177.090107
 31
0.0
  0
LINE
  5
68A
330
1F
100
AcDbEntity
  8
002
 62
     3
370
    30
100
AcDbLine
 10
571.173549
 20
177.090107
 30
0.0
 11
574.923549
 21
177.090107
 31
0.0
  0
LINE
  5
68B
330
1F
100
AcDbEntity
  8
002
 62
     3
370
    30
100
AcDbLine
 10
574.923549
 20
177.090107
 30
0.0
 11
574.923549
 21
174.590107
 31
0.0
  0
LINE
  5
68C
330
1F
100
AcDbEntity
  8
002
 62
     3
370
    30
100
AcDbLine
 10
574.923549
 20
174.715107
 30
0.0
 11
580.548549
 21
174.715107
 31
0.0
  0
LINE
  5
68D
330
1F
100
AcDbEntity
  8
002
 62
     3
370
    30
100
AcDbLine
 10
580.548549
 20
174.590107
 30
0.0
 11
580.548549
 21
177.090107
 31
0.0
  0
LINE
  5
68E
330
1F
100
AcDbEntity
  8
002
 62
     3
370
    30
100
AcDbLine
 10
580.548549
 20
177.090107
 30
0.0
 11
584.298549
 21
177.090107
 31
0.0
  0
LINE
  5
68F
330
1F
100
AcDbEntity
  8
002
 62
     3
370
    30
100
AcDbLine
 10
584.298549
 20
177.090107
 30
0.0
 11
584.298549
 21
174.590107
 31
0.0
  0
LINE
  5
690
330
1F
100
AcDbEntity
  8
002
 62
     3
370
    30
100
AcDbLine
 10
584.298549
 20
174.715107
 30
0.0
 11
589.923549
 21
174.715107
 31
0.0
  0
LINE
  5
691
330
1F
100
AcDbEntity
  8
002
 62
     3
370
    30
100
AcDbLine
 10
589.923549
 20
174.590107
 30
0.0
 11
589.923549
 21
177.090107
 31
0.0
  0
LINE
  5
692
330
1F
100
AcDbEntity
  8
002
 62
     3
370
    30
100
AcDbLine
 10
589.923549
 20
177.090107
 30
0.0
 11
593.673549
 21
177.090107
 31
0.0
  0
LINE
  5
693
330
1F
100
AcDbEntity
  8
002
 62
     3
370
    30
100
AcDbLine
 10
593.673549
 20
177.090107
 30
0.0
 11
593.673549
 21
174.590107
 31
0.0
  0
LINE
  5
694
330
1F
100
AcDbEntity
  8
002
 62
     3
370
    30
100
AcDbLine
 10
593.673549
 20
174.715107
 30
0.0
 11
596.798549
 21
174.715107
 31
0.0
  0
LINE
  5
695
330
1F
100
AcDbEntity
  8
002
 62
     3
370
    30
100
AcDbLine
 10
596.798549
 20
174.590107
 30
0.0
 11
596.798549
 21
177.090107
 31
0.0
  0
LINE
  5
696
330
1F
100
AcDbEntity
  8
002
 62
     3
370
    30
100
AcDbLine
 10
596.798549
 20
177.090107
 30
0.0
 11
603.048549
 21
177.090107
 31
0.0
  0
LINE
  5
697
330
1F
100
AcDbEntity
  8
002
 62
     3
370
    30
100
AcDbLine
 10
603.048549
 20
177.090107
 30
0.0
 11
603.048549
 21
174.590107
 31
0.0
  0
LINE
  5
698
330
1F
100
AcDbEntity
  8
002
 62
     3
370
    30
100
AcDbLine
 10
596.048549
 20
176.965107
 30
0.0
 11
596.048549
 21
178.090107
 31
0.0
  0
LINE
  5
699
330
1F
100
AcDbEntity
  8
002
 62
     3
370
    30
100
AcDbLine
 10
596.048549
 20
178.090107
 30
0.0
 11
595.923549
 21
178.215107
 31
0.0
  0
LINE
  5
69A
330
1F
100
AcDbEntity
  8
002
 62
     3
370
    30
100
AcDbLine
 10
596.048549
 20
178.215107
 30
0.0
 11
568.798549
 21
178.215107
 31
0.0
  0
LINE
  5
69B
330
1F
100
AcDbEntity
  8
002
 62
     3
370
    30
100
AcDbLine
 10
568.798549
 20
178.215107
 30
0.0
 11
568.798549
 21
179.465107
 31
0.0
  0
LINE
  5
69C
330
1F
100
AcDbEntity
  8
002
 62
     3
370
    30
100
AcDbLine
 10
568.798549
 20
179.465107
 30
0.0
 11
596.048549
 21
179.465107
 31
0.0
  0
LINE
  5
69D
330
1F
100
AcDbEntity
  8
002
 62
     3
370
    30
100
AcDbLine
 10
596.048549
 20
179.465107
 30
0.0
 11
596.048549
 21
178.215107
 31
0.0
  0
LINE
  5
69E
330
1F
100
AcDbEntity
  8
002
 62
     3
370
    30
100
AcDbLine
 10
572.849924
 20
179.465107
 30
0.0
 11
572.849924
 21
180.715107
 31
0.0
  0
LINE
  5
69F
330
1F
100
AcDbEntity
  8
002
 62
     3
370
    30
100
AcDbLine
 10
574.849924
 20
180.715107
 30
0.0
 11
574.849924
 21
179.465107
 31
0.0
  0
LINE
  5
6A0
330
1F
100
AcDbEntity
  8
002
 62
     3
370
    30
100
AcDbLine
 10
574.849924
 20
180.715107
 30
0.0
 11
572.849924
 21
180.715107
 31
0.0
  0
LINE
  5
6A1
330
1F
100
AcDbEntity
  8
002
 62
     3
370
    30
100
AcDbLine
 10
568.923549
 20
178.215107
 30
0.0
 11
568.798549
 21
178.090107
 31
0.0
  0
LINE
  5
6A2
330
1F
100
AcDbEntity
  8
002
 62
     3
370
    30
100
AcDbLine
 10
568.798549
 20
178.090107
 30
0.0
 11
568.798549
 21
176.965107
 31
0.0
  0
LINE
  5
6A3
330
1F
100
AcDbEntity
  8
002
 62
     3
370
    30
100
AcDbLine
 10
568.798549
 20
176.965107
 30
0.0
 11
568.443924
 21
175.641607
 31
0.0
  0
ARC
  5
6A4
330
1F
100
AcDbEntity
  8
002
 62
     3
370
    30
100
AcDbCircle
 10
567.236549
 20
175.965107
 30
0.0
 40
1.249927622904639
100
AcDbArc
 50
310.514285
 51
345.000671
  0
LINE
  5
6A5
330
1F
100
AcDbEntity
  8
002
 62
     3
370
    30
100
AcDbLine
 10
564.298549
 20
177.090107
 30
0.0
 11
564.298549
 21
174.590107
 31
0.0
  0
LINE
  5
6A6
330
1F
100
AcDbEntity
  8
002
 62
     3
370
    30
100
AcDbLine
 10
596.048549
 20
176.965107
 30
0.0
 11
596.403174
 21
175.641607
 31
0.0
  0
ARC
  5
6A7
330
1F
100
AcDbEntity
  8
002
 62
     3
370
    30
100
AcDbCircle
 10
597.610549
 20
175.965107
 30
0.0
 40
1.249962655692118
100
AcDbArc
 50
194.999329
 51
229.485715
  0
LINE
  5
6A8
330
1F
100
AcDbEntity
  8
002
 62
     3
370
    30
100
AcDbLine
 10
600.548549
 20
177.090107
 30
0.0
 11
600.548549
 21
174.590107
 31
0.0
  0
ARC
  5
6A9
330
1F
100
AcDbEntity
  8
002
 62
     3
370
    30
100
AcDbCircle
 10
607.423549
 20
169.307857
 30
0.0
 40
3.75
100
AcDbArc
 50
180.0
 51
233.779839
  0
ARC
  5
6AA
330
1F
100
AcDbEntity
  8
002
 62
     3
370
    30
100
AcDbCircle
 10
609.330424
 20
164.288732
 30
0.0
 40
1.250087359447313
100
AcDbArc
 50
202.68553
 51
255.002154
  0
LINE
  5
6AB
330
1F
100
AcDbEntity
  8
002
 62
     3
370
    30
100
AcDbLine
 10
609.006924
 20
163.081232
 30
0.0
 11
609.673549
 21
162.902607
 31
0.0
  0
LINE
  5
6AC
330
1F
100
AcDbEntity
  8
002
 62
     3
370
    30
100
AcDbLine
 10
609.673549
 20
162.902607
 30
0.0
 11
609.673549
 21
153.527607
 31
0.0
  0
LINE
  5
6AD
330
1F
100
AcDbEntity
  8
002
 62
     3
370
    30
100
AcDbLine
 10
609.673549
 20
153.527607
 30
0.0
 11
609.006924
 21
153.348982
 31
0.0
  0
ARC
  5
6AE
330
1F
100
AcDbEntity
  8
002
 62
     3
370
    30
100
AcDbCircle
 10
609.330424
 20
152.141607
 30
0.0
 40
1.249962655692138
100
AcDbArc
 50
104.999329
 51
157.319756
  0
ARC
  5
6AF
330
1F
100
AcDbEntity
  8
002
 62
     3
370
    30
100
AcDbCircle
 10
609.808674
 20
156.354357
 30
0.0
 40
0.6249209575018166
100
AcDbArc
 50
105.000812
 51
172.93468
  0
LINE
  5
6B0
330
1F
100
AcDbEntity
  8
002
 62
     3
370
    30
100
AcDbLine
 10
609.646924
 20
156.957982
 30
0.0
 11
609.673549
 21
156.965107
 31
0.0
  0
LINE
  5
6B1
330
1F
100
AcDbEntity
  8
002
 62
     3
370
    30
100
AcDbLine
 10
609.923549
 20
157.493482
 30
0.0
 11
610.298549
 21
157.493482
 31
0.0
  0
LINE
  5
6B2
330
1F
100
AcDbEntity
  8
002
 62
     3
370
    30
100
AcDbLine
 10
610.298549
 20
157.493482
 30
0.0
 11
610.662799
 21
157.857607
 31
0.0
  0
ARC
  5
6B3
330
1F
100
AcDbEntity
  8
002
 62
     3
370
    30
100
AcDbCircle
 10
610.751174
 20
157.769232
 30
0.0
 40
0.1250002499997285
100
AcDbArc
 50
57.994617
 51
135.0
  0
LINE
  5
6B4
330
1F
100
AcDbEntity
  8
002
 62
     3
370
    30
100
AcDbLine
 10
610.817424
 20
157.875232
 30
0.0
 11
610.923549
 21
157.808857
 31
0.0
  0
LINE
  5
6B5
330
1F
100
AcDbEntity
  8
002
 62
     3
370
    30
100
AcDbLine
 10
610.923549
 20
157.808857
 30
0.0
 11
611.298549
 21
157.902607
 31
0.0
  0
LINE
  5
6B6
330
1F
100
AcDbEntity
  8
002
 62
     3
370
    30
100
AcDbLine
 10
611.298549
 20
157.902607
 30
0.0
 11
611.298549
 21
158.527607
 31
0.0
  0
LINE
  5
6B7
330
1F
100
AcDbEntity
  8
002
 62
     3
370
    30
100
AcDbLine
 10
611.298549
 20
158.527607
 30
0.0
 11
610.923549
 21
158.621357
 31
0.0
  0
LINE
  5
6B8
330
1F
100
AcDbEntity
  8
002
 62
     3
370
    30
100
AcDbLine
 10
610.923549
 20
158.621357
 30
0.0
 11
610.817424
 21
158.554982
 31
0.0
  0
ARC
  5
6B9
330
1F
100
AcDbEntity
  8
002
 62
     3
370
    30
100
AcDbCircle
 10
610.751174
 20
158.660982
 30
0.0
 40
0.124981123574681
100
AcDbArc
 50
225.0
 51
302.005383
  0
LINE
  5
6BA
330
1F
100
AcDbEntity
  8
002
 62
     3
370
    30
100
AcDbLine
 10
610.662799
 20
158.572607
 30
0.0
 11
610.298549
 21
158.936857
 31
0.0
  0
LINE
  5
6BB
330
1F
100
AcDbEntity
  8
002
 62
     3
370
    30
100
AcDbLine
 10
610.298549
 20
158.936857
 30
0.0
 11
609.923549
 21
158.936857
 31
0.0
  0
LINE
  5
6BC
330
1F
100
AcDbEntity
  8
002
 62
     3
370
    30
100
AcDbLine
 10
609.923549
 20
158.936857
 30
0.0
 11
609.810674
 21
158.823982
 31
0.0
  0
LINE
  5
6BD
330
1F
100
AcDbEntity
  8
002
 62
     3
370
    30
100
AcDbLine
 10
609.852049
 20
158.865357
 30
0.0
 11
609.673549
 21
158.854107
 31
0.0
  0
LINE
  5
6BE
330
1F
100
AcDbEntity
  8
002
 62
     3
370
    30
100
AcDbLine
 10
609.798549
 20
158.750857
 30
0.0
 11
609.798549
 21
157.679482
 31
0.0
  0
ARC
  5
6BF
330
1F
100
AcDbEntity
  8
002
 62
     3
370
    30
100
AcDbCircle
 10
609.991174
 20
157.673857
 30
0.0
 40
0.1927521481722085
100
AcDbArc
 50
110.53865
 51
200.503847
  0
LINE
  5
6C0
330
1F
100
AcDbEntity
  8
002
 62
     3
370
    30
100
AcDbLine
 10
609.923549
 20
157.854357
 30
0.0
 11
610.298549
 21
157.854357
 31
0.0
  0
ARC
  5
6C1
330
1F
100
AcDbEntity
  8
002
 62
     3
370
    30
100
AcDbCircle
 10
610.230924
 20
157.673857
 30
0.0
 40
0.1927083288288857
100
AcDbArc
 50
339.496153
 51
69.46135
  0
LINE
  5
6C2
330
1F
100
AcDbEntity
  8
002
 62
     3
370
    30
100
AcDbLine
 10
610.733049
 20
157.927982
 30
0.0
 11
610.733049
 21
158.502357
 31
0.0
  0
LINE
  5
6C3
330
1F
100
AcDbEntity
  8
002
 62
     3
370
    30
100
AcDbLine
 10
610.923549
 20
158.527607
 30
0.0
 11
610.923549
 21
157.902607
 31
0.0
  0
ARC
  5
6C4
330
1F
100
AcDbEntity
  8
002
 62
     3
370
    30
100
AcDbCircle
 10
611.215924
 20
158.215107
 30
0.0
 40
0.1249638072603472
100
AcDbArc
 50
311.390802
 51
48.609198
  0
ARC
  5
6C5
330
1F
100
AcDbEntity
  8
002
 62
     3
370
    30
100
AcDbCircle
 10
609.840174
 20
158.215107
 30
0.0
 40
0.5833079830800667
100
AcDbArc
 50
321.796569
 51
38.213078
  0
ARC
  5
6C6
330
1F
100
AcDbEntity
  8
002
 62
     3
370
    30
100
AcDbCircle
 10
610.381924
 20
158.215107
 30
0.0
 40
0.5833852982806795
100
AcDbArc
 50
141.786922
 51
218.203431
  0
LINE
  5
6C7
330
1F
100
AcDbEntity
  8
002
 62
     3
370
    30
100
AcDbLine
 10
609.923549
 20
158.575982
 30
0.0
 11
610.298549
 21
158.575982
 31
0.0
  0
ARC
  5
6C8
330
1F
100
AcDbEntity
  8
002
 62
     3
370
    30
100
AcDbCircle
 10
610.230924
 20
158.756357
 30
0.0
 40
0.1926350986969978
100
AcDbArc
 50
290.551694
 51
20.53865
  0
ARC
  5
6C9
330
1F
100
AcDbEntity
  8
002
 62
     3
370
    30
100
AcDbCircle
 10
609.991174
 20
158.756357
 30
0.0
 40
0.1927521481721453
100
AcDbArc
 50
159.46135
 51
249.448306
  0
LINE
  5
6CA
330
1F
100
AcDbEntity
  8
002
 62
     3
370
    30
100
AcDbLine
 10
609.673549
 20
159.465107
 30
0.0
 11
609.646924
 21
159.472232
 31
0.0
  0
ARC
  5
6CB
330
1F
100
AcDbEntity
  8
002
 62
     3
370
    30
100
AcDbCircle
 10
609.808674
 20
160.075982
 30
0.0
 40
0.6249958624862472
100
AcDbArc
 50
187.06532
 51
255.002154
  0
LINE
  5
6CC
330
1F
100
AcDbEntity
  8
002
 62
     3
370
    30
100
AcDbLine
 10
609.673549
 20
157.576107
 30
0.0
 11
609.852049
 21
157.564982
 31
0.0
  0
LINE
  5
6CD
330
1F
100
AcDbEntity
  8
002
 62
     3
370
    30
100
AcDbLine
 10
609.810674
 20
157.606357
 30
0.0
 11
609.923549
 21
157.493482
 31
0.0
  0
ARC
  5
6CE
330
1F
100
AcDbEntity
  8
002
 62
     3
370
    30
100
AcDbCircle
 10
585.504299
 20
148.590107
 30
0.0
 40
1.249935304575851
100
AcDbArc
 50
182.063201
 51
270.0
  0
LINE
  5
6CF
330
1F
100
AcDbEntity
  8
002
 62
     3
370
    30
100
AcDbLine
 10
584.255174
 20
148.545107
 30
0.0
 11
583.674424
 21
164.670107
 31
0.0
  0
LINE
  5
6D0
330
1F
100
AcDbEntity
  8
002
 62
     3
370
    30
100
AcDbLine
 10
579.961424
 20
165.228232
 30
0.0
 11
569.490799
 21
165.228232
 31
0.0
  0
LINE
  5
6D1
330
1F
100
AcDbEntity
  8
002
 62
     3
370
    30
100
AcDbLine
 10
567.615799
 20
163.353232
 30
0.0
 11
567.615799
 21
152.590107
 31
0.0
  0
LINE
  5
6D2
330
1F
100
AcDbEntity
  8
002
 62
     3
370
    30
100
AcDbLine
 10
566.689299
 20
151.949482
 30
0.0
 11
564.298549
 21
152.590107
 31
0.0
  0
LINE
  5
6D3
330
1F
100
AcDbEntity
  8
002
 62
     3
370
    30
100
AcDbLine
 10
564.298549
 20
152.590107
 30
0.0
 11
564.298549
 21
164.215107
 31
0.0
  0
LINE
  5
6D4
330
1F
100
AcDbEntity
  8
002
 62
     3
370
    30
100
AcDbLine
 10
564.298549
 20
164.215107
 30
0.0
 11
563.923549
 21
164.215107
 31
0.0
  0
LINE
  5
6D5
330
1F
100
AcDbEntity
  8
002
 62
     3
370
    30
100
AcDbLine
 10
564.298549
 20
163.840107
 30
0.0
 11
562.673549
 21
163.840107
 31
0.0
  0
LINE
  5
6D6
330
1F
100
AcDbEntity
  8
002
 62
     3
370
    30
100
AcDbLine
 10
562.423549
 20
163.590107
 30
0.0
 11
562.423549
 21
152.840107
 31
0.0
  0
LINE
  5
6D7
330
1F
100
AcDbEntity
  8
002
 62
     3
370
    30
100
AcDbLine
 10
562.423549
 20
152.901982
 30
0.0
 11
561.871424
 21
152.901982
 31
0.0
  0
ARC
  5
6D8
330
1F
100
AcDbEntity
  8
002
 62
     3
370
    30
100
AcDbCircle
 10
562.006924
 20
153.136482
 30
0.0
 40
0.2709412124889916
100
AcDbArc
 50
120.007178
 51
239.979597
  0
ARC
  5
6D9
330
1F
100
AcDbEntity
  8
002
 62
     3
370
    30
100
AcDbCircle
 10
562.616174
 20
153.840107
 30
0.0
 40
0.8801879504542893
100
AcDbArc
 50
147.79279
 51
212.200325
  0
LINE
  5
6DA
330
1F
100
AcDbEntity
  8
002
 62
     3
370
    30
100
AcDbLine
 10
561.871424
 20
154.309232
 30
0.0
 11
562.423549
 21
154.309232
 31
0.0
  0
LINE
  5
6DB
330
1F
100
AcDbEntity
  8
002
 62
     3
370
    30
100
AcDbLine
 10
562.423549
 20
154.778357
 30
0.0
 11
561.871424
 21
154.778357
 31
0.0
  0
LINE
  5
6DC
330
1F
100
AcDbEntity
  8
002
 62
     3
370
    30
100
AcDbLine
 10
561.736049
 20
154.543732
 30
0.0
 11
561.736049
 21
153.136482
 31
0.0
  0
LINE
  5
6DD
330
1F
100
AcDbEntity
  8
002
 62
     3
370
    30
100
AcDbLine
 10
561.871424
 20
153.371107
 30
0.0
 11
562.423549
 21
153.371107
 31
0.0
  0
LINE
  5
6DE
330
1F
100
AcDbEntity
  8
002
 62
     3
370
    30
100
AcDbLine
 10
562.673549
 20
152.590107
 30
0.0
 11
564.298549
 21
152.590107
 31
0.0
  0
ARC
  5
6DF
330
1F
100
AcDbEntity
  8
002
 62
     3
370
    30
100
AcDbCircle
 10
564.298549
 20
151.943107
 30
0.0
 40
0.625
100
AcDbArc
 50
0.0
 51
75.002154
  0
LINE
  5
6E0
330
1F
100
AcDbEntity
  8
002
 62
     3
370
    30
100
AcDbLine
 10
564.923549
 20
151.943107
 30
0.0
 11
564.923549
 21
143.215107
 31
0.0
  0
ARC
  5
6E1
330
1F
100
AcDbEntity
  8
002
 62
     3
370
    30
100
AcDbCircle
 10
567.548549
 20
146.715107
 30
0.0
 40
0.625
100
AcDbArc
 50
90.0
 51
180.0
  0
ARC
  5
6E2
330
1F
100
AcDbEntity
  8
002
 62
     3
370
    30
100
AcDbCircle
 10
566.365799
 20
150.742107
 30
0.0
 40
1.25
100
AcDbArc
 50
0.0
 51
75.000671
  0
ARC
  5
6E3
330
1F
100
AcDbEntity
  8
002
 62
     3
370
    30
100
AcDbCircle
 10
562.673549
 20
152.840107
 30
0.0
 40
0.25
100
AcDbArc
 50
180.0
 51
270.0
  0
ARC
  5
6E4
330
1F
100
AcDbEntity
  8
002
 62
     3
370
    30
100
AcDbCircle
 10
562.006924
 20
154.543732
 30
0.0
 40
0.270941212488967
100
AcDbArc
 50
120.007178
 51
239.979597
  0
LINE
  5
6E5
330
1F
100
AcDbEntity
  8
002
 62
     3
370
    30
100
AcDbLine
 10
561.871424
 20
161.651982
 30
0.0
 11
562.423549
 21
161.651982
 31
0.0
  0
LINE
  5
6E6
330
1F
100
AcDbEntity
  8
002
 62
     3
370
    30
100
AcDbLine
 10
562.423549
 20
162.121107
 30
0.0
 11
561.871424
 21
162.121107
 31
0.0
  0
ARC
  5
6E7
330
1F
100
AcDbEntity
  8
002
 62
     3
370
    30
100
AcDbCircle
 10
562.616174
 20
162.590107
 30
0.0
 40
0.8801879504542893
100
AcDbArc
 50
147.79279
 51
212.200325
  0
LINE
  5
6E8
330
1F
100
AcDbEntity
  8
002
 62
     3
370
    30
100
AcDbLine
 10
561.871424
 20
163.059232
 30
0.0
 11
562.423549
 21
163.059232
 31
0.0
  0
LINE
  5
6E9
330
1F
100
AcDbEntity
  8
002
 62
     3
370
    30
100
AcDbLine
 10
562.423549
 20
163.528357
 30
0.0
 11
561.871424
 21
163.528357
 31
0.0
  0
LINE
  5
6EA
330
1F
100
AcDbEntity
  8
002
 62
     3
370
    30
100
AcDbLine
 10
561.736049
 20
163.293732
 30
0.0
 11
561.736049
 21
161.886482
 31
0.0
  0
ARC
  5
6EB
330
1F
100
AcDbEntity
  8
002
 62
     3
370
    30
100
AcDbCircle
 10
562.006924
 20
161.886482
 30
0.0
 40
0.2709412124889916
100
AcDbArc
 50
120.007178
 51
239.979597
  0
ARC
  5
6EC
330
1F
100
AcDbEntity
  8
002
 62
     3
370
    30
100
AcDbCircle
 10
562.006924
 20
163.293732
 30
0.0
 40
0.270941212488967
100
AcDbArc
 50
120.007178
 51
239.979597
  0
ARC
  5
6ED
330
1F
100
AcDbEntity
  8
002
 62
     3
370
    30
100
AcDbCircle
 10
562.673549
 20
163.590107
 30
0.0
 40
0.25
100
AcDbArc
 50
90.0
 51
180.0
  0
ARC
  5
6EE
330
1F
100
AcDbEntity
  8
002
 62
     3
370
    30
100
AcDbCircle
 10
562.100799
 20
163.775607
 30
0.0
 40
1.874987416624375
100
AcDbArc
 50
13.55635
 51
75.000177
  0
ARC
  5
6EF
330
1F
100
AcDbEntity
  8
002
 62
     3
370
    30
100
AcDbCircle
 10
569.490799
 20
163.353232
 30
0.0
 40
1.875
100
AcDbArc
 50
90.0
 51
180.0
  0
ARC
  5
6F0
330
1F
100
AcDbEntity
  8
002
 62
     3
370
    30
100
AcDbCircle
 10
579.923549
 20
164.715107
 30
0.0
 40
1.25
100
AcDbArc
 50
0.0
 51
90.0
  0
ARC
  5
6F1
330
1F
100
AcDbEntity
  8
002
 62
     3
370
    30
100
AcDbCircle
 10
584.923549
 20
148.590107
 30
0.0
 40
1.25
100
AcDbArc
 50
180.0
 51
270.0
  0
LINE
  5
6F2
330
1F
100
AcDbEntity
  8
002
 62
     3
370
    30
100
AcDbLine
 10
589.997174
 20
179.465107
 30
0.0
 11
589.997174
 21
180.715107
 31
0.0
  0
LINE
  5
6F3
330
1F
100
AcDbEntity
  8
002
 62
     3
370
    30
100
AcDbLine
 10
591.997174
 20
180.715107
 30
0.0
 11
591.997174
 21
179.465107
 31
0.0
  0
LINE
  5
6F4
330
1F
100
AcDbEntity
  8
002
 62
     3
370
    30
100
AcDbLine
 10
591.997174
 20
180.715107
 30
0.0
 11
589.997174
 21
180.715107
 31
0.0
  0
LINE
  5
6F5
330
1F
100
AcDbEntity
  8
002
 62
    40
370
    30
100
AcDbLine
 10
609.671174
 20
158.778982
 30
0.0
 11
609.751174
 21
158.858982
 31
0.0
  0
LINE
  5
6F6
330
1F
100
AcDbEntity
  8
002
 62
    40
370
    30
100
AcDbLine
 10
609.671174
 20
157.651357
 30
0.0
 11
609.751174
 21
157.571232
 31
0.0
  0
LINE
  5
6F7
330
1F
100
AcDbEntity
  8
002
  6
CENTER
 62
    40
370
     9
100
AcDbLine
 10
573.849924
 20
178.215107
 30
0.0
 11
573.849924
 21
181.482982
 31
0.0
  0
LINE
  5
6F8
330
1F
100
AcDbEntity
  8
002
  6
CENTER
 62
    40
370
     9
100
AcDbLine
 10
590.997174
 20
181.482982
 30
0.0
 11
590.997174
 21
178.215107
 31
0.0
  0
LINE
  5
6F9
330
1F
100
AcDbEntity
  8
002
  6
CENTER
 62
    40
370
     9
100
AcDbLine
 10
563.673549
 20
170.659107
 30
0.0
 11
563.673549
 21
177.975107
 31
0.0
  0
LINE
  5
6FA
330
1F
100
AcDbEntity
  8
002
  6
CENTER
 62
    40
370
     9
100
AcDbLine
 10
566.185549
 20
177.975107
 30
0.0
 11
566.185549
 21
170.659107
 31
0.0
  0
LINE
  5
6FB
330
1F
100
AcDbEntity
  8
002
  6
CENTER
 62
    40
370
     9
100
AcDbLine
 10
573.048549
 20
170.659107
 30
0.0
 11
573.048549
 21
177.975107
 31
0.0
  0
LINE
  5
6FC
330
1F
100
AcDbEntity
  8
002
  6
CENTER
 62
    40
370
     9
100
AcDbLine
 10
591.798549
 20
177.975107
 30
0.0
 11
591.798549
 21
170.659107
 31
0.0
  0
LINE
  5
6FD
330
1F
100
AcDbEntity
  8
002
  6
CENTER
 62
    40
370
     9
100
AcDbLine
 10
598.661549
 20
170.659107
 30
0.0
 11
598.661549
 21
177.975107
 31
0.0
  0
LINE
  5
6FE
330
1F
100
AcDbEntity
  8
002
  6
CENTER
 62
    40
370
     9
100
AcDbLine
 10
601.173549
 20
177.975107
 30
0.0
 11
601.173549
 21
170.659107
 31
0.0
  0
LINE
  5
6FF
330
1F
100
AcDbEntity
  8
002
  6
CENTER
 62
    40
370
     9
100
AcDbLine
 10
599.298549
 20
146.040357
 30
0.0
 11
599.298549
 21
169.624482
 31
0.0
  0
LINE
  5
700
330
1F
100
AcDbEntity
  8
002
  6
CENTER
 62
    40
370
     9
100
AcDbLine
 10
613.036799
 20
158.215107
 30
0.0
 11
560.239424
 21
158.215107
 31
0.0
  0
LINE
  5
701
330
1F
100
AcDbEntity
  8
002
  6
CENTER
 62
    40
370
     9
100
AcDbLine
 10
561.074049
 20
153.840107
 30
0.0
 11
564.916924
 21
153.840107
 31
0.0
  0
LINE
  5
702
330
1F
100
AcDbEntity
  8
002
  6
CENTER
 62
    40
370
     9
100
AcDbLine
 10
564.916924
 20
162.590107
 30
0.0
 11
561.074049
 21
162.590107
 31
0.0
  0
LINE
  5
703
330
1F
100
AcDbEntity
  8
002
  6
CENTER
 62
    40
370
     9
100
AcDbLine
 10
572.923549
 20
140.878982
 30
0.0
 11
572.923549
 21
149.036107
 31
0.0
  0
LINE
  5
704
330
1F
100
AcDbEntity
  8
002
  6
DASHED
 62
    40
370
     9
100
AcDbLine
 10
567.798549
 20
147.340107
 30
0.0
 11
567.798549
 21
147.215107
 31
0.0
  0
LINE
  5
705
330
1F
100
AcDbEntity
  8
002
  6
DASHED
 62
    40
370
     9
100
AcDbLine
 10
578.048549
 20
147.215107
 30
0.0
 11
578.048549
 21
147.340107
 31
0.0
  0
LINE
  5
706
330
1F
100
AcDbEntity
  8
002
  6
CENTER
 62
    40
370
     9
100
AcDbLine
 10
591.923549
 20
149.036107
 30
0.0
 11
591.923549
 21
140.878982
 31
0.0
  0
LINE
  5
707
330
1F
100
AcDbEntity
  8
002
  6
DASHED
 62
    40
370
     9
100
AcDbLine
 10
597.048549
 20
147.215107
 30
0.0
 11
597.048549
 21
147.340107
 31
0.0
  0
LINE
  5
708
330
1F
100
AcDbEntity
  8
002
  6
DASHED
 62
    40
370
     9
100
AcDbLine
 10
586.798549
 20
147.215107
 30
0.0
 11
586.798549
 21
147.340107
 31
0.0
  0
LINE
  5
709
330
1F
100
AcDbEntity
  8
002
  6
HIDDEN
 62
    40
370
     9
100
AcDbLine
 10
567.798549
 20
147.215107
 30
0.0
 11
578.048549
 21
147.215107
 31
0.0
  0
LINE
  5
70A
330
1F
100
AcDbEntity
  8
002
  6
HIDDEN
 62
    40
370
     9
100
AcDbLine
 10
570.111049
 20
147.215107
 30
0.0
 11
570.111049
 21
143.215107
 31
0.0
  0
LINE
  5
70B
330
1F
100
AcDbEntity
  8
002
  6
HIDDEN
 62
    40
370
     9
100
AcDbLine
 10
575.736049
 20
147.215107
 30
0.0
 11
575.736049
 21
143.215107
 31
0.0
  0
LINE
  5
70C
330
1F
100
AcDbEntity
  8
002
  6
HIDDEN
 62
    40
370
     9
100
AcDbLine
 10
589.111049
 20
143.215107
 30
0.0
 11
589.111049
 21
147.215107
 31
0.0
  0
LINE
  5
70D
330
1F
100
AcDbEntity
  8
002
  6
HIDDEN
 62
    40
370
     9
100
AcDbLine
 10
586.798549
 20
147.215107
 30
0.0
 11
597.048549
 21
147.215107
 31
0.0
  0
LINE
  5
70E
330
1F
100
AcDbEntity
  8
002
  6
HIDDEN
 62
    40
370
     9
100
AcDbLine
 10
594.736049
 20
147.215107
 30
0.0
 11
594.736049
 21
143.215107
 31
0.0
  0
LINE
  5
70F
330
1F
100
AcDbEntity
  8
002
 62
     3
370
    30
100
AcDbLine
 10
599.923549
 20
160.965107
 30
0.0
 11
599.923549
 21
159.965107
 31
0.0
  0
LINE
  5
710
330
1F
100
AcDbEntity
  8
002
 62
     3
370
    30
100
AcDbLine
 10
599.923549
 20
159.965107
 30
0.0
 11
598.673549
 21
159.965107
 31
0.0
  0
LINE
  5
711
330
1F
100
AcDbEntity
  8
002
 62
     3
370
    30
100
AcDbLine
 10
598.673549
 20
159.965107
 30
0.0
 11
598.673549
 21
160.965107
 31
0.0
  0
LINE
  5
712
330
1F
100
AcDbEntity
  8
002
 62
     3
370
    30
100
AcDbLine
 10
598.673549
 20
160.965107
 30
0.0
 11
599.923549
 21
160.965107
 31
0.0
  0
ARC
  5
713
330
1F
100
AcDbEntity
  8
002
 62
     3
370
    30
100
AcDbCircle
 10
599.298549
 20
158.215107
 30
0.0
 40
2.3750840807485
100
AcDbArc
 50
105.25697
 51
74.74303
  0
ARC
  5
714
330
1F
100
AcDbEntity
  8
002
 62
     3
370
    30
100
AcDbCircle
 10
599.298549
 20
158.215107
 30
0.0
 40
2.812571787972693
100
AcDbArc
 50
77.891689
 51
102.108311
  0
ARC
  5
715
330
1F
100
AcDbEntity
  8
002
 62
     3
370
    30
100
AcDbCircle
 10
599.298549
 20
158.215107
 30
0.0
 40
2.812571787972693
100
AcDbArc
 50
102.839255
 51
77.160745
  0
LINE
  5
716
330
1F
100
AcDbEntity
  8
002
 62
     3
370
    30
100
AcDbLine
 10
592.748549
 20
179.465107
 30
0.0
 11
592.748549
 21
203.215107
 31
0.0
  0
LINE
  5
717
330
1F
100
AcDbEntity
  8
002
 62
     3
370
    30
100
AcDbLine
 10
592.748549
 20
203.215107
 30
0.0
 11
572.098549
 21
203.215107
 31
0.0
  0
LINE
  5
718
330
1F
100
AcDbEntity
  8
002
 62
     3
370
    30
100
AcDbLine
 10
572.098549
 20
203.215107
 30
0.0
 11
572.098549
 21
179.465107
 31
0.0
  0
LINE
  5
719
330
1F
100
AcDbEntity
  8
003
 62
     3
370
    30
100
AcDbLine
 10
591.173549
 20
138.215107
 30
0.0
 11
573.673549
 21
138.215107
 31
0.0
  0
LINE
  5
71A
330
1F
100
AcDbEntity
  8
003
 62
     3
370
    30
100
AcDbLine
 10
591.798549
 20
142.290107
 30
0.0
 11
573.048549
 21
142.290107
 31
0.0
  0
LINE
  5
71B
330
1F
100
AcDbEntity
  8
003
 62
    40
370
     9
100
AcDbLine
 10
587.942049
 20
130.715107
 30
0.0
 11
588.673549
 21
131.982102
 31
0.0
  0
LINE
  5
71C
330
1F
100
AcDbEntity
  8
003
 62
     3
370
    30
100
AcDbLine
 10
591.798549
 20
142.290107
 30
0.0
 11
591.798549
 21
143.215107
 31
0.0
  0
LINE
  5
71D
330
1F
100
AcDbEntity
  8
003
 62
     3
370
    30
100
AcDbLine
 10
573.048549
 20
142.290107
 30
0.0
 11
573.048549
 21
143.215107
 31
0.0
  0
LINE
  5
71E
330
1F
100
AcDbEntity
  8
003
 62
     3
370
    30
100
AcDbLine
 10
573.673549
 20
138.215107
 30
0.0
 11
573.673549
 21
142.290107
 31
0.0
  0
LINE
  5
71F
330
1F
100
AcDbEntity
  8
003
 62
    40
370
     9
100
AcDbLine
 10
576.905049
 20
130.715107
 30
0.0
 11
576.173549
 21
131.982102
 31
0.0
  0
LINE
  5
720
330
1F
100
AcDbEntity
  8
003
 62
     3
370
    30
100
AcDbLine
 10
591.173549
 20
138.215107
 30
0.0
 11
591.173549
 21
142.290107
 31
0.0
  0
LINE
  5
721
330
1F
100
AcDbEntity
  8
003
 62
     3
370
    30
100
AcDbLine
 10
588.673549
 20
130.715107
 30
0.0
 11
576.173549
 21
130.715107
 31
0.0
  0
LINE
  5
722
330
1F
100
AcDbEntity
  8
003
 62
     3
370
    30
100
AcDbLine
 10
572.548515
 20
98.766114
 30
0.0
 11
572.573517
 21
98.791114
 31
0.0
  0
LINE
  5
723
330
1F
100
AcDbEntity
  8
003
 62
     3
370
    30
100
AcDbLine
 10
592.273534
 20
98.791126
 30
0.0
 11
592.298536
 21
98.766126
 31
0.0
  0
LINE
  5
724
330
1F
100
AcDbEntity
  8
003
 62
     3
370
    30
100
AcDbLine
 10
579.986005
 20
92.396105
 30
0.0
 11
575.22748
 21
96.505396
 31
0.0
  0
LINE
  5
725
330
1F
100
AcDbEntity
  8
003
 62
     3
370
    30
100
AcDbLine
 10
579.986001
 20
90.744505
 30
0.0
 11
575.356552
 21
94.74233
 31
0.0
  0
LINE
  5
726
330
1F
100
AcDbEntity
  8
003
 62
     3
370
    30
100
AcDbLine
 10
579.986004
 20
94.047673
 30
0.0
 11
576.990526
 21
96.634458
 31
0.0
  0
LINE
  5
727
330
1F
100
AcDbEntity
  8
003
 62
     3
370
    30
100
AcDbLine
 10
584.861072
 20
89.837763
 30
0.0
 11
589.490521
 21
85.839939
 31
0.0
  0
LINE
  5
728
330
1F
100
AcDbEntity
  8
003
 62
     3
370
    30
100
AcDbLine
 10
584.86107
 20
88.186193
 30
0.0
 11
589.619595
 21
84.076902
 31
0.0
  0
LINE
  5
729
330
1F
100
AcDbEntity
  8
003
 62
     3
370
    30
100
AcDbLine
 10
584.861072
 20
86.534605
 30
0.0
 11
587.85655
 21
83.94782
 31
0.0
  0
LINE
  5
72A
330
1F
100
AcDbEntity
  8
003
 62
     3
370
    30
100
AcDbLine
 10
586.173517
 20
76.704386
 30
0.0
 11
586.173517
 21
85.401216
 31
0.0
  0
LINE
  5
72B
330
1F
100
AcDbEntity
  8
003
 62
     3
370
    30
100
AcDbLine
 10
584.861064
 20
98.041176
 30
0.0
 11
584.861064
 21
70.541139
 31
0.0
  0
LINE
  5
72C
330
1F
100
AcDbEntity
  8
003
 62
     3
370
    30
100
AcDbLine
 10
579.986006
 20
80.39611
 30
0.0
 11
575.227481
 21
84.505401
 31
0.0
  0
LINE
  5
72D
330
1F
100
AcDbEntity
  8
003
 62
     3
370
    30
100
AcDbLine
 10
579.986009
 20
78.744516
 30
0.0
 11
575.35656
 21
82.742341
 31
0.0
  0
LINE
  5
72E
330
1F
100
AcDbEntity
  8
003
 62
     3
370
    30
100
AcDbLine
 10
579.986002
 20
82.04768
 30
0.0
 11
576.990525
 21
84.634466
 31
0.0
  0
LINE
  5
72F
330
1F
100
AcDbEntity
  8
003
 62
     3
370
    30
100
AcDbLine
 10
584.861067
 20
77.837758
 30
0.0
 11
589.490514
 21
73.839936
 31
0.0
  0
LINE
  5
730
330
1F
100
AcDbEntity
  8
003
 62
     3
370
    30
100
AcDbLine
 10
586.173517
 20
70.291114
 30
0.0
 11
586.173517
 21
73.401221
 31
0.0
  0
ARC
  5
731
330
1F
100
AcDbEntity
  8
003
 62
     3
370
    30
100
AcDbCircle
 10
588.673536
 20
72.893876
 30
0.0
 40
1.250000314638085
100
AcDbArc
 50
229.187346
 51
49.187266
  0
LINE
  5
732
330
1F
100
AcDbEntity
  8
003
 62
     3
370
    30
100
AcDbLine
 10
584.861074
 20
76.186191
 30
0.0
 11
589.619597
 21
72.076903
 31
0.0
  0
LINE
  5
733
330
1F
100
AcDbEntity
  8
003
 62
     3
370
    30
100
AcDbLine
 10
584.861081
 20
74.534611
 30
0.0
 11
587.856559
 21
71.947825
 31
0.0
  0
LINE
  5
734
330
1F
100
AcDbEntity
  8
003
 62
     3
370
    30
100
AcDbLine
 10
578.673517
 20
70.291114
 30
0.0
 11
578.673517
 21
79.877948
 31
0.0
  0
LINE
  5
735
330
1F
100
AcDbEntity
  8
003
 62
     3
370
    30
100
AcDbLine
 10
584.861064
 20
70.541139
 30
0.0
 11
579.986066
 21
70.541139
 31
0.0
  0
LINE
  5
736
330
1F
100
AcDbEntity
  8
003
 62
     3
370
    30
100
AcDbLine
 10
579.986009
 20
70.541101
 30
0.0
 11
579.986009
 21
98.041139
 31
0.0
  0
LINE
  5
737
330
1F
100
AcDbEntity
  8
003
 62
     3
370
    30
100
AcDbLine
 10
580.61104
 20
72.291141
 30
0.0
 11
580.61104
 21
70.541139
 31
0.0
  0
ARC
  5
738
330
1F
100
AcDbEntity
  8
003
 62
     3
370
    30
100
AcDbCircle
 10
582.42353
 20
72.291138
 30
0.0
 40
1.812500000001724
100
AcDbArc
 50
0.0
 51
179.99996
  0
LINE
  5
739
330
1F
100
AcDbEntity
  8
003
 62
     3
370
    30
100
AcDbLine
 10
584.236032
 20
72.291141
 30
0.0
 11
584.236032
 21
70.541139
 31
0.0
  0
LINE
  5
73A
330
1F
100
AcDbEntity
  8
003
 62
     3
370
    30
100
AcDbLine
 10
583.794747
 20
72.291134
 30
0.0
 11
583.109145
 21
71.103639
 31
0.0
  0
LINE
  5
73B
330
1F
100
AcDbEntity
  8
003
 62
     3
370
    30
100
AcDbLine
 10
578.673517
 20
83.181113
 30
0.0
 11
578.673517
 21
91.877943
 31
0.0
  0
LINE
  5
73C
330
1F
100
AcDbEntity
  8
003
 62
     3
370
    30
100
AcDbLine
 10
578.673517
 20
95.181108
 30
0.0
 11
578.673517
 21
98.291114
 31
0.0
  0
LINE
  5
73D
330
1F
100
AcDbEntity
  8
003
 62
     3
370
    30
100
AcDbLine
 10
579.986009
 20
98.041139
 30
0.0
 11
584.861014
 21
98.041139
 31
0.0
  0
LINE
  5
73E
330
1F
100
AcDbEntity
  8
003
 62
     3
370
    30
100
AcDbLine
 10
578.673511
 20
98.291101
 30
0.0
 11
586.173511
 21
98.291101
 31
0.0
  0
ARC
  5
73F
330
1F
100
AcDbEntity
  8
003
 62
     3
370
    30
100
AcDbCircle
 10
582.42353
 20
96.29114
 30
0.0
 40
1.812500000000431
100
AcDbArc
 50
180.0
 51
359.999921
  0
LINE
  5
740
330
1F
100
AcDbEntity
  8
003
 62
     3
370
    30
100
AcDbLine
 10
584.236032
 20
96.291146
 30
0.0
 11
584.236032
 21
98.041139
 31
0.0
  0
LINE
  5
741
330
1F
100
AcDbEntity
  8
003
 62
     3
370
    30
100
AcDbLine
 10
580.61104
 20
96.291146
 30
0.0
 11
580.61104
 21
98.041139
 31
0.0
  0
LINE
  5
742
330
1F
100
AcDbEntity
  8
003
 62
     3
370
    30
100
AcDbLine
 10
586.173517
 20
88.704381
 30
0.0
 11
586.173517
 21
98.291114
 31
0.0
  0
LINE
  5
743
330
1F
100
AcDbEntity
  8
003
 62
     3
370
    30
100
AcDbLine
 10
581.737935
 20
73.478635
 30
0.0
 11
581.052332
 21
72.291136
 31
0.0
  0
CIRCLE
  5
744
330
1F
100
AcDbEntity
  8
003
 62
     3
370
    30
100
AcDbCircle
 10
582.42353
 20
72.291138
 30
0.0
 40
1.12499975
  0
LINE
  5
745
330
1F
100
AcDbEntity
  8
003
 62
     3
370
    30
100
AcDbLine
 10
583.109139
 20
73.478641
 30
0.0
 11
581.737933
 21
73.478641
 31
0.0
  0
LINE
  5
746
330
1F
100
AcDbEntity
  8
003
 62
     3
370
    30
100
AcDbLine
 10
583.109149
 20
73.478641
 30
0.0
 11
583.794752
 21
72.291141
 31
0.0
  0
LINE
  5
747
330
1F
100
AcDbEntity
  8
003
 62
     3
370
    30
100
AcDbLine
 10
583.109139
 20
71.103639
 30
0.0
 11
581.737933
 21
71.103639
 31
0.0
  0
LINE
  5
748
330
1F
100
AcDbEntity
  8
003
 62
     3
370
    30
100
AcDbLine
 10
581.052334
 20
72.29114
 30
0.0
 11
581.737937
 21
71.103639
 31
0.0
  0
CIRCLE
  5
749
330
1F
100
AcDbEntity
  8
003
 62
     3
370
    30
100
AcDbCircle
 10
582.42353
 20
72.291138
 30
0.0
 40
0.625
  0
CIRCLE
  5
74A
330
1F
100
AcDbEntity
  8
003
 62
     3
370
    30
100
AcDbCircle
 10
582.423511
 20
84.291139
 30
0.0
 40
1.81249875
  0
LINE
  5
74B
330
1F
100
AcDbEntity
  8
003
 62
     3
370
    30
100
AcDbLine
 10
581.737934
 20
85.478633
 30
0.0
 11
581.052331
 21
84.291134
 31
0.0
  0
CIRCLE
  5
74C
330
1F
100
AcDbEntity
  8
003
 62
     3
370
    30
100
AcDbCircle
 10
582.42353
 20
84.291139
 30
0.0
 40
1.12499975
  0
CIRCLE
  5
74D
330
1F
100
AcDbEntity
  8
003
 62
     3
370
    30
100
AcDbCircle
 10
582.42353
 20
84.291139
 30
0.0
 40
0.625
  0
LINE
  5
74E
330
1F
100
AcDbEntity
  8
003
 62
     3
370
    30
100
AcDbLine
 10
583.109139
 20
85.478641
 30
0.0
 11
581.737933
 21
85.478641
 31
0.0
  0
LINE
  5
74F
330
1F
100
AcDbEntity
  8
003
 62
     3
370
    30
100
AcDbLine
 10
581.052334
 20
84.291142
 30
0.0
 11
581.737936
 21
83.103643
 31
0.0
  0
LINE
  5
750
330
1F
100
AcDbEntity
  8
003
 62
     3
370
    30
100
AcDbLine
 10
583.109139
 20
83.103636
 30
0.0
 11
581.737933
 21
83.103636
 31
0.0
  0
LINE
  5
751
330
1F
100
AcDbEntity
  8
003
 62
     3
370
    30
100
AcDbLine
 10
583.794754
 20
84.291143
 30
0.0
 11
583.109148
 21
83.103639
 31
0.0
  0
LINE
  5
752
330
1F
100
AcDbEntity
  8
003
 62
     3
370
    30
100
AcDbLine
 10
583.109144
 20
85.478639
 30
0.0
 11
583.794746
 21
84.29114
 31
0.0
  0
LINE
  5
753
330
1F
100
AcDbEntity
  8
003
 62
     3
370
    30
100
AcDbLine
 10
581.737938
 20
97.478639
 30
0.0
 11
581.052332
 21
96.29114
 31
0.0
  0
CIRCLE
  5
754
330
1F
100
AcDbEntity
  8
003
 62
     3
370
    30
100
AcDbCircle
 10
582.42353
 20
96.29114
 30
0.0
 40
1.12499975
  0
LINE
  5
755
330
1F
100
AcDbEntity
  8
003
 62
     3
370
    30
100
AcDbLine
 10
581.052337
 20
96.291151
 30
0.0
 11
581.737941
 21
95.10365
 31
0.0
  0
LINE
  5
756
330
1F
100
AcDbEntity
  8
003
 62
     3
370
    30
100
AcDbLine
 10
583.109139
 20
97.478639
 30
0.0
 11
581.737933
 21
97.478639
 31
0.0
  0
CIRCLE
  5
757
330
1F
100
AcDbEntity
  8
003
 62
     3
370
    30
100
AcDbCircle
 10
582.42353
 20
96.29114
 30
0.0
 40
0.625
  0
LINE
  5
758
330
1F
100
AcDbEntity
  8
003
 62
     3
370
    30
100
AcDbLine
 10
583.109164
 20
97.478639
 30
0.0
 11
583.794766
 21
96.291145
 31
0.0
  0
LINE
  5
759
330
1F
100
AcDbEntity
  8
003
 62
     3
370
    30
100
AcDbLine
 10
583.794749
 20
96.291145
 30
0.0
 11
583.109142
 21
95.10364
 31
0.0
  0
LINE
  5
75A
330
1F
100
AcDbEntity
  8
003
 62
     3
370
    30
100
AcDbLine
 10
583.109139
 20
95.103636
 30
0.0
 11
581.737933
 21
95.103636
 31
0.0
  0
ARC
  5
75B
330
1F
100
AcDbEntity
  8
003
 62
     3
370
    30
100
AcDbCircle
 10
588.673536
 20
84.893874
 30
0.0
 40
1.250000409244314
100
AcDbArc
 50
229.187269
 51
49.187269
  0
LINE
  5
75C
330
1F
100
AcDbEntity
  8
003
 62
     3
370
    30
100
AcDbLine
 10
572.548519
 20
70.416114
 30
0.0
 11
572.548519
 21
98.766114
 31
0.0
  0
LINE
  5
75D
330
1F
100
AcDbEntity
  8
003
 62
     3
370
    30
100
AcDbLine
 10
572.673487
 20
70.291089
 30
0.0
 11
572.548492
 21
70.416101
 31
0.0
  0
LINE
  5
75E
330
1F
100
AcDbEntity
  8
003
 62
     3
370
    30
100
AcDbLine
 10
572.673507
 20
70.291101
 30
0.0
 11
592.173509
 21
70.291101
 31
0.0
  0
LINE
  5
75F
330
1F
100
AcDbEntity
  8
003
 62
     3
370
    30
100
AcDbLine
 10
592.173539
 20
70.291126
 30
0.0
 11
592.298542
 21
70.416139
 31
0.0
  0
LINE
  5
760
330
1F
100
AcDbEntity
  8
003
 62
     3
370
    30
100
AcDbLine
 10
592.298516
 20
70.416114
 30
0.0
 11
592.298516
 21
98.766114
 31
0.0
  0
ARC
  5
761
330
1F
100
AcDbEntity
  8
003
 62
     3
370
    30
100
AcDbCircle
 10
576.173542
 20
83.68841
 30
0.0
 40
1.249999686864986
100
AcDbArc
 50
49.18732
 51
229.187316
  0
ARC
  5
762
330
1F
100
AcDbEntity
  8
003
 62
     3
370
    30
100
AcDbCircle
 10
576.173542
 20
95.688399
 30
0.0
 40
1.250000443715546
100
AcDbArc
 50
49.187309
 51
229.187346
  0
CIRCLE
  5
763
330
1F
100
AcDbEntity
  8
003
 62
     3
370
    30
100
AcDbCircle
 10
582.42353
 20
72.291138
 30
0.0
 40
0.75
  0
CIRCLE
  5
764
330
1F
100
AcDbEntity
  8
003
 62
     3
370
    30
100
AcDbCircle
 10
582.42353
 20
84.291139
 30
0.0
 40
0.75
  0
CIRCLE
  5
765
330
1F
100
AcDbEntity
  8
003
 62
     3
370
    30
100
AcDbCircle
 10
582.42353
 20
96.29114
 30
0.0
 40
0.75
  0
LINE
  5
766
330
1F
100
AcDbEntity
  8
003
 62
     3
370
    30
100
AcDbLine
 10
563.673549
 20
105.041101
 30
0.0
 11
563.673549
 21
98.791101
 31
0.0
  0
LINE
  5
767
330
1F
100
AcDbEntity
  8
003
 62
     3
370
    30
100
AcDbLine
 10
563.673549
 20
98.791101
 30
0.0
 11
601.173549
 21
98.791101
 31
0.0
  0
LINE
  5
768
330
1F
100
AcDbEntity
  8
003
 62
     3
370
    30
100
AcDbLine
 10
563.673549
 20
105.041101
 30
0.0
 11
601.173549
 21
105.041101
 31
0.0
  0
LINE
  5
769
330
1F
100
AcDbEntity
  8
003
 62
     3
370
    30
100
AcDbLine
 10
601.173549
 20
105.041101
 30
0.0
 11
601.173549
 21
98.791101
 31
0.0
  0
LINE
  5
76A
330
1F
100
AcDbEntity
  8
003
 62
     3
370
    30
100
AcDbLine
 10
587.736049
 20
33.829017
 30
0.0
 11
577.111049
 21
33.829017
 31
0.0
  0
LINE
  5
76B
330
1F
100
AcDbEntity
  8
003
 62
     3
370
    30
100
AcDbLine
 10
576.173549
 20
51.329017
 30
0.0
 11
588.673549
 21
51.329017
 31
0.0
  0
LINE
  5
76C
330
1F
100
AcDbEntity
  8
003
 62
     3
370
    30
100
AcDbLine
 10
587.736049
 20
33.829017
 30
0.0
 11
587.736049
 21
51.329017
 31
0.0
  0
LINE
  5
76D
330
1F
100
AcDbEntity
  8
003
 62
     3
370
    30
100
AcDbLine
 10
577.111049
 20
33.829017
 30
0.0
 11
577.111049
 21
51.329017
 31
0.0
  0
LINE
  5
76E
330
1F
100
AcDbEntity
  8
003
 62
     3
370
    30
100
AcDbLine
 10
588.673549
 20
70.291101
 30
0.0
 11
588.673549
 21
51.329017
 31
0.0
  0
LINE
  5
76F
330
1F
100
AcDbEntity
  8
003
 62
    40
370
     9
100
AcDbLine
 10
587.942049
 20
70.291101
 30
0.0
 11
587.942049
 21
51.329017
 31
0.0
  0
LINE
  5
770
330
1F
100
AcDbEntity
  8
003
 62
     3
370
    30
100
AcDbLine
 10
576.173549
 20
51.329017
 30
0.0
 11
576.173549
 21
70.291101
 31
0.0
  0
LINE
  5
771
330
1F
100
AcDbEntity
  8
003
 62
    40
370
     9
100
AcDbLine
 10
576.905049
 20
51.329017
 30
0.0
 11
576.905049
 21
70.291101
 31
0.0
  0
TEXT
  5
772
330
1F
100
AcDbEntity
  8
002
 62
     3
370
    30
100
AcDbText
 10
562.080841
 20
162.76642
 30
0.0
 40
0.0375
  1
Ｍ８
 41
0.555556
100
AcDbText
  0
TEXT
  5
773
330
1F
100
AcDbEntity
  8
002
 62
     3
370
    30
100
AcDbText
 10
562.139257
 20
153.663795
 30
0.0
 40
0.0375
  1
Ｍ８
 50
180.000005
 41
0.555556
100
AcDbText
  0
LINE
  5
774
330
1F
100
AcDbEntity
  8
002
 62
     3
370
    30
100
AcDbLine
 10
388.136255
 20
430.907565
 30
0.0
 11
388.136255
 21
429.782565
 31
0.0
  0
LINE
  5
775
330
1F
100
AcDbEntity
  8
002
  6
CENTER
 62
    40
370
     9
100
AcDbLine
 10
389.886255
 20
431.907564
 30
0.0
 11
389.886255
 21
428.532565
 31
0.0
  0
LINE
  5
776
330
1F
100
AcDbEntity
  8
002
 62
     3
370
    30
100
AcDbLine
 10
388.136255
 20
430.907565
 30
0.0
 11
374.136255
 21
430.907565
 31
0.0
  0
LINE
  5
777
330
1F
100
AcDbEntity
  8
002
 62
     3
370
    30
100
AcDbLine
 10
374.136255
 20
430.907565
 30
0.0
 11
374.136255
 21
430.348698
 31
0.0
  0
LINE
  5
778
330
1F
100
AcDbEntity
  8
002
 62
     3
370
    30
100
AcDbLine
 10
388.136255
 20
392.157565
 30
0.0
 11
388.136255
 21
393.282565
 31
0.0
  0
LINE
  5
779
330
1F
100
AcDbEntity
  8
002
 62
     3
370
    30
100
AcDbLine
 10
388.136255
 20
392.157565
 30
0.0
 11
374.136255
 21
392.157565
 31
0.0
  0
LINE
  5
77A
330
1F
100
AcDbEntity
  8
002
 62
     3
370
    30
100
AcDbLine
 10
374.136255
 20
392.157565
 30
0.0
 11
374.136255
 21
392.716432
 31
0.0
  0
LINE
  5
77B
330
1F
100
AcDbEntity
  8
002
  6
CENTER
 62
    40
370
     9
100
AcDbLine
 10
389.886255
 20
391.157566
 30
0.0
 11
389.886255
 21
394.532565
 31
0.0
  0
POLYLINE
  5
77C
330
1F
100
AcDbEntity
  8
002
 62
     3
370
     9
100
AcDb2dPolyline
 66
     1
 10
0.0
 20
0.0
 30
0.0
  0
VERTEX
  5
77E
330
77C
100
AcDbEntity
  8
002
 62
     3
370
     9
100
AcDbVertex
100
AcDb2dVertex
 10
358.011255
 20
111.711722
 30
0.0
  0
VERTEX
  5
77F
330
77C
100
AcDbEntity
  8
002
 62
     3
370
     9
100
AcDbVertex
100
AcDb2dVertex
 10
359.573755
 20
110.336722
 30
0.0
  0
VERTEX
  5
780
330
77C
100
AcDbEntity
  8
002
 62
     3
370
     9
100
AcDbVertex
100
AcDb2dVertex
 10
361.136255
 20
109.711722
 30
0.0
  0
VERTEX
  5
781
330
77C
100
AcDbEntity
  8
002
 62
     3
370
     9
100
AcDbVertex
100
AcDb2dVertex
 10
362.698755
 20
110.336722
 30
0.0
  0
VERTEX
  5
782
330
77C
100
AcDbEntity
  8
002
 62
     3
370
     9
100
AcDbVertex
100
AcDb2dVertex
 10
364.261255
 20
111.711722
 30
0.0
  0
VERTEX
  5
783
330
77C
100
AcDbEntity
  8
002
 62
     3
370
     9
100
AcDbVertex
100
AcDb2dVertex
 10
365.823755
 20
113.086722
 30
0.0
  0
VERTEX
  5
784
330
77C
100
AcDbEntity
  8
002
 62
     3
370
     9
100
AcDbVertex
100
AcDb2dVertex
 10
367.386255
 20
113.711722
 30
0.0
  0
VERTEX
  5
785
330
77C
100
AcDbEntity
  8
002
 62
     3
370
     9
100
AcDbVertex
100
AcDb2dVertex
 10
368.948755
 20
113.086722
 30
0.0
  0
VERTEX
  5
786
330
77C
100
AcDbEntity
  8
002
 62
     3
370
     9
100
AcDbVertex
100
AcDb2dVertex
 10
370.511255
 20
111.711722
 30
0.0
  0
SEQEND
  5
77D
330
77C
100
AcDbEntity
  8
002
370
     9
  0
POLYLINE
  5
787
330
1F
100
AcDbEntity
  8
002
 62
     3
370
     9
100
AcDb2dPolyline
 66
     1
 10
0.0
 20
0.0
 30
0.0
  0
VERTEX
  5
789
330
787
100
AcDbEntity
  8
002
 62
     3
370
     9
100
AcDbVertex
100
AcDb2dVertex
 10
358.011255
 20
115.711722
 30
0.0
  0
VERTEX
  5
78A
330
787
100
AcDbEntity
  8
002
 62
     3
370
     9
100
AcDbVertex
100
AcDb2dVertex
 10
359.573755
 20
114.336722
 30
0.0
  0
VERTEX
  5
78B
330
787
100
AcDbEntity
  8
002
 62
     3
370
     9
100
AcDbVertex
100
AcDb2dVertex
 10
361.136255
 20
113.711722
 30
0.0
  0
VERTEX
  5
78C
330
787
100
AcDbEntity
  8
002
 62
     3
370
     9
100
AcDbVertex
100
AcDb2dVertex
 10
362.698755
 20
114.336722
 30
0.0
  0
VERTEX
  5
78D
330
787
100
AcDbEntity
  8
002
 62
     3
370
     9
100
AcDbVertex
100
AcDb2dVertex
 10
364.261255
 20
115.711722
 30
0.0
  0
VERTEX
  5
78E
330
787
100
AcDbEntity
  8
002
 62
     3
370
     9
100
AcDbVertex
100
AcDb2dVertex
 10
365.823755
 20
117.086722
 30
0.0
  0
VERTEX
  5
78F
330
787
100
AcDbEntity
  8
002
 62
     3
370
     9
100
AcDbVertex
100
AcDb2dVertex
 10
367.386255
 20
117.711722
 30
0.0
  0
VERTEX
  5
790
330
787
100
AcDbEntity
  8
002
 62
     3
370
     9
100
AcDbVertex
100
AcDb2dVertex
 10
368.948755
 20
117.086722
 30
0.0
  0
VERTEX
  5
791
330
787
100
AcDbEntity
  8
002
 62
     3
370
     9
100
AcDbVertex
100
AcDb2dVertex
 10
370.511255
 20
115.711722
 30
0.0
  0
SEQEND
  5
788
330
787
100
AcDbEntity
  8
002
370
     9
  0
LINE
  5
792
330
1F
100
AcDbEntity
  8
001
 62
    40
370
     9
100
AcDbLine
 10
369.779755
 20
101.499719
 30
0.0
 11
369.779755
 21
112.401136
 31
0.0
  0
LINE
  5
793
330
1F
100
AcDbEntity
  8
001
 62
    40
370
     9
100
AcDbLine
 10
369.779755
 20
116.401136
 30
0.0
 11
369.779755
 21
133.423725
 31
0.0
  0
LINE
  5
794
330
1F
100
AcDbEntity
  8
001
 62
     3
370
    30
100
AcDbLine
 10
370.511255
 20
93.999719
 30
0.0
 11
370.511255
 21
111.711722
 31
0.0
  0
LINE
  5
795
330
1F
100
AcDbEntity
  8
001
 62
     3
370
    30
100
AcDbLine
 10
370.511255
 20
115.711722
 30
0.0
 11
370.511255
 21
133.423725
 31
0.0
  0
LINE
  5
796
330
1F
100
AcDbEntity
  8
001
 62
    40
370
     9
100
AcDbLine
 10
358.742755
 20
133.423725
 30
0.0
 11
358.742755
 21
115.022308
 31
0.0
  0
LINE
  5
797
330
1F
100
AcDbEntity
  8
001
 62
    40
370
     9
100
AcDbLine
 10
358.742755
 20
111.022308
 30
0.0
 11
358.742755
 21
101.499719
 31
0.0
  0
LINE
  5
798
330
1F
100
AcDbEntity
  8
001
 62
     3
370
    30
100
AcDbLine
 10
358.011255
 20
133.423725
 30
0.0
 11
358.011255
 21
115.711722
 31
0.0
  0
LINE
  5
799
330
1F
100
AcDbEntity
  8
001
 62
     3
370
    30
100
AcDbLine
 10
358.011255
 20
111.711722
 30
0.0
 11
358.011255
 21
93.999719
 31
0.0
  0
POLYLINE
  5
79A
330
1F
100
AcDbEntity
  8
002
 62
     3
370
     9
100
AcDb2dPolyline
 66
     1
 10
0.0
 20
0.0
 30
0.0
  0
VERTEX
  5
79C
330
79A
100
AcDbEntity
  8
002
 62
     3
370
     9
100
AcDbVertex
100
AcDb2dVertex
 10
428.20513
 20
111.711722
 30
0.0
  0
VERTEX
  5
79D
330
79A
100
AcDbEntity
  8
002
 62
     3
370
     9
100
AcDbVertex
100
AcDb2dVertex
 10
429.76763
 20
110.336722
 30
0.0
  0
VERTEX
  5
79E
330
79A
100
AcDbEntity
  8
002
 62
     3
370
     9
100
AcDbVertex
100
AcDb2dVertex
 10
431.33013
 20
109.711722
 30
0.0
  0
VERTEX
  5
79F
330
79A
100
AcDbEntity
  8
002
 62
     3
370
     9
100
AcDbVertex
100
AcDb2dVertex
 10
432.89263
 20
110.336722
 30
0.0
  0
VERTEX
  5
7A0
330
79A
100
AcDbEntity
  8
002
 62
     3
370
     9
100
AcDbVertex
100
AcDb2dVertex
 10
434.45513
 20
111.711722
 30
0.0
  0
VERTEX
  5
7A1
330
79A
100
AcDbEntity
  8
002
 62
     3
370
     9
100
AcDbVertex
100
AcDb2dVertex
 10
436.01763
 20
113.086722
 30
0.0
  0
VERTEX
  5
7A2
330
79A
100
AcDbEntity
  8
002
 62
     3
370
     9
100
AcDbVertex
100
AcDb2dVertex
 10
437.58013
 20
113.711722
 30
0.0
  0
VERTEX
  5
7A3
330
79A
100
AcDbEntity
  8
002
 62
     3
370
     9
100
AcDbVertex
100
AcDb2dVertex
 10
439.14263
 20
113.086722
 30
0.0
  0
VERTEX
  5
7A4
330
79A
100
AcDbEntity
  8
002
 62
     3
370
     9
100
AcDbVertex
100
AcDb2dVertex
 10
440.70513
 20
111.711722
 30
0.0
  0
SEQEND
  5
79B
330
79A
100
AcDbEntity
  8
002
370
     9
  0
POLYLINE
  5
7A5
330
1F
100
AcDbEntity
  8
002
 62
     3
370
     9
100
AcDb2dPolyline
 66
     1
 10
0.0
 20
0.0
 30
0.0
  0
VERTEX
  5
7A7
330
7A5
100
AcDbEntity
  8
002
 62
     3
370
     9
100
AcDbVertex
100
AcDb2dVertex
 10
428.20513
 20
115.711722
 30
0.0
  0
VERTEX
  5
7A8
330
7A5
100
AcDbEntity
  8
002
 62
     3
370
     9
100
AcDbVertex
100
AcDb2dVertex
 10
429.76763
 20
114.336722
 30
0.0
  0
VERTEX
  5
7A9
330
7A5
100
AcDbEntity
  8
002
 62
     3
370
     9
100
AcDbVertex
100
AcDb2dVertex
 10
431.33013
 20
113.711722
 30
0.0
  0
VERTEX
  5
7AA
330
7A5
100
AcDbEntity
  8
002
 62
     3
370
     9
100
AcDbVertex
100
AcDb2dVertex
 10
432.89263
 20
114.336722
 30
0.0
  0
VERTEX
  5
7AB
330
7A5
100
AcDbEntity
  8
002
 62
     3
370
     9
100
AcDbVertex
100
AcDb2dVertex
 10
434.45513
 20
115.711722
 30
0.0
  0
VERTEX
  5
7AC
330
7A5
100
AcDbEntity
  8
002
 62
     3
370
     9
100
AcDbVertex
100
AcDb2dVertex
 10
436.01763
 20
117.086722
 30
0.0
  0
VERTEX
  5
7AD
330
7A5
100
AcDbEntity
  8
002
 62
     3
370
     9
100
AcDbVertex
100
AcDb2dVertex
 10
437.58013
 20
117.711722
 30
0.0
  0
VERTEX
  5
7AE
330
7A5
100
AcDbEntity
  8
002
 62
     3
370
     9
100
AcDbVertex
100
AcDb2dVertex
 10
439.14263
 20
117.086722
 30
0.0
  0
VERTEX
  5
7AF
330
7A5
100
AcDbEntity
  8
002
 62
     3
370
     9
100
AcDbVertex
100
AcDb2dVertex
 10
440.70513
 20
115.711722
 30
0.0
  0
SEQEND
  5
7A6
330
7A5
100
AcDbEntity
  8
002
370
     9
  0
LINE
  5
7B0
330
1F
100
AcDbEntity
  8
001
 62
    40
370
     9
100
AcDbLine
 10
439.97363
 20
101.499719
 30
0.0
 11
439.97363
 21
112.401136
 31
0.0
  0
LINE
  5
7B1
330
1F
100
AcDbEntity
  8
001
 62
    40
370
     9
100
AcDbLine
 10
439.97363
 20
116.401136
 30
0.0
 11
439.97363
 21
133.423725
 31
0.0
  0
LINE
  5
7B2
330
1F
100
AcDbEntity
  8
001
 62
     3
370
    30
100
AcDbLine
 10
440.70513
 20
93.999719
 30
0.0
 11
440.70513
 21
111.711722
 31
0.0
  0
LINE
  5
7B3
330
1F
100
AcDbEntity
  8
001
 62
     3
370
    30
100
AcDbLine
 10
440.70513
 20
115.711722
 30
0.0
 11
440.70513
 21
133.423725
 31
0.0
  0
LINE
  5
7B4
330
1F
100
AcDbEntity
  8
001
 62
    40
370
     9
100
AcDbLine
 10
428.93663
 20
133.423725
 30
0.0
 11
428.93663
 21
115.022308
 31
0.0
  0
LINE
  5
7B5
330
1F
100
AcDbEntity
  8
001
 62
    40
370
     9
100
AcDbLine
 10
428.93663
 20
111.022308
 30
0.0
 11
428.93663
 21
101.499719
 31
0.0
  0
LINE
  5
7B6
330
1F
100
AcDbEntity
  8
001
 62
     3
370
    30
100
AcDbLine
 10
428.20513
 20
133.423725
 30
0.0
 11
428.20513
 21
115.711722
 31
0.0
  0
LINE
  5
7B7
330
1F
100
AcDbEntity
  8
001
 62
     3
370
    30
100
AcDbLine
 10
428.20513
 20
111.711722
 30
0.0
 11
428.20513
 21
93.999719
 31
0.0
  0
POLYLINE
  5
7B8
330
1F
100
AcDbEntity
  8
002
 62
     3
370
     9
100
AcDb2dPolyline
 66
     1
 10
0.0
 20
0.0
 30
0.0
  0
VERTEX
  5
7BA
330
7B8
100
AcDbEntity
  8
002
 62
     3
370
     9
100
AcDbVertex
100
AcDb2dVertex
 10
503.376174
 20
119.628104
 30
0.0
  0
VERTEX
  5
7BB
330
7B8
100
AcDbEntity
  8
002
 62
     3
370
     9
100
AcDbVertex
100
AcDb2dVertex
 10
504.938674
 20
118.253104
 30
0.0
  0
VERTEX
  5
7BC
330
7B8
100
AcDbEntity
  8
002
 62
     3
370
     9
100
AcDbVertex
100
AcDb2dVertex
 10
506.501174
 20
117.628104
 30
0.0
  0
VERTEX
  5
7BD
330
7B8
100
AcDbEntity
  8
002
 62
     3
370
     9
100
AcDbVertex
100
AcDb2dVertex
 10
508.063674
 20
118.253104
 30
0.0
  0
VERTEX
  5
7BE
330
7B8
100
AcDbEntity
  8
002
 62
     3
370
     9
100
AcDbVertex
100
AcDb2dVertex
 10
509.626174
 20
119.628104
 30
0.0
  0
VERTEX
  5
7BF
330
7B8
100
AcDbEntity
  8
002
 62
     3
370
     9
100
AcDbVertex
100
AcDb2dVertex
 10
511.188674
 20
121.003104
 30
0.0
  0
VERTEX
  5
7C0
330
7B8
100
AcDbEntity
  8
002
 62
     3
370
     9
100
AcDbVertex
100
AcDb2dVertex
 10
512.751174
 20
121.628104
 30
0.0
  0
VERTEX
  5
7C1
330
7B8
100
AcDbEntity
  8
002
 62
     3
370
     9
100
AcDbVertex
100
AcDb2dVertex
 10
514.313674
 20
121.003104
 30
0.0
  0
VERTEX
  5
7C2
330
7B8
100
AcDbEntity
  8
002
 62
     3
370
     9
100
AcDbVertex
100
AcDb2dVertex
 10
515.876174
 20
119.628104
 30
0.0
  0
SEQEND
  5
7B9
330
7B8
100
AcDbEntity
  8
002
370
     9
  0
POLYLINE
  5
7C3
330
1F
100
AcDbEntity
  8
002
 62
     3
370
     9
100
AcDb2dPolyline
 66
     1
 10
0.0
 20
0.0
 30
0.0
  0
VERTEX
  5
7C5
330
7C3
100
AcDbEntity
  8
002
 62
     3
370
     9
100
AcDbVertex
100
AcDb2dVertex
 10
503.376174
 20
123.628104
 30
0.0
  0
VERTEX
  5
7C6
330
7C3
100
AcDbEntity
  8
002
 62
     3
370
     9
100
AcDbVertex
100
AcDb2dVertex
 10
504.938674
 20
122.253104
 30
0.0
  0
VERTEX
  5
7C7
330
7C3
100
AcDbEntity
  8
002
 62
     3
370
     9
100
AcDbVertex
100
AcDb2dVertex
 10
506.501174
 20
121.628104
 30
0.0
  0
VERTEX
  5
7C8
330
7C3
100
AcDbEntity
  8
002
 62
     3
370
     9
100
AcDbVertex
100
AcDb2dVertex
 10
508.063674
 20
122.253104
 30
0.0
  0
VERTEX
  5
7C9
330
7C3
100
AcDbEntity
  8
002
 62
     3
370
     9
100
AcDbVertex
100
AcDb2dVertex
 10
509.626174
 20
123.628104
 30
0.0
  0
VERTEX
  5
7CA
330
7C3
100
AcDbEntity
  8
002
 62
     3
370
     9
100
AcDbVertex
100
AcDb2dVertex
 10
511.188674
 20
125.003104
 30
0.0
  0
VERTEX
  5
7CB
330
7C3
100
AcDbEntity
  8
002
 62
     3
370
     9
100
AcDbVertex
100
AcDb2dVertex
 10
512.751174
 20
125.628104
 30
0.0
  0
VERTEX
  5
7CC
330
7C3
100
AcDbEntity
  8
002
 62
     3
370
     9
100
AcDbVertex
100
AcDb2dVertex
 10
514.313674
 20
125.003104
 30
0.0
  0
VERTEX
  5
7CD
330
7C3
100
AcDbEntity
  8
002
 62
     3
370
     9
100
AcDbVertex
100
AcDb2dVertex
 10
515.876174
 20
123.628104
 30
0.0
  0
SEQEND
  5
7C4
330
7C3
100
AcDbEntity
  8
002
370
     9
  0
LINE
  5
7CE
330
1F
100
AcDbEntity
  8
003
 62
     3
370
    30
100
AcDbLine
 10
503.376174
 20
105.041101
 30
0.0
 11
503.376174
 21
119.628104
 31
0.0
  0
LINE
  5
7CF
330
1F
100
AcDbEntity
  8
003
 62
     3
370
    30
100
AcDbLine
 10
503.376174
 20
123.628104
 30
0.0
 11
503.376174
 21
138.215107
 31
0.0
  0
LINE
  5
7D0
330
1F
100
AcDbEntity
  8
003
 62
     3
370
    30
100
AcDbLine
 10
515.876174
 20
138.215107
 30
0.0
 11
515.876174
 21
123.628104
 31
0.0
  0
LINE
  5
7D1
330
1F
100
AcDbEntity
  8
003
 62
     3
370
    30
100
AcDbLine
 10
515.876174
 20
119.628104
 30
0.0
 11
515.876174
 21
105.041101
 31
0.0
  0
LINE
  5
7D2
330
1F
100
AcDbEntity
  8
003
 62
    40
370
     9
100
AcDbLine
 10
515.144674
 20
130.715107
 30
0.0
 11
515.144674
 21
124.317518
 31
0.0
  0
LINE
  5
7D3
330
1F
100
AcDbEntity
  8
003
 62
    40
370
     9
100
AcDbLine
 10
515.144674
 20
120.317518
 30
0.0
 11
515.144674
 21
105.041101
 31
0.0
  0
LINE
  5
7D4
330
1F
100
AcDbEntity
  8
003
 62
    40
370
     9
100
AcDbLine
 10
504.107674
 20
105.041101
 30
0.0
 11
504.107674
 21
118.93869
 31
0.0
  0
LINE
  5
7D5
330
1F
100
AcDbEntity
  8
003
 62
    40
370
     9
100
AcDbLine
 10
504.107674
 20
122.93869
 30
0.0
 11
504.107674
 21
130.715107
 31
0.0
  0
POLYLINE
  5
7D6
330
1F
100
AcDbEntity
  8
002
 62
     3
370
     9
100
AcDb2dPolyline
 66
     1
 10
0.0
 20
0.0
 30
0.0
  0
VERTEX
  5
7D8
330
7D6
100
AcDbEntity
  8
002
 62
     3
370
     9
100
AcDbVertex
100
AcDb2dVertex
 10
576.173549
 20
119.628104
 30
0.0
  0
VERTEX
  5
7D9
330
7D6
100
AcDbEntity
  8
002
 62
     3
370
     9
100
AcDbVertex
100
AcDb2dVertex
 10
577.736049
 20
118.253104
 30
0.0
  0
VERTEX
  5
7DA
330
7D6
100
AcDbEntity
  8
002
 62
     3
370
     9
100
AcDbVertex
100
AcDb2dVertex
 10
579.298549
 20
117.628104
 30
0.0
  0
VERTEX
  5
7DB
330
7D6
100
AcDbEntity
  8
002
 62
     3
370
     9
100
AcDbVertex
100
AcDb2dVertex
 10
580.861049
 20
118.253104
 30
0.0
  0
VERTEX
  5
7DC
330
7D6
100
AcDbEntity
  8
002
 62
     3
370
     9
100
AcDbVertex
100
AcDb2dVertex
 10
582.423549
 20
119.628104
 30
0.0
  0
VERTEX
  5
7DD
330
7D6
100
AcDbEntity
  8
002
 62
     3
370
     9
100
AcDbVertex
100
AcDb2dVertex
 10
583.986049
 20
121.003104
 30
0.0
  0
VERTEX
  5
7DE
330
7D6
100
AcDbEntity
  8
002
 62
     3
370
     9
100
AcDbVertex
100
AcDb2dVertex
 10
585.548549
 20
121.628104
 30
0.0
  0
VERTEX
  5
7DF
330
7D6
100
AcDbEntity
  8
002
 62
     3
370
     9
100
AcDbVertex
100
AcDb2dVertex
 10
587.111049
 20
121.003104
 30
0.0
  0
VERTEX
  5
7E0
330
7D6
100
AcDbEntity
  8
002
 62
     3
370
     9
100
AcDbVertex
100
AcDb2dVertex
 10
588.673549
 20
119.628104
 30
0.0
  0
SEQEND
  5
7D7
330
7D6
100
AcDbEntity
  8
002
370
     9
  0
POLYLINE
  5
7E1
330
1F
100
AcDbEntity
  8
002
 62
     3
370
     9
100
AcDb2dPolyline
 66
     1
 10
0.0
 20
0.0
 30
0.0
  0
VERTEX
  5
7E3
330
7E1
100
AcDbEntity
  8
002
 62
     3
370
     9
100
AcDbVertex
100
AcDb2dVertex
 10
576.173549
 20
123.628104
 30
0.0
  0
VERTEX
  5
7E4
330
7E1
100
AcDbEntity
  8
002
 62
     3
370
     9
100
AcDbVertex
100
AcDb2dVertex
 10
577.736049
 20
122.253104
 30
0.0
  0
VERTEX
  5
7E5
330
7E1
100
AcDbEntity
  8
002
 62
     3
370
     9
100
AcDbVertex
100
AcDb2dVertex
 10
579.298549
 20
121.628104
 30
0.0
  0
VERTEX
  5
7E6
330
7E1
100
AcDbEntity
  8
002
 62
     3
370
     9
100
AcDbVertex
100
AcDb2dVertex
 10
580.861049
 20
122.253104
 30
0.0
  0
VERTEX
  5
7E7
330
7E1
100
AcDbEntity
  8
002
 62
     3
370
     9
100
AcDbVertex
100
AcDb2dVertex
 10
582.423549
 20
123.628104
 30
0.0
  0
VERTEX
  5
7E8
330
7E1
100
AcDbEntity
  8
002
 62
     3
370
     9
100
AcDbVertex
100
AcDb2dVertex
 10
583.986049
 20
125.003104
 30
0.0
  0
VERTEX
  5
7E9
330
7E1
100
AcDbEntity
  8
002
 62
     3
370
     9
100
AcDbVertex
100
AcDb2dVertex
 10
585.548549
 20
125.628104
 30
0.0
  0
VERTEX
  5
7EA
330
7E1
100
AcDbEntity
  8
002
 62
     3
370
     9
100
AcDbVertex
100
AcDb2dVertex
 10
587.111049
 20
125.003104
 30
0.0
  0
VERTEX
  5
7EB
330
7E1
100
AcDbEntity
  8
002
 62
     3
370
     9
100
AcDbVertex
100
AcDb2dVertex
 10
588.673549
 20
123.628104
 30
0.0
  0
SEQEND
  5
7E2
330
7E1
100
AcDbEntity
  8
002
370
     9
  0
LINE
  5
7EC
330
1F
100
AcDbEntity
  8
003
 62
     3
370
    30
100
AcDbLine
 10
576.173549
 20
105.041101
 30
0.0
 11
576.173549
 21
119.628104
 31
0.0
  0
LINE
  5
7ED
330
1F
100
AcDbEntity
  8
003
 62
     3
370
    30
100
AcDbLine
 10
576.173549
 20
123.628104
 30
0.0
 11
576.173549
 21
138.215107
 31
0.0
  0
LINE
  5
7EE
330
1F
100
AcDbEntity
  8
003
 62
     3
370
    30
100
AcDbLine
 10
588.673549
 20
138.215107
 30
0.0
 11
588.673549
 21
123.628104
 31
0.0
  0
LINE
  5
7EF
330
1F
100
AcDbEntity
  8
003
 62
     3
370
    30
100
AcDbLine
 10
588.673549
 20
119.628104
 30
0.0
 11
588.673549
 21
105.041101
 31
0.0
  0
LINE
  5
7F0
330
1F
100
AcDbEntity
  8
003
 62
    40
370
     9
100
AcDbLine
 10
587.942049
 20
130.715107
 30
0.0
 11
587.942049
 21
124.317518
 31
0.0
  0
LINE
  5
7F1
330
1F
100
AcDbEntity
  8
003
 62
    40
370
     9
100
AcDbLine
 10
587.942049
 20
120.317518
 30
0.0
 11
587.942049
 21
105.041101
 31
0.0
  0
LINE
  5
7F2
330
1F
100
AcDbEntity
  8
003
 62
    40
370
     9
100
AcDbLine
 10
576.905049
 20
105.041101
 30
0.0
 11
576.905049
 21
118.93869
 31
0.0
  0
LINE
  5
7F3
330
1F
100
AcDbEntity
  8
003
 62
    40
370
     9
100
AcDbLine
 10
576.905049
 20
122.93869
 30
0.0
 11
576.905049
 21
130.715107
 31
0.0
  0
LINE
  5
7F4
330
1F
100
AcDbEntity
  8
002
  6
CENTER
 62
    40
370
     9
100
AcDbLine
 10
364.261255
 20
210.235807
 30
0.0
 11
364.261255
 21
27.449183
 31
0.0
  0
LINE
  5
7F5
330
1F
100
AcDbEntity
  8
002
  6
CENTER
 62
    40
370
     9
100
AcDbLine
 10
434.45513
 20
210.235807
 30
0.0
 11
434.45513
 21
27.449183
 31
0.0
  0
LINE
  5
7F6
330
1F
100
AcDbEntity
  8
002
  6
CENTER
 62
    40
370
     9
100
AcDbLine
 10
509.626174
 20
28.451646
 30
0.0
 11
509.626174
 21
207.65323
 31
0.0
  0
LINE
  5
7F7
330
1F
100
AcDbEntity
  8
002
  6
CENTER
 62
    40
370
     9
100
AcDbLine
 10
582.423549
 20
28.451646
 30
0.0
 11
582.423549
 21
207.65323
 31
0.0
  0
CIRCLE
  5
7F8
330
1F
100
AcDbEntity
  8
002
  6
CENTER
 62
    40
370
     9
100
AcDbCircle
 10
381.136255
 20
73.999719
 30
0.0
 40
8.75
  0
LINE
  5
7F9
330
1F
100
AcDbEntity
  8
002
  6
CENTER
 62
    40
370
     9
100
AcDbLine
 10
386.439505
 20
68.696469
 30
0.0
 11
388.207255
 21
66.928719
 31
0.0
  0
LINE
  5
7FA
330
1F
100
AcDbEntity
  8
002
  6
CENTER
 62
    40
370
     9
100
AcDbLine
 10
388.207255
 20
81.070844
 30
0.0
 11
386.439505
 21
79.303094
 31
0.0
  0
LINE
  5
7FB
330
1F
100
AcDbEntity
  8
002
  6
CENTER
 62
    40
370
     9
100
AcDbLine
 10
375.83288
 20
79.303094
 30
0.0
 11
374.06513
 21
81.070844
 31
0.0
  0
LINE
  5
7FC
330
1F
100
AcDbEntity
  8
002
  6
CENTER
 62
    40
370
     9
100
AcDbLine
 10
375.83288
 20
68.696469
 30
0.0
 11
374.06513
 21
66.928719
 31
0.0
  0
CIRCLE
  5
7FD
330
1F
100
AcDbEntity
  8
002
 62
     3
370
    30
100
AcDbCircle
 10
381.136255
 20
73.999719
 30
0.0
 40
7.0
  0
CIRCLE
  5
7FE
330
1F
100
AcDbEntity
  8
002
  6
CENTER
 62
    40
370
     9
100
AcDbCircle
 10
451.33013
 20
73.999719
 30
0.0
 40
8.75
  0
LINE
  5
7FF
330
1F
100
AcDbEntity
  8
002
  6
CENTER
 62
    40
370
     9
100
AcDbLine
 10
456.63338
 20
68.696469
 30
0.0
 11
458.40113
 21
66.928719
 31
0.0
  0
LINE
  5
800
330
1F
100
AcDbEntity
  8
002
  6
CENTER
 62
    40
370
     9
100
AcDbLine
 10
458.40113
 20
81.070844
 30
0.0
 11
456.63338
 21
79.303094
 31
0.0
  0
LINE
  5
801
330
1F
100
AcDbEntity
  8
002
  6
CENTER
 62
    40
370
     9
100
AcDbLine
 10
446.026755
 20
79.303094
 30
0.0
 11
444.259005
 21
81.070844
 31
0.0
  0
LINE
  5
802
330
1F
100
AcDbEntity
  8
002
  6
CENTER
 62
    40
370
     9
100
AcDbLine
 10
446.026755
 20
68.696469
 30
0.0
 11
444.259005
 21
66.928719
 31
0.0
  0
CIRCLE
  5
803
330
1F
100
AcDbEntity
  8
002
 62
     3
370
    30
100
AcDbCircle
 10
451.33013
 20
73.999719
 30
0.0
 40
7.0
  0
CIRCLE
  5
804
330
1F
100
AcDbEntity
  8
002
  6
CENTER
 62
    40
370
     9
100
AcDbCircle
 10
526.501174
 20
158.215107
 30
0.0
 40
8.75
  0
LINE
  5
805
330
1F
100
AcDbEntity
  8
002
  6
CENTER
 62
    40
370
     9
100
AcDbLine
 10
531.804424
 20
152.911857
 30
0.0
 11
533.572174
 21
151.144107
 31
0.0
  0
LINE
  5
806
330
1F
100
AcDbEntity
  8
002
  6
CENTER
 62
    40
370
     9
100
AcDbLine
 10
533.572174
 20
165.286232
 30
0.0
 11
531.804424
 21
163.518482
 31
0.0
  0
LINE
  5
807
330
1F
100
AcDbEntity
  8
002
  6
CENTER
 62
    40
370
     9
100
AcDbLine
 10
521.197799
 20
163.518482
 30
0.0
 11
519.430049
 21
165.286232
 31
0.0
  0
LINE
  5
808
330
1F
100
AcDbEntity
  8
002
  6
CENTER
 62
    40
370
     9
100
AcDbLine
 10
521.197799
 20
152.911857
 30
0.0
 11
519.430049
 21
151.144107
 31
0.0
  0
CIRCLE
  5
809
330
1F
100
AcDbEntity
  8
002
 62
     3
370
    30
100
AcDbCircle
 10
526.501174
 20
158.215107
 30
0.0
 40
7.0
  0
CIRCLE
  5
80A
330
1F
100
AcDbEntity
  8
002
  6
CENTER
 62
    40
370
     9
100
AcDbCircle
 10
599.298549
 20
158.215107
 30
0.0
 40
8.75
  0
LINE
  5
80B
330
1F
100
AcDbEntity
  8
002
  6
CENTER
 62
    40
370
     9
100
AcDbLine
 10
604.601799
 20
152.911857
 30
0.0
 11
606.369549
 21
151.144107
 31
0.0
  0
LINE
  5
80C
330
1F
100
AcDbEntity
  8
002
  6
CENTER
 62
    40
370
     9
100
AcDbLine
 10
606.369549
 20
165.286232
 30
0.0
 11
604.601799
 21
163.518482
 31
0.0
  0
LINE
  5
80D
330
1F
100
AcDbEntity
  8
002
  6
CENTER
 62
    40
370
     9
100
AcDbLine
 10
593.995174
 20
163.518482
 30
0.0
 11
592.227424
 21
165.286232
 31
0.0
  0
LINE
  5
80E
330
1F
100
AcDbEntity
  8
002
  6
CENTER
 62
    40
370
     9
100
AcDbLine
 10
593.995174
 20
152.911857
 30
0.0
 11
592.227424
 21
151.144107
 31
0.0
  0
CIRCLE
  5
80F
330
1F
100
AcDbEntity
  8
002
 62
     3
370
    30
100
AcDbCircle
 10
599.298549
 20
158.215107
 30
0.0
 40
7.0
  0
ENDSEC
  0
SECTION
  2
OBJECTS
  0
DICTIONARY
  5
C
330
0
100
AcDbDictionary
281
     1
  3
ACAD_GROUP
350
D
  3
ACAD_LAYOUT
350
1A
  3
ACAD_MLEADERSTYLE
350
812
  3
ACAD_MLINESTYLE
350
17
  3
ACAD_PLOTSETTINGS
350
19
  3
ACAD_PLOTSTYLENAME
350
E
  3
ACAD_SCALELIST
350
34A
  3
ACAD_VISUALSTYLE
350
2A
  3
AcDbVariableDictionary
350
810
  0
DICTIONARY
  5
D
102
{ACAD_REACTORS
330
C
102
}
330
C
100
AcDbDictionary
281
     1
  0
DICTIONARY
  5
1A
102
{ACAD_REACTORS
330
C
102
}
330
C
100
AcDbDictionary
281
     1
  3
Layout1
350
1E
  3
Layout2
350
26
  3
Model
350
22
  0
DICTIONARY
  5
812
102
{ACAD_REACTORS
330
C
102
}
330
C
100
AcDbDictionary
281
     1
  0
DICTIONARY
  5
17
102
{ACAD_REACTORS
330
C
102
}
330
C
100
AcDbDictionary
281
     1
  3
Standard
350
18
  0
DICTIONARY
  5
19
102
{ACAD_REACTORS
330
C
102
}
330
C
100
AcDbDictionary
281
     1
  0
ACDBDICTIONARYWDFLT
  5
E
102
{ACAD_REACTORS
330
C
102
}
330
C
100
AcDbDictionary
281
     1
  3
Normal
350
F
100
AcDbDictionaryWithDefault
340
F
  0
DICTIONARY
  5
34A
102
{ACAD_REACTORS
330
C
102
}
330
C
100
AcDbDictionary
281
     1
  3
A0
350
34B
  3
A1
350
34C
  3
A2
350
34D
  3
A3
350
34E
  3
A4
350
34F
  3
A5
350
350
  3
A6
350
351
  3
A7
350
352
  3
A8
350
353
  3
A9
350
354
  3
B0
350
355
  3
B1
350
356
  3
B2
350
357
  3
B3
350
358
  3
B4
350
359
  3
B5
350
35A
  3
B6
350
35B
  3
B7
350
35C
  3
B8
350
35D
  3
B9
350
35E
  3
C0
350
35F
  3
C1
350
360
  3
C2
350
361
  3
C3
350
362
  3
C4
350
363
  3
C5
350
364
  3
C6
350
365
  3
C7
350
366
  3
C8
350
367
  3
C9
350
368
  3
D0
350
369
  3
D1
350
36A
  3
D2
350
36B
  0
DICTIONARY
  5
2A
102
{ACAD_REACTORS
330
C
102
}
330
C
100
AcDbDictionary
281
     1
  3
2dWireframe
350
2F
  3
3D Hidden
350
31
  3
3dWireframe
350
30
  3
Basic
350
32
  3
Brighten
350
36
  3
ColorChange
350
3A
  3
Conceptual
350
34
  3
Dim
350
35
  3
Facepattern
350
39
  3
Flat
350
2B
  3
FlatWithEdges
350
2C
  3
Gouraud
350
2D
  3
GouraudWithEdges
350
2E
  3
Linepattern
350
38
  3
Realistic
350
33
  3
Thicken
350
37
  0
DICTIONARY
  5
810
102
{ACAD_REACTORS
330
C
102
}
330
C
100
AcDbDictionary
281
     1
  3
CANNOSCALE
350
815
  3
PSOLHEIGHT
350
814
  3
PSOLWIDTH
350
813
  0
LAYOUT
  5
1E
102
{ACAD_REACTORS
330
1A
102
}
330
1A
100
AcDbPlotSettings
  1

  2
none_device
  4

  6

 40
0.0
 41
0.0
 42
0.0
 43
0.0
 44
0.0
 45
0.0
 46
0.0
 47
0.0
 48
0.0
 49
0.0
140
0.0
141
0.0
142
1.0
143
1.0
 70
   688
 72
     0
 73
     0
 74
     5
  7

 75
    16
147
1.0
148
0.0
149
0.0
100
AcDbLayout
  1
Layout1
 70
     1
 71
     1
 10
0.0
 20
0.0
 11
12.0
 21
9.0
 12
0.0
 22
0.0
 32
0.0
 14
1.000000E+20
 24
1.000000E+20
 34
0.0
 15
-1.000000E+20
 25
-1.000000E+20
 35
0.0
146
0.0
 13
0.0
 23
0.0
 33
0.0
 16
1.0
 26
0.0
 36
0.0
 17
0.0
 27
1.0
 37
0.0
 76
     0
330
1B
  0
LAYOUT
  5
26
102
{ACAD_REACTORS
330
1A
102
}
330
1A
100
AcDbPlotSettings
  1

  2
none_device
  4

  6

 40
0.0
 41
0.0
 42
0.0
 43
0.0
 44
0.0
 45
0.0
 46
0.0
 47
0.0
 48
0.0
 49
0.0
140
0.0
141
0.0
142
1.0
143
1.0
 70
   688
 72
     0
 73
     0
 74
     5
  7

 75
    16
147
1.0
148
0.0
149
0.0
100
AcDbLayout
  1
Layout2
 70
     1
 71
     2
 10
0.0
 20
0.0
 11
0.0
 21
0.0
 12
0.0
 22
0.0
 32
0.0
 14
0.0
 24
0.0
 34
0.0
 15
0.0
 25
0.0
 35
0.0
146
0.0
 13
0.0
 23
0.0
 33
0.0
 16
1.0
 26
0.0
 36
0.0
 17
0.0
 27
1.0
 37
0.0
 76
     0
330
23
  0
LAYOUT
  5
22
102
{ACAD_REACTORS
330
1A
102
}
330
1A
100
AcDbPlotSettings
  1

  2
none_device
  4

  6

 40
0.0
 41
0.0
 42
0.0
 43
0.0
 44
0.0
 45
0.0
 46
0.0
 47
0.0
 48
0.0
 49
0.0
140
0.0
141
0.0
142
1.0
143
1.0
 70
  1712
 72
     0
 73
     0
 74
     0
  7

 75
     0
147
1.0
148
0.0
149
0.0
100
AcDbLayout
  1
Model
 70
     1
 71
     0
 10
0.0
 20
0.0
 11
12.0
 21
9.0
 12
0.0
 22
0.0
 32
0.0
 14
340.511292
 24
27.449188
 34
0.0
 15
613.036804
 25
448.907562
 35
0.0
146
0.0
 13
0.0
 23
0.0
 33
0.0
 16
1.0
 26
0.0
 36
0.0
 17
0.0
 27
1.0
 37
0.0
 76
     0
330
1F
331
29
  0
MLINESTYLE
  5
18
102
{ACAD_REACTORS
330
17
102
}
330
17
100
AcDbMlineStyle
  2
Standard
 70
     0
  3

 62
   256
 51
90.0
 52
90.0
 71
     2
 49
0.5
 62
   256
  6
BYLAYER
 49
-0.5
 62
   256
  6
BYLAYER
  0
ACDBPLACEHOLDER
  5
F
102
{ACAD_REACTORS
330
E
102
}
330
E
  0
SCALE
  5
34B
102
{ACAD_REACTORS
330
34A
102
}
330
34A
100
AcDbScale
 70
     0
300
1:1
140
1.0
141
1.0
290
     1
  0
SCALE
  5
34C
102
{ACAD_REACTORS
330
34A
102
}
330
34A
100
AcDbScale
 70
     0
300
1:2
140
1.0
141
2.0
290
     0
  0
SCALE
  5
34D
102
{ACAD_REACTORS
330
34A
102
}
330
34A
100
AcDbScale
 70
     0
300
1:4
140
1.0
141
4.0
290
     0
  0
SCALE
  5
34E
102
{ACAD_REACTORS
330
34A
102
}
330
34A
100
AcDbScale
 70
     0
300
1:5
140
1.0
141
5.0
290
     0
  0
SCALE
  5
34F
102
{ACAD_REACTORS
330
34A
102
}
330
34A
100
AcDbScale
 70
     0
300
1:8
140
1.0
141
8.0
290
     0
  0
SCALE
  5
350
102
{ACAD_REACTORS
330
34A
102
}
330
34A
100
AcDbScale
 70
     0
300
1:10
140
1.0
141
10.0
290
     0
  0
SCALE
  5
351
102
{ACAD_REACTORS
330
34A
102
}
330
34A
100
AcDbScale
 70
     0
300
1:16
140
1.0
141
16.0
290
     0
  0
SCALE
  5
352
102
{ACAD_REACTORS
330
34A
102
}
330
34A
100
AcDbScale
 70
     0
300
1:20
140
1.0
141
20.0
290
     0
  0
SCALE
  5
353
102
{ACAD_REACTORS
330
34A
102
}
330
34A
100
AcDbScale
 70
     0
300
1:30
140
1.0
141
30.0
290
     0
  0
SCALE
  5
354
102
{ACAD_REACTORS
330
34A
102
}
330
34A
100
AcDbScale
 70
     0
300
1:40
140
1.0
141
40.0
290
     0
  0
SCALE
  5
355
102
{ACAD_REACTORS
330
34A
102
}
330
34A
100
AcDbScale
 70
     0
300
1:50
140
1.0
141
50.0
290
     0
  0
SCALE
  5
356
102
{ACAD_REACTORS
330
34A
102
}
330
34A
100
AcDbScale
 70
     0
300
1:100
140
1.0
141
100.0
290
     0
  0
SCALE
  5
357
102
{ACAD_REACTORS
330
34A
102
}
330
34A
100
AcDbScale
 70
     0
300
2:1
140
2.0
141
1.0
290
     0
  0
SCALE
  5
358
102
{ACAD_REACTORS
330
34A
102
}
330
34A
100
AcDbScale
 70
     0
300
4:1
140
4.0
141
1.0
290
     0
  0
SCALE
  5
359
102
{ACAD_REACTORS
330
34A
102
}
330
34A
100
AcDbScale
 70
     0
300
8:1
140
8.0
141
1.0
290
     0
  0
SCALE
  5
35A
102
{ACAD_REACTORS
330
34A
102
}
330
34A
100
AcDbScale
 70
     0
300
10:1
140
10.0
141
1.0
290
     0
  0
SCALE
  5
35B
102
{ACAD_REACTORS
330
34A
102
}
330
34A
100
AcDbScale
 70
     0
300
100:1
140
100.0
141
1.0
290
     0
  0
SCALE
  5
35C
102
{ACAD_REACTORS
330
34A
102
}
330
34A
100
AcDbScale
 70
     0
300
1/128" = 1'-0"
140
0.007812
141
12.0
290
     0
  0
SCALE
  5
35D
102
{ACAD_REACTORS
330
34A
102
}
330
34A
100
AcDbScale
 70
     0
300
1/64" = 1'-0"
140
0.015625
141
12.0
290
     0
  0
SCALE
  5
35E
102
{ACAD_REACTORS
330
34A
102
}
330
34A
100
AcDbScale
 70
     0
300
1/32" = 1'-0"
140
0.03125
141
12.0
290
     0
  0
SCALE
  5
35F
102
{ACAD_REACTORS
330
34A
102
}
330
34A
100
AcDbScale
 70
     0
300
1/16" = 1'-0"
140
0.0625
141
12.0
290
     0
  0
SCALE
  5
360
102
{ACAD_REACTORS
330
34A
102
}
330
34A
100
AcDbScale
 70
     0
300
3/32" = 1'-0"
140
0.09375
141
12.0
290
     0
  0
SCALE
  5
361
102
{ACAD_REACTORS
330
34A
102
}
330
34A
100
AcDbScale
 70
     0
300
1/8" = 1'-0"
140
0.125
141
12.0
290
     0
  0
SCALE
  5
362
102
{ACAD_REACTORS
330
34A
102
}
330
34A
100
AcDbScale
 70
     0
300
3/16" = 1'-0"
140
0.1875
141
12.0
290
     0
  0
SCALE
  5
363
102
{ACAD_REACTORS
330
34A
102
}
330
34A
100
AcDbScale
 70
     0
300
1/4" = 1'-0"
140
0.25
141
12.0
290
     0
  0
SCALE
  5
364
102
{ACAD_REACTORS
330
34A
102
}
330
34A
100
AcDbScale
 70
     0
300
3/8" = 1'-0"
140
0.375
141
12.0
290
     0
  0
SCALE
  5
365
102
{ACAD_REACTORS
330
34A
102
}
330
34A
100
AcDbScale
 70
     0
300
1/2" = 1'-0"
140
0.5
141
12.0
290
     0
  0
SCALE
  5
366
102
{ACAD_REACTORS
330
34A
102
}
330
34A
100
AcDbScale
 70
     0
300
3/4" = 1'-0"
140
0.75
141
12.0
290
     0
  0
SCALE
  5
367
102
{ACAD_REACTORS
330
34A
102
}
330
34A
100
AcDbScale
 70
     0
300
1" = 1'-0"
140
1.0
141
12.0
290
     0
  0
SCALE
  5
368
102
{ACAD_REACTORS
330
34A
102
}
330
34A
100
AcDbScale
 70
     0
300
1-1/2" = 1'-0"
140
1.5
141
12.0
290
     0
  0
SCALE
  5
369
102
{ACAD_REACTORS
330
34A
102
}
330
34A
100
AcDbScale
 70
     0
300
3" = 1'-0"
140
3.0
141
12.0
290
     0
  0
SCALE
  5
36A
102
{ACAD_REACTORS
330
34A
102
}
330
34A
100
AcDbScale
 70
     0
300
6" = 1'-0"
140
6.0
141
12.0
290
     0
  0
SCALE
  5
36B
102
{ACAD_REACTORS
330
34A
102
}
330
34A
100
AcDbScale
 70
     0
300
1'-0" = 1'-0"
140
12.0
141
12.0
290
     0
  0
VISUALSTYLE
  5
2F
102
{ACAD_REACTORS
330
2A
102
}
330
2A
100
AcDbVisualStyle
  2
2dWireframe
 70
     4
 71
     0
 72
     2
 73
     0
 90
        0
 40
-0.6
 41
-30.0
 62
     5
 63
     7
 74
     1
 91
        4
 64
     7
 65
   257
 75
     1
175
     1
 42
1.0
 92
        0
 66
   257
 43
1.0
 76
     1
 77
     6
 78
     2
 67
     7
 79
     5
170
     0
171
     0
290
     0
174
     0
 93
        1
 44
0.0
173
     0
291
     0
 45
0.0
1001
ACAD
1000
AcDbSavedByObjectVersion
1070
     0
  0
VISUALSTYLE
  5
31
102
{ACAD_REACTORS
330
2A
102
}
330
2A
100
AcDbVisualStyle
  2
3D Hidden
 70
     6
 71
     1
 72
     2
 73
     2
 90
        0
 40
-0.6
 41
-30.0
 62
     5
 63
     7
 74
     2
 91
        2
 64
     7
 65
   257
 75
     2
175
     1
 42
40.0
 92
        0
 66
   257
 43
1.0
 76
     1
 77
     6
 78
     2
 67
     7
 79
     3
170
     0
171
     0
290
     0
174
     0
 93
        1
 44
0.0
173
     0
291
     0
 45
0.0
1001
ACAD
1000
AcDbSavedByObjectVersion
1070
     0
  0
VISUALSTYLE
  5
30
102
{ACAD_REACTORS
330
2A
102
}
330
2A
100
AcDbVisualStyle
  2
3dWireframe
 70
     5
 71
     0
 72
     2
 73
     0
 90
        0
 40
-0.6
 41
-30.0
 62
     5
 63
     7
 74
     1
 91
        4
 64
     7
 65
   257
 75
     1
175
     1
 42
1.0
 92
        0
 66
   257
 43
1.0
 76
     1
 77
     6
 78
     2
 67
     7
 79
     5
170
     0
171
     0
290
     0
174
     0
 93
        1
 44
0.0
173
     0
291
     0
 45
0.0
1001
ACAD
1000
AcDbSavedByObjectVersion
1070
     0
  0
VISUALSTYLE
  5
32
102
{ACAD_REACTORS
330
2A
102
}
330
2A
100
AcDbVisualStyle
  2
Basic
 70
     7
 71
     1
 72
     0
 73
     1
 90
        0
 40
-0.6
 41
-30.0
 62
     5
 63
     7
 74
     0
 91
        4
 64
     7
 65
   257
 75
     1
175
     1
 42
1.0
 92
        8
 66
     7
 43
1.0
 76
     1
 77
     6
 78
     2
 67
     7
 79
     5
170
     0
171
     0
290
     0
174
     0
 93
        1
 44
0.0
173
     0
291
     1
 45
0.0
1001
ACAD
1000
AcDbSavedByObjectVersion
1070
     0
  0
VISUALSTYLE
  5
36
102
{ACAD_REACTORS
330
2A
102
}
330
2A
100
AcDbVisualStyle
  2
Brighten
 70
    12
 71
     2
 72
     2
 73
     0
 90
        0
 40
-0.6
 41
-30.0
 62
     5
 63
     7
 74
     1
 91
        4
 64
     7
 65
   257
 75
     1
175
     1
 42
1.0
 92
        8
 66
     7
 43
1.0
 76
     1
 77
     6
 78
     2
 67
     7
 79
     5
170
     0
171
     0
290
     0
174
     0
 93
        1
 44
50.0
173
     0
291
     1
 45
0.0
1001
ACAD
1000
AcDbSavedByObjectVersion
1070
     0
  0
VISUALSTYLE
  5
3A
102
{ACAD_REACTORS
330
2A
102
}
330
2A
100
AcDbVisualStyle
  2
ColorChange
 70
    16
 71
     2
 72
     2
 73
     3
 90
        0
 40
-0.6
 41
-30.0
 62
     5
 63
     8
 74
     1
 91
        4
 64
     7
 65
   257
 75
     1
175
     1
 42
1.0
 92
        8
 66
     8
 43
1.0
 76
     1
 77
     6
 78
     2
 67
     7
 79
     5
170
     0
171
     0
290
     0
174
     0
 93
        1
 44
0.0
173
     0
291
     1
 45
0.0
1001
ACAD
1000
AcDbSavedByObjectVersion
1070
     0
  0
VISUALSTYLE
  5
34
102
{ACAD_REACTORS
330
2A
102
}
330
2A
100
AcDbVisualStyle
  2
Conceptual
 70
     9
 71
     3
 72
     2
 73
     0
 90
        0
 40
-0.6
 41
-30.0
 62
     5
 63
     7
 74
     2
 91
        2
 64
     7
 65
   257
 75
     1
175
     1
 42
40.0
 92
        8
 66
     7
 43
1.0
 76
     1
 77
     6
 78
     2
 67
     7
 79
     3
170
     0
171
     0
290
     0
174
     0
 93
        1
 44
0.0
173
     0
291
     0
 45
0.0
1001
ACAD
1000
AcDbSavedByObjectVersion
1070
     0
  0
VISUALSTYLE
  5
35
102
{ACAD_REACTORS
330
2A
102
}
330
2A
100
AcDbVisualStyle
  2
Dim
 70
    11
 71
     2
 72
     2
 73
     0
 90
        0
 40
-0.6
 41
-30.0
 62
     5
 63
     7
 74
     1
 91
        4
 64
     7
 65
   257
 75
     1
175
     1
 42
1.0
 92
        8
 66
     7
 43
1.0
 76
     1
 77
     6
 78
     2
 67
     7
 79
     5
170
     0
171
     0
290
     0
174
     0
 93
        1
 44
-50.0
173
     0
291
     1
 45
0.0
1001
ACAD
1000
AcDbSavedByObjectVersion
1070
     0
  0
VISUALSTYLE
  5
39
102
{ACAD_REACTORS
330
2A
102
}
330
2A
100
AcDbVisualStyle
  2
Facepattern
 70
    15
 71
     2
 72
     2
 73
     0
 90
        0
 40
-0.6
 41
-30.0
 62
     5
 63
     7
 74
     1
 91
        4
 64
     7
 65
   257
 75
     1
175
     1
 42
1.0
 92
        8
 66
     7
 43
1.0
 76
     1
 77
     6
 78
     2
 67
     7
 79
     5
170
     0
171
     0
290
     0
174
     0
 93
        1
 44
0.0
173
     0
291
     1
 45
0.0
1001
ACAD
1000
AcDbSavedByObjectVersion
1070
     0
  0
VISUALSTYLE
  5
2B
102
{ACAD_REACTORS
330
2A
102
}
330
2A
100
AcDbVisualStyle
  2
Flat
 70
     0
 71
     2
 72
     1
 73
     1
 90
        2
 40
-0.6
 41
30.0
 62
     5
 63
     7
 74
     0
 91
        4
 64
     7
 65
   257
 75
     1
175
     1
 42
1.0
 92
        8
 66
     7
 43
1.0
 76
     1
 77
     6
 78
     2
 67
     7
 79
     5
170
     0
171
     0
290
     0
174
     0
 93
       13
 44
0.0
173
     0
291
     1
 45
0.0
1001
ACAD
1000
AcDbSavedByObjectVersion
1070
     0
  0
VISUALSTYLE
  5
2C
102
{ACAD_REACTORS
330
2A
102
}
330
2A
100
AcDbVisualStyle
  2
FlatWithEdges
 70
     1
 71
     2
 72
     1
 73
     1
 90
        2
 40
-0.6
 41
30.0
 62
     5
 63
     7
 74
     1
 91
        4
 64
     7
 65
   257
 75
     1
175
     1
 42
1.0
 92
        0
 66
   257
 43
1.0
 76
     1
 77
     6
 78
     2
 67
     7
 79
     5
170
     0
171
     0
290
     0
174
     0
 93
       13
 44
0.0
173
     0
291
     1
 45
0.0
1001
ACAD
1000
AcDbSavedByObjectVersion
1070
     0
  0
VISUALSTYLE
  5
2D
102
{ACAD_REACTORS
330
2A
102
}
330
2A
100
AcDbVisualStyle
  2
Gouraud
 70
     2
 71
     2
 72
     2
 73
     1
 90
        2
 40
-0.6
 41
30.0
 62
     5
 63
     7
 74
     0
 91
        4
 64
     7
 65
   257
 75
     1
175
     1
 42
1.0
 92
        0
 66
     7
 43
1.0
 76
     1
 77
     6
 78
     2
 67
     7
 79
     5
170
     0
171
     0
290
     0
174
     0
 93
       13
 44
0.0
173
     0
291
     1
 45
0.0
1001
ACAD
1000
AcDbSavedByObjectVersion
1070
     0
  0
VISUALSTYLE
  5
2E
102
{ACAD_REACTORS
330
2A
102
}
330
2A
100
AcDbVisualStyle
  2
GouraudWithEdges
 70
     3
 71
     2
 72
     2
 73
     1
 90
        2
 40
-0.6
 41
30.0
 62
     5
 63
     7
 74
     1
 91
        4
 64
     7
 65
   257
 75
     1
175
     1
 42
1.0
 92
        0
 66
   257
 43
1.0
 76
     1
 77
     6
 78
     2
 67
     7
 79
     5
170
     0
171
     0
290
     0
174
     0
 93
       13
 44
0.0
173
     0
291
     1
 45
0.0
1001
ACAD
1000
AcDbSavedByObjectVersion
1070
     0
  0
VISUALSTYLE
  5
38
102
{ACAD_REACTORS
330
2A
102
}
330
2A
100
AcDbVisualStyle
  2
Linepattern
 70
    14
 71
     2
 72
     2
 73
     0
 90
        0
 40
-0.6
 41
-30.0
 62
     5
 63
     7
 74
     1
 91
        4
 64
     7
 65
   257
 75
     7
175
     7
 42
1.0
 92
        8
 66
     7
 43
1.0
 76
     1
 77
     6
 78
     2
 67
     7
 79
     5
170
     0
171
     0
290
     0
174
     0
 93
        1
 44
0.0
173
     0
291
     1
 45
0.0
1001
ACAD
1000
AcDbSavedByObjectVersion
1070
     0
  0
VISUALSTYLE
  5
33
102
{ACAD_REACTORS
330
2A
102
}
330
2A
100
AcDbVisualStyle
  2
Realistic
 70
     8
 71
     2
 72
     2
 73
     0
 90
        0
 40
-0.6
 41
-30.0
 62
     5
 63
     7
 74
     1
 91
        0
 64
     7
 65
   257
 75
     1
175
     1
 42
1.0
 92
        8
 66
     8
 43
1.0
 76
     1
 77
     6
 78
     2
 67
     7
 79
     5
170
     0
171
     0
290
     0
174
     0
 93
       13
 44
0.0
173
     0
291
     0
 45
0.0
1001
ACAD
1000
AcDbSavedByObjectVersion
1070
     0
  0
VISUALSTYLE
  5
37
102
{ACAD_REACTORS
330
2A
102
}
330
2A
100
AcDbVisualStyle
  2
Thicken
 70
    13
 71
     2
 72
     2
 73
     0
 90
        0
 40
-0.6
 41
-30.0
 62
     5
 63
     7
 74
     1
 91
        4
 64
     7
 65
   257
 75
     1
175
     1
 42
1.0
 92
       12
 66
     7
 43
1.0
 76
     1
 77
     6
 78
     2
 67
     7
 79
     5
170
     0
171
     0
290
     0
174
     0
 93
        1
 44
0.0
173
     0
291
     1
 45
0.0
1001
ACAD
1000
AcDbSavedByObjectVersion
1070
     0
  0
DICTIONARYVAR
  5
815
102
{ACAD_REACTORS
330
810
102
}
330
810
100
DictionaryVariables
280
     0
  1
1:1
  0
DICTIONARYVAR
  5
814
102
{ACAD_REACTORS
330
810
102
}
330
810
100
DictionaryVariables
280
     0
  1
80.000000
  0
DICTIONARYVAR
  5
813
102
{ACAD_REACTORS
330
810
102
}
330
810
100
DictionaryVariables
280
     0
  1
5.000000
  0
ENDSEC
  0
EOF
