  0
SECTION
  2
HEADER
  9
$ACADVER
  1
AC1015
  9
$ACADMAINTVER
 70
     6
  9
$DWGCODEPAGE
  3
ANSI_932
  9
$INSBASE
 10
0.0
 20
0.0
 30
0.0
  9
$EXTMIN
 10
266.511963
 20
86.315186
 30
0.0
  9
$EXTMAX
 10
3050.866943
 20
3755.922852
 30
0.0
  9
$LIMMIN
 10
0.0
 20
0.0
  9
$LIMMAX
 10
12.0
 20
9.0
  9
$ORTHOMODE
 70
     0
  9
$REGENMODE
 70
     1
  9
$FILLMODE
 70
     1
  9
$QTEXTMODE
 70
     0
  9
$MIRRTEXT
 70
     1
  9
$LTSCALE
 40
46.063709
  9
$ATTMODE
 70
     1
  9
$TEXTSIZE
 40
3.2
  9
$TRACEWID
 40
1.0
  9
$TEXTSTYLE
  7
Standard
  9
$CLAYER
  8
0
  9
$CELTYPE
  6
ByLayer
  9
$CECOLOR
 62
   256
  9
$CELTSCALE
 40
1.0
  9
$DISPSILH
 70
     0
  9
$DIMSCALE
 40
1.0
  9
$DIMASZ
 40
2.5
  9
$DIMEXO
 40
0.625
  9
$DIMDLI
 40
3.75
  9
$DIMRND
 40
0.0
  9
$DIMDLE
 40
0.0
  9
$DIMEXE
 40
1.25
  9
$DIMTP
 40
0.0
  9
$DIMTM
 40
0.0
  9
$DIMTXT
 40
2.5
  9
$DIMCEN
 40
0.09
  9
$DIMTSZ
 40
0.0
  9
$DIMTOL
 70
     0
  9
$DIMLIM
 70
     0
  9
$DIMTIH
 70
     0
  9
$DIMTOH
 70
     0
  9
$DIMSE1
 70
     0
  9
$DIMSE2
 70
     0
  9
$DIMTAD
 70
     0
  9
$DIMZIN
 70
     8
  9
$DIMBLK
  1

  9
$DIMASO
 70
     1
  9
$DIMSHO
 70
     0
  9
$DIMPOST
  1

  9
$DIMAPOST
  1

  9
$DIMALT
 70
     0
  9
$DIMALTD
 70
     3
  9
$DIMALTF
 40
0.03937
  9
$DIMLFAC
 40
1.0
  9
$DIMTOFL
 70
     1
  9
$DIMTVP
 40
0.0
  9
$DIMTIX
 70
     0
  9
$DIMSOXD
 70
     0
  9
$DIMSAH
 70
     0
  9
$DIMBLK1
  1

  9
$DIMBLK2
  1

  9
$DIMSTYLE
  2
ISO-25
  9
$DIMCLRD
 70
     0
  9
$DIMCLRE
 70
     0
  9
$DIMCLRT
 70
     0
  9
$DIMTFAC
 40
1.0
  9
$DIMGAP
 40
0.625
  9
$DIMJUST
 70
     0
  9
$DIMSD1
 70
     0
  9
$DIMSD2
 70
     0
  9
$DIMTOLJ
 70
     0
  9
$DIMTZIN
 70
     8
  9
$DIMALTZ
 70
     0
  9
$DIMALTTZ
 70
     0
  9
$DIMUPT
 70
     0
  9
$DIMDEC
 70
     2
  9
$DIMTDEC
 70
     2
  9
$DIMALTU
 70
     2
  9
$DIMALTTD
 70
     3
  9
$DIMTXSTY
  7
Standard
  9
$DIMAUNIT
 70
     0
  9
$DIMADEC
 70
     0
  9
$DIMALTRND
 40
0.0
  9
$DIMAZIN
 70
     0
  9
$DIMDSEP
 70
    44
  9
$DIMATFIT
 70
     3
  9
$DIMFRAC
 70
     0
  9
$DIMLDRBLK
  1

  9
$DIMLUNIT
 70
     2
  9
$DIMLWD
 70
    -2
  9
$DIMLWE
 70
    -2
  9
$DIMTMOVE
 70
     0
  9
$LUNITS
 70
     2
  9
$LUPREC
 70
     4
  9
$SKETCHINC
 40
1.0
  9
$FILLETRAD
 40
0.0
  9
$AUNITS
 70
     0
  9
$AUPREC
 70
     0
  9
$MENU
  1
.
  9
$ELEVATION
 40
0.0
  9
$PELEVATION
 40
0.0
  9
$THICKNESS
 40
0.0
  9
$LIMCHECK
 70
     0
  9
$CHAMFERA
 40
10.0
  9
$CHAMFERB
 40
10.0
  9
$CHAMFERC
 40
20.0
  9
$CHAMFERD
 40
0.0
  9
$SKPOLY
 70
     0
  9
$TDCREATE
 40
2455649.657813761
  9
$TDUCREATE
 40
2455649.282813761
  9
$TDUPDATE
 40
2455649.657813773
  9
$TDUUPDATE
 40
2455649.282813773
  9
$TDINDWG
 40
0.0000000116
  9
$TDUSRTIMER
 40
0.0000000116
  9
$USRTIMER
 70
     1
  9
$ANGBASE
 50
0.0
  9
$ANGDIR
 70
     0
  9
$PDMODE
 70
     0
  9
$PDSIZE
 40
0.0
  9
$PLINEWID
 40
0.0
  9
$SPLFRAME
 70
     0
  9
$SPLINETYPE
 70
     6
  9
$SPLINESEGS
 70
     8
  9
$HANDSEED
  5
7D4
  9
$SURFTAB1
 70
     6
  9
$SURFTAB2
 70
     6
  9
$SURFTYPE
 70
     6
  9
$SURFU
 70
     6
  9
$SURFV
 70
     6
  9
$UCSBASE
  2

  9
$UCSNAME
  2

  9
$UCSORG
 10
0.0
 20
0.0
 30
0.0
  9
$UCSXDIR
 10
1.0
 20
0.0
 30
0.0
  9
$UCSYDIR
 10
0.0
 20
1.0
 30
0.0
  9
$UCSORTHOREF
  2

  9
$UCSORTHOVIEW
 70
     0
  9
$UCSORGTOP
 10
0.0
 20
0.0
 30
0.0
  9
$UCSORGBOTTOM
 10
0.0
 20
0.0
 30
0.0
  9
$UCSORGLEFT
 10
0.0
 20
0.0
 30
0.0
  9
$UCSORGRIGHT
 10
0.0
 20
0.0
 30
0.0
  9
$UCSORGFRONT
 10
0.0
 20
0.0
 30
0.0
  9
$UCSORGBACK
 10
0.0
 20
0.0
 30
0.0
  9
$PUCSBASE
  2

  9
$PUCSNAME
  2

  9
$PUCSORG
 10
0.0
 20
0.0
 30
0.0
  9
$PUCSXDIR
 10
1.0
 20
0.0
 30
0.0
  9
$PUCSYDIR
 10
0.0
 20
1.0
 30
0.0
  9
$PUCSORTHOREF
  2

  9
$PUCSORTHOVIEW
 70
     0
  9
$PUCSORGTOP
 10
0.0
 20
0.0
 30
0.0
  9
$PUCSORGBOTTOM
 10
0.0
 20
0.0
 30
0.0
  9
$PUCSORGLEFT
 10
0.0
 20
0.0
 30
0.0
  9
$PUCSORGRIGHT
 10
0.0
 20
0.0
 30
0.0
  9
$PUCSORGFRONT
 10
0.0
 20
0.0
 30
0.0
  9
$PUCSORGBACK
 10
0.0
 20
0.0
 30
0.0
  9
$USERI1
 70
     0
  9
$USERI2
 70
     0
  9
$USERI3
 70
     0
  9
$USERI4
 70
     0
  9
$USERI5
 70
     0
  9
$USERR1
 40
0.0
  9
$USERR2
 40
0.0
  9
$USERR3
 40
0.0
  9
$USERR4
 40
0.0
  9
$USERR5
 40
0.0
  9
$WORLDVIEW
 70
     1
  9
$SHADEDGE
 70
     3
  9
$SHADEDIF
 70
    70
  9
$TILEMODE
 70
     1
  9
$MAXACTVP
 70
    64
  9
$PINSBASE
 10
0.0
 20
0.0
 30
0.0
  9
$PLIMCHECK
 70
     0
  9
$PEXTMIN
 10
1.000000E+20
 20
1.000000E+20
 30
0.0
  9
$PEXTMAX
 10
-1.000000E+20
 20
-1.000000E+20
 30
0.0
  9
$PLIMMIN
 10
0.0
 20
0.0
  9
$PLIMMAX
 10
12.0
 20
9.0
  9
$UNITMODE
 70
     0
  9
$VISRETAIN
 70
     1
  9
$PLINEGEN
 70
     0
  9
$PSLTSCALE
 70
     1
  9
$TREEDEPTH
 70
  3020
  9
$CMLSTYLE
  2
Standard
  9
$CMLJUST
 70
     0
  9
$CMLSCALE
 40
20.0
  9
$PROXYGRAPHICS
 70
     1
  9
$MEASUREMENT
 70
     1
  9
$CELWEIGHT
370
    -1
  9
$ENDCAPS
280
     0
  9
$JOINSTYLE
280
     0
  9
$LWDISPLAY
290
     0
  9
$INSUNITS
 70
     4
  9
$HYPERLINKBASE
  1

  9
$STYLESHEET
  1

  9
$XEDIT
290
     1
  9
$CEPSNTYPE
380
     0
  9
$PSTYLEMODE
290
     1
  9
$FINGERPRINTGUID
  2
{6EF9284E-E8BE-4131-8C7F-257B14B31C65}
  9
$VERSIONGUID
  2
{FAEB1C32-E019-11D5-929B-00C0DF256EC4}
  9
$EXTNAMES
290
     1
  9
$PSVPSCALE
 40
0.0
  9
$OLESTARTUP
290
     0
  0
ENDSEC
  0
SECTION
  2
CLASSES
  0
CLASS
  1
ACDBDICTIONARYWDFLT
  2
AcDbDictionaryWithDefault
  3
ObjectDBX Classes
 90
        0
280
     0
281
     0
  0
CLASS
  1
VISUALSTYLE
  2
AcDbVisualStyle
  3
ObjectDBX Classes
 90
     4095
280
     0
281
     0
  0
CLASS
  1
DICTIONARYVAR
  2
AcDbDictionaryVar
  3
ObjectDBX Classes
 90
        0
280
     0
281
     0
  0
CLASS
  1
ACDBPLACEHOLDER
  2
AcDbPlaceHolder
  3
ObjectDBX Classes
 90
        0
280
     0
281
     0
  0
CLASS
  1
LAYOUT
  2
AcDbLayout
  3
ObjectDBX Classes
 90
        0
280
     0
281
     0
  0
ENDSEC
  0
SECTION
  2
TABLES
  0
TABLE
  2
VPORT
  5
8
330
0
100
AcDbSymbolTable
 70
     1
  0
VPORT
  5
29
330
8
100
AcDbSymbolTableRecord
100
AcDbViewportTableRecord
  2
*Active
 70
     0
 10
0.0
 20
0.0
 11
1.0
 21
1.0
 12
1658.689453
 22
1921.119019
 13
0.0
 23
0.0
 14
1.0
 24
1.0
 15
0.0
 25
0.0
 16
0.0
 26
0.0
 36
1.0
 17
0.0
 27
0.0
 37
0.0
 40
3706.303743
 41
1.691288
 42
50.0
 43
0.0
 44
0.0
 50
0.0
 51
0.0
 71
     0
 72
   100
 73
     1
 74
     3
 75
     0
 76
     0
 77
     0
 78
     0
281
     0
 65
     1
110
0.0
120
0.0
130
0.0
111
1.0
121
0.0
131
0.0
112
0.0
122
1.0
132
0.0
 79
     0
146
0.0
  0
ENDTAB
  0
TABLE
  2
LTYPE
  5
5
330
0
100
AcDbSymbolTable
 70
     5
  0
LTYPE
  5
14
330
5
100
AcDbSymbolTableRecord
100
AcDbLinetypeTableRecord
  2
ByBlock
 70
     0
  3

 72
    65
 73
     0
 40
0.0
  0
LTYPE
  5
15
330
5
100
AcDbSymbolTableRecord
100
AcDbLinetypeTableRecord
  2
ByLayer
 70
     0
  3

 72
    65
 73
     0
 40
0.0
  0
LTYPE
  5
16
330
5
100
AcDbSymbolTableRecord
100
AcDbLinetypeTableRecord
  2
Continuous
 70
     0
  3
Solid line
 72
    65
 73
     0
 40
0.0
  0
LTYPE
  5
3B
330
5
100
AcDbSymbolTableRecord
100
AcDbLinetypeTableRecord
  2
DASHED
 70
     0
  3
DASHED
 72
    83
 73
     2
 40
0.75
 49
0.5
 74
     0
 49
-0.25
 74
     0
  0
LTYPE
  5
3C
330
5
100
AcDbSymbolTableRecord
100
AcDbLinetypeTableRecord
  2
HIDDEN
 70
     0
  3
HIDDEN
 72
    83
 73
     2
 40
0.375
 49
0.25
 74
     0
 49
-0.125
 74
     0
  0
LTYPE
  5
3D
330
5
100
AcDbSymbolTableRecord
100
AcDbLinetypeTableRecord
  2
CENTER
 70
     0
  3
CENTER
 72
    83
 73
     4
 40
2.0
 49
1.25
 74
     0
 49
-0.25
 74
     0
 49
0.25
 74
     0
 49
-0.25
 74
     0
  0
LTYPE
  5
3E
330
5
100
AcDbSymbolTableRecord
100
AcDbLinetypeTableRecord
  2
PHANTOM
 70
     0
  3
PHANTOM
 72
    83
 73
     6
 40
2.5
 49
1.25
 74
     0
 49
-0.25
 74
     0
 49
0.25
 74
     0
 49
-0.25
 74
     0
 49
0.25
 74
     0
 49
-0.25
 74
     0
  0
ENDTAB
  0
TABLE
  2
LAYER
  5
2
330
0
100
AcDbSymbolTable
 70
     5
  0
LAYER
  5
10
330
2
100
AcDbSymbolTableRecord
100
AcDbLayerTableRecord
  2
0
 70
     0
 62
     7
  6
Continuous
370
    -3
390
F
  0
LAYER
  5
3F
330
2
100
AcDbSymbolTableRecord
100
AcDbLayerTableRecord
  2
001
 70
     0
 62
     7
  6
Continuous
370
    -3
390
F
  0
LAYER
  5
40
330
2
100
AcDbSymbolTableRecord
100
AcDbLayerTableRecord
  2
002
 70
     0
 62
     7
  6
Continuous
370
    -3
390
F
  0
LAYER
  5
41
330
2
100
AcDbSymbolTableRecord
100
AcDbLayerTableRecord
  2
003
 70
     0
 62
     7
  6
Continuous
370
    -3
390
F
  0
LAYER
  5
42
330
2
100
AcDbSymbolTableRecord
100
AcDbLayerTableRecord
  2
004
 70
     0
 62
     7
  6
Continuous
370
    -3
390
F
  0
ENDTAB
  0
TABLE
  2
STYLE
  5
3
330
0
100
AcDbSymbolTable
 70
     2
  0
STYLE
  5
11
330
3
100
AcDbSymbolTableRecord
100
AcDbTextStyleTableRecord
  2
Standard
 70
     0
 40
0.0
 41
1.0
 50
0.0
 71
     0
 42
0.2
  3
TXT
  4
BIGFONT
  0
STYLE
  5
43
330
3
100
AcDbSymbolTableRecord
100
AcDbTextStyleTableRecord
  2
TATEGAKI
 70
     4
 40
1.0
 41
1.0
 50
0.0
 71
     0
 42
0.2
  3
TXT
  4
BIGFONT
  0
ENDTAB
  0
TABLE
  2
VIEW
  5
6
330
0
100
AcDbSymbolTable
 70
     0
  0
ENDTAB
  0
TABLE
  2
UCS
  5
7
330
0
100
AcDbSymbolTable
 70
     0
  0
ENDTAB
  0
TABLE
  2
APPID
  5
9
330
0
100
AcDbSymbolTable
 70
     1
  0
APPID
  5
12
330
9
100
AcDbSymbolTableRecord
100
AcDbRegAppTableRecord
  2
ACAD
 70
     0
  0
ENDTAB
  0
TABLE
  2
DIMSTYLE
  5
A
330
0
100
AcDbSymbolTable
 70
     2
100
AcDbDimStyleTable
  0
DIMSTYLE
105
27
330
A
100
AcDbSymbolTableRecord
100
AcDbDimStyleTableRecord
  2
ISO-25
 70
     0
 41
2.5
 42
0.625
 43
3.75
 44
1.25
 73
     0
 74
     0
 77
     1
 78
     8
140
2.5
141
2.5
143
0.03937
147
0.625
171
     3
172
     1
271
     2
272
     2
274
     3
278
    44
283
     0
284
     8
340
11
  0
DIMSTYLE
105
44
330
A
100
AcDbSymbolTableRecord
100
AcDbDimStyleTableRecord
  2
Standard
 70
     0
 41
3.0
 42
0.5
 44
0.7
 73
     0
 74
     0
 77
     1
 78
     8
 79
     2
140
4.0
146
0.65
147
1.0
172
     1
179
     3
271
     3
283
     2
340
11
  0
ENDTAB
  0
TABLE
  2
BLOCK_RECORD
  5
1
330
0
100
AcDbSymbolTable
 70
    37
  0
BLOCK_RECORD
  5
1F
330
1
100
AcDbSymbolTableRecord
100
AcDbBlockTableRecord
  2
*Model_Space
340
22
  0
BLOCK_RECORD
  5
1B
330
1
100
AcDbSymbolTableRecord
100
AcDbBlockTableRecord
  2
*Paper_Space
340
1E
  0
BLOCK_RECORD
  5
23
330
1
100
AcDbSymbolTableRecord
100
AcDbBlockTableRecord
  2
*Paper_Space0
340
26
  0
BLOCK_RECORD
  5
45
330
1
100
AcDbSymbolTableRecord
100
AcDbBlockTableRecord
  2
JZB-1
340
0
102
{BLKREFS
331
1C9
102
}
  0
BLOCK_RECORD
  5
56
330
1
100
AcDbSymbolTableRecord
100
AcDbBlockTableRecord
  2
JZB-2
340
0
102
{BLKREFS
331
1CA
102
}
  0
BLOCK_RECORD
  5
67
330
1
100
AcDbSymbolTableRecord
100
AcDbBlockTableRecord
  2
JZB-3
340
0
102
{BLKREFS
331
1CB
102
}
  0
BLOCK_RECORD
  5
78
330
1
100
AcDbSymbolTableRecord
100
AcDbBlockTableRecord
  2
JZB-4
340
0
102
{BLKREFS
331
1CC
102
}
  0
BLOCK_RECORD
  5
89
330
1
100
AcDbSymbolTableRecord
100
AcDbBlockTableRecord
  2
JZB-5
340
0
102
{BLKREFS
331
1CD
102
}
  0
BLOCK_RECORD
  5
93
330
1
100
AcDbSymbolTableRecord
100
AcDbBlockTableRecord
  2
JZB-6
340
0
102
{BLKREFS
331
1CE
102
}
  0
BLOCK_RECORD
  5
9D
330
1
100
AcDbSymbolTableRecord
100
AcDbBlockTableRecord
  2
JZB-7
340
0
102
{BLKREFS
331
1CF
102
}
  0
BLOCK_RECORD
  5
A7
330
1
100
AcDbSymbolTableRecord
100
AcDbBlockTableRecord
  2
JZB-8
340
0
102
{BLKREFS
331
1D0
102
}
  0
BLOCK_RECORD
  5
B1
330
1
100
AcDbSymbolTableRecord
100
AcDbBlockTableRecord
  2
JZB-9
340
0
102
{BLKREFS
331
1D1
102
}
  0
BLOCK_RECORD
  5
BB
330
1
100
AcDbSymbolTableRecord
100
AcDbBlockTableRecord
  2
JZB-10
340
0
102
{BLKREFS
331
1D2
102
}
  0
BLOCK_RECORD
  5
C5
330
1
100
AcDbSymbolTableRecord
100
AcDbBlockTableRecord
  2
JZB-11
340
0
102
{BLKREFS
331
1D3
102
}
  0
BLOCK_RECORD
  5
CF
330
1
100
AcDbSymbolTableRecord
100
AcDbBlockTableRecord
  2
JZB-12
340
0
102
{BLKREFS
331
1D4
102
}
  0
BLOCK_RECORD
  5
D9
330
1
100
AcDbSymbolTableRecord
100
AcDbBlockTableRecord
  2
JZB-13
340
0
102
{BLKREFS
331
1D5
102
}
  0
BLOCK_RECORD
  5
E3
330
1
100
AcDbSymbolTableRecord
100
AcDbBlockTableRecord
  2
JZB-14
340
0
102
{BLKREFS
331
1D6
102
}
  0
BLOCK_RECORD
  5
ED
330
1
100
AcDbSymbolTableRecord
100
AcDbBlockTableRecord
  2
JZB-15
340
0
102
{BLKREFS
331
1D7
102
}
  0
BLOCK_RECORD
  5
F7
330
1
100
AcDbSymbolTableRecord
100
AcDbBlockTableRecord
  2
JZB-16
340
0
102
{BLKREFS
331
1D8
102
}
  0
BLOCK_RECORD
  5
101
330
1
100
AcDbSymbolTableRecord
100
AcDbBlockTableRecord
  2
JZB-17
340
0
102
{BLKREFS
331
1D9
102
}
  0
BLOCK_RECORD
  5
10B
330
1
100
AcDbSymbolTableRecord
100
AcDbBlockTableRecord
  2
JZB-18
340
0
102
{BLKREFS
331
1DA
102
}
  0
BLOCK_RECORD
  5
115
330
1
100
AcDbSymbolTableRecord
100
AcDbBlockTableRecord
  2
JZB-19
340
0
102
{BLKREFS
331
1DB
102
}
  0
BLOCK_RECORD
  5
11F
330
1
100
AcDbSymbolTableRecord
100
AcDbBlockTableRecord
  2
JZB-20
340
0
102
{BLKREFS
331
1DC
102
}
  0
BLOCK_RECORD
  5
129
330
1
100
AcDbSymbolTableRecord
100
AcDbBlockTableRecord
  2
JZB-21
340
0
102
{BLKREFS
331
1DD
102
}
  0
BLOCK_RECORD
  5
133
330
1
100
AcDbSymbolTableRecord
100
AcDbBlockTableRecord
  2
JZB-22
340
0
102
{BLKREFS
331
1DE
102
}
  0
BLOCK_RECORD
  5
13D
330
1
100
AcDbSymbolTableRecord
100
AcDbBlockTableRecord
  2
JZB-23
340
0
102
{BLKREFS
331
1DF
102
}
  0
BLOCK_RECORD
  5
147
330
1
100
AcDbSymbolTableRecord
100
AcDbBlockTableRecord
  2
JZB-24
340
0
102
{BLKREFS
331
1E0
102
}
  0
BLOCK_RECORD
  5
151
330
1
100
AcDbSymbolTableRecord
100
AcDbBlockTableRecord
  2
JZB-25
340
0
102
{BLKREFS
331
1E1
102
}
  0
BLOCK_RECORD
  5
15B
330
1
100
AcDbSymbolTableRecord
100
AcDbBlockTableRecord
  2
JZB-26
340
0
102
{BLKREFS
331
1E2
102
}
  0
BLOCK_RECORD
  5
165
330
1
100
AcDbSymbolTableRecord
100
AcDbBlockTableRecord
  2
JZB-27
340
0
102
{BLKREFS
331
1E3
102
}
  0
BLOCK_RECORD
  5
16F
330
1
100
AcDbSymbolTableRecord
100
AcDbBlockTableRecord
  2
JZB-28
340
0
102
{BLKREFS
331
1E4
102
}
  0
BLOCK_RECORD
  5
179
330
1
100
AcDbSymbolTableRecord
100
AcDbBlockTableRecord
  2
JZB-29
340
0
102
{BLKREFS
331
1E5
102
}
  0
BLOCK_RECORD
  5
183
330
1
100
AcDbSymbolTableRecord
100
AcDbBlockTableRecord
  2
JZB-30
340
0
102
{BLKREFS
331
1E6
102
}
  0
BLOCK_RECORD
  5
18D
330
1
100
AcDbSymbolTableRecord
100
AcDbBlockTableRecord
  2
JZB-31
340
0
102
{BLKREFS
331
1E7
102
}
  0
BLOCK_RECORD
  5
197
330
1
100
AcDbSymbolTableRecord
100
AcDbBlockTableRecord
  2
JZB-32
340
0
102
{BLKREFS
331
1E8
102
}
  0
BLOCK_RECORD
  5
1A1
330
1
100
AcDbSymbolTableRecord
100
AcDbBlockTableRecord
  2
JZB-33
340
0
102
{BLKREFS
331
1E9
102
}
  0
BLOCK_RECORD
  5
1AB
330
1
100
AcDbSymbolTableRecord
100
AcDbBlockTableRecord
  2
JZB-34
340
0
102
{BLKREFS
331
1EA
102
}
  0
BLOCK_RECORD
  5
1B5
330
1
100
AcDbSymbolTableRecord
100
AcDbBlockTableRecord
  2
JZB-35
340
0
102
{BLKREFS
331
1EB
102
}
  0
BLOCK_RECORD
  5
1BF
330
1
100
AcDbSymbolTableRecord
100
AcDbBlockTableRecord
  2
JZB-36
340
0
102
{BLKREFS
331
1EC
102
}
  0
ENDTAB
  0
ENDSEC
  0
SECTION
  2
BLOCKS
  0
BLOCK
  5
20
330
1F
100
AcDbEntity
  8
0
100
AcDbBlockBegin
  2
*Model_Space
 70
     0
 10
0.0
 20
0.0
 30
0.0
  3
*Model_Space
  1

  0
ENDBLK
  5
21
330
1F
100
AcDbEntity
  8
0
100
AcDbBlockEnd
  0
BLOCK
  5
1C
330
1B
100
AcDbEntity
 67
     1
  8
0
100
AcDbBlockBegin
  2
*Paper_Space
 70
     0
 10
0.0
 20
0.0
 30
0.0
  3
*Paper_Space
  1

  0
ENDBLK
  5
1D
330
1B
100
AcDbEntity
 67
     1
  8
0
100
AcDbBlockEnd
  0
BLOCK
  5
24
330
23
100
AcDbEntity
  8
0
100
AcDbBlockBegin
  2
*Paper_Space0
 70
     0
 10
0.0
 20
0.0
 30
0.0
  3
*Paper_Space0
  1

  0
ENDBLK
  5
25
330
23
100
AcDbEntity
  8
0
100
AcDbBlockEnd
  0
BLOCK
  5
46
330
45
100
AcDbEntity
  8
0
100
AcDbBlockBegin
  2
JZB-1
 70
     0
 10
0.0
 20
0.0
 30
0.0
  3
JZB-1
  1

  0
LINE
  5
48
330
45
100
AcDbEntity
  8
004
 62
     3
370
    30
100
AcDbLine
 10
639.582914
 20
3628.791837
 30
0.0
 11
631.676706
 21
3628.791837
 31
0.0
  0
LINE
  5
49
330
45
100
AcDbEntity
  8
004
 62
     3
370
    30
100
AcDbLine
 10
623.157914
 20
3632.605277
 30
0.0
 11
623.157914
 21
3635.665993
 31
0.0
  0
LINE
  5
4A
330
45
100
AcDbEntity
  8
004
 62
     3
370
    30
100
AcDbLine
 10
617.682914
 20
3635.665993
 30
0.0
 11
617.682914
 21
3634.82409
 31
0.0
  0
LINE
  5
4B
330
45
100
AcDbEntity
  8
004
 62
     3
370
    30
100
AcDbLine
 10
639.582914
 20
3635.665993
 30
0.0
 11
639.582914
 21
3628.791837
 31
0.0
  0
LINE
  5
4C
330
45
100
AcDbEntity
  8
004
 62
     3
370
    30
100
AcDbLine
 10
637.632914
 20
3636.791826
 30
0.0
 11
619.632914
 21
3636.791826
 31
0.0
  0
LINE
  5
4D
330
45
100
AcDbEntity
  8
004
 62
     3
370
    30
100
AcDbLine
 10
637.632914
 20
3636.791826
 30
0.0
 11
639.582914
 21
3635.665993
 31
0.0
  0
LINE
  5
4E
330
45
100
AcDbEntity
  8
004
 62
     3
370
    30
100
AcDbLine
 10
619.632914
 20
3636.791826
 30
0.0
 11
617.682914
 21
3635.665993
 31
0.0
  0
LINE
  5
4F
330
45
100
AcDbEntity
  8
004
 62
     3
370
    30
100
AcDbLine
 10
634.107914
 20
3628.791837
 30
0.0
 11
634.107914
 21
3635.665993
 31
0.0
  0
ARC
  5
50
330
45
100
AcDbEntity
  8
004
 62
     3
370
    30
100
AcDbCircle
 10
620.420414
 20
3632.900749
 30
0.0
 40
3.89107712070552
100
AcDbArc
 50
45.288875
 51
90.0
  0
ARC
  5
51
330
45
100
AcDbEntity
  8
004
 62
     3
370
    30
100
AcDbCircle
 10
636.845414
 20
3632.900749
 30
0.0
 40
3.89107712070552
100
AcDbArc
 50
90.0
 51
134.711125
  0
ARC
  5
52
330
45
100
AcDbEntity
  8
004
 62
     3
370
    30
100
AcDbCircle
 10
628.632914
 20
3622.916267
 30
0.0
 40
13.87555894544244
100
AcDbArc
 50
66.760299
 51
113.239701
  0
LINE
  5
53
330
45
100
AcDbEntity
  8
004
 62
     3
370
    30
100
AcDbLine
 10
628.632909
 20
3628.791826
 30
0.0
 11
628.632909
 21
3628.791837
 31
0.0
  0
LINE
  5
54
330
45
100
AcDbEntity
  8
004
 62
     3
370
    30
100
AcDbLine
 10
628.632909
 20
3628.791826
 30
0.0
 11
628.63292
 21
3628.791826
 31
0.0
  0
LINE
  5
55
330
45
100
AcDbEntity
  8
004
 62
     3
370
    30
100
AcDbLine
 10
628.63292
 20
3628.791826
 30
0.0
 11
628.63292
 21
3628.791837
 31
0.0
  0
ENDBLK
  5
47
330
45
100
AcDbEntity
  8
0
100
AcDbBlockEnd
  0
BLOCK
  5
57
330
56
100
AcDbEntity
  8
0
100
AcDbBlockBegin
  2
JZB-2
 70
     0
 10
0.0
 20
0.0
 30
0.0
  3
JZB-2
  1

  0
LINE
  5
59
330
56
100
AcDbEntity
  8
004
 62
     3
370
    30
100
AcDbLine
 10
773.545914
 20
3635.665993
 30
0.0
 11
773.545914
 21
3628.791837
 31
0.0
  0
LINE
  5
5A
330
56
100
AcDbEntity
  8
004
 62
     3
370
    30
100
AcDbLine
 10
771.595914
 20
3636.791826
 30
0.0
 11
753.595914
 21
3636.791826
 31
0.0
  0
LINE
  5
5B
330
56
100
AcDbEntity
  8
004
 62
     3
370
    30
100
AcDbLine
 10
773.545914
 20
3628.791837
 30
0.0
 11
751.645914
 21
3628.791837
 31
0.0
  0
LINE
  5
5C
330
56
100
AcDbEntity
  8
004
 62
     3
370
    30
100
AcDbLine
 10
771.595914
 20
3636.791826
 30
0.0
 11
773.545914
 21
3635.665993
 31
0.0
  0
LINE
  5
5D
330
56
100
AcDbEntity
  8
004
 62
     3
370
    30
100
AcDbLine
 10
753.595914
 20
3636.791826
 30
0.0
 11
751.645914
 21
3635.665993
 31
0.0
  0
LINE
  5
5E
330
56
100
AcDbEntity
  8
004
 62
     3
370
    30
100
AcDbLine
 10
751.645914
 20
3635.665993
 30
0.0
 11
751.645914
 21
3628.791837
 31
0.0
  0
LINE
  5
5F
330
56
100
AcDbEntity
  8
004
 62
     3
370
    30
100
AcDbLine
 10
768.070914
 20
3628.791837
 30
0.0
 11
768.070914
 21
3635.665993
 31
0.0
  0
LINE
  5
60
330
56
100
AcDbEntity
  8
004
 62
     3
370
    30
100
AcDbLine
 10
757.120914
 20
3628.791837
 30
0.0
 11
757.120914
 21
3635.665993
 31
0.0
  0
ARC
  5
61
330
56
100
AcDbEntity
  8
004
 62
     3
370
    30
100
AcDbCircle
 10
754.383414
 20
3632.900749
 30
0.0
 40
3.89107712070552
100
AcDbArc
 50
45.288875
 51
90.0
  0
ARC
  5
62
330
56
100
AcDbEntity
  8
004
 62
     3
370
    30
100
AcDbCircle
 10
770.808414
 20
3632.900749
 30
0.0
 40
3.89107712070552
100
AcDbArc
 50
90.0
 51
134.711125
  0
ARC
  5
63
330
56
100
AcDbEntity
  8
004
 62
     3
370
    30
100
AcDbCircle
 10
762.595914
 20
3622.916267
 30
0.0
 40
13.87555894544244
100
AcDbArc
 50
66.760299
 51
113.239701
  0
LINE
  5
64
330
56
100
AcDbEntity
  8
004
 62
     3
370
    30
100
AcDbLine
 10
762.595909
 20
3628.791826
 30
0.0
 11
762.595909
 21
3628.791837
 31
0.0
  0
LINE
  5
65
330
56
100
AcDbEntity
  8
004
 62
     3
370
    30
100
AcDbLine
 10
762.595909
 20
3628.791826
 30
0.0
 11
762.59592
 21
3628.791826
 31
0.0
  0
LINE
  5
66
330
56
100
AcDbEntity
  8
004
 62
     3
370
    30
100
AcDbLine
 10
762.59592
 20
3628.791826
 30
0.0
 11
762.59592
 21
3628.791837
 31
0.0
  0
ENDBLK
  5
58
330
56
100
AcDbEntity
  8
0
100
AcDbBlockEnd
  0
BLOCK
  5
68
330
67
100
AcDbEntity
  8
0
100
AcDbBlockBegin
  2
JZB-3
 70
     0
 10
0.0
 20
0.0
 30
0.0
  3
JZB-3
  1

  0
LINE
  5
6A
330
67
100
AcDbEntity
  8
004
 62
     3
370
    30
100
AcDbLine
 10
639.582914
 20
3244.791837
 30
0.0
 11
631.676706
 21
3244.791837
 31
0.0
  0
LINE
  5
6B
330
67
100
AcDbEntity
  8
004
 62
     3
370
    30
100
AcDbLine
 10
623.157914
 20
3240.978397
 30
0.0
 11
623.157914
 21
3237.917681
 31
0.0
  0
LINE
  5
6C
330
67
100
AcDbEntity
  8
004
 62
     3
370
    30
100
AcDbLine
 10
617.682914
 20
3237.917681
 30
0.0
 11
617.682914
 21
3238.759584
 31
0.0
  0
LINE
  5
6D
330
67
100
AcDbEntity
  8
004
 62
     3
370
    30
100
AcDbLine
 10
639.582914
 20
3237.917681
 30
0.0
 11
639.582914
 21
3244.791837
 31
0.0
  0
LINE
  5
6E
330
67
100
AcDbEntity
  8
004
 62
     3
370
    30
100
AcDbLine
 10
637.632914
 20
3236.791848
 30
0.0
 11
619.632914
 21
3236.791848
 31
0.0
  0
LINE
  5
6F
330
67
100
AcDbEntity
  8
004
 62
     3
370
    30
100
AcDbLine
 10
637.632914
 20
3236.791848
 30
0.0
 11
639.582914
 21
3237.917681
 31
0.0
  0
LINE
  5
70
330
67
100
AcDbEntity
  8
004
 62
     3
370
    30
100
AcDbLine
 10
619.632914
 20
3236.791848
 30
0.0
 11
617.682914
 21
3237.917681
 31
0.0
  0
LINE
  5
71
330
67
100
AcDbEntity
  8
004
 62
     3
370
    30
100
AcDbLine
 10
634.107914
 20
3244.791837
 30
0.0
 11
634.107914
 21
3237.917681
 31
0.0
  0
ARC
  5
72
330
67
100
AcDbEntity
  8
004
 62
     3
370
    30
100
AcDbCircle
 10
620.420414
 20
3240.682925
 30
0.0
 40
3.89107712070552
100
AcDbArc
 50
270.0
 51
314.711125
  0
ARC
  5
73
330
67
100
AcDbEntity
  8
004
 62
     3
370
    30
100
AcDbCircle
 10
636.845414
 20
3240.682925
 30
0.0
 40
3.89107712070552
100
AcDbArc
 50
225.288875
 51
270.0
  0
ARC
  5
74
330
67
100
AcDbEntity
  8
004
 62
     3
370
    30
100
AcDbCircle
 10
628.632914
 20
3250.667407
 30
0.0
 40
13.87555894544244
100
AcDbArc
 50
246.760299
 51
293.239701
  0
LINE
  5
75
330
67
100
AcDbEntity
  8
004
 62
     3
370
    30
100
AcDbLine
 10
628.632909
 20
3244.791848
 30
0.0
 11
628.632909
 21
3244.791837
 31
0.0
  0
LINE
  5
76
330
67
100
AcDbEntity
  8
004
 62
     3
370
    30
100
AcDbLine
 10
628.632909
 20
3244.791848
 30
0.0
 11
628.63292
 21
3244.791848
 31
0.0
  0
LINE
  5
77
330
67
100
AcDbEntity
  8
004
 62
     3
370
    30
100
AcDbLine
 10
628.63292
 20
3244.791848
 30
0.0
 11
628.63292
 21
3244.791837
 31
0.0
  0
ENDBLK
  5
69
330
67
100
AcDbEntity
  8
0
100
AcDbBlockEnd
  0
BLOCK
  5
79
330
78
100
AcDbEntity
  8
0
100
AcDbBlockBegin
  2
JZB-4
 70
     0
 10
0.0
 20
0.0
 30
0.0
  3
JZB-4
  1

  0
LINE
  5
7B
330
78
100
AcDbEntity
  8
004
 62
     3
370
    30
100
AcDbLine
 10
773.545914
 20
3237.917681
 30
0.0
 11
773.545914
 21
3244.791837
 31
0.0
  0
LINE
  5
7C
330
78
100
AcDbEntity
  8
004
 62
     3
370
    30
100
AcDbLine
 10
771.595914
 20
3236.791848
 30
0.0
 11
753.595914
 21
3236.791848
 31
0.0
  0
LINE
  5
7D
330
78
100
AcDbEntity
  8
004
 62
     3
370
    30
100
AcDbLine
 10
773.545914
 20
3244.791837
 30
0.0
 11
751.645914
 21
3244.791837
 31
0.0
  0
LINE
  5
7E
330
78
100
AcDbEntity
  8
004
 62
     3
370
    30
100
AcDbLine
 10
771.595914
 20
3236.791848
 30
0.0
 11
773.545914
 21
3237.917681
 31
0.0
  0
LINE
  5
7F
330
78
100
AcDbEntity
  8
004
 62
     3
370
    30
100
AcDbLine
 10
753.595914
 20
3236.791848
 30
0.0
 11
751.645914
 21
3237.917681
 31
0.0
  0
LINE
  5
80
330
78
100
AcDbEntity
  8
004
 62
     3
370
    30
100
AcDbLine
 10
751.645914
 20
3237.917681
 30
0.0
 11
751.645914
 21
3244.791837
 31
0.0
  0
LINE
  5
81
330
78
100
AcDbEntity
  8
004
 62
     3
370
    30
100
AcDbLine
 10
768.070914
 20
3244.791837
 30
0.0
 11
768.070914
 21
3237.917681
 31
0.0
  0
LINE
  5
82
330
78
100
AcDbEntity
  8
004
 62
     3
370
    30
100
AcDbLine
 10
757.120914
 20
3244.791837
 30
0.0
 11
757.120914
 21
3237.917681
 31
0.0
  0
ARC
  5
83
330
78
100
AcDbEntity
  8
004
 62
     3
370
    30
100
AcDbCircle
 10
754.383414
 20
3240.682925
 30
0.0
 40
3.89107712070552
100
AcDbArc
 50
270.0
 51
314.711125
  0
ARC
  5
84
330
78
100
AcDbEntity
  8
004
 62
     3
370
    30
100
AcDbCircle
 10
770.808414
 20
3240.682925
 30
0.0
 40
3.89107712070552
100
AcDbArc
 50
225.288875
 51
270.0
  0
ARC
  5
85
330
78
100
AcDbEntity
  8
004
 62
     3
370
    30
100
AcDbCircle
 10
762.595914
 20
3250.667407
 30
0.0
 40
13.87555894544244
100
AcDbArc
 50
246.760299
 51
293.239701
  0
LINE
  5
86
330
78
100
AcDbEntity
  8
004
 62
     3
370
    30
100
AcDbLine
 10
762.595909
 20
3244.791848
 30
0.0
 11
762.595909
 21
3244.791837
 31
0.0
  0
LINE
  5
87
330
78
100
AcDbEntity
  8
004
 62
     3
370
    30
100
AcDbLine
 10
762.595909
 20
3244.791848
 30
0.0
 11
762.59592
 21
3244.791848
 31
0.0
  0
LINE
  5
88
330
78
100
AcDbEntity
  8
004
 62
     3
370
    30
100
AcDbLine
 10
762.59592
 20
3244.791848
 30
0.0
 11
762.59592
 21
3244.791837
 31
0.0
  0
ENDBLK
  5
7A
330
78
100
AcDbEntity
  8
0
100
AcDbBlockEnd
  0
BLOCK
  5
8A
330
89
100
AcDbEntity
  8
0
100
AcDbBlockBegin
  2
JZB-5
 70
     0
 10
0.0
 20
0.0
 30
0.0
  3
JZB-5
  1

  0
LINE
  5
8C
330
89
100
AcDbEntity
  8
003
 62
     3
370
    30
100
AcDbLine
 10
637.336574
 20
545.909951
 30
0.0
 11
638.768366
 21
535.034138
 31
0.0
  0
LINE
  5
8D
330
89
100
AcDbEntity
  8
003
 62
     3
370
    30
100
AcDbLine
 10
618.499113
 20
543.430015
 30
0.0
 11
619.930905
 21
532.554203
 31
0.0
  0
LINE
  5
8E
330
89
100
AcDbEntity
  8
003
 62
     3
370
    30
100
AcDbLine
 10
627.201948
 20
550.10789
 30
0.0
 11
618.499113
 21
543.430015
 31
0.0
  0
LINE
  5
8F
330
89
100
AcDbEntity
  8
003
 62
     3
370
    30
100
AcDbLine
 10
630.065531
 20
528.356264
 30
0.0
 11
638.768366
 21
535.034138
 31
0.0
  0
LINE
  5
90
330
89
100
AcDbEntity
  8
003
 62
     3
370
    30
100
AcDbLine
 10
619.930905
 20
532.554203
 30
0.0
 11
630.065531
 21
528.356264
 31
0.0
  0
LINE
  5
91
330
89
100
AcDbEntity
  8
003
 62
     3
370
    30
100
AcDbLine
 10
637.336574
 20
545.909951
 30
0.0
 11
627.201948
 21
550.10789
 31
0.0
  0
CIRCLE
  5
92
330
89
100
AcDbEntity
  8
003
 62
     3
370
    30
100
AcDbCircle
 10
628.63374
 20
539.232077
 30
0.0
 40
9.5
  0
ENDBLK
  5
8B
330
89
100
AcDbEntity
  8
0
100
AcDbBlockEnd
  0
BLOCK
  5
94
330
93
100
AcDbEntity
  8
0
100
AcDbBlockBegin
  2
JZB-6
 70
     0
 10
0.0
 20
0.0
 30
0.0
  3
JZB-6
  1

  0
LINE
  5
96
330
93
100
AcDbEntity
  8
003
 62
     3
370
    30
100
AcDbLine
 10
630.06542
 20
494.618783
 30
0.0
 11
638.76821
 21
487.940851
 31
0.0
  0
LINE
  5
97
330
93
100
AcDbEntity
  8
003
 62
     3
370
    30
100
AcDbLine
 10
618.498903
 20
479.545107
 30
0.0
 11
627.201694
 21
472.867176
 31
0.0
  0
LINE
  5
98
330
93
100
AcDbEntity
  8
003
 62
     3
370
    30
100
AcDbLine
 10
619.930766
 20
490.420911
 30
0.0
 11
618.498903
 21
479.545107
 31
0.0
  0
LINE
  5
99
330
93
100
AcDbEntity
  8
003
 62
     3
370
    30
100
AcDbLine
 10
637.336347
 20
477.065048
 30
0.0
 11
638.76821
 21
487.940851
 31
0.0
  0
LINE
  5
9A
330
93
100
AcDbEntity
  8
003
 62
     3
370
    30
100
AcDbLine
 10
627.201694
 20
472.867176
 30
0.0
 11
637.336347
 21
477.065048
 31
0.0
  0
LINE
  5
9B
330
93
100
AcDbEntity
  8
003
 62
     3
370
    30
100
AcDbLine
 10
630.06542
 20
494.618783
 30
0.0
 11
619.930766
 21
490.420911
 31
0.0
  0
CIRCLE
  5
9C
330
93
100
AcDbEntity
  8
003
 62
     3
370
    30
100
AcDbCircle
 10
628.633557
 20
483.742979
 30
0.0
 40
9.5
  0
ENDBLK
  5
95
330
93
100
AcDbEntity
  8
0
100
AcDbBlockEnd
  0
BLOCK
  5
9E
330
9D
100
AcDbEntity
  8
0
100
AcDbBlockBegin
  2
JZB-7
 70
     0
 10
0.0
 20
0.0
 30
0.0
  3
JZB-7
  1

  0
LINE
  5
A0
330
9D
100
AcDbEntity
  8
003
 62
     3
370
    30
100
AcDbLine
 10
661.192271
 20
453.208967
 30
0.0
 11
672.068084
 21
454.640759
 31
0.0
  0
LINE
  5
A1
330
9D
100
AcDbEntity
  8
003
 62
     3
370
    30
100
AcDbLine
 10
663.672206
 20
434.371507
 30
0.0
 11
674.548019
 21
435.803298
 31
0.0
  0
LINE
  5
A2
330
9D
100
AcDbEntity
  8
003
 62
     3
370
    30
100
AcDbLine
 10
656.994332
 20
443.074341
 30
0.0
 11
663.672206
 21
434.371507
 31
0.0
  0
LINE
  5
A3
330
9D
100
AcDbEntity
  8
003
 62
     3
370
    30
100
AcDbLine
 10
678.745958
 20
445.937924
 30
0.0
 11
672.068084
 21
454.640759
 31
0.0
  0
LINE
  5
A4
330
9D
100
AcDbEntity
  8
003
 62
     3
370
    30
100
AcDbLine
 10
674.548019
 20
435.803298
 30
0.0
 11
678.745958
 21
445.937924
 31
0.0
  0
LINE
  5
A5
330
9D
100
AcDbEntity
  8
003
 62
     3
370
    30
100
AcDbLine
 10
661.192271
 20
453.208967
 30
0.0
 11
656.994332
 21
443.074341
 31
0.0
  0
CIRCLE
  5
A6
330
9D
100
AcDbEntity
  8
003
 62
     3
370
    30
100
AcDbCircle
 10
667.870145
 20
444.506133
 30
0.0
 40
9.5
  0
ENDBLK
  5
9F
330
9D
100
AcDbEntity
  8
0
100
AcDbBlockEnd
  0
BLOCK
  5
A8
330
A7
100
AcDbEntity
  8
0
100
AcDbBlockBegin
  2
JZB-8
 70
     0
 10
0.0
 20
0.0
 30
0.0
  3
JZB-8
  1

  0
LINE
  5
AA
330
A7
100
AcDbEntity
  8
003
 62
     3
370
    30
100
AcDbLine
 10
712.483439
 20
445.937813
 30
0.0
 11
719.161371
 21
454.640604
 31
0.0
  0
LINE
  5
AB
330
A7
100
AcDbEntity
  8
003
 62
     3
370
    30
100
AcDbLine
 10
727.557114
 20
434.371296
 30
0.0
 11
734.235046
 21
443.074087
 31
0.0
  0
LINE
  5
AC
330
A7
100
AcDbEntity
  8
003
 62
     3
370
    30
100
AcDbLine
 10
716.681311
 20
435.803159
 30
0.0
 11
727.557114
 21
434.371296
 31
0.0
  0
LINE
  5
AD
330
A7
100
AcDbEntity
  8
003
 62
     3
370
    30
100
AcDbLine
 10
730.037174
 20
453.208741
 30
0.0
 11
719.161371
 21
454.640604
 31
0.0
  0
LINE
  5
AE
330
A7
100
AcDbEntity
  8
003
 62
     3
370
    30
100
AcDbLine
 10
734.235046
 20
443.074087
 30
0.0
 11
730.037174
 21
453.208741
 31
0.0
  0
LINE
  5
AF
330
A7
100
AcDbEntity
  8
003
 62
     3
370
    30
100
AcDbLine
 10
712.483439
 20
445.937813
 30
0.0
 11
716.681311
 21
435.803159
 31
0.0
  0
CIRCLE
  5
B0
330
A7
100
AcDbEntity
  8
003
 62
     3
370
    30
100
AcDbCircle
 10
723.359243
 20
444.50595
 30
0.0
 40
9.5
  0
ENDBLK
  5
A9
330
A7
100
AcDbEntity
  8
0
100
AcDbBlockEnd
  0
BLOCK
  5
B2
330
B1
100
AcDbEntity
  8
0
100
AcDbBlockBegin
  2
JZB-9
 70
     0
 10
0.0
 20
0.0
 30
0.0
  3
JZB-9
  1

  0
LINE
  5
B4
330
B1
100
AcDbEntity
  8
003
 62
     3
370
    30
100
AcDbLine
 10
753.893254
 20
477.064664
 30
0.0
 11
752.461463
 21
487.940477
 31
0.0
  0
LINE
  5
B5
330
B1
100
AcDbEntity
  8
003
 62
     3
370
    30
100
AcDbLine
 10
772.730715
 20
479.544599
 30
0.0
 11
771.298924
 21
490.420412
 31
0.0
  0
LINE
  5
B6
330
B1
100
AcDbEntity
  8
003
 62
     3
370
    30
100
AcDbLine
 10
764.027881
 20
472.866725
 30
0.0
 11
772.730715
 21
479.544599
 31
0.0
  0
LINE
  5
B7
330
B1
100
AcDbEntity
  8
003
 62
     3
370
    30
100
AcDbLine
 10
761.164298
 20
494.618351
 30
0.0
 11
752.461463
 21
487.940477
 31
0.0
  0
LINE
  5
B8
330
B1
100
AcDbEntity
  8
003
 62
     3
370
    30
100
AcDbLine
 10
771.298924
 20
490.420412
 30
0.0
 11
761.164298
 21
494.618351
 31
0.0
  0
LINE
  5
B9
330
B1
100
AcDbEntity
  8
003
 62
     3
370
    30
100
AcDbLine
 10
753.893254
 20
477.064664
 30
0.0
 11
764.027881
 21
472.866725
 31
0.0
  0
CIRCLE
  5
BA
330
B1
100
AcDbEntity
  8
003
 62
     3
370
    30
100
AcDbCircle
 10
762.596089
 20
483.742538
 30
0.0
 40
9.5
  0
ENDBLK
  5
B3
330
B1
100
AcDbEntity
  8
0
100
AcDbBlockEnd
  0
BLOCK
  5
BC
330
BB
100
AcDbEntity
  8
0
100
AcDbBlockBegin
  2
JZB-10
 70
     0
 10
0.0
 20
0.0
 30
0.0
  3
JZB-10
  1

  0
LINE
  5
BE
330
BB
100
AcDbEntity
  8
003
 62
     3
370
    30
100
AcDbLine
 10
761.164409
 20
528.355832
 30
0.0
 11
752.461618
 21
535.033764
 31
0.0
  0
LINE
  5
BF
330
BB
100
AcDbEntity
  8
003
 62
     3
370
    30
100
AcDbLine
 10
772.730925
 20
543.429508
 30
0.0
 11
764.028135
 21
550.107439
 31
0.0
  0
LINE
  5
C0
330
BB
100
AcDbEntity
  8
003
 62
     3
370
    30
100
AcDbLine
 10
771.299062
 20
532.553704
 30
0.0
 11
772.730925
 21
543.429508
 31
0.0
  0
LINE
  5
C1
330
BB
100
AcDbEntity
  8
003
 62
     3
370
    30
100
AcDbLine
 10
753.893481
 20
545.909567
 30
0.0
 11
752.461618
 21
535.033764
 31
0.0
  0
LINE
  5
C2
330
BB
100
AcDbEntity
  8
003
 62
     3
370
    30
100
AcDbLine
 10
764.028135
 20
550.107439
 30
0.0
 11
753.893481
 21
545.909567
 31
0.0
  0
LINE
  5
C3
330
BB
100
AcDbEntity
  8
003
 62
     3
370
    30
100
AcDbLine
 10
761.164409
 20
528.355832
 30
0.0
 11
771.299062
 21
532.553704
 31
0.0
  0
CIRCLE
  5
C4
330
BB
100
AcDbEntity
  8
003
 62
     3
370
    30
100
AcDbCircle
 10
762.596272
 20
539.231636
 30
0.0
 40
9.5
  0
ENDBLK
  5
BD
330
BB
100
AcDbEntity
  8
0
100
AcDbBlockEnd
  0
BLOCK
  5
C6
330
C5
100
AcDbEntity
  8
0
100
AcDbBlockBegin
  2
JZB-11
 70
     0
 10
0.0
 20
0.0
 30
0.0
  3
JZB-11
  1

  0
LINE
  5
C8
330
C5
100
AcDbEntity
  8
003
 62
     3
370
    30
100
AcDbLine
 10
730.037558
 20
569.765648
 30
0.0
 11
719.161745
 21
568.333856
 31
0.0
  0
LINE
  5
C9
330
C5
100
AcDbEntity
  8
003
 62
     3
370
    30
100
AcDbLine
 10
727.557622
 20
588.603108
 30
0.0
 11
716.681809
 21
587.171317
 31
0.0
  0
LINE
  5
CA
330
C5
100
AcDbEntity
  8
003
 62
     3
370
    30
100
AcDbLine
 10
734.235497
 20
579.900274
 30
0.0
 11
727.557622
 21
588.603108
 31
0.0
  0
LINE
  5
CB
330
C5
100
AcDbEntity
  8
003
 62
     3
370
    30
100
AcDbLine
 10
712.483871
 20
577.036691
 30
0.0
 11
719.161745
 21
568.333856
 31
0.0
  0
LINE
  5
CC
330
C5
100
AcDbEntity
  8
003
 62
     3
370
    30
100
AcDbLine
 10
716.681809
 20
587.171317
 30
0.0
 11
712.483871
 21
577.036691
 31
0.0
  0
LINE
  5
CD
330
C5
100
AcDbEntity
  8
003
 62
     3
370
    30
100
AcDbLine
 10
730.037558
 20
569.765648
 30
0.0
 11
734.235497
 21
579.900274
 31
0.0
  0
CIRCLE
  5
CE
330
C5
100
AcDbEntity
  8
003
 62
     3
370
    30
100
AcDbCircle
 10
723.359684
 20
578.468482
 30
0.0
 40
9.5
  0
ENDBLK
  5
C7
330
C5
100
AcDbEntity
  8
0
100
AcDbBlockEnd
  0
BLOCK
  5
D0
330
CF
100
AcDbEntity
  8
0
100
AcDbBlockBegin
  2
JZB-12
 70
     0
 10
0.0
 20
0.0
 30
0.0
  3
JZB-12
  1

  0
LINE
  5
D2
330
CF
100
AcDbEntity
  8
003
 62
     3
370
    30
100
AcDbLine
 10
678.746389
 20
577.036802
 30
0.0
 11
672.068458
 21
568.334011
 31
0.0
  0
LINE
  5
D3
330
CF
100
AcDbEntity
  8
003
 62
     3
370
    30
100
AcDbLine
 10
663.672714
 20
588.603319
 30
0.0
 11
656.994782
 21
579.900528
 31
0.0
  0
LINE
  5
D4
330
CF
100
AcDbEntity
  8
003
 62
     3
370
    30
100
AcDbLine
 10
674.548518
 20
587.171455
 30
0.0
 11
663.672714
 21
588.603319
 31
0.0
  0
LINE
  5
D5
330
CF
100
AcDbEntity
  8
003
 62
     3
370
    30
100
AcDbLine
 10
661.192654
 20
569.765874
 30
0.0
 11
672.068458
 21
568.334011
 31
0.0
  0
LINE
  5
D6
330
CF
100
AcDbEntity
  8
003
 62
     3
370
    30
100
AcDbLine
 10
656.994782
 20
579.900528
 30
0.0
 11
661.192654
 21
569.765874
 31
0.0
  0
LINE
  5
D7
330
CF
100
AcDbEntity
  8
003
 62
     3
370
    30
100
AcDbLine
 10
678.746389
 20
577.036802
 30
0.0
 11
674.548518
 21
587.171455
 31
0.0
  0
CIRCLE
  5
D8
330
CF
100
AcDbEntity
  8
003
 62
     3
370
    30
100
AcDbCircle
 10
667.870586
 20
578.468665
 30
0.0
 40
9.5
  0
ENDBLK
  5
D1
330
CF
100
AcDbEntity
  8
0
100
AcDbBlockEnd
  0
BLOCK
  5
DA
330
D9
100
AcDbEntity
  8
0
100
AcDbBlockBegin
  2
JZB-13
 70
     0
 10
0.0
 20
0.0
 30
0.0
  3
JZB-13
  1

  0
LINE
  5
DC
330
D9
100
AcDbEntity
  8
003
 62
     3
370
    30
100
AcDbLine
 10
1332.336574
 20
545.909951
 30
0.0
 11
1333.768366
 21
535.034138
 31
0.0
  0
LINE
  5
DD
330
D9
100
AcDbEntity
  8
003
 62
     3
370
    30
100
AcDbLine
 10
1313.499113
 20
543.430015
 30
0.0
 11
1314.930905
 21
532.554203
 31
0.0
  0
LINE
  5
DE
330
D9
100
AcDbEntity
  8
003
 62
     3
370
    30
100
AcDbLine
 10
1322.201948
 20
550.10789
 30
0.0
 11
1313.499113
 21
543.430015
 31
0.0
  0
LINE
  5
DF
330
D9
100
AcDbEntity
  8
003
 62
     3
370
    30
100
AcDbLine
 10
1325.065531
 20
528.356264
 30
0.0
 11
1333.768366
 21
535.034138
 31
0.0
  0
LINE
  5
E0
330
D9
100
AcDbEntity
  8
003
 62
     3
370
    30
100
AcDbLine
 10
1314.930905
 20
532.554203
 30
0.0
 11
1325.065531
 21
528.356264
 31
0.0
  0
LINE
  5
E1
330
D9
100
AcDbEntity
  8
003
 62
     3
370
    30
100
AcDbLine
 10
1332.336574
 20
545.909951
 30
0.0
 11
1322.201948
 21
550.10789
 31
0.0
  0
CIRCLE
  5
E2
330
D9
100
AcDbEntity
  8
003
 62
     3
370
    30
100
AcDbCircle
 10
1323.63374
 20
539.232077
 30
0.0
 40
9.5
  0
ENDBLK
  5
DB
330
D9
100
AcDbEntity
  8
0
100
AcDbBlockEnd
  0
BLOCK
  5
E4
330
E3
100
AcDbEntity
  8
0
100
AcDbBlockBegin
  2
JZB-14
 70
     0
 10
0.0
 20
0.0
 30
0.0
  3
JZB-14
  1

  0
LINE
  5
E6
330
E3
100
AcDbEntity
  8
003
 62
     3
370
    30
100
AcDbLine
 10
1325.06542
 20
494.618783
 30
0.0
 11
1333.76821
 21
487.940851
 31
0.0
  0
LINE
  5
E7
330
E3
100
AcDbEntity
  8
003
 62
     3
370
    30
100
AcDbLine
 10
1313.498903
 20
479.545107
 30
0.0
 11
1322.201694
 21
472.867176
 31
0.0
  0
LINE
  5
E8
330
E3
100
AcDbEntity
  8
003
 62
     3
370
    30
100
AcDbLine
 10
1314.930766
 20
490.420911
 30
0.0
 11
1313.498903
 21
479.545107
 31
0.0
  0
LINE
  5
E9
330
E3
100
AcDbEntity
  8
003
 62
     3
370
    30
100
AcDbLine
 10
1332.336347
 20
477.065048
 30
0.0
 11
1333.76821
 21
487.940851
 31
0.0
  0
LINE
  5
EA
330
E3
100
AcDbEntity
  8
003
 62
     3
370
    30
100
AcDbLine
 10
1322.201694
 20
472.867176
 30
0.0
 11
1332.336347
 21
477.065048
 31
0.0
  0
LINE
  5
EB
330
E3
100
AcDbEntity
  8
003
 62
     3
370
    30
100
AcDbLine
 10
1325.06542
 20
494.618783
 30
0.0
 11
1314.930766
 21
490.420911
 31
0.0
  0
CIRCLE
  5
EC
330
E3
100
AcDbEntity
  8
003
 62
     3
370
    30
100
AcDbCircle
 10
1323.633557
 20
483.742979
 30
0.0
 40
9.5
  0
ENDBLK
  5
E5
330
E3
100
AcDbEntity
  8
0
100
AcDbBlockEnd
  0
BLOCK
  5
EE
330
ED
100
AcDbEntity
  8
0
100
AcDbBlockBegin
  2
JZB-15
 70
     0
 10
0.0
 20
0.0
 30
0.0
  3
JZB-15
  1

  0
LINE
  5
F0
330
ED
100
AcDbEntity
  8
003
 62
     3
370
    30
100
AcDbLine
 10
1356.192271
 20
453.208967
 30
0.0
 11
1367.068084
 21
454.640759
 31
0.0
  0
LINE
  5
F1
330
ED
100
AcDbEntity
  8
003
 62
     3
370
    30
100
AcDbLine
 10
1358.672206
 20
434.371507
 30
0.0
 11
1369.548019
 21
435.803298
 31
0.0
  0
LINE
  5
F2
330
ED
100
AcDbEntity
  8
003
 62
     3
370
    30
100
AcDbLine
 10
1351.994332
 20
443.074341
 30
0.0
 11
1358.672206
 21
434.371507
 31
0.0
  0
LINE
  5
F3
330
ED
100
AcDbEntity
  8
003
 62
     3
370
    30
100
AcDbLine
 10
1373.745958
 20
445.937924
 30
0.0
 11
1367.068084
 21
454.640759
 31
0.0
  0
LINE
  5
F4
330
ED
100
AcDbEntity
  8
003
 62
     3
370
    30
100
AcDbLine
 10
1369.548019
 20
435.803298
 30
0.0
 11
1373.745958
 21
445.937924
 31
0.0
  0
LINE
  5
F5
330
ED
100
AcDbEntity
  8
003
 62
     3
370
    30
100
AcDbLine
 10
1356.192271
 20
453.208967
 30
0.0
 11
1351.994332
 21
443.074341
 31
0.0
  0
CIRCLE
  5
F6
330
ED
100
AcDbEntity
  8
003
 62
     3
370
    30
100
AcDbCircle
 10
1362.870145
 20
444.506133
 30
0.0
 40
9.5
  0
ENDBLK
  5
EF
330
ED
100
AcDbEntity
  8
0
100
AcDbBlockEnd
  0
BLOCK
  5
F8
330
F7
100
AcDbEntity
  8
0
100
AcDbBlockBegin
  2
JZB-16
 70
     0
 10
0.0
 20
0.0
 30
0.0
  3
JZB-16
  1

  0
LINE
  5
FA
330
F7
100
AcDbEntity
  8
003
 62
     3
370
    30
100
AcDbLine
 10
1407.483439
 20
445.937813
 30
0.0
 11
1414.161371
 21
454.640604
 31
0.0
  0
LINE
  5
FB
330
F7
100
AcDbEntity
  8
003
 62
     3
370
    30
100
AcDbLine
 10
1422.557114
 20
434.371296
 30
0.0
 11
1429.235046
 21
443.074087
 31
0.0
  0
LINE
  5
FC
330
F7
100
AcDbEntity
  8
003
 62
     3
370
    30
100
AcDbLine
 10
1411.681311
 20
435.803159
 30
0.0
 11
1422.557114
 21
434.371296
 31
0.0
  0
LINE
  5
FD
330
F7
100
AcDbEntity
  8
003
 62
     3
370
    30
100
AcDbLine
 10
1425.037174
 20
453.208741
 30
0.0
 11
1414.161371
 21
454.640604
 31
0.0
  0
LINE
  5
FE
330
F7
100
AcDbEntity
  8
003
 62
     3
370
    30
100
AcDbLine
 10
1429.235046
 20
443.074087
 30
0.0
 11
1425.037174
 21
453.208741
 31
0.0
  0
LINE
  5
FF
330
F7
100
AcDbEntity
  8
003
 62
     3
370
    30
100
AcDbLine
 10
1407.483439
 20
445.937813
 30
0.0
 11
1411.681311
 21
435.803159
 31
0.0
  0
CIRCLE
  5
100
330
F7
100
AcDbEntity
  8
003
 62
     3
370
    30
100
AcDbCircle
 10
1418.359243
 20
444.50595
 30
0.0
 40
9.5
  0
ENDBLK
  5
F9
330
F7
100
AcDbEntity
  8
0
100
AcDbBlockEnd
  0
BLOCK
  5
102
330
101
100
AcDbEntity
  8
0
100
AcDbBlockBegin
  2
JZB-17
 70
     0
 10
0.0
 20
0.0
 30
0.0
  3
JZB-17
  1

  0
LINE
  5
104
330
101
100
AcDbEntity
  8
003
 62
     3
370
    30
100
AcDbLine
 10
1448.893254
 20
477.064664
 30
0.0
 11
1447.461463
 21
487.940477
 31
0.0
  0
LINE
  5
105
330
101
100
AcDbEntity
  8
003
 62
     3
370
    30
100
AcDbLine
 10
1467.730715
 20
479.544599
 30
0.0
 11
1466.298924
 21
490.420412
 31
0.0
  0
LINE
  5
106
330
101
100
AcDbEntity
  8
003
 62
     3
370
    30
100
AcDbLine
 10
1459.027881
 20
472.866725
 30
0.0
 11
1467.730715
 21
479.544599
 31
0.0
  0
LINE
  5
107
330
101
100
AcDbEntity
  8
003
 62
     3
370
    30
100
AcDbLine
 10
1456.164298
 20
494.618351
 30
0.0
 11
1447.461463
 21
487.940477
 31
0.0
  0
LINE
  5
108
330
101
100
AcDbEntity
  8
003
 62
     3
370
    30
100
AcDbLine
 10
1466.298924
 20
490.420412
 30
0.0
 11
1456.164298
 21
494.618351
 31
0.0
  0
LINE
  5
109
330
101
100
AcDbEntity
  8
003
 62
     3
370
    30
100
AcDbLine
 10
1448.893254
 20
477.064664
 30
0.0
 11
1459.027881
 21
472.866725
 31
0.0
  0
CIRCLE
  5
10A
330
101
100
AcDbEntity
  8
003
 62
     3
370
    30
100
AcDbCircle
 10
1457.596089
 20
483.742538
 30
0.0
 40
9.5
  0
ENDBLK
  5
103
330
101
100
AcDbEntity
  8
0
100
AcDbBlockEnd
  0
BLOCK
  5
10C
330
10B
100
AcDbEntity
  8
0
100
AcDbBlockBegin
  2
JZB-18
 70
     0
 10
0.0
 20
0.0
 30
0.0
  3
JZB-18
  1

  0
LINE
  5
10E
330
10B
100
AcDbEntity
  8
003
 62
     3
370
    30
100
AcDbLine
 10
1456.164409
 20
528.355832
 30
0.0
 11
1447.461618
 21
535.033764
 31
0.0
  0
LINE
  5
10F
330
10B
100
AcDbEntity
  8
003
 62
     3
370
    30
100
AcDbLine
 10
1467.730925
 20
543.429508
 30
0.0
 11
1459.028135
 21
550.107439
 31
0.0
  0
LINE
  5
110
330
10B
100
AcDbEntity
  8
003
 62
     3
370
    30
100
AcDbLine
 10
1466.299062
 20
532.553704
 30
0.0
 11
1467.730925
 21
543.429508
 31
0.0
  0
LINE
  5
111
330
10B
100
AcDbEntity
  8
003
 62
     3
370
    30
100
AcDbLine
 10
1448.893481
 20
545.909567
 30
0.0
 11
1447.461618
 21
535.033764
 31
0.0
  0
LINE
  5
112
330
10B
100
AcDbEntity
  8
003
 62
     3
370
    30
100
AcDbLine
 10
1459.028135
 20
550.107439
 30
0.0
 11
1448.893481
 21
545.909567
 31
0.0
  0
LINE
  5
113
330
10B
100
AcDbEntity
  8
003
 62
     3
370
    30
100
AcDbLine
 10
1456.164409
 20
528.355832
 30
0.0
 11
1466.299062
 21
532.553704
 31
0.0
  0
CIRCLE
  5
114
330
10B
100
AcDbEntity
  8
003
 62
     3
370
    30
100
AcDbCircle
 10
1457.596272
 20
539.231636
 30
0.0
 40
9.5
  0
ENDBLK
  5
10D
330
10B
100
AcDbEntity
  8
0
100
AcDbBlockEnd
  0
BLOCK
  5
116
330
115
100
AcDbEntity
  8
0
100
AcDbBlockBegin
  2
JZB-19
 70
     0
 10
0.0
 20
0.0
 30
0.0
  3
JZB-19
  1

  0
LINE
  5
118
330
115
100
AcDbEntity
  8
003
 62
     3
370
    30
100
AcDbLine
 10
1425.037558
 20
569.765648
 30
0.0
 11
1414.161745
 21
568.333856
 31
0.0
  0
LINE
  5
119
330
115
100
AcDbEntity
  8
003
 62
     3
370
    30
100
AcDbLine
 10
1422.557622
 20
588.603108
 30
0.0
 11
1411.681809
 21
587.171317
 31
0.0
  0
LINE
  5
11A
330
115
100
AcDbEntity
  8
003
 62
     3
370
    30
100
AcDbLine
 10
1429.235497
 20
579.900274
 30
0.0
 11
1422.557622
 21
588.603108
 31
0.0
  0
LINE
  5
11B
330
115
100
AcDbEntity
  8
003
 62
     3
370
    30
100
AcDbLine
 10
1407.483871
 20
577.036691
 30
0.0
 11
1414.161745
 21
568.333856
 31
0.0
  0
LINE
  5
11C
330
115
100
AcDbEntity
  8
003
 62
     3
370
    30
100
AcDbLine
 10
1411.681809
 20
587.171317
 30
0.0
 11
1407.483871
 21
577.036691
 31
0.0
  0
LINE
  5
11D
330
115
100
AcDbEntity
  8
003
 62
     3
370
    30
100
AcDbLine
 10
1425.037558
 20
569.765648
 30
0.0
 11
1429.235497
 21
579.900274
 31
0.0
  0
CIRCLE
  5
11E
330
115
100
AcDbEntity
  8
003
 62
     3
370
    30
100
AcDbCircle
 10
1418.359684
 20
578.468482
 30
0.0
 40
9.5
  0
ENDBLK
  5
117
330
115
100
AcDbEntity
  8
0
100
AcDbBlockEnd
  0
BLOCK
  5
120
330
11F
100
AcDbEntity
  8
0
100
AcDbBlockBegin
  2
JZB-20
 70
     0
 10
0.0
 20
0.0
 30
0.0
  3
JZB-20
  1

  0
LINE
  5
122
330
11F
100
AcDbEntity
  8
003
 62
     3
370
    30
100
AcDbLine
 10
1373.746389
 20
577.036802
 30
0.0
 11
1367.068458
 21
568.334011
 31
0.0
  0
LINE
  5
123
330
11F
100
AcDbEntity
  8
003
 62
     3
370
    30
100
AcDbLine
 10
1358.672714
 20
588.603319
 30
0.0
 11
1351.994782
 21
579.900528
 31
0.0
  0
LINE
  5
124
330
11F
100
AcDbEntity
  8
003
 62
     3
370
    30
100
AcDbLine
 10
1369.548518
 20
587.171455
 30
0.0
 11
1358.672714
 21
588.603319
 31
0.0
  0
LINE
  5
125
330
11F
100
AcDbEntity
  8
003
 62
     3
370
    30
100
AcDbLine
 10
1356.192654
 20
569.765874
 30
0.0
 11
1367.068458
 21
568.334011
 31
0.0
  0
LINE
  5
126
330
11F
100
AcDbEntity
  8
003
 62
     3
370
    30
100
AcDbLine
 10
1351.994782
 20
579.900528
 30
0.0
 11
1356.192654
 21
569.765874
 31
0.0
  0
LINE
  5
127
330
11F
100
AcDbEntity
  8
003
 62
     3
370
    30
100
AcDbLine
 10
1373.746389
 20
577.036802
 30
0.0
 11
1369.548518
 21
587.171455
 31
0.0
  0
CIRCLE
  5
128
330
11F
100
AcDbEntity
  8
003
 62
     3
370
    30
100
AcDbCircle
 10
1362.870586
 20
578.468665
 30
0.0
 40
9.5
  0
ENDBLK
  5
121
330
11F
100
AcDbEntity
  8
0
100
AcDbBlockEnd
  0
BLOCK
  5
12A
330
129
100
AcDbEntity
  8
0
100
AcDbBlockBegin
  2
JZB-21
 70
     0
 10
0.0
 20
0.0
 30
0.0
  3
JZB-21
  1

  0
LINE
  5
12C
330
129
100
AcDbEntity
  8
003
 62
     3
370
    30
100
AcDbLine
 10
2057.588693
 20
1257.329887
 30
0.0
 11
2059.020485
 21
1246.454074
 31
0.0
  0
LINE
  5
12D
330
129
100
AcDbEntity
  8
003
 62
     3
370
    30
100
AcDbLine
 10
2038.751233
 20
1254.849952
 30
0.0
 11
2040.183024
 21
1243.974139
 31
0.0
  0
LINE
  5
12E
330
129
100
AcDbEntity
  8
003
 62
     3
370
    30
100
AcDbLine
 10
2047.454067
 20
1261.527826
 30
0.0
 11
2038.751233
 21
1254.849952
 31
0.0
  0
LINE
  5
12F
330
129
100
AcDbEntity
  8
003
 62
     3
370
    30
100
AcDbLine
 10
2050.31765
 20
1239.7762
 30
0.0
 11
2059.020485
 21
1246.454074
 31
0.0
  0
LINE
  5
130
330
129
100
AcDbEntity
  8
003
 62
     3
370
    30
100
AcDbLine
 10
2040.183024
 20
1243.974139
 30
0.0
 11
2050.31765
 21
1239.7762
 31
0.0
  0
LINE
  5
131
330
129
100
AcDbEntity
  8
003
 62
     3
370
    30
100
AcDbLine
 10
2057.588693
 20
1257.329887
 30
0.0
 11
2047.454067
 21
1261.527826
 31
0.0
  0
CIRCLE
  5
132
330
129
100
AcDbEntity
  8
003
 62
     3
370
    30
100
AcDbCircle
 10
2048.885859
 20
1250.652013
 30
0.0
 40
9.5
  0
ENDBLK
  5
12B
330
129
100
AcDbEntity
  8
0
100
AcDbBlockEnd
  0
BLOCK
  5
134
330
133
100
AcDbEntity
  8
0
100
AcDbBlockBegin
  2
JZB-22
 70
     0
 10
0.0
 20
0.0
 30
0.0
  3
JZB-22
  1

  0
LINE
  5
136
330
133
100
AcDbEntity
  8
003
 62
     3
370
    30
100
AcDbLine
 10
2050.317539
 20
1206.038719
 30
0.0
 11
2059.02033
 21
1199.360787
 31
0.0
  0
LINE
  5
137
330
133
100
AcDbEntity
  8
003
 62
     3
370
    30
100
AcDbLine
 10
2038.751022
 20
1190.965044
 30
0.0
 11
2047.453813
 21
1184.287112
 31
0.0
  0
LINE
  5
138
330
133
100
AcDbEntity
  8
003
 62
     3
370
    30
100
AcDbLine
 10
2040.182885
 20
1201.840847
 30
0.0
 11
2038.751022
 21
1190.965044
 31
0.0
  0
LINE
  5
139
330
133
100
AcDbEntity
  8
003
 62
     3
370
    30
100
AcDbLine
 10
2057.588467
 20
1188.484984
 30
0.0
 11
2059.02033
 21
1199.360787
 31
0.0
  0
LINE
  5
13A
330
133
100
AcDbEntity
  8
003
 62
     3
370
    30
100
AcDbLine
 10
2047.453813
 20
1184.287112
 30
0.0
 11
2057.588467
 21
1188.484984
 31
0.0
  0
LINE
  5
13B
330
133
100
AcDbEntity
  8
003
 62
     3
370
    30
100
AcDbLine
 10
2050.317539
 20
1206.038719
 30
0.0
 11
2040.182885
 21
1201.840847
 31
0.0
  0
CIRCLE
  5
13C
330
133
100
AcDbEntity
  8
003
 62
     3
370
    30
100
AcDbCircle
 10
2048.885676
 20
1195.162915
 30
0.0
 40
9.5
  0
ENDBLK
  5
135
330
133
100
AcDbEntity
  8
0
100
AcDbBlockEnd
  0
BLOCK
  5
13E
330
13D
100
AcDbEntity
  8
0
100
AcDbBlockBegin
  2
JZB-23
 70
     0
 10
0.0
 20
0.0
 30
0.0
  3
JZB-23
  1

  0
LINE
  5
140
330
13D
100
AcDbEntity
  8
003
 62
     3
370
    30
100
AcDbLine
 10
2081.44439
 20
1164.628903
 30
0.0
 11
2092.320203
 21
1166.060695
 31
0.0
  0
LINE
  5
141
330
13D
100
AcDbEntity
  8
003
 62
     3
370
    30
100
AcDbLine
 10
2083.924325
 20
1145.791443
 30
0.0
 11
2094.800138
 21
1147.223234
 31
0.0
  0
LINE
  5
142
330
13D
100
AcDbEntity
  8
003
 62
     3
370
    30
100
AcDbLine
 10
2077.246451
 20
1154.494277
 30
0.0
 11
2083.924325
 21
1145.791443
 31
0.0
  0
LINE
  5
143
330
13D
100
AcDbEntity
  8
003
 62
     3
370
    30
100
AcDbLine
 10
2098.998077
 20
1157.35786
 30
0.0
 11
2092.320203
 21
1166.060695
 31
0.0
  0
LINE
  5
144
330
13D
100
AcDbEntity
  8
003
 62
     3
370
    30
100
AcDbLine
 10
2094.800138
 20
1147.223234
 30
0.0
 11
2098.998077
 21
1157.35786
 31
0.0
  0
LINE
  5
145
330
13D
100
AcDbEntity
  8
003
 62
     3
370
    30
100
AcDbLine
 10
2081.44439
 20
1164.628903
 30
0.0
 11
2077.246451
 21
1154.494277
 31
0.0
  0
CIRCLE
  5
146
330
13D
100
AcDbEntity
  8
003
 62
     3
370
    30
100
AcDbCircle
 10
2088.122264
 20
1155.926069
 30
0.0
 40
9.5
  0
ENDBLK
  5
13F
330
13D
100
AcDbEntity
  8
0
100
AcDbBlockEnd
  0
BLOCK
  5
148
330
147
100
AcDbEntity
  8
0
100
AcDbBlockBegin
  2
JZB-24
 70
     0
 10
0.0
 20
0.0
 30
0.0
  3
JZB-24
  1

  0
LINE
  5
14A
330
147
100
AcDbEntity
  8
003
 62
     3
370
    30
100
AcDbLine
 10
2132.735558
 20
1157.357749
 30
0.0
 11
2139.41349
 21
1166.06054
 31
0.0
  0
LINE
  5
14B
330
147
100
AcDbEntity
  8
003
 62
     3
370
    30
100
AcDbLine
 10
2147.809234
 20
1145.791233
 30
0.0
 11
2154.487165
 21
1154.494023
 31
0.0
  0
LINE
  5
14C
330
147
100
AcDbEntity
  8
003
 62
     3
370
    30
100
AcDbLine
 10
2136.93343
 20
1147.223096
 30
0.0
 11
2147.809234
 21
1145.791233
 31
0.0
  0
LINE
  5
14D
330
147
100
AcDbEntity
  8
003
 62
     3
370
    30
100
AcDbLine
 10
2150.289293
 20
1164.628677
 30
0.0
 11
2139.41349
 21
1166.06054
 31
0.0
  0
LINE
  5
14E
330
147
100
AcDbEntity
  8
003
 62
     3
370
    30
100
AcDbLine
 10
2154.487165
 20
1154.494023
 30
0.0
 11
2150.289293
 21
1164.628677
 31
0.0
  0
LINE
  5
14F
330
147
100
AcDbEntity
  8
003
 62
     3
370
    30
100
AcDbLine
 10
2132.735558
 20
1157.357749
 30
0.0
 11
2136.93343
 21
1147.223096
 31
0.0
  0
CIRCLE
  5
150
330
147
100
AcDbEntity
  8
003
 62
     3
370
    30
100
AcDbCircle
 10
2143.611362
 20
1155.925886
 30
0.0
 40
9.5
  0
ENDBLK
  5
149
330
147
100
AcDbEntity
  8
0
100
AcDbBlockEnd
  0
BLOCK
  5
152
330
151
100
AcDbEntity
  8
0
100
AcDbBlockBegin
  2
JZB-25
 70
     0
 10
0.0
 20
0.0
 30
0.0
  3
JZB-25
  1

  0
LINE
  5
154
330
151
100
AcDbEntity
  8
003
 62
     3
370
    30
100
AcDbLine
 10
2174.145374
 20
1188.4846
 30
0.0
 11
2172.713582
 21
1199.360413
 31
0.0
  0
LINE
  5
155
330
151
100
AcDbEntity
  8
003
 62
     3
370
    30
100
AcDbLine
 10
2192.982834
 20
1190.964536
 30
0.0
 11
2191.551043
 21
1201.840349
 31
0.0
  0
LINE
  5
156
330
151
100
AcDbEntity
  8
003
 62
     3
370
    30
100
AcDbLine
 10
2184.28
 20
1184.286661
 30
0.0
 11
2192.982834
 21
1190.964536
 31
0.0
  0
LINE
  5
157
330
151
100
AcDbEntity
  8
003
 62
     3
370
    30
100
AcDbLine
 10
2181.416417
 20
1206.038287
 30
0.0
 11
2172.713582
 21
1199.360413
 31
0.0
  0
LINE
  5
158
330
151
100
AcDbEntity
  8
003
 62
     3
370
    30
100
AcDbLine
 10
2191.551043
 20
1201.840349
 30
0.0
 11
2181.416417
 21
1206.038287
 31
0.0
  0
LINE
  5
159
330
151
100
AcDbEntity
  8
003
 62
     3
370
    30
100
AcDbLine
 10
2174.145374
 20
1188.4846
 30
0.0
 11
2184.28
 21
1184.286661
 31
0.0
  0
CIRCLE
  5
15A
330
151
100
AcDbEntity
  8
003
 62
     3
370
    30
100
AcDbCircle
 10
2182.848208
 20
1195.162474
 30
0.0
 40
9.5
  0
ENDBLK
  5
153
330
151
100
AcDbEntity
  8
0
100
AcDbBlockEnd
  0
BLOCK
  5
15C
330
15B
100
AcDbEntity
  8
0
100
AcDbBlockBegin
  2
JZB-26
 70
     0
 10
0.0
 20
0.0
 30
0.0
  3
JZB-26
  1

  0
LINE
  5
15E
330
15B
100
AcDbEntity
  8
003
 62
     3
370
    30
100
AcDbLine
 10
2181.416528
 20
1239.775769
 30
0.0
 11
2172.713737
 21
1246.4537
 31
0.0
  0
LINE
  5
15F
330
15B
100
AcDbEntity
  8
003
 62
     3
370
    30
100
AcDbLine
 10
2192.983045
 20
1254.849444
 30
0.0
 11
2184.280254
 21
1261.527375
 31
0.0
  0
LINE
  5
160
330
15B
100
AcDbEntity
  8
003
 62
     3
370
    30
100
AcDbLine
 10
2191.551181
 20
1243.97364
 30
0.0
 11
2192.983045
 21
1254.849444
 31
0.0
  0
LINE
  5
161
330
15B
100
AcDbEntity
  8
003
 62
     3
370
    30
100
AcDbLine
 10
2174.1456
 20
1257.329504
 30
0.0
 11
2172.713737
 21
1246.4537
 31
0.0
  0
LINE
  5
162
330
15B
100
AcDbEntity
  8
003
 62
     3
370
    30
100
AcDbLine
 10
2184.280254
 20
1261.527375
 30
0.0
 11
2174.1456
 21
1257.329504
 31
0.0
  0
LINE
  5
163
330
15B
100
AcDbEntity
  8
003
 62
     3
370
    30
100
AcDbLine
 10
2181.416528
 20
1239.775769
 30
0.0
 11
2191.551181
 21
1243.97364
 31
0.0
  0
CIRCLE
  5
164
330
15B
100
AcDbEntity
  8
003
 62
     3
370
    30
100
AcDbCircle
 10
2182.848391
 20
1250.651572
 30
0.0
 40
9.5
  0
ENDBLK
  5
15D
330
15B
100
AcDbEntity
  8
0
100
AcDbBlockEnd
  0
BLOCK
  5
166
330
165
100
AcDbEntity
  8
0
100
AcDbBlockBegin
  2
JZB-27
 70
     0
 10
0.0
 20
0.0
 30
0.0
  3
JZB-27
  1

  0
LINE
  5
168
330
165
100
AcDbEntity
  8
003
 62
     3
370
    30
100
AcDbLine
 10
2150.289677
 20
1281.185584
 30
0.0
 11
2139.413864
 21
1279.753792
 31
0.0
  0
LINE
  5
169
330
165
100
AcDbEntity
  8
003
 62
     3
370
    30
100
AcDbLine
 10
2147.809742
 20
1300.023044
 30
0.0
 11
2136.933929
 21
1298.591253
 31
0.0
  0
LINE
  5
16A
330
165
100
AcDbEntity
  8
003
 62
     3
370
    30
100
AcDbLine
 10
2154.487616
 20
1291.32021
 30
0.0
 11
2147.809742
 21
1300.023044
 31
0.0
  0
LINE
  5
16B
330
165
100
AcDbEntity
  8
003
 62
     3
370
    30
100
AcDbLine
 10
2132.73599
 20
1288.456627
 30
0.0
 11
2139.413864
 21
1279.753792
 31
0.0
  0
LINE
  5
16C
330
165
100
AcDbEntity
  8
003
 62
     3
370
    30
100
AcDbLine
 10
2136.933929
 20
1298.591253
 30
0.0
 11
2132.73599
 21
1288.456627
 31
0.0
  0
LINE
  5
16D
330
165
100
AcDbEntity
  8
003
 62
     3
370
    30
100
AcDbLine
 10
2150.289677
 20
1281.185584
 30
0.0
 11
2154.487616
 21
1291.32021
 31
0.0
  0
CIRCLE
  5
16E
330
165
100
AcDbEntity
  8
003
 62
     3
370
    30
100
AcDbCircle
 10
2143.611803
 20
1289.888418
 30
0.0
 40
9.5
  0
ENDBLK
  5
167
330
165
100
AcDbEntity
  8
0
100
AcDbBlockEnd
  0
BLOCK
  5
170
330
16F
100
AcDbEntity
  8
0
100
AcDbBlockBegin
  2
JZB-28
 70
     0
 10
0.0
 20
0.0
 30
0.0
  3
JZB-28
  1

  0
LINE
  5
172
330
16F
100
AcDbEntity
  8
003
 62
     3
370
    30
100
AcDbLine
 10
2098.998509
 20
1288.456738
 30
0.0
 11
2092.320577
 21
1279.753948
 31
0.0
  0
LINE
  5
173
330
16F
100
AcDbEntity
  8
003
 62
     3
370
    30
100
AcDbLine
 10
2083.924833
 20
1300.023255
 30
0.0
 11
2077.246902
 21
1291.320464
 31
0.0
  0
LINE
  5
174
330
16F
100
AcDbEntity
  8
003
 62
     3
370
    30
100
AcDbLine
 10
2094.800637
 20
1298.591392
 30
0.0
 11
2083.924833
 21
1300.023255
 31
0.0
  0
LINE
  5
175
330
16F
100
AcDbEntity
  8
003
 62
     3
370
    30
100
AcDbLine
 10
2081.444774
 20
1281.185811
 30
0.0
 11
2092.320577
 21
1279.753948
 31
0.0
  0
LINE
  5
176
330
16F
100
AcDbEntity
  8
003
 62
     3
370
    30
100
AcDbLine
 10
2077.246902
 20
1291.320464
 30
0.0
 11
2081.444774
 21
1281.185811
 31
0.0
  0
LINE
  5
177
330
16F
100
AcDbEntity
  8
003
 62
     3
370
    30
100
AcDbLine
 10
2098.998509
 20
1288.456738
 30
0.0
 11
2094.800637
 21
1298.591392
 31
0.0
  0
CIRCLE
  5
178
330
16F
100
AcDbEntity
  8
003
 62
     3
370
    30
100
AcDbCircle
 10
2088.122705
 20
1289.888601
 30
0.0
 40
9.5
  0
ENDBLK
  5
171
330
16F
100
AcDbEntity
  8
0
100
AcDbBlockEnd
  0
BLOCK
  5
17A
330
179
100
AcDbEntity
  8
0
100
AcDbBlockBegin
  2
JZB-29
 70
     0
 10
0.0
 20
0.0
 30
0.0
  3
JZB-29
  1

  0
LINE
  5
17C
330
179
100
AcDbEntity
  8
003
 62
     3
370
    30
100
AcDbLine
 10
2802.588693
 20
1257.329887
 30
0.0
 11
2804.020485
 21
1246.454074
 31
0.0
  0
LINE
  5
17D
330
179
100
AcDbEntity
  8
003
 62
     3
370
    30
100
AcDbLine
 10
2783.751233
 20
1254.849952
 30
0.0
 11
2785.183024
 21
1243.974139
 31
0.0
  0
LINE
  5
17E
330
179
100
AcDbEntity
  8
003
 62
     3
370
    30
100
AcDbLine
 10
2792.454067
 20
1261.527826
 30
0.0
 11
2783.751233
 21
1254.849952
 31
0.0
  0
LINE
  5
17F
330
179
100
AcDbEntity
  8
003
 62
     3
370
    30
100
AcDbLine
 10
2795.31765
 20
1239.7762
 30
0.0
 11
2804.020485
 21
1246.454074
 31
0.0
  0
LINE
  5
180
330
179
100
AcDbEntity
  8
003
 62
     3
370
    30
100
AcDbLine
 10
2785.183024
 20
1243.974139
 30
0.0
 11
2795.31765
 21
1239.7762
 31
0.0
  0
LINE
  5
181
330
179
100
AcDbEntity
  8
003
 62
     3
370
    30
100
AcDbLine
 10
2802.588693
 20
1257.329887
 30
0.0
 11
2792.454067
 21
1261.527826
 31
0.0
  0
CIRCLE
  5
182
330
179
100
AcDbEntity
  8
003
 62
     3
370
    30
100
AcDbCircle
 10
2793.885859
 20
1250.652013
 30
0.0
 40
9.5
  0
ENDBLK
  5
17B
330
179
100
AcDbEntity
  8
0
100
AcDbBlockEnd
  0
BLOCK
  5
184
330
183
100
AcDbEntity
  8
0
100
AcDbBlockBegin
  2
JZB-30
 70
     0
 10
0.0
 20
0.0
 30
0.0
  3
JZB-30
  1

  0
LINE
  5
186
330
183
100
AcDbEntity
  8
003
 62
     3
370
    30
100
AcDbLine
 10
2795.317539
 20
1206.038719
 30
0.0
 11
2804.02033
 21
1199.360787
 31
0.0
  0
LINE
  5
187
330
183
100
AcDbEntity
  8
003
 62
     3
370
    30
100
AcDbLine
 10
2783.751022
 20
1190.965044
 30
0.0
 11
2792.453813
 21
1184.287112
 31
0.0
  0
LINE
  5
188
330
183
100
AcDbEntity
  8
003
 62
     3
370
    30
100
AcDbLine
 10
2785.182885
 20
1201.840847
 30
0.0
 11
2783.751022
 21
1190.965044
 31
0.0
  0
LINE
  5
189
330
183
100
AcDbEntity
  8
003
 62
     3
370
    30
100
AcDbLine
 10
2802.588467
 20
1188.484984
 30
0.0
 11
2804.02033
 21
1199.360787
 31
0.0
  0
LINE
  5
18A
330
183
100
AcDbEntity
  8
003
 62
     3
370
    30
100
AcDbLine
 10
2792.453813
 20
1184.287112
 30
0.0
 11
2802.588467
 21
1188.484984
 31
0.0
  0
LINE
  5
18B
330
183
100
AcDbEntity
  8
003
 62
     3
370
    30
100
AcDbLine
 10
2795.317539
 20
1206.038719
 30
0.0
 11
2785.182885
 21
1201.840847
 31
0.0
  0
CIRCLE
  5
18C
330
183
100
AcDbEntity
  8
003
 62
     3
370
    30
100
AcDbCircle
 10
2793.885676
 20
1195.162915
 30
0.0
 40
9.5
  0
ENDBLK
  5
185
330
183
100
AcDbEntity
  8
0
100
AcDbBlockEnd
  0
BLOCK
  5
18E
330
18D
100
AcDbEntity
  8
0
100
AcDbBlockBegin
  2
JZB-31
 70
     0
 10
0.0
 20
0.0
 30
0.0
  3
JZB-31
  1

  0
LINE
  5
190
330
18D
100
AcDbEntity
  8
003
 62
     3
370
    30
100
AcDbLine
 10
2826.44439
 20
1164.628903
 30
0.0
 11
2837.320203
 21
1166.060695
 31
0.0
  0
LINE
  5
191
330
18D
100
AcDbEntity
  8
003
 62
     3
370
    30
100
AcDbLine
 10
2828.924325
 20
1145.791443
 30
0.0
 11
2839.800138
 21
1147.223234
 31
0.0
  0
LINE
  5
192
330
18D
100
AcDbEntity
  8
003
 62
     3
370
    30
100
AcDbLine
 10
2822.246451
 20
1154.494277
 30
0.0
 11
2828.924325
 21
1145.791443
 31
0.0
  0
LINE
  5
193
330
18D
100
AcDbEntity
  8
003
 62
     3
370
    30
100
AcDbLine
 10
2843.998077
 20
1157.35786
 30
0.0
 11
2837.320203
 21
1166.060695
 31
0.0
  0
LINE
  5
194
330
18D
100
AcDbEntity
  8
003
 62
     3
370
    30
100
AcDbLine
 10
2839.800138
 20
1147.223234
 30
0.0
 11
2843.998077
 21
1157.35786
 31
0.0
  0
LINE
  5
195
330
18D
100
AcDbEntity
  8
003
 62
     3
370
    30
100
AcDbLine
 10
2826.44439
 20
1164.628903
 30
0.0
 11
2822.246451
 21
1154.494277
 31
0.0
  0
CIRCLE
  5
196
330
18D
100
AcDbEntity
  8
003
 62
     3
370
    30
100
AcDbCircle
 10
2833.122264
 20
1155.926069
 30
0.0
 40
9.5
  0
ENDBLK
  5
18F
330
18D
100
AcDbEntity
  8
0
100
AcDbBlockEnd
  0
BLOCK
  5
198
330
197
100
AcDbEntity
  8
0
100
AcDbBlockBegin
  2
JZB-32
 70
     0
 10
0.0
 20
0.0
 30
0.0
  3
JZB-32
  1

  0
LINE
  5
19A
330
197
100
AcDbEntity
  8
003
 62
     3
370
    30
100
AcDbLine
 10
2877.735558
 20
1157.357749
 30
0.0
 11
2884.41349
 21
1166.06054
 31
0.0
  0
LINE
  5
19B
330
197
100
AcDbEntity
  8
003
 62
     3
370
    30
100
AcDbLine
 10
2892.809234
 20
1145.791233
 30
0.0
 11
2899.487165
 21
1154.494023
 31
0.0
  0
LINE
  5
19C
330
197
100
AcDbEntity
  8
003
 62
     3
370
    30
100
AcDbLine
 10
2881.93343
 20
1147.223096
 30
0.0
 11
2892.809234
 21
1145.791233
 31
0.0
  0
LINE
  5
19D
330
197
100
AcDbEntity
  8
003
 62
     3
370
    30
100
AcDbLine
 10
2895.289293
 20
1164.628677
 30
0.0
 11
2884.41349
 21
1166.06054
 31
0.0
  0
LINE
  5
19E
330
197
100
AcDbEntity
  8
003
 62
     3
370
    30
100
AcDbLine
 10
2899.487165
 20
1154.494023
 30
0.0
 11
2895.289293
 21
1164.628677
 31
0.0
  0
LINE
  5
19F
330
197
100
AcDbEntity
  8
003
 62
     3
370
    30
100
AcDbLine
 10
2877.735558
 20
1157.357749
 30
0.0
 11
2881.93343
 21
1147.223096
 31
0.0
  0
CIRCLE
  5
1A0
330
197
100
AcDbEntity
  8
003
 62
     3
370
    30
100
AcDbCircle
 10
2888.611362
 20
1155.925886
 30
0.0
 40
9.5
  0
ENDBLK
  5
199
330
197
100
AcDbEntity
  8
0
100
AcDbBlockEnd
  0
BLOCK
  5
1A2
330
1A1
100
AcDbEntity
  8
0
100
AcDbBlockBegin
  2
JZB-33
 70
     0
 10
0.0
 20
0.0
 30
0.0
  3
JZB-33
  1

  0
LINE
  5
1A4
330
1A1
100
AcDbEntity
  8
003
 62
     3
370
    30
100
AcDbLine
 10
2919.145374
 20
1188.4846
 30
0.0
 11
2917.713582
 21
1199.360413
 31
0.0
  0
LINE
  5
1A5
330
1A1
100
AcDbEntity
  8
003
 62
     3
370
    30
100
AcDbLine
 10
2937.982834
 20
1190.964536
 30
0.0
 11
2936.551043
 21
1201.840349
 31
0.0
  0
LINE
  5
1A6
330
1A1
100
AcDbEntity
  8
003
 62
     3
370
    30
100
AcDbLine
 10
2929.28
 20
1184.286661
 30
0.0
 11
2937.982834
 21
1190.964536
 31
0.0
  0
LINE
  5
1A7
330
1A1
100
AcDbEntity
  8
003
 62
     3
370
    30
100
AcDbLine
 10
2926.416417
 20
1206.038287
 30
0.0
 11
2917.713582
 21
1199.360413
 31
0.0
  0
LINE
  5
1A8
330
1A1
100
AcDbEntity
  8
003
 62
     3
370
    30
100
AcDbLine
 10
2936.551043
 20
1201.840349
 30
0.0
 11
2926.416417
 21
1206.038287
 31
0.0
  0
LINE
  5
1A9
330
1A1
100
AcDbEntity
  8
003
 62
     3
370
    30
100
AcDbLine
 10
2919.145374
 20
1188.4846
 30
0.0
 11
2929.28
 21
1184.286661
 31
0.0
  0
CIRCLE
  5
1AA
330
1A1
100
AcDbEntity
  8
003
 62
     3
370
    30
100
AcDbCircle
 10
2927.848208
 20
1195.162474
 30
0.0
 40
9.5
  0
ENDBLK
  5
1A3
330
1A1
100
AcDbEntity
  8
0
100
AcDbBlockEnd
  0
BLOCK
  5
1AC
330
1AB
100
AcDbEntity
  8
0
100
AcDbBlockBegin
  2
JZB-34
 70
     0
 10
0.0
 20
0.0
 30
0.0
  3
JZB-34
  1

  0
LINE
  5
1AE
330
1AB
100
AcDbEntity
  8
003
 62
     3
370
    30
100
AcDbLine
 10
2926.416528
 20
1239.775769
 30
0.0
 11
2917.713737
 21
1246.4537
 31
0.0
  0
LINE
  5
1AF
330
1AB
100
AcDbEntity
  8
003
 62
     3
370
    30
100
AcDbLine
 10
2937.983045
 20
1254.849444
 30
0.0
 11
2929.280254
 21
1261.527375
 31
0.0
  0
LINE
  5
1B0
330
1AB
100
AcDbEntity
  8
003
 62
     3
370
    30
100
AcDbLine
 10
2936.551181
 20
1243.97364
 30
0.0
 11
2937.983045
 21
1254.849444
 31
0.0
  0
LINE
  5
1B1
330
1AB
100
AcDbEntity
  8
003
 62
     3
370
    30
100
AcDbLine
 10
2919.1456
 20
1257.329504
 30
0.0
 11
2917.713737
 21
1246.4537
 31
0.0
  0
LINE
  5
1B2
330
1AB
100
AcDbEntity
  8
003
 62
     3
370
    30
100
AcDbLine
 10
2929.280254
 20
1261.527375
 30
0.0
 11
2919.1456
 21
1257.329504
 31
0.0
  0
LINE
  5
1B3
330
1AB
100
AcDbEntity
  8
003
 62
     3
370
    30
100
AcDbLine
 10
2926.416528
 20
1239.775769
 30
0.0
 11
2936.551181
 21
1243.97364
 31
0.0
  0
CIRCLE
  5
1B4
330
1AB
100
AcDbEntity
  8
003
 62
     3
370
    30
100
AcDbCircle
 10
2927.848391
 20
1250.651572
 30
0.0
 40
9.5
  0
ENDBLK
  5
1AD
330
1AB
100
AcDbEntity
  8
0
100
AcDbBlockEnd
  0
BLOCK
  5
1B6
330
1B5
100
AcDbEntity
  8
0
100
AcDbBlockBegin
  2
JZB-35
 70
     0
 10
0.0
 20
0.0
 30
0.0
  3
JZB-35
  1

  0
LINE
  5
1B8
330
1B5
100
AcDbEntity
  8
003
 62
     3
370
    30
100
AcDbLine
 10
2895.289677
 20
1281.185584
 30
0.0
 11
2884.413864
 21
1279.753792
 31
0.0
  0
LINE
  5
1B9
330
1B5
100
AcDbEntity
  8
003
 62
     3
370
    30
100
AcDbLine
 10
2892.809742
 20
1300.023044
 30
0.0
 11
2881.933929
 21
1298.591253
 31
0.0
  0
LINE
  5
1BA
330
1B5
100
AcDbEntity
  8
003
 62
     3
370
    30
100
AcDbLine
 10
2899.487616
 20
1291.32021
 30
0.0
 11
2892.809742
 21
1300.023044
 31
0.0
  0
LINE
  5
1BB
330
1B5
100
AcDbEntity
  8
003
 62
     3
370
    30
100
AcDbLine
 10
2877.73599
 20
1288.456627
 30
0.0
 11
2884.413864
 21
1279.753792
 31
0.0
  0
LINE
  5
1BC
330
1B5
100
AcDbEntity
  8
003
 62
     3
370
    30
100
AcDbLine
 10
2881.933929
 20
1298.591253
 30
0.0
 11
2877.73599
 21
1288.456627
 31
0.0
  0
LINE
  5
1BD
330
1B5
100
AcDbEntity
  8
003
 62
     3
370
    30
100
AcDbLine
 10
2895.289677
 20
1281.185584
 30
0.0
 11
2899.487616
 21
1291.32021
 31
0.0
  0
CIRCLE
  5
1BE
330
1B5
100
AcDbEntity
  8
003
 62
     3
370
    30
100
AcDbCircle
 10
2888.611803
 20
1289.888418
 30
0.0
 40
9.5
  0
ENDBLK
  5
1B7
330
1B5
100
AcDbEntity
  8
0
100
AcDbBlockEnd
  0
BLOCK
  5
1C0
330
1BF
100
AcDbEntity
  8
0
100
AcDbBlockBegin
  2
JZB-36
 70
     0
 10
0.0
 20
0.0
 30
0.0
  3
JZB-36
  1

  0
LINE
  5
1C2
330
1BF
100
AcDbEntity
  8
003
 62
     3
370
    30
100
AcDbLine
 10
2843.998509
 20
1288.456738
 30
0.0
 11
2837.320577
 21
1279.753948
 31
0.0
  0
LINE
  5
1C3
330
1BF
100
AcDbEntity
  8
003
 62
     3
370
    30
100
AcDbLine
 10
2828.924833
 20
1300.023255
 30
0.0
 11
2822.246902
 21
1291.320464
 31
0.0
  0
LINE
  5
1C4
330
1BF
100
AcDbEntity
  8
003
 62
     3
370
    30
100
AcDbLine
 10
2839.800637
 20
1298.591392
 30
0.0
 11
2828.924833
 21
1300.023255
 31
0.0
  0
LINE
  5
1C5
330
1BF
100
AcDbEntity
  8
003
 62
     3
370
    30
100
AcDbLine
 10
2826.444774
 20
1281.185811
 30
0.0
 11
2837.320577
 21
1279.753948
 31
0.0
  0
LINE
  5
1C6
330
1BF
100
AcDbEntity
  8
003
 62
     3
370
    30
100
AcDbLine
 10
2822.246902
 20
1291.320464
 30
0.0
 11
2826.444774
 21
1281.185811
 31
0.0
  0
LINE
  5
1C7
330
1BF
100
AcDbEntity
  8
003
 62
     3
370
    30
100
AcDbLine
 10
2843.998509
 20
1288.456738
 30
0.0
 11
2839.800637
 21
1298.591392
 31
0.0
  0
CIRCLE
  5
1C8
330
1BF
100
AcDbEntity
  8
003
 62
     3
370
    30
100
AcDbCircle
 10
2833.122705
 20
1289.888601
 30
0.0
 40
9.5
  0
ENDBLK
  5
1C1
330
1BF
100
AcDbEntity
  8
0
100
AcDbBlockEnd
  0
ENDSEC
  0
SECTION
  2
ENTITIES
  0
INSERT
  5
1C9
330
1F
100
AcDbEntity
  8
004
  6
ByBlock
 62
     0
370
    -2
100
AcDbBlockReference
  2
JZB-1
 10
0.0
 20
0.0
 30
0.0
  0
INSERT
  5
1CA
330
1F
100
AcDbEntity
  8
004
  6
ByBlock
 62
     0
370
    -2
100
AcDbBlockReference
  2
JZB-2
 10
0.0
 20
0.0
 30
0.0
  0
INSERT
  5
1CB
330
1F
100
AcDbEntity
  8
004
  6
ByBlock
 62
     0
370
    -2
100
AcDbBlockReference
  2
JZB-3
 10
0.0
 20
0.0
 30
0.0
  0
INSERT
  5
1CC
330
1F
100
AcDbEntity
  8
004
  6
ByBlock
 62
     0
370
    -2
100
AcDbBlockReference
  2
JZB-4
 10
0.0
 20
0.0
 30
0.0
  0
INSERT
  5
1CD
330
1F
100
AcDbEntity
  8
003
  6
ByBlock
 62
     0
370
    -2
100
AcDbBlockReference
  2
JZB-5
 10
0.0
 20
0.0
 30
0.0
  0
INSERT
  5
1CE
330
1F
100
AcDbEntity
  8
003
  6
ByBlock
 62
     0
370
    -2
100
AcDbBlockReference
  2
JZB-6
 10
0.0
 20
0.0
 30
0.0
  0
INSERT
  5
1CF
330
1F
100
AcDbEntity
  8
003
  6
ByBlock
 62
     0
370
    -2
100
AcDbBlockReference
  2
JZB-7
 10
0.0
 20
0.0
 30
0.0
  0
INSERT
  5
1D0
330
1F
100
AcDbEntity
  8
003
  6
ByBlock
 62
     0
370
    -2
100
AcDbBlockReference
  2
JZB-8
 10
0.0
 20
0.0
 30
0.0
  0
INSERT
  5
1D1
330
1F
100
AcDbEntity
  8
003
  6
ByBlock
 62
     0
370
    -2
100
AcDbBlockReference
  2
JZB-9
 10
0.0
 20
0.0
 30
0.0
  0
INSERT
  5
1D2
330
1F
100
AcDbEntity
  8
003
  6
ByBlock
 62
     0
370
    -2
100
AcDbBlockReference
  2
JZB-10
 10
0.0
 20
0.0
 30
0.0
  0
INSERT
  5
1D3
330
1F
100
AcDbEntity
  8
003
  6
ByBlock
 62
     0
370
    -2
100
AcDbBlockReference
  2
JZB-11
 10
0.0
 20
0.0
 30
0.0
  0
INSERT
  5
1D4
330
1F
100
AcDbEntity
  8
003
  6
ByBlock
 62
     0
370
    -2
100
AcDbBlockReference
  2
JZB-12
 10
0.0
 20
0.0
 30
0.0
  0
INSERT
  5
1D5
330
1F
100
AcDbEntity
  8
003
  6
ByBlock
 62
     0
370
    -2
100
AcDbBlockReference
  2
JZB-13
 10
0.0
 20
0.0
 30
0.0
  0
INSERT
  5
1D6
330
1F
100
AcDbEntity
  8
003
  6
ByBlock
 62
     0
370
    -2
100
AcDbBlockReference
  2
JZB-14
 10
0.0
 20
0.0
 30
0.0
  0
INSERT
  5
1D7
330
1F
100
AcDbEntity
  8
003
  6
ByBlock
 62
     0
370
    -2
100
AcDbBlockReference
  2
JZB-15
 10
0.0
 20
0.0
 30
0.0
  0
INSERT
  5
1D8
330
1F
100
AcDbEntity
  8
003
  6
ByBlock
 62
     0
370
    -2
100
AcDbBlockReference
  2
JZB-16
 10
0.0
 20
0.0
 30
0.0
  0
INSERT
  5
1D9
330
1F
100
AcDbEntity
  8
003
  6
ByBlock
 62
     0
370
    -2
100
AcDbBlockReference
  2
JZB-17
 10
0.0
 20
0.0
 30
0.0
  0
INSERT
  5
1DA
330
1F
100
AcDbEntity
  8
003
  6
ByBlock
 62
     0
370
    -2
100
AcDbBlockReference
  2
JZB-18
 10
0.0
 20
0.0
 30
0.0
  0
INSERT
  5
1DB
330
1F
100
AcDbEntity
  8
003
  6
ByBlock
 62
     0
370
    -2
100
AcDbBlockReference
  2
JZB-19
 10
0.0
 20
0.0
 30
0.0
  0
INSERT
  5
1DC
330
1F
100
AcDbEntity
  8
003
  6
ByBlock
 62
     0
370
    -2
100
AcDbBlockReference
  2
JZB-20
 10
0.0
 20
0.0
 30
0.0
  0
INSERT
  5
1DD
330
1F
100
AcDbEntity
  8
003
  6
ByBlock
 62
     0
370
    -2
100
AcDbBlockReference
  2
JZB-21
 10
0.0
 20
0.0
 30
0.0
  0
INSERT
  5
1DE
330
1F
100
AcDbEntity
  8
003
  6
ByBlock
 62
     0
370
    -2
100
AcDbBlockReference
  2
JZB-22
 10
0.0
 20
0.0
 30
0.0
  0
INSERT
  5
1DF
330
1F
100
AcDbEntity
  8
003
  6
ByBlock
 62
     0
370
    -2
100
AcDbBlockReference
  2
JZB-23
 10
0.0
 20
0.0
 30
0.0
  0
INSERT
  5
1E0
330
1F
100
AcDbEntity
  8
003
  6
ByBlock
 62
     0
370
    -2
100
AcDbBlockReference
  2
JZB-24
 10
0.0
 20
0.0
 30
0.0
  0
INSERT
  5
1E1
330
1F
100
AcDbEntity
  8
003
  6
ByBlock
 62
     0
370
    -2
100
AcDbBlockReference
  2
JZB-25
 10
0.0
 20
0.0
 30
0.0
  0
INSERT
  5
1E2
330
1F
100
AcDbEntity
  8
003
  6
ByBlock
 62
     0
370
    -2
100
AcDbBlockReference
  2
JZB-26
 10
0.0
 20
0.0
 30
0.0
  0
INSERT
  5
1E3
330
1F
100
AcDbEntity
  8
003
  6
ByBlock
 62
     0
370
    -2
100
AcDbBlockReference
  2
JZB-27
 10
0.0
 20
0.0
 30
0.0
  0
INSERT
  5
1E4
330
1F
100
AcDbEntity
  8
003
  6
ByBlock
 62
     0
370
    -2
100
AcDbBlockReference
  2
JZB-28
 10
0.0
 20
0.0
 30
0.0
  0
INSERT
  5
1E5
330
1F
100
AcDbEntity
  8
003
  6
ByBlock
 62
     0
370
    -2
100
AcDbBlockReference
  2
JZB-29
 10
0.0
 20
0.0
 30
0.0
  0
INSERT
  5
1E6
330
1F
100
AcDbEntity
  8
003
  6
ByBlock
 62
     0
370
    -2
100
AcDbBlockReference
  2
JZB-30
 10
0.0
 20
0.0
 30
0.0
  0
INSERT
  5
1E7
330
1F
100
AcDbEntity
  8
003
  6
ByBlock
 62
     0
370
    -2
100
AcDbBlockReference
  2
JZB-31
 10
0.0
 20
0.0
 30
0.0
  0
INSERT
  5
1E8
330
1F
100
AcDbEntity
  8
003
  6
ByBlock
 62
     0
370
    -2
100
AcDbBlockReference
  2
JZB-32
 10
0.0
 20
0.0
 30
0.0
  0
INSERT
  5
1E9
330
1F
100
AcDbEntity
  8
003
  6
ByBlock
 62
     0
370
    -2
100
AcDbBlockReference
  2
JZB-33
 10
0.0
 20
0.0
 30
0.0
  0
INSERT
  5
1EA
330
1F
100
AcDbEntity
  8
003
  6
ByBlock
 62
     0
370
    -2
100
AcDbBlockReference
  2
JZB-34
 10
0.0
 20
0.0
 30
0.0
  0
INSERT
  5
1EB
330
1F
100
AcDbEntity
  8
003
  6
ByBlock
 62
     0
370
    -2
100
AcDbBlockReference
  2
JZB-35
 10
0.0
 20
0.0
 30
0.0
  0
INSERT
  5
1EC
330
1F
100
AcDbEntity
  8
003
  6
ByBlock
 62
     0
370
    -2
100
AcDbBlockReference
  2
JZB-36
 10
0.0
 20
0.0
 30
0.0
  0
LINE
  5
1ED
330
1F
100
AcDbEntity
  8
002
 62
     3
370
    30
100
AcDbLine
 10
673.114914
 20
3136.791837
 30
0.0
 11
718.114914
 21
3136.791837
 31
0.0
  0
LINE
  5
1EE
330
1F
100
AcDbEntity
  8
002
 62
     3
370
    30
100
AcDbLine
 10
718.114914
 20
3136.791837
 30
0.0
 11
718.114914
 21
3234.791837
 31
0.0
  0
LINE
  5
1EF
330
1F
100
AcDbEntity
  8
002
 62
     3
370
    30
100
AcDbLine
 10
720.614914
 20
3234.791837
 30
0.0
 11
720.614914
 21
3236.791837
 31
0.0
  0
LINE
  5
1F0
330
1F
100
AcDbEntity
  8
002
 62
     3
370
    30
100
AcDbLine
 10
670.614914
 20
3234.791837
 30
0.0
 11
720.614914
 21
3234.791837
 31
0.0
  0
LINE
  5
1F1
330
1F
100
AcDbEntity
  8
002
 62
     3
370
    30
100
AcDbLine
 10
673.114914
 20
3136.791837
 30
0.0
 11
673.114914
 21
3234.791837
 31
0.0
  0
LINE
  5
1F2
330
1F
100
AcDbEntity
  8
002
 62
     3
370
    30
100
AcDbLine
 10
670.614914
 20
3234.791837
 30
0.0
 11
670.614914
 21
3236.791837
 31
0.0
  0
LINE
  5
1F3
330
1F
100
AcDbEntity
  8
002
 62
     3
370
    30
100
AcDbLine
 10
653.557914
 20
3256.791837
 30
0.0
 11
835.614914
 21
3256.791837
 31
0.0
  0
ARC
  5
1F4
330
1F
100
AcDbEntity
  8
002
 62
     3
370
    30
100
AcDbCircle
 10
835.614914
 20
3306.791837
 30
0.0
 40
50.0
100
AcDbArc
 50
270.0
 51
0.0
  0
LINE
  5
1F5
330
1F
100
AcDbEntity
  8
002
 62
     3
370
    30
100
AcDbLine
 10
885.614914
 20
3306.791837
 30
0.0
 11
885.614914
 21
3566.791837
 31
0.0
  0
ARC
  5
1F6
330
1F
100
AcDbEntity
  8
002
 62
     3
370
    30
100
AcDbCircle
 10
835.614914
 20
3566.791837
 30
0.0
 40
50.0
100
AcDbArc
 50
0.0
 51
90.0
  0
LINE
  5
1F7
330
1F
100
AcDbEntity
  8
002
 62
     3
370
    30
100
AcDbLine
 10
835.614914
 20
3616.791837
 30
0.0
 11
653.557914
 21
3616.791837
 31
0.0
  0
ARC
  5
1F8
330
1F
100
AcDbEntity
  8
002
 62
     3
370
    30
100
AcDbCircle
 10
642.114914
 20
3629.791837
 30
0.0
 40
1.0
100
AcDbArc
 50
270.0
 51
0.0
  0
LINE
  5
1F9
330
1F
100
AcDbEntity
  8
002
 62
     3
370
    30
100
AcDbLine
 10
643.114914
 20
3629.791837
 30
0.0
 11
643.114914
 21
3636.791837
 31
0.0
  0
LINE
  5
1FA
330
1F
100
AcDbEntity
  8
002
 62
     3
370
    30
100
AcDbLine
 10
643.114914
 20
3636.791837
 30
0.0
 11
748.114914
 21
3636.791837
 31
0.0
  0
LINE
  5
1FB
330
1F
100
AcDbEntity
  8
002
 62
     3
370
    30
100
AcDbLine
 10
631.675914
 20
3628.791837
 30
0.0
 11
780.614914
 21
3628.791837
 31
0.0
  0
LINE
  5
1FC
330
1F
100
AcDbEntity
  8
002
 62
     3
370
    30
100
AcDbLine
 10
780.614914
 20
3627.791837
 30
0.0
 11
780.614914
 21
3551.791837
 31
0.0
  0
ARC
  5
1FD
330
1F
100
AcDbEntity
  8
002
 62
     3
370
    30
100
AcDbCircle
 10
795.614914
 20
3551.791837
 30
0.0
 40
15.0
100
AcDbArc
 50
180.0
 51
270.0
  0
LINE
  5
1FE
330
1F
100
AcDbEntity
  8
002
 62
     3
370
    30
100
AcDbLine
 10
795.614914
 20
3536.791837
 30
0.0
 11
800.439914
 21
3536.791837
 31
0.0
  0
LINE
  5
1FF
330
1F
100
AcDbEntity
  8
002
 62
     3
370
    30
100
AcDbLine
 10
800.439914
 20
3536.791837
 30
0.0
 11
800.439914
 21
3336.791837
 31
0.0
  0
LINE
  5
200
330
1F
100
AcDbEntity
  8
002
 62
     3
370
    30
100
AcDbLine
 10
800.439914
 20
3336.791837
 30
0.0
 11
795.614914
 21
3336.791837
 31
0.0
  0
ARC
  5
201
330
1F
100
AcDbEntity
  8
002
 62
     3
370
    30
100
AcDbCircle
 10
795.614914
 20
3321.791837
 30
0.0
 40
15.0
100
AcDbArc
 50
90.0
 51
180.0
  0
LINE
  5
202
330
1F
100
AcDbEntity
  8
002
 62
     3
370
    30
100
AcDbLine
 10
780.614914
 20
3321.791837
 30
0.0
 11
780.614914
 21
3244.791837
 31
0.0
  0
LINE
  5
203
330
1F
100
AcDbEntity
  8
002
 62
     3
370
    30
100
AcDbLine
 10
780.614914
 20
3244.791837
 30
0.0
 11
631.675914
 21
3244.791837
 31
0.0
  0
LINE
  5
204
330
1F
100
AcDbEntity
  8
002
 62
     3
370
    30
100
AcDbLine
 10
643.114914
 20
3236.791837
 30
0.0
 11
748.114914
 21
3236.791837
 31
0.0
  0
LINE
  5
205
330
1F
100
AcDbEntity
  8
002
 62
     3
370
    30
100
AcDbLine
 10
748.114914
 20
3236.791837
 30
0.0
 11
748.114914
 21
3243.791837
 31
0.0
  0
ARC
  5
206
330
1F
100
AcDbEntity
  8
002
 62
     3
370
    30
100
AcDbCircle
 10
749.114914
 20
3243.791837
 30
0.0
 40
1.0
100
AcDbArc
 50
90.0
 51
180.0
  0
LINE
  5
207
330
1F
100
AcDbEntity
  8
002
 62
     3
370
    30
100
AcDbLine
 10
643.114914
 20
3236.791837
 30
0.0
 11
643.114914
 21
3243.791837
 31
0.0
  0
ARC
  5
208
330
1F
100
AcDbEntity
  8
002
 62
     3
370
    30
100
AcDbCircle
 10
642.114914
 20
3243.791837
 30
0.0
 40
1.0
100
AcDbArc
 50
0.0
 51
90.0
  0
LINE
  5
209
330
1F
100
AcDbEntity
  8
002
 62
     3
370
    30
100
AcDbLine
 10
598.623914
 20
3253.140837
 30
0.0
 11
596.082914
 21
3262.620837
 31
0.0
  0
LINE
  5
20A
330
1F
100
AcDbEntity
  8
002
 62
     3
370
    30
100
AcDbLine
 10
596.082914
 20
3262.620837
 30
0.0
 11
586.602914
 21
3265.161837
 31
0.0
  0
LINE
  5
20B
330
1F
100
AcDbEntity
  8
002
 62
     3
370
    30
100
AcDbLine
 10
586.602914
 20
3265.161837
 30
0.0
 11
579.662914
 21
3258.220837
 31
0.0
  0
LINE
  5
20C
330
1F
100
AcDbEntity
  8
002
 62
     3
370
    30
100
AcDbLine
 10
579.662914
 20
3258.220837
 30
0.0
 11
582.202914
 21
3248.740837
 31
0.0
  0
LINE
  5
20D
330
1F
100
AcDbEntity
  8
002
 62
     3
370
    30
100
AcDbLine
 10
582.202914
 20
3248.740837
 30
0.0
 11
591.682914
 21
3246.200837
 31
0.0
  0
LINE
  5
20E
330
1F
100
AcDbEntity
  8
002
 62
     3
370
    30
100
AcDbLine
 10
591.682914
 20
3246.200837
 30
0.0
 11
598.623914
 21
3253.140837
 31
0.0
  0
CIRCLE
  5
20F
330
1F
100
AcDbEntity
  8
002
 62
     3
370
    30
100
AcDbCircle
 10
589.142914
 20
3255.680837
 30
0.0
 40
16.5
  0
LINE
  5
210
330
1F
100
AcDbEntity
  8
002
 62
     3
370
    30
100
AcDbLine
 10
663.716914
 20
3301.668837
 30
0.0
 11
670.656914
 21
3294.728837
 31
0.0
  0
LINE
  5
211
330
1F
100
AcDbEntity
  8
002
 62
     3
370
    30
100
AcDbLine
 10
670.656914
 20
3294.728837
 30
0.0
 11
680.136914
 21
3297.269837
 31
0.0
  0
LINE
  5
212
330
1F
100
AcDbEntity
  8
002
 62
     3
370
    30
100
AcDbLine
 10
680.136914
 20
3297.269837
 30
0.0
 11
682.677914
 21
3306.749837
 31
0.0
  0
LINE
  5
213
330
1F
100
AcDbEntity
  8
002
 62
     3
370
    30
100
AcDbLine
 10
682.677914
 20
3306.749837
 30
0.0
 11
675.736914
 21
3313.689837
 31
0.0
  0
LINE
  5
214
330
1F
100
AcDbEntity
  8
002
 62
     3
370
    30
100
AcDbLine
 10
675.736914
 20
3313.689837
 30
0.0
 11
666.256914
 21
3311.149837
 31
0.0
  0
LINE
  5
215
330
1F
100
AcDbEntity
  8
002
 62
     3
370
    30
100
AcDbLine
 10
666.256914
 20
3311.149837
 30
0.0
 11
663.716914
 21
3301.668837
 31
0.0
  0
CIRCLE
  5
216
330
1F
100
AcDbEntity
  8
002
 62
     3
370
    30
100
AcDbCircle
 10
673.196914
 20
3304.209837
 30
0.0
 40
16.5
  0
LINE
  5
217
330
1F
100
AcDbEntity
  8
002
 62
     3
370
    30
100
AcDbLine
 10
712.244914
 20
3390.803837
 30
0.0
 11
714.784914
 21
3381.323837
 31
0.0
  0
LINE
  5
218
330
1F
100
AcDbEntity
  8
002
 62
     3
370
    30
100
AcDbLine
 10
714.784914
 20
3381.323837
 30
0.0
 11
724.265914
 21
3378.782837
 31
0.0
  0
LINE
  5
219
330
1F
100
AcDbEntity
  8
002
 62
     3
370
    30
100
AcDbLine
 10
724.265914
 20
3378.782837
 30
0.0
 11
731.205914
 21
3385.722837
 31
0.0
  0
LINE
  5
21A
330
1F
100
AcDbEntity
  8
002
 62
     3
370
    30
100
AcDbLine
 10
731.205914
 20
3385.722837
 30
0.0
 11
728.665914
 21
3395.203837
 31
0.0
  0
LINE
  5
21B
330
1F
100
AcDbEntity
  8
002
 62
     3
370
    30
100
AcDbLine
 10
728.665914
 20
3395.203837
 30
0.0
 11
719.184914
 21
3397.743837
 31
0.0
  0
LINE
  5
21C
330
1F
100
AcDbEntity
  8
002
 62
     3
370
    30
100
AcDbLine
 10
719.184914
 20
3397.743837
 30
0.0
 11
712.244914
 21
3390.803837
 31
0.0
  0
CIRCLE
  5
21D
330
1F
100
AcDbEntity
  8
002
 62
     3
370
    30
100
AcDbCircle
 10
721.725914
 20
3388.263837
 30
0.0
 40
16.5
  0
LINE
  5
21E
330
1F
100
AcDbEntity
  8
002
 62
     3
370
    30
100
AcDbLine
 10
719.184914
 20
3475.839837
 30
0.0
 11
728.665914
 21
3478.380837
 31
0.0
  0
LINE
  5
21F
330
1F
100
AcDbEntity
  8
002
 62
     3
370
    30
100
AcDbLine
 10
728.665914
 20
3478.380837
 30
0.0
 11
731.205914
 21
3487.860837
 31
0.0
  0
LINE
  5
220
330
1F
100
AcDbEntity
  8
002
 62
     3
370
    30
100
AcDbLine
 10
731.205914
 20
3487.860837
 30
0.0
 11
724.265914
 21
3494.800837
 31
0.0
  0
LINE
  5
221
330
1F
100
AcDbEntity
  8
002
 62
     3
370
    30
100
AcDbLine
 10
724.265914
 20
3494.800837
 30
0.0
 11
714.784914
 21
3492.260837
 31
0.0
  0
LINE
  5
222
330
1F
100
AcDbEntity
  8
002
 62
     3
370
    30
100
AcDbLine
 10
714.784914
 20
3492.260837
 30
0.0
 11
712.244914
 21
3482.780837
 31
0.0
  0
LINE
  5
223
330
1F
100
AcDbEntity
  8
002
 62
     3
370
    30
100
AcDbLine
 10
712.244914
 20
3482.780837
 30
0.0
 11
719.184914
 21
3475.839837
 31
0.0
  0
CIRCLE
  5
224
330
1F
100
AcDbEntity
  8
002
 62
     3
370
    30
100
AcDbCircle
 10
721.725914
 20
3485.320837
 30
0.0
 40
16.5
  0
LINE
  5
225
330
1F
100
AcDbEntity
  8
002
 62
     3
370
    30
100
AcDbLine
 10
779.322914
 20
3536.791837
 30
0.0
 11
779.322914
 21
3336.791837
 31
0.0
  0
CIRCLE
  5
226
330
1F
100
AcDbEntity
  8
002
 62
     3
370
    30
100
AcDbCircle
 10
835.614914
 20
3306.791837
 30
0.0
 40
22.5
  0
CIRCLE
  5
227
330
1F
100
AcDbEntity
  8
002
 62
     3
370
    30
100
AcDbCircle
 10
835.614914
 20
3306.791837
 30
0.0
 40
41.0
  0
LINE
  5
228
330
1F
100
AcDbEntity
  8
002
 62
     3
370
    30
100
AcDbLine
 10
501.566914
 20
3258.220837
 30
0.0
 11
499.025914
 21
3248.740837
 31
0.0
  0
LINE
  5
229
330
1F
100
AcDbEntity
  8
002
 62
     3
370
    30
100
AcDbLine
 10
499.025914
 20
3248.740837
 30
0.0
 11
489.545914
 21
3246.200837
 31
0.0
  0
LINE
  5
22A
330
1F
100
AcDbEntity
  8
002
 62
     3
370
    30
100
AcDbLine
 10
489.545914
 20
3246.200837
 30
0.0
 11
482.605914
 21
3253.140837
 31
0.0
  0
LINE
  5
22B
330
1F
100
AcDbEntity
  8
002
 62
     3
370
    30
100
AcDbLine
 10
482.605914
 20
3253.140837
 30
0.0
 11
485.145914
 21
3262.620837
 31
0.0
  0
LINE
  5
22C
330
1F
100
AcDbEntity
  8
002
 62
     3
370
    30
100
AcDbLine
 10
485.145914
 20
3262.620837
 30
0.0
 11
494.625914
 21
3265.161837
 31
0.0
  0
LINE
  5
22D
330
1F
100
AcDbEntity
  8
002
 62
     3
370
    30
100
AcDbLine
 10
494.625914
 20
3265.161837
 30
0.0
 11
501.566914
 21
3258.220837
 31
0.0
  0
CIRCLE
  5
22E
330
1F
100
AcDbEntity
  8
002
 62
     3
370
    30
100
AcDbCircle
 10
492.085914
 20
3255.680837
 30
0.0
 40
16.5
  0
LINE
  5
22F
330
1F
100
AcDbEntity
  8
002
 62
     3
370
    30
100
AcDbLine
 10
427.670914
 20
3256.791837
 30
0.0
 11
340.614914
 21
3256.791837
 31
0.0
  0
LINE
  5
230
330
1F
100
AcDbEntity
  8
002
 62
     3
370
    30
100
AcDbLine
 10
290.614914
 20
3306.791837
 30
0.0
 11
290.614914
 21
3566.791837
 31
0.0
  0
CIRCLE
  5
231
330
1F
100
AcDbEntity
  8
002
 62
     3
370
    30
100
AcDbCircle
 10
340.614914
 20
3566.791837
 30
0.0
 40
22.5
  0
ARC
  5
232
330
1F
100
AcDbEntity
  8
002
 62
     3
370
    30
100
AcDbCircle
 10
340.614914
 20
3566.791837
 30
0.0
 40
50.0
100
AcDbArc
 50
90.0
 51
180.0
  0
ARC
  5
233
330
1F
100
AcDbEntity
  8
002
 62
     3
370
    30
100
AcDbCircle
 10
321.789914
 20
3521.791837
 30
0.0
 40
10.0
100
AcDbArc
 50
220.831247
 51
270.0
  0
LINE
  5
234
330
1F
100
AcDbEntity
  8
002
 62
     3
370
    30
100
AcDbLine
 10
321.789914
 20
3511.791837
 30
0.0
 11
341.789914
 21
3511.791837
 31
0.0
  0
CIRCLE
  5
235
330
1F
100
AcDbEntity
  8
002
 62
     3
370
    30
100
AcDbCircle
 10
359.503914
 20
3485.320837
 30
0.0
 40
16.5
  0
LINE
  5
236
330
1F
100
AcDbEntity
  8
002
 62
     3
370
    30
100
AcDbLine
 10
356.962914
 20
3494.800837
 30
0.0
 11
350.022914
 21
3487.860837
 31
0.0
  0
LINE
  5
237
330
1F
100
AcDbEntity
  8
002
 62
     3
370
    30
100
AcDbLine
 10
350.022914
 20
3487.860837
 30
0.0
 11
352.562914
 21
3478.380837
 31
0.0
  0
LINE
  5
238
330
1F
100
AcDbEntity
  8
002
 62
     3
370
    30
100
AcDbLine
 10
352.562914
 20
3478.380837
 30
0.0
 11
362.043914
 21
3475.839837
 31
0.0
  0
LINE
  5
239
330
1F
100
AcDbEntity
  8
002
 62
     3
370
    30
100
AcDbLine
 10
362.043914
 20
3475.839837
 30
0.0
 11
368.983914
 21
3482.780837
 31
0.0
  0
LINE
  5
23A
330
1F
100
AcDbEntity
  8
002
 62
     3
370
    30
100
AcDbLine
 10
368.983914
 20
3482.780837
 30
0.0
 11
366.443914
 21
3492.260837
 31
0.0
  0
LINE
  5
23B
330
1F
100
AcDbEntity
  8
002
 62
     3
370
    30
100
AcDbLine
 10
366.443914
 20
3492.260837
 30
0.0
 11
356.962914
 21
3494.800837
 31
0.0
  0
LINE
  5
23C
330
1F
100
AcDbEntity
  8
002
 62
     3
370
    30
100
AcDbLine
 10
314.223914
 20
3511.791837
 30
0.0
 11
314.223914
 21
3361.791837
 31
0.0
  0
ARC
  5
23D
330
1F
100
AcDbEntity
  8
002
 62
     3
370
    30
100
AcDbCircle
 10
321.789914
 20
3351.791837
 30
0.0
 40
10.00014384896507
100
AcDbArc
 50
90.0
 51
139.164418
  0
LINE
  5
23E
330
1F
100
AcDbEntity
  8
002
 62
     3
370
    30
100
AcDbLine
 10
321.789914
 20
3361.791837
 30
0.0
 11
341.789914
 21
3361.791837
 31
0.0
  0
ARC
  5
23F
330
1F
100
AcDbEntity
  8
002
 62
     3
370
    30
100
AcDbCircle
 10
340.614914
 20
3306.791837
 30
0.0
 40
40.99947025267526
100
AcDbArc
 50
79.684154
 51
346.365062
  0
LINE
  5
240
330
1F
100
AcDbEntity
  8
002
 62
     3
370
    30
100
AcDbLine
 10
398.551914
 20
3306.749837
 30
0.0
 11
401.091914
 21
3297.269837
 31
0.0
  0
LINE
  5
241
330
1F
100
AcDbEntity
  8
002
 62
     3
370
    30
100
AcDbLine
 10
401.091914
 20
3297.269837
 30
0.0
 11
410.571914
 21
3294.728837
 31
0.0
  0
LINE
  5
242
330
1F
100
AcDbEntity
  8
002
 62
     3
370
    30
100
AcDbLine
 10
410.571914
 20
3294.728837
 30
0.0
 11
417.512914
 21
3301.668837
 31
0.0
  0
LINE
  5
243
330
1F
100
AcDbEntity
  8
002
 62
     3
370
    30
100
AcDbLine
 10
417.512914
 20
3301.668837
 30
0.0
 11
414.971914
 21
3311.149837
 31
0.0
  0
LINE
  5
244
330
1F
100
AcDbEntity
  8
002
 62
     3
370
    30
100
AcDbLine
 10
414.971914
 20
3311.149837
 30
0.0
 11
405.491914
 21
3313.689837
 31
0.0
  0
LINE
  5
245
330
1F
100
AcDbEntity
  8
002
 62
     3
370
    30
100
AcDbLine
 10
405.491914
 20
3313.689837
 30
0.0
 11
398.551914
 21
3306.749837
 31
0.0
  0
CIRCLE
  5
246
330
1F
100
AcDbEntity
  8
002
 62
     3
370
    30
100
AcDbCircle
 10
408.031914
 20
3304.209837
 30
0.0
 40
16.5
  0
CIRCLE
  5
247
330
1F
100
AcDbEntity
  8
002
 62
     3
370
    30
100
AcDbCircle
 10
340.614914
 20
3306.791837
 30
0.0
 40
22.5
  0
LINE
  5
248
330
1F
100
AcDbEntity
  8
002
 62
     3
370
    30
100
AcDbLine
 10
356.962914
 20
3378.782837
 30
0.0
 11
366.443914
 21
3381.323837
 31
0.0
  0
LINE
  5
249
330
1F
100
AcDbEntity
  8
002
 62
     3
370
    30
100
AcDbLine
 10
366.443914
 20
3381.323837
 30
0.0
 11
368.983914
 21
3390.803837
 31
0.0
  0
LINE
  5
24A
330
1F
100
AcDbEntity
  8
002
 62
     3
370
    30
100
AcDbLine
 10
368.983914
 20
3390.803837
 30
0.0
 11
362.043914
 21
3397.743837
 31
0.0
  0
LINE
  5
24B
330
1F
100
AcDbEntity
  8
002
 62
     3
370
    30
100
AcDbLine
 10
362.043914
 20
3397.743837
 30
0.0
 11
352.562914
 21
3395.203837
 31
0.0
  0
LINE
  5
24C
330
1F
100
AcDbEntity
  8
002
 62
     3
370
    30
100
AcDbLine
 10
352.562914
 20
3395.203837
 30
0.0
 11
350.022914
 21
3385.722837
 31
0.0
  0
LINE
  5
24D
330
1F
100
AcDbEntity
  8
002
 62
     3
370
    30
100
AcDbLine
 10
350.022914
 20
3385.722837
 30
0.0
 11
356.962914
 21
3378.782837
 31
0.0
  0
CIRCLE
  5
24E
330
1F
100
AcDbEntity
  8
002
 62
     3
370
    30
100
AcDbCircle
 10
359.503914
 20
3388.263837
 30
0.0
 40
16.5
  0
LINE
  5
24F
330
1F
100
AcDbEntity
  8
002
 62
     3
370
    30
100
AcDbLine
 10
501.566914
 20
3615.362837
 30
0.0
 11
494.625914
 21
3608.422837
 31
0.0
  0
LINE
  5
250
330
1F
100
AcDbEntity
  8
002
 62
     3
370
    30
100
AcDbLine
 10
494.625914
 20
3608.422837
 30
0.0
 11
485.145914
 21
3610.962837
 31
0.0
  0
LINE
  5
251
330
1F
100
AcDbEntity
  8
002
 62
     3
370
    30
100
AcDbLine
 10
485.145914
 20
3610.962837
 30
0.0
 11
482.605914
 21
3620.443837
 31
0.0
  0
LINE
  5
252
330
1F
100
AcDbEntity
  8
002
 62
     3
370
    30
100
AcDbLine
 10
482.605914
 20
3620.443837
 30
0.0
 11
489.545914
 21
3627.383837
 31
0.0
  0
LINE
  5
253
330
1F
100
AcDbEntity
  8
002
 62
     3
370
    30
100
AcDbLine
 10
489.545914
 20
3627.383837
 30
0.0
 11
499.025914
 21
3624.843837
 31
0.0
  0
LINE
  5
254
330
1F
100
AcDbEntity
  8
002
 62
     3
370
    30
100
AcDbLine
 10
499.025914
 20
3624.843837
 30
0.0
 11
501.566914
 21
3615.362837
 31
0.0
  0
CIRCLE
  5
255
330
1F
100
AcDbEntity
  8
002
 62
     3
370
    30
100
AcDbCircle
 10
492.085914
 20
3617.902837
 30
0.0
 40
16.5
  0
CIRCLE
  5
256
330
1F
100
AcDbEntity
  8
002
 62
     3
370
    30
100
AcDbCircle
 10
540.614914
 20
3436.791837
 30
0.0
 40
212.5
  0
LINE
  5
257
330
1F
100
AcDbEntity
  8
002
 62
     3
370
    30
100
AcDbLine
 10
582.202914
 20
3624.843837
 30
0.0
 11
591.682914
 21
3627.383837
 31
0.0
  0
LINE
  5
258
330
1F
100
AcDbEntity
  8
002
 62
     3
370
    30
100
AcDbLine
 10
591.682914
 20
3627.383837
 30
0.0
 11
598.623914
 21
3620.443837
 31
0.0
  0
LINE
  5
259
330
1F
100
AcDbEntity
  8
002
 62
     3
370
    30
100
AcDbLine
 10
598.623914
 20
3620.443837
 30
0.0
 11
596.082914
 21
3610.962837
 31
0.0
  0
LINE
  5
25A
330
1F
100
AcDbEntity
  8
002
 62
     3
370
    30
100
AcDbLine
 10
596.082914
 20
3610.962837
 30
0.0
 11
586.602914
 21
3608.422837
 31
0.0
  0
LINE
  5
25B
330
1F
100
AcDbEntity
  8
002
 62
     3
370
    30
100
AcDbLine
 10
586.602914
 20
3608.422837
 30
0.0
 11
579.662914
 21
3615.362837
 31
0.0
  0
LINE
  5
25C
330
1F
100
AcDbEntity
  8
002
 62
     3
370
    30
100
AcDbLine
 10
579.662914
 20
3615.362837
 30
0.0
 11
582.202914
 21
3624.843837
 31
0.0
  0
CIRCLE
  5
25D
330
1F
100
AcDbEntity
  8
002
 62
     3
370
    30
100
AcDbCircle
 10
589.142914
 20
3617.902837
 30
0.0
 40
16.5
  0
LINE
  5
25E
330
1F
100
AcDbEntity
  8
002
 62
     3
370
    30
100
AcDbLine
 10
670.614914
 20
3638.791837
 30
0.0
 11
720.614914
 21
3638.791837
 31
0.0
  0
LINE
  5
25F
330
1F
100
AcDbEntity
  8
002
 62
     3
370
    30
100
AcDbLine
 10
670.614914
 20
3638.791837
 30
0.0
 11
670.614914
 21
3636.791837
 31
0.0
  0
LINE
  5
260
330
1F
100
AcDbEntity
  8
002
 62
     3
370
    30
100
AcDbLine
 10
673.114914
 20
3638.791837
 30
0.0
 11
673.114914
 21
3736.791837
 31
0.0
  0
LINE
  5
261
330
1F
100
AcDbEntity
  8
002
 62
     3
370
    30
100
AcDbLine
 10
673.114914
 20
3736.791837
 30
0.0
 11
718.114914
 21
3736.791837
 31
0.0
  0
LINE
  5
262
330
1F
100
AcDbEntity
  8
002
 62
     3
370
    30
100
AcDbLine
 10
718.114914
 20
3736.791837
 30
0.0
 11
718.114914
 21
3638.791837
 31
0.0
  0
LINE
  5
263
330
1F
100
AcDbEntity
  8
002
 62
     3
370
    30
100
AcDbLine
 10
720.614914
 20
3638.791837
 30
0.0
 11
720.614914
 21
3636.791837
 31
0.0
  0
LINE
  5
264
330
1F
100
AcDbEntity
  8
002
 62
     3
370
    30
100
AcDbLine
 10
748.114914
 20
3636.791837
 30
0.0
 11
748.114914
 21
3629.791837
 31
0.0
  0
ARC
  5
265
330
1F
100
AcDbEntity
  8
002
 62
     3
370
    30
100
AcDbCircle
 10
749.114914
 20
3629.791837
 30
0.0
 40
1.0
100
AcDbArc
 50
180.0
 51
270.0
  0
CIRCLE
  5
266
330
1F
100
AcDbEntity
  8
002
 62
     3
370
    30
100
AcDbCircle
 10
835.614914
 20
3566.791837
 30
0.0
 40
41.0
  0
CIRCLE
  5
267
330
1F
100
AcDbEntity
  8
002
 62
     3
370
    30
100
AcDbCircle
 10
835.614914
 20
3566.791837
 30
0.0
 40
22.5
  0
LINE
  5
268
330
1F
100
AcDbEntity
  8
002
 62
     3
370
    30
100
AcDbLine
 10
682.677914
 20
3566.834837
 30
0.0
 11
680.136914
 21
3576.314837
 31
0.0
  0
LINE
  5
269
330
1F
100
AcDbEntity
  8
002
 62
     3
370
    30
100
AcDbLine
 10
680.136914
 20
3576.314837
 30
0.0
 11
670.656914
 21
3578.854837
 31
0.0
  0
LINE
  5
26A
330
1F
100
AcDbEntity
  8
002
 62
     3
370
    30
100
AcDbLine
 10
670.656914
 20
3578.854837
 30
0.0
 11
663.716914
 21
3571.914837
 31
0.0
  0
LINE
  5
26B
330
1F
100
AcDbEntity
  8
002
 62
     3
370
    30
100
AcDbLine
 10
663.716914
 20
3571.914837
 30
0.0
 11
666.256914
 21
3562.434837
 31
0.0
  0
LINE
  5
26C
330
1F
100
AcDbEntity
  8
002
 62
     3
370
    30
100
AcDbLine
 10
666.256914
 20
3562.434837
 30
0.0
 11
675.736914
 21
3559.893837
 31
0.0
  0
LINE
  5
26D
330
1F
100
AcDbEntity
  8
002
 62
     3
370
    30
100
AcDbLine
 10
675.736914
 20
3559.893837
 30
0.0
 11
682.677914
 21
3566.834837
 31
0.0
  0
CIRCLE
  5
26E
330
1F
100
AcDbEntity
  8
002
 62
     3
370
    30
100
AcDbCircle
 10
673.196914
 20
3569.374837
 30
0.0
 40
16.5
  0
LINE
  5
26F
330
1F
100
AcDbEntity
  8
002
 62
     3
370
    30
100
AcDbLine
 10
414.971914
 20
3562.434837
 30
0.0
 11
405.491914
 21
3559.893837
 31
0.0
  0
LINE
  5
270
330
1F
100
AcDbEntity
  8
002
 62
     3
370
    30
100
AcDbLine
 10
405.491914
 20
3559.893837
 30
0.0
 11
398.551914
 21
3566.834837
 31
0.0
  0
LINE
  5
271
330
1F
100
AcDbEntity
  8
002
 62
     3
370
    30
100
AcDbLine
 10
398.551914
 20
3566.834837
 30
0.0
 11
401.091914
 21
3576.314837
 31
0.0
  0
LINE
  5
272
330
1F
100
AcDbEntity
  8
002
 62
     3
370
    30
100
AcDbLine
 10
401.091914
 20
3576.314837
 30
0.0
 11
410.571914
 21
3578.854837
 31
0.0
  0
LINE
  5
273
330
1F
100
AcDbEntity
  8
002
 62
     3
370
    30
100
AcDbLine
 10
410.571914
 20
3578.854837
 30
0.0
 11
417.512914
 21
3571.914837
 31
0.0
  0
LINE
  5
274
330
1F
100
AcDbEntity
  8
002
 62
     3
370
    30
100
AcDbLine
 10
417.512914
 20
3571.914837
 30
0.0
 11
414.971914
 21
3562.434837
 31
0.0
  0
CIRCLE
  5
275
330
1F
100
AcDbEntity
  8
002
 62
     3
370
    30
100
AcDbCircle
 10
408.031914
 20
3569.374837
 30
0.0
 40
16.5
  0
ARC
  5
276
330
1F
100
AcDbEntity
  8
002
 62
     3
370
    30
100
AcDbCircle
 10
340.614914
 20
3566.791837
 30
0.0
 40
40.99973820648128
100
AcDbArc
 50
13.636296
 51
280.315846
  0
LINE
  5
277
330
1F
100
AcDbEntity
  8
002
 62
     3
370
    30
100
AcDbLine
 10
340.614914
 20
3616.791837
 30
0.0
 11
427.670914
 21
3616.791837
 31
0.0
  0
ARC
  5
278
330
1F
100
AcDbEntity
  8
002
 62
     3
370
    30
100
AcDbCircle
 10
340.614914
 20
3306.791837
 30
0.0
 40
50.0
100
AcDbArc
 50
180.0
 51
270.0
  0
LINE
  5
279
330
1F
100
AcDbEntity
  8
002
 62
     3
370
    30
100
AcDbLine
 10
702.614914
 20
2568.303837
 30
0.0
 11
688.614914
 21
2568.303837
 31
0.0
  0
LINE
  5
27A
330
1F
100
AcDbEntity
  8
002
  6
CENTER
 62
    40
370
     9
100
AcDbLine
 10
835.614914
 20
3356.791837
 30
0.0
 11
835.614914
 21
3245.750837
 31
0.0
  0
LINE
  5
27B
330
1F
100
AcDbEntity
  8
002
  6
CENTER
 62
    40
370
     9
100
AcDbLine
 10
785.614914
 20
3306.791837
 30
0.0
 11
894.978914
 21
3306.791837
 31
0.0
  0
LINE
  5
27C
330
1F
100
AcDbEntity
  8
002
  6
CENTER
 62
    40
370
     9
100
AcDbLine
 10
909.521914
 20
3436.791837
 30
0.0
 11
266.511914
 21
3436.791837
 31
0.0
  0
LINE
  5
27D
330
1F
100
AcDbEntity
  8
002
  6
CENTER
 62
    40
370
     9
100
AcDbLine
 10
835.614914
 20
3516.791837
 30
0.0
 11
835.614914
 21
3627.832837
 31
0.0
  0
LINE
  5
27E
330
1F
100
AcDbEntity
  8
002
  6
CENTER
 62
    40
370
     9
100
AcDbLine
 10
785.614914
 20
3566.791837
 30
0.0
 11
894.978914
 21
3566.791837
 31
0.0
  0
LINE
  5
27F
330
1F
100
AcDbEntity
  8
002
  6
CENTER
 62
    40
370
     9
100
AcDbLine
 10
695.614914
 20
3126.773837
 30
0.0
 11
695.614914
 21
3755.922837
 31
0.0
  0
LINE
  5
280
330
1F
100
AcDbEntity
  8
002
  6
CENTER
 62
    40
370
     9
100
AcDbLine
 10
540.614914
 20
3170.801837
 30
0.0
 11
540.614914
 21
3693.951837
 31
0.0
  0
LINE
  5
281
330
1F
100
AcDbEntity
  8
002
  6
CENTER
 62
    40
370
     9
100
AcDbLine
 10
399.978914
 20
3566.791837
 30
0.0
 11
290.614914
 21
3566.791837
 31
0.0
  0
LINE
  5
282
330
1F
100
AcDbEntity
  8
002
  6
CENTER
 62
    40
370
     9
100
AcDbLine
 10
340.614914
 20
3516.791837
 30
0.0
 11
340.614914
 21
3627.832837
 31
0.0
  0
LINE
  5
283
330
1F
100
AcDbEntity
  8
002
  6
CENTER
 62
    40
370
     9
100
AcDbLine
 10
399.978914
 20
3306.791837
 30
0.0
 11
290.614914
 21
3306.791837
 31
0.0
  0
LINE
  5
284
330
1F
100
AcDbEntity
  8
002
  6
CENTER
 62
    40
370
     9
100
AcDbLine
 10
340.614914
 20
3356.791837
 30
0.0
 11
340.614914
 21
3245.750837
 31
0.0
  0
LINE
  5
285
330
1F
100
AcDbEntity
  8
002
  6
CENTER
 62
    40
370
     9
100
AcDbLine
 10
741.835914
 20
3490.709837
 30
0.0
 11
701.151914
 21
3479.807837
 31
0.0
  0
LINE
  5
286
330
1F
100
AcDbEntity
  8
002
  6
CENTER
 62
    40
370
     9
100
AcDbLine
 10
658.135914
 20
3554.313837
 30
0.0
 11
687.918914
 21
3584.096837
 31
0.0
  0
LINE
  5
287
330
1F
100
AcDbEntity
  8
002
  6
CENTER
 62
    40
370
     9
100
AcDbLine
 10
594.531914
 20
3638.013837
 30
0.0
 11
583.630914
 21
3597.329837
 31
0.0
  0
LINE
  5
288
330
1F
100
AcDbEntity
  8
002
  6
CENTER
 62
    40
370
     9
100
AcDbLine
 10
497.598914
 20
3597.329837
 30
0.0
 11
486.696914
 21
3638.013837
 31
0.0
  0
LINE
  5
289
330
1F
100
AcDbEntity
  8
002
  6
CENTER
 62
    40
370
     9
100
AcDbLine
 10
423.092914
 20
3554.313837
 30
0.0
 11
393.309914
 21
3584.096837
 31
0.0
  0
LINE
  5
28A
330
1F
100
AcDbEntity
  8
002
  6
CENTER
 62
    40
370
     9
100
AcDbLine
 10
339.392914
 20
3490.709837
 30
0.0
 11
380.076914
 21
3479.807837
 31
0.0
  0
LINE
  5
28B
330
1F
100
AcDbEntity
  8
002
  6
CENTER
 62
    40
370
     9
100
AcDbLine
 10
339.392914
 20
3382.874837
 30
0.0
 11
380.076914
 21
3393.775837
 31
0.0
  0
LINE
  5
28C
330
1F
100
AcDbEntity
  8
002
  6
CENTER
 62
    40
370
     9
100
AcDbLine
 10
393.309914
 20
3289.487837
 30
0.0
 11
423.092914
 21
3319.269837
 31
0.0
  0
LINE
  5
28D
330
1F
100
AcDbEntity
  8
002
  6
CENTER
 62
    40
370
     9
100
AcDbLine
 10
497.598914
 20
3276.253837
 30
0.0
 11
486.696914
 21
3235.570837
 31
0.0
  0
LINE
  5
28E
330
1F
100
AcDbEntity
  8
002
  6
CENTER
 62
    40
370
     9
100
AcDbLine
 10
583.630914
 20
3276.253837
 30
0.0
 11
594.531914
 21
3235.570837
 31
0.0
  0
LINE
  5
28F
330
1F
100
AcDbEntity
  8
002
  6
CENTER
 62
    40
370
     9
100
AcDbLine
 10
687.918914
 20
3289.487837
 30
0.0
 11
658.135914
 21
3319.269837
 31
0.0
  0
CIRCLE
  5
290
330
1F
100
AcDbEntity
  8
002
  6
CENTER
 62
    40
370
     9
100
AcDbCircle
 10
540.614914
 20
3436.791837
 30
0.0
 40
187.5
  0
LINE
  5
291
330
1F
100
AcDbEntity
  8
002
  6
CENTER
 62
    40
370
     9
100
AcDbLine
 10
701.151914
 20
3393.775837
 30
0.0
 11
741.835914
 21
3382.874837
 31
0.0
  0
LINE
  5
292
330
1F
100
AcDbEntity
  8
002
  6
CENTER
 62
    40
370
     9
100
AcDbLine
 10
695.614914
 20
2576.631837
 30
0.0
 11
695.614914
 21
2512.622837
 31
0.0
  0
LINE
  5
293
330
1F
100
AcDbEntity
  8
002
  6
CENTER
 62
    40
370
     9
100
AcDbLine
 10
727.730914
 20
2542.303837
 30
0.0
 11
662.110914
 21
2542.303837
 31
0.0
  0
LINE
  5
294
330
1F
100
AcDbEntity
  8
002
 62
     3
370
    30
100
AcDbLine
 10
702.614914
 20
2559.303598
 30
0.0
 11
688.614914
 21
2559.303598
 31
0.0
  0
LINE
  5
295
330
1F
100
AcDbEntity
  8
002
 62
     3
370
    30
100
AcDbLine
 10
702.614914
 20
2559.303598
 30
0.0
 11
702.614914
 21
2568.303837
 31
0.0
  0
LINE
  5
296
330
1F
100
AcDbEntity
  8
002
 62
     3
370
    30
100
AcDbLine
 10
688.614914
 20
2568.303837
 30
0.0
 11
688.614914
 21
2559.303598
 31
0.0
  0
ARC
  5
297
330
1F
100
AcDbEntity
  8
002
 62
     3
370
    30
100
AcDbCircle
 10
695.614914
 20
2542.303837
 30
0.0
 40
22.49976055428097
100
AcDbArc
 50
108.126404
 51
71.873596
  0
LINE
  5
298
330
1F
100
AcDbEntity
  8
002
 62
     3
370
    30
100
AcDbLine
 10
400.614914
 20
686.487307
 30
0.0
 11
400.614914
 21
676.487307
 31
0.0
  0
LINE
  5
299
330
1F
100
AcDbEntity
  8
002
 62
     3
370
    30
100
AcDbLine
 10
400.614914
 20
676.487307
 30
0.0
 11
395.791914
 21
658.487307
 31
0.0
  0
LINE
  5
29A
330
1F
100
AcDbEntity
  8
002
 62
     3
370
    30
100
AcDbLine
 10
391.531914
 20
658.487307
 30
0.0
 11
424.531914
 21
658.487307
 31
0.0
  0
LINE
  5
29B
330
1F
100
AcDbEntity
  8
002
 62
     3
370
    30
100
AcDbLine
 10
424.531914
 20
658.487307
 30
0.0
 11
424.531914
 21
636.487307
 31
0.0
  0
LINE
  5
29C
330
1F
100
AcDbEntity
  8
002
 62
     3
370
    30
100
AcDbLine
 10
424.531914
 20
638.487307
 30
0.0
 11
475.585914
 21
638.487307
 31
0.0
  0
LINE
  5
29D
330
1F
100
AcDbEntity
  8
002
 62
     3
370
    30
100
AcDbLine
 10
475.585914
 20
636.487307
 30
0.0
 11
475.585914
 21
658.487307
 31
0.0
  0
LINE
  5
29E
330
1F
100
AcDbEntity
  8
002
 62
     3
370
    30
100
AcDbLine
 10
475.585914
 20
658.487307
 30
0.0
 11
508.585914
 21
658.487307
 31
0.0
  0
LINE
  5
29F
330
1F
100
AcDbEntity
  8
002
 62
     3
370
    30
100
AcDbLine
 10
508.585914
 20
658.487307
 30
0.0
 11
508.585914
 21
636.487307
 31
0.0
  0
LINE
  5
2A0
330
1F
100
AcDbEntity
  8
002
 62
     3
370
    30
100
AcDbLine
 10
508.585914
 20
638.487307
 30
0.0
 11
572.642914
 21
638.487307
 31
0.0
  0
LINE
  5
2A1
330
1F
100
AcDbEntity
  8
002
 62
     3
370
    30
100
AcDbLine
 10
572.642914
 20
636.487307
 30
0.0
 11
572.642914
 21
658.487307
 31
0.0
  0
LINE
  5
2A2
330
1F
100
AcDbEntity
  8
002
 62
     3
370
    30
100
AcDbLine
 10
572.642914
 20
658.487307
 30
0.0
 11
605.642914
 21
658.487307
 31
0.0
  0
LINE
  5
2A3
330
1F
100
AcDbEntity
  8
002
 62
     3
370
    30
100
AcDbLine
 10
605.642914
 20
658.487307
 30
0.0
 11
605.642914
 21
636.487307
 31
0.0
  0
LINE
  5
2A4
330
1F
100
AcDbEntity
  8
002
 62
     3
370
    30
100
AcDbLine
 10
605.642914
 20
638.487307
 30
0.0
 11
656.696914
 21
638.487307
 31
0.0
  0
LINE
  5
2A5
330
1F
100
AcDbEntity
  8
002
 62
     3
370
    30
100
AcDbLine
 10
656.696914
 20
636.487307
 30
0.0
 11
656.696914
 21
658.487307
 31
0.0
  0
LINE
  5
2A6
330
1F
100
AcDbEntity
  8
002
 62
     3
370
    30
100
AcDbLine
 10
656.696914
 20
658.487307
 30
0.0
 11
689.696914
 21
658.487307
 31
0.0
  0
LINE
  5
2A7
330
1F
100
AcDbEntity
  8
002
 62
     3
370
    30
100
AcDbLine
 10
685.437914
 20
658.487307
 30
0.0
 11
680.614914
 21
676.487307
 31
0.0
  0
LINE
  5
2A8
330
1F
100
AcDbEntity
  8
002
 62
     3
370
    30
100
AcDbLine
 10
680.614914
 20
676.487307
 30
0.0
 11
680.614914
 21
686.487307
 31
0.0
  0
LINE
  5
2A9
330
1F
100
AcDbEntity
  8
002
 62
     3
370
    30
100
AcDbLine
 10
689.696914
 20
658.487307
 30
0.0
 11
689.696914
 21
636.487307
 31
0.0
  0
LINE
  5
2AA
330
1F
100
AcDbEntity
  8
002
 62
     3
370
    30
100
AcDbLine
 10
689.696914
 20
638.487307
 30
0.0
 11
703.114914
 21
638.487307
 31
0.0
  0
LINE
  5
2AB
330
1F
100
AcDbEntity
  8
002
 62
     3
370
    30
100
AcDbLine
 10
703.114914
 20
638.487307
 30
0.0
 11
703.114914
 21
636.487307
 31
0.0
  0
LINE
  5
2AC
330
1F
100
AcDbEntity
  8
002
 62
     3
370
    30
100
AcDbLine
 10
705.225914
 20
636.487307
 30
0.0
 11
705.225914
 21
658.487307
 31
0.0
  0
LINE
  5
2AD
330
1F
100
AcDbEntity
  8
002
 62
     3
370
    30
100
AcDbLine
 10
705.225914
 20
658.487307
 30
0.0
 11
738.225914
 21
658.487307
 31
0.0
  0
LINE
  5
2AE
330
1F
100
AcDbEntity
  8
002
 62
     3
370
    30
100
AcDbLine
 10
738.225914
 20
658.487307
 30
0.0
 11
738.225914
 21
636.487307
 31
0.0
  0
LINE
  5
2AF
330
1F
100
AcDbEntity
  8
002
 62
     3
370
    30
100
AcDbLine
 10
753.114914
 20
636.487307
 30
0.0
 11
753.114914
 21
580.362307
 31
0.0
  0
ARC
  5
2B0
330
1F
100
AcDbEntity
  8
002
 62
     3
370
    30
100
AcDbCircle
 10
768.114914
 20
580.362307
 30
0.0
 40
14.9998395324751
100
AcDbArc
 50
180.0
 51
223.530507
  0
LINE
  5
2B1
330
1F
100
AcDbEntity
  8
002
 62
     3
370
    30
100
AcDbLine
 10
768.071914
 20
559.987307
 30
0.0
 11
770.669914
 21
561.487307
 31
0.0
  0
LINE
  5
2B2
330
1F
100
AcDbEntity
  8
002
 62
     3
370
    30
100
AcDbLine
 10
770.669914
 20
561.487307
 30
0.0
 11
774.649914
 21
560.421307
 31
0.0
  0
ARC
  5
2B3
330
1F
100
AcDbEntity
  8
002
 62
     3
370
    30
100
AcDbCircle
 10
774.908914
 20
561.387307
 30
0.0
 40
1.00029445664738
100
AcDbArc
 50
254.991086
 51
331.974684
  0
LINE
  5
2B4
330
1F
100
AcDbEntity
  8
002
 62
     3
370
    30
100
AcDbLine
 10
775.791914
 20
560.917307
 30
0.0
 11
776.261914
 21
561.802307
 31
0.0
  0
LINE
  5
2B5
330
1F
100
AcDbEntity
  8
002
 62
     3
370
    30
100
AcDbLine
 10
776.261914
 20
561.802307
 30
0.0
 11
779.234914
 21
562.652307
 31
0.0
  0
LINE
  5
2B6
330
1F
100
AcDbEntity
  8
002
 62
     3
370
    30
100
AcDbLine
 10
779.234914
 20
562.652307
 30
0.0
 11
781.734914
 21
558.322307
 31
0.0
  0
LINE
  5
2B7
330
1F
100
AcDbEntity
  8
002
 62
     3
370
    30
100
AcDbLine
 10
781.734914
 20
558.322307
 30
0.0
 11
779.511914
 21
556.173307
 31
0.0
  0
LINE
  5
2B8
330
1F
100
AcDbEntity
  8
002
 62
     3
370
    30
100
AcDbLine
 10
779.511914
 20
556.173307
 30
0.0
 11
778.510914
 21
556.208307
 31
0.0
  0
ARC
  5
2B9
330
1F
100
AcDbEntity
  8
002
 62
     3
370
    30
100
AcDbCircle
 10
778.475914
 20
555.208307
 30
0.0
 40
1.000118492979609
100
AcDbArc
 50
87.995466
 51
164.991086
  0
LINE
  5
2BA
330
1F
100
AcDbEntity
  8
002
 62
     3
370
    30
100
AcDbLine
 10
777.509914
 20
555.467307
 30
0.0
 11
776.443914
 21
551.487307
 31
0.0
  0
LINE
  5
2BB
330
1F
100
AcDbEntity
  8
002
 62
     3
370
    30
100
AcDbLine
 10
776.443914
 20
551.487307
 30
0.0
 11
773.845914
 21
549.987307
 31
0.0
  0
LINE
  5
2BC
330
1F
100
AcDbEntity
  8
002
 62
     3
370
    30
100
AcDbLine
 10
773.845914
 20
549.987307
 30
0.0
 11
772.611914
 21
550.318307
 31
0.0
  0
LINE
  5
2BD
330
1F
100
AcDbEntity
  8
002
 62
     3
370
    30
100
AcDbLine
 10
773.063914
 20
550.197307
 30
0.0
 11
771.782914
 21
549.560307
 31
0.0
  0
LINE
  5
2BE
330
1F
100
AcDbEntity
  8
002
 62
     3
370
    30
100
AcDbLine
 10
772.235914
 20
550.776307
 30
0.0
 11
767.949914
 21
558.199307
 31
0.0
  0
ARC
  5
2BF
330
1F
100
AcDbEntity
  8
002
 62
     3
370
    30
100
AcDbCircle
 10
769.261914
 20
559.008307
 30
0.0
 40
1.541898180814713
100
AcDbArc
 50
189.486771
 51
279.443995
  0
ARC
  5
2C0
330
1F
100
AcDbEntity
  8
002
 62
     3
370
    30
100
AcDbCircle
 10
774.133914
 20
556.821307
 30
0.0
 40
4.667266866164868
100
AcDbArc
 50
171.795237
 51
248.216827
  0
ARC
  5
2C1
330
1F
100
AcDbEntity
  8
002
 62
     3
370
    30
100
AcDbCircle
 10
773.591914
 20
551.508307
 30
0.0
 40
1.541590088188221
100
AcDbArc
 50
140.556242
 51
230.52754
  0
LINE
  5
2C2
330
1F
100
AcDbEntity
  8
002
 62
     3
370
    30
100
AcDbLine
 10
772.401914
 20
552.487307
 30
0.0
 11
774.999914
 21
553.987307
 31
0.0
  0
ARC
  5
2C3
330
1F
100
AcDbEntity
  8
002
 62
     3
370
    30
100
AcDbCircle
 10
770.380914
 20
554.654307
 30
0.0
 40
4.666709547422012
100
AcDbArc
 50
351.783086
 51
68.20087
  0
LINE
  5
2C4
330
1F
100
AcDbEntity
  8
002
 62
     3
370
    30
100
AcDbLine
 10
772.113914
 20
558.987307
 30
0.0
 11
769.514914
 21
557.487307
 31
0.0
  0
LINE
  5
2C5
330
1F
100
AcDbEntity
  8
002
 62
     3
370
    30
100
AcDbLine
 10
767.741914
 20
558.754307
 30
0.0
 11
768.071914
 21
559.987307
 31
0.0
  0
LINE
  5
2C6
330
1F
100
AcDbEntity
  8
002
 62
     3
370
    30
100
AcDbLine
 10
767.862914
 20
559.206307
 30
0.0
 11
766.670914
 21
558.415307
 31
0.0
  0
ARC
  5
2C7
330
1F
100
AcDbEntity
  8
002
 62
     3
370
    30
100
AcDbCircle
 10
770.923914
 20
559.967307
 30
0.0
 40
1.540954574282012
100
AcDbArc
 50
320.52754
 51
50.556242
  0
LINE
  5
2C8
330
1F
100
AcDbEntity
  8
002
 62
     3
370
    30
100
AcDbLine
 10
775.417914
 20
560.215307
 30
0.0
 11
777.715914
 21
556.236307
 31
0.0
  0
LINE
  5
2C9
330
1F
100
AcDbEntity
  8
002
 62
     3
370
    30
100
AcDbLine
 10
779.136914
 20
556.822307
 30
0.0
 11
776.636914
 21
561.152307
 31
0.0
  0
ARC
  5
2CA
330
1F
100
AcDbEntity
  8
002
 62
     3
370
    30
100
AcDbCircle
 10
779.911914
 20
560.157307
 30
0.0
 40
0.9998019803938861
100
AcDbArc
 50
341.402022
 51
78.577679
  0
ARC
  5
2CB
330
1F
100
AcDbEntity
  8
002
 62
     3
370
    30
100
AcDbCircle
 10
775.253914
 20
552.467307
 30
0.0
 40
1.541076247302481
100
AcDbArc
 50
9.450097
 51
99.486771
  0
LINE
  5
2CC
330
1F
100
AcDbEntity
  8
002
 62
     3
370
    30
100
AcDbLine
 10
779.322914
 20
526.247307
 30
0.0
 11
798.254914
 21
418.883307
 31
0.0
  0
ARC
  5
2CD
330
1F
100
AcDbEntity
  8
002
 62
     3
370
    30
100
AcDbCircle
 10
813.026914
 20
421.487307
 30
0.0
 40
15.0
100
AcDbArc
 50
189.997359
 51
270.0
  0
LINE
  5
2CE
330
1F
100
AcDbEntity
  8
002
 62
     3
370
    30
100
AcDbLine
 10
780.614914
 20
421.487307
 30
0.0
 11
780.614914
 21
511.487307
 31
0.0
  0
CIRCLE
  5
2CF
330
1F
100
AcDbEntity
  8
002
 62
     3
370
    30
100
AcDbCircle
 10
695.614914
 20
511.487307
 30
0.0
 40
85.0
  0
CIRCLE
  5
2D0
330
1F
100
AcDbEntity
  8
002
 62
     3
370
    30
100
AcDbCircle
 10
695.614914
 20
511.487307
 30
0.0
 40
52.5
  0
CIRCLE
  5
2D1
330
1F
100
AcDbEntity
  8
002
 62
     3
370
    30
100
AcDbCircle
 10
695.614914
 20
511.487307
 30
0.0
 40
39.0
  0
CIRCLE
  5
2D2
330
1F
100
AcDbEntity
  8
002
 62
     3
370
    30
100
AcDbCircle
 10
695.614914
 20
511.487307
 30
0.0
 40
36.0
  0
LINE
  5
2D3
330
1F
100
AcDbEntity
  8
002
 62
     3
370
    30
100
AcDbLine
 10
753.114914
 20
606.487307
 30
0.0
 11
328.114914
 21
606.487307
 31
0.0
  0
ARC
  5
2D4
330
1F
100
AcDbEntity
  8
002
 62
     3
370
    30
100
AcDbCircle
 10
343.114914
 20
577.997307
 30
0.0
 40
14.99973146426291
100
AcDbArc
 50
180.0
 51
232.890219
  0
LINE
  5
2D5
330
1F
100
AcDbEntity
  8
002
 62
     3
370
    30
100
AcDbLine
 10
341.789914
 20
566.487307
 30
0.0
 11
619.375914
 21
566.487307
 31
0.0
  0
ARC
  5
2D6
330
1F
100
AcDbEntity
  8
002
 62
     3
370
    30
100
AcDbCircle
 10
619.375914
 20
561.487307
 30
0.0
 40
5.0
100
AcDbArc
 50
0.0
 51
90.0
  0
LINE
  5
2D7
330
1F
100
AcDbEntity
  8
002
 62
     3
370
    30
100
AcDbLine
 10
617.410914
 20
556.439307
 30
0.0
 11
583.957914
 21
556.439307
 31
0.0
  0
ARC
  5
2D8
330
1F
100
AcDbEntity
  8
002
 62
     3
370
    30
100
AcDbCircle
 10
580.614914
 20
553.487307
 30
0.0
 40
5.0
100
AcDbArc
 50
90.0
 51
180.0
  0
LINE
  5
2D9
330
1F
100
AcDbEntity
  8
002
 62
     3
370
    30
100
AcDbLine
 10
575.614914
 20
553.487307
 30
0.0
 11
575.614914
 21
511.487307
 31
0.0
  0
CIRCLE
  5
2DA
330
1F
100
AcDbEntity
  8
002
 62
     3
370
    30
100
AcDbCircle
 10
540.614914
 20
511.487307
 30
0.0
 40
24.12025
  0
LINE
  5
2DB
330
1F
100
AcDbEntity
  8
002
 62
     3
370
    30
100
AcDbLine
 10
553.614914
 20
524.487307
 30
0.0
 11
527.614914
 21
524.487307
 31
0.0
  0
LINE
  5
2DC
330
1F
100
AcDbEntity
  8
002
 62
     3
370
    30
100
AcDbLine
 10
527.614914
 20
524.487307
 30
0.0
 11
527.614914
 21
498.487307
 31
0.0
  0
LINE
  5
2DD
330
1F
100
AcDbEntity
  8
002
 62
     3
370
    30
100
AcDbLine
 10
527.614914
 20
498.487307
 30
0.0
 11
553.614914
 21
498.487307
 31
0.0
  0
LINE
  5
2DE
330
1F
100
AcDbEntity
  8
002
 62
     3
370
    30
100
AcDbLine
 10
553.614914
 20
498.487307
 30
0.0
 11
553.614914
 21
524.487307
 31
0.0
  0
ARC
  5
2DF
330
1F
100
AcDbEntity
  8
002
 62
     3
370
    30
100
AcDbCircle
 10
540.614914
 20
511.487307
 30
0.0
 40
35.00000000000023
100
AcDbArc
 50
180.0
 51
0.0
  0
LINE
  5
2E0
330
1F
100
AcDbEntity
  8
002
 62
     3
370
    30
100
AcDbLine
 10
610.614914
 20
511.487307
 30
0.0
 11
610.614914
 21
421.487307
 31
0.0
  0
ARC
  5
2E1
330
1F
100
AcDbEntity
  8
002
 62
     3
370
    30
100
AcDbCircle
 10
595.614914
 20
421.487307
 30
0.0
 40
15.0
100
AcDbArc
 50
270.0
 51
0.0
  0
ARC
  5
2E2
330
1F
100
AcDbEntity
  8
002
 62
     3
370
    30
100
AcDbCircle
 10
795.614914
 20
421.487307
 30
0.0
 40
15.0
100
AcDbArc
 50
180.0
 51
270.0
  0
LINE
  5
2E3
330
1F
100
AcDbEntity
  8
002
 62
     3
370
    30
100
AcDbLine
 10
880.614914
 20
406.487307
 30
0.0
 11
295.614914
 21
406.487307
 31
0.0
  0
LINE
  5
2E4
330
1F
100
AcDbEntity
  8
002
 62
     3
370
    30
100
AcDbLine
 10
290.614914
 20
371.487307
 30
0.0
 11
885.614914
 21
371.487307
 31
0.0
  0
LINE
  5
2E5
330
1F
100
AcDbEntity
  8
002
 62
     3
370
    30
100
AcDbLine
 10
885.614914
 20
371.487307
 30
0.0
 11
885.614914
 21
401.487307
 31
0.0
  0
ARC
  5
2E6
330
1F
100
AcDbEntity
  8
002
 62
     3
370
    30
100
AcDbCircle
 10
880.614914
 20
401.487307
 30
0.0
 40
5.0
100
AcDbArc
 50
0.0
 51
90.0
  0
LINE
  5
2E7
330
1F
100
AcDbEntity
  8
002
 62
     3
370
    30
100
AcDbLine
 10
655.614914
 20
371.487307
 30
0.0
 11
655.614914
 21
361.487307
 31
0.0
  0
LINE
  5
2E8
330
1F
100
AcDbEntity
  8
002
 62
     3
370
    30
100
AcDbLine
 10
655.614914
 20
361.487307
 30
0.0
 11
425.614914
 21
361.487307
 31
0.0
  0
LINE
  5
2E9
330
1F
100
AcDbEntity
  8
002
 62
     3
370
    30
100
AcDbLine
 10
425.614914
 20
361.487307
 30
0.0
 11
425.614914
 21
371.487307
 31
0.0
  0
LINE
  5
2EA
330
1F
100
AcDbEntity
  8
002
 62
     3
370
    30
100
AcDbLine
 10
619.324914
 20
361.487307
 30
0.0
 11
619.324914
 21
351.487307
 31
0.0
  0
LINE
  5
2EB
330
1F
100
AcDbEntity
  8
002
 62
     3
370
    30
100
AcDbLine
 10
603.324914
 20
351.487307
 30
0.0
 11
619.324914
 21
351.487307
 31
0.0
  0
LINE
  5
2EC
330
1F
100
AcDbEntity
  8
002
 62
     3
370
    30
100
AcDbLine
 10
603.324914
 20
351.487307
 30
0.0
 11
603.324914
 21
361.487307
 31
0.0
  0
LINE
  5
2ED
330
1F
100
AcDbEntity
  8
002
 62
     3
370
    30
100
AcDbLine
 10
653.557914
 20
585.354307
 30
0.0
 11
653.557914
 21
591.057307
 31
0.0
  0
ARC
  5
2EE
330
1F
100
AcDbEntity
  8
002
 62
     3
370
    30
100
AcDbCircle
 10
695.614914
 20
511.487307
 30
0.0
 40
89.99997289444039
100
AcDbArc
 50
117.858847
 51
142.3301
  0
LINE
  5
2EF
330
1F
100
AcDbEntity
  8
002
 62
     3
370
    30
100
AcDbLine
 10
391.531914
 20
658.487307
 30
0.0
 11
391.531914
 21
636.487307
 31
0.0
  0
LINE
  5
2F0
330
1F
100
AcDbEntity
  8
002
 62
     3
370
    30
100
AcDbLine
 10
391.531914
 20
638.487307
 30
0.0
 11
378.114914
 21
638.487307
 31
0.0
  0
LINE
  5
2F1
330
1F
100
AcDbEntity
  8
002
 62
     3
370
    30
100
AcDbLine
 10
378.114914
 20
638.487307
 30
0.0
 11
378.114914
 21
636.487307
 31
0.0
  0
ARC
  5
2F2
330
1F
100
AcDbEntity
  8
002
 62
     3
370
    30
100
AcDbCircle
 10
378.154914
 20
654.487307
 30
0.0
 40
15.99991915604573
100
AcDbArc
 50
270.0
 51
326.727077
  0
LINE
  5
2F3
330
1F
100
AcDbEntity
  8
002
 62
     3
370
    30
100
AcDbLine
 10
376.003914
 20
636.487307
 30
0.0
 11
376.003914
 21
658.487307
 31
0.0
  0
LINE
  5
2F4
330
1F
100
AcDbEntity
  8
002
 62
     3
370
    30
100
AcDbLine
 10
343.003914
 20
658.487307
 30
0.0
 11
376.003914
 21
658.487307
 31
0.0
  0
LINE
  5
2F5
330
1F
100
AcDbEntity
  8
002
 62
     3
370
    30
100
AcDbLine
 10
343.003914
 20
658.487307
 30
0.0
 11
343.003914
 21
636.487307
 31
0.0
  0
LINE
  5
2F6
330
1F
100
AcDbEntity
  8
002
 62
     3
370
    30
100
AcDbLine
 10
328.114914
 20
636.487307
 30
0.0
 11
328.114914
 21
577.997307
 31
0.0
  0
LINE
  5
2F7
330
1F
100
AcDbEntity
  8
002
 62
     3
370
    30
100
AcDbLine
 10
341.789914
 20
562.823307
 30
0.0
 11
371.382914
 21
554.894307
 31
0.0
  0
LINE
  5
2F8
330
1F
100
AcDbEntity
  8
002
 62
     3
370
    30
100
AcDbLine
 10
382.500914
 20
556.439307
 30
0.0
 11
497.513914
 21
556.439307
 31
0.0
  0
LINE
  5
2F9
330
1F
100
AcDbEntity
  8
002
 62
     3
370
    30
100
AcDbLine
 10
505.614914
 20
553.487307
 30
0.0
 11
505.614914
 21
511.487307
 31
0.0
  0
ARC
  5
2FA
330
1F
100
AcDbEntity
  8
002
 62
     3
370
    30
100
AcDbCircle
 10
500.614914
 20
553.487307
 30
0.0
 40
5.0
100
AcDbArc
 50
0.0
 51
90.0
  0
LINE
  5
2FB
330
1F
100
AcDbEntity
  8
002
 62
     3
370
    30
100
AcDbLine
 10
382.500914
 20
540.405307
 30
0.0
 11
382.500914
 21
421.487307
 31
0.0
  0
ARC
  5
2FC
330
1F
100
AcDbEntity
  8
002
 62
     3
370
    30
100
AcDbCircle
 10
367.500914
 20
421.487307
 30
0.0
 40
15.0
100
AcDbArc
 50
270.0
 51
0.0
  0
LINE
  5
2FD
330
1F
100
AcDbEntity
  8
002
 62
     3
370
    30
100
AcDbLine
 10
316.408914
 20
418.883307
 30
0.0
 11
339.787914
 21
551.467307
 31
0.0
  0
ARC
  5
2FE
330
1F
100
AcDbEntity
  8
002
 62
     3
370
    30
100
AcDbCircle
 10
325.015914
 20
554.072307
 30
0.0
 40
14.99992566648244
100
AcDbArc
 50
349.99888
 51
52.89557
  0
ARC
  5
2FF
330
1F
100
AcDbEntity
  8
002
 62
     3
370
    30
100
AcDbCircle
 10
367.500914
 20
540.405307
 30
0.0
 40
15.00003483329288
100
AcDbArc
 50
0.0
 51
75.001165
  0
LINE
  5
300
330
1F
100
AcDbEntity
  8
002
 62
     3
370
    30
100
AcDbLine
 10
328.114914
 20
636.487307
 30
0.0
 11
753.114914
 21
636.487307
 31
0.0
  0
ARC
  5
301
330
1F
100
AcDbEntity
  8
002
 62
     3
370
    30
100
AcDbCircle
 10
703.073914
 20
654.487307
 30
0.0
 40
16.0
100
AcDbArc
 50
213.272923
 51
270.0
  0
LINE
  5
302
330
1F
100
AcDbEntity
  8
002
 62
     3
370
    30
100
AcDbLine
 10
477.903914
 20
351.487307
 30
0.0
 11
477.903914
 21
361.487307
 31
0.0
  0
LINE
  5
303
330
1F
100
AcDbEntity
  8
002
 62
     3
370
    30
100
AcDbLine
 10
461.903914
 20
351.487307
 30
0.0
 11
477.903914
 21
351.487307
 31
0.0
  0
LINE
  5
304
330
1F
100
AcDbEntity
  8
002
 62
     3
370
    30
100
AcDbLine
 10
461.903914
 20
351.487307
 30
0.0
 11
461.903914
 21
361.487307
 31
0.0
  0
ARC
  5
305
330
1F
100
AcDbEntity
  8
002
 62
     3
370
    30
100
AcDbCircle
 10
301.636914
 20
421.487307
 30
0.0
 40
14.99975999807991
100
AcDbArc
 50
270.0
 51
350.002641
  0
LINE
  5
306
330
1F
100
AcDbEntity
  8
002
 62
    40
370
    30
100
AcDbLine
 10
772.339914
 20
549.837307
 30
0.0
 11
771.464914
 21
550.071307
 31
0.0
  0
LINE
  5
307
330
1F
100
AcDbEntity
  8
002
 62
    40
370
    30
100
AcDbLine
 10
767.188914
 20
558.759307
 30
0.0
 11
766.954914
 21
557.884307
 31
0.0
  0
LINE
  5
308
330
1F
100
AcDbEntity
  8
002
  6
CENTER
 62
    40
370
     9
100
AcDbLine
 10
721.725914
 20
602.406307
 30
0.0
 11
721.725914
 21
668.503307
 31
0.0
  0
LINE
  5
309
330
1F
100
AcDbEntity
  8
002
  6
CENTER
 62
    40
370
     9
100
AcDbLine
 10
673.196914
 20
668.503307
 30
0.0
 11
673.196914
 21
602.406307
 31
0.0
  0
LINE
  5
30A
330
1F
100
AcDbEntity
  8
002
  6
CENTER
 62
    40
370
     9
100
AcDbLine
 10
589.142914
 20
602.406307
 30
0.0
 11
589.142914
 21
668.503307
 31
0.0
  0
LINE
  5
30B
330
1F
100
AcDbEntity
  8
002
  6
CENTER
 62
    40
370
     9
100
AcDbLine
 10
492.085914
 20
668.503307
 30
0.0
 11
492.085914
 21
602.406307
 31
0.0
  0
LINE
  5
30C
330
1F
100
AcDbEntity
  8
002
  6
CENTER
 62
    40
370
     9
100
AcDbLine
 10
408.031914
 20
602.406307
 30
0.0
 11
408.031914
 21
668.503307
 31
0.0
  0
LINE
  5
30D
330
1F
100
AcDbEntity
  8
002
  6
CENTER
 62
    40
370
     9
100
AcDbLine
 10
359.503914
 20
668.503307
 30
0.0
 11
359.503914
 21
602.406307
 31
0.0
  0
LINE
  5
30E
330
1F
100
AcDbEntity
  8
002
  6
CENTER
 62
    40
370
     9
100
AcDbLine
 10
486.567914
 20
511.487307
 30
0.0
 11
802.993914
 21
511.487307
 31
0.0
  0
CIRCLE
  5
30F
330
1F
100
AcDbEntity
  8
002
 62
    40
370
     9
100
AcDbCircle
 10
540.614914
 20
511.487307
 30
0.0
 40
22.64125
  0
LINE
  5
310
330
1F
100
AcDbEntity
  8
002
  6
CENTER
 62
    40
370
     9
100
AcDbLine
 10
765.545914
 20
551.862307
 30
0.0
 11
782.335914
 21
561.556307
 31
0.0
  0
LINE
  5
311
330
1F
100
AcDbEntity
  8
002
  6
CENTER
 62
    40
370
     9
100
AcDbLine
 10
695.614914
 20
609.798307
 30
0.0
 11
695.614914
 21
415.246307
 31
0.0
  0
LINE
  5
312
330
1F
100
AcDbEntity
  8
002
  6
DASHED
 62
    40
370
     9
100
AcDbLine
 10
876.614914
 20
405.487307
 30
0.0
 11
876.614914
 21
406.487307
 31
0.0
  0
LINE
  5
313
330
1F
100
AcDbEntity
  8
002
  6
DASHED
 62
    40
370
     9
100
AcDbLine
 10
794.614914
 20
406.487307
 30
0.0
 11
794.614914
 21
405.487307
 31
0.0
  0
LINE
  5
314
330
1F
100
AcDbEntity
  8
002
  6
CENTER
 62
    40
370
     9
100
AcDbLine
 10
835.614914
 20
357.939307
 30
0.0
 11
835.614914
 21
417.528307
 31
0.0
  0
LINE
  5
315
330
1F
100
AcDbEntity
  8
002
  6
CENTER
 62
    40
370
     9
100
AcDbLine
 10
340.614914
 20
357.939307
 30
0.0
 11
340.614914
 21
417.528307
 31
0.0
  0
LINE
  5
316
330
1F
100
AcDbEntity
  8
002
  6
DASHED
 62
    40
370
     9
100
AcDbLine
 10
381.614914
 20
405.487307
 30
0.0
 11
381.614914
 21
406.487307
 31
0.0
  0
LINE
  5
317
330
1F
100
AcDbEntity
  8
002
  6
CENTER
 62
    40
370
     9
100
AcDbLine
 10
469.903914
 20
371.487307
 30
0.0
 11
469.903914
 21
345.345307
 31
0.0
  0
LINE
  5
318
330
1F
100
AcDbEntity
  8
002
  6
CENTER
 62
    40
370
     9
100
AcDbLine
 10
611.324914
 20
345.345307
 30
0.0
 11
611.324914
 21
371.487307
 31
0.0
  0
LINE
  5
319
330
1F
100
AcDbEntity
  8
002
  6
HIDDEN
 62
    40
370
     9
100
AcDbLine
 10
299.614914
 20
405.487307
 30
0.0
 11
381.614914
 21
405.487307
 31
0.0
  0
LINE
  5
31A
330
1F
100
AcDbEntity
  8
002
  6
HIDDEN
 62
    40
370
     9
100
AcDbLine
 10
318.114914
 20
405.487307
 30
0.0
 11
318.114914
 21
371.487307
 31
0.0
  0
LINE
  5
31B
330
1F
100
AcDbEntity
  8
002
  6
HIDDEN
 62
    40
370
     9
100
AcDbLine
 10
363.114914
 20
405.487307
 30
0.0
 11
363.114914
 21
371.487307
 31
0.0
  0
LINE
  5
31C
330
1F
100
AcDbEntity
  8
002
  6
HIDDEN
 62
    40
370
     9
100
AcDbLine
 10
813.114914
 20
405.487307
 30
0.0
 11
813.114914
 21
371.487307
 31
0.0
  0
LINE
  5
31D
330
1F
100
AcDbEntity
  8
002
  6
HIDDEN
 62
    40
370
     9
100
AcDbLine
 10
794.614914
 20
405.487307
 30
0.0
 11
876.614914
 21
405.487307
 31
0.0
  0
LINE
  5
31E
330
1F
100
AcDbEntity
  8
002
  6
HIDDEN
 62
    40
370
     9
100
AcDbLine
 10
858.114914
 20
405.487307
 30
0.0
 11
858.114914
 21
371.487307
 31
0.0
  0
ARC
  5
31F
330
1F
100
AcDbEntity
  8
002
 62
     3
370
    30
100
AcDbCircle
 10
295.614914
 20
401.487307
 30
0.0
 40
5.0
100
AcDbArc
 50
90.0
 51
180.0
  0
LINE
  5
320
330
1F
100
AcDbEntity
  8
002
 62
     3
370
    30
100
AcDbLine
 10
290.614914
 20
401.487307
 30
0.0
 11
290.614914
 21
371.487307
 31
0.0
  0
LINE
  5
321
330
1F
100
AcDbEntity
  8
002
  6
DASHED
 62
    40
370
     9
100
AcDbLine
 10
299.614914
 20
406.487307
 30
0.0
 11
299.614914
 21
405.487307
 31
0.0
  0
LINE
  5
322
330
1F
100
AcDbEntity
  8
003
 62
     3
370
    30
100
AcDbLine
 10
680.614914
 20
686.487307
 30
0.0
 11
400.614914
 21
686.487307
 31
0.0
  0
LINE
  5
323
330
1F
100
AcDbEntity
  8
002
 62
     3
370
    30
100
AcDbLine
 10
702.614914
 20
528.487068
 30
0.0
 11
688.614914
 21
528.487068
 31
0.0
  0
LINE
  5
324
330
1F
100
AcDbEntity
  8
002
 62
     3
370
    30
100
AcDbLine
 10
702.614914
 20
528.487068
 30
0.0
 11
702.614914
 21
537.487307
 31
0.0
  0
LINE
  5
325
330
1F
100
AcDbEntity
  8
002
 62
     3
370
    30
100
AcDbLine
 10
688.614914
 20
537.487307
 30
0.0
 11
688.614914
 21
528.487068
 31
0.0
  0
LINE
  5
326
330
1F
100
AcDbEntity
  8
002
 62
     3
370
    30
100
AcDbLine
 10
688.614914
 20
537.487307
 30
0.0
 11
702.614914
 21
537.487307
 31
0.0
  0
ARC
  5
327
330
1F
100
AcDbEntity
  8
002
 62
     3
370
    30
100
AcDbCircle
 10
695.614914
 20
511.487307
 30
0.0
 40
22.50072434389606
100
AcDbArc
 50
108.1256
 51
71.8744
  0
ARC
  5
328
330
1F
100
AcDbEntity
  8
002
 62
     3
370
    30
100
AcDbCircle
 10
695.614914
 20
511.487307
 30
0.0
 40
25.00065799134093
100
AcDbArc
 50
106.259765
 51
73.740235
  0
LINE
  5
329
330
1F
100
AcDbEntity
  8
001
 62
     3
370
    30
100
AcDbLine
 10
623.214914
 20
171.487307
 30
0.0
 11
458.014914
 21
171.487307
 31
0.0
  0
LINE
  5
32A
330
1F
100
AcDbEntity
  8
002
 62
     3
370
    30
100
AcDbLine
 10
623.214914
 20
171.487307
 30
0.0
 11
623.214914
 21
361.487307
 31
0.0
  0
LINE
  5
32B
330
1F
100
AcDbEntity
  8
002
 62
     3
370
    30
100
AcDbLine
 10
458.014914
 20
361.487307
 30
0.0
 11
458.014914
 21
171.487307
 31
0.0
  0
LINE
  5
32C
330
1F
100
AcDbEntity
  8
002
 62
     3
370
    30
100
AcDbLine
 10
2305.867033
 20
1112.907244
 30
0.0
 11
2305.867033
 21
1082.907244
 31
0.0
  0
LINE
  5
32D
330
1F
100
AcDbEntity
  8
002
 62
     3
370
    30
100
AcDbLine
 10
2305.867033
 20
1082.907244
 30
0.0
 11
1710.867033
 21
1082.907244
 31
0.0
  0
LINE
  5
32E
330
1F
100
AcDbEntity
  8
002
 62
     3
370
    30
100
AcDbLine
 10
1710.867033
 20
1082.907244
 30
0.0
 11
1710.867033
 21
1112.907244
 31
0.0
  0
ARC
  5
32F
330
1F
100
AcDbEntity
  8
002
 62
     3
370
    30
100
AcDbCircle
 10
1715.867033
 20
1112.907244
 30
0.0
 40
5.0
100
AcDbArc
 50
90.0
 51
180.0
  0
ARC
  5
330
330
1F
100
AcDbEntity
  8
002
 62
     3
370
    30
100
AcDbCircle
 10
2300.867033
 20
1112.907244
 30
0.0
 40
5.0
100
AcDbArc
 50
0.0
 51
90.0
  0
ARC
  5
331
330
1F
100
AcDbEntity
  8
002
 62
     3
370
    30
100
AcDbCircle
 10
2233.279033
 20
1132.907244
 30
0.0
 40
14.99975999807991
100
AcDbArc
 50
189.997359
 51
270.0
  0
LINE
  5
332
330
1F
100
AcDbEntity
  8
002
 62
     3
370
    30
100
AcDbLine
 10
2218.507033
 20
1130.303244
 30
0.0
 11
2199.576033
 21
1237.667244
 31
0.0
  0
LINE
  5
333
330
1F
100
AcDbEntity
  8
002
 62
     3
370
    30
100
AcDbLine
 10
2200.867033
 20
1222.907244
 30
0.0
 11
2200.867033
 21
1132.907244
 31
0.0
  0
ARC
  5
334
330
1F
100
AcDbEntity
  8
002
 62
     3
370
    30
100
AcDbCircle
 10
2215.867033
 20
1132.907244
 30
0.0
 40
15.0
100
AcDbArc
 50
180.0
 51
270.0
  0
CIRCLE
  5
335
330
1F
100
AcDbEntity
  8
002
 62
     3
370
    30
100
AcDbCircle
 10
2115.867033
 20
1222.907244
 30
0.0
 40
85.0
  0
LINE
  5
336
330
1F
100
AcDbEntity
  8
002
 62
     3
370
    30
100
AcDbLine
 10
2030.867033
 20
1222.907244
 30
0.0
 11
2030.867033
 21
1132.907244
 31
0.0
  0
ARC
  5
337
330
1F
100
AcDbEntity
  8
002
 62
     3
370
    30
100
AcDbCircle
 10
2015.867033
 20
1132.907244
 30
0.0
 40
15.0
100
AcDbArc
 50
270.0
 51
0.0
  0
LINE
  5
338
330
1F
100
AcDbEntity
  8
002
 62
     3
370
    30
100
AcDbLine
 10
1802.753033
 20
1132.907244
 30
0.0
 11
1802.753033
 21
1251.825244
 31
0.0
  0
LINE
  5
339
330
1F
100
AcDbEntity
  8
002
 62
     3
370
    30
100
AcDbLine
 10
1802.753033
 20
1267.859244
 30
0.0
 11
1917.766033
 21
1267.859244
 31
0.0
  0
ARC
  5
33A
330
1F
100
AcDbEntity
  8
002
 62
     3
370
    30
100
AcDbCircle
 10
1920.867033
 20
1264.907244
 30
0.0
 40
5.0
100
AcDbArc
 50
0.0
 51
90.0
  0
LINE
  5
33B
330
1F
100
AcDbEntity
  8
002
 62
     3
370
    30
100
AcDbLine
 10
1925.867033
 20
1264.907244
 30
0.0
 11
1925.867033
 21
1222.907244
 31
0.0
  0
CIRCLE
  5
33C
330
1F
100
AcDbEntity
  8
002
 62
     3
370
    30
100
AcDbCircle
 10
1960.867033
 20
1222.907244
 30
0.0
 40
24.12025
  0
LINE
  5
33D
330
1F
100
AcDbEntity
  8
002
 62
     3
370
    30
100
AcDbLine
 10
1947.867033
 20
1235.907244
 30
0.0
 11
1973.867033
 21
1235.907244
 31
0.0
  0
LINE
  5
33E
330
1F
100
AcDbEntity
  8
002
 62
     3
370
    30
100
AcDbLine
 10
1973.867033
 20
1235.907244
 30
0.0
 11
1973.867033
 21
1209.907244
 31
0.0
  0
LINE
  5
33F
330
1F
100
AcDbEntity
  8
002
 62
     3
370
    30
100
AcDbLine
 10
1973.867033
 20
1209.907244
 30
0.0
 11
1947.867033
 21
1209.907244
 31
0.0
  0
LINE
  5
340
330
1F
100
AcDbEntity
  8
002
 62
     3
370
    30
100
AcDbLine
 10
1947.867033
 20
1209.907244
 30
0.0
 11
1947.867033
 21
1235.907244
 31
0.0
  0
ARC
  5
341
330
1F
100
AcDbEntity
  8
002
 62
     3
370
    30
100
AcDbCircle
 10
1960.867033
 20
1222.907244
 30
0.0
 40
35.0
100
AcDbArc
 50
180.0
 51
0.0
  0
LINE
  5
342
330
1F
100
AcDbEntity
  8
002
 62
     3
370
    30
100
AcDbLine
 10
1995.867033
 20
1222.907244
 30
0.0
 11
1995.867033
 21
1264.907244
 31
0.0
  0
ARC
  5
343
330
1F
100
AcDbEntity
  8
002
 62
     3
370
    30
100
AcDbCircle
 10
2000.867033
 20
1264.907244
 30
0.0
 40
5.0
100
AcDbArc
 50
90.0
 51
180.0
  0
LINE
  5
344
330
1F
100
AcDbEntity
  8
002
 62
     3
370
    30
100
AcDbLine
 10
2004.210033
 20
1267.859244
 30
0.0
 11
2037.664033
 21
1267.859244
 31
0.0
  0
ARC
  5
345
330
1F
100
AcDbEntity
  8
002
 62
     3
370
    30
100
AcDbCircle
 10
2039.628033
 20
1272.907244
 30
0.0
 40
5.0
100
AcDbArc
 50
0.0
 51
90.0
  0
ARC
  5
346
330
1F
100
AcDbEntity
  8
002
 62
     3
370
    30
100
AcDbCircle
 10
2115.867033
 20
1222.907244
 30
0.0
 40
90.00051130965844
100
AcDbArc
 50
117.858284
 51
142.3301
  0
LINE
  5
347
330
1F
100
AcDbEntity
  8
002
 62
     3
370
    30
100
AcDbLine
 10
2073.811033
 20
1302.477244
 30
0.0
 11
2073.811033
 21
1296.774244
 31
0.0
  0
LINE
  5
348
330
1F
100
AcDbEntity
  8
002
 62
     3
370
    30
100
AcDbLine
 10
2039.628033
 20
1277.907244
 30
0.0
 11
1762.042033
 21
1277.907244
 31
0.0
  0
LINE
  5
349
330
1F
100
AcDbEntity
  8
002
 62
     3
370
    30
100
AcDbLine
 10
1762.042033
 20
1274.243244
 30
0.0
 11
1791.635033
 21
1266.314244
 31
0.0
  0
ARC
  5
34A
330
1F
100
AcDbEntity
  8
002
 62
     3
370
    30
100
AcDbCircle
 10
1787.753033
 20
1251.825244
 30
0.0
 40
15.0
100
AcDbArc
 50
0.0
 51
75.001165
  0
LINE
  5
34B
330
1F
100
AcDbEntity
  8
002
 62
     3
370
    30
100
AcDbLine
 10
1760.040033
 20
1262.887244
 30
0.0
 11
1736.662033
 21
1130.303244
 31
0.0
  0
ARC
  5
34C
330
1F
100
AcDbEntity
  8
002
 62
     3
370
    30
100
AcDbCircle
 10
1721.890033
 20
1132.907244
 30
0.0
 40
15.0
100
AcDbArc
 50
270.0
 51
350.002641
  0
ARC
  5
34D
330
1F
100
AcDbEntity
  8
002
 62
     3
370
    30
100
AcDbCircle
 10
1787.753033
 20
1132.907244
 30
0.0
 40
15.0
100
AcDbArc
 50
270.0
 51
0.0
  0
ARC
  5
34E
330
1F
100
AcDbEntity
  8
002
 62
     3
370
    30
100
AcDbCircle
 10
1745.268033
 20
1265.492244
 30
0.0
 40
14.99993363318735
100
AcDbArc
 50
349.99888
 51
52.892524
  0
ARC
  5
34F
330
1F
100
AcDbEntity
  8
002
 62
     3
370
    30
100
AcDbCircle
 10
1763.367033
 20
1289.417244
 30
0.0
 40
15.0
100
AcDbArc
 50
180.0
 51
232.893265
  0
LINE
  5
350
330
1F
100
AcDbEntity
  8
002
 62
     3
370
    30
100
AcDbLine
 10
1748.367033
 20
1289.417244
 30
0.0
 11
1748.367033
 21
1347.907244
 31
0.0
  0
LINE
  5
351
330
1F
100
AcDbEntity
  8
002
 62
     3
370
    30
100
AcDbLine
 10
1748.367033
 20
1347.907244
 30
0.0
 11
2173.367033
 21
1347.907244
 31
0.0
  0
LINE
  5
352
330
1F
100
AcDbEntity
  8
002
 62
     3
370
    30
100
AcDbLine
 10
2173.367033
 20
1347.907244
 30
0.0
 11
2173.367033
 21
1291.782244
 31
0.0
  0
ARC
  5
353
330
1F
100
AcDbEntity
  8
002
 62
     3
370
    30
100
AcDbCircle
 10
2188.367033
 20
1291.782244
 30
0.0
 40
15.0
100
AcDbArc
 50
180.0
 51
223.530507
  0
CIRCLE
  5
354
330
1F
100
AcDbEntity
  8
002
 62
     3
370
    30
100
AcDbCircle
 10
2115.867033
 20
1222.907244
 30
0.0
 40
36.0
  0
CIRCLE
  5
355
330
1F
100
AcDbEntity
  8
002
 62
     3
370
    30
100
AcDbCircle
 10
2115.867033
 20
1222.907244
 30
0.0
 40
39.0
  0
CIRCLE
  5
356
330
1F
100
AcDbEntity
  8
002
 62
     3
370
    30
100
AcDbCircle
 10
2115.867033
 20
1222.907244
 30
0.0
 40
52.5
  0
LINE
  5
357
330
1F
100
AcDbEntity
  8
002
 62
     3
370
    30
100
AcDbLine
 10
2025.896033
 20
1347.907244
 30
0.0
 11
2025.896033
 21
1369.907244
 31
0.0
  0
LINE
  5
358
330
1F
100
AcDbEntity
  8
002
 62
     3
370
    30
100
AcDbLine
 10
2025.896033
 20
1369.907244
 30
0.0
 11
1992.896033
 21
1369.907244
 31
0.0
  0
LINE
  5
359
330
1F
100
AcDbEntity
  8
002
 62
     3
370
    30
100
AcDbLine
 10
1992.896033
 20
1369.907244
 30
0.0
 11
1992.896033
 21
1347.907244
 31
0.0
  0
LINE
  5
35A
330
1F
100
AcDbEntity
  8
002
 62
     3
370
    30
100
AcDbLine
 10
1992.896033
 20
1349.907244
 30
0.0
 11
1928.838033
 21
1349.907244
 31
0.0
  0
LINE
  5
35B
330
1F
100
AcDbEntity
  8
002
 62
     3
370
    30
100
AcDbLine
 10
1928.838033
 20
1347.907244
 30
0.0
 11
1928.838033
 21
1369.907244
 31
0.0
  0
LINE
  5
35C
330
1F
100
AcDbEntity
  8
002
 62
     3
370
    30
100
AcDbLine
 10
1928.838033
 20
1369.907244
 30
0.0
 11
1895.838033
 21
1369.907244
 31
0.0
  0
LINE
  5
35D
330
1F
100
AcDbEntity
  8
002
 62
     3
370
    30
100
AcDbLine
 10
1895.838033
 20
1369.907244
 30
0.0
 11
1895.838033
 21
1347.907244
 31
0.0
  0
LINE
  5
35E
330
1F
100
AcDbEntity
  8
002
 62
     3
370
    30
100
AcDbLine
 10
1895.838033
 20
1349.907244
 30
0.0
 11
1844.785033
 21
1349.907244
 31
0.0
  0
LINE
  5
35F
330
1F
100
AcDbEntity
  8
002
 62
     3
370
    30
100
AcDbLine
 10
1844.785033
 20
1347.907244
 30
0.0
 11
1844.785033
 21
1369.907244
 31
0.0
  0
LINE
  5
360
330
1F
100
AcDbEntity
  8
002
 62
     3
370
    30
100
AcDbLine
 10
1844.785033
 20
1369.907244
 30
0.0
 11
1811.785033
 21
1369.907244
 31
0.0
  0
LINE
  5
361
330
1F
100
AcDbEntity
  8
002
 62
     3
370
    30
100
AcDbLine
 10
1811.785033
 20
1369.907244
 30
0.0
 11
1811.785033
 21
1347.907244
 31
0.0
  0
LINE
  5
362
330
1F
100
AcDbEntity
  8
002
 62
     3
370
    30
100
AcDbLine
 10
1811.785033
 20
1349.907244
 30
0.0
 11
1798.367033
 21
1349.907244
 31
0.0
  0
LINE
  5
363
330
1F
100
AcDbEntity
  8
002
 62
     3
370
    30
100
AcDbLine
 10
1798.367033
 20
1349.907244
 30
0.0
 11
1798.367033
 21
1347.907244
 31
0.0
  0
LINE
  5
364
330
1F
100
AcDbEntity
  8
002
 62
     3
370
    30
100
AcDbLine
 10
1796.256033
 20
1347.907244
 30
0.0
 11
1796.256033
 21
1369.907244
 31
0.0
  0
LINE
  5
365
330
1F
100
AcDbEntity
  8
002
 62
     3
370
    30
100
AcDbLine
 10
1796.256033
 20
1369.907244
 30
0.0
 11
1763.256033
 21
1369.907244
 31
0.0
  0
LINE
  5
366
330
1F
100
AcDbEntity
  8
002
 62
     3
370
    30
100
AcDbLine
 10
1763.256033
 20
1369.907244
 30
0.0
 11
1763.256033
 21
1347.907244
 31
0.0
  0
LINE
  5
367
330
1F
100
AcDbEntity
  8
002
 62
     3
370
    30
100
AcDbLine
 10
1816.044033
 20
1369.907244
 30
0.0
 11
1820.867033
 21
1387.907244
 31
0.0
  0
LINE
  5
368
330
1F
100
AcDbEntity
  8
002
 62
     3
370
    30
100
AcDbLine
 10
1820.867033
 20
1387.907244
 30
0.0
 11
1820.867033
 21
1397.907244
 31
0.0
  0
LINE
  5
369
330
1F
100
AcDbEntity
  8
002
 62
     3
370
    30
100
AcDbLine
 10
1820.867033
 20
1397.907244
 30
0.0
 11
2100.867033
 21
1397.907244
 31
0.0
  0
LINE
  5
36A
330
1F
100
AcDbEntity
  8
002
 62
     3
370
    30
100
AcDbLine
 10
2100.867033
 20
1397.907244
 30
0.0
 11
2100.867033
 21
1387.907244
 31
0.0
  0
LINE
  5
36B
330
1F
100
AcDbEntity
  8
002
 62
     3
370
    30
100
AcDbLine
 10
2100.867033
 20
1387.907244
 30
0.0
 11
2105.690033
 21
1369.907244
 31
0.0
  0
LINE
  5
36C
330
1F
100
AcDbEntity
  8
002
 62
     3
370
    30
100
AcDbLine
 10
2109.950033
 20
1369.907244
 30
0.0
 11
2076.950033
 21
1369.907244
 31
0.0
  0
LINE
  5
36D
330
1F
100
AcDbEntity
  8
002
 62
     3
370
    30
100
AcDbLine
 10
2076.950033
 20
1369.907244
 30
0.0
 11
2076.950033
 21
1347.907244
 31
0.0
  0
LINE
  5
36E
330
1F
100
AcDbEntity
  8
002
 62
     3
370
    30
100
AcDbLine
 10
2076.950033
 20
1349.907244
 30
0.0
 11
2025.896033
 21
1349.907244
 31
0.0
  0
ARC
  5
36F
330
1F
100
AcDbEntity
  8
002
 62
     3
370
    30
100
AcDbCircle
 10
1798.408033
 20
1365.907244
 30
0.0
 40
16.0
100
AcDbArc
 50
270.0
 51
326.727077
  0
LINE
  5
370
330
1F
100
AcDbEntity
  8
002
 62
     3
370
    30
100
AcDbLine
 10
1748.367033
 20
1317.907244
 30
0.0
 11
2173.367033
 21
1317.907244
 31
0.0
  0
LINE
  5
371
330
1F
100
AcDbEntity
  8
002
 62
     3
370
    30
100
AcDbLine
 10
2158.478033
 20
1347.907244
 30
0.0
 11
2158.478033
 21
1369.907244
 31
0.0
  0
LINE
  5
372
330
1F
100
AcDbEntity
  8
002
 62
     3
370
    30
100
AcDbLine
 10
2158.478033
 20
1369.907244
 30
0.0
 11
2125.478033
 21
1369.907244
 31
0.0
  0
LINE
  5
373
330
1F
100
AcDbEntity
  8
002
 62
     3
370
    30
100
AcDbLine
 10
2125.478033
 20
1369.907244
 30
0.0
 11
2125.478033
 21
1347.907244
 31
0.0
  0
LINE
  5
374
330
1F
100
AcDbEntity
  8
002
 62
     3
370
    30
100
AcDbLine
 10
2123.367033
 20
1347.907244
 30
0.0
 11
2123.367033
 21
1349.907244
 31
0.0
  0
LINE
  5
375
330
1F
100
AcDbEntity
  8
002
 62
     3
370
    30
100
AcDbLine
 10
2123.367033
 20
1349.907244
 30
0.0
 11
2109.950033
 21
1349.907244
 31
0.0
  0
LINE
  5
376
330
1F
100
AcDbEntity
  8
002
 62
     3
370
    30
100
AcDbLine
 10
2109.950033
 20
1347.907244
 30
0.0
 11
2109.950033
 21
1369.907244
 31
0.0
  0
ARC
  5
377
330
1F
100
AcDbEntity
  8
002
 62
     3
370
    30
100
AcDbCircle
 10
2123.326033
 20
1365.907244
 30
0.0
 40
15.9990830987273
100
AcDbArc
 50
213.274888
 51
270.0
  0
LINE
  5
378
330
1F
100
AcDbEntity
  8
002
 62
     3
370
    30
100
AcDbLine
 10
2188.325033
 20
1271.407244
 30
0.0
 11
2190.923033
 21
1272.907244
 31
0.0
  0
LINE
  5
379
330
1F
100
AcDbEntity
  8
002
 62
     3
370
    30
100
AcDbLine
 10
2190.923033
 20
1272.907244
 30
0.0
 11
2194.903033
 21
1271.841244
 31
0.0
  0
LINE
  5
37A
330
1F
100
AcDbEntity
  8
002
 62
     3
370
    30
100
AcDbLine
 10
2195.671033
 20
1271.635244
 30
0.0
 11
2197.968033
 21
1267.656244
 31
0.0
  0
LINE
  5
37B
330
1F
100
AcDbEntity
  8
002
 62
     3
370
    30
100
AcDbLine
 10
2198.763033
 20
1267.628244
 30
0.0
 11
2199.764033
 21
1267.593244
 31
0.0
  0
LINE
  5
37C
330
1F
100
AcDbEntity
  8
002
 62
     3
370
    30
100
AcDbLine
 10
2199.764033
 20
1267.593244
 30
0.0
 11
2201.988033
 21
1269.742244
 31
0.0
  0
LINE
  5
37D
330
1F
100
AcDbEntity
  8
002
 62
     3
370
    30
100
AcDbLine
 10
2201.988033
 20
1269.742244
 30
0.0
 11
2199.488033
 21
1274.072244
 31
0.0
  0
LINE
  5
37E
330
1F
100
AcDbEntity
  8
002
 62
     3
370
    30
100
AcDbLine
 10
2199.488033
 20
1274.072244
 30
0.0
 11
2196.514033
 21
1273.222244
 31
0.0
  0
LINE
  5
37F
330
1F
100
AcDbEntity
  8
002
 62
     3
370
    30
100
AcDbLine
 10
2196.514033
 20
1273.222244
 30
0.0
 11
2196.044033
 21
1272.337244
 31
0.0
  0
ARC
  5
380
330
1F
100
AcDbEntity
  8
002
 62
     3
370
    30
100
AcDbCircle
 10
2195.161033
 20
1272.807244
 30
0.0
 40
0.999859990198477
100
AcDbArc
 50
255.046435
 51
331.974684
  0
LINE
  5
381
330
1F
100
AcDbEntity
  8
002
 62
     3
370
    30
100
AcDbLine
 10
2196.889033
 20
1272.572244
 30
0.0
 11
2199.389033
 21
1268.242244
 31
0.0
  0
ARC
  5
382
330
1F
100
AcDbEntity
  8
002
 62
     3
370
    30
100
AcDbCircle
 10
2198.728033
 20
1266.628244
 30
0.0
 40
1.000612312536705
100
AcDbArc
 50
87.995466
 51
164.976236
  0
LINE
  5
383
330
1F
100
AcDbEntity
  8
002
 62
     3
370
    30
100
AcDbLine
 10
2197.763033
 20
1266.887244
 30
0.0
 11
2196.696033
 21
1262.907244
 31
0.0
  0
LINE
  5
384
330
1F
100
AcDbEntity
  8
002
 62
     3
370
    30
100
AcDbLine
 10
2196.696033
 20
1262.907244
 30
0.0
 11
2194.098033
 21
1261.407244
 31
0.0
  0
LINE
  5
385
330
1F
100
AcDbEntity
  8
002
 62
     3
370
    30
100
AcDbLine
 10
2194.098033
 20
1261.407244
 30
0.0
 11
2192.865033
 21
1261.738244
 31
0.0
  0
ARC
  5
386
330
1F
100
AcDbEntity
  8
002
 62
     3
370
    30
100
AcDbCircle
 10
2193.845033
 20
1262.928244
 30
0.0
 40
1.540954574281516
100
AcDbArc
 50
140.556242
 51
230.52754
  0
LINE
  5
387
330
1F
100
AcDbEntity
  8
002
 62
     3
370
    30
100
AcDbLine
 10
2192.655033
 20
1263.907244
 30
0.0
 11
2195.253033
 21
1265.407244
 31
0.0
  0
ARC
  5
388
330
1F
100
AcDbEntity
  8
002
 62
     3
370
    30
100
AcDbCircle
 10
2195.506033
 20
1263.887244
 30
0.0
 40
1.541898180814526
100
AcDbArc
 50
9.443995
 51
99.450097
  0
ARC
  5
389
330
1F
100
AcDbEntity
  8
002
 62
     3
370
    30
100
AcDbCircle
 10
2194.387033
 20
1268.241244
 30
0.0
 40
4.666767296534662
100
AcDbArc
 50
171.795237
 51
248.216827
  0
ARC
  5
38A
330
1F
100
AcDbEntity
  8
002
 62
     3
370
    30
100
AcDbCircle
 10
2189.514033
 20
1270.428244
 30
0.0
 40
1.541076247302032
100
AcDbArc
 50
189.486771
 51
279.480647
  0
LINE
  5
38B
330
1F
100
AcDbEntity
  8
002
 62
     3
370
    30
100
AcDbLine
 10
2187.994033
 20
1270.174244
 30
0.0
 11
2188.325033
 21
1271.407244
 31
0.0
  0
LINE
  5
38C
330
1F
100
AcDbEntity
  8
002
 62
     3
370
    30
100
AcDbLine
 10
2188.115033
 20
1270.626244
 30
0.0
 11
2186.923033
 21
1269.835244
 31
0.0
  0
LINE
  5
38D
330
1F
100
AcDbEntity
  8
002
 62
     3
370
    30
100
AcDbLine
 10
2188.202033
 20
1269.619244
 30
0.0
 11
2192.488033
 21
1262.196244
 31
0.0
  0
LINE
  5
38E
330
1F
100
AcDbEntity
  8
002
 62
     3
370
    30
100
AcDbLine
 10
2193.316033
 20
1261.617244
 30
0.0
 11
2192.035033
 21
1260.980244
 31
0.0
  0
LINE
  5
38F
330
1F
100
AcDbEntity
  8
002
 62
     3
370
    30
100
AcDbLine
 10
2189.768033
 20
1268.907244
 30
0.0
 11
2192.366033
 21
1270.407244
 31
0.0
  0
ARC
  5
390
330
1F
100
AcDbEntity
  8
002
 62
     3
370
    30
100
AcDbCircle
 10
2190.634033
 20
1266.074244
 30
0.0
 40
4.666910112698273
100
AcDbArc
 50
351.783086
 51
68.212271
  0
ARC
  5
391
330
1F
100
AcDbEntity
  8
002
 62
     3
370
    30
100
AcDbCircle
 10
2191.176033
 20
1271.387244
 30
0.0
 40
1.541590088188572
100
AcDbArc
 50
320.52754
 51
50.52754
  0
ARC
  5
392
330
1F
100
AcDbEntity
  8
002
 62
     3
370
    30
100
AcDbCircle
 10
2200.165033
 20
1271.577244
 30
0.0
 40
1.000232472977658
100
AcDbArc
 50
341.402022
 51
78.577679
  0
LINE
  5
393
330
1F
100
AcDbEntity
  8
002
 62
     3
370
    30
100
AcDbLine
 10
2075.867033
 20
1397.907244
 30
0.0
 11
2075.867033
 21
1407.907244
 31
0.0
  0
LINE
  5
394
330
1F
100
AcDbEntity
  8
002
 62
     3
370
    30
100
AcDbLine
 10
2075.867033
 20
1407.907244
 30
0.0
 11
1845.867033
 21
1407.907244
 31
0.0
  0
LINE
  5
395
330
1F
100
AcDbEntity
  8
002
 62
     3
370
    30
100
AcDbLine
 10
1845.867033
 20
1407.907244
 30
0.0
 11
1845.867033
 21
1397.907244
 31
0.0
  0
LINE
  5
396
330
1F
100
AcDbEntity
  8
002
 62
     3
370
    30
100
AcDbLine
 10
1878.267033
 20
1597.907244
 30
0.0
 11
1878.267033
 21
1407.907244
 31
0.0
  0
LINE
  5
397
330
1F
100
AcDbEntity
  8
002
 62
     3
370
    30
100
AcDbLine
 10
2043.467033
 20
1597.907244
 30
0.0
 11
2043.467033
 21
1407.907244
 31
0.0
  0
LINE
  5
398
330
1F
100
AcDbEntity
  8
002
 62
     3
370
    30
100
AcDbLine
 10
2039.578033
 20
1407.907244
 30
0.0
 11
2039.578033
 21
1417.907244
 31
0.0
  0
LINE
  5
399
330
1F
100
AcDbEntity
  8
002
 62
     3
370
    30
100
AcDbLine
 10
2023.578033
 20
1417.907244
 30
0.0
 11
2023.578033
 21
1407.907244
 31
0.0
  0
LINE
  5
39A
330
1F
100
AcDbEntity
  8
002
 62
     3
370
    30
100
AcDbLine
 10
2023.578033
 20
1417.907244
 30
0.0
 11
2039.578033
 21
1417.907244
 31
0.0
  0
LINE
  5
39B
330
1F
100
AcDbEntity
  8
002
 62
     3
370
    30
100
AcDbLine
 10
1882.156033
 20
1417.907244
 30
0.0
 11
1882.156033
 21
1407.907244
 31
0.0
  0
LINE
  5
39C
330
1F
100
AcDbEntity
  8
002
 62
     3
370
    30
100
AcDbLine
 10
1882.156033
 20
1417.907244
 30
0.0
 11
1898.156033
 21
1417.907244
 31
0.0
  0
LINE
  5
39D
330
1F
100
AcDbEntity
  8
002
 62
     3
370
    30
100
AcDbLine
 10
1898.156033
 20
1417.907244
 30
0.0
 11
1898.156033
 21
1407.907244
 31
0.0
  0
LINE
  5
39E
330
1F
100
AcDbEntity
  8
002
 62
    40
370
    30
100
AcDbLine
 10
2192.592033
 20
1261.257244
 30
0.0
 11
2191.718033
 21
1261.491244
 31
0.0
  0
LINE
  5
39F
330
1F
100
AcDbEntity
  8
002
 62
    40
370
    30
100
AcDbLine
 10
2187.207033
 20
1269.304244
 30
0.0
 11
2187.442033
 21
1270.179244
 31
0.0
  0
LINE
  5
3A0
330
1F
100
AcDbEntity
  8
002
  6
CENTER
 62
    40
370
     9
100
AcDbLine
 10
2115.867033
 20
1321.218244
 30
0.0
 11
2115.867033
 21
1126.666244
 31
0.0
  0
LINE
  5
3A1
330
1F
100
AcDbEntity
  8
002
  6
CENTER
 62
    40
370
     9
100
AcDbLine
 10
1890.156033
 20
1424.050244
 30
0.0
 11
1890.156033
 21
1397.907244
 31
0.0
  0
LINE
  5
3A2
330
1F
100
AcDbEntity
  8
002
  6
CENTER
 62
    40
370
     9
100
AcDbLine
 10
2031.578033
 20
1397.907244
 30
0.0
 11
2031.578033
 21
1424.050244
 31
0.0
  0
LINE
  5
3A3
330
1F
100
AcDbEntity
  8
002
  6
CENTER
 62
    40
370
     9
100
AcDbLine
 10
2141.978033
 20
1313.826244
 30
0.0
 11
2141.978033
 21
1379.923244
 31
0.0
  0
LINE
  5
3A4
330
1F
100
AcDbEntity
  8
002
  6
CENTER
 62
    40
370
     9
100
AcDbLine
 10
2093.450033
 20
1379.923244
 30
0.0
 11
2093.450033
 21
1313.826244
 31
0.0
  0
LINE
  5
3A5
330
1F
100
AcDbEntity
  8
002
  6
CENTER
 62
    40
370
     9
100
AcDbLine
 10
2009.396033
 20
1313.826244
 30
0.0
 11
2009.396033
 21
1379.923244
 31
0.0
  0
LINE
  5
3A6
330
1F
100
AcDbEntity
  8
002
  6
CENTER
 62
    40
370
     9
100
AcDbLine
 10
1912.338033
 20
1379.923244
 30
0.0
 11
1912.338033
 21
1313.826244
 31
0.0
  0
LINE
  5
3A7
330
1F
100
AcDbEntity
  8
002
  6
CENTER
 62
    40
370
     9
100
AcDbLine
 10
1828.285033
 20
1313.826244
 30
0.0
 11
1828.285033
 21
1379.923244
 31
0.0
  0
LINE
  5
3A8
330
1F
100
AcDbEntity
  8
002
  6
CENTER
 62
    40
370
     9
100
AcDbLine
 10
1779.756033
 20
1379.923244
 30
0.0
 11
1779.756033
 21
1313.826244
 31
0.0
  0
LINE
  5
3A9
330
1F
100
AcDbEntity
  8
002
  6
CENTER
 62
    40
370
     9
100
AcDbLine
 10
1760.867033
 20
1069.359244
 30
0.0
 11
1760.867033
 21
1128.948244
 31
0.0
  0
LINE
  5
3AA
330
1F
100
AcDbEntity
  8
002
  6
DASHED
 62
    40
370
     9
100
AcDbLine
 10
1719.867033
 20
1116.907244
 30
0.0
 11
1719.867033
 21
1117.907244
 31
0.0
  0
LINE
  5
3AB
330
1F
100
AcDbEntity
  8
002
  6
DASHED
 62
    40
370
     9
100
AcDbLine
 10
1801.867033
 20
1116.907244
 30
0.0
 11
1801.867033
 21
1117.907244
 31
0.0
  0
LINE
  5
3AC
330
1F
100
AcDbEntity
  8
002
  6
CENTER
 62
    40
370
     9
100
AcDbLine
 10
2255.867033
 20
1069.359244
 30
0.0
 11
2255.867033
 21
1128.948244
 31
0.0
  0
LINE
  5
3AD
330
1F
100
AcDbEntity
  8
002
  6
DASHED
 62
    40
370
     9
100
AcDbLine
 10
2214.867033
 20
1116.907244
 30
0.0
 11
2214.867033
 21
1117.907244
 31
0.0
  0
LINE
  5
3AE
330
1F
100
AcDbEntity
  8
002
  6
DASHED
 62
    40
370
     9
100
AcDbLine
 10
2296.867033
 20
1116.907244
 30
0.0
 11
2296.867033
 21
1117.907244
 31
0.0
  0
CIRCLE
  5
3AF
330
1F
100
AcDbEntity
  8
002
 62
    40
370
     9
100
AcDbCircle
 10
1960.867033
 20
1222.907244
 30
0.0
 40
22.64125
  0
LINE
  5
3B0
330
1F
100
AcDbEntity
  8
002
  6
CENTER
 62
    40
370
     9
100
AcDbLine
 10
1906.820033
 20
1222.907244
 30
0.0
 11
2223.247033
 21
1222.907244
 31
0.0
  0
LINE
  5
3B1
330
1F
100
AcDbEntity
  8
002
  6
CENTER
 62
    40
370
     9
100
AcDbLine
 10
2185.798033
 20
1263.282244
 30
0.0
 11
2202.588033
 21
1272.976244
 31
0.0
  0
LINE
  5
3B2
330
1F
100
AcDbEntity
  8
002
  6
HIDDEN
 62
    40
370
     9
100
AcDbLine
 10
1801.867033
 20
1116.907244
 30
0.0
 11
1719.867033
 21
1116.907244
 31
0.0
  0
LINE
  5
3B3
330
1F
100
AcDbEntity
  8
002
  6
HIDDEN
 62
    40
370
     9
100
AcDbLine
 10
1738.367033
 20
1116.907244
 30
0.0
 11
1738.367033
 21
1082.907244
 31
0.0
  0
LINE
  5
3B4
330
1F
100
AcDbEntity
  8
002
  6
HIDDEN
 62
    40
370
     9
100
AcDbLine
 10
1783.367033
 20
1116.907244
 30
0.0
 11
1783.367033
 21
1082.907244
 31
0.0
  0
LINE
  5
3B5
330
1F
100
AcDbEntity
  8
002
  6
HIDDEN
 62
    40
370
     9
100
AcDbLine
 10
2233.367033
 20
1116.907244
 30
0.0
 11
2233.367033
 21
1082.907244
 31
0.0
  0
LINE
  5
3B6
330
1F
100
AcDbEntity
  8
002
  6
HIDDEN
 62
    40
370
     9
100
AcDbLine
 10
2296.867033
 20
1116.907244
 30
0.0
 11
2214.867033
 21
1116.907244
 31
0.0
  0
LINE
  5
3B7
330
1F
100
AcDbEntity
  8
002
  6
HIDDEN
 62
    40
370
     9
100
AcDbLine
 10
2278.367033
 20
1116.907244
 30
0.0
 11
2278.367033
 21
1082.907244
 31
0.0
  0
LINE
  5
3B8
330
1F
100
AcDbEntity
  8
002
 62
     3
370
    30
100
AcDbLine
 10
2122.867033
 20
1239.907004
 30
0.0
 11
2108.867033
 21
1239.907004
 31
0.0
  0
LINE
  5
3B9
330
1F
100
AcDbEntity
  8
002
 62
     3
370
    30
100
AcDbLine
 10
2122.867033
 20
1239.907004
 30
0.0
 11
2122.867033
 21
1248.907244
 31
0.0
  0
LINE
  5
3BA
330
1F
100
AcDbEntity
  8
002
 62
     3
370
    30
100
AcDbLine
 10
2108.867033
 20
1248.907244
 30
0.0
 11
2108.867033
 21
1239.907004
 31
0.0
  0
LINE
  5
3BB
330
1F
100
AcDbEntity
  8
002
 62
     3
370
    30
100
AcDbLine
 10
2108.867033
 20
1248.907244
 30
0.0
 11
2122.867033
 21
1248.907244
 31
0.0
  0
ARC
  5
3BC
330
1F
100
AcDbEntity
  8
002
 62
     3
370
    30
100
AcDbCircle
 10
2115.867033
 20
1222.907244
 30
0.0
 40
22.50072434389606
100
AcDbArc
 50
108.1256
 51
71.8744
  0
ARC
  5
3BD
330
1F
100
AcDbEntity
  8
002
 62
     3
370
    30
100
AcDbCircle
 10
2115.867033
 20
1222.907244
 30
0.0
 40
25.00065799134093
100
AcDbArc
 50
106.259765
 51
73.740235
  0
LINE
  5
3BE
330
1F
100
AcDbEntity
  8
001
 62
     3
370
    30
100
AcDbLine
 10
2043.467033
 20
1597.907244
 30
0.0
 11
1878.267033
 21
1597.907244
 31
0.0
  0
ARC
  5
3BF
330
1F
100
AcDbEntity
  8
002
 62
     3
370
    30
100
AcDbCircle
 10
695.614914
 20
3211.791837
 30
0.0
 40
7.000000000000005
100
AcDbArc
 50
0.0
 51
180.0
  0
LINE
  5
3C0
330
1F
100
AcDbEntity
  8
002
 62
     3
370
    30
100
AcDbLine
 10
688.614914
 20
3211.791837
 30
0.0
 11
702.614914
 21
3211.791837
 31
0.0
  0
LINE
  5
3C1
330
1F
100
AcDbEntity
  8
002
 62
     3
370
    30
100
AcDbLine
 10
702.614914
 20
3136.791837
 30
0.0
 11
702.614914
 21
3211.791837
 31
0.0
  0
LINE
  5
3C2
330
1F
100
AcDbEntity
  8
002
 62
     3
370
    30
100
AcDbLine
 10
688.614914
 20
3136.791837
 30
0.0
 11
688.614914
 21
3211.791837
 31
0.0
  0
ARC
  5
3C3
330
1F
100
AcDbEntity
  8
002
 62
     3
370
    30
100
AcDbCircle
 10
695.614914
 20
3661.791837
 30
0.0
 40
7.000000000000005
100
AcDbArc
 50
180.0
 51
0.0
  0
LINE
  5
3C4
330
1F
100
AcDbEntity
  8
002
 62
     3
370
    30
100
AcDbLine
 10
688.614914
 20
3661.791837
 30
0.0
 11
702.614914
 21
3661.791837
 31
0.0
  0
LINE
  5
3C5
330
1F
100
AcDbEntity
  8
002
 62
     3
370
    30
100
AcDbLine
 10
702.614914
 20
3736.791837
 30
0.0
 11
702.614914
 21
3661.791837
 31
0.0
  0
LINE
  5
3C6
330
1F
100
AcDbEntity
  8
002
 62
     3
370
    30
100
AcDbLine
 10
688.614914
 20
3736.791837
 30
0.0
 11
688.614914
 21
3661.791837
 31
0.0
  0
CIRCLE
  5
3C7
330
1F
100
AcDbEntity
  8
002
 62
     3
370
    30
100
AcDbCircle
 10
540.614914
 20
3436.791837
 30
0.0
 40
155.0
  0
CIRCLE
  5
3C8
330
1F
100
AcDbEntity
  8
002
 62
     3
370
    30
100
AcDbCircle
 10
540.614914
 20
3436.791837
 30
0.0
 40
60.0
  0
CIRCLE
  5
3C9
330
1F
100
AcDbEntity
  8
002
 62
     3
370
    30
100
AcDbCircle
 10
540.614914
 20
3436.791837
 30
0.0
 40
55.0
  0
CIRCLE
  5
3CA
330
1F
100
AcDbEntity
  8
002
 62
    40
370
     9
100
AcDbCircle
 10
540.614914
 20
3436.791837
 30
0.0
 40
54.0
  0
LINE
  5
3CB
330
1F
100
AcDbEntity
  8
002
 62
     3
370
    30
100
AcDbLine
 10
542.911974
 20
3600.267889
 30
0.0
 11
538.317059
 21
3600.267262
 31
0.0
  0
ARC
  5
3CC
330
1F
100
AcDbEntity
  8
002
 62
     3
370
    30
100
AcDbCircle
 10
537.047577
 20
3600.412455
 30
0.0
 40
1.00029445664738
100
AcDbArc
 50
314.991086
 51
31.974684
  0
LINE
  5
3CD
330
1F
100
AcDbEntity
  8
002
 62
     3
370
    30
100
AcDbLine
 10
537.896109
 20
3600.942156
 30
0.0
 11
537.364677
 21
3601.791688
 31
0.0
  0
LINE
  5
3CE
330
1F
100
AcDbEntity
  8
002
 62
     3
370
    30
100
AcDbLine
 10
537.364677
 20
3601.791688
 30
0.0
 11
538.115055
 21
3604.791381
 31
0.0
  0
LINE
  5
3CF
330
1F
100
AcDbEntity
  8
002
 62
     3
370
    30
100
AcDbLine
 10
538.115055
 20
3604.791381
 30
0.0
 11
543.114945
 21
3604.791445
 31
0.0
  0
LINE
  5
3D0
330
1F
100
AcDbEntity
  8
002
 62
     3
370
    30
100
AcDbLine
 10
543.114945
 20
3604.791445
 30
0.0
 11
543.864534
 21
3601.79177
 31
0.0
  0
LINE
  5
3D1
330
1F
100
AcDbEntity
  8
002
 62
     3
370
    30
100
AcDbLine
 10
543.114983
 20
3601.791511
 30
0.0
 11
538.115093
 21
3601.791447
 31
0.0
  0
LINE
  5
3D2
330
1F
100
AcDbEntity
  8
002
 62
     3
370
    30
100
AcDbLine
 10
537.754658
 20
3599.705155
 30
0.0
 11
534.841475
 21
3596.791374
 31
0.0
  0
LINE
  5
3D3
330
1F
100
AcDbEntity
  8
002
 62
     3
370
    30
100
AcDbLine
 10
534.841475
 20
3596.791374
 30
0.0
 11
534.841513
 21
3593.79144
 31
0.0
  0
ARC
  5
3D4
330
1F
100
AcDbEntity
  8
002
 62
     3
370
    30
100
AcDbCircle
 10
536.284352
 20
3594.33251
 30
0.0
 40
1.541898180814713
100
AcDbArc
 50
249.486771
 51
339.443995
  0
ARC
  5
3D5
330
1F
100
AcDbEntity
  8
002
 62
     3
370
    30
100
AcDbCircle
 10
540.614349
 20
3597.458286
 30
0.0
 40
4.667266866164868
100
AcDbArc
 50
231.795237
 51
308.216827
  0
LINE
  5
3D6
330
1F
100
AcDbEntity
  8
002
 62
     3
370
    30
100
AcDbLine
 10
544.900473
 20
3592.79207
 30
0.0
 11
536.328966
 21
3592.791785
 31
0.0
  0
LINE
  5
3D7
330
1F
100
AcDbEntity
  8
002
 62
     3
370
    30
100
AcDbLine
 10
537.728076
 20
3593.791114
 30
0.0
 11
537.728538
 21
3596.791914
 31
0.0
  0
ARC
  5
3D8
330
1F
100
AcDbEntity
  8
002
 62
     3
370
    30
100
AcDbCircle
 10
536.284833
 20
3596.251344
 30
0.0
 40
1.540954574282012
100
AcDbArc
 50
20.52754
 51
110.556242
  0
ARC
  5
3D9
330
1F
100
AcDbEntity
  8
002
 62
     3
370
    30
100
AcDbCircle
 10
540.614526
 20
3593.124592
 30
0.0
 40
4.666709547422012
100
AcDbArc
 50
51.783086
 51
128.20087
  0
ARC
  5
3DA
330
1F
100
AcDbEntity
  8
002
 62
     3
370
    30
100
AcDbCircle
 10
540.614288
 20
3604.130181
 30
0.0
 40
0.9998019803938861
100
AcDbArc
 50
41.402022
 51
138.577679
  0
LINE
  5
3DB
330
1F
100
AcDbEntity
  8
002
 62
     3
370
    30
100
AcDbLine
 10
545.72706
 20
3591.79176
 30
0.0
 11
545.815901
 21
3593.219639
 31
0.0
  0
LINE
  5
3DC
330
1F
100
AcDbEntity
  8
002
 62
     3
370
    30
100
AcDbLine
 10
545.485112
 20
3592.888695
 30
0.0
 11
546.388767
 21
3593.79187
 31
0.0
  0
LINE
  5
3DD
330
1F
100
AcDbEntity
  8
002
 62
     3
370
    30
100
AcDbLine
 10
546.388767
 20
3593.79187
 30
0.0
 11
546.388729
 21
3596.791804
 31
0.0
  0
LINE
  5
3DE
330
1F
100
AcDbEntity
  8
002
 62
     3
370
    30
100
AcDbLine
 10
546.388729
 20
3596.791804
 30
0.0
 11
543.474948
 21
3599.704988
 31
0.0
  0
LINE
  5
3DF
330
1F
100
AcDbEntity
  8
002
 62
     3
370
    30
100
AcDbLine
 10
543.864534
 20
3601.79177
 30
0.0
 11
543.333723
 21
3600.942379
 31
0.0
  0
ARC
  5
3E0
330
1F
100
AcDbEntity
  8
002
 62
     3
370
    30
100
AcDbCircle
 10
544.182248
 20
3600.412068
 30
0.0
 40
1.000118492979609
100
AcDbArc
 50
147.995466
 51
224.991086
  0
ARC
  5
3E1
330
1F
100
AcDbEntity
  8
002
 62
     3
370
    30
100
AcDbCircle
 10
544.944542
 20
3594.3324
 30
0.0
 40
1.541590088188221
100
AcDbArc
 50
200.556242
 51
290.52754
  0
LINE
  5
3E2
330
1F
100
AcDbEntity
  8
002
 62
     3
370
    30
100
AcDbLine
 10
543.501665
 20
3596.791264
 30
0.0
 11
543.501703
 21
3593.79133
 31
0.0
  0
ARC
  5
3E3
330
1F
100
AcDbEntity
  8
002
 62
     3
370
    30
100
AcDbCircle
 10
544.945024
 20
3596.251234
 30
0.0
 40
1.541076247302481
100
AcDbArc
 50
69.450097
 51
159.486771
  0
LINE
  5
3E4
330
1F
100
AcDbEntity
  8
002
 62
    40
370
     9
100
AcDbLine
 10
545.765671
 20
3592.412636
 30
0.0
 11
545.125521
 21
3591.771864
 31
0.0
  0
LINE
  5
3E5
330
1F
100
AcDbEntity
  8
002
 62
     3
370
    30
100
AcDbLine
 10
534.841513
 20
3593.79144
 30
0.0
 11
535.744322
 21
3592.889151
 31
0.0
  0
LINE
  5
3E6
330
1F
100
AcDbEntity
  8
002
 62
     3
370
    30
100
AcDbLine
 10
535.413379
 20
3593.21994
 30
0.0
 11
535.502405
 21
3591.792138
 31
0.0
  0
LINE
  5
3E7
330
1F
100
AcDbEntity
  8
002
 62
    40
370
     9
100
AcDbLine
 10
535.463492
 20
3592.412739
 30
0.0
 11
536.104264
 21
3591.772589
 31
0.0
  0
LINE
  5
3E8
330
1F
100
AcDbEntity
  8
002
 62
     3
370
    30
100
AcDbLine
 10
542.911974
 20
3273.315785
 30
0.0
 11
538.317059
 21
3273.316412
 31
0.0
  0
ARC
  5
3E9
330
1F
100
AcDbEntity
  8
002
 62
     3
370
    30
100
AcDbCircle
 10
537.047577
 20
3273.171219
 30
0.0
 40
1.00029445664738
100
AcDbArc
 50
328.025316
 51
45.008914
  0
LINE
  5
3EA
330
1F
100
AcDbEntity
  8
002
 62
     3
370
    30
100
AcDbLine
 10
537.896109
 20
3272.641518
 30
0.0
 11
537.364677
 21
3271.791986
 31
0.0
  0
LINE
  5
3EB
330
1F
100
AcDbEntity
  8
002
 62
     3
370
    30
100
AcDbLine
 10
537.364677
 20
3271.791986
 30
0.0
 11
538.115055
 21
3268.792293
 31
0.0
  0
LINE
  5
3EC
330
1F
100
AcDbEntity
  8
002
 62
     3
370
    30
100
AcDbLine
 10
538.115055
 20
3268.792293
 30
0.0
 11
543.114945
 21
3268.792229
 31
0.0
  0
LINE
  5
3ED
330
1F
100
AcDbEntity
  8
002
 62
     3
370
    30
100
AcDbLine
 10
543.114945
 20
3268.792229
 30
0.0
 11
543.864534
 21
3271.791904
 31
0.0
  0
LINE
  5
3EE
330
1F
100
AcDbEntity
  8
002
 62
     3
370
    30
100
AcDbLine
 10
543.114983
 20
3271.792163
 30
0.0
 11
538.115093
 21
3271.792227
 31
0.0
  0
LINE
  5
3EF
330
1F
100
AcDbEntity
  8
002
 62
     3
370
    30
100
AcDbLine
 10
537.754658
 20
3273.878519
 30
0.0
 11
534.841475
 21
3276.7923
 31
0.0
  0
LINE
  5
3F0
330
1F
100
AcDbEntity
  8
002
 62
     3
370
    30
100
AcDbLine
 10
534.841475
 20
3276.7923
 30
0.0
 11
534.841513
 21
3279.792234
 31
0.0
  0
ARC
  5
3F1
330
1F
100
AcDbEntity
  8
002
 62
     3
370
    30
100
AcDbCircle
 10
536.284352
 20
3279.251164
 30
0.0
 40
1.541898180814713
100
AcDbArc
 50
20.556005
 51
110.513229
  0
ARC
  5
3F2
330
1F
100
AcDbEntity
  8
002
 62
     3
370
    30
100
AcDbCircle
 10
540.614349
 20
3276.125388
 30
0.0
 40
4.667266866164868
100
AcDbArc
 50
51.783173
 51
128.204763
  0
LINE
  5
3F3
330
1F
100
AcDbEntity
  8
002
 62
     3
370
    30
100
AcDbLine
 10
544.900473
 20
3280.791605
 30
0.0
 11
536.328966
 21
3280.79189
 31
0.0
  0
LINE
  5
3F4
330
1F
100
AcDbEntity
  8
002
 62
     3
370
    30
100
AcDbLine
 10
537.728076
 20
3279.79256
 30
0.0
 11
537.728538
 21
3276.79176
 31
0.0
  0
ARC
  5
3F5
330
1F
100
AcDbEntity
  8
002
 62
     3
370
    30
100
AcDbCircle
 10
536.284833
 20
3277.33233
 30
0.0
 40
1.540954574282012
100
AcDbArc
 50
249.443758
 51
339.47246
  0
ARC
  5
3F6
330
1F
100
AcDbEntity
  8
002
 62
     3
370
    30
100
AcDbCircle
 10
540.614526
 20
3280.459082
 30
0.0
 40
4.666709547422012
100
AcDbArc
 50
231.79913
 51
308.216914
  0
ARC
  5
3F7
330
1F
100
AcDbEntity
  8
002
 62
     3
370
    30
100
AcDbCircle
 10
540.614288
 20
3269.453494
 30
0.0
 40
0.9998019803938861
100
AcDbArc
 50
221.422321
 51
318.597978
  0
LINE
  5
3F8
330
1F
100
AcDbEntity
  8
002
 62
     3
370
    30
100
AcDbLine
 10
545.72706
 20
3281.791914
 30
0.0
 11
545.815901
 21
3280.364036
 31
0.0
  0
LINE
  5
3F9
330
1F
100
AcDbEntity
  8
002
 62
     3
370
    30
100
AcDbLine
 10
545.485112
 20
3280.694979
 30
0.0
 11
546.388767
 21
3279.791804
 31
0.0
  0
LINE
  5
3FA
330
1F
100
AcDbEntity
  8
002
 62
     3
370
    30
100
AcDbLine
 10
546.388767
 20
3279.791804
 30
0.0
 11
546.388729
 21
3276.79187
 31
0.0
  0
LINE
  5
3FB
330
1F
100
AcDbEntity
  8
002
 62
     3
370
    30
100
AcDbLine
 10
546.388729
 20
3276.79187
 30
0.0
 11
543.474948
 21
3273.878687
 31
0.0
  0
LINE
  5
3FC
330
1F
100
AcDbEntity
  8
002
 62
     3
370
    30
100
AcDbLine
 10
543.864534
 20
3271.791904
 30
0.0
 11
543.333723
 21
3272.641295
 31
0.0
  0
ARC
  5
3FD
330
1F
100
AcDbEntity
  8
002
 62
     3
370
    30
100
AcDbCircle
 10
544.182248
 20
3273.171606
 30
0.0
 40
1.000118492979609
100
AcDbArc
 50
135.008914
 51
212.004534
  0
ARC
  5
3FE
330
1F
100
AcDbEntity
  8
002
 62
     3
370
    30
100
AcDbCircle
 10
544.944542
 20
3279.251274
 30
0.0
 40
1.541590088188221
100
AcDbArc
 50
69.47246
 51
159.443758
  0
LINE
  5
3FF
330
1F
100
AcDbEntity
  8
002
 62
     3
370
    30
100
AcDbLine
 10
543.501665
 20
3276.79241
 30
0.0
 11
543.501703
 21
3279.792344
 31
0.0
  0
ARC
  5
400
330
1F
100
AcDbEntity
  8
002
 62
     3
370
    30
100
AcDbCircle
 10
544.945024
 20
3277.33244
 30
0.0
 40
1.541076247302481
100
AcDbArc
 50
200.513229
 51
290.549903
  0
LINE
  5
401
330
1F
100
AcDbEntity
  8
002
 62
    40
370
     9
100
AcDbLine
 10
545.765671
 20
3281.171038
 30
0.0
 11
545.125521
 21
3281.81181
 31
0.0
  0
LINE
  5
402
330
1F
100
AcDbEntity
  8
002
 62
     3
370
    30
100
AcDbLine
 10
534.841513
 20
3279.792234
 30
0.0
 11
535.744322
 21
3280.694523
 31
0.0
  0
LINE
  5
403
330
1F
100
AcDbEntity
  8
002
 62
     3
370
    30
100
AcDbLine
 10
535.413379
 20
3280.363734
 30
0.0
 11
535.502405
 21
3281.791536
 31
0.0
  0
LINE
  5
404
330
1F
100
AcDbEntity
  8
002
 62
    40
370
     9
100
AcDbLine
 10
535.463492
 20
3281.170935
 30
0.0
 11
536.104264
 21
3281.811085
 31
0.0
  0
ARC
  5
405
330
1F
100
AcDbEntity
  8
002
 62
     3
370
    30
100
AcDbCircle
 10
540.614914
 20
3436.791837
 30
0.0
 40
160.0
100
AcDbArc
 50
92.067909
 51
267.932091
  0
ARC
  5
406
330
1F
100
AcDbEntity
  8
002
 62
     3
370
    30
100
AcDbCircle
 10
540.614914
 20
3436.791837
 30
0.0
 40
160.0
100
AcDbArc
 50
272.068044
 51
87.931956
  0
LINE
  5
407
330
1F
100
AcDbEntity
  8
001
 62
    40
370
     9
100
AcDbLine
 10
487.396702
 20
756.487307
 30
0.0
 11
480.614652
 21
744.740452
 31
0.0
  0
LINE
  5
408
330
1F
100
AcDbEntity
  8
001
 62
    40
370
     9
100
AcDbLine
 10
593.833126
 20
756.487307
 30
0.0
 11
600.614682
 21
744.741308
 31
0.0
  0
LINE
  5
409
330
1F
100
AcDbEntity
  8
001
 62
     3
370
    30
100
AcDbLine
 10
600.614682
 20
756.487307
 30
0.0
 11
480.614652
 21
756.487307
 31
0.0
  0
LINE
  5
40A
330
1F
100
AcDbEntity
  8
001
 62
     3
370
    30
100
AcDbLine
 10
634.615116
 20
1265.846663
 30
0.0
 11
635.615146
 21
1264.846563
 31
0.0
  0
LINE
  5
40B
330
1F
100
AcDbEntity
  8
001
 62
     3
370
    30
100
AcDbLine
 10
635.615296
 20
972.046663
 30
0.0
 11
635.415286
 21
971.846663
 31
0.0
  0
LINE
  5
40C
330
1F
100
AcDbEntity
  8
001
 62
     3
370
    30
100
AcDbLine
 10
445.814906
 20
971.846463
 30
0.0
 11
445.614886
 21
972.046463
 31
0.0
  0
LINE
  5
40D
330
1F
100
AcDbEntity
  8
001
 62
     3
370
    30
100
AcDbLine
 10
446.615056
 20
1265.846763
 30
0.0
 11
445.614476
 21
1264.846163
 31
0.0
  0
LINE
  5
40E
330
1F
100
AcDbEntity
  8
001
 62
     3
370
    30
100
AcDbLine
 10
566.114796
 20
1265.846763
 30
0.0
 11
566.114796
 21
1206.767783
 31
0.0
  0
LINE
  5
40F
330
1F
100
AcDbEntity
  8
001
 62
     3
370
    30
100
AcDbLine
 10
566.114796
 20
1177.370803
 30
0.0
 11
566.114796
 21
1122.768921
 31
0.0
  0
LINE
  5
410
330
1F
100
AcDbEntity
  8
001
 62
     3
370
    30
100
AcDbLine
 10
566.114796
 20
1093.370843
 30
0.0
 11
566.114796
 21
1038.768653
 31
0.0
  0
LINE
  5
411
330
1F
100
AcDbEntity
  8
001
 62
     3
370
    30
100
AcDbLine
 10
515.114906
 20
1124.924805
 30
0.0
 11
515.114906
 21
1070.322313
 31
0.0
  0
LINE
  5
412
330
1F
100
AcDbEntity
  8
001
 62
     3
370
    30
100
AcDbLine
 10
518.115026
 20
983.847163
 30
0.0
 11
518.115026
 21
1263.847063
 31
0.0
  0
LINE
  5
413
330
1F
100
AcDbEntity
  8
001
 62
     3
370
    30
100
AcDbLine
 10
515.114906
 20
1208.924763
 30
0.0
 11
515.114906
 21
1154.322883
 31
0.0
  0
LINE
  5
414
330
1F
100
AcDbEntity
  8
001
 62
     3
370
    30
100
AcDbLine
 10
515.114906
 20
1265.846763
 30
0.0
 11
515.114906
 21
1238.321663
 31
0.0
  0
LINE
  5
415
330
1F
100
AcDbEntity
  8
001
 62
     3
370
    30
100
AcDbLine
 10
488.083436
 20
1255.047563
 30
0.0
 11
518.115076
 21
1236.466763
 31
0.0
  0
LINE
  5
416
330
1F
100
AcDbEntity
  8
001
 62
     3
370
    30
100
AcDbLine
 10
634.615306
 20
1265.846863
 30
0.0
 11
446.615256
 21
1265.846863
 31
0.0
  0
LINE
  5
417
330
1F
100
AcDbEntity
  8
001
 62
     3
370
    30
100
AcDbLine
 10
518.115026
 20
1263.847063
 30
0.0
 11
563.115046
 21
1263.847063
 31
0.0
  0
LINE
  5
418
330
1F
100
AcDbEntity
  8
001
 62
     3
370
    30
100
AcDbLine
 10
563.115046
 20
1263.846563
 30
0.0
 11
563.115046
 21
983.846663
 31
0.0
  0
LINE
  5
419
330
1F
100
AcDbEntity
  8
001
 62
     3
370
    30
100
AcDbLine
 10
606.421406
 20
1181.830013
 30
0.0
 11
563.114976
 21
1208.623953
 31
0.0
  0
LINE
  5
41A
330
1F
100
AcDbEntity
  8
001
 62
     3
370
    30
100
AcDbLine
 10
593.146566
 20
1160.646263
 30
0.0
 11
563.114926
 21
1179.227023
 31
0.0
  0
ARC
  5
41B
330
1F
100
AcDbEntity
  8
001
 62
     3
370
    30
100
AcDbCircle
 10
599.723446
 20
1171.276073
 30
0.0
 40
12.50000561125074
100
AcDbArc
 50
238.254702
 51
57.599283
  0
LINE
  5
41C
330
1F
100
AcDbEntity
  8
001
 62
     3
370
    30
100
AcDbLine
 10
606.421306
 20
1097.829993
 30
0.0
 11
563.114876
 21
1124.623937
 31
0.0
  0
LINE
  5
41D
330
1F
100
AcDbEntity
  8
001
 62
     3
370
    30
100
AcDbLine
 10
593.146546
 20
1076.646233
 30
0.0
 11
563.114896
 21
1095.226993
 31
0.0
  0
ARC
  5
41E
330
1F
100
AcDbEntity
  8
001
 62
     3
370
    30
100
AcDbCircle
 10
599.723446
 20
1087.276113
 30
0.0
 40
12.50000561125074
100
AcDbArc
 50
238.254702
 51
57.599283
  0
ARC
  5
41F
330
1F
100
AcDbEntity
  8
001
 62
     3
370
    30
100
AcDbCircle
 10
481.506626
 20
1160.417613
 30
0.0
 40
12.50000561125074
100
AcDbArc
 50
58.254702
 51
237.599283
  0
LINE
  5
420
330
1F
100
AcDbEntity
  8
001
 62
     3
370
    30
100
AcDbLine
 10
474.808676
 20
1149.863523
 30
0.0
 11
518.115096
 21
1123.069594
 31
0.0
  0
LINE
  5
421
330
1F
100
AcDbEntity
  8
001
 62
     3
370
    30
100
AcDbLine
 10
488.083386
 20
1171.047153
 30
0.0
 11
518.115016
 21
1152.466403
 31
0.0
  0
LINE
  5
422
330
1F
100
AcDbEntity
  8
001
 62
     3
370
    30
100
AcDbLine
 10
488.083386
 20
1087.047243
 30
0.0
 11
518.115016
 21
1068.466493
 31
0.0
  0
ARC
  5
423
330
1F
100
AcDbEntity
  8
001
 62
     3
370
    30
100
AcDbCircle
 10
481.506626
 20
1076.417653
 30
0.0
 40
12.50000561125074
100
AcDbArc
 50
58.254702
 51
237.599283
  0
LINE
  5
424
330
1F
100
AcDbEntity
  8
001
 62
     3
370
    30
100
AcDbLine
 10
474.808666
 20
1233.863763
 30
0.0
 11
518.115096
 21
1207.069783
 31
0.0
  0
ARC
  5
425
330
1F
100
AcDbEntity
  8
001
 62
     3
370
    30
100
AcDbCircle
 10
481.506626
 20
1244.417863
 30
0.0
 40
12.50007315702192
100
AcDbArc
 50
58.254606
 51
237.59948
  0
ARC
  5
426
330
1F
100
AcDbEntity
  8
001
 62
     3
370
    30
100
AcDbCircle
 10
540.61528
 20
1249.847063
 30
0.0
 40
14.49999733995317
100
AcDbArc
 50
105.090131
 51
74.909854
  0
LINE
  5
427
330
1F
100
AcDbEntity
  8
001
 62
     3
370
    30
100
AcDbLine
 10
546.100074
 20
1240.347063
 30
0.0
 11
551.584936
 21
1249.847163
 31
0.0
  0
CIRCLE
  5
428
330
1F
100
AcDbEntity
  8
001
 62
     3
370
    30
100
AcDbCircle
 10
540.61528
 20
1249.847063
 30
0.0
 40
8.999998
  0
LINE
  5
429
330
1F
100
AcDbEntity
  8
001
 62
     3
370
    30
100
AcDbLine
 10
551.584836
 20
1249.847063
 30
0.0
 11
546.100001
 21
1259.347063
 31
0.0
  0
LINE
  5
42A
330
1F
100
AcDbEntity
  8
001
 62
     3
370
    30
100
AcDbLine
 10
535.130476
 20
1259.347063
 30
0.0
 11
546.100084
 21
1259.347063
 31
0.0
  0
LINE
  5
42B
330
1F
100
AcDbEntity
  8
001
 62
     3
370
    30
100
AcDbLine
 10
529.645596
 20
1249.847063
 30
0.0
 11
535.130464
 21
1259.347163
 31
0.0
  0
LINE
  5
42C
330
1F
100
AcDbEntity
  8
001
 62
     3
370
    30
100
AcDbLine
 10
535.130366
 20
1240.347063
 30
0.0
 11
529.645526
 21
1249.847063
 31
0.0
  0
LINE
  5
42D
330
1F
100
AcDbEntity
  8
001
 62
     3
370
    30
100
AcDbLine
 10
535.130476
 20
1240.347063
 30
0.0
 11
546.100084
 21
1240.347063
 31
0.0
  0
CIRCLE
  5
42E
330
1F
100
AcDbEntity
  8
001
 62
     3
370
    30
100
AcDbCircle
 10
540.61528
 20
1249.847063
 30
0.0
 40
5.0
  0
CIRCLE
  5
42F
330
1F
100
AcDbEntity
  8
001
 62
     3
370
    30
100
AcDbCircle
 10
540.615036
 20
1165.847123
 30
0.0
 40
14.5
  0
LINE
  5
430
330
1F
100
AcDbEntity
  8
001
 62
     3
370
    30
100
AcDbLine
 10
546.099836
 20
1156.347103
 30
0.0
 11
551.584706
 21
1165.847173
 31
0.0
  0
LINE
  5
431
330
1F
100
AcDbEntity
  8
001
 62
     3
370
    30
100
AcDbLine
 10
535.130232
 20
1156.347113
 30
0.0
 11
546.09984
 21
1156.347113
 31
0.0
  0
LINE
  5
432
330
1F
100
AcDbEntity
  8
001
 62
     3
370
    30
100
AcDbLine
 10
551.584636
 20
1165.847123
 30
0.0
 11
546.099803
 21
1175.347143
 31
0.0
  0
LINE
  5
433
330
1F
100
AcDbEntity
  8
001
 62
     3
370
    30
100
AcDbLine
 10
529.645356
 20
1165.847103
 30
0.0
 11
535.130224
 21
1175.347163
 31
0.0
  0
LINE
  5
434
330
1F
100
AcDbEntity
  8
001
 62
     3
370
    30
100
AcDbLine
 10
535.130232
 20
1175.347123
 30
0.0
 11
546.09984
 21
1175.347123
 31
0.0
  0
CIRCLE
  5
435
330
1F
100
AcDbEntity
  8
001
 62
     3
370
    30
100
AcDbCircle
 10
540.615036
 20
1165.847123
 30
0.0
 40
8.999998
  0
LINE
  5
436
330
1F
100
AcDbEntity
  8
001
 62
     3
370
    30
100
AcDbLine
 10
535.13016
 20
1156.347133
 30
0.0
 11
529.645326
 21
1165.847143
 31
0.0
  0
CIRCLE
  5
437
330
1F
100
AcDbEntity
  8
001
 62
     3
370
    30
100
AcDbCircle
 10
540.615036
 20
1165.847123
 30
0.0
 40
5.0
  0
CIRCLE
  5
438
330
1F
100
AcDbEntity
  8
001
 62
     3
370
    30
100
AcDbCircle
 10
540.615036
 20
1081.846603
 30
0.0
 40
14.5
  0
LINE
  5
439
330
1F
100
AcDbEntity
  8
001
 62
     3
370
    30
100
AcDbLine
 10
551.584616
 20
1081.846613
 30
0.0
 11
546.099785
 21
1091.346623
 31
0.0
  0
CIRCLE
  5
43A
330
1F
100
AcDbEntity
  8
001
 62
     3
370
    30
100
AcDbCircle
 10
540.615036
 20
1081.846603
 30
0.0
 40
8.999998
  0
CIRCLE
  5
43B
330
1F
100
AcDbEntity
  8
001
 62
     3
370
    30
100
AcDbCircle
 10
540.615036
 20
1081.846603
 30
0.0
 40
5.0
  0
LINE
  5
43C
330
1F
100
AcDbEntity
  8
001
 62
     3
370
    30
100
AcDbLine
 10
546.09984
 20
1072.346563
 30
0.0
 11
551.584706
 21
1081.846633
 31
0.0
  0
LINE
  5
43D
330
1F
100
AcDbEntity
  8
001
 62
     3
370
    30
100
AcDbLine
 10
535.130232
 20
1091.346613
 30
0.0
 11
546.09984
 21
1091.346613
 31
0.0
  0
LINE
  5
43E
330
1F
100
AcDbEntity
  8
001
 62
     3
370
    30
100
AcDbLine
 10
529.645356
 20
1081.846563
 30
0.0
 11
535.130226
 21
1091.346623
 31
0.0
  0
LINE
  5
43F
330
1F
100
AcDbEntity
  8
001
 62
     3
370
    30
100
AcDbLine
 10
535.130159
 20
1072.346593
 30
0.0
 11
529.645326
 21
1081.846603
 31
0.0
  0
LINE
  5
440
330
1F
100
AcDbEntity
  8
001
 62
     3
370
    30
100
AcDbLine
 10
535.130232
 20
1072.346603
 30
0.0
 11
546.09984
 21
1072.346603
 31
0.0
  0
LINE
  5
441
330
1F
100
AcDbEntity
  8
001
 62
     3
370
    30
100
AcDbLine
 10
474.808566
 20
1065.863523
 30
0.0
 11
518.114996
 21
1039.069583
 31
0.0
  0
LINE
  5
442
330
1F
100
AcDbEntity
  8
001
 62
     3
370
    30
100
AcDbLine
 10
593.146486
 20
992.646063
 30
0.0
 11
563.114856
 21
1011.226763
 31
0.0
  0
ARC
  5
443
330
1F
100
AcDbEntity
  8
001
 62
     3
370
    30
100
AcDbCircle
 10
599.723386
 20
1003.275863
 30
0.0
 40
12.49998872483092
100
AcDbArc
 50
238.254847
 51
57.599234
  0
LINE
  5
444
330
1F
100
AcDbEntity
  8
001
 62
     3
370
    30
100
AcDbLine
 10
606.421246
 20
1013.829763
 30
0.0
 11
563.114826
 21
1040.623723
 31
0.0
  0
LINE
  5
445
330
1F
100
AcDbEntity
  8
001
 62
     3
370
    30
100
AcDbLine
 10
566.114796
 20
1009.370663
 30
0.0
 11
566.114796
 21
981.846763
 31
0.0
  0
LINE
  5
446
330
1F
100
AcDbEntity
  8
001
 62
     3
370
    30
100
AcDbLine
 10
515.114906
 20
1040.924293
 30
0.0
 11
515.114906
 21
981.846763
 31
0.0
  0
LINE
  5
447
330
1F
100
AcDbEntity
  8
001
 62
     3
370
    30
100
AcDbLine
 10
563.115046
 20
983.846663
 30
0.0
 11
518.115026
 21
983.846663
 31
0.0
  0
LINE
  5
448
330
1F
100
AcDbEntity
  8
001
 62
     3
370
    30
100
AcDbLine
 10
566.114916
 20
981.846863
 30
0.0
 11
515.115026
 21
981.846863
 31
0.0
  0
ARC
  5
449
330
1F
100
AcDbEntity
  8
001
 62
     3
370
    30
100
AcDbCircle
 10
540.614792
 20
997.846663
 30
0.0
 40
14.49999551758551
100
AcDbArc
 50
285.09015
 51
254.909881
  0
LINE
  5
44A
330
1F
100
AcDbEntity
  8
001
 62
     3
370
    30
100
AcDbLine
 10
529.645076
 20
997.846663
 30
0.0
 11
535.129942
 21
1007.346663
 31
0.0
  0
LINE
  5
44B
330
1F
100
AcDbEntity
  8
001
 62
     3
370
    30
100
AcDbLine
 10
535.129945
 20
988.346663
 30
0.0
 11
529.645126
 21
997.846663
 31
0.0
  0
CIRCLE
  5
44C
330
1F
100
AcDbEntity
  8
001
 62
     3
370
    30
100
AcDbCircle
 10
540.614792
 20
997.846663
 30
0.0
 40
8.999998
  0
LINE
  5
44D
330
1F
100
AcDbEntity
  8
001
 62
     3
370
    30
100
AcDbLine
 10
546.099556
 20
988.346663
 30
0.0
 11
551.584416
 21
997.846663
 31
0.0
  0
LINE
  5
44E
330
1F
100
AcDbEntity
  8
001
 62
     3
370
    30
100
AcDbLine
 10
535.129988
 20
988.346663
 30
0.0
 11
546.099596
 21
988.346663
 31
0.0
  0
LINE
  5
44F
330
1F
100
AcDbEntity
  8
001
 62
     3
370
    30
100
AcDbLine
 10
551.584306
 20
997.846563
 30
0.0
 11
546.09949
 21
1007.346563
 31
0.0
  0
LINE
  5
450
330
1F
100
AcDbEntity
  8
001
 62
     3
370
    30
100
AcDbLine
 10
535.129988
 20
1007.346663
 30
0.0
 11
546.099596
 21
1007.346663
 31
0.0
  0
CIRCLE
  5
451
330
1F
100
AcDbEntity
  8
001
 62
     3
370
    30
100
AcDbCircle
 10
540.614792
 20
997.846663
 30
0.0
 40
5.0
  0
LINE
  5
452
330
1F
100
AcDbEntity
  8
001
 62
     3
370
    30
100
AcDbLine
 10
445.615136
 20
1264.846763
 30
0.0
 11
445.615136
 21
972.046563
 31
0.0
  0
LINE
  5
453
330
1F
100
AcDbEntity
  8
001
 62
     3
370
    30
100
AcDbLine
 10
635.615186
 20
1264.846763
 30
0.0
 11
635.615186
 21
972.046563
 31
0.0
  0
LINE
  5
454
330
1F
100
AcDbEntity
  8
001
 62
     3
370
    30
100
AcDbLine
 10
353.114914
 20
921.846863
 30
0.0
 11
728.114914
 21
921.846863
 31
0.0
  0
LINE
  5
455
330
1F
100
AcDbEntity
  8
001
 62
     3
370
    30
100
AcDbLine
 10
353.114914
 20
971.846863
 30
0.0
 11
728.114914
 21
971.846863
 31
0.0
  0
CIRCLE
  5
456
330
1F
100
AcDbEntity
  8
001
 62
     3
370
    30
100
AcDbCircle
 10
540.61528
 20
1249.847063
 30
0.0
 40
6.0
  0
CIRCLE
  5
457
330
1F
100
AcDbEntity
  8
001
 62
     3
370
    30
100
AcDbCircle
 10
540.615036
 20
1165.847123
 30
0.0
 40
6.0
  0
CIRCLE
  5
458
330
1F
100
AcDbEntity
  8
001
 62
     3
370
    30
100
AcDbCircle
 10
540.615036
 20
1081.846603
 30
0.0
 40
6.0
  0
CIRCLE
  5
459
330
1F
100
AcDbEntity
  8
001
 62
     3
370
    30
100
AcDbCircle
 10
540.614792
 20
997.846663
 30
0.0
 40
6.0
  0
CIRCLE
  5
45A
330
1F
100
AcDbEntity
  8
001
 62
     3
370
    30
100
AcDbCircle
 10
540.614914
 20
2047.088207
 30
0.0
 40
53.21799
  0
CIRCLE
  5
45B
330
1F
100
AcDbEntity
  8
001
 62
     3
370
    30
100
AcDbCircle
 10
540.614914
 20
2047.088207
 30
0.0
 40
72.782
  0
ARC
  5
45C
330
1F
100
AcDbEntity
  8
001
 62
     3
370
    30
100
AcDbCircle
 10
540.614914
 20
2047.088207
 30
0.0
 40
95.0000078374781
100
AcDbArc
 50
284.437319
 51
255.562681
  0
CIRCLE
  5
45D
330
1F
100
AcDbEntity
  8
001
 62
     3
370
    30
100
AcDbCircle
 10
540.614914
 20
2047.088207
 30
0.0
 40
60.00001
  0
CIRCLE
  5
45E
330
1F
100
AcDbEntity
  8
001
 62
     3
370
    30
100
AcDbCircle
 10
540.614914
 20
2047.088207
 30
0.0
 40
66.00002
  0
ARC
  5
45F
330
1F
100
AcDbEntity
  8
001
 62
     3
370
    30
100
AcDbCircle
 10
579.222834
 20
1963.087207
 30
0.0
 40
32.99999999999999
100
AcDbArc
 50
270.0
 51
0.0
  0
LINE
  5
460
330
1F
100
AcDbEntity
  8
001
 62
     3
370
    30
100
AcDbLine
 10
612.222834
 20
1963.087207
 30
0.0
 11
612.222834
 21
1984.659407
 31
0.0
  0
LINE
  5
461
330
1F
100
AcDbEntity
  8
001
 62
     3
370
    30
100
AcDbLine
 10
579.222834
 20
1930.088207
 30
0.0
 11
563.114864
 21
1930.088207
 31
0.0
  0
LINE
  5
462
330
1F
100
AcDbEntity
  8
001
 62
     3
370
    30
100
AcDbLine
 10
563.114864
 20
1925.088107
 30
0.0
 11
563.114864
 21
1955.088207
 31
0.0
  0
LINE
  5
463
330
1F
100
AcDbEntity
  8
001
 62
     3
370
    30
100
AcDbLine
 10
563.114864
 20
1925.088207
 30
0.0
 11
518.114964
 21
1925.088207
 31
0.0
  0
LINE
  5
464
330
1F
100
AcDbEntity
  8
001
 62
     3
370
    30
100
AcDbLine
 10
518.114964
 20
1955.088207
 30
0.0
 11
518.114964
 21
1925.088107
 31
0.0
  0
LINE
  5
465
330
1F
100
AcDbEntity
  8
001
 62
     3
370
    30
100
AcDbLine
 10
564.300344
 20
1955.088307
 30
0.0
 11
516.929424
 21
1955.088307
 31
0.0
  0
LINE
  5
466
330
1F
100
AcDbEntity
  8
001
 62
     3
370
    30
100
AcDbLine
 10
518.114964
 20
1930.088207
 30
0.0
 11
502.006994
 21
1930.088207
 31
0.0
  0
ARC
  5
467
330
1F
100
AcDbEntity
  8
001
 62
     3
370
    30
100
AcDbCircle
 10
502.006994
 20
1963.087207
 30
0.0
 40
33.0
100
AcDbArc
 50
180.0
 51
270.0
  0
LINE
  5
468
330
1F
100
AcDbEntity
  8
001
 62
     3
370
    30
100
AcDbLine
 10
469.006994
 20
1984.659407
 30
0.0
 11
469.006994
 21
1963.087207
 31
0.0
  0
ARC
  5
469
330
1F
100
AcDbEntity
  8
001
  6
PHANTOM
 62
    40
370
     9
100
AcDbCircle
 10
540.614914
 20
2047.088307
 30
0.0
 40
130.0
100
AcDbArc
 50
225.0
 51
315.0
  0
LINE
  5
46A
330
1F
100
AcDbEntity
  8
001
 62
     3
370
    30
100
AcDbLine
 10
353.114914
 20
971.846863
 30
0.0
 11
353.114914
 21
921.846863
 31
0.0
  0
LINE
  5
46B
330
1F
100
AcDbEntity
  8
001
 62
     3
370
    30
100
AcDbLine
 10
728.114914
 20
921.846863
 30
0.0
 11
728.114914
 21
971.846863
 31
0.0
  0
CIRCLE
  5
46C
330
1F
100
AcDbEntity
  8
001
 62
     3
370
    30
100
AcDbCircle
 10
540.614914
 20
2047.088307
 30
0.0
 40
187.5
  0
LINE
  5
46D
330
1F
100
AcDbEntity
  8
001
  6
CENTER
 62
    40
370
     9
100
AcDbLine
 10
759.060514
 20
2047.088307
 30
0.0
 11
323.679188
 21
2047.088307
 31
0.0
  0
LINE
  5
46E
330
1F
100
AcDbEntity
  8
001
  6
CENTER
 62
    40
370
     9
100
AcDbLine
 10
540.614914
 20
1838.669626
 30
0.0
 11
540.614914
 21
2270.801837
 31
0.0
  0
CIRCLE
  5
46F
330
1F
100
AcDbEntity
  8
001
  6
CENTER
 62
    40
370
     9
100
AcDbCircle
 10
540.614914
 20
2047.088307
 30
0.0
 40
145.0
  0
CIRCLE
  5
470
330
1F
100
AcDbEntity
  8
001
 62
     3
370
    30
100
AcDbCircle
 10
666.188598
 20
2119.588307
 30
0.0
 40
19.5
  0
CIRCLE
  5
471
330
1F
100
AcDbEntity
  8
001
 62
     3
370
    30
100
AcDbCircle
 10
666.188598
 20
1974.588307
 30
0.0
 40
19.5
  0
CIRCLE
  5
472
330
1F
100
AcDbEntity
  8
001
 62
     3
370
    30
100
AcDbCircle
 10
415.041231
 20
2119.588307
 30
0.0
 40
19.5
  0
CIRCLE
  5
473
330
1F
100
AcDbEntity
  8
001
 62
     3
370
    30
100
AcDbCircle
 10
415.041231
 20
1974.588307
 30
0.0
 40
19.5
  0
LINE
  5
474
330
1F
100
AcDbEntity
  8
001
 62
    40
370
     9
100
AcDbLine
 10
593.832702
 20
1265.847063
 30
0.0
 11
593.832702
 21
1386.466074
 31
0.0
  0
LINE
  5
475
330
1F
100
AcDbEntity
  8
001
 62
     3
370
    30
100
AcDbLine
 10
600.614682
 20
1265.847063
 30
0.0
 11
600.614682
 21
1386.466074
 31
0.0
  0
LINE
  5
476
330
1F
100
AcDbEntity
  8
001
 62
    40
370
     9
100
AcDbLine
 10
487.396702
 20
1265.847063
 30
0.0
 11
487.396702
 21
1386.466074
 31
0.0
  0
LINE
  5
477
330
1F
100
AcDbEntity
  8
001
 62
     3
370
    30
100
AcDbLine
 10
480.614652
 20
1265.847063
 30
0.0
 11
480.614652
 21
1386.466074
 31
0.0
  0
LINE
  5
478
330
1F
100
AcDbEntity
  8
001
 62
     3
370
    30
100
AcDbLine
 10
590.614914
 20
1536.466074
 30
0.0
 11
490.614914
 21
1536.466074
 31
0.0
  0
LINE
  5
479
330
1F
100
AcDbEntity
  8
001
 62
     3
370
    30
100
AcDbLine
 10
490.614914
 20
1536.466074
 30
0.0
 11
490.614914
 21
1386.466074
 31
0.0
  0
LINE
  5
47A
330
1F
100
AcDbEntity
  8
001
 62
     3
370
    30
100
AcDbLine
 10
590.614914
 20
1536.466074
 30
0.0
 11
590.614914
 21
1386.466074
 31
0.0
  0
LINE
  5
47B
330
1F
100
AcDbEntity
  8
001
 62
     3
370
    30
100
AcDbLine
 10
480.614652
 20
1386.466074
 30
0.0
 11
600.614682
 21
1386.466074
 31
0.0
  0
LINE
  5
47C
330
1F
100
AcDbEntity
  8
001
  6
CENTER
 62
    40
370
     9
100
AcDbLine
 10
702.994677
 20
2140.838307
 30
0.0
 11
622.887291
 21
2094.588286
 31
0.0
  0
LINE
  5
47D
330
1F
100
AcDbEntity
  8
001
  6
CENTER
 62
    40
370
     9
100
AcDbLine
 10
458.342537
 20
2094.588286
 30
0.0
 11
378.235151
 21
2140.838307
 31
0.0
  0
LINE
  5
47E
330
1F
100
AcDbEntity
  8
001
  6
CENTER
 62
    40
370
     9
100
AcDbLine
 10
458.342451
 20
1999.588278
 30
0.0
 11
378.235151
 21
1953.338307
 31
0.0
  0
LINE
  5
47F
330
1F
100
AcDbEntity
  8
001
  6
CENTER
 62
    40
370
     9
100
AcDbLine
 10
702.994677
 20
1953.338307
 30
0.0
 11
622.887378
 21
1999.588278
 31
0.0
  0
LINE
  5
480
330
1F
100
AcDbEntity
  8
001
 62
     3
370
    30
100
AcDbLine
 10
2028.367033
 20
1047.907244
 30
0.0
 11
1893.367033
 21
1047.907244
 31
0.0
  0
LINE
  5
481
330
1F
100
AcDbEntity
  8
001
 62
     3
370
    30
100
AcDbLine
 10
2040.867033
 20
1072.907244
 30
0.0
 11
1880.867033
 21
1072.907244
 31
0.0
  0
LINE
  5
482
330
1F
100
AcDbEntity
  8
001
 62
    40
370
     9
100
AcDbLine
 10
1907.648821
 20
977.907244
 30
0.0
 11
1900.866771
 21
989.654099
 31
0.0
  0
LINE
  5
483
330
1F
100
AcDbEntity
  8
001
 62
     3
370
    30
100
AcDbLine
 10
2028.367033
 20
1047.907244
 30
0.0
 11
2028.367033
 21
1072.907244
 31
0.0
  0
LINE
  5
484
330
1F
100
AcDbEntity
  8
001
 62
     3
370
    30
100
AcDbLine
 10
1893.367033
 20
1047.907244
 30
0.0
 11
1893.367033
 21
1072.907244
 31
0.0
  0
LINE
  5
485
330
1F
100
AcDbEntity
  8
001
 62
     3
370
    30
100
AcDbLine
 10
1880.867033
 20
1072.907244
 30
0.0
 11
1880.867033
 21
1082.907244
 31
0.0
  0
LINE
  5
486
330
1F
100
AcDbEntity
  8
001
 62
    40
370
     9
100
AcDbLine
 10
2014.085245
 20
977.907244
 30
0.0
 11
2020.866801
 21
989.653243
 31
0.0
  0
LINE
  5
487
330
1F
100
AcDbEntity
  8
001
 62
     3
370
    30
100
AcDbLine
 10
2040.867033
 20
1072.907244
 30
0.0
 11
2040.867033
 21
1082.907244
 31
0.0
  0
LINE
  5
488
330
1F
100
AcDbEntity
  8
001
 62
     3
370
    30
100
AcDbLine
 10
2020.866801
 20
977.907244
 30
0.0
 11
1900.866771
 21
977.907244
 31
0.0
  0
LINE
  5
489
330
1F
100
AcDbEntity
  8
001
 62
     3
370
    30
100
AcDbLine
 10
2054.867235
 20
747.547488
 30
0.0
 11
2055.867265
 21
746.547388
 31
0.0
  0
LINE
  5
48A
330
1F
100
AcDbEntity
  8
001
 62
     3
370
    30
100
AcDbLine
 10
2055.867415
 20
453.747488
 30
0.0
 11
2055.667405
 21
453.547488
 31
0.0
  0
LINE
  5
48B
330
1F
100
AcDbEntity
  8
001
 62
     3
370
    30
100
AcDbLine
 10
1866.067025
 20
453.547288
 30
0.0
 11
1865.867005
 21
453.747288
 31
0.0
  0
LINE
  5
48C
330
1F
100
AcDbEntity
  8
001
 62
     3
370
    30
100
AcDbLine
 10
1866.867175
 20
747.547588
 30
0.0
 11
1865.866595
 21
746.546988
 31
0.0
  0
LINE
  5
48D
330
1F
100
AcDbEntity
  8
001
 62
     3
370
    30
100
AcDbLine
 10
1986.366915
 20
747.547588
 30
0.0
 11
1986.366915
 21
688.468608
 31
0.0
  0
LINE
  5
48E
330
1F
100
AcDbEntity
  8
001
 62
     3
370
    30
100
AcDbLine
 10
1986.366915
 20
659.071628
 30
0.0
 11
1986.366915
 21
604.469746
 31
0.0
  0
LINE
  5
48F
330
1F
100
AcDbEntity
  8
001
 62
     3
370
    30
100
AcDbLine
 10
1986.366915
 20
575.071668
 30
0.0
 11
1986.366915
 21
520.469478
 31
0.0
  0
LINE
  5
490
330
1F
100
AcDbEntity
  8
001
 62
     3
370
    30
100
AcDbLine
 10
1935.367025
 20
606.62563
 30
0.0
 11
1935.367025
 21
552.023138
 31
0.0
  0
LINE
  5
491
330
1F
100
AcDbEntity
  8
001
 62
     3
370
    30
100
AcDbLine
 10
1938.367145
 20
465.547988
 30
0.0
 11
1938.367145
 21
745.547888
 31
0.0
  0
LINE
  5
492
330
1F
100
AcDbEntity
  8
001
 62
     3
370
    30
100
AcDbLine
 10
1935.367025
 20
690.625588
 30
0.0
 11
1935.367025
 21
636.023708
 31
0.0
  0
LINE
  5
493
330
1F
100
AcDbEntity
  8
001
 62
     3
370
    30
100
AcDbLine
 10
1935.367025
 20
747.547588
 30
0.0
 11
1935.367025
 21
720.022488
 31
0.0
  0
LINE
  5
494
330
1F
100
AcDbEntity
  8
001
 62
     3
370
    30
100
AcDbLine
 10
1908.335555
 20
736.748388
 30
0.0
 11
1938.367195
 21
718.167588
 31
0.0
  0
LINE
  5
495
330
1F
100
AcDbEntity
  8
001
 62
     3
370
    30
100
AcDbLine
 10
2054.867425
 20
747.547688
 30
0.0
 11
1866.867375
 21
747.547688
 31
0.0
  0
LINE
  5
496
330
1F
100
AcDbEntity
  8
001
 62
     3
370
    30
100
AcDbLine
 10
1938.367145
 20
745.547888
 30
0.0
 11
1983.367165
 21
745.547888
 31
0.0
  0
LINE
  5
497
330
1F
100
AcDbEntity
  8
001
 62
     3
370
    30
100
AcDbLine
 10
1983.367165
 20
745.547388
 30
0.0
 11
1983.367165
 21
465.547488
 31
0.0
  0
LINE
  5
498
330
1F
100
AcDbEntity
  8
001
 62
     3
370
    30
100
AcDbLine
 10
2026.673525
 20
663.530838
 30
0.0
 11
1983.367095
 21
690.324778
 31
0.0
  0
LINE
  5
499
330
1F
100
AcDbEntity
  8
001
 62
     3
370
    30
100
AcDbLine
 10
2013.398685
 20
642.347088
 30
0.0
 11
1983.367045
 21
660.927848
 31
0.0
  0
ARC
  5
49A
330
1F
100
AcDbEntity
  8
001
 62
     3
370
    30
100
AcDbCircle
 10
2019.975565
 20
652.976898
 30
0.0
 40
12.50000561125074
100
AcDbArc
 50
238.254702
 51
57.599283
  0
LINE
  5
49B
330
1F
100
AcDbEntity
  8
001
 62
     3
370
    30
100
AcDbLine
 10
2026.673425
 20
579.530818
 30
0.0
 11
1983.366995
 21
606.324762
 31
0.0
  0
LINE
  5
49C
330
1F
100
AcDbEntity
  8
001
 62
     3
370
    30
100
AcDbLine
 10
2013.398665
 20
558.347058
 30
0.0
 11
1983.367015
 21
576.927818
 31
0.0
  0
ARC
  5
49D
330
1F
100
AcDbEntity
  8
001
 62
     3
370
    30
100
AcDbCircle
 10
2019.975565
 20
568.976938
 30
0.0
 40
12.50000561125074
100
AcDbArc
 50
238.254702
 51
57.599283
  0
ARC
  5
49E
330
1F
100
AcDbEntity
  8
001
 62
     3
370
    30
100
AcDbCircle
 10
1901.758745
 20
642.118438
 30
0.0
 40
12.50000561125074
100
AcDbArc
 50
58.254702
 51
237.599283
  0
LINE
  5
49F
330
1F
100
AcDbEntity
  8
001
 62
     3
370
    30
100
AcDbLine
 10
1895.060795
 20
631.564348
 30
0.0
 11
1938.367215
 21
604.770419
 31
0.0
  0
LINE
  5
4A0
330
1F
100
AcDbEntity
  8
001
 62
     3
370
    30
100
AcDbLine
 10
1908.335505
 20
652.747978
 30
0.0
 11
1938.367135
 21
634.167228
 31
0.0
  0
LINE
  5
4A1
330
1F
100
AcDbEntity
  8
001
 62
     3
370
    30
100
AcDbLine
 10
1908.335505
 20
568.748068
 30
0.0
 11
1938.367135
 21
550.167318
 31
0.0
  0
ARC
  5
4A2
330
1F
100
AcDbEntity
  8
001
 62
     3
370
    30
100
AcDbCircle
 10
1901.758745
 20
558.118478
 30
0.0
 40
12.50000561125074
100
AcDbArc
 50
58.254702
 51
237.599283
  0
LINE
  5
4A3
330
1F
100
AcDbEntity
  8
001
 62
     3
370
    30
100
AcDbLine
 10
1895.060785
 20
715.564588
 30
0.0
 11
1938.367215
 21
688.770608
 31
0.0
  0
ARC
  5
4A4
330
1F
100
AcDbEntity
  8
001
 62
     3
370
    30
100
AcDbCircle
 10
1901.758745
 20
726.118688
 30
0.0
 40
12.50007315702192
100
AcDbArc
 50
58.254606
 51
237.59948
  0
ARC
  5
4A5
330
1F
100
AcDbEntity
  8
001
 62
     3
370
    30
100
AcDbCircle
 10
1960.867399
 20
731.547888
 30
0.0
 40
14.49999733995317
100
AcDbArc
 50
105.090131
 51
74.909854
  0
LINE
  5
4A6
330
1F
100
AcDbEntity
  8
001
 62
     3
370
    30
100
AcDbLine
 10
1966.352193
 20
722.047888
 30
0.0
 11
1971.837055
 21
731.547988
 31
0.0
  0
CIRCLE
  5
4A7
330
1F
100
AcDbEntity
  8
001
 62
     3
370
    30
100
AcDbCircle
 10
1960.867399
 20
731.547888
 30
0.0
 40
8.999998
  0
LINE
  5
4A8
330
1F
100
AcDbEntity
  8
001
 62
     3
370
    30
100
AcDbLine
 10
1971.836955
 20
731.547888
 30
0.0
 11
1966.35212
 21
741.047888
 31
0.0
  0
LINE
  5
4A9
330
1F
100
AcDbEntity
  8
001
 62
     3
370
    30
100
AcDbLine
 10
1955.382595
 20
741.047888
 30
0.0
 11
1966.352203
 21
741.047888
 31
0.0
  0
LINE
  5
4AA
330
1F
100
AcDbEntity
  8
001
 62
     3
370
    30
100
AcDbLine
 10
1949.897715
 20
731.547888
 30
0.0
 11
1955.382583
 21
741.047988
 31
0.0
  0
LINE
  5
4AB
330
1F
100
AcDbEntity
  8
001
 62
     3
370
    30
100
AcDbLine
 10
1955.382485
 20
722.047888
 30
0.0
 11
1949.897645
 21
731.547888
 31
0.0
  0
LINE
  5
4AC
330
1F
100
AcDbEntity
  8
001
 62
     3
370
    30
100
AcDbLine
 10
1955.382595
 20
722.047888
 30
0.0
 11
1966.352203
 21
722.047888
 31
0.0
  0
CIRCLE
  5
4AD
330
1F
100
AcDbEntity
  8
001
 62
     3
370
    30
100
AcDbCircle
 10
1960.867399
 20
731.547888
 30
0.0
 40
5.0
  0
CIRCLE
  5
4AE
330
1F
100
AcDbEntity
  8
001
 62
     3
370
    30
100
AcDbCircle
 10
1960.867155
 20
647.547948
 30
0.0
 40
14.5
  0
LINE
  5
4AF
330
1F
100
AcDbEntity
  8
001
 62
     3
370
    30
100
AcDbLine
 10
1966.351955
 20
638.047928
 30
0.0
 11
1971.836825
 21
647.547998
 31
0.0
  0
LINE
  5
4B0
330
1F
100
AcDbEntity
  8
001
 62
     3
370
    30
100
AcDbLine
 10
1955.382351
 20
638.047938
 30
0.0
 11
1966.351959
 21
638.047938
 31
0.0
  0
LINE
  5
4B1
330
1F
100
AcDbEntity
  8
001
 62
     3
370
    30
100
AcDbLine
 10
1971.836755
 20
647.547948
 30
0.0
 11
1966.351922
 21
657.047968
 31
0.0
  0
LINE
  5
4B2
330
1F
100
AcDbEntity
  8
001
 62
     3
370
    30
100
AcDbLine
 10
1949.897475
 20
647.547928
 30
0.0
 11
1955.382343
 21
657.047988
 31
0.0
  0
LINE
  5
4B3
330
1F
100
AcDbEntity
  8
001
 62
     3
370
    30
100
AcDbLine
 10
1955.382351
 20
657.047948
 30
0.0
 11
1966.351959
 21
657.047948
 31
0.0
  0
CIRCLE
  5
4B4
330
1F
100
AcDbEntity
  8
001
 62
     3
370
    30
100
AcDbCircle
 10
1960.867155
 20
647.547948
 30
0.0
 40
8.999998
  0
LINE
  5
4B5
330
1F
100
AcDbEntity
  8
001
 62
     3
370
    30
100
AcDbLine
 10
1955.382279
 20
638.047958
 30
0.0
 11
1949.897445
 21
647.547968
 31
0.0
  0
CIRCLE
  5
4B6
330
1F
100
AcDbEntity
  8
001
 62
     3
370
    30
100
AcDbCircle
 10
1960.867155
 20
647.547948
 30
0.0
 40
5.0
  0
CIRCLE
  5
4B7
330
1F
100
AcDbEntity
  8
001
 62
     3
370
    30
100
AcDbCircle
 10
1960.867155
 20
563.547428
 30
0.0
 40
14.5
  0
LINE
  5
4B8
330
1F
100
AcDbEntity
  8
001
 62
     3
370
    30
100
AcDbLine
 10
1971.836735
 20
563.547438
 30
0.0
 11
1966.351904
 21
573.047448
 31
0.0
  0
CIRCLE
  5
4B9
330
1F
100
AcDbEntity
  8
001
 62
     3
370
    30
100
AcDbCircle
 10
1960.867155
 20
563.547428
 30
0.0
 40
8.999998
  0
CIRCLE
  5
4BA
330
1F
100
AcDbEntity
  8
001
 62
     3
370
    30
100
AcDbCircle
 10
1960.867155
 20
563.547428
 30
0.0
 40
5.0
  0
LINE
  5
4BB
330
1F
100
AcDbEntity
  8
001
 62
     3
370
    30
100
AcDbLine
 10
1966.351959
 20
554.047388
 30
0.0
 11
1971.836825
 21
563.547458
 31
0.0
  0
LINE
  5
4BC
330
1F
100
AcDbEntity
  8
001
 62
     3
370
    30
100
AcDbLine
 10
1955.382351
 20
573.047438
 30
0.0
 11
1966.351959
 21
573.047438
 31
0.0
  0
LINE
  5
4BD
330
1F
100
AcDbEntity
  8
001
 62
     3
370
    30
100
AcDbLine
 10
1949.897475
 20
563.547388
 30
0.0
 11
1955.382345
 21
573.047448
 31
0.0
  0
LINE
  5
4BE
330
1F
100
AcDbEntity
  8
001
 62
     3
370
    30
100
AcDbLine
 10
1955.382278
 20
554.047418
 30
0.0
 11
1949.897445
 21
563.547428
 31
0.0
  0
LINE
  5
4BF
330
1F
100
AcDbEntity
  8
001
 62
     3
370
    30
100
AcDbLine
 10
1955.382351
 20
554.047428
 30
0.0
 11
1966.351959
 21
554.047428
 31
0.0
  0
LINE
  5
4C0
330
1F
100
AcDbEntity
  8
001
 62
     3
370
    30
100
AcDbLine
 10
1895.060685
 20
547.564348
 30
0.0
 11
1938.367115
 21
520.770408
 31
0.0
  0
LINE
  5
4C1
330
1F
100
AcDbEntity
  8
001
 62
     3
370
    30
100
AcDbLine
 10
2013.398605
 20
474.346888
 30
0.0
 11
1983.366975
 21
492.927588
 31
0.0
  0
ARC
  5
4C2
330
1F
100
AcDbEntity
  8
001
 62
     3
370
    30
100
AcDbCircle
 10
2019.975505
 20
484.976688
 30
0.0
 40
12.49998872483092
100
AcDbArc
 50
238.254847
 51
57.599234
  0
LINE
  5
4C3
330
1F
100
AcDbEntity
  8
001
 62
     3
370
    30
100
AcDbLine
 10
2026.673365
 20
495.530588
 30
0.0
 11
1983.366945
 21
522.324548
 31
0.0
  0
LINE
  5
4C4
330
1F
100
AcDbEntity
  8
001
 62
     3
370
    30
100
AcDbLine
 10
1986.366915
 20
491.071488
 30
0.0
 11
1986.366915
 21
463.547588
 31
0.0
  0
LINE
  5
4C5
330
1F
100
AcDbEntity
  8
001
 62
     3
370
    30
100
AcDbLine
 10
1935.367025
 20
522.625118
 30
0.0
 11
1935.367025
 21
463.547588
 31
0.0
  0
LINE
  5
4C6
330
1F
100
AcDbEntity
  8
001
 62
     3
370
    30
100
AcDbLine
 10
1983.367165
 20
465.547488
 30
0.0
 11
1938.367145
 21
465.547488
 31
0.0
  0
LINE
  5
4C7
330
1F
100
AcDbEntity
  8
001
 62
     3
370
    30
100
AcDbLine
 10
1986.367035
 20
463.547688
 30
0.0
 11
1935.367145
 21
463.547688
 31
0.0
  0
ARC
  5
4C8
330
1F
100
AcDbEntity
  8
001
 62
     3
370
    30
100
AcDbCircle
 10
1960.866911
 20
479.547488
 30
0.0
 40
14.49999551758551
100
AcDbArc
 50
285.09015
 51
254.909881
  0
LINE
  5
4C9
330
1F
100
AcDbEntity
  8
001
 62
     3
370
    30
100
AcDbLine
 10
1949.897195
 20
479.547488
 30
0.0
 11
1955.382061
 21
489.047488
 31
0.0
  0
LINE
  5
4CA
330
1F
100
AcDbEntity
  8
001
 62
     3
370
    30
100
AcDbLine
 10
1955.382064
 20
470.047488
 30
0.0
 11
1949.897245
 21
479.547488
 31
0.0
  0
CIRCLE
  5
4CB
330
1F
100
AcDbEntity
  8
001
 62
     3
370
    30
100
AcDbCircle
 10
1960.866911
 20
479.547488
 30
0.0
 40
8.999998
  0
LINE
  5
4CC
330
1F
100
AcDbEntity
  8
001
 62
     3
370
    30
100
AcDbLine
 10
1966.351675
 20
470.047488
 30
0.0
 11
1971.836535
 21
479.547488
 31
0.0
  0
LINE
  5
4CD
330
1F
100
AcDbEntity
  8
001
 62
     3
370
    30
100
AcDbLine
 10
1955.382107
 20
470.047488
 30
0.0
 11
1966.351715
 21
470.047488
 31
0.0
  0
LINE
  5
4CE
330
1F
100
AcDbEntity
  8
001
 62
     3
370
    30
100
AcDbLine
 10
1971.836425
 20
479.547388
 30
0.0
 11
1966.351609
 21
489.047388
 31
0.0
  0
LINE
  5
4CF
330
1F
100
AcDbEntity
  8
001
 62
     3
370
    30
100
AcDbLine
 10
1955.382107
 20
489.047488
 30
0.0
 11
1966.351715
 21
489.047488
 31
0.0
  0
CIRCLE
  5
4D0
330
1F
100
AcDbEntity
  8
001
 62
     3
370
    30
100
AcDbCircle
 10
1960.866911
 20
479.547488
 30
0.0
 40
5.0
  0
LINE
  5
4D1
330
1F
100
AcDbEntity
  8
001
 62
     3
370
    30
100
AcDbLine
 10
1865.867255
 20
746.547588
 30
0.0
 11
1865.867255
 21
453.747388
 31
0.0
  0
LINE
  5
4D2
330
1F
100
AcDbEntity
  8
001
 62
     3
370
    30
100
AcDbLine
 10
2055.867305
 20
746.547588
 30
0.0
 11
2055.867305
 21
453.747388
 31
0.0
  0
LINE
  5
4D3
330
1F
100
AcDbEntity
  8
001
 62
     3
370
    30
100
AcDbLine
 10
1773.367033
 20
403.547688
 30
0.0
 11
2148.367033
 21
403.547688
 31
0.0
  0
LINE
  5
4D4
330
1F
100
AcDbEntity
  8
001
 62
     3
370
    30
100
AcDbLine
 10
1773.367033
 20
453.547688
 30
0.0
 11
2148.367033
 21
453.547688
 31
0.0
  0
CIRCLE
  5
4D5
330
1F
100
AcDbEntity
  8
001
 62
     3
370
    30
100
AcDbCircle
 10
1960.867399
 20
731.547888
 30
0.0
 40
6.0
  0
CIRCLE
  5
4D6
330
1F
100
AcDbEntity
  8
001
 62
     3
370
    30
100
AcDbCircle
 10
1960.867155
 20
647.547948
 30
0.0
 40
6.0
  0
CIRCLE
  5
4D7
330
1F
100
AcDbEntity
  8
001
 62
     3
370
    30
100
AcDbCircle
 10
1960.867155
 20
563.547428
 30
0.0
 40
6.0
  0
CIRCLE
  5
4D8
330
1F
100
AcDbEntity
  8
001
 62
     3
370
    30
100
AcDbCircle
 10
1960.866911
 20
479.547488
 30
0.0
 40
6.0
  0
LINE
  5
4D9
330
1F
100
AcDbEntity
  8
001
 62
     3
370
    30
100
AcDbLine
 10
1773.367033
 20
453.547688
 30
0.0
 11
1773.367033
 21
403.547688
 31
0.0
  0
LINE
  5
4DA
330
1F
100
AcDbEntity
  8
001
 62
     3
370
    30
100
AcDbLine
 10
2148.367033
 20
403.547688
 30
0.0
 11
2148.367033
 21
453.547688
 31
0.0
  0
LINE
  5
4DB
330
1F
100
AcDbEntity
  8
001
 62
    40
370
     9
100
AcDbLine
 10
2014.084821
 20
403.547488
 30
0.0
 11
2014.084821
 21
282.928477
 31
0.0
  0
LINE
  5
4DC
330
1F
100
AcDbEntity
  8
001
 62
     3
370
    30
100
AcDbLine
 10
2020.866801
 20
403.547488
 30
0.0
 11
2020.866801
 21
282.928477
 31
0.0
  0
LINE
  5
4DD
330
1F
100
AcDbEntity
  8
001
 62
    40
370
     9
100
AcDbLine
 10
1907.648821
 20
403.547488
 30
0.0
 11
1907.648821
 21
282.928477
 31
0.0
  0
LINE
  5
4DE
330
1F
100
AcDbEntity
  8
001
 62
     3
370
    30
100
AcDbLine
 10
1900.866771
 20
403.547488
 30
0.0
 11
1900.866771
 21
282.928477
 31
0.0
  0
LINE
  5
4DF
330
1F
100
AcDbEntity
  8
001
 62
     3
370
    30
100
AcDbLine
 10
2010.867033
 20
132.928477
 30
0.0
 11
1910.867033
 21
132.928477
 31
0.0
  0
LINE
  5
4E0
330
1F
100
AcDbEntity
  8
001
 62
     3
370
    30
100
AcDbLine
 10
1910.867033
 20
132.928477
 30
0.0
 11
1910.867033
 21
282.928477
 31
0.0
  0
LINE
  5
4E1
330
1F
100
AcDbEntity
  8
001
 62
     3
370
    30
100
AcDbLine
 10
2010.867033
 20
132.928477
 30
0.0
 11
2010.867033
 21
282.928477
 31
0.0
  0
LINE
  5
4E2
330
1F
100
AcDbEntity
  8
001
 62
     3
370
    30
100
AcDbLine
 10
1900.866771
 20
282.928477
 30
0.0
 11
2020.866801
 21
282.928477
 31
0.0
  0
LINE
  5
4E3
330
1F
100
AcDbEntity
  8
002
 62
     3
370
    30
100
AcDbLine
 10
1095.614914
 20
686.487307
 30
0.0
 11
1095.614914
 21
676.487307
 31
0.0
  0
LINE
  5
4E4
330
1F
100
AcDbEntity
  8
002
 62
     3
370
    30
100
AcDbLine
 10
1095.614914
 20
676.487307
 30
0.0
 11
1090.791914
 21
658.487307
 31
0.0
  0
LINE
  5
4E5
330
1F
100
AcDbEntity
  8
002
 62
     3
370
    30
100
AcDbLine
 10
1086.531914
 20
658.487307
 30
0.0
 11
1119.531914
 21
658.487307
 31
0.0
  0
LINE
  5
4E6
330
1F
100
AcDbEntity
  8
002
 62
     3
370
    30
100
AcDbLine
 10
1119.531914
 20
658.487307
 30
0.0
 11
1119.531914
 21
636.487307
 31
0.0
  0
LINE
  5
4E7
330
1F
100
AcDbEntity
  8
002
 62
     3
370
    30
100
AcDbLine
 10
1119.531914
 20
638.487307
 30
0.0
 11
1170.585914
 21
638.487307
 31
0.0
  0
LINE
  5
4E8
330
1F
100
AcDbEntity
  8
002
 62
     3
370
    30
100
AcDbLine
 10
1170.585914
 20
636.487307
 30
0.0
 11
1170.585914
 21
658.487307
 31
0.0
  0
LINE
  5
4E9
330
1F
100
AcDbEntity
  8
002
 62
     3
370
    30
100
AcDbLine
 10
1170.585914
 20
658.487307
 30
0.0
 11
1203.585914
 21
658.487307
 31
0.0
  0
LINE
  5
4EA
330
1F
100
AcDbEntity
  8
002
 62
     3
370
    30
100
AcDbLine
 10
1203.585914
 20
658.487307
 30
0.0
 11
1203.585914
 21
636.487307
 31
0.0
  0
LINE
  5
4EB
330
1F
100
AcDbEntity
  8
002
 62
     3
370
    30
100
AcDbLine
 10
1203.585914
 20
638.487307
 30
0.0
 11
1267.642914
 21
638.487307
 31
0.0
  0
LINE
  5
4EC
330
1F
100
AcDbEntity
  8
002
 62
     3
370
    30
100
AcDbLine
 10
1267.642914
 20
636.487307
 30
0.0
 11
1267.642914
 21
658.487307
 31
0.0
  0
LINE
  5
4ED
330
1F
100
AcDbEntity
  8
002
 62
     3
370
    30
100
AcDbLine
 10
1267.642914
 20
658.487307
 30
0.0
 11
1300.642914
 21
658.487307
 31
0.0
  0
LINE
  5
4EE
330
1F
100
AcDbEntity
  8
002
 62
     3
370
    30
100
AcDbLine
 10
1300.642914
 20
658.487307
 30
0.0
 11
1300.642914
 21
636.487307
 31
0.0
  0
LINE
  5
4EF
330
1F
100
AcDbEntity
  8
002
 62
     3
370
    30
100
AcDbLine
 10
1300.642914
 20
638.487307
 30
0.0
 11
1351.696914
 21
638.487307
 31
0.0
  0
LINE
  5
4F0
330
1F
100
AcDbEntity
  8
002
 62
     3
370
    30
100
AcDbLine
 10
1351.696914
 20
636.487307
 30
0.0
 11
1351.696914
 21
658.487307
 31
0.0
  0
LINE
  5
4F1
330
1F
100
AcDbEntity
  8
002
 62
     3
370
    30
100
AcDbLine
 10
1351.696914
 20
658.487307
 30
0.0
 11
1384.696914
 21
658.487307
 31
0.0
  0
LINE
  5
4F2
330
1F
100
AcDbEntity
  8
002
 62
     3
370
    30
100
AcDbLine
 10
1380.437914
 20
658.487307
 30
0.0
 11
1375.614914
 21
676.487307
 31
0.0
  0
LINE
  5
4F3
330
1F
100
AcDbEntity
  8
002
 62
     3
370
    30
100
AcDbLine
 10
1375.614914
 20
676.487307
 30
0.0
 11
1375.614914
 21
686.487307
 31
0.0
  0
LINE
  5
4F4
330
1F
100
AcDbEntity
  8
002
 62
     3
370
    30
100
AcDbLine
 10
1384.696914
 20
658.487307
 30
0.0
 11
1384.696914
 21
636.487307
 31
0.0
  0
LINE
  5
4F5
330
1F
100
AcDbEntity
  8
002
 62
     3
370
    30
100
AcDbLine
 10
1384.696914
 20
638.487307
 30
0.0
 11
1398.114914
 21
638.487307
 31
0.0
  0
LINE
  5
4F6
330
1F
100
AcDbEntity
  8
002
 62
     3
370
    30
100
AcDbLine
 10
1398.114914
 20
638.487307
 30
0.0
 11
1398.114914
 21
636.487307
 31
0.0
  0
LINE
  5
4F7
330
1F
100
AcDbEntity
  8
002
 62
     3
370
    30
100
AcDbLine
 10
1400.225914
 20
636.487307
 30
0.0
 11
1400.225914
 21
658.487307
 31
0.0
  0
LINE
  5
4F8
330
1F
100
AcDbEntity
  8
002
 62
     3
370
    30
100
AcDbLine
 10
1400.225914
 20
658.487307
 30
0.0
 11
1433.225914
 21
658.487307
 31
0.0
  0
LINE
  5
4F9
330
1F
100
AcDbEntity
  8
002
 62
     3
370
    30
100
AcDbLine
 10
1433.225914
 20
658.487307
 30
0.0
 11
1433.225914
 21
636.487307
 31
0.0
  0
LINE
  5
4FA
330
1F
100
AcDbEntity
  8
002
 62
     3
370
    30
100
AcDbLine
 10
1448.114914
 20
636.487307
 30
0.0
 11
1448.114914
 21
580.362307
 31
0.0
  0
ARC
  5
4FB
330
1F
100
AcDbEntity
  8
002
 62
     3
370
    30
100
AcDbCircle
 10
1463.114914
 20
580.362307
 30
0.0
 40
14.9998395324751
100
AcDbArc
 50
180.0
 51
223.530507
  0
LINE
  5
4FC
330
1F
100
AcDbEntity
  8
002
 62
     3
370
    30
100
AcDbLine
 10
1463.071914
 20
559.987307
 30
0.0
 11
1465.669914
 21
561.487307
 31
0.0
  0
LINE
  5
4FD
330
1F
100
AcDbEntity
  8
002
 62
     3
370
    30
100
AcDbLine
 10
1465.669914
 20
561.487307
 30
0.0
 11
1469.649914
 21
560.421307
 31
0.0
  0
ARC
  5
4FE
330
1F
100
AcDbEntity
  8
002
 62
     3
370
    30
100
AcDbCircle
 10
1469.908914
 20
561.387307
 30
0.0
 40
1.00029445664738
100
AcDbArc
 50
254.991086
 51
331.974684
  0
LINE
  5
4FF
330
1F
100
AcDbEntity
  8
002
 62
     3
370
    30
100
AcDbLine
 10
1470.791914
 20
560.917307
 30
0.0
 11
1471.261914
 21
561.802307
 31
0.0
  0
LINE
  5
500
330
1F
100
AcDbEntity
  8
002
 62
     3
370
    30
100
AcDbLine
 10
1471.261914
 20
561.802307
 30
0.0
 11
1474.234914
 21
562.652307
 31
0.0
  0
LINE
  5
501
330
1F
100
AcDbEntity
  8
002
 62
     3
370
    30
100
AcDbLine
 10
1474.234914
 20
562.652307
 30
0.0
 11
1476.734914
 21
558.322307
 31
0.0
  0
LINE
  5
502
330
1F
100
AcDbEntity
  8
002
 62
     3
370
    30
100
AcDbLine
 10
1476.734914
 20
558.322307
 30
0.0
 11
1474.511914
 21
556.173307
 31
0.0
  0
LINE
  5
503
330
1F
100
AcDbEntity
  8
002
 62
     3
370
    30
100
AcDbLine
 10
1474.511914
 20
556.173307
 30
0.0
 11
1473.510914
 21
556.208307
 31
0.0
  0
ARC
  5
504
330
1F
100
AcDbEntity
  8
002
 62
     3
370
    30
100
AcDbCircle
 10
1473.475914
 20
555.208307
 30
0.0
 40
1.000118492979609
100
AcDbArc
 50
87.995466
 51
164.991086
  0
LINE
  5
505
330
1F
100
AcDbEntity
  8
002
 62
     3
370
    30
100
AcDbLine
 10
1472.509914
 20
555.467307
 30
0.0
 11
1471.443914
 21
551.487307
 31
0.0
  0
LINE
  5
506
330
1F
100
AcDbEntity
  8
002
 62
     3
370
    30
100
AcDbLine
 10
1471.443914
 20
551.487307
 30
0.0
 11
1468.845914
 21
549.987307
 31
0.0
  0
LINE
  5
507
330
1F
100
AcDbEntity
  8
002
 62
     3
370
    30
100
AcDbLine
 10
1468.845914
 20
549.987307
 30
0.0
 11
1467.611914
 21
550.318307
 31
0.0
  0
LINE
  5
508
330
1F
100
AcDbEntity
  8
002
 62
     3
370
    30
100
AcDbLine
 10
1468.063914
 20
550.197307
 30
0.0
 11
1466.782914
 21
549.560307
 31
0.0
  0
LINE
  5
509
330
1F
100
AcDbEntity
  8
002
 62
     3
370
    30
100
AcDbLine
 10
1467.235914
 20
550.776307
 30
0.0
 11
1462.949914
 21
558.199307
 31
0.0
  0
ARC
  5
50A
330
1F
100
AcDbEntity
  8
002
 62
     3
370
    30
100
AcDbCircle
 10
1464.261914
 20
559.008307
 30
0.0
 40
1.541898180814713
100
AcDbArc
 50
189.486771
 51
279.443995
  0
ARC
  5
50B
330
1F
100
AcDbEntity
  8
002
 62
     3
370
    30
100
AcDbCircle
 10
1469.133914
 20
556.821307
 30
0.0
 40
4.667266866164868
100
AcDbArc
 50
171.795237
 51
248.216827
  0
ARC
  5
50C
330
1F
100
AcDbEntity
  8
002
 62
     3
370
    30
100
AcDbCircle
 10
1468.591914
 20
551.508307
 30
0.0
 40
1.541590088188221
100
AcDbArc
 50
140.556242
 51
230.52754
  0
LINE
  5
50D
330
1F
100
AcDbEntity
  8
002
 62
     3
370
    30
100
AcDbLine
 10
1467.401914
 20
552.487307
 30
0.0
 11
1469.999914
 21
553.987307
 31
0.0
  0
ARC
  5
50E
330
1F
100
AcDbEntity
  8
002
 62
     3
370
    30
100
AcDbCircle
 10
1465.380914
 20
554.654307
 30
0.0
 40
4.666709547422012
100
AcDbArc
 50
351.783086
 51
68.20087
  0
LINE
  5
50F
330
1F
100
AcDbEntity
  8
002
 62
     3
370
    30
100
AcDbLine
 10
1467.113914
 20
558.987307
 30
0.0
 11
1464.514914
 21
557.487307
 31
0.0
  0
LINE
  5
510
330
1F
100
AcDbEntity
  8
002
 62
     3
370
    30
100
AcDbLine
 10
1462.741914
 20
558.754307
 30
0.0
 11
1463.071914
 21
559.987307
 31
0.0
  0
LINE
  5
511
330
1F
100
AcDbEntity
  8
002
 62
     3
370
    30
100
AcDbLine
 10
1462.862914
 20
559.206307
 30
0.0
 11
1461.670914
 21
558.415307
 31
0.0
  0
ARC
  5
512
330
1F
100
AcDbEntity
  8
002
 62
     3
370
    30
100
AcDbCircle
 10
1465.923914
 20
559.967307
 30
0.0
 40
1.540954574282012
100
AcDbArc
 50
320.52754
 51
50.556242
  0
LINE
  5
513
330
1F
100
AcDbEntity
  8
002
 62
     3
370
    30
100
AcDbLine
 10
1470.417914
 20
560.215307
 30
0.0
 11
1472.715914
 21
556.236307
 31
0.0
  0
LINE
  5
514
330
1F
100
AcDbEntity
  8
002
 62
     3
370
    30
100
AcDbLine
 10
1474.136914
 20
556.822307
 30
0.0
 11
1471.636914
 21
561.152307
 31
0.0
  0
ARC
  5
515
330
1F
100
AcDbEntity
  8
002
 62
     3
370
    30
100
AcDbCircle
 10
1474.911914
 20
560.157307
 30
0.0
 40
0.9998019803938861
100
AcDbArc
 50
341.402022
 51
78.577679
  0
ARC
  5
516
330
1F
100
AcDbEntity
  8
002
 62
     3
370
    30
100
AcDbCircle
 10
1470.253914
 20
552.467307
 30
0.0
 40
1.541076247302481
100
AcDbArc
 50
9.450097
 51
99.486771
  0
LINE
  5
517
330
1F
100
AcDbEntity
  8
002
 62
     3
370
    30
100
AcDbLine
 10
1474.322914
 20
526.247307
 30
0.0
 11
1493.254914
 21
418.883307
 31
0.0
  0
ARC
  5
518
330
1F
100
AcDbEntity
  8
002
 62
     3
370
    30
100
AcDbCircle
 10
1508.026914
 20
421.487307
 30
0.0
 40
15.0
100
AcDbArc
 50
189.997359
 51
270.0
  0
LINE
  5
519
330
1F
100
AcDbEntity
  8
002
 62
     3
370
    30
100
AcDbLine
 10
1475.614914
 20
421.487307
 30
0.0
 11
1475.614914
 21
511.487307
 31
0.0
  0
CIRCLE
  5
51A
330
1F
100
AcDbEntity
  8
002
 62
     3
370
    30
100
AcDbCircle
 10
1390.614914
 20
511.487307
 30
0.0
 40
85.0
  0
CIRCLE
  5
51B
330
1F
100
AcDbEntity
  8
002
 62
     3
370
    30
100
AcDbCircle
 10
1390.614914
 20
511.487307
 30
0.0
 40
52.5
  0
CIRCLE
  5
51C
330
1F
100
AcDbEntity
  8
002
 62
     3
370
    30
100
AcDbCircle
 10
1390.614914
 20
511.487307
 30
0.0
 40
39.0
  0
CIRCLE
  5
51D
330
1F
100
AcDbEntity
  8
002
 62
     3
370
    30
100
AcDbCircle
 10
1390.614914
 20
511.487307
 30
0.0
 40
36.0
  0
LINE
  5
51E
330
1F
100
AcDbEntity
  8
002
 62
     3
370
    30
100
AcDbLine
 10
1448.114914
 20
606.487307
 30
0.0
 11
1023.114914
 21
606.487307
 31
0.0
  0
ARC
  5
51F
330
1F
100
AcDbEntity
  8
002
 62
     3
370
    30
100
AcDbCircle
 10
1038.114914
 20
577.997307
 30
0.0
 40
14.99973146426291
100
AcDbArc
 50
180.0
 51
232.890219
  0
LINE
  5
520
330
1F
100
AcDbEntity
  8
002
 62
     3
370
    30
100
AcDbLine
 10
1036.789914
 20
566.487307
 30
0.0
 11
1314.375914
 21
566.487307
 31
0.0
  0
ARC
  5
521
330
1F
100
AcDbEntity
  8
002
 62
     3
370
    30
100
AcDbCircle
 10
1314.375914
 20
561.487307
 30
0.0
 40
5.0
100
AcDbArc
 50
0.0
 51
90.0
  0
LINE
  5
522
330
1F
100
AcDbEntity
  8
002
 62
     3
370
    30
100
AcDbLine
 10
1312.410914
 20
556.439307
 30
0.0
 11
1278.957914
 21
556.439307
 31
0.0
  0
ARC
  5
523
330
1F
100
AcDbEntity
  8
002
 62
     3
370
    30
100
AcDbCircle
 10
1275.614914
 20
553.487307
 30
0.0
 40
5.0
100
AcDbArc
 50
90.0
 51
180.0
  0
LINE
  5
524
330
1F
100
AcDbEntity
  8
002
 62
     3
370
    30
100
AcDbLine
 10
1270.614914
 20
553.487307
 30
0.0
 11
1270.614914
 21
511.487307
 31
0.0
  0
CIRCLE
  5
525
330
1F
100
AcDbEntity
  8
002
 62
     3
370
    30
100
AcDbCircle
 10
1235.614914
 20
511.487307
 30
0.0
 40
24.12025
  0
LINE
  5
526
330
1F
100
AcDbEntity
  8
002
 62
     3
370
    30
100
AcDbLine
 10
1248.614914
 20
524.487307
 30
0.0
 11
1222.614914
 21
524.487307
 31
0.0
  0
LINE
  5
527
330
1F
100
AcDbEntity
  8
002
 62
     3
370
    30
100
AcDbLine
 10
1222.614914
 20
524.487307
 30
0.0
 11
1222.614914
 21
498.487307
 31
0.0
  0
LINE
  5
528
330
1F
100
AcDbEntity
  8
002
 62
     3
370
    30
100
AcDbLine
 10
1222.614914
 20
498.487307
 30
0.0
 11
1248.614914
 21
498.487307
 31
0.0
  0
LINE
  5
529
330
1F
100
AcDbEntity
  8
002
 62
     3
370
    30
100
AcDbLine
 10
1248.614914
 20
498.487307
 30
0.0
 11
1248.614914
 21
524.487307
 31
0.0
  0
ARC
  5
52A
330
1F
100
AcDbEntity
  8
002
 62
     3
370
    30
100
AcDbCircle
 10
1235.614914
 20
511.487307
 30
0.0
 40
35.00000000000023
100
AcDbArc
 50
180.0
 51
0.0
  0
LINE
  5
52B
330
1F
100
AcDbEntity
  8
002
 62
     3
370
    30
100
AcDbLine
 10
1305.614914
 20
511.487307
 30
0.0
 11
1305.614914
 21
421.487307
 31
0.0
  0
ARC
  5
52C
330
1F
100
AcDbEntity
  8
002
 62
     3
370
    30
100
AcDbCircle
 10
1290.614914
 20
421.487307
 30
0.0
 40
15.0
100
AcDbArc
 50
270.0
 51
0.0
  0
ARC
  5
52D
330
1F
100
AcDbEntity
  8
002
 62
     3
370
    30
100
AcDbCircle
 10
1490.614914
 20
421.487307
 30
0.0
 40
15.0
100
AcDbArc
 50
180.0
 51
270.0
  0
LINE
  5
52E
330
1F
100
AcDbEntity
  8
002
 62
     3
370
    30
100
AcDbLine
 10
1575.614914
 20
406.487307
 30
0.0
 11
990.614914
 21
406.487307
 31
0.0
  0
LINE
  5
52F
330
1F
100
AcDbEntity
  8
002
 62
     3
370
    30
100
AcDbLine
 10
985.614914
 20
371.487307
 30
0.0
 11
1580.614914
 21
371.487307
 31
0.0
  0
LINE
  5
530
330
1F
100
AcDbEntity
  8
002
 62
     3
370
    30
100
AcDbLine
 10
1580.614914
 20
371.487307
 30
0.0
 11
1580.614914
 21
401.487307
 31
0.0
  0
ARC
  5
531
330
1F
100
AcDbEntity
  8
002
 62
     3
370
    30
100
AcDbCircle
 10
1575.614914
 20
401.487307
 30
0.0
 40
5.0
100
AcDbArc
 50
0.0
 51
90.0
  0
LINE
  5
532
330
1F
100
AcDbEntity
  8
002
 62
     3
370
    30
100
AcDbLine
 10
1350.614914
 20
371.487307
 30
0.0
 11
1350.614914
 21
361.487307
 31
0.0
  0
LINE
  5
533
330
1F
100
AcDbEntity
  8
002
 62
     3
370
    30
100
AcDbLine
 10
1350.614914
 20
361.487307
 30
0.0
 11
1120.614914
 21
361.487307
 31
0.0
  0
LINE
  5
534
330
1F
100
AcDbEntity
  8
002
 62
     3
370
    30
100
AcDbLine
 10
1120.614914
 20
361.487307
 30
0.0
 11
1120.614914
 21
371.487307
 31
0.0
  0
LINE
  5
535
330
1F
100
AcDbEntity
  8
002
 62
     3
370
    30
100
AcDbLine
 10
1314.324914
 20
361.487307
 30
0.0
 11
1314.324914
 21
351.487307
 31
0.0
  0
LINE
  5
536
330
1F
100
AcDbEntity
  8
002
 62
     3
370
    30
100
AcDbLine
 10
1298.324914
 20
351.487307
 30
0.0
 11
1314.324914
 21
351.487307
 31
0.0
  0
LINE
  5
537
330
1F
100
AcDbEntity
  8
002
 62
     3
370
    30
100
AcDbLine
 10
1298.324914
 20
351.487307
 30
0.0
 11
1298.324914
 21
361.487307
 31
0.0
  0
LINE
  5
538
330
1F
100
AcDbEntity
  8
002
 62
     3
370
    30
100
AcDbLine
 10
1348.557914
 20
585.354307
 30
0.0
 11
1348.557914
 21
591.057307
 31
0.0
  0
ARC
  5
539
330
1F
100
AcDbEntity
  8
002
 62
     3
370
    30
100
AcDbCircle
 10
1390.614914
 20
511.487307
 30
0.0
 40
89.99997289444039
100
AcDbArc
 50
117.858847
 51
142.3301
  0
LINE
  5
53A
330
1F
100
AcDbEntity
  8
002
 62
     3
370
    30
100
AcDbLine
 10
1086.531914
 20
658.487307
 30
0.0
 11
1086.531914
 21
636.487307
 31
0.0
  0
LINE
  5
53B
330
1F
100
AcDbEntity
  8
002
 62
     3
370
    30
100
AcDbLine
 10
1086.531914
 20
638.487307
 30
0.0
 11
1073.114914
 21
638.487307
 31
0.0
  0
LINE
  5
53C
330
1F
100
AcDbEntity
  8
002
 62
     3
370
    30
100
AcDbLine
 10
1073.114914
 20
638.487307
 30
0.0
 11
1073.114914
 21
636.487307
 31
0.0
  0
ARC
  5
53D
330
1F
100
AcDbEntity
  8
002
 62
     3
370
    30
100
AcDbCircle
 10
1073.154914
 20
654.487307
 30
0.0
 40
15.99991915604573
100
AcDbArc
 50
270.0
 51
326.727077
  0
LINE
  5
53E
330
1F
100
AcDbEntity
  8
002
 62
     3
370
    30
100
AcDbLine
 10
1071.003914
 20
636.487307
 30
0.0
 11
1071.003914
 21
658.487307
 31
0.0
  0
LINE
  5
53F
330
1F
100
AcDbEntity
  8
002
 62
     3
370
    30
100
AcDbLine
 10
1038.003914
 20
658.487307
 30
0.0
 11
1071.003914
 21
658.487307
 31
0.0
  0
LINE
  5
540
330
1F
100
AcDbEntity
  8
002
 62
     3
370
    30
100
AcDbLine
 10
1038.003914
 20
658.487307
 30
0.0
 11
1038.003914
 21
636.487307
 31
0.0
  0
LINE
  5
541
330
1F
100
AcDbEntity
  8
002
 62
     3
370
    30
100
AcDbLine
 10
1023.114914
 20
636.487307
 30
0.0
 11
1023.114914
 21
577.997307
 31
0.0
  0
LINE
  5
542
330
1F
100
AcDbEntity
  8
002
 62
     3
370
    30
100
AcDbLine
 10
1036.789914
 20
562.823307
 30
0.0
 11
1066.382914
 21
554.894307
 31
0.0
  0
LINE
  5
543
330
1F
100
AcDbEntity
  8
002
 62
     3
370
    30
100
AcDbLine
 10
1077.500914
 20
556.439307
 30
0.0
 11
1192.513914
 21
556.439307
 31
0.0
  0
LINE
  5
544
330
1F
100
AcDbEntity
  8
002
 62
     3
370
    30
100
AcDbLine
 10
1200.614914
 20
553.487307
 30
0.0
 11
1200.614914
 21
511.487307
 31
0.0
  0
ARC
  5
545
330
1F
100
AcDbEntity
  8
002
 62
     3
370
    30
100
AcDbCircle
 10
1195.614914
 20
553.487307
 30
0.0
 40
5.0
100
AcDbArc
 50
0.0
 51
90.0
  0
LINE
  5
546
330
1F
100
AcDbEntity
  8
002
 62
     3
370
    30
100
AcDbLine
 10
1077.500914
 20
540.405307
 30
0.0
 11
1077.500914
 21
421.487307
 31
0.0
  0
ARC
  5
547
330
1F
100
AcDbEntity
  8
002
 62
     3
370
    30
100
AcDbCircle
 10
1062.500914
 20
421.487307
 30
0.0
 40
15.0
100
AcDbArc
 50
270.0
 51
0.0
  0
LINE
  5
548
330
1F
100
AcDbEntity
  8
002
 62
     3
370
    30
100
AcDbLine
 10
1011.408914
 20
418.883307
 30
0.0
 11
1034.787914
 21
551.467307
 31
0.0
  0
ARC
  5
549
330
1F
100
AcDbEntity
  8
002
 62
     3
370
    30
100
AcDbCircle
 10
1020.015914
 20
554.072307
 30
0.0
 40
14.99992566648244
100
AcDbArc
 50
349.99888
 51
52.89557
  0
ARC
  5
54A
330
1F
100
AcDbEntity
  8
002
 62
     3
370
    30
100
AcDbCircle
 10
1062.500914
 20
540.405307
 30
0.0
 40
15.00003483329288
100
AcDbArc
 50
0.0
 51
75.001165
  0
LINE
  5
54B
330
1F
100
AcDbEntity
  8
002
 62
     3
370
    30
100
AcDbLine
 10
1023.114914
 20
636.487307
 30
0.0
 11
1448.114914
 21
636.487307
 31
0.0
  0
ARC
  5
54C
330
1F
100
AcDbEntity
  8
002
 62
     3
370
    30
100
AcDbCircle
 10
1398.073914
 20
654.487307
 30
0.0
 40
16.0
100
AcDbArc
 50
213.272923
 51
270.0
  0
LINE
  5
54D
330
1F
100
AcDbEntity
  8
002
 62
     3
370
    30
100
AcDbLine
 10
1172.903914
 20
351.487307
 30
0.0
 11
1172.903914
 21
361.487307
 31
0.0
  0
LINE
  5
54E
330
1F
100
AcDbEntity
  8
002
 62
     3
370
    30
100
AcDbLine
 10
1156.903914
 20
351.487307
 30
0.0
 11
1172.903914
 21
351.487307
 31
0.0
  0
LINE
  5
54F
330
1F
100
AcDbEntity
  8
002
 62
     3
370
    30
100
AcDbLine
 10
1156.903914
 20
351.487307
 30
0.0
 11
1156.903914
 21
361.487307
 31
0.0
  0
ARC
  5
550
330
1F
100
AcDbEntity
  8
002
 62
     3
370
    30
100
AcDbCircle
 10
996.636914
 20
421.487307
 30
0.0
 40
14.99975999807991
100
AcDbArc
 50
270.0
 51
350.002641
  0
LINE
  5
551
330
1F
100
AcDbEntity
  8
002
 62
    40
370
    30
100
AcDbLine
 10
1467.339914
 20
549.837307
 30
0.0
 11
1466.464914
 21
550.071307
 31
0.0
  0
LINE
  5
552
330
1F
100
AcDbEntity
  8
002
 62
    40
370
    30
100
AcDbLine
 10
1462.188914
 20
558.759307
 30
0.0
 11
1461.954914
 21
557.884307
 31
0.0
  0
LINE
  5
553
330
1F
100
AcDbEntity
  8
002
  6
CENTER
 62
    40
370
     9
100
AcDbLine
 10
1416.725914
 20
602.406307
 30
0.0
 11
1416.725914
 21
668.503307
 31
0.0
  0
LINE
  5
554
330
1F
100
AcDbEntity
  8
002
  6
CENTER
 62
    40
370
     9
100
AcDbLine
 10
1368.196914
 20
668.503307
 30
0.0
 11
1368.196914
 21
602.406307
 31
0.0
  0
LINE
  5
555
330
1F
100
AcDbEntity
  8
002
  6
CENTER
 62
    40
370
     9
100
AcDbLine
 10
1284.142914
 20
602.406307
 30
0.0
 11
1284.142914
 21
668.503307
 31
0.0
  0
LINE
  5
556
330
1F
100
AcDbEntity
  8
002
  6
CENTER
 62
    40
370
     9
100
AcDbLine
 10
1187.085914
 20
668.503307
 30
0.0
 11
1187.085914
 21
602.406307
 31
0.0
  0
LINE
  5
557
330
1F
100
AcDbEntity
  8
002
  6
CENTER
 62
    40
370
     9
100
AcDbLine
 10
1103.031914
 20
602.406307
 30
0.0
 11
1103.031914
 21
668.503307
 31
0.0
  0
LINE
  5
558
330
1F
100
AcDbEntity
  8
002
  6
CENTER
 62
    40
370
     9
100
AcDbLine
 10
1054.503914
 20
668.503307
 30
0.0
 11
1054.503914
 21
602.406307
 31
0.0
  0
LINE
  5
559
330
1F
100
AcDbEntity
  8
002
  6
CENTER
 62
    40
370
     9
100
AcDbLine
 10
1181.567914
 20
511.487307
 30
0.0
 11
1497.993914
 21
511.487307
 31
0.0
  0
CIRCLE
  5
55A
330
1F
100
AcDbEntity
  8
002
 62
    40
370
     9
100
AcDbCircle
 10
1235.614914
 20
511.487307
 30
0.0
 40
22.64125
  0
LINE
  5
55B
330
1F
100
AcDbEntity
  8
002
  6
CENTER
 62
    40
370
     9
100
AcDbLine
 10
1460.545914
 20
551.862307
 30
0.0
 11
1477.335914
 21
561.556307
 31
0.0
  0
LINE
  5
55C
330
1F
100
AcDbEntity
  8
002
  6
CENTER
 62
    40
370
     9
100
AcDbLine
 10
1390.614914
 20
609.798307
 30
0.0
 11
1390.614914
 21
415.246307
 31
0.0
  0
LINE
  5
55D
330
1F
100
AcDbEntity
  8
002
  6
DASHED
 62
    40
370
     9
100
AcDbLine
 10
1571.614914
 20
405.487307
 30
0.0
 11
1571.614914
 21
406.487307
 31
0.0
  0
LINE
  5
55E
330
1F
100
AcDbEntity
  8
002
  6
DASHED
 62
    40
370
     9
100
AcDbLine
 10
1489.614914
 20
406.487307
 30
0.0
 11
1489.614914
 21
405.487307
 31
0.0
  0
LINE
  5
55F
330
1F
100
AcDbEntity
  8
002
  6
CENTER
 62
    40
370
     9
100
AcDbLine
 10
1530.614914
 20
357.939307
 30
0.0
 11
1530.614914
 21
417.528307
 31
0.0
  0
LINE
  5
560
330
1F
100
AcDbEntity
  8
002
  6
CENTER
 62
    40
370
     9
100
AcDbLine
 10
1035.614914
 20
357.939307
 30
0.0
 11
1035.614914
 21
417.528307
 31
0.0
  0
LINE
  5
561
330
1F
100
AcDbEntity
  8
002
  6
DASHED
 62
    40
370
     9
100
AcDbLine
 10
1076.614914
 20
405.487307
 30
0.0
 11
1076.614914
 21
406.487307
 31
0.0
  0
LINE
  5
562
330
1F
100
AcDbEntity
  8
002
  6
CENTER
 62
    40
370
     9
100
AcDbLine
 10
1164.903914
 20
371.487307
 30
0.0
 11
1164.903914
 21
345.345307
 31
0.0
  0
LINE
  5
563
330
1F
100
AcDbEntity
  8
002
  6
CENTER
 62
    40
370
     9
100
AcDbLine
 10
1306.324914
 20
345.345307
 30
0.0
 11
1306.324914
 21
371.487307
 31
0.0
  0
LINE
  5
564
330
1F
100
AcDbEntity
  8
002
  6
HIDDEN
 62
    40
370
     9
100
AcDbLine
 10
994.614914
 20
405.487307
 30
0.0
 11
1076.614914
 21
405.487307
 31
0.0
  0
LINE
  5
565
330
1F
100
AcDbEntity
  8
002
  6
HIDDEN
 62
    40
370
     9
100
AcDbLine
 10
1013.114914
 20
405.487307
 30
0.0
 11
1013.114914
 21
371.487307
 31
0.0
  0
LINE
  5
566
330
1F
100
AcDbEntity
  8
002
  6
HIDDEN
 62
    40
370
     9
100
AcDbLine
 10
1058.114914
 20
405.487307
 30
0.0
 11
1058.114914
 21
371.487307
 31
0.0
  0
LINE
  5
567
330
1F
100
AcDbEntity
  8
002
  6
HIDDEN
 62
    40
370
     9
100
AcDbLine
 10
1508.114914
 20
405.487307
 30
0.0
 11
1508.114914
 21
371.487307
 31
0.0
  0
LINE
  5
568
330
1F
100
AcDbEntity
  8
002
  6
HIDDEN
 62
    40
370
     9
100
AcDbLine
 10
1489.614914
 20
405.487307
 30
0.0
 11
1571.614914
 21
405.487307
 31
0.0
  0
LINE
  5
569
330
1F
100
AcDbEntity
  8
002
  6
HIDDEN
 62
    40
370
     9
100
AcDbLine
 10
1553.114914
 20
405.487307
 30
0.0
 11
1553.114914
 21
371.487307
 31
0.0
  0
ARC
  5
56A
330
1F
100
AcDbEntity
  8
002
 62
     3
370
    30
100
AcDbCircle
 10
990.614914
 20
401.487307
 30
0.0
 40
5.0
100
AcDbArc
 50
90.0
 51
180.0
  0
LINE
  5
56B
330
1F
100
AcDbEntity
  8
002
 62
     3
370
    30
100
AcDbLine
 10
985.614914
 20
401.487307
 30
0.0
 11
985.614914
 21
371.487307
 31
0.0
  0
LINE
  5
56C
330
1F
100
AcDbEntity
  8
002
  6
DASHED
 62
    40
370
     9
100
AcDbLine
 10
994.614914
 20
406.487307
 30
0.0
 11
994.614914
 21
405.487307
 31
0.0
  0
LINE
  5
56D
330
1F
100
AcDbEntity
  8
003
 62
     3
370
    30
100
AcDbLine
 10
1375.614914
 20
686.487307
 30
0.0
 11
1095.614914
 21
686.487307
 31
0.0
  0
LINE
  5
56E
330
1F
100
AcDbEntity
  8
002
 62
     3
370
    30
100
AcDbLine
 10
1397.614914
 20
528.487068
 30
0.0
 11
1383.614914
 21
528.487068
 31
0.0
  0
LINE
  5
56F
330
1F
100
AcDbEntity
  8
002
 62
     3
370
    30
100
AcDbLine
 10
1397.614914
 20
528.487068
 30
0.0
 11
1397.614914
 21
537.487307
 31
0.0
  0
LINE
  5
570
330
1F
100
AcDbEntity
  8
002
 62
     3
370
    30
100
AcDbLine
 10
1383.614914
 20
537.487307
 30
0.0
 11
1383.614914
 21
528.487068
 31
0.0
  0
LINE
  5
571
330
1F
100
AcDbEntity
  8
002
 62
     3
370
    30
100
AcDbLine
 10
1383.614914
 20
537.487307
 30
0.0
 11
1397.614914
 21
537.487307
 31
0.0
  0
ARC
  5
572
330
1F
100
AcDbEntity
  8
002
 62
     3
370
    30
100
AcDbCircle
 10
1390.614914
 20
511.487307
 30
0.0
 40
22.50072434389606
100
AcDbArc
 50
108.1256
 51
71.8744
  0
ARC
  5
573
330
1F
100
AcDbEntity
  8
002
 62
     3
370
    30
100
AcDbCircle
 10
1390.614914
 20
511.487307
 30
0.0
 40
25.00065799134093
100
AcDbArc
 50
106.259765
 51
73.740235
  0
LINE
  5
574
330
1F
100
AcDbEntity
  8
001
 62
     3
370
    30
100
AcDbLine
 10
1318.214914
 20
171.487307
 30
0.0
 11
1153.014914
 21
171.487307
 31
0.0
  0
LINE
  5
575
330
1F
100
AcDbEntity
  8
002
 62
     3
370
    30
100
AcDbLine
 10
1318.214914
 20
171.487307
 30
0.0
 11
1318.214914
 21
361.487307
 31
0.0
  0
LINE
  5
576
330
1F
100
AcDbEntity
  8
002
 62
     3
370
    30
100
AcDbLine
 10
1153.014914
 20
361.487307
 30
0.0
 11
1153.014914
 21
171.487307
 31
0.0
  0
LINE
  5
577
330
1F
100
AcDbEntity
  8
001
 62
    40
370
     9
100
AcDbLine
 10
1182.396702
 20
756.487307
 30
0.0
 11
1175.614652
 21
744.740452
 31
0.0
  0
LINE
  5
578
330
1F
100
AcDbEntity
  8
001
 62
    40
370
     9
100
AcDbLine
 10
1288.833126
 20
756.487307
 30
0.0
 11
1295.614682
 21
744.741308
 31
0.0
  0
LINE
  5
579
330
1F
100
AcDbEntity
  8
001
 62
     3
370
    30
100
AcDbLine
 10
1295.614682
 20
756.487307
 30
0.0
 11
1175.614652
 21
756.487307
 31
0.0
  0
LINE
  5
57A
330
1F
100
AcDbEntity
  8
001
 62
     3
370
    30
100
AcDbLine
 10
1141.614712
 20
921.847063
 30
0.0
 11
1140.614682
 21
922.847163
 31
0.0
  0
LINE
  5
57B
330
1F
100
AcDbEntity
  8
001
 62
     3
370
    30
100
AcDbLine
 10
1140.614532
 20
1215.647063
 30
0.0
 11
1140.814542
 21
1215.847063
 31
0.0
  0
LINE
  5
57C
330
1F
100
AcDbEntity
  8
001
 62
     3
370
    30
100
AcDbLine
 10
1330.414922
 20
1215.847263
 30
0.0
 11
1330.614942
 21
1215.647263
 31
0.0
  0
LINE
  5
57D
330
1F
100
AcDbEntity
  8
001
 62
     3
370
    30
100
AcDbLine
 10
1329.614772
 20
921.846963
 30
0.0
 11
1330.615352
 21
922.847563
 31
0.0
  0
LINE
  5
57E
330
1F
100
AcDbEntity
  8
001
 62
     3
370
    30
100
AcDbLine
 10
1210.115032
 20
921.846963
 30
0.0
 11
1210.115032
 21
980.925943
 31
0.0
  0
LINE
  5
57F
330
1F
100
AcDbEntity
  8
001
 62
     3
370
    30
100
AcDbLine
 10
1210.115032
 20
1010.322923
 30
0.0
 11
1210.115032
 21
1064.924805
 31
0.0
  0
LINE
  5
580
330
1F
100
AcDbEntity
  8
001
 62
     3
370
    30
100
AcDbLine
 10
1210.115032
 20
1094.322883
 30
0.0
 11
1210.115032
 21
1148.925073
 31
0.0
  0
LINE
  5
581
330
1F
100
AcDbEntity
  8
001
 62
     3
370
    30
100
AcDbLine
 10
1261.114922
 20
1062.768921
 30
0.0
 11
1261.114922
 21
1117.371413
 31
0.0
  0
LINE
  5
582
330
1F
100
AcDbEntity
  8
001
 62
     3
370
    30
100
AcDbLine
 10
1258.114802
 20
1203.846563
 30
0.0
 11
1258.114802
 21
923.846663
 31
0.0
  0
LINE
  5
583
330
1F
100
AcDbEntity
  8
001
 62
     3
370
    30
100
AcDbLine
 10
1261.114922
 20
978.768963
 30
0.0
 11
1261.114922
 21
1033.370843
 31
0.0
  0
LINE
  5
584
330
1F
100
AcDbEntity
  8
001
 62
     3
370
    30
100
AcDbLine
 10
1261.114922
 20
921.846963
 30
0.0
 11
1261.114922
 21
949.372063
 31
0.0
  0
LINE
  5
585
330
1F
100
AcDbEntity
  8
001
 62
     3
370
    30
100
AcDbLine
 10
1288.146392
 20
932.646163
 30
0.0
 11
1258.114752
 21
951.226963
 31
0.0
  0
LINE
  5
586
330
1F
100
AcDbEntity
  8
001
 62
     3
370
    30
100
AcDbLine
 10
1141.614522
 20
921.846863
 30
0.0
 11
1329.614572
 21
921.846863
 31
0.0
  0
LINE
  5
587
330
1F
100
AcDbEntity
  8
001
 62
     3
370
    30
100
AcDbLine
 10
1258.114802
 20
923.846663
 30
0.0
 11
1213.114782
 21
923.846663
 31
0.0
  0
LINE
  5
588
330
1F
100
AcDbEntity
  8
001
 62
     3
370
    30
100
AcDbLine
 10
1213.114782
 20
923.847163
 30
0.0
 11
1213.114782
 21
1203.847063
 31
0.0
  0
LINE
  5
589
330
1F
100
AcDbEntity
  8
001
 62
     3
370
    30
100
AcDbLine
 10
1169.808422
 20
1005.863713
 30
0.0
 11
1213.114852
 21
979.069773
 31
0.0
  0
LINE
  5
58A
330
1F
100
AcDbEntity
  8
001
 62
     3
370
    30
100
AcDbLine
 10
1183.083262
 20
1027.047463
 30
0.0
 11
1213.114902
 21
1008.466703
 31
0.0
  0
ARC
  5
58B
330
1F
100
AcDbEntity
  8
001
 62
     3
370
    30
100
AcDbCircle
 10
1176.506382
 20
1016.417653
 30
0.0
 40
12.50000561125074
100
AcDbArc
 50
58.254702
 51
237.599283
  0
LINE
  5
58C
330
1F
100
AcDbEntity
  8
001
 62
     3
370
    30
100
AcDbLine
 10
1169.808522
 20
1089.863733
 30
0.0
 11
1213.114952
 21
1063.069789
 31
0.0
  0
LINE
  5
58D
330
1F
100
AcDbEntity
  8
001
 62
     3
370
    30
100
AcDbLine
 10
1183.083282
 20
1111.047493
 30
0.0
 11
1213.114932
 21
1092.466733
 31
0.0
  0
ARC
  5
58E
330
1F
100
AcDbEntity
  8
001
 62
     3
370
    30
100
AcDbCircle
 10
1176.506382
 20
1100.417613
 30
0.0
 40
12.50000561125074
100
AcDbArc
 50
58.254702
 51
237.599283
  0
ARC
  5
58F
330
1F
100
AcDbEntity
  8
001
 62
     3
370
    30
100
AcDbCircle
 10
1294.723202
 20
1027.276113
 30
0.0
 40
12.50000561125074
100
AcDbArc
 50
238.254702
 51
57.599283
  0
LINE
  5
590
330
1F
100
AcDbEntity
  8
001
 62
     3
370
    30
100
AcDbLine
 10
1301.421152
 20
1037.830203
 30
0.0
 11
1258.114732
 21
1064.624132
 31
0.0
  0
LINE
  5
591
330
1F
100
AcDbEntity
  8
001
 62
     3
370
    30
100
AcDbLine
 10
1288.146442
 20
1016.646573
 30
0.0
 11
1258.114812
 21
1035.227323
 31
0.0
  0
LINE
  5
592
330
1F
100
AcDbEntity
  8
001
 62
     3
370
    30
100
AcDbLine
 10
1288.146442
 20
1100.646483
 30
0.0
 11
1258.114812
 21
1119.227233
 31
0.0
  0
ARC
  5
593
330
1F
100
AcDbEntity
  8
001
 62
     3
370
    30
100
AcDbCircle
 10
1294.723202
 20
1111.276073
 30
0.0
 40
12.50000561125074
100
AcDbArc
 50
238.254702
 51
57.599283
  0
LINE
  5
594
330
1F
100
AcDbEntity
  8
001
 62
     3
370
    30
100
AcDbLine
 10
1301.421162
 20
953.829963
 30
0.0
 11
1258.114732
 21
980.623943
 31
0.0
  0
ARC
  5
595
330
1F
100
AcDbEntity
  8
001
 62
     3
370
    30
100
AcDbCircle
 10
1294.723202
 20
943.275863
 30
0.0
 40
12.50007315702192
100
AcDbArc
 50
238.254606
 51
57.59948
  0
ARC
  5
596
330
1F
100
AcDbEntity
  8
001
 62
     3
370
    30
100
AcDbCircle
 10
1235.614548
 20
937.846663
 30
0.0
 40
14.49999733995317
100
AcDbArc
 50
285.090131
 51
254.909854
  0
LINE
  5
597
330
1F
100
AcDbEntity
  8
001
 62
     3
370
    30
100
AcDbLine
 10
1230.129754
 20
947.346663
 30
0.0
 11
1224.644892
 21
937.846563
 31
0.0
  0
CIRCLE
  5
598
330
1F
100
AcDbEntity
  8
001
 62
     3
370
    30
100
AcDbCircle
 10
1235.614548
 20
937.846663
 30
0.0
 40
8.999998
  0
LINE
  5
599
330
1F
100
AcDbEntity
  8
001
 62
     3
370
    30
100
AcDbLine
 10
1224.644992
 20
937.846663
 30
0.0
 11
1230.129827
 21
928.346663
 31
0.0
  0
LINE
  5
59A
330
1F
100
AcDbEntity
  8
001
 62
     3
370
    30
100
AcDbLine
 10
1241.099352
 20
928.346663
 30
0.0
 11
1230.129744
 21
928.346663
 31
0.0
  0
LINE
  5
59B
330
1F
100
AcDbEntity
  8
001
 62
     3
370
    30
100
AcDbLine
 10
1246.584232
 20
937.846663
 30
0.0
 11
1241.099364
 21
928.346563
 31
0.0
  0
LINE
  5
59C
330
1F
100
AcDbEntity
  8
001
 62
     3
370
    30
100
AcDbLine
 10
1241.099462
 20
947.346663
 30
0.0
 11
1246.584302
 21
937.846663
 31
0.0
  0
LINE
  5
59D
330
1F
100
AcDbEntity
  8
001
 62
     3
370
    30
100
AcDbLine
 10
1241.099352
 20
947.346663
 30
0.0
 11
1230.129744
 21
947.346663
 31
0.0
  0
CIRCLE
  5
59E
330
1F
100
AcDbEntity
  8
001
 62
     3
370
    30
100
AcDbCircle
 10
1235.614548
 20
937.846663
 30
0.0
 40
5.0
  0
CIRCLE
  5
59F
330
1F
100
AcDbEntity
  8
001
 62
     3
370
    30
100
AcDbCircle
 10
1235.614792
 20
1021.846603
 30
0.0
 40
14.5
  0
LINE
  5
5A0
330
1F
100
AcDbEntity
  8
001
 62
     3
370
    30
100
AcDbLine
 10
1230.129992
 20
1031.346623
 30
0.0
 11
1224.645122
 21
1021.846553
 31
0.0
  0
LINE
  5
5A1
330
1F
100
AcDbEntity
  8
001
 62
     3
370
    30
100
AcDbLine
 10
1241.099596
 20
1031.346613
 30
0.0
 11
1230.129988
 21
1031.346613
 31
0.0
  0
LINE
  5
5A2
330
1F
100
AcDbEntity
  8
001
 62
     3
370
    30
100
AcDbLine
 10
1224.645192
 20
1021.846603
 30
0.0
 11
1230.130025
 21
1012.346583
 31
0.0
  0
LINE
  5
5A3
330
1F
100
AcDbEntity
  8
001
 62
     3
370
    30
100
AcDbLine
 10
1246.584472
 20
1021.846623
 30
0.0
 11
1241.099604
 21
1012.346563
 31
0.0
  0
LINE
  5
5A4
330
1F
100
AcDbEntity
  8
001
 62
     3
370
    30
100
AcDbLine
 10
1241.099596
 20
1012.346603
 30
0.0
 11
1230.129988
 21
1012.346603
 31
0.0
  0
CIRCLE
  5
5A5
330
1F
100
AcDbEntity
  8
001
 62
     3
370
    30
100
AcDbCircle
 10
1235.614792
 20
1021.846603
 30
0.0
 40
8.999998
  0
LINE
  5
5A6
330
1F
100
AcDbEntity
  8
001
 62
     3
370
    30
100
AcDbLine
 10
1241.099668
 20
1031.346593
 30
0.0
 11
1246.584502
 21
1021.846583
 31
0.0
  0
CIRCLE
  5
5A7
330
1F
100
AcDbEntity
  8
001
 62
     3
370
    30
100
AcDbCircle
 10
1235.614792
 20
1021.846603
 30
0.0
 40
5.0
  0
CIRCLE
  5
5A8
330
1F
100
AcDbEntity
  8
001
 62
     3
370
    30
100
AcDbCircle
 10
1235.614792
 20
1105.847123
 30
0.0
 40
14.5
  0
LINE
  5
5A9
330
1F
100
AcDbEntity
  8
001
 62
     3
370
    30
100
AcDbLine
 10
1224.645212
 20
1105.847113
 30
0.0
 11
1230.130043
 21
1096.347103
 31
0.0
  0
CIRCLE
  5
5AA
330
1F
100
AcDbEntity
  8
001
 62
     3
370
    30
100
AcDbCircle
 10
1235.614792
 20
1105.847123
 30
0.0
 40
8.999998
  0
CIRCLE
  5
5AB
330
1F
100
AcDbEntity
  8
001
 62
     3
370
    30
100
AcDbCircle
 10
1235.614792
 20
1105.847123
 30
0.0
 40
5.0
  0
LINE
  5
5AC
330
1F
100
AcDbEntity
  8
001
 62
     3
370
    30
100
AcDbLine
 10
1230.129988
 20
1115.347163
 30
0.0
 11
1224.645122
 21
1105.847093
 31
0.0
  0
LINE
  5
5AD
330
1F
100
AcDbEntity
  8
001
 62
     3
370
    30
100
AcDbLine
 10
1241.099596
 20
1096.347113
 30
0.0
 11
1230.129988
 21
1096.347113
 31
0.0
  0
LINE
  5
5AE
330
1F
100
AcDbEntity
  8
001
 62
     3
370
    30
100
AcDbLine
 10
1246.584472
 20
1105.847163
 30
0.0
 11
1241.099602
 21
1096.347103
 31
0.0
  0
LINE
  5
5AF
330
1F
100
AcDbEntity
  8
001
 62
     3
370
    30
100
AcDbLine
 10
1241.099669
 20
1115.347133
 30
0.0
 11
1246.584502
 21
1105.847123
 31
0.0
  0
LINE
  5
5B0
330
1F
100
AcDbEntity
  8
001
 62
     3
370
    30
100
AcDbLine
 10
1241.099596
 20
1115.347123
 30
0.0
 11
1230.129988
 21
1115.347123
 31
0.0
  0
LINE
  5
5B1
330
1F
100
AcDbEntity
  8
001
 62
     3
370
    30
100
AcDbLine
 10
1301.421262
 20
1121.830203
 30
0.0
 11
1258.114832
 21
1148.624143
 31
0.0
  0
LINE
  5
5B2
330
1F
100
AcDbEntity
  8
001
 62
     3
370
    30
100
AcDbLine
 10
1183.083342
 20
1195.047663
 30
0.0
 11
1213.114972
 21
1176.466963
 31
0.0
  0
ARC
  5
5B3
330
1F
100
AcDbEntity
  8
001
 62
     3
370
    30
100
AcDbCircle
 10
1176.506442
 20
1184.417863
 30
0.0
 40
12.49998872483092
100
AcDbArc
 50
58.254847
 51
237.599234
  0
LINE
  5
5B4
330
1F
100
AcDbEntity
  8
001
 62
     3
370
    30
100
AcDbLine
 10
1169.808582
 20
1173.863963
 30
0.0
 11
1213.115002
 21
1147.070003
 31
0.0
  0
LINE
  5
5B5
330
1F
100
AcDbEntity
  8
001
 62
     3
370
    30
100
AcDbLine
 10
1210.115032
 20
1178.323063
 30
0.0
 11
1210.115032
 21
1205.846963
 31
0.0
  0
LINE
  5
5B6
330
1F
100
AcDbEntity
  8
001
 62
     3
370
    30
100
AcDbLine
 10
1261.114922
 20
1146.769433
 30
0.0
 11
1261.114922
 21
1205.846963
 31
0.0
  0
LINE
  5
5B7
330
1F
100
AcDbEntity
  8
001
 62
     3
370
    30
100
AcDbLine
 10
1213.114782
 20
1203.847063
 30
0.0
 11
1258.114802
 21
1203.847063
 31
0.0
  0
LINE
  5
5B8
330
1F
100
AcDbEntity
  8
001
 62
     3
370
    30
100
AcDbLine
 10
1210.114912
 20
1205.846863
 30
0.0
 11
1261.114802
 21
1205.846863
 31
0.0
  0
ARC
  5
5B9
330
1F
100
AcDbEntity
  8
001
 62
     3
370
    30
100
AcDbCircle
 10
1235.615036
 20
1189.847063
 30
0.0
 40
14.49999551758551
100
AcDbArc
 50
105.09015
 51
74.909881
  0
LINE
  5
5BA
330
1F
100
AcDbEntity
  8
001
 62
     3
370
    30
100
AcDbLine
 10
1246.584752
 20
1189.847063
 30
0.0
 11
1241.099886
 21
1180.347063
 31
0.0
  0
LINE
  5
5BB
330
1F
100
AcDbEntity
  8
001
 62
     3
370
    30
100
AcDbLine
 10
1241.099883
 20
1199.347063
 30
0.0
 11
1246.584702
 21
1189.847063
 31
0.0
  0
CIRCLE
  5
5BC
330
1F
100
AcDbEntity
  8
001
 62
     3
370
    30
100
AcDbCircle
 10
1235.615036
 20
1189.847063
 30
0.0
 40
8.999998
  0
LINE
  5
5BD
330
1F
100
AcDbEntity
  8
001
 62
     3
370
    30
100
AcDbLine
 10
1230.130272
 20
1199.347063
 30
0.0
 11
1224.645412
 21
1189.847063
 31
0.0
  0
LINE
  5
5BE
330
1F
100
AcDbEntity
  8
001
 62
     3
370
    30
100
AcDbLine
 10
1241.09984
 20
1199.347063
 30
0.0
 11
1230.130232
 21
1199.347063
 31
0.0
  0
LINE
  5
5BF
330
1F
100
AcDbEntity
  8
001
 62
     3
370
    30
100
AcDbLine
 10
1224.645522
 20
1189.847163
 30
0.0
 11
1230.130338
 21
1180.347163
 31
0.0
  0
LINE
  5
5C0
330
1F
100
AcDbEntity
  8
001
 62
     3
370
    30
100
AcDbLine
 10
1241.09984
 20
1180.347063
 30
0.0
 11
1230.130232
 21
1180.347063
 31
0.0
  0
CIRCLE
  5
5C1
330
1F
100
AcDbEntity
  8
001
 62
     3
370
    30
100
AcDbCircle
 10
1235.615036
 20
1189.847063
 30
0.0
 40
5.0
  0
LINE
  5
5C2
330
1F
100
AcDbEntity
  8
001
 62
     3
370
    30
100
AcDbLine
 10
1330.614692
 20
922.846963
 30
0.0
 11
1330.614692
 21
1215.647163
 31
0.0
  0
LINE
  5
5C3
330
1F
100
AcDbEntity
  8
001
 62
     3
370
    30
100
AcDbLine
 10
1140.614642
 20
922.846963
 30
0.0
 11
1140.614642
 21
1215.647163
 31
0.0
  0
LINE
  5
5C4
330
1F
100
AcDbEntity
  8
001
 62
     3
370
    30
100
AcDbLine
 10
1423.114914
 20
1265.846863
 30
0.0
 11
1048.114914
 21
1265.846863
 31
0.0
  0
LINE
  5
5C5
330
1F
100
AcDbEntity
  8
001
 62
     3
370
    30
100
AcDbLine
 10
1423.114914
 20
1215.846863
 30
0.0
 11
1048.114914
 21
1215.846863
 31
0.0
  0
CIRCLE
  5
5C6
330
1F
100
AcDbEntity
  8
001
 62
     3
370
    30
100
AcDbCircle
 10
1235.614548
 20
937.846663
 30
0.0
 40
6.0
  0
CIRCLE
  5
5C7
330
1F
100
AcDbEntity
  8
001
 62
     3
370
    30
100
AcDbCircle
 10
1235.614792
 20
1021.846603
 30
0.0
 40
6.0
  0
CIRCLE
  5
5C8
330
1F
100
AcDbEntity
  8
001
 62
     3
370
    30
100
AcDbCircle
 10
1235.614792
 20
1105.847123
 30
0.0
 40
6.0
  0
CIRCLE
  5
5C9
330
1F
100
AcDbEntity
  8
001
 62
     3
370
    30
100
AcDbCircle
 10
1235.615036
 20
1189.847063
 30
0.0
 40
6.0
  0
LINE
  5
5CA
330
1F
100
AcDbEntity
  8
001
 62
     3
370
    30
100
AcDbLine
 10
1423.114914
 20
1215.846863
 30
0.0
 11
1423.114914
 21
1265.846863
 31
0.0
  0
LINE
  5
5CB
330
1F
100
AcDbEntity
  8
001
 62
     3
370
    30
100
AcDbLine
 10
1048.114914
 20
1265.846863
 30
0.0
 11
1048.114914
 21
1215.846863
 31
0.0
  0
LINE
  5
5CC
330
1F
100
AcDbEntity
  8
001
 62
    40
370
     9
100
AcDbLine
 10
1288.832702
 20
1265.847063
 30
0.0
 11
1288.832702
 21
1386.466074
 31
0.0
  0
LINE
  5
5CD
330
1F
100
AcDbEntity
  8
001
 62
     3
370
    30
100
AcDbLine
 10
1295.614682
 20
1265.847063
 30
0.0
 11
1295.614682
 21
1386.466074
 31
0.0
  0
LINE
  5
5CE
330
1F
100
AcDbEntity
  8
001
 62
    40
370
     9
100
AcDbLine
 10
1182.396702
 20
1265.847063
 30
0.0
 11
1182.396702
 21
1386.466074
 31
0.0
  0
LINE
  5
5CF
330
1F
100
AcDbEntity
  8
001
 62
     3
370
    30
100
AcDbLine
 10
1175.614652
 20
1265.847063
 30
0.0
 11
1175.614652
 21
1386.466074
 31
0.0
  0
LINE
  5
5D0
330
1F
100
AcDbEntity
  8
001
 62
     3
370
    30
100
AcDbLine
 10
1285.614914
 20
1536.466074
 30
0.0
 11
1185.614914
 21
1536.466074
 31
0.0
  0
LINE
  5
5D1
330
1F
100
AcDbEntity
  8
001
 62
     3
370
    30
100
AcDbLine
 10
1185.614914
 20
1536.466074
 30
0.0
 11
1185.614914
 21
1386.466074
 31
0.0
  0
LINE
  5
5D2
330
1F
100
AcDbEntity
  8
001
 62
     3
370
    30
100
AcDbLine
 10
1285.614914
 20
1536.466074
 30
0.0
 11
1285.614914
 21
1386.466074
 31
0.0
  0
LINE
  5
5D3
330
1F
100
AcDbEntity
  8
001
 62
     3
370
    30
100
AcDbLine
 10
1175.614652
 20
1386.466074
 30
0.0
 11
1295.614682
 21
1386.466074
 31
0.0
  0
LINE
  5
5D4
330
1F
100
AcDbEntity
  8
002
 62
     3
370
    30
100
AcDbLine
 10
3050.867033
 20
1112.907244
 30
0.0
 11
3050.867033
 21
1082.907244
 31
0.0
  0
LINE
  5
5D5
330
1F
100
AcDbEntity
  8
002
 62
     3
370
    30
100
AcDbLine
 10
3050.867033
 20
1082.907244
 30
0.0
 11
2455.867033
 21
1082.907244
 31
0.0
  0
LINE
  5
5D6
330
1F
100
AcDbEntity
  8
002
 62
     3
370
    30
100
AcDbLine
 10
2455.867033
 20
1082.907244
 30
0.0
 11
2455.867033
 21
1112.907244
 31
0.0
  0
ARC
  5
5D7
330
1F
100
AcDbEntity
  8
002
 62
     3
370
    30
100
AcDbCircle
 10
2460.867033
 20
1112.907244
 30
0.0
 40
5.0
100
AcDbArc
 50
90.0
 51
180.0
  0
LINE
  5
5D8
330
1F
100
AcDbEntity
  8
002
 62
     3
370
    30
100
AcDbLine
 10
2460.867033
 20
1117.907244
 30
0.0
 11
3045.867033
 21
1117.907244
 31
0.0
  0
ARC
  5
5D9
330
1F
100
AcDbEntity
  8
002
 62
     3
370
    30
100
AcDbCircle
 10
3045.867033
 20
1112.907244
 30
0.0
 40
5.0
100
AcDbArc
 50
0.0
 51
90.0
  0
ARC
  5
5DA
330
1F
100
AcDbEntity
  8
002
 62
     3
370
    30
100
AcDbCircle
 10
2978.279033
 20
1132.907244
 30
0.0
 40
14.99975999807991
100
AcDbArc
 50
189.997359
 51
270.0
  0
LINE
  5
5DB
330
1F
100
AcDbEntity
  8
002
 62
     3
370
    30
100
AcDbLine
 10
2963.507033
 20
1130.303244
 30
0.0
 11
2944.576033
 21
1237.667244
 31
0.0
  0
LINE
  5
5DC
330
1F
100
AcDbEntity
  8
002
 62
     3
370
    30
100
AcDbLine
 10
2945.867033
 20
1222.907244
 30
0.0
 11
2945.867033
 21
1132.907244
 31
0.0
  0
ARC
  5
5DD
330
1F
100
AcDbEntity
  8
002
 62
     3
370
    30
100
AcDbCircle
 10
2960.867033
 20
1132.907244
 30
0.0
 40
15.0
100
AcDbArc
 50
180.0
 51
270.0
  0
CIRCLE
  5
5DE
330
1F
100
AcDbEntity
  8
002
 62
     3
370
    30
100
AcDbCircle
 10
2860.867033
 20
1222.907244
 30
0.0
 40
85.0
  0
LINE
  5
5DF
330
1F
100
AcDbEntity
  8
002
 62
     3
370
    30
100
AcDbLine
 10
2775.867033
 20
1222.907244
 30
0.0
 11
2775.867033
 21
1132.907244
 31
0.0
  0
ARC
  5
5E0
330
1F
100
AcDbEntity
  8
002
 62
     3
370
    30
100
AcDbCircle
 10
2760.867033
 20
1132.907244
 30
0.0
 40
15.0
100
AcDbArc
 50
270.0
 51
0.0
  0
LINE
  5
5E1
330
1F
100
AcDbEntity
  8
002
 62
     3
370
    30
100
AcDbLine
 10
2547.753033
 20
1132.907244
 30
0.0
 11
2547.753033
 21
1251.825244
 31
0.0
  0
LINE
  5
5E2
330
1F
100
AcDbEntity
  8
002
 62
     3
370
    30
100
AcDbLine
 10
2547.753033
 20
1267.859244
 30
0.0
 11
2662.766033
 21
1267.859244
 31
0.0
  0
ARC
  5
5E3
330
1F
100
AcDbEntity
  8
002
 62
     3
370
    30
100
AcDbCircle
 10
2665.867033
 20
1264.907244
 30
0.0
 40
5.0
100
AcDbArc
 50
0.0
 51
90.0
  0
LINE
  5
5E4
330
1F
100
AcDbEntity
  8
002
 62
     3
370
    30
100
AcDbLine
 10
2670.867033
 20
1264.907244
 30
0.0
 11
2670.867033
 21
1222.907244
 31
0.0
  0
CIRCLE
  5
5E5
330
1F
100
AcDbEntity
  8
002
 62
     3
370
    30
100
AcDbCircle
 10
2705.867033
 20
1222.907244
 30
0.0
 40
24.12025
  0
LINE
  5
5E6
330
1F
100
AcDbEntity
  8
002
 62
     3
370
    30
100
AcDbLine
 10
2692.867033
 20
1235.907244
 30
0.0
 11
2718.867033
 21
1235.907244
 31
0.0
  0
LINE
  5
5E7
330
1F
100
AcDbEntity
  8
002
 62
     3
370
    30
100
AcDbLine
 10
2718.867033
 20
1235.907244
 30
0.0
 11
2718.867033
 21
1209.907244
 31
0.0
  0
LINE
  5
5E8
330
1F
100
AcDbEntity
  8
002
 62
     3
370
    30
100
AcDbLine
 10
2718.867033
 20
1209.907244
 30
0.0
 11
2692.867033
 21
1209.907244
 31
0.0
  0
LINE
  5
5E9
330
1F
100
AcDbEntity
  8
002
 62
     3
370
    30
100
AcDbLine
 10
2692.867033
 20
1209.907244
 30
0.0
 11
2692.867033
 21
1235.907244
 31
0.0
  0
ARC
  5
5EA
330
1F
100
AcDbEntity
  8
002
 62
     3
370
    30
100
AcDbCircle
 10
2705.867033
 20
1222.907244
 30
0.0
 40
35.0
100
AcDbArc
 50
180.0
 51
0.0
  0
LINE
  5
5EB
330
1F
100
AcDbEntity
  8
002
 62
     3
370
    30
100
AcDbLine
 10
2740.867033
 20
1222.907244
 30
0.0
 11
2740.867033
 21
1264.907244
 31
0.0
  0
ARC
  5
5EC
330
1F
100
AcDbEntity
  8
002
 62
     3
370
    30
100
AcDbCircle
 10
2745.867033
 20
1264.907244
 30
0.0
 40
5.0
100
AcDbArc
 50
90.0
 51
180.0
  0
LINE
  5
5ED
330
1F
100
AcDbEntity
  8
002
 62
     3
370
    30
100
AcDbLine
 10
2749.210033
 20
1267.859244
 30
0.0
 11
2782.664033
 21
1267.859244
 31
0.0
  0
ARC
  5
5EE
330
1F
100
AcDbEntity
  8
002
 62
     3
370
    30
100
AcDbCircle
 10
2784.628033
 20
1272.907244
 30
0.0
 40
5.0
100
AcDbArc
 50
0.0
 51
90.0
  0
ARC
  5
5EF
330
1F
100
AcDbEntity
  8
002
 62
     3
370
    30
100
AcDbCircle
 10
2860.867033
 20
1222.907244
 30
0.0
 40
90.00051130965844
100
AcDbArc
 50
117.858284
 51
142.3301
  0
LINE
  5
5F0
330
1F
100
AcDbEntity
  8
002
 62
     3
370
    30
100
AcDbLine
 10
2818.811033
 20
1302.477244
 30
0.0
 11
2818.811033
 21
1296.774244
 31
0.0
  0
LINE
  5
5F1
330
1F
100
AcDbEntity
  8
002
 62
     3
370
    30
100
AcDbLine
 10
2784.628033
 20
1277.907244
 30
0.0
 11
2507.042033
 21
1277.907244
 31
0.0
  0
LINE
  5
5F2
330
1F
100
AcDbEntity
  8
002
 62
     3
370
    30
100
AcDbLine
 10
2507.042033
 20
1274.243244
 30
0.0
 11
2536.635033
 21
1266.314244
 31
0.0
  0
ARC
  5
5F3
330
1F
100
AcDbEntity
  8
002
 62
     3
370
    30
100
AcDbCircle
 10
2532.753033
 20
1251.825244
 30
0.0
 40
15.0
100
AcDbArc
 50
0.0
 51
75.001165
  0
LINE
  5
5F4
330
1F
100
AcDbEntity
  8
002
 62
     3
370
    30
100
AcDbLine
 10
2505.040033
 20
1262.887244
 30
0.0
 11
2481.662033
 21
1130.303244
 31
0.0
  0
ARC
  5
5F5
330
1F
100
AcDbEntity
  8
002
 62
     3
370
    30
100
AcDbCircle
 10
2466.890033
 20
1132.907244
 30
0.0
 40
15.0
100
AcDbArc
 50
270.0
 51
350.002641
  0
ARC
  5
5F6
330
1F
100
AcDbEntity
  8
002
 62
     3
370
    30
100
AcDbCircle
 10
2532.753033
 20
1132.907244
 30
0.0
 40
15.0
100
AcDbArc
 50
270.0
 51
0.0
  0
ARC
  5
5F7
330
1F
100
AcDbEntity
  8
002
 62
     3
370
    30
100
AcDbCircle
 10
2490.268033
 20
1265.492244
 30
0.0
 40
14.99993363318735
100
AcDbArc
 50
349.99888
 51
52.892524
  0
ARC
  5
5F8
330
1F
100
AcDbEntity
  8
002
 62
     3
370
    30
100
AcDbCircle
 10
2508.367033
 20
1289.417244
 30
0.0
 40
15.0
100
AcDbArc
 50
180.0
 51
232.893265
  0
LINE
  5
5F9
330
1F
100
AcDbEntity
  8
002
 62
     3
370
    30
100
AcDbLine
 10
2493.367033
 20
1289.417244
 30
0.0
 11
2493.367033
 21
1347.907244
 31
0.0
  0
LINE
  5
5FA
330
1F
100
AcDbEntity
  8
002
 62
     3
370
    30
100
AcDbLine
 10
2493.367033
 20
1347.907244
 30
0.0
 11
2918.367033
 21
1347.907244
 31
0.0
  0
LINE
  5
5FB
330
1F
100
AcDbEntity
  8
002
 62
     3
370
    30
100
AcDbLine
 10
2918.367033
 20
1347.907244
 30
0.0
 11
2918.367033
 21
1291.782244
 31
0.0
  0
ARC
  5
5FC
330
1F
100
AcDbEntity
  8
002
 62
     3
370
    30
100
AcDbCircle
 10
2933.367033
 20
1291.782244
 30
0.0
 40
15.0
100
AcDbArc
 50
180.0
 51
223.530507
  0
CIRCLE
  5
5FD
330
1F
100
AcDbEntity
  8
002
 62
     3
370
    30
100
AcDbCircle
 10
2860.867033
 20
1222.907244
 30
0.0
 40
36.0
  0
CIRCLE
  5
5FE
330
1F
100
AcDbEntity
  8
002
 62
     3
370
    30
100
AcDbCircle
 10
2860.867033
 20
1222.907244
 30
0.0
 40
39.0
  0
CIRCLE
  5
5FF
330
1F
100
AcDbEntity
  8
002
 62
     3
370
    30
100
AcDbCircle
 10
2860.867033
 20
1222.907244
 30
0.0
 40
52.5
  0
LINE
  5
600
330
1F
100
AcDbEntity
  8
002
 62
     3
370
    30
100
AcDbLine
 10
2770.896033
 20
1347.907244
 30
0.0
 11
2770.896033
 21
1369.907244
 31
0.0
  0
LINE
  5
601
330
1F
100
AcDbEntity
  8
002
 62
     3
370
    30
100
AcDbLine
 10
2770.896033
 20
1369.907244
 30
0.0
 11
2737.896033
 21
1369.907244
 31
0.0
  0
LINE
  5
602
330
1F
100
AcDbEntity
  8
002
 62
     3
370
    30
100
AcDbLine
 10
2737.896033
 20
1369.907244
 30
0.0
 11
2737.896033
 21
1347.907244
 31
0.0
  0
LINE
  5
603
330
1F
100
AcDbEntity
  8
002
 62
     3
370
    30
100
AcDbLine
 10
2737.896033
 20
1349.907244
 30
0.0
 11
2673.838033
 21
1349.907244
 31
0.0
  0
LINE
  5
604
330
1F
100
AcDbEntity
  8
002
 62
     3
370
    30
100
AcDbLine
 10
2673.838033
 20
1347.907244
 30
0.0
 11
2673.838033
 21
1369.907244
 31
0.0
  0
LINE
  5
605
330
1F
100
AcDbEntity
  8
002
 62
     3
370
    30
100
AcDbLine
 10
2673.838033
 20
1369.907244
 30
0.0
 11
2640.838033
 21
1369.907244
 31
0.0
  0
LINE
  5
606
330
1F
100
AcDbEntity
  8
002
 62
     3
370
    30
100
AcDbLine
 10
2640.838033
 20
1369.907244
 30
0.0
 11
2640.838033
 21
1347.907244
 31
0.0
  0
LINE
  5
607
330
1F
100
AcDbEntity
  8
002
 62
     3
370
    30
100
AcDbLine
 10
2640.838033
 20
1349.907244
 30
0.0
 11
2589.785033
 21
1349.907244
 31
0.0
  0
LINE
  5
608
330
1F
100
AcDbEntity
  8
002
 62
     3
370
    30
100
AcDbLine
 10
2589.785033
 20
1347.907244
 30
0.0
 11
2589.785033
 21
1369.907244
 31
0.0
  0
LINE
  5
609
330
1F
100
AcDbEntity
  8
002
 62
     3
370
    30
100
AcDbLine
 10
2589.785033
 20
1369.907244
 30
0.0
 11
2556.785033
 21
1369.907244
 31
0.0
  0
LINE
  5
60A
330
1F
100
AcDbEntity
  8
002
 62
     3
370
    30
100
AcDbLine
 10
2556.785033
 20
1369.907244
 30
0.0
 11
2556.785033
 21
1347.907244
 31
0.0
  0
LINE
  5
60B
330
1F
100
AcDbEntity
  8
002
 62
     3
370
    30
100
AcDbLine
 10
2556.785033
 20
1349.907244
 30
0.0
 11
2543.367033
 21
1349.907244
 31
0.0
  0
LINE
  5
60C
330
1F
100
AcDbEntity
  8
002
 62
     3
370
    30
100
AcDbLine
 10
2543.367033
 20
1349.907244
 30
0.0
 11
2543.367033
 21
1347.907244
 31
0.0
  0
LINE
  5
60D
330
1F
100
AcDbEntity
  8
002
 62
     3
370
    30
100
AcDbLine
 10
2541.256033
 20
1347.907244
 30
0.0
 11
2541.256033
 21
1369.907244
 31
0.0
  0
LINE
  5
60E
330
1F
100
AcDbEntity
  8
002
 62
     3
370
    30
100
AcDbLine
 10
2541.256033
 20
1369.907244
 30
0.0
 11
2508.256033
 21
1369.907244
 31
0.0
  0
LINE
  5
60F
330
1F
100
AcDbEntity
  8
002
 62
     3
370
    30
100
AcDbLine
 10
2508.256033
 20
1369.907244
 30
0.0
 11
2508.256033
 21
1347.907244
 31
0.0
  0
LINE
  5
610
330
1F
100
AcDbEntity
  8
002
 62
     3
370
    30
100
AcDbLine
 10
2561.044033
 20
1369.907244
 30
0.0
 11
2565.867033
 21
1387.907244
 31
0.0
  0
LINE
  5
611
330
1F
100
AcDbEntity
  8
002
 62
     3
370
    30
100
AcDbLine
 10
2565.867033
 20
1387.907244
 30
0.0
 11
2565.867033
 21
1397.907244
 31
0.0
  0
LINE
  5
612
330
1F
100
AcDbEntity
  8
002
 62
     3
370
    30
100
AcDbLine
 10
2565.867033
 20
1397.907244
 30
0.0
 11
2845.867033
 21
1397.907244
 31
0.0
  0
LINE
  5
613
330
1F
100
AcDbEntity
  8
002
 62
     3
370
    30
100
AcDbLine
 10
2845.867033
 20
1397.907244
 30
0.0
 11
2845.867033
 21
1387.907244
 31
0.0
  0
LINE
  5
614
330
1F
100
AcDbEntity
  8
002
 62
     3
370
    30
100
AcDbLine
 10
2845.867033
 20
1387.907244
 30
0.0
 11
2850.690033
 21
1369.907244
 31
0.0
  0
LINE
  5
615
330
1F
100
AcDbEntity
  8
002
 62
     3
370
    30
100
AcDbLine
 10
2854.950033
 20
1369.907244
 30
0.0
 11
2821.950033
 21
1369.907244
 31
0.0
  0
LINE
  5
616
330
1F
100
AcDbEntity
  8
002
 62
     3
370
    30
100
AcDbLine
 10
2821.950033
 20
1369.907244
 30
0.0
 11
2821.950033
 21
1347.907244
 31
0.0
  0
LINE
  5
617
330
1F
100
AcDbEntity
  8
002
 62
     3
370
    30
100
AcDbLine
 10
2821.950033
 20
1349.907244
 30
0.0
 11
2770.896033
 21
1349.907244
 31
0.0
  0
ARC
  5
618
330
1F
100
AcDbEntity
  8
002
 62
     3
370
    30
100
AcDbCircle
 10
2543.408033
 20
1365.907244
 30
0.0
 40
16.0
100
AcDbArc
 50
270.0
 51
326.727077
  0
LINE
  5
619
330
1F
100
AcDbEntity
  8
002
 62
     3
370
    30
100
AcDbLine
 10
2493.367033
 20
1317.907244
 30
0.0
 11
2918.367033
 21
1317.907244
 31
0.0
  0
LINE
  5
61A
330
1F
100
AcDbEntity
  8
002
 62
     3
370
    30
100
AcDbLine
 10
2903.478033
 20
1347.907244
 30
0.0
 11
2903.478033
 21
1369.907244
 31
0.0
  0
LINE
  5
61B
330
1F
100
AcDbEntity
  8
002
 62
     3
370
    30
100
AcDbLine
 10
2903.478033
 20
1369.907244
 30
0.0
 11
2870.478033
 21
1369.907244
 31
0.0
  0
LINE
  5
61C
330
1F
100
AcDbEntity
  8
002
 62
     3
370
    30
100
AcDbLine
 10
2870.478033
 20
1369.907244
 30
0.0
 11
2870.478033
 21
1347.907244
 31
0.0
  0
LINE
  5
61D
330
1F
100
AcDbEntity
  8
002
 62
     3
370
    30
100
AcDbLine
 10
2868.367033
 20
1347.907244
 30
0.0
 11
2868.367033
 21
1349.907244
 31
0.0
  0
LINE
  5
61E
330
1F
100
AcDbEntity
  8
002
 62
     3
370
    30
100
AcDbLine
 10
2868.367033
 20
1349.907244
 30
0.0
 11
2854.950033
 21
1349.907244
 31
0.0
  0
LINE
  5
61F
330
1F
100
AcDbEntity
  8
002
 62
     3
370
    30
100
AcDbLine
 10
2854.950033
 20
1347.907244
 30
0.0
 11
2854.950033
 21
1369.907244
 31
0.0
  0
ARC
  5
620
330
1F
100
AcDbEntity
  8
002
 62
     3
370
    30
100
AcDbCircle
 10
2868.326033
 20
1365.907244
 30
0.0
 40
15.9990830987273
100
AcDbArc
 50
213.274888
 51
270.0
  0
LINE
  5
621
330
1F
100
AcDbEntity
  8
002
 62
     3
370
    30
100
AcDbLine
 10
2933.325033
 20
1271.407244
 30
0.0
 11
2935.923033
 21
1272.907244
 31
0.0
  0
LINE
  5
622
330
1F
100
AcDbEntity
  8
002
 62
     3
370
    30
100
AcDbLine
 10
2935.923033
 20
1272.907244
 30
0.0
 11
2939.903033
 21
1271.841244
 31
0.0
  0
LINE
  5
623
330
1F
100
AcDbEntity
  8
002
 62
     3
370
    30
100
AcDbLine
 10
2940.671033
 20
1271.635244
 30
0.0
 11
2942.968033
 21
1267.656244
 31
0.0
  0
LINE
  5
624
330
1F
100
AcDbEntity
  8
002
 62
     3
370
    30
100
AcDbLine
 10
2943.763033
 20
1267.628244
 30
0.0
 11
2944.764033
 21
1267.593244
 31
0.0
  0
LINE
  5
625
330
1F
100
AcDbEntity
  8
002
 62
     3
370
    30
100
AcDbLine
 10
2944.764033
 20
1267.593244
 30
0.0
 11
2946.988033
 21
1269.742244
 31
0.0
  0
LINE
  5
626
330
1F
100
AcDbEntity
  8
002
 62
     3
370
    30
100
AcDbLine
 10
2946.988033
 20
1269.742244
 30
0.0
 11
2944.488033
 21
1274.072244
 31
0.0
  0
LINE
  5
627
330
1F
100
AcDbEntity
  8
002
 62
     3
370
    30
100
AcDbLine
 10
2944.488033
 20
1274.072244
 30
0.0
 11
2941.514033
 21
1273.222244
 31
0.0
  0
LINE
  5
628
330
1F
100
AcDbEntity
  8
002
 62
     3
370
    30
100
AcDbLine
 10
2941.514033
 20
1273.222244
 30
0.0
 11
2941.044033
 21
1272.337244
 31
0.0
  0
ARC
  5
629
330
1F
100
AcDbEntity
  8
002
 62
     3
370
    30
100
AcDbCircle
 10
2940.161033
 20
1272.807244
 30
0.0
 40
0.999859990198477
100
AcDbArc
 50
255.046435
 51
331.974684
  0
LINE
  5
62A
330
1F
100
AcDbEntity
  8
002
 62
     3
370
    30
100
AcDbLine
 10
2941.889033
 20
1272.572244
 30
0.0
 11
2944.389033
 21
1268.242244
 31
0.0
  0
ARC
  5
62B
330
1F
100
AcDbEntity
  8
002
 62
     3
370
    30
100
AcDbCircle
 10
2943.728033
 20
1266.628244
 30
0.0
 40
1.000612312536705
100
AcDbArc
 50
87.995466
 51
164.976236
  0
LINE
  5
62C
330
1F
100
AcDbEntity
  8
002
 62
     3
370
    30
100
AcDbLine
 10
2942.763033
 20
1266.887244
 30
0.0
 11
2941.696033
 21
1262.907244
 31
0.0
  0
LINE
  5
62D
330
1F
100
AcDbEntity
  8
002
 62
     3
370
    30
100
AcDbLine
 10
2941.696033
 20
1262.907244
 30
0.0
 11
2939.098033
 21
1261.407244
 31
0.0
  0
LINE
  5
62E
330
1F
100
AcDbEntity
  8
002
 62
     3
370
    30
100
AcDbLine
 10
2939.098033
 20
1261.407244
 30
0.0
 11
2937.865033
 21
1261.738244
 31
0.0
  0
ARC
  5
62F
330
1F
100
AcDbEntity
  8
002
 62
     3
370
    30
100
AcDbCircle
 10
2938.845033
 20
1262.928244
 30
0.0
 40
1.540954574281516
100
AcDbArc
 50
140.556242
 51
230.52754
  0
LINE
  5
630
330
1F
100
AcDbEntity
  8
002
 62
     3
370
    30
100
AcDbLine
 10
2937.655033
 20
1263.907244
 30
0.0
 11
2940.253033
 21
1265.407244
 31
0.0
  0
ARC
  5
631
330
1F
100
AcDbEntity
  8
002
 62
     3
370
    30
100
AcDbCircle
 10
2940.506033
 20
1263.887244
 30
0.0
 40
1.541898180814526
100
AcDbArc
 50
9.443995
 51
99.450097
  0
ARC
  5
632
330
1F
100
AcDbEntity
  8
002
 62
     3
370
    30
100
AcDbCircle
 10
2939.387033
 20
1268.241244
 30
0.0
 40
4.666767296534662
100
AcDbArc
 50
171.795237
 51
248.216827
  0
ARC
  5
633
330
1F
100
AcDbEntity
  8
002
 62
     3
370
    30
100
AcDbCircle
 10
2934.514033
 20
1270.428244
 30
0.0
 40
1.541076247302032
100
AcDbArc
 50
189.486771
 51
279.480647
  0
LINE
  5
634
330
1F
100
AcDbEntity
  8
002
 62
     3
370
    30
100
AcDbLine
 10
2932.994033
 20
1270.174244
 30
0.0
 11
2933.325033
 21
1271.407244
 31
0.0
  0
LINE
  5
635
330
1F
100
AcDbEntity
  8
002
 62
     3
370
    30
100
AcDbLine
 10
2933.115033
 20
1270.626244
 30
0.0
 11
2931.923033
 21
1269.835244
 31
0.0
  0
LINE
  5
636
330
1F
100
AcDbEntity
  8
002
 62
     3
370
    30
100
AcDbLine
 10
2933.202033
 20
1269.619244
 30
0.0
 11
2937.488033
 21
1262.196244
 31
0.0
  0
LINE
  5
637
330
1F
100
AcDbEntity
  8
002
 62
     3
370
    30
100
AcDbLine
 10
2938.316033
 20
1261.617244
 30
0.0
 11
2937.035033
 21
1260.980244
 31
0.0
  0
LINE
  5
638
330
1F
100
AcDbEntity
  8
002
 62
     3
370
    30
100
AcDbLine
 10
2934.768033
 20
1268.907244
 30
0.0
 11
2937.366033
 21
1270.407244
 31
0.0
  0
ARC
  5
639
330
1F
100
AcDbEntity
  8
002
 62
     3
370
    30
100
AcDbCircle
 10
2935.634033
 20
1266.074244
 30
0.0
 40
4.666910112698273
100
AcDbArc
 50
351.783086
 51
68.212271
  0
ARC
  5
63A
330
1F
100
AcDbEntity
  8
002
 62
     3
370
    30
100
AcDbCircle
 10
2936.176033
 20
1271.387244
 30
0.0
 40
1.541590088188572
100
AcDbArc
 50
320.52754
 51
50.52754
  0
ARC
  5
63B
330
1F
100
AcDbEntity
  8
002
 62
     3
370
    30
100
AcDbCircle
 10
2945.165033
 20
1271.577244
 30
0.0
 40
1.000232472977658
100
AcDbArc
 50
341.402022
 51
78.577679
  0
LINE
  5
63C
330
1F
100
AcDbEntity
  8
002
 62
     3
370
    30
100
AcDbLine
 10
2820.867033
 20
1397.907244
 30
0.0
 11
2820.867033
 21
1407.907244
 31
0.0
  0
LINE
  5
63D
330
1F
100
AcDbEntity
  8
002
 62
     3
370
    30
100
AcDbLine
 10
2820.867033
 20
1407.907244
 30
0.0
 11
2590.867033
 21
1407.907244
 31
0.0
  0
LINE
  5
63E
330
1F
100
AcDbEntity
  8
002
 62
     3
370
    30
100
AcDbLine
 10
2590.867033
 20
1407.907244
 30
0.0
 11
2590.867033
 21
1397.907244
 31
0.0
  0
LINE
  5
63F
330
1F
100
AcDbEntity
  8
002
 62
     3
370
    30
100
AcDbLine
 10
2623.267033
 20
1597.907244
 30
0.0
 11
2623.267033
 21
1407.907244
 31
0.0
  0
LINE
  5
640
330
1F
100
AcDbEntity
  8
002
 62
     3
370
    30
100
AcDbLine
 10
2788.467033
 20
1597.907244
 30
0.0
 11
2788.467033
 21
1407.907244
 31
0.0
  0
LINE
  5
641
330
1F
100
AcDbEntity
  8
002
 62
     3
370
    30
100
AcDbLine
 10
2784.578033
 20
1407.907244
 30
0.0
 11
2784.578033
 21
1417.907244
 31
0.0
  0
LINE
  5
642
330
1F
100
AcDbEntity
  8
002
 62
     3
370
    30
100
AcDbLine
 10
2768.578033
 20
1417.907244
 30
0.0
 11
2768.578033
 21
1407.907244
 31
0.0
  0
LINE
  5
643
330
1F
100
AcDbEntity
  8
002
 62
     3
370
    30
100
AcDbLine
 10
2768.578033
 20
1417.907244
 30
0.0
 11
2784.578033
 21
1417.907244
 31
0.0
  0
LINE
  5
644
330
1F
100
AcDbEntity
  8
002
 62
     3
370
    30
100
AcDbLine
 10
2627.156033
 20
1417.907244
 30
0.0
 11
2627.156033
 21
1407.907244
 31
0.0
  0
LINE
  5
645
330
1F
100
AcDbEntity
  8
002
 62
     3
370
    30
100
AcDbLine
 10
2627.156033
 20
1417.907244
 30
0.0
 11
2643.156033
 21
1417.907244
 31
0.0
  0
LINE
  5
646
330
1F
100
AcDbEntity
  8
002
 62
     3
370
    30
100
AcDbLine
 10
2643.156033
 20
1417.907244
 30
0.0
 11
2643.156033
 21
1407.907244
 31
0.0
  0
LINE
  5
647
330
1F
100
AcDbEntity
  8
002
 62
    40
370
    30
100
AcDbLine
 10
2937.592033
 20
1261.257244
 30
0.0
 11
2936.718033
 21
1261.491244
 31
0.0
  0
LINE
  5
648
330
1F
100
AcDbEntity
  8
002
 62
    40
370
    30
100
AcDbLine
 10
2932.207033
 20
1269.304244
 30
0.0
 11
2932.442033
 21
1270.179244
 31
0.0
  0
LINE
  5
649
330
1F
100
AcDbEntity
  8
002
  6
CENTER
 62
    40
370
     9
100
AcDbLine
 10
2860.867033
 20
1321.218244
 30
0.0
 11
2860.867033
 21
1126.666244
 31
0.0
  0
LINE
  5
64A
330
1F
100
AcDbEntity
  8
002
  6
CENTER
 62
    40
370
     9
100
AcDbLine
 10
2635.156033
 20
1424.050244
 30
0.0
 11
2635.156033
 21
1397.907244
 31
0.0
  0
LINE
  5
64B
330
1F
100
AcDbEntity
  8
002
  6
CENTER
 62
    40
370
     9
100
AcDbLine
 10
2776.578033
 20
1397.907244
 30
0.0
 11
2776.578033
 21
1424.050244
 31
0.0
  0
LINE
  5
64C
330
1F
100
AcDbEntity
  8
002
  6
CENTER
 62
    40
370
     9
100
AcDbLine
 10
2886.978033
 20
1313.826244
 30
0.0
 11
2886.978033
 21
1379.923244
 31
0.0
  0
LINE
  5
64D
330
1F
100
AcDbEntity
  8
002
  6
CENTER
 62
    40
370
     9
100
AcDbLine
 10
2838.450033
 20
1379.923244
 30
0.0
 11
2838.450033
 21
1313.826244
 31
0.0
  0
LINE
  5
64E
330
1F
100
AcDbEntity
  8
002
  6
CENTER
 62
    40
370
     9
100
AcDbLine
 10
2754.396033
 20
1313.826244
 30
0.0
 11
2754.396033
 21
1379.923244
 31
0.0
  0
LINE
  5
64F
330
1F
100
AcDbEntity
  8
002
  6
CENTER
 62
    40
370
     9
100
AcDbLine
 10
2657.338033
 20
1379.923244
 30
0.0
 11
2657.338033
 21
1313.826244
 31
0.0
  0
LINE
  5
650
330
1F
100
AcDbEntity
  8
002
  6
CENTER
 62
    40
370
     9
100
AcDbLine
 10
2573.285033
 20
1313.826244
 30
0.0
 11
2573.285033
 21
1379.923244
 31
0.0
  0
LINE
  5
651
330
1F
100
AcDbEntity
  8
002
  6
CENTER
 62
    40
370
     9
100
AcDbLine
 10
2524.756033
 20
1379.923244
 30
0.0
 11
2524.756033
 21
1313.826244
 31
0.0
  0
LINE
  5
652
330
1F
100
AcDbEntity
  8
002
  6
CENTER
 62
    40
370
     9
100
AcDbLine
 10
2505.867033
 20
1069.359244
 30
0.0
 11
2505.867033
 21
1128.948244
 31
0.0
  0
LINE
  5
653
330
1F
100
AcDbEntity
  8
002
  6
DASHED
 62
    40
370
     9
100
AcDbLine
 10
2464.867033
 20
1116.907244
 30
0.0
 11
2464.867033
 21
1117.907244
 31
0.0
  0
LINE
  5
654
330
1F
100
AcDbEntity
  8
002
  6
DASHED
 62
    40
370
     9
100
AcDbLine
 10
2546.867033
 20
1116.907244
 30
0.0
 11
2546.867033
 21
1117.907244
 31
0.0
  0
LINE
  5
655
330
1F
100
AcDbEntity
  8
002
  6
CENTER
 62
    40
370
     9
100
AcDbLine
 10
3000.867033
 20
1069.359244
 30
0.0
 11
3000.867033
 21
1128.948244
 31
0.0
  0
LINE
  5
656
330
1F
100
AcDbEntity
  8
002
  6
DASHED
 62
    40
370
     9
100
AcDbLine
 10
2959.867033
 20
1116.907244
 30
0.0
 11
2959.867033
 21
1117.907244
 31
0.0
  0
LINE
  5
657
330
1F
100
AcDbEntity
  8
002
  6
DASHED
 62
    40
370
     9
100
AcDbLine
 10
3041.867033
 20
1116.907244
 30
0.0
 11
3041.867033
 21
1117.907244
 31
0.0
  0
CIRCLE
  5
658
330
1F
100
AcDbEntity
  8
002
 62
    40
370
     9
100
AcDbCircle
 10
2705.867033
 20
1222.907244
 30
0.0
 40
22.64125
  0
LINE
  5
659
330
1F
100
AcDbEntity
  8
002
  6
CENTER
 62
    40
370
     9
100
AcDbLine
 10
2651.820033
 20
1222.907244
 30
0.0
 11
2968.247033
 21
1222.907244
 31
0.0
  0
LINE
  5
65A
330
1F
100
AcDbEntity
  8
002
  6
CENTER
 62
    40
370
     9
100
AcDbLine
 10
2930.798033
 20
1263.282244
 30
0.0
 11
2947.588033
 21
1272.976244
 31
0.0
  0
LINE
  5
65B
330
1F
100
AcDbEntity
  8
002
  6
HIDDEN
 62
    40
370
     9
100
AcDbLine
 10
2546.867033
 20
1116.907244
 30
0.0
 11
2464.867033
 21
1116.907244
 31
0.0
  0
LINE
  5
65C
330
1F
100
AcDbEntity
  8
002
  6
HIDDEN
 62
    40
370
     9
100
AcDbLine
 10
2483.367033
 20
1116.907244
 30
0.0
 11
2483.367033
 21
1082.907244
 31
0.0
  0
LINE
  5
65D
330
1F
100
AcDbEntity
  8
002
  6
HIDDEN
 62
    40
370
     9
100
AcDbLine
 10
2528.367033
 20
1116.907244
 30
0.0
 11
2528.367033
 21
1082.907244
 31
0.0
  0
LINE
  5
65E
330
1F
100
AcDbEntity
  8
002
  6
HIDDEN
 62
    40
370
     9
100
AcDbLine
 10
2978.367033
 20
1116.907244
 30
0.0
 11
2978.367033
 21
1082.907244
 31
0.0
  0
LINE
  5
65F
330
1F
100
AcDbEntity
  8
002
  6
HIDDEN
 62
    40
370
     9
100
AcDbLine
 10
3041.867033
 20
1116.907244
 30
0.0
 11
2959.867033
 21
1116.907244
 31
0.0
  0
LINE
  5
660
330
1F
100
AcDbEntity
  8
002
  6
HIDDEN
 62
    40
370
     9
100
AcDbLine
 10
3023.367033
 20
1116.907244
 30
0.0
 11
3023.367033
 21
1082.907244
 31
0.0
  0
LINE
  5
661
330
1F
100
AcDbEntity
  8
002
 62
     3
370
    30
100
AcDbLine
 10
2867.867033
 20
1239.907004
 30
0.0
 11
2853.867033
 21
1239.907004
 31
0.0
  0
LINE
  5
662
330
1F
100
AcDbEntity
  8
002
 62
     3
370
    30
100
AcDbLine
 10
2867.867033
 20
1239.907004
 30
0.0
 11
2867.867033
 21
1248.907244
 31
0.0
  0
LINE
  5
663
330
1F
100
AcDbEntity
  8
002
 62
     3
370
    30
100
AcDbLine
 10
2853.867033
 20
1248.907244
 30
0.0
 11
2853.867033
 21
1239.907004
 31
0.0
  0
LINE
  5
664
330
1F
100
AcDbEntity
  8
002
 62
     3
370
    30
100
AcDbLine
 10
2853.867033
 20
1248.907244
 30
0.0
 11
2867.867033
 21
1248.907244
 31
0.0
  0
ARC
  5
665
330
1F
100
AcDbEntity
  8
002
 62
     3
370
    30
100
AcDbCircle
 10
2860.867033
 20
1222.907244
 30
0.0
 40
22.50072434389606
100
AcDbArc
 50
108.1256
 51
71.8744
  0
ARC
  5
666
330
1F
100
AcDbEntity
  8
002
 62
     3
370
    30
100
AcDbCircle
 10
2860.867033
 20
1222.907244
 30
0.0
 40
25.00065799134093
100
AcDbArc
 50
106.259765
 51
73.740235
  0
LINE
  5
667
330
1F
100
AcDbEntity
  8
001
 62
     3
370
    30
100
AcDbLine
 10
2788.467033
 20
1597.907244
 30
0.0
 11
2623.267033
 21
1597.907244
 31
0.0
  0
LINE
  5
668
330
1F
100
AcDbEntity
  8
001
 62
     3
370
    30
100
AcDbLine
 10
2773.367033
 20
1047.907244
 30
0.0
 11
2638.367033
 21
1047.907244
 31
0.0
  0
LINE
  5
669
330
1F
100
AcDbEntity
  8
001
 62
     3
370
    30
100
AcDbLine
 10
2785.867033
 20
1072.907244
 30
0.0
 11
2625.867033
 21
1072.907244
 31
0.0
  0
LINE
  5
66A
330
1F
100
AcDbEntity
  8
001
 62
    40
370
     9
100
AcDbLine
 10
2652.648821
 20
977.907244
 30
0.0
 11
2645.866771
 21
989.654099
 31
0.0
  0
LINE
  5
66B
330
1F
100
AcDbEntity
  8
001
 62
     3
370
    30
100
AcDbLine
 10
2773.367033
 20
1047.907244
 30
0.0
 11
2773.367033
 21
1072.907244
 31
0.0
  0
LINE
  5
66C
330
1F
100
AcDbEntity
  8
001
 62
     3
370
    30
100
AcDbLine
 10
2638.367033
 20
1047.907244
 30
0.0
 11
2638.367033
 21
1072.907244
 31
0.0
  0
LINE
  5
66D
330
1F
100
AcDbEntity
  8
001
 62
     3
370
    30
100
AcDbLine
 10
2625.867033
 20
1072.907244
 30
0.0
 11
2625.867033
 21
1082.907244
 31
0.0
  0
LINE
  5
66E
330
1F
100
AcDbEntity
  8
001
 62
    40
370
     9
100
AcDbLine
 10
2759.085245
 20
977.907244
 30
0.0
 11
2765.866801
 21
989.653243
 31
0.0
  0
LINE
  5
66F
330
1F
100
AcDbEntity
  8
001
 62
     3
370
    30
100
AcDbLine
 10
2785.867033
 20
1072.907244
 30
0.0
 11
2785.867033
 21
1082.907244
 31
0.0
  0
LINE
  5
670
330
1F
100
AcDbEntity
  8
001
 62
     3
370
    30
100
AcDbLine
 10
2765.866801
 20
977.907244
 30
0.0
 11
2645.866771
 21
977.907244
 31
0.0
  0
LINE
  5
671
330
1F
100
AcDbEntity
  8
001
 62
     3
370
    30
100
AcDbLine
 10
2611.866831
 20
403.547888
 30
0.0
 11
2610.866801
 21
404.547988
 31
0.0
  0
LINE
  5
672
330
1F
100
AcDbEntity
  8
001
 62
     3
370
    30
100
AcDbLine
 10
2610.866651
 20
697.347888
 30
0.0
 11
2611.066661
 21
697.547888
 31
0.0
  0
LINE
  5
673
330
1F
100
AcDbEntity
  8
001
 62
     3
370
    30
100
AcDbLine
 10
2800.667041
 20
697.548088
 30
0.0
 11
2800.867061
 21
697.348088
 31
0.0
  0
LINE
  5
674
330
1F
100
AcDbEntity
  8
001
 62
     3
370
    30
100
AcDbLine
 10
2799.866891
 20
403.547788
 30
0.0
 11
2800.867471
 21
404.548388
 31
0.0
  0
LINE
  5
675
330
1F
100
AcDbEntity
  8
001
 62
     3
370
    30
100
AcDbLine
 10
2680.367151
 20
403.547788
 30
0.0
 11
2680.367151
 21
462.626768
 31
0.0
  0
LINE
  5
676
330
1F
100
AcDbEntity
  8
001
 62
     3
370
    30
100
AcDbLine
 10
2680.367151
 20
492.023748
 30
0.0
 11
2680.367151
 21
546.62563
 31
0.0
  0
LINE
  5
677
330
1F
100
AcDbEntity
  8
001
 62
     3
370
    30
100
AcDbLine
 10
2680.367151
 20
576.023708
 30
0.0
 11
2680.367151
 21
630.625898
 31
0.0
  0
LINE
  5
678
330
1F
100
AcDbEntity
  8
001
 62
     3
370
    30
100
AcDbLine
 10
2731.367041
 20
544.469746
 30
0.0
 11
2731.367041
 21
599.072238
 31
0.0
  0
LINE
  5
679
330
1F
100
AcDbEntity
  8
001
 62
     3
370
    30
100
AcDbLine
 10
2728.366921
 20
685.547388
 30
0.0
 11
2728.366921
 21
405.547488
 31
0.0
  0
LINE
  5
67A
330
1F
100
AcDbEntity
  8
001
 62
     3
370
    30
100
AcDbLine
 10
2731.367041
 20
460.469788
 30
0.0
 11
2731.367041
 21
515.071668
 31
0.0
  0
LINE
  5
67B
330
1F
100
AcDbEntity
  8
001
 62
     3
370
    30
100
AcDbLine
 10
2731.367041
 20
403.547788
 30
0.0
 11
2731.367041
 21
431.072888
 31
0.0
  0
LINE
  5
67C
330
1F
100
AcDbEntity
  8
001
 62
     3
370
    30
100
AcDbLine
 10
2758.398511
 20
414.346988
 30
0.0
 11
2728.366871
 21
432.927788
 31
0.0
  0
LINE
  5
67D
330
1F
100
AcDbEntity
  8
001
 62
     3
370
    30
100
AcDbLine
 10
2611.866641
 20
403.547688
 30
0.0
 11
2799.866691
 21
403.547688
 31
0.0
  0
LINE
  5
67E
330
1F
100
AcDbEntity
  8
001
 62
     3
370
    30
100
AcDbLine
 10
2728.366921
 20
405.547488
 30
0.0
 11
2683.366901
 21
405.547488
 31
0.0
  0
LINE
  5
67F
330
1F
100
AcDbEntity
  8
001
 62
     3
370
    30
100
AcDbLine
 10
2683.366901
 20
405.547988
 30
0.0
 11
2683.366901
 21
685.547888
 31
0.0
  0
LINE
  5
680
330
1F
100
AcDbEntity
  8
001
 62
     3
370
    30
100
AcDbLine
 10
2640.060541
 20
487.564538
 30
0.0
 11
2683.366971
 21
460.770598
 31
0.0
  0
LINE
  5
681
330
1F
100
AcDbEntity
  8
001
 62
     3
370
    30
100
AcDbLine
 10
2653.335381
 20
508.748288
 30
0.0
 11
2683.367021
 21
490.167528
 31
0.0
  0
ARC
  5
682
330
1F
100
AcDbEntity
  8
001
 62
     3
370
    30
100
AcDbCircle
 10
2646.758501
 20
498.118478
 30
0.0
 40
12.50000561125074
100
AcDbArc
 50
58.254702
 51
237.599283
  0
LINE
  5
683
330
1F
100
AcDbEntity
  8
001
 62
     3
370
    30
100
AcDbLine
 10
2640.060641
 20
571.564558
 30
0.0
 11
2683.367071
 21
544.770614
 31
0.0
  0
LINE
  5
684
330
1F
100
AcDbEntity
  8
001
 62
     3
370
    30
100
AcDbLine
 10
2653.335401
 20
592.748318
 30
0.0
 11
2683.367051
 21
574.167558
 31
0.0
  0
ARC
  5
685
330
1F
100
AcDbEntity
  8
001
 62
     3
370
    30
100
AcDbCircle
 10
2646.758501
 20
582.118438
 30
0.0
 40
12.50000561125074
100
AcDbArc
 50
58.254702
 51
237.599283
  0
ARC
  5
686
330
1F
100
AcDbEntity
  8
001
 62
     3
370
    30
100
AcDbCircle
 10
2764.975321
 20
508.976938
 30
0.0
 40
12.50000561125074
100
AcDbArc
 50
238.254702
 51
57.599283
  0
LINE
  5
687
330
1F
100
AcDbEntity
  8
001
 62
     3
370
    30
100
AcDbLine
 10
2771.673271
 20
519.531028
 30
0.0
 11
2728.366851
 21
546.324957
 31
0.0
  0
LINE
  5
688
330
1F
100
AcDbEntity
  8
001
 62
     3
370
    30
100
AcDbLine
 10
2758.398561
 20
498.347398
 30
0.0
 11
2728.366931
 21
516.928148
 31
0.0
  0
LINE
  5
689
330
1F
100
AcDbEntity
  8
001
 62
     3
370
    30
100
AcDbLine
 10
2758.398561
 20
582.347308
 30
0.0
 11
2728.366931
 21
600.928058
 31
0.0
  0
ARC
  5
68A
330
1F
100
AcDbEntity
  8
001
 62
     3
370
    30
100
AcDbCircle
 10
2764.975321
 20
592.976898
 30
0.0
 40
12.50000561125074
100
AcDbArc
 50
238.254702
 51
57.599283
  0
LINE
  5
68B
330
1F
100
AcDbEntity
  8
001
 62
     3
370
    30
100
AcDbLine
 10
2771.673281
 20
435.530788
 30
0.0
 11
2728.366851
 21
462.324768
 31
0.0
  0
ARC
  5
68C
330
1F
100
AcDbEntity
  8
001
 62
     3
370
    30
100
AcDbCircle
 10
2764.975321
 20
424.976688
 30
0.0
 40
12.50007315702192
100
AcDbArc
 50
238.254606
 51
57.59948
  0
ARC
  5
68D
330
1F
100
AcDbEntity
  8
001
 62
     3
370
    30
100
AcDbCircle
 10
2705.866667
 20
419.547488
 30
0.0
 40
14.49999733995317
100
AcDbArc
 50
285.090131
 51
254.909854
  0
LINE
  5
68E
330
1F
100
AcDbEntity
  8
001
 62
     3
370
    30
100
AcDbLine
 10
2700.381873
 20
429.047488
 30
0.0
 11
2694.897011
 21
419.547388
 31
0.0
  0
CIRCLE
  5
68F
330
1F
100
AcDbEntity
  8
001
 62
     3
370
    30
100
AcDbCircle
 10
2705.866667
 20
419.547488
 30
0.0
 40
8.999998
  0
LINE
  5
690
330
1F
100
AcDbEntity
  8
001
 62
     3
370
    30
100
AcDbLine
 10
2694.897111
 20
419.547488
 30
0.0
 11
2700.381946
 21
410.047488
 31
0.0
  0
LINE
  5
691
330
1F
100
AcDbEntity
  8
001
 62
     3
370
    30
100
AcDbLine
 10
2711.351471
 20
410.047488
 30
0.0
 11
2700.381863
 21
410.047488
 31
0.0
  0
LINE
  5
692
330
1F
100
AcDbEntity
  8
001
 62
     3
370
    30
100
AcDbLine
 10
2716.836351
 20
419.547488
 30
0.0
 11
2711.351483
 21
410.047388
 31
0.0
  0
LINE
  5
693
330
1F
100
AcDbEntity
  8
001
 62
     3
370
    30
100
AcDbLine
 10
2711.351581
 20
429.047488
 30
0.0
 11
2716.836421
 21
419.547488
 31
0.0
  0
LINE
  5
694
330
1F
100
AcDbEntity
  8
001
 62
     3
370
    30
100
AcDbLine
 10
2711.351471
 20
429.047488
 30
0.0
 11
2700.381863
 21
429.047488
 31
0.0
  0
CIRCLE
  5
695
330
1F
100
AcDbEntity
  8
001
 62
     3
370
    30
100
AcDbCircle
 10
2705.866667
 20
419.547488
 30
0.0
 40
5.0
  0
CIRCLE
  5
696
330
1F
100
AcDbEntity
  8
001
 62
     3
370
    30
100
AcDbCircle
 10
2705.866911
 20
503.547428
 30
0.0
 40
14.5
  0
LINE
  5
697
330
1F
100
AcDbEntity
  8
001
 62
     3
370
    30
100
AcDbLine
 10
2700.382111
 20
513.047448
 30
0.0
 11
2694.897241
 21
503.547378
 31
0.0
  0
LINE
  5
698
330
1F
100
AcDbEntity
  8
001
 62
     3
370
    30
100
AcDbLine
 10
2711.351715
 20
513.047438
 30
0.0
 11
2700.382107
 21
513.047438
 31
0.0
  0
LINE
  5
699
330
1F
100
AcDbEntity
  8
001
 62
     3
370
    30
100
AcDbLine
 10
2694.897311
 20
503.547428
 30
0.0
 11
2700.382144
 21
494.047408
 31
0.0
  0
LINE
  5
69A
330
1F
100
AcDbEntity
  8
001
 62
     3
370
    30
100
AcDbLine
 10
2716.836591
 20
503.547448
 30
0.0
 11
2711.351723
 21
494.047388
 31
0.0
  0
LINE
  5
69B
330
1F
100
AcDbEntity
  8
001
 62
     3
370
    30
100
AcDbLine
 10
2711.351715
 20
494.047428
 30
0.0
 11
2700.382107
 21
494.047428
 31
0.0
  0
CIRCLE
  5
69C
330
1F
100
AcDbEntity
  8
001
 62
     3
370
    30
100
AcDbCircle
 10
2705.866911
 20
503.547428
 30
0.0
 40
8.999998
  0
LINE
  5
69D
330
1F
100
AcDbEntity
  8
001
 62
     3
370
    30
100
AcDbLine
 10
2711.351787
 20
513.047418
 30
0.0
 11
2716.836621
 21
503.547408
 31
0.0
  0
CIRCLE
  5
69E
330
1F
100
AcDbEntity
  8
001
 62
     3
370
    30
100
AcDbCircle
 10
2705.866911
 20
503.547428
 30
0.0
 40
5.0
  0
CIRCLE
  5
69F
330
1F
100
AcDbEntity
  8
001
 62
     3
370
    30
100
AcDbCircle
 10
2705.866911
 20
587.547948
 30
0.0
 40
14.5
  0
LINE
  5
6A0
330
1F
100
AcDbEntity
  8
001
 62
     3
370
    30
100
AcDbLine
 10
2694.897331
 20
587.547938
 30
0.0
 11
2700.382162
 21
578.047928
 31
0.0
  0
CIRCLE
  5
6A1
330
1F
100
AcDbEntity
  8
001
 62
     3
370
    30
100
AcDbCircle
 10
2705.866911
 20
587.547948
 30
0.0
 40
8.999998
  0
CIRCLE
  5
6A2
330
1F
100
AcDbEntity
  8
001
 62
     3
370
    30
100
AcDbCircle
 10
2705.866911
 20
587.547948
 30
0.0
 40
5.0
  0
LINE
  5
6A3
330
1F
100
AcDbEntity
  8
001
 62
     3
370
    30
100
AcDbLine
 10
2700.382107
 20
597.047988
 30
0.0
 11
2694.897241
 21
587.547918
 31
0.0
  0
LINE
  5
6A4
330
1F
100
AcDbEntity
  8
001
 62
     3
370
    30
100
AcDbLine
 10
2711.351715
 20
578.047938
 30
0.0
 11
2700.382107
 21
578.047938
 31
0.0
  0
LINE
  5
6A5
330
1F
100
AcDbEntity
  8
001
 62
     3
370
    30
100
AcDbLine
 10
2716.836591
 20
587.547988
 30
0.0
 11
2711.351721
 21
578.047928
 31
0.0
  0
LINE
  5
6A6
330
1F
100
AcDbEntity
  8
001
 62
     3
370
    30
100
AcDbLine
 10
2711.351788
 20
597.047958
 30
0.0
 11
2716.836621
 21
587.547948
 31
0.0
  0
LINE
  5
6A7
330
1F
100
AcDbEntity
  8
001
 62
     3
370
    30
100
AcDbLine
 10
2711.351715
 20
597.047948
 30
0.0
 11
2700.382107
 21
597.047948
 31
0.0
  0
LINE
  5
6A8
330
1F
100
AcDbEntity
  8
001
 62
     3
370
    30
100
AcDbLine
 10
2771.673381
 20
603.531028
 30
0.0
 11
2728.366951
 21
630.324968
 31
0.0
  0
LINE
  5
6A9
330
1F
100
AcDbEntity
  8
001
 62
     3
370
    30
100
AcDbLine
 10
2653.335461
 20
676.748488
 30
0.0
 11
2683.367091
 21
658.167788
 31
0.0
  0
ARC
  5
6AA
330
1F
100
AcDbEntity
  8
001
 62
     3
370
    30
100
AcDbCircle
 10
2646.758561
 20
666.118688
 30
0.0
 40
12.49998872483092
100
AcDbArc
 50
58.254847
 51
237.599234
  0
LINE
  5
6AB
330
1F
100
AcDbEntity
  8
001
 62
     3
370
    30
100
AcDbLine
 10
2640.060701
 20
655.564788
 30
0.0
 11
2683.367121
 21
628.770828
 31
0.0
  0
LINE
  5
6AC
330
1F
100
AcDbEntity
  8
001
 62
     3
370
    30
100
AcDbLine
 10
2680.367151
 20
660.023888
 30
0.0
 11
2680.367151
 21
687.547788
 31
0.0
  0
LINE
  5
6AD
330
1F
100
AcDbEntity
  8
001
 62
     3
370
    30
100
AcDbLine
 10
2731.367041
 20
628.470258
 30
0.0
 11
2731.367041
 21
687.547788
 31
0.0
  0
LINE
  5
6AE
330
1F
100
AcDbEntity
  8
001
 62
     3
370
    30
100
AcDbLine
 10
2683.366901
 20
685.547888
 30
0.0
 11
2728.366921
 21
685.547888
 31
0.0
  0
LINE
  5
6AF
330
1F
100
AcDbEntity
  8
001
 62
     3
370
    30
100
AcDbLine
 10
2680.367031
 20
687.547688
 30
0.0
 11
2731.366921
 21
687.547688
 31
0.0
  0
ARC
  5
6B0
330
1F
100
AcDbEntity
  8
001
 62
     3
370
    30
100
AcDbCircle
 10
2705.867155
 20
671.547888
 30
0.0
 40
14.49999551758551
100
AcDbArc
 50
105.09015
 51
74.909881
  0
LINE
  5
6B1
330
1F
100
AcDbEntity
  8
001
 62
     3
370
    30
100
AcDbLine
 10
2716.836871
 20
671.547888
 30
0.0
 11
2711.352005
 21
662.047888
 31
0.0
  0
LINE
  5
6B2
330
1F
100
AcDbEntity
  8
001
 62
     3
370
    30
100
AcDbLine
 10
2711.352002
 20
681.047888
 30
0.0
 11
2716.836821
 21
671.547888
 31
0.0
  0
CIRCLE
  5
6B3
330
1F
100
AcDbEntity
  8
001
 62
     3
370
    30
100
AcDbCircle
 10
2705.867155
 20
671.547888
 30
0.0
 40
8.999998
  0
LINE
  5
6B4
330
1F
100
AcDbEntity
  8
001
 62
     3
370
    30
100
AcDbLine
 10
2700.382391
 20
681.047888
 30
0.0
 11
2694.897531
 21
671.547888
 31
0.0
  0
LINE
  5
6B5
330
1F
100
AcDbEntity
  8
001
 62
     3
370
    30
100
AcDbLine
 10
2711.351959
 20
681.047888
 30
0.0
 11
2700.382351
 21
681.047888
 31
0.0
  0
LINE
  5
6B6
330
1F
100
AcDbEntity
  8
001
 62
     3
370
    30
100
AcDbLine
 10
2694.897641
 20
671.547988
 30
0.0
 11
2700.382457
 21
662.047988
 31
0.0
  0
LINE
  5
6B7
330
1F
100
AcDbEntity
  8
001
 62
     3
370
    30
100
AcDbLine
 10
2711.351959
 20
662.047888
 30
0.0
 11
2700.382351
 21
662.047888
 31
0.0
  0
CIRCLE
  5
6B8
330
1F
100
AcDbEntity
  8
001
 62
     3
370
    30
100
AcDbCircle
 10
2705.867155
 20
671.547888
 30
0.0
 40
5.0
  0
LINE
  5
6B9
330
1F
100
AcDbEntity
  8
001
 62
     3
370
    30
100
AcDbLine
 10
2800.866811
 20
404.547788
 30
0.0
 11
2800.866811
 21
697.347988
 31
0.0
  0
LINE
  5
6BA
330
1F
100
AcDbEntity
  8
001
 62
     3
370
    30
100
AcDbLine
 10
2610.866761
 20
404.547788
 30
0.0
 11
2610.866761
 21
697.347988
 31
0.0
  0
LINE
  5
6BB
330
1F
100
AcDbEntity
  8
001
 62
     3
370
    30
100
AcDbLine
 10
2893.367033
 20
747.547688
 30
0.0
 11
2518.367033
 21
747.547688
 31
0.0
  0
LINE
  5
6BC
330
1F
100
AcDbEntity
  8
001
 62
     3
370
    30
100
AcDbLine
 10
2893.367033
 20
697.547688
 30
0.0
 11
2518.367033
 21
697.547688
 31
0.0
  0
CIRCLE
  5
6BD
330
1F
100
AcDbEntity
  8
001
 62
     3
370
    30
100
AcDbCircle
 10
2705.866667
 20
419.547488
 30
0.0
 40
6.0
  0
CIRCLE
  5
6BE
330
1F
100
AcDbEntity
  8
001
 62
     3
370
    30
100
AcDbCircle
 10
2705.866911
 20
503.547428
 30
0.0
 40
6.0
  0
CIRCLE
  5
6BF
330
1F
100
AcDbEntity
  8
001
 62
     3
370
    30
100
AcDbCircle
 10
2705.866911
 20
587.547948
 30
0.0
 40
6.0
  0
CIRCLE
  5
6C0
330
1F
100
AcDbEntity
  8
001
 62
     3
370
    30
100
AcDbCircle
 10
2705.867155
 20
671.547888
 30
0.0
 40
6.0
  0
LINE
  5
6C1
330
1F
100
AcDbEntity
  8
001
 62
     3
370
    30
100
AcDbLine
 10
2893.367033
 20
697.547688
 30
0.0
 11
2893.367033
 21
747.547688
 31
0.0
  0
LINE
  5
6C2
330
1F
100
AcDbEntity
  8
001
 62
     3
370
    30
100
AcDbLine
 10
2518.367033
 20
747.547688
 30
0.0
 11
2518.367033
 21
697.547688
 31
0.0
  0
LINE
  5
6C3
330
1F
100
AcDbEntity
  8
001
 62
    40
370
     9
100
AcDbLine
 10
2759.084821
 20
403.547488
 30
0.0
 11
2759.084821
 21
282.928477
 31
0.0
  0
LINE
  5
6C4
330
1F
100
AcDbEntity
  8
001
 62
     3
370
    30
100
AcDbLine
 10
2765.866801
 20
403.547488
 30
0.0
 11
2765.866801
 21
282.928477
 31
0.0
  0
LINE
  5
6C5
330
1F
100
AcDbEntity
  8
001
 62
    40
370
     9
100
AcDbLine
 10
2652.648821
 20
403.547488
 30
0.0
 11
2652.648821
 21
282.928477
 31
0.0
  0
LINE
  5
6C6
330
1F
100
AcDbEntity
  8
001
 62
     3
370
    30
100
AcDbLine
 10
2645.866771
 20
403.547488
 30
0.0
 11
2645.866771
 21
282.928477
 31
0.0
  0
LINE
  5
6C7
330
1F
100
AcDbEntity
  8
001
 62
     3
370
    30
100
AcDbLine
 10
2755.867033
 20
132.928477
 30
0.0
 11
2655.867033
 21
132.928477
 31
0.0
  0
LINE
  5
6C8
330
1F
100
AcDbEntity
  8
001
 62
     3
370
    30
100
AcDbLine
 10
2655.867033
 20
132.928477
 30
0.0
 11
2655.867033
 21
282.928477
 31
0.0
  0
LINE
  5
6C9
330
1F
100
AcDbEntity
  8
001
 62
     3
370
    30
100
AcDbLine
 10
2755.867033
 20
132.928477
 30
0.0
 11
2755.867033
 21
282.928477
 31
0.0
  0
LINE
  5
6CA
330
1F
100
AcDbEntity
  8
001
 62
     3
370
    30
100
AcDbLine
 10
2645.866771
 20
282.928477
 30
0.0
 11
2765.866801
 21
282.928477
 31
0.0
  0
LINE
  5
6CB
330
1F
100
AcDbEntity
  8
002
  6
CENTER
 62
    40
370
     9
100
AcDbLine
 10
628.632914
 20
3646.791826
 30
0.0
 11
628.632914
 21
3618.791837
 31
0.0
  0
LINE
  5
6CC
330
1F
100
AcDbEntity
  8
002
  6
CENTER
 62
    40
370
     9
100
AcDbLine
 10
762.595914
 20
3646.791826
 30
0.0
 11
762.595914
 21
3618.791837
 31
0.0
  0
LINE
  5
6CD
330
1F
100
AcDbEntity
  8
002
  6
CENTER
 62
    40
370
     9
100
AcDbLine
 10
628.632914
 20
3226.791848
 30
0.0
 11
628.632914
 21
3254.791837
 31
0.0
  0
LINE
  5
6CE
330
1F
100
AcDbEntity
  8
002
  6
CENTER
 62
    40
370
     9
100
AcDbLine
 10
762.595914
 20
3226.791848
 30
0.0
 11
762.595914
 21
3254.791837
 31
0.0
  0
POLYLINE
  5
6CF
330
1F
100
AcDbEntity
  8
001
 62
     3
370
     9
100
AcDb2dPolyline
 66
     1
 10
0.0
 20
0.0
 30
0.0
  0
VERTEX
  5
6D1
330
6CF
100
AcDbEntity
  8
001
 62
     3
370
     9
100
AcDbVertex
100
AcDb2dVertex
 10
480.614652
 20
820.290445
 30
0.0
  0
VERTEX
  5
6D2
330
6CF
100
AcDbEntity
  8
001
 62
     3
370
     9
100
AcDbVertex
100
AcDb2dVertex
 10
486.614654
 20
815.554445
 30
0.0
  0
VERTEX
  5
6D3
330
6CF
100
AcDbEntity
  8
001
 62
     3
370
     9
100
AcDbVertex
100
AcDb2dVertex
 10
492.614655
 20
811.202445
 30
0.0
  0
VERTEX
  5
6D4
330
6CF
100
AcDbEntity
  8
001
 62
     3
370
     9
100
AcDbVertex
100
AcDb2dVertex
 10
498.614657
 20
807.618445
 30
0.0
  0
VERTEX
  5
6D5
330
6CF
100
AcDbEntity
  8
001
 62
     3
370
     9
100
AcDbVertex
100
AcDb2dVertex
 10
504.614658
 20
805.186445
 30
0.0
  0
VERTEX
  5
6D6
330
6CF
100
AcDbEntity
  8
001
 62
     3
370
     9
100
AcDbVertex
100
AcDb2dVertex
 10
510.61466
 20
804.290445
 30
0.0
  0
VERTEX
  5
6D7
330
6CF
100
AcDbEntity
  8
001
 62
     3
370
     9
100
AcDbVertex
100
AcDb2dVertex
 10
516.614661
 20
805.186445
 30
0.0
  0
VERTEX
  5
6D8
330
6CF
100
AcDbEntity
  8
001
 62
     3
370
     9
100
AcDbVertex
100
AcDb2dVertex
 10
522.614663
 20
807.618445
 30
0.0
  0
VERTEX
  5
6D9
330
6CF
100
AcDbEntity
  8
001
 62
     3
370
     9
100
AcDbVertex
100
AcDb2dVertex
 10
528.614664
 20
811.202445
 30
0.0
  0
VERTEX
  5
6DA
330
6CF
100
AcDbEntity
  8
001
 62
     3
370
     9
100
AcDbVertex
100
AcDb2dVertex
 10
534.614666
 20
815.554445
 30
0.0
  0
VERTEX
  5
6DB
330
6CF
100
AcDbEntity
  8
001
 62
     3
370
     9
100
AcDbVertex
100
AcDb2dVertex
 10
540.614667
 20
820.290445
 30
0.0
  0
VERTEX
  5
6DC
330
6CF
100
AcDbEntity
  8
001
 62
     3
370
     9
100
AcDbVertex
100
AcDb2dVertex
 10
546.614669
 20
825.026445
 30
0.0
  0
VERTEX
  5
6DD
330
6CF
100
AcDbEntity
  8
001
 62
     3
370
     9
100
AcDbVertex
100
AcDb2dVertex
 10
552.61467
 20
829.378445
 30
0.0
  0
VERTEX
  5
6DE
330
6CF
100
AcDbEntity
  8
001
 62
     3
370
     9
100
AcDbVertex
100
AcDb2dVertex
 10
558.614672
 20
832.962445
 30
0.0
  0
VERTEX
  5
6DF
330
6CF
100
AcDbEntity
  8
001
 62
     3
370
     9
100
AcDbVertex
100
AcDb2dVertex
 10
564.614673
 20
835.394445
 30
0.0
  0
VERTEX
  5
6E0
330
6CF
100
AcDbEntity
  8
001
 62
     3
370
     9
100
AcDbVertex
100
AcDb2dVertex
 10
570.614675
 20
836.290445
 30
0.0
  0
VERTEX
  5
6E1
330
6CF
100
AcDbEntity
  8
001
 62
     3
370
     9
100
AcDbVertex
100
AcDb2dVertex
 10
576.614676
 20
835.394445
 30
0.0
  0
VERTEX
  5
6E2
330
6CF
100
AcDbEntity
  8
001
 62
     3
370
     9
100
AcDbVertex
100
AcDb2dVertex
 10
582.614678
 20
832.962445
 30
0.0
  0
VERTEX
  5
6E3
330
6CF
100
AcDbEntity
  8
001
 62
     3
370
     9
100
AcDbVertex
100
AcDb2dVertex
 10
588.614679
 20
829.378445
 30
0.0
  0
VERTEX
  5
6E4
330
6CF
100
AcDbEntity
  8
001
 62
     3
370
     9
100
AcDbVertex
100
AcDb2dVertex
 10
594.614681
 20
825.026445
 30
0.0
  0
VERTEX
  5
6E5
330
6CF
100
AcDbEntity
  8
001
 62
     3
370
     9
100
AcDbVertex
100
AcDb2dVertex
 10
600.614682
 20
820.290445
 30
0.0
  0
SEQEND
  5
6D0
330
6CF
100
AcDbEntity
  8
001
370
     9
  0
POLYLINE
  5
6E6
330
1F
100
AcDbEntity
  8
001
 62
     3
370
     9
100
AcDb2dPolyline
 66
     1
 10
0.0
 20
0.0
 30
0.0
  0
VERTEX
  5
6E8
330
6E6
100
AcDbEntity
  8
001
 62
     3
370
     9
100
AcDbVertex
100
AcDb2dVertex
 10
480.614652
 20
852.290445
 30
0.0
  0
VERTEX
  5
6E9
330
6E6
100
AcDbEntity
  8
001
 62
     3
370
     9
100
AcDbVertex
100
AcDb2dVertex
 10
486.614654
 20
847.554445
 30
0.0
  0
VERTEX
  5
6EA
330
6E6
100
AcDbEntity
  8
001
 62
     3
370
     9
100
AcDbVertex
100
AcDb2dVertex
 10
492.614655
 20
843.202445
 30
0.0
  0
VERTEX
  5
6EB
330
6E6
100
AcDbEntity
  8
001
 62
     3
370
     9
100
AcDbVertex
100
AcDb2dVertex
 10
498.614657
 20
839.618445
 30
0.0
  0
VERTEX
  5
6EC
330
6E6
100
AcDbEntity
  8
001
 62
     3
370
     9
100
AcDbVertex
100
AcDb2dVertex
 10
504.614658
 20
837.186445
 30
0.0
  0
VERTEX
  5
6ED
330
6E6
100
AcDbEntity
  8
001
 62
     3
370
     9
100
AcDbVertex
100
AcDb2dVertex
 10
510.61466
 20
836.290445
 30
0.0
  0
VERTEX
  5
6EE
330
6E6
100
AcDbEntity
  8
001
 62
     3
370
     9
100
AcDbVertex
100
AcDb2dVertex
 10
516.614661
 20
837.186445
 30
0.0
  0
VERTEX
  5
6EF
330
6E6
100
AcDbEntity
  8
001
 62
     3
370
     9
100
AcDbVertex
100
AcDb2dVertex
 10
522.614663
 20
839.618445
 30
0.0
  0
VERTEX
  5
6F0
330
6E6
100
AcDbEntity
  8
001
 62
     3
370
     9
100
AcDbVertex
100
AcDb2dVertex
 10
528.614664
 20
843.202445
 30
0.0
  0
VERTEX
  5
6F1
330
6E6
100
AcDbEntity
  8
001
 62
     3
370
     9
100
AcDbVertex
100
AcDb2dVertex
 10
534.614666
 20
847.554445
 30
0.0
  0
VERTEX
  5
6F2
330
6E6
100
AcDbEntity
  8
001
 62
     3
370
     9
100
AcDbVertex
100
AcDb2dVertex
 10
540.614667
 20
852.290445
 30
0.0
  0
VERTEX
  5
6F3
330
6E6
100
AcDbEntity
  8
001
 62
     3
370
     9
100
AcDbVertex
100
AcDb2dVertex
 10
546.614669
 20
857.026445
 30
0.0
  0
VERTEX
  5
6F4
330
6E6
100
AcDbEntity
  8
001
 62
     3
370
     9
100
AcDbVertex
100
AcDb2dVertex
 10
552.61467
 20
861.378445
 30
0.0
  0
VERTEX
  5
6F5
330
6E6
100
AcDbEntity
  8
001
 62
     3
370
     9
100
AcDbVertex
100
AcDb2dVertex
 10
558.614672
 20
864.962445
 30
0.0
  0
VERTEX
  5
6F6
330
6E6
100
AcDbEntity
  8
001
 62
     3
370
     9
100
AcDbVertex
100
AcDb2dVertex
 10
564.614673
 20
867.394445
 30
0.0
  0
VERTEX
  5
6F7
330
6E6
100
AcDbEntity
  8
001
 62
     3
370
     9
100
AcDbVertex
100
AcDb2dVertex
 10
570.614675
 20
868.290445
 30
0.0
  0
VERTEX
  5
6F8
330
6E6
100
AcDbEntity
  8
001
 62
     3
370
     9
100
AcDbVertex
100
AcDb2dVertex
 10
576.614676
 20
867.394445
 30
0.0
  0
VERTEX
  5
6F9
330
6E6
100
AcDbEntity
  8
001
 62
     3
370
     9
100
AcDbVertex
100
AcDb2dVertex
 10
582.614678
 20
864.962445
 30
0.0
  0
VERTEX
  5
6FA
330
6E6
100
AcDbEntity
  8
001
 62
     3
370
     9
100
AcDbVertex
100
AcDb2dVertex
 10
588.614679
 20
861.378445
 30
0.0
  0
VERTEX
  5
6FB
330
6E6
100
AcDbEntity
  8
001
 62
     3
370
     9
100
AcDbVertex
100
AcDb2dVertex
 10
594.614681
 20
857.026445
 30
0.0
  0
VERTEX
  5
6FC
330
6E6
100
AcDbEntity
  8
001
 62
     3
370
     9
100
AcDbVertex
100
AcDb2dVertex
 10
600.614682
 20
852.290445
 30
0.0
  0
SEQEND
  5
6E7
330
6E6
100
AcDbEntity
  8
001
370
     9
  0
LINE
  5
6FD
330
1F
100
AcDbEntity
  8
001
 62
     3
370
    30
100
AcDbLine
 10
480.614652
 20
921.846963
 30
0.0
 11
480.614652
 21
852.290445
 31
0.0
  0
LINE
  5
6FE
330
1F
100
AcDbEntity
  8
001
 62
     3
370
    30
100
AcDbLine
 10
480.614652
 20
820.290445
 30
0.0
 11
480.614652
 21
686.487307
 31
0.0
  0
LINE
  5
6FF
330
1F
100
AcDbEntity
  8
001
 62
    40
370
     9
100
AcDbLine
 10
487.396702
 20
921.846963
 30
0.0
 11
487.396702
 21
846.957235
 31
0.0
  0
LINE
  5
700
330
1F
100
AcDbEntity
  8
001
 62
    40
370
     9
100
AcDbLine
 10
487.396702
 20
814.957235
 30
0.0
 11
487.396702
 21
756.487307
 31
0.0
  0
LINE
  5
701
330
1F
100
AcDbEntity
  8
001
 62
    40
370
     9
100
AcDbLine
 10
593.832702
 20
921.846963
 30
0.0
 11
593.832702
 21
857.623601
 31
0.0
  0
LINE
  5
702
330
1F
100
AcDbEntity
  8
001
 62
    40
370
     9
100
AcDbLine
 10
593.832702
 20
825.623601
 30
0.0
 11
593.832702
 21
756.487307
 31
0.0
  0
LINE
  5
703
330
1F
100
AcDbEntity
  8
001
 62
     3
370
    30
100
AcDbLine
 10
600.614682
 20
921.846963
 30
0.0
 11
600.614682
 21
852.290445
 31
0.0
  0
LINE
  5
704
330
1F
100
AcDbEntity
  8
001
 62
     3
370
    30
100
AcDbLine
 10
600.614682
 20
820.290445
 30
0.0
 11
600.614682
 21
686.487307
 31
0.0
  0
POLYLINE
  5
705
330
1F
100
AcDbEntity
  8
001
 62
     3
370
     9
100
AcDb2dPolyline
 66
     1
 10
0.0
 20
0.0
 30
0.0
  0
VERTEX
  5
707
330
705
100
AcDbEntity
  8
001
 62
     3
370
     9
100
AcDbVertex
100
AcDb2dVertex
 10
1175.614652
 20
818.49726
 30
0.0
  0
VERTEX
  5
708
330
705
100
AcDbEntity
  8
001
 62
     3
370
     9
100
AcDbVertex
100
AcDb2dVertex
 10
1181.614654
 20
813.76126
 30
0.0
  0
VERTEX
  5
709
330
705
100
AcDbEntity
  8
001
 62
     3
370
     9
100
AcDbVertex
100
AcDb2dVertex
 10
1187.614655
 20
809.40926
 30
0.0
  0
VERTEX
  5
70A
330
705
100
AcDbEntity
  8
001
 62
     3
370
     9
100
AcDbVertex
100
AcDb2dVertex
 10
1193.614657
 20
805.82526
 30
0.0
  0
VERTEX
  5
70B
330
705
100
AcDbEntity
  8
001
 62
     3
370
     9
100
AcDbVertex
100
AcDb2dVertex
 10
1199.614658
 20
803.39326
 30
0.0
  0
VERTEX
  5
70C
330
705
100
AcDbEntity
  8
001
 62
     3
370
     9
100
AcDbVertex
100
AcDb2dVertex
 10
1205.61466
 20
802.49726
 30
0.0
  0
VERTEX
  5
70D
330
705
100
AcDbEntity
  8
001
 62
     3
370
     9
100
AcDbVertex
100
AcDb2dVertex
 10
1211.614661
 20
803.39326
 30
0.0
  0
VERTEX
  5
70E
330
705
100
AcDbEntity
  8
001
 62
     3
370
     9
100
AcDbVertex
100
AcDb2dVertex
 10
1217.614663
 20
805.82526
 30
0.0
  0
VERTEX
  5
70F
330
705
100
AcDbEntity
  8
001
 62
     3
370
     9
100
AcDbVertex
100
AcDb2dVertex
 10
1223.614664
 20
809.40926
 30
0.0
  0
VERTEX
  5
710
330
705
100
AcDbEntity
  8
001
 62
     3
370
     9
100
AcDbVertex
100
AcDb2dVertex
 10
1229.614666
 20
813.76126
 30
0.0
  0
VERTEX
  5
711
330
705
100
AcDbEntity
  8
001
 62
     3
370
     9
100
AcDbVertex
100
AcDb2dVertex
 10
1235.614667
 20
818.49726
 30
0.0
  0
VERTEX
  5
712
330
705
100
AcDbEntity
  8
001
 62
     3
370
     9
100
AcDbVertex
100
AcDb2dVertex
 10
1241.614669
 20
823.23326
 30
0.0
  0
VERTEX
  5
713
330
705
100
AcDbEntity
  8
001
 62
     3
370
     9
100
AcDbVertex
100
AcDb2dVertex
 10
1247.61467
 20
827.58526
 30
0.0
  0
VERTEX
  5
714
330
705
100
AcDbEntity
  8
001
 62
     3
370
     9
100
AcDbVertex
100
AcDb2dVertex
 10
1253.614672
 20
831.16926
 30
0.0
  0
VERTEX
  5
715
330
705
100
AcDbEntity
  8
001
 62
     3
370
     9
100
AcDbVertex
100
AcDb2dVertex
 10
1259.614673
 20
833.60126
 30
0.0
  0
VERTEX
  5
716
330
705
100
AcDbEntity
  8
001
 62
     3
370
     9
100
AcDbVertex
100
AcDb2dVertex
 10
1265.614675
 20
834.49726
 30
0.0
  0
VERTEX
  5
717
330
705
100
AcDbEntity
  8
001
 62
     3
370
     9
100
AcDbVertex
100
AcDb2dVertex
 10
1271.614676
 20
833.60126
 30
0.0
  0
VERTEX
  5
718
330
705
100
AcDbEntity
  8
001
 62
     3
370
     9
100
AcDbVertex
100
AcDb2dVertex
 10
1277.614678
 20
831.16926
 30
0.0
  0
VERTEX
  5
719
330
705
100
AcDbEntity
  8
001
 62
     3
370
     9
100
AcDbVertex
100
AcDb2dVertex
 10
1283.614679
 20
827.58526
 30
0.0
  0
VERTEX
  5
71A
330
705
100
AcDbEntity
  8
001
 62
     3
370
     9
100
AcDbVertex
100
AcDb2dVertex
 10
1289.614681
 20
823.23326
 30
0.0
  0
VERTEX
  5
71B
330
705
100
AcDbEntity
  8
001
 62
     3
370
     9
100
AcDbVertex
100
AcDb2dVertex
 10
1295.614682
 20
818.49726
 30
0.0
  0
SEQEND
  5
706
330
705
100
AcDbEntity
  8
001
370
     9
  0
POLYLINE
  5
71C
330
1F
100
AcDbEntity
  8
001
 62
     3
370
     9
100
AcDb2dPolyline
 66
     1
 10
0.0
 20
0.0
 30
0.0
  0
VERTEX
  5
71E
330
71C
100
AcDbEntity
  8
001
 62
     3
370
     9
100
AcDbVertex
100
AcDb2dVertex
 10
1175.614652
 20
850.49726
 30
0.0
  0
VERTEX
  5
71F
330
71C
100
AcDbEntity
  8
001
 62
     3
370
     9
100
AcDbVertex
100
AcDb2dVertex
 10
1181.614654
 20
845.76126
 30
0.0
  0
VERTEX
  5
720
330
71C
100
AcDbEntity
  8
001
 62
     3
370
     9
100
AcDbVertex
100
AcDb2dVertex
 10
1187.614655
 20
841.40926
 30
0.0
  0
VERTEX
  5
721
330
71C
100
AcDbEntity
  8
001
 62
     3
370
     9
100
AcDbVertex
100
AcDb2dVertex
 10
1193.614657
 20
837.82526
 30
0.0
  0
VERTEX
  5
722
330
71C
100
AcDbEntity
  8
001
 62
     3
370
     9
100
AcDbVertex
100
AcDb2dVertex
 10
1199.614658
 20
835.39326
 30
0.0
  0
VERTEX
  5
723
330
71C
100
AcDbEntity
  8
001
 62
     3
370
     9
100
AcDbVertex
100
AcDb2dVertex
 10
1205.61466
 20
834.49726
 30
0.0
  0
VERTEX
  5
724
330
71C
100
AcDbEntity
  8
001
 62
     3
370
     9
100
AcDbVertex
100
AcDb2dVertex
 10
1211.614661
 20
835.39326
 30
0.0
  0
VERTEX
  5
725
330
71C
100
AcDbEntity
  8
001
 62
     3
370
     9
100
AcDbVertex
100
AcDb2dVertex
 10
1217.614663
 20
837.82526
 30
0.0
  0
VERTEX
  5
726
330
71C
100
AcDbEntity
  8
001
 62
     3
370
     9
100
AcDbVertex
100
AcDb2dVertex
 10
1223.614664
 20
841.40926
 30
0.0
  0
VERTEX
  5
727
330
71C
100
AcDbEntity
  8
001
 62
     3
370
     9
100
AcDbVertex
100
AcDb2dVertex
 10
1229.614666
 20
845.76126
 30
0.0
  0
VERTEX
  5
728
330
71C
100
AcDbEntity
  8
001
 62
     3
370
     9
100
AcDbVertex
100
AcDb2dVertex
 10
1235.614667
 20
850.49726
 30
0.0
  0
VERTEX
  5
729
330
71C
100
AcDbEntity
  8
001
 62
     3
370
     9
100
AcDbVertex
100
AcDb2dVertex
 10
1241.614669
 20
855.23326
 30
0.0
  0
VERTEX
  5
72A
330
71C
100
AcDbEntity
  8
001
 62
     3
370
     9
100
AcDbVertex
100
AcDb2dVertex
 10
1247.61467
 20
859.58526
 30
0.0
  0
VERTEX
  5
72B
330
71C
100
AcDbEntity
  8
001
 62
     3
370
     9
100
AcDbVertex
100
AcDb2dVertex
 10
1253.614672
 20
863.16926
 30
0.0
  0
VERTEX
  5
72C
330
71C
100
AcDbEntity
  8
001
 62
     3
370
     9
100
AcDbVertex
100
AcDb2dVertex
 10
1259.614673
 20
865.60126
 30
0.0
  0
VERTEX
  5
72D
330
71C
100
AcDbEntity
  8
001
 62
     3
370
     9
100
AcDbVertex
100
AcDb2dVertex
 10
1265.614675
 20
866.49726
 30
0.0
  0
VERTEX
  5
72E
330
71C
100
AcDbEntity
  8
001
 62
     3
370
     9
100
AcDbVertex
100
AcDb2dVertex
 10
1271.614676
 20
865.60126
 30
0.0
  0
VERTEX
  5
72F
330
71C
100
AcDbEntity
  8
001
 62
     3
370
     9
100
AcDbVertex
100
AcDb2dVertex
 10
1277.614678
 20
863.16926
 30
0.0
  0
VERTEX
  5
730
330
71C
100
AcDbEntity
  8
001
 62
     3
370
     9
100
AcDbVertex
100
AcDb2dVertex
 10
1283.614679
 20
859.58526
 30
0.0
  0
VERTEX
  5
731
330
71C
100
AcDbEntity
  8
001
 62
     3
370
     9
100
AcDbVertex
100
AcDb2dVertex
 10
1289.614681
 20
855.23326
 30
0.0
  0
VERTEX
  5
732
330
71C
100
AcDbEntity
  8
001
 62
     3
370
     9
100
AcDbVertex
100
AcDb2dVertex
 10
1295.614682
 20
850.49726
 30
0.0
  0
SEQEND
  5
71D
330
71C
100
AcDbEntity
  8
001
370
     9
  0
LINE
  5
733
330
1F
100
AcDbEntity
  8
001
 62
     3
370
    30
100
AcDbLine
 10
1175.614652
 20
921.846963
 30
0.0
 11
1175.614652
 21
850.49726
 31
0.0
  0
LINE
  5
734
330
1F
100
AcDbEntity
  8
001
 62
     3
370
    30
100
AcDbLine
 10
1175.614652
 20
818.49726
 30
0.0
 11
1175.614652
 21
686.487307
 31
0.0
  0
LINE
  5
735
330
1F
100
AcDbEntity
  8
001
 62
    40
370
     9
100
AcDbLine
 10
1182.396702
 20
921.846963
 30
0.0
 11
1182.396702
 21
845.16405
 31
0.0
  0
LINE
  5
736
330
1F
100
AcDbEntity
  8
001
 62
    40
370
     9
100
AcDbLine
 10
1182.396702
 20
813.16405
 30
0.0
 11
1182.396702
 21
756.487307
 31
0.0
  0
LINE
  5
737
330
1F
100
AcDbEntity
  8
001
 62
    40
370
     9
100
AcDbLine
 10
1288.832702
 20
921.846963
 30
0.0
 11
1288.832702
 21
855.830416
 31
0.0
  0
LINE
  5
738
330
1F
100
AcDbEntity
  8
001
 62
    40
370
     9
100
AcDbLine
 10
1288.832702
 20
823.830416
 30
0.0
 11
1288.832702
 21
756.487307
 31
0.0
  0
LINE
  5
739
330
1F
100
AcDbEntity
  8
001
 62
     3
370
    30
100
AcDbLine
 10
1295.614682
 20
921.846963
 30
0.0
 11
1295.614682
 21
850.49726
 31
0.0
  0
LINE
  5
73A
330
1F
100
AcDbEntity
  8
001
 62
     3
370
    30
100
AcDbLine
 10
1295.614682
 20
818.49726
 30
0.0
 11
1295.614682
 21
686.487307
 31
0.0
  0
POLYLINE
  5
73B
330
1F
100
AcDbEntity
  8
002
 62
     3
370
     9
100
AcDb2dPolyline
 66
     1
 10
0.0
 20
0.0
 30
0.0
  0
VERTEX
  5
73D
330
73B
100
AcDbEntity
  8
002
 62
     3
370
     9
100
AcDbVertex
100
AcDb2dVertex
 10
1900.866771
 20
881.727416
 30
0.0
  0
VERTEX
  5
73E
330
73B
100
AcDbEntity
  8
002
 62
     3
370
     9
100
AcDbVertex
100
AcDb2dVertex
 10
1906.866773
 20
876.991416
 30
0.0
  0
VERTEX
  5
73F
330
73B
100
AcDbEntity
  8
002
 62
     3
370
     9
100
AcDbVertex
100
AcDb2dVertex
 10
1912.866774
 20
872.639416
 30
0.0
  0
VERTEX
  5
740
330
73B
100
AcDbEntity
  8
002
 62
     3
370
     9
100
AcDbVertex
100
AcDb2dVertex
 10
1918.866776
 20
869.055416
 30
0.0
  0
VERTEX
  5
741
330
73B
100
AcDbEntity
  8
002
 62
     3
370
     9
100
AcDbVertex
100
AcDb2dVertex
 10
1924.866777
 20
866.623416
 30
0.0
  0
VERTEX
  5
742
330
73B
100
AcDbEntity
  8
002
 62
     3
370
     9
100
AcDbVertex
100
AcDb2dVertex
 10
1930.866779
 20
865.727416
 30
0.0
  0
VERTEX
  5
743
330
73B
100
AcDbEntity
  8
002
 62
     3
370
     9
100
AcDbVertex
100
AcDb2dVertex
 10
1936.86678
 20
866.623416
 30
0.0
  0
VERTEX
  5
744
330
73B
100
AcDbEntity
  8
002
 62
     3
370
     9
100
AcDbVertex
100
AcDb2dVertex
 10
1942.866782
 20
869.055416
 30
0.0
  0
VERTEX
  5
745
330
73B
100
AcDbEntity
  8
002
 62
     3
370
     9
100
AcDbVertex
100
AcDb2dVertex
 10
1948.866783
 20
872.639416
 30
0.0
  0
VERTEX
  5
746
330
73B
100
AcDbEntity
  8
002
 62
     3
370
     9
100
AcDbVertex
100
AcDb2dVertex
 10
1954.866785
 20
876.991416
 30
0.0
  0
VERTEX
  5
747
330
73B
100
AcDbEntity
  8
002
 62
     3
370
     9
100
AcDbVertex
100
AcDb2dVertex
 10
1960.866786
 20
881.727416
 30
0.0
  0
VERTEX
  5
748
330
73B
100
AcDbEntity
  8
002
 62
     3
370
     9
100
AcDbVertex
100
AcDb2dVertex
 10
1966.866788
 20
886.463416
 30
0.0
  0
VERTEX
  5
749
330
73B
100
AcDbEntity
  8
002
 62
     3
370
     9
100
AcDbVertex
100
AcDb2dVertex
 10
1972.866789
 20
890.815416
 30
0.0
  0
VERTEX
  5
74A
330
73B
100
AcDbEntity
  8
002
 62
     3
370
     9
100
AcDbVertex
100
AcDb2dVertex
 10
1978.866791
 20
894.399416
 30
0.0
  0
VERTEX
  5
74B
330
73B
100
AcDbEntity
  8
002
 62
     3
370
     9
100
AcDbVertex
100
AcDb2dVertex
 10
1984.866792
 20
896.831416
 30
0.0
  0
VERTEX
  5
74C
330
73B
100
AcDbEntity
  8
002
 62
     3
370
     9
100
AcDbVertex
100
AcDb2dVertex
 10
1990.866794
 20
897.727416
 30
0.0
  0
VERTEX
  5
74D
330
73B
100
AcDbEntity
  8
002
 62
     3
370
     9
100
AcDbVertex
100
AcDb2dVertex
 10
1996.866795
 20
896.831416
 30
0.0
  0
VERTEX
  5
74E
330
73B
100
AcDbEntity
  8
002
 62
     3
370
     9
100
AcDbVertex
100
AcDb2dVertex
 10
2002.866797
 20
894.399416
 30
0.0
  0
VERTEX
  5
74F
330
73B
100
AcDbEntity
  8
002
 62
     3
370
     9
100
AcDbVertex
100
AcDb2dVertex
 10
2008.866798
 20
890.815416
 30
0.0
  0
VERTEX
  5
750
330
73B
100
AcDbEntity
  8
002
 62
     3
370
     9
100
AcDbVertex
100
AcDb2dVertex
 10
2014.8668
 20
886.463416
 30
0.0
  0
VERTEX
  5
751
330
73B
100
AcDbEntity
  8
002
 62
     3
370
     9
100
AcDbVertex
100
AcDb2dVertex
 10
2020.866801
 20
881.727416
 30
0.0
  0
SEQEND
  5
73C
330
73B
100
AcDbEntity
  8
002
370
     9
  0
POLYLINE
  5
752
330
1F
100
AcDbEntity
  8
002
 62
     3
370
     9
100
AcDb2dPolyline
 66
     1
 10
0.0
 20
0.0
 30
0.0
  0
VERTEX
  5
754
330
752
100
AcDbEntity
  8
002
 62
     3
370
     9
100
AcDbVertex
100
AcDb2dVertex
 10
1900.866771
 20
913.727416
 30
0.0
  0
VERTEX
  5
755
330
752
100
AcDbEntity
  8
002
 62
     3
370
     9
100
AcDbVertex
100
AcDb2dVertex
 10
1906.866773
 20
908.991416
 30
0.0
  0
VERTEX
  5
756
330
752
100
AcDbEntity
  8
002
 62
     3
370
     9
100
AcDbVertex
100
AcDb2dVertex
 10
1912.866774
 20
904.639416
 30
0.0
  0
VERTEX
  5
757
330
752
100
AcDbEntity
  8
002
 62
     3
370
     9
100
AcDbVertex
100
AcDb2dVertex
 10
1918.866776
 20
901.055416
 30
0.0
  0
VERTEX
  5
758
330
752
100
AcDbEntity
  8
002
 62
     3
370
     9
100
AcDbVertex
100
AcDb2dVertex
 10
1924.866777
 20
898.623416
 30
0.0
  0
VERTEX
  5
759
330
752
100
AcDbEntity
  8
002
 62
     3
370
     9
100
AcDbVertex
100
AcDb2dVertex
 10
1930.866779
 20
897.727416
 30
0.0
  0
VERTEX
  5
75A
330
752
100
AcDbEntity
  8
002
 62
     3
370
     9
100
AcDbVertex
100
AcDb2dVertex
 10
1936.86678
 20
898.623416
 30
0.0
  0
VERTEX
  5
75B
330
752
100
AcDbEntity
  8
002
 62
     3
370
     9
100
AcDbVertex
100
AcDb2dVertex
 10
1942.866782
 20
901.055416
 30
0.0
  0
VERTEX
  5
75C
330
752
100
AcDbEntity
  8
002
 62
     3
370
     9
100
AcDbVertex
100
AcDb2dVertex
 10
1948.866783
 20
904.639416
 30
0.0
  0
VERTEX
  5
75D
330
752
100
AcDbEntity
  8
002
 62
     3
370
     9
100
AcDbVertex
100
AcDb2dVertex
 10
1954.866785
 20
908.991416
 30
0.0
  0
VERTEX
  5
75E
330
752
100
AcDbEntity
  8
002
 62
     3
370
     9
100
AcDbVertex
100
AcDb2dVertex
 10
1960.866786
 20
913.727416
 30
0.0
  0
VERTEX
  5
75F
330
752
100
AcDbEntity
  8
002
 62
     3
370
     9
100
AcDbVertex
100
AcDb2dVertex
 10
1966.866788
 20
918.463416
 30
0.0
  0
VERTEX
  5
760
330
752
100
AcDbEntity
  8
002
 62
     3
370
     9
100
AcDbVertex
100
AcDb2dVertex
 10
1972.866789
 20
922.815416
 30
0.0
  0
VERTEX
  5
761
330
752
100
AcDbEntity
  8
002
 62
     3
370
     9
100
AcDbVertex
100
AcDb2dVertex
 10
1978.866791
 20
926.399416
 30
0.0
  0
VERTEX
  5
762
330
752
100
AcDbEntity
  8
002
 62
     3
370
     9
100
AcDbVertex
100
AcDb2dVertex
 10
1984.866792
 20
928.831416
 30
0.0
  0
VERTEX
  5
763
330
752
100
AcDbEntity
  8
002
 62
     3
370
     9
100
AcDbVertex
100
AcDb2dVertex
 10
1990.866794
 20
929.727416
 30
0.0
  0
VERTEX
  5
764
330
752
100
AcDbEntity
  8
002
 62
     3
370
     9
100
AcDbVertex
100
AcDb2dVertex
 10
1996.866795
 20
928.831416
 30
0.0
  0
VERTEX
  5
765
330
752
100
AcDbEntity
  8
002
 62
     3
370
     9
100
AcDbVertex
100
AcDb2dVertex
 10
2002.866797
 20
926.399416
 30
0.0
  0
VERTEX
  5
766
330
752
100
AcDbEntity
  8
002
 62
     3
370
     9
100
AcDbVertex
100
AcDb2dVertex
 10
2008.866798
 20
922.815416
 30
0.0
  0
VERTEX
  5
767
330
752
100
AcDbEntity
  8
002
 62
     3
370
     9
100
AcDbVertex
100
AcDb2dVertex
 10
2014.8668
 20
918.463416
 30
0.0
  0
VERTEX
  5
768
330
752
100
AcDbEntity
  8
002
 62
     3
370
     9
100
AcDbVertex
100
AcDb2dVertex
 10
2020.866801
 20
913.727416
 30
0.0
  0
SEQEND
  5
753
330
752
100
AcDbEntity
  8
002
370
     9
  0
LINE
  5
769
330
1F
100
AcDbEntity
  8
001
 62
     3
370
    30
100
AcDbLine
 10
1900.866771
 20
747.547588
 30
0.0
 11
1900.866771
 21
881.727416
 31
0.0
  0
LINE
  5
76A
330
1F
100
AcDbEntity
  8
001
 62
     3
370
    30
100
AcDbLine
 10
1900.866771
 20
913.727416
 30
0.0
 11
1900.866771
 21
1047.907244
 31
0.0
  0
LINE
  5
76B
330
1F
100
AcDbEntity
  8
001
 62
    40
370
     9
100
AcDbLine
 10
1907.648821
 20
747.547588
 30
0.0
 11
1907.648821
 21
876.394206
 31
0.0
  0
LINE
  5
76C
330
1F
100
AcDbEntity
  8
001
 62
    40
370
     9
100
AcDbLine
 10
1907.648821
 20
908.394206
 30
0.0
 11
1907.648821
 21
977.907244
 31
0.0
  0
LINE
  5
76D
330
1F
100
AcDbEntity
  8
001
 62
    40
370
     9
100
AcDbLine
 10
2014.084821
 20
747.547588
 30
0.0
 11
2014.084821
 21
887.060572
 31
0.0
  0
LINE
  5
76E
330
1F
100
AcDbEntity
  8
001
 62
    40
370
     9
100
AcDbLine
 10
2014.084821
 20
919.060572
 30
0.0
 11
2014.084821
 21
977.907244
 31
0.0
  0
LINE
  5
76F
330
1F
100
AcDbEntity
  8
001
 62
     3
370
    30
100
AcDbLine
 10
2020.866801
 20
747.547588
 30
0.0
 11
2020.866801
 21
881.727416
 31
0.0
  0
LINE
  5
770
330
1F
100
AcDbEntity
  8
001
 62
     3
370
    30
100
AcDbLine
 10
2020.866801
 20
913.727416
 30
0.0
 11
2020.866801
 21
1047.907244
 31
0.0
  0
POLYLINE
  5
771
330
1F
100
AcDbEntity
  8
002
 62
     3
370
     9
100
AcDb2dPolyline
 66
     1
 10
0.0
 20
0.0
 30
0.0
  0
VERTEX
  5
773
330
771
100
AcDbEntity
  8
002
 62
     3
370
     9
100
AcDbVertex
100
AcDb2dVertex
 10
2645.866771
 20
881.727416
 30
0.0
  0
VERTEX
  5
774
330
771
100
AcDbEntity
  8
002
 62
     3
370
     9
100
AcDbVertex
100
AcDb2dVertex
 10
2651.866773
 20
876.991416
 30
0.0
  0
VERTEX
  5
775
330
771
100
AcDbEntity
  8
002
 62
     3
370
     9
100
AcDbVertex
100
AcDb2dVertex
 10
2657.866774
 20
872.639416
 30
0.0
  0
VERTEX
  5
776
330
771
100
AcDbEntity
  8
002
 62
     3
370
     9
100
AcDbVertex
100
AcDb2dVertex
 10
2663.866776
 20
869.055416
 30
0.0
  0
VERTEX
  5
777
330
771
100
AcDbEntity
  8
002
 62
     3
370
     9
100
AcDbVertex
100
AcDb2dVertex
 10
2669.866777
 20
866.623416
 30
0.0
  0
VERTEX
  5
778
330
771
100
AcDbEntity
  8
002
 62
     3
370
     9
100
AcDbVertex
100
AcDb2dVertex
 10
2675.866779
 20
865.727416
 30
0.0
  0
VERTEX
  5
779
330
771
100
AcDbEntity
  8
002
 62
     3
370
     9
100
AcDbVertex
100
AcDb2dVertex
 10
2681.86678
 20
866.623416
 30
0.0
  0
VERTEX
  5
77A
330
771
100
AcDbEntity
  8
002
 62
     3
370
     9
100
AcDbVertex
100
AcDb2dVertex
 10
2687.866782
 20
869.055416
 30
0.0
  0
VERTEX
  5
77B
330
771
100
AcDbEntity
  8
002
 62
     3
370
     9
100
AcDbVertex
100
AcDb2dVertex
 10
2693.866783
 20
872.639416
 30
0.0
  0
VERTEX
  5
77C
330
771
100
AcDbEntity
  8
002
 62
     3
370
     9
100
AcDbVertex
100
AcDb2dVertex
 10
2699.866785
 20
876.991416
 30
0.0
  0
VERTEX
  5
77D
330
771
100
AcDbEntity
  8
002
 62
     3
370
     9
100
AcDbVertex
100
AcDb2dVertex
 10
2705.866786
 20
881.727416
 30
0.0
  0
VERTEX
  5
77E
330
771
100
AcDbEntity
  8
002
 62
     3
370
     9
100
AcDbVertex
100
AcDb2dVertex
 10
2711.866788
 20
886.463416
 30
0.0
  0
VERTEX
  5
77F
330
771
100
AcDbEntity
  8
002
 62
     3
370
     9
100
AcDbVertex
100
AcDb2dVertex
 10
2717.866789
 20
890.815416
 30
0.0
  0
VERTEX
  5
780
330
771
100
AcDbEntity
  8
002
 62
     3
370
     9
100
AcDbVertex
100
AcDb2dVertex
 10
2723.866791
 20
894.399416
 30
0.0
  0
VERTEX
  5
781
330
771
100
AcDbEntity
  8
002
 62
     3
370
     9
100
AcDbVertex
100
AcDb2dVertex
 10
2729.866792
 20
896.831416
 30
0.0
  0
VERTEX
  5
782
330
771
100
AcDbEntity
  8
002
 62
     3
370
     9
100
AcDbVertex
100
AcDb2dVertex
 10
2735.866794
 20
897.727416
 30
0.0
  0
VERTEX
  5
783
330
771
100
AcDbEntity
  8
002
 62
     3
370
     9
100
AcDbVertex
100
AcDb2dVertex
 10
2741.866795
 20
896.831416
 30
0.0
  0
VERTEX
  5
784
330
771
100
AcDbEntity
  8
002
 62
     3
370
     9
100
AcDbVertex
100
AcDb2dVertex
 10
2747.866797
 20
894.399416
 30
0.0
  0
VERTEX
  5
785
330
771
100
AcDbEntity
  8
002
 62
     3
370
     9
100
AcDbVertex
100
AcDb2dVertex
 10
2753.866798
 20
890.815416
 30
0.0
  0
VERTEX
  5
786
330
771
100
AcDbEntity
  8
002
 62
     3
370
     9
100
AcDbVertex
100
AcDb2dVertex
 10
2759.8668
 20
886.463416
 30
0.0
  0
VERTEX
  5
787
330
771
100
AcDbEntity
  8
002
 62
     3
370
     9
100
AcDbVertex
100
AcDb2dVertex
 10
2765.866801
 20
881.727416
 30
0.0
  0
SEQEND
  5
772
330
771
100
AcDbEntity
  8
002
370
     9
  0
POLYLINE
  5
788
330
1F
100
AcDbEntity
  8
002
 62
     3
370
     9
100
AcDb2dPolyline
 66
     1
 10
0.0
 20
0.0
 30
0.0
  0
VERTEX
  5
78A
330
788
100
AcDbEntity
  8
002
 62
     3
370
     9
100
AcDbVertex
100
AcDb2dVertex
 10
2645.866771
 20
913.727416
 30
0.0
  0
VERTEX
  5
78B
330
788
100
AcDbEntity
  8
002
 62
     3
370
     9
100
AcDbVertex
100
AcDb2dVertex
 10
2651.866773
 20
908.991416
 30
0.0
  0
VERTEX
  5
78C
330
788
100
AcDbEntity
  8
002
 62
     3
370
     9
100
AcDbVertex
100
AcDb2dVertex
 10
2657.866774
 20
904.639416
 30
0.0
  0
VERTEX
  5
78D
330
788
100
AcDbEntity
  8
002
 62
     3
370
     9
100
AcDbVertex
100
AcDb2dVertex
 10
2663.866776
 20
901.055416
 30
0.0
  0
VERTEX
  5
78E
330
788
100
AcDbEntity
  8
002
 62
     3
370
     9
100
AcDbVertex
100
AcDb2dVertex
 10
2669.866777
 20
898.623416
 30
0.0
  0
VERTEX
  5
78F
330
788
100
AcDbEntity
  8
002
 62
     3
370
     9
100
AcDbVertex
100
AcDb2dVertex
 10
2675.866779
 20
897.727416
 30
0.0
  0
VERTEX
  5
790
330
788
100
AcDbEntity
  8
002
 62
     3
370
     9
100
AcDbVertex
100
AcDb2dVertex
 10
2681.86678
 20
898.623416
 30
0.0
  0
VERTEX
  5
791
330
788
100
AcDbEntity
  8
002
 62
     3
370
     9
100
AcDbVertex
100
AcDb2dVertex
 10
2687.866782
 20
901.055416
 30
0.0
  0
VERTEX
  5
792
330
788
100
AcDbEntity
  8
002
 62
     3
370
     9
100
AcDbVertex
100
AcDb2dVertex
 10
2693.866783
 20
904.639416
 30
0.0
  0
VERTEX
  5
793
330
788
100
AcDbEntity
  8
002
 62
     3
370
     9
100
AcDbVertex
100
AcDb2dVertex
 10
2699.866785
 20
908.991416
 30
0.0
  0
VERTEX
  5
794
330
788
100
AcDbEntity
  8
002
 62
     3
370
     9
100
AcDbVertex
100
AcDb2dVertex
 10
2705.866786
 20
913.727416
 30
0.0
  0
VERTEX
  5
795
330
788
100
AcDbEntity
  8
002
 62
     3
370
     9
100
AcDbVertex
100
AcDb2dVertex
 10
2711.866788
 20
918.463416
 30
0.0
  0
VERTEX
  5
796
330
788
100
AcDbEntity
  8
002
 62
     3
370
     9
100
AcDbVertex
100
AcDb2dVertex
 10
2717.866789
 20
922.815416
 30
0.0
  0
VERTEX
  5
797
330
788
100
AcDbEntity
  8
002
 62
     3
370
     9
100
AcDbVertex
100
AcDb2dVertex
 10
2723.866791
 20
926.399416
 30
0.0
  0
VERTEX
  5
798
330
788
100
AcDbEntity
  8
002
 62
     3
370
     9
100
AcDbVertex
100
AcDb2dVertex
 10
2729.866792
 20
928.831416
 30
0.0
  0
VERTEX
  5
799
330
788
100
AcDbEntity
  8
002
 62
     3
370
     9
100
AcDbVertex
100
AcDb2dVertex
 10
2735.866794
 20
929.727416
 30
0.0
  0
VERTEX
  5
79A
330
788
100
AcDbEntity
  8
002
 62
     3
370
     9
100
AcDbVertex
100
AcDb2dVertex
 10
2741.866795
 20
928.831416
 30
0.0
  0
VERTEX
  5
79B
330
788
100
AcDbEntity
  8
002
 62
     3
370
     9
100
AcDbVertex
100
AcDb2dVertex
 10
2747.866797
 20
926.399416
 30
0.0
  0
VERTEX
  5
79C
330
788
100
AcDbEntity
  8
002
 62
     3
370
     9
100
AcDbVertex
100
AcDb2dVertex
 10
2753.866798
 20
922.815416
 30
0.0
  0
VERTEX
  5
79D
330
788
100
AcDbEntity
  8
002
 62
     3
370
     9
100
AcDbVertex
100
AcDb2dVertex
 10
2759.8668
 20
918.463416
 30
0.0
  0
VERTEX
  5
79E
330
788
100
AcDbEntity
  8
002
 62
     3
370
     9
100
AcDbVertex
100
AcDb2dVertex
 10
2765.866801
 20
913.727416
 30
0.0
  0
SEQEND
  5
789
330
788
100
AcDbEntity
  8
002
370
     9
  0
LINE
  5
79F
330
1F
100
AcDbEntity
  8
001
 62
     3
370
    30
100
AcDbLine
 10
2645.866771
 20
747.547588
 30
0.0
 11
2645.866771
 21
881.727416
 31
0.0
  0
LINE
  5
7A0
330
1F
100
AcDbEntity
  8
001
 62
     3
370
    30
100
AcDbLine
 10
2645.866771
 20
913.727416
 30
0.0
 11
2645.866771
 21
1047.907244
 31
0.0
  0
LINE
  5
7A1
330
1F
100
AcDbEntity
  8
001
 62
    40
370
     9
100
AcDbLine
 10
2652.648821
 20
747.547588
 30
0.0
 11
2652.648821
 21
876.394206
 31
0.0
  0
LINE
  5
7A2
330
1F
100
AcDbEntity
  8
001
 62
    40
370
     9
100
AcDbLine
 10
2652.648821
 20
908.394206
 30
0.0
 11
2652.648821
 21
977.907244
 31
0.0
  0
LINE
  5
7A3
330
1F
100
AcDbEntity
  8
001
 62
    40
370
     9
100
AcDbLine
 10
2759.084821
 20
747.547588
 30
0.0
 11
2759.084821
 21
887.060572
 31
0.0
  0
LINE
  5
7A4
330
1F
100
AcDbEntity
  8
001
 62
    40
370
     9
100
AcDbLine
 10
2759.084821
 20
919.060572
 30
0.0
 11
2759.084821
 21
977.907244
 31
0.0
  0
LINE
  5
7A5
330
1F
100
AcDbEntity
  8
001
 62
     3
370
    30
100
AcDbLine
 10
2765.866801
 20
747.547588
 30
0.0
 11
2765.866801
 21
881.727416
 31
0.0
  0
LINE
  5
7A6
330
1F
100
AcDbEntity
  8
001
 62
     3
370
    30
100
AcDbLine
 10
2765.866801
 20
913.727416
 30
0.0
 11
2765.866801
 21
1047.907244
 31
0.0
  0
LINE
  5
7A7
330
1F
100
AcDbEntity
  8
002
  6
CENTER
 62
    40
370
     9
100
AcDbLine
 10
540.614667
 20
131.582392
 30
0.0
 11
540.614667
 21
1571.326474
 31
0.0
  0
LINE
  5
7A8
330
1F
100
AcDbEntity
  8
002
  6
CENTER
 62
    40
370
     9
100
AcDbLine
 10
1235.614667
 20
131.582392
 30
0.0
 11
1235.614667
 21
1571.326474
 31
0.0
  0
LINE
  5
7A9
330
1F
100
AcDbEntity
  8
002
  6
CENTER
 62
    40
370
     9
100
AcDbLine
 10
1960.867033
 20
1618.780775
 30
0.0
 11
1960.867033
 21
86.315295
 31
0.0
  0
LINE
  5
7AA
330
1F
100
AcDbEntity
  8
002
  6
CENTER
 62
    40
370
     9
100
AcDbLine
 10
2705.867033
 20
1618.780775
 30
0.0
 11
2705.867033
 21
86.315295
 31
0.0
  0
LINE
  5
7AB
330
1F
100
AcDbEntity
  8
002
  6
CENTER
 62
    40
370
     9
100
AcDbLine
 10
619.005914
 20
543.220307
 30
0.0
 11
637.779914
 21
535.443307
 31
0.0
  0
LINE
  5
7AC
330
1F
100
AcDbEntity
  8
002
  6
CENTER
 62
    40
370
     9
100
AcDbLine
 10
637.779914
 20
487.531307
 30
0.0
 11
619.005914
 21
479.755307
 31
0.0
  0
LINE
  5
7AD
330
1F
100
AcDbEntity
  8
002
  6
CENTER
 62
    40
370
     9
100
AcDbLine
 10
671.658914
 20
453.653307
 30
0.0
 11
663.881914
 21
434.879307
 31
0.0
  0
LINE
  5
7AE
330
1F
100
AcDbEntity
  8
002
  6
CENTER
 62
    40
370
     9
100
AcDbLine
 10
727.346914
 20
588.096307
 30
0.0
 11
719.570914
 21
569.322307
 31
0.0
  0
LINE
  5
7AF
330
1F
100
AcDbEntity
  8
002
  6
CENTER
 62
    40
370
     9
100
AcDbLine
 10
753.448914
 20
535.443307
 30
0.0
 11
772.222914
 21
543.220307
 31
0.0
  0
CIRCLE
  5
7B0
330
1F
100
AcDbEntity
  8
002
  6
CENTER
 62
    40
370
     9
100
AcDbCircle
 10
695.614914
 20
511.487307
 30
0.0
 40
72.5
  0
LINE
  5
7B1
330
1F
100
AcDbEntity
  8
002
  6
CENTER
 62
    40
370
     9
100
AcDbLine
 10
753.448914
 20
487.531307
 30
0.0
 11
772.222914
 21
479.755307
 31
0.0
  0
LINE
  5
7B2
330
1F
100
AcDbEntity
  8
002
  6
CENTER
 62
    40
370
     9
100
AcDbLine
 10
727.346914
 20
434.879307
 30
0.0
 11
719.570914
 21
453.653307
 31
0.0
  0
LINE
  5
7B3
330
1F
100
AcDbEntity
  8
002
  6
CENTER
 62
    40
370
     9
100
AcDbLine
 10
671.658914
 20
569.322307
 30
0.0
 11
663.881914
 21
588.096307
 31
0.0
  0
LINE
  5
7B4
330
1F
100
AcDbEntity
  8
002
  6
CENTER
 62
    40
370
     9
100
AcDbLine
 10
1314.005914
 20
543.220307
 30
0.0
 11
1332.779914
 21
535.443307
 31
0.0
  0
LINE
  5
7B5
330
1F
100
AcDbEntity
  8
002
  6
CENTER
 62
    40
370
     9
100
AcDbLine
 10
1332.779914
 20
487.531307
 30
0.0
 11
1314.005914
 21
479.755307
 31
0.0
  0
LINE
  5
7B6
330
1F
100
AcDbEntity
  8
002
  6
CENTER
 62
    40
370
     9
100
AcDbLine
 10
1366.658914
 20
453.653307
 30
0.0
 11
1358.881914
 21
434.879307
 31
0.0
  0
LINE
  5
7B7
330
1F
100
AcDbEntity
  8
002
  6
CENTER
 62
    40
370
     9
100
AcDbLine
 10
1422.346914
 20
588.096307
 30
0.0
 11
1414.570914
 21
569.322307
 31
0.0
  0
LINE
  5
7B8
330
1F
100
AcDbEntity
  8
002
  6
CENTER
 62
    40
370
     9
100
AcDbLine
 10
1448.448914
 20
535.443307
 30
0.0
 11
1467.222914
 21
543.220307
 31
0.0
  0
CIRCLE
  5
7B9
330
1F
100
AcDbEntity
  8
002
  6
CENTER
 62
    40
370
     9
100
AcDbCircle
 10
1390.614914
 20
511.487307
 30
0.0
 40
72.5
  0
LINE
  5
7BA
330
1F
100
AcDbEntity
  8
002
  6
CENTER
 62
    40
370
     9
100
AcDbLine
 10
1448.448914
 20
487.531307
 30
0.0
 11
1467.222914
 21
479.755307
 31
0.0
  0
LINE
  5
7BB
330
1F
100
AcDbEntity
  8
002
  6
CENTER
 62
    40
370
     9
100
AcDbLine
 10
1422.346914
 20
434.879307
 30
0.0
 11
1414.570914
 21
453.653307
 31
0.0
  0
LINE
  5
7BC
330
1F
100
AcDbEntity
  8
002
  6
CENTER
 62
    40
370
     9
100
AcDbLine
 10
1366.658914
 20
569.322307
 30
0.0
 11
1358.881914
 21
588.096307
 31
0.0
  0
LINE
  5
7BD
330
1F
100
AcDbEntity
  8
002
  6
CENTER
 62
    40
370
     9
100
AcDbLine
 10
2039.258033
 20
1254.640244
 30
0.0
 11
2058.032033
 21
1246.863244
 31
0.0
  0
LINE
  5
7BE
330
1F
100
AcDbEntity
  8
002
  6
CENTER
 62
    40
370
     9
100
AcDbLine
 10
2058.032033
 20
1198.951244
 30
0.0
 11
2039.258033
 21
1191.175244
 31
0.0
  0
LINE
  5
7BF
330
1F
100
AcDbEntity
  8
002
  6
CENTER
 62
    40
370
     9
100
AcDbLine
 10
2091.911033
 20
1165.073244
 30
0.0
 11
2084.134033
 21
1146.299244
 31
0.0
  0
LINE
  5
7C0
330
1F
100
AcDbEntity
  8
002
  6
CENTER
 62
    40
370
     9
100
AcDbLine
 10
2147.599033
 20
1299.516244
 30
0.0
 11
2139.823033
 21
1280.742244
 31
0.0
  0
LINE
  5
7C1
330
1F
100
AcDbEntity
  8
002
  6
CENTER
 62
    40
370
     9
100
AcDbLine
 10
2173.701033
 20
1246.863244
 30
0.0
 11
2192.475033
 21
1254.640244
 31
0.0
  0
CIRCLE
  5
7C2
330
1F
100
AcDbEntity
  8
002
  6
CENTER
 62
    40
370
     9
100
AcDbCircle
 10
2115.867033
 20
1222.907244
 30
0.0
 40
72.5
  0
LINE
  5
7C3
330
1F
100
AcDbEntity
  8
002
  6
CENTER
 62
    40
370
     9
100
AcDbLine
 10
2173.701033
 20
1198.951244
 30
0.0
 11
2192.475033
 21
1191.175244
 31
0.0
  0
LINE
  5
7C4
330
1F
100
AcDbEntity
  8
002
  6
CENTER
 62
    40
370
     9
100
AcDbLine
 10
2147.599033
 20
1146.299244
 30
0.0
 11
2139.823033
 21
1165.073244
 31
0.0
  0
LINE
  5
7C5
330
1F
100
AcDbEntity
  8
002
  6
CENTER
 62
    40
370
     9
100
AcDbLine
 10
2091.911033
 20
1280.742244
 30
0.0
 11
2084.134033
 21
1299.516244
 31
0.0
  0
LINE
  5
7C6
330
1F
100
AcDbEntity
  8
002
  6
CENTER
 62
    40
370
     9
100
AcDbLine
 10
2784.258033
 20
1254.640244
 30
0.0
 11
2803.032033
 21
1246.863244
 31
0.0
  0
LINE
  5
7C7
330
1F
100
AcDbEntity
  8
002
  6
CENTER
 62
    40
370
     9
100
AcDbLine
 10
2803.032033
 20
1198.951244
 30
0.0
 11
2784.258033
 21
1191.175244
 31
0.0
  0
LINE
  5
7C8
330
1F
100
AcDbEntity
  8
002
  6
CENTER
 62
    40
370
     9
100
AcDbLine
 10
2836.911033
 20
1165.073244
 30
0.0
 11
2829.134033
 21
1146.299244
 31
0.0
  0
LINE
  5
7C9
330
1F
100
AcDbEntity
  8
002
  6
CENTER
 62
    40
370
     9
100
AcDbLine
 10
2892.599033
 20
1299.516244
 30
0.0
 11
2884.823033
 21
1280.742244
 31
0.0
  0
LINE
  5
7CA
330
1F
100
AcDbEntity
  8
002
  6
CENTER
 62
    40
370
     9
100
AcDbLine
 10
2918.701033
 20
1246.863244
 30
0.0
 11
2937.475033
 21
1254.640244
 31
0.0
  0
CIRCLE
  5
7CB
330
1F
100
AcDbEntity
  8
002
  6
CENTER
 62
    40
370
     9
100
AcDbCircle
 10
2860.867033
 20
1222.907244
 30
0.0
 40
72.5
  0
LINE
  5
7CC
330
1F
100
AcDbEntity
  8
002
  6
CENTER
 62
    40
370
     9
100
AcDbLine
 10
2918.701033
 20
1198.951244
 30
0.0
 11
2937.475033
 21
1191.175244
 31
0.0
  0
LINE
  5
7CD
330
1F
100
AcDbEntity
  8
002
  6
CENTER
 62
    40
370
     9
100
AcDbLine
 10
2892.599033
 20
1146.299244
 30
0.0
 11
2884.823033
 21
1165.073244
 31
0.0
  0
LINE
  5
7CE
330
1F
100
AcDbEntity
  8
002
  6
CENTER
 62
    40
370
     9
100
AcDbLine
 10
2836.911033
 20
1280.742244
 30
0.0
 11
2829.134033
 21
1299.516244
 31
0.0
  0
ENDSEC
  0
SECTION
  2
OBJECTS
  0
DICTIONARY
  5
C
330
0
100
AcDbDictionary
281
     1
  3
ACAD_GROUP
350
D
  3
ACAD_LAYOUT
350
1A
  3
ACAD_MLEADERSTYLE
350
7D1
  3
ACAD_MLINESTYLE
350
17
  3
ACAD_PLOTSETTINGS
350
19
  3
ACAD_PLOTSTYLENAME
350
E
  3
ACAD_VISUALSTYLE
350
2A
  3
AcDbVariableDictionary
350
7CF
  0
DICTIONARY
  5
D
102
{ACAD_REACTORS
330
C
102
}
330
C
100
AcDbDictionary
281
     1
  0
DICTIONARY
  5
1A
102
{ACAD_REACTORS
330
C
102
}
330
C
100
AcDbDictionary
281
     1
  3
Layout1
350
1E
  3
Layout2
350
26
  3
Model
350
22
  0
DICTIONARY
  5
7D1
102
{ACAD_REACTORS
330
C
102
}
330
C
100
AcDbDictionary
281
     1
  0
DICTIONARY
  5
17
102
{ACAD_REACTORS
330
C
102
}
330
C
100
AcDbDictionary
281
     1
  3
Standard
350
18
  0
DICTIONARY
  5
19
102
{ACAD_REACTORS
330
C
102
}
330
C
100
AcDbDictionary
281
     1
  0
ACDBDICTIONARYWDFLT
  5
E
102
{ACAD_REACTORS
330
C
102
}
330
C
100
AcDbDictionary
281
     1
  3
Normal
350
F
100
AcDbDictionaryWithDefault
340
F
  0
DICTIONARY
  5
2A
102
{ACAD_REACTORS
330
C
102
}
330
C
100
AcDbDictionary
281
     1
  3
2dWireframe
350
2F
  3
3D Hidden
350
31
  3
3dWireframe
350
30
  3
Basic
350
32
  3
Brighten
350
36
  3
ColorChange
350
3A
  3
Conceptual
350
34
  3
Dim
350
35
  3
Facepattern
350
39
  3
Flat
350
2B
  3
FlatWithEdges
350
2C
  3
Gouraud
350
2D
  3
GouraudWithEdges
350
2E
  3
Linepattern
350
38
  3
Realistic
350
33
  3
Thicken
350
37
  0
DICTIONARY
  5
7CF
102
{ACAD_REACTORS
330
C
102
}
330
C
100
AcDbDictionary
281
     1
  3
PSOLHEIGHT
350
7D3
  3
PSOLWIDTH
350
7D2
  0
LAYOUT
  5
1E
102
{ACAD_REACTORS
330
1A
102
}
330
1A
100
AcDbPlotSettings
  1

  2
none_device
  4

  6

 40
0.0
 41
0.0
 42
0.0
 43
0.0
 44
0.0
 45
0.0
 46
0.0
 47
0.0
 48
0.0
 49
0.0
140
0.0
141
0.0
142
1.0
143
1.0
 70
   688
 72
     0
 73
     0
 74
     5
  7

 75
    16
147
1.0
148
0.0
149
0.0
100
AcDbLayout
  1
Layout1
 70
     1
 71
     1
 10
0.0
 20
0.0
 11
12.0
 21
9.0
 12
0.0
 22
0.0
 32
0.0
 14
1.000000E+20
 24
1.000000E+20
 34
0.0
 15
-1.000000E+20
 25
-1.000000E+20
 35
0.0
146
0.0
 13
0.0
 23
0.0
 33
0.0
 16
1.0
 26
0.0
 36
0.0
 17
0.0
 27
1.0
 37
0.0
 76
     0
330
1B
  0
LAYOUT
  5
26
102
{ACAD_REACTORS
330
1A
102
}
330
1A
100
AcDbPlotSettings
  1

  2
none_device
  4

  6

 40
0.0
 41
0.0
 42
0.0
 43
0.0
 44
0.0
 45
0.0
 46
0.0
 47
0.0
 48
0.0
 49
0.0
140
0.0
141
0.0
142
1.0
143
1.0
 70
   688
 72
     0
 73
     0
 74
     5
  7

 75
    16
147
1.0
148
0.0
149
0.0
100
AcDbLayout
  1
Layout2
 70
     1
 71
     2
 10
0.0
 20
0.0
 11
0.0
 21
0.0
 12
0.0
 22
0.0
 32
0.0
 14
0.0
 24
0.0
 34
0.0
 15
0.0
 25
0.0
 35
0.0
146
0.0
 13
0.0
 23
0.0
 33
0.0
 16
1.0
 26
0.0
 36
0.0
 17
0.0
 27
1.0
 37
0.0
 76
     0
330
23
  0
LAYOUT
  5
22
102
{ACAD_REACTORS
330
1A
102
}
330
1A
100
AcDbPlotSettings
  1

  2
none_device
  4

  6

 40
0.0
 41
0.0
 42
0.0
 43
0.0
 44
0.0
 45
0.0
 46
0.0
 47
0.0
 48
0.0
 49
0.0
140
0.0
141
0.0
142
1.0
143
1.0
 70
  1712
 72
     0
 73
     0
 74
     0
  7

 75
     0
147
1.0
148
0.0
149
0.0
100
AcDbLayout
  1
Model
 70
     1
 71
     0
 10
0.0
 20
0.0
 11
12.0
 21
9.0
 12
0.0
 22
0.0
 32
0.0
 14
266.511963
 24
86.315186
 34
0.0
 15
3050.866943
 25
3755.922852
 35
0.0
146
0.0
 13
0.0
 23
0.0
 33
0.0
 16
1.0
 26
0.0
 36
0.0
 17
0.0
 27
1.0
 37
0.0
 76
     0
330
1F
331
29
  0
MLINESTYLE
  5
18
102
{ACAD_REACTORS
330
17
102
}
330
17
100
AcDbMlineStyle
  2
Standard
 70
     0
  3

 62
   256
 51
90.0
 52
90.0
 71
     2
 49
0.5
 62
   256
  6
BYLAYER
 49
-0.5
 62
   256
  6
BYLAYER
  0
ACDBPLACEHOLDER
  5
F
102
{ACAD_REACTORS
330
E
102
}
330
E
  0
VISUALSTYLE
  5
2F
102
{ACAD_REACTORS
330
2A
102
}
330
2A
100
AcDbVisualStyle
  2
2dWireframe
 70
     4
 71
     0
 72
     2
 73
     0
 90
        0
 40
-0.6
 41
-30.0
 62
     5
 63
     7
 74
     1
 91
        4
 64
     7
 65
   257
 75
     1
175
     1
 42
1.0
 92
        0
 66
   257
 43
1.0
 76
     1
 77
     6
 78
     2
 67
     7
 79
     5
170
     0
171
     0
290
     0
174
     0
 93
        1
 44
0.0
173
     0
291
     0
 45
0.0
1001
ACAD
1000
AcDbSavedByObjectVersion
1070
     0
  0
VISUALSTYLE
  5
31
102
{ACAD_REACTORS
330
2A
102
}
330
2A
100
AcDbVisualStyle
  2
3D Hidden
 70
     6
 71
     1
 72
     2
 73
     2
 90
        0
 40
-0.6
 41
-30.0
 62
     5
 63
     7
 74
     2
 91
        2
 64
     7
 65
   257
 75
     2
175
     1
 42
40.0
 92
        0
 66
   257
 43
1.0
 76
     1
 77
     6
 78
     2
 67
     7
 79
     3
170
     0
171
     0
290
     0
174
     0
 93
        1
 44
0.0
173
     0
291
     0
 45
0.0
1001
ACAD
1000
AcDbSavedByObjectVersion
1070
     0
  0
VISUALSTYLE
  5
30
102
{ACAD_REACTORS
330
2A
102
}
330
2A
100
AcDbVisualStyle
  2
3dWireframe
 70
     5
 71
     0
 72
     2
 73
     0
 90
        0
 40
-0.6
 41
-30.0
 62
     5
 63
     7
 74
     1
 91
        4
 64
     7
 65
   257
 75
     1
175
     1
 42
1.0
 92
        0
 66
   257
 43
1.0
 76
     1
 77
     6
 78
     2
 67
     7
 79
     5
170
     0
171
     0
290
     0
174
     0
 93
        1
 44
0.0
173
     0
291
     0
 45
0.0
1001
ACAD
1000
AcDbSavedByObjectVersion
1070
     0
  0
VISUALSTYLE
  5
32
102
{ACAD_REACTORS
330
2A
102
}
330
2A
100
AcDbVisualStyle
  2
Basic
 70
     7
 71
     1
 72
     0
 73
     1
 90
        0
 40
-0.6
 41
-30.0
 62
     5
 63
     7
 74
     0
 91
        4
 64
     7
 65
   257
 75
     1
175
     1
 42
1.0
 92
        8
 66
     7
 43
1.0
 76
     1
 77
     6
 78
     2
 67
     7
 79
     5
170
     0
171
     0
290
     0
174
     0
 93
        1
 44
0.0
173
     0
291
     1
 45
0.0
1001
ACAD
1000
AcDbSavedByObjectVersion
1070
     0
  0
VISUALSTYLE
  5
36
102
{ACAD_REACTORS
330
2A
102
}
330
2A
100
AcDbVisualStyle
  2
Brighten
 70
    12
 71
     2
 72
     2
 73
     0
 90
        0
 40
-0.6
 41
-30.0
 62
     5
 63
     7
 74
     1
 91
        4
 64
     7
 65
   257
 75
     1
175
     1
 42
1.0
 92
        8
 66
     7
 43
1.0
 76
     1
 77
     6
 78
     2
 67
     7
 79
     5
170
     0
171
     0
290
     0
174
     0
 93
        1
 44
50.0
173
     0
291
     1
 45
0.0
1001
ACAD
1000
AcDbSavedByObjectVersion
1070
     0
  0
VISUALSTYLE
  5
3A
102
{ACAD_REACTORS
330
2A
102
}
330
2A
100
AcDbVisualStyle
  2
ColorChange
 70
    16
 71
     2
 72
     2
 73
     3
 90
        0
 40
-0.6
 41
-30.0
 62
     5
 63
     8
 74
     1
 91
        4
 64
     7
 65
   257
 75
     1
175
     1
 42
1.0
 92
        8
 66
     8
 43
1.0
 76
     1
 77
     6
 78
     2
 67
     7
 79
     5
170
     0
171
     0
290
     0
174
     0
 93
        1
 44
0.0
173
     0
291
     1
 45
0.0
1001
ACAD
1000
AcDbSavedByObjectVersion
1070
     0
  0
VISUALSTYLE
  5
34
102
{ACAD_REACTORS
330
2A
102
}
330
2A
100
AcDbVisualStyle
  2
Conceptual
 70
     9
 71
     3
 72
     2
 73
     0
 90
        0
 40
-0.6
 41
-30.0
 62
     5
 63
     7
 74
     2
 91
        2
 64
     7
 65
   257
 75
     1
175
     1
 42
40.0
 92
        8
 66
     7
 43
1.0
 76
     1
 77
     6
 78
     2
 67
     7
 79
     3
170
     0
171
     0
290
     0
174
     0
 93
        1
 44
0.0
173
     0
291
     0
 45
0.0
1001
ACAD
1000
AcDbSavedByObjectVersion
1070
     0
  0
VISUALSTYLE
  5
35
102
{ACAD_REACTORS
330
2A
102
}
330
2A
100
AcDbVisualStyle
  2
Dim
 70
    11
 71
     2
 72
     2
 73
     0
 90
        0
 40
-0.6
 41
-30.0
 62
     5
 63
     7
 74
     1
 91
        4
 64
     7
 65
   257
 75
     1
175
     1
 42
1.0
 92
        8
 66
     7
 43
1.0
 76
     1
 77
     6
 78
     2
 67
     7
 79
     5
170
     0
171
     0
290
     0
174
     0
 93
        1
 44
-50.0
173
     0
291
     1
 45
0.0
1001
ACAD
1000
AcDbSavedByObjectVersion
1070
     0
  0
VISUALSTYLE
  5
39
102
{ACAD_REACTORS
330
2A
102
}
330
2A
100
AcDbVisualStyle
  2
Facepattern
 70
    15
 71
     2
 72
     2
 73
     0
 90
        0
 40
-0.6
 41
-30.0
 62
     5
 63
     7
 74
     1
 91
        4
 64
     7
 65
   257
 75
     1
175
     1
 42
1.0
 92
        8
 66
     7
 43
1.0
 76
     1
 77
     6
 78
     2
 67
     7
 79
     5
170
     0
171
     0
290
     0
174
     0
 93
        1
 44
0.0
173
     0
291
     1
 45
0.0
1001
ACAD
1000
AcDbSavedByObjectVersion
1070
     0
  0
VISUALSTYLE
  5
2B
102
{ACAD_REACTORS
330
2A
102
}
330
2A
100
AcDbVisualStyle
  2
Flat
 70
     0
 71
     2
 72
     1
 73
     1
 90
        2
 40
-0.6
 41
30.0
 62
     5
 63
     7
 74
     0
 91
        4
 64
     7
 65
   257
 75
     1
175
     1
 42
1.0
 92
        8
 66
     7
 43
1.0
 76
     1
 77
     6
 78
     2
 67
     7
 79
     5
170
     0
171
     0
290
     0
174
     0
 93
       13
 44
0.0
173
     0
291
     1
 45
0.0
1001
ACAD
1000
AcDbSavedByObjectVersion
1070
     0
  0
VISUALSTYLE
  5
2C
102
{ACAD_REACTORS
330
2A
102
}
330
2A
100
AcDbVisualStyle
  2
FlatWithEdges
 70
     1
 71
     2
 72
     1
 73
     1
 90
        2
 40
-0.6
 41
30.0
 62
     5
 63
     7
 74
     1
 91
        4
 64
     7
 65
   257
 75
     1
175
     1
 42
1.0
 92
        0
 66
   257
 43
1.0
 76
     1
 77
     6
 78
     2
 67
     7
 79
     5
170
     0
171
     0
290
     0
174
     0
 93
       13
 44
0.0
173
     0
291
     1
 45
0.0
1001
ACAD
1000
AcDbSavedByObjectVersion
1070
     0
  0
VISUALSTYLE
  5
2D
102
{ACAD_REACTORS
330
2A
102
}
330
2A
100
AcDbVisualStyle
  2
Gouraud
 70
     2
 71
     2
 72
     2
 73
     1
 90
        2
 40
-0.6
 41
30.0
 62
     5
 63
     7
 74
     0
 91
        4
 64
     7
 65
   257
 75
     1
175
     1
 42
1.0
 92
        0
 66
     7
 43
1.0
 76
     1
 77
     6
 78
     2
 67
     7
 79
     5
170
     0
171
     0
290
     0
174
     0
 93
       13
 44
0.0
173
     0
291
     1
 45
0.0
1001
ACAD
1000
AcDbSavedByObjectVersion
1070
     0
  0
VISUALSTYLE
  5
2E
102
{ACAD_REACTORS
330
2A
102
}
330
2A
100
AcDbVisualStyle
  2
GouraudWithEdges
 70
     3
 71
     2
 72
     2
 73
     1
 90
        2
 40
-0.6
 41
30.0
 62
     5
 63
     7
 74
     1
 91
        4
 64
     7
 65
   257
 75
     1
175
     1
 42
1.0
 92
        0
 66
   257
 43
1.0
 76
     1
 77
     6
 78
     2
 67
     7
 79
     5
170
     0
171
     0
290
     0
174
     0
 93
       13
 44
0.0
173
     0
291
     1
 45
0.0
1001
ACAD
1000
AcDbSavedByObjectVersion
1070
     0
  0
VISUALSTYLE
  5
38
102
{ACAD_REACTORS
330
2A
102
}
330
2A
100
AcDbVisualStyle
  2
Linepattern
 70
    14
 71
     2
 72
     2
 73
     0
 90
        0
 40
-0.6
 41
-30.0
 62
     5
 63
     7
 74
     1
 91
        4
 64
     7
 65
   257
 75
     7
175
     7
 42
1.0
 92
        8
 66
     7
 43
1.0
 76
     1
 77
     6
 78
     2
 67
     7
 79
     5
170
     0
171
     0
290
     0
174
     0
 93
        1
 44
0.0
173
     0
291
     1
 45
0.0
1001
ACAD
1000
AcDbSavedByObjectVersion
1070
     0
  0
VISUALSTYLE
  5
33
102
{ACAD_REACTORS
330
2A
102
}
330
2A
100
AcDbVisualStyle
  2
Realistic
 70
     8
 71
     2
 72
     2
 73
     0
 90
        0
 40
-0.6
 41
-30.0
 62
     5
 63
     7
 74
     1
 91
        0
 64
     7
 65
   257
 75
     1
175
     1
 42
1.0
 92
        8
 66
     8
 43
1.0
 76
     1
 77
     6
 78
     2
 67
     7
 79
     5
170
     0
171
     0
290
     0
174
     0
 93
       13
 44
0.0
173
     0
291
     0
 45
0.0
1001
ACAD
1000
AcDbSavedByObjectVersion
1070
     0
  0
VISUALSTYLE
  5
37
102
{ACAD_REACTORS
330
2A
102
}
330
2A
100
AcDbVisualStyle
  2
Thicken
 70
    13
 71
     2
 72
     2
 73
     0
 90
        0
 40
-0.6
 41
-30.0
 62
     5
 63
     7
 74
     1
 91
        4
 64
     7
 65
   257
 75
     1
175
     1
 42
1.0
 92
       12
 66
     7
 43
1.0
 76
     1
 77
     6
 78
     2
 67
     7
 79
     5
170
     0
171
     0
290
     0
174
     0
 93
        1
 44
0.0
173
     0
291
     1
 45
0.0
1001
ACAD
1000
AcDbSavedByObjectVersion
1070
     0
  0
DICTIONARYVAR
  5
7D3
102
{ACAD_REACTORS
330
7CF
102
}
330
7CF
100
DictionaryVariables
280
     0
  1
80.000000
  0
DICTIONARYVAR
  5
7D2
102
{ACAD_REACTORS
330
7CF
102
}
330
7CF
100
DictionaryVariables
280
     0
  1
5.000000
  0
ENDSEC
  0
EOF
