  0
SECTION
  2
HEADER
  9
$ACADVER
  1
AC1009
  9
$DWGCODEPAGE
  3
ansi_932
  9
$INSBASE
 10
0.0
 20
0.0
 30
0.0
  9
$EXTMIN
 10
4.909912
 20
32.550781
 30
0.0
  9
$EXTMAX
 10
1740.336548
 20
680.068726
 30
0.0
  9
$LIMMIN
 10
0.0
 20
0.0
  9
$LIMMAX
 10
12.0
 20
9.0
  9
$ORTHOMODE
 70
     0
  9
$REGENMODE
 70
     1
  9
$FILLMODE
 70
     1
  9
$QTEXTMODE
 70
     0
  9
$MIRRTEXT
 70
     1
  9
$DRAGMODE
 70
     2
  9
$LTSCALE
 40
18.522918
  9
$OSMODE
 70
    37
  9
$ATTMODE
 70
     1
  9
$TEXTSIZE
 40
3.2
  9
$TRACEWID
 40
1.0
  9
$TEXTSTYLE
  7
STANDARD
  9
$CLAYER
  8
0
  9
$CELTYPE
  6
BYLAYER
  9
$CECOLOR
 62
   256
  9
$DIMSCALE
 40
1.0
  9
$DIMASZ
 40
2.5
  9
$DIMEXO
 40
0.625
  9
$DIMDLI
 40
3.75
  9
$DIMRND
 40
0.0
  9
$DIMDLE
 40
0.0
  9
$DIMEXE
 40
1.25
  9
$DIMTP
 40
0.0
  9
$DIMTM
 40
0.0
  9
$DIMTXT
 40
2.5
  9
$DIMCEN
 40
0.09
  9
$DIMTSZ
 40
0.0
  9
$DIMTOL
 70
     0
  9
$DIMLIM
 70
     0
  9
$DIMTIH
 70
     0
  9
$DIMTOH
 70
     0
  9
$DIMSE1
 70
     0
  9
$DIMSE2
 70
     0
  9
$DIMTAD
 70
     0
  9
$DIMZIN
 70
     8
  9
$DIMBLK
  1

  9
$DIMASO
 70
     1
  9
$DIMSHO
 70
     0
  9
$DIMPOST
  1

  9
$DIMAPOST
  1

  9
$DIMALT
 70
     0
  9
$DIMALTD
 70
     3
  9
$DIMALTF
 40
0.03937
  9
$DIMLFAC
 40
1.0
  9
$DIMTOFL
 70
     1
  9
$DIMTVP
 40
0.0
  9
$DIMTIX
 70
     0
  9
$DIMSOXD
 70
     0
  9
$DIMSAH
 70
     0
  9
$DIMBLK1
  1

  9
$DIMBLK2
  1

  9
$DIMSTYLE
  2
ISO-25
  9
$DIMCLRD
 70
     0
  9
$DIMCLRE
 70
     0
  9
$DIMCLRT
 70
     0
  9
$DIMTFAC
 40
1.0
  9
$DIMGAP
 40
0.625
  9
$LUNITS
 70
     2
  9
$LUPREC
 70
     4
  9
$SKETCHINC
 40
1.0
  9
$FILLETRAD
 40
0.0
  9
$AUNITS
 70
     0
  9
$AUPREC
 70
     0
  9
$MENU
  1
acad
  9
$ELEVATION
 40
0.0
  9
$PELEVATION
 40
0.0
  9
$THICKNESS
 40
0.0
  9
$LIMCHECK
 70
     0
  9
$CHAMFERA
 40
10.0
  9
$CHAMFERB
 40
10.0
  9
$SKPOLY
 70
     0
  9
$TDCREATE
 40
2457595.492184016
  9
$TDUPDATE
 40
2457595.492184734
  9
$TDINDWG
 40
0.0000000116
  9
$TDUSRTIMER
 40
0.0000000116
  9
$USRTIMER
 70
     1
  9
$ANGBASE
 50
0.0
  9
$ANGDIR
 70
     0
  9
$PDMODE
 70
     0
  9
$PDSIZE
 40
0.0
  9
$PLINEWID
 40
0.0
  9
$COORDS
 70
     1
  9
$SPLFRAME
 70
     0
  9
$SPLINETYPE
 70
     6
  9
$SPLINESEGS
 70
     8
  9
$ATTDIA
 70
     0
  9
$ATTREQ
 70
     1
  9
$HANDLING
 70
     1
  9
$HANDSEED
  5
8CB
  9
$SURFTAB1
 70
     6
  9
$SURFTAB2
 70
     6
  9
$SURFTYPE
 70
     6
  9
$SURFU
 70
     6
  9
$SURFV
 70
     6
  9
$UCSNAME
  2

  9
$UCSORG
 10
0.0
 20
0.0
 30
0.0
  9
$UCSXDIR
 10
1.0
 20
0.0
 30
0.0
  9
$UCSYDIR
 10
0.0
 20
1.0
 30
0.0
  9
$PUCSNAME
  2

  9
$PUCSORG
 10
0.0
 20
0.0
 30
0.0
  9
$PUCSXDIR
 10
1.0
 20
0.0
 30
0.0
  9
$PUCSYDIR
 10
0.0
 20
1.0
 30
0.0
  9
$USERI1
 70
     0
  9
$USERI2
 70
     0
  9
$USERI3
 70
     0
  9
$USERI4
 70
     0
  9
$USERI5
 70
     0
  9
$USERR1
 40
0.0
  9
$USERR2
 40
0.0
  9
$USERR3
 40
0.0
  9
$USERR4
 40
0.0
  9
$USERR5
 40
0.0
  9
$WORLDVIEW
 70
     1
  9
$SHADEDGE
 70
     3
  9
$SHADEDIF
 70
    70
  9
$TILEMODE
 70
     1
  9
$MAXACTVP
 70
    64
  9
$PLIMCHECK
 70
     0
  9
$PEXTMIN
 10
1.000000E+20
 20
1.000000E+20
 30
0.0
  9
$PEXTMAX
 10
-1.000000E+20
 20
-1.000000E+20
 30
0.0
  9
$PLIMMIN
 10
0.0
 20
0.0
  9
$PLIMMAX
 10
12.0
 20
9.0
  9
$UNITMODE
 70
     0
  9
$VISRETAIN
 70
     1
  9
$PLINEGEN
 70
     0
  9
$PSLTSCALE
 70
     1
  0
ENDSEC
  0
SECTION
  2
TABLES
  0
TABLE
  2
VPORT
 70
     1
  0
VPORT
  2
*ACTIVE
 70
     0
 10
0.0
 20
0.0
 11
1.0
 21
1.0
 12
872.62323
 22
356.309753
 13
0.0
 23
0.0
 14
1.0
 24
1.0
 15
0.0
 25
0.0
 16
0.0
 26
0.0
 36
1.0
 17
0.0
 27
0.0
 37
0.0
 40
1036.358623
 41
1.691288
 42
50.0
 43
0.0
 44
0.0
 50
0.0
 51
0.0
 71
     0
 72
  1000
 73
     1
 74
     3
 75
     0
 76
     0
 77
     0
 78
     0
  0
ENDTAB
  0
TABLE
  2
LTYPE
 70
     5
  0
LTYPE
  2
CONTINUOUS
 70
     0
  3
Solid line
 72
    65
 73
     0
 40
0.0
  0
LTYPE
  2
DASHED
 70
     0
  3
DASHED
 72
    83
 73
     2
 40
0.75
 49
0.5
 49
-0.25
  0
LTYPE
  2
HIDDEN
 70
     0
  3
HIDDEN
 72
    83
 73
     2
 40
0.375
 49
0.25
 49
-0.125
  0
LTYPE
  2
CENTER
 70
     0
  3
CENTER
 72
    83
 73
     4
 40
2.0
 49
1.25
 49
-0.25
 49
0.25
 49
-0.25
  0
LTYPE
  2
PHANTOM
 70
     0
  3
PHANTOM
 72
    83
 73
     6
 40
2.5
 49
1.25
 49
-0.25
 49
0.25
 49
-0.25
 49
0.25
 49
-0.25
  0
ENDTAB
  0
TABLE
  2
LAYER
 70
     3
  0
LAYER
  2
0
 70
     0
 62
     7
  6
CONTINUOUS
  0
LAYER
  2
002
 70
     0
 62
     7
  6
CONTINUOUS
  0
LAYER
  2
003
 70
     0
 62
     7
  6
CONTINUOUS
  0
ENDTAB
  0
TABLE
  2
STYLE
 70
     2
  0
STYLE
  2
STANDARD
 70
     0
 40
0.0
 41
1.0
 50
0.0
 71
     0
 42
0.2
  3
TXT
  4
BIGFONT
  0
STYLE
  2
TATEGAKI
 70
     4
 40
1.0
 41
1.0
 50
0.0
 71
     0
 42
0.2
  3
TXT
  4
BIGFONT
  0
ENDTAB
  0
TABLE
  2
VIEW
 70
     0
  0
ENDTAB
  0
TABLE
  2
UCS
 70
     0
  0
ENDTAB
  0
TABLE
  2
APPID
 70
     1
  0
APPID
  2
ACAD
 70
     0
  0
ENDTAB
  0
TABLE
  2
DIMSTYLE
 70
     2
  0
DIMSTYLE
  2
ISO-25
 70
     0
  3

  4

  5

  6

  7

 40
1.0
 41
2.5
 42
0.625
 43
3.75
 44
1.25
 45
0.0
 46
0.0
 47
0.0
 48
0.0
140
2.5
141
2.5
142
0.0
143
0.03937
144
1.0
145
0.0
146
1.0
147
0.625
 71
     0
 72
     0
 73
     0
 74
     0
 75
     0
 76
     0
 77
     1
 78
     8
170
     0
171
     3
172
     1
173
     0
174
     0
175
     0
176
     0
177
     0
178
     0
  0
DIMSTYLE
  2
STANDARD
 70
     0
  3

  4

  5

  6

  7

 40
1.0
 41
3.0
 42
0.5
 43
0.38
 44
0.7
 45
0.0
 46
0.0
 47
0.0
 48
0.0
140
4.0
141
0.09
142
0.0
143
25.4
144
1.0
145
0.0
146
0.65
147
1.0
 71
     0
 72
     0
 73
     0
 74
     0
 75
     0
 76
     0
 77
     1
 78
     8
170
     0
171
     2
172
     1
173
     0
174
     0
175
     0
176
     0
177
     0
178
     0
  0
ENDTAB
  0
ENDSEC
  0
SECTION
  2
BLOCKS
  0
BLOCK
  8
0
  2
$MODEL_SPACE
 70
     0
 10
0.0
 20
0.0
 30
0.0
  3
$MODEL_SPACE
  1

  0
ENDBLK
  5
21
  8
0
  0
BLOCK
 67
     1
  8
0
  2
$PAPER_SPACE
 70
     0
 10
0.0
 20
0.0
 30
0.0
  3
$PAPER_SPACE
  1

  0
ENDBLK
  5
1D
 67
     1
  8
0
  0
BLOCK
  8
0
  2
JZB-1
 70
     0
 10
0.0
 20
0.0
 30
0.0
  3
JZB-1
  1

  0
CIRCLE
  5
4A
  8
002
 62
     3
 10
210.718977
 20
525.721099
 30
0.0
 40
3.5
  0
ENDBLK
  5
49
  8
0
  0
BLOCK
  8
0
  2
JZB-2
 70
     0
 10
0.0
 20
0.0
 30
0.0
  3
JZB-2
  1

  0
CIRCLE
  5
4E
  8
002
 62
     3
 10
305.718977
 20
525.721099
 30
0.0
 40
3.5
  0
ENDBLK
  5
4D
  8
0
  0
BLOCK
  8
0
  2
JZB-3
 70
     0
 10
0.0
 20
0.0
 30
0.0
  3
JZB-3
  1

  0
CIRCLE
  5
52
  8
002
 62
     3
 10
305.718977
 20
595.721099
 30
0.0
 40
3.5
  0
ENDBLK
  5
51
  8
0
  0
BLOCK
  8
0
  2
JZB-4
 70
     0
 10
0.0
 20
0.0
 30
0.0
  3
JZB-4
  1

  0
CIRCLE
  5
56
  8
002
 62
     3
 10
210.718977
 20
595.721099
 30
0.0
 40
3.5
  0
ENDBLK
  5
55
  8
0
  0
BLOCK
  8
0
  2
JZB-5
 70
     0
 10
0.0
 20
0.0
 30
0.0
  3
JZB-5
  1

  0
LINE
  5
5A
  8
002
 62
     3
 10
292.718977
 20
555.221099
 30
0.0
 11
296.718977
 21
566.221099
 31
0.0
  0
LINE
  5
5B
  8
002
 62
     3
 10
296.052311
 20
565.554433
 30
0.0
 11
292.052311
 21
558.887766
 31
0.0
  0
LINE
  5
5C
  8
002
 62
     3
 10
296.718977
 20
566.221099
 30
0.0
 11
289.385644
 21
566.221099
 31
0.0
  0
LINE
  5
5D
  8
002
 62
     3
 10
292.718977
 20
565.554433
 30
0.0
 11
296.052311
 21
565.554433
 31
0.0
  0
LINE
  5
5E
  8
002
 62
     3
 10
292.052311
 20
560.887766
 30
0.0
 11
292.718977
 21
565.554433
 31
0.0
  0
LINE
  5
5F
  8
002
 62
     3
 10
290.718977
 20
560.887766
 30
0.0
 11
292.052311
 21
560.887766
 31
0.0
  0
LINE
  5
60
  8
002
 62
     3
 10
289.385644
 20
566.221099
 30
0.0
 11
290.718977
 21
560.887766
 31
0.0
  0
LINE
  5
61
  8
002
 62
     3
 10
289.385644
 20
558.887766
 30
0.0
 11
284.718977
 21
566.221099
 31
0.0
  0
LINE
  5
62
  8
002
 62
     3
 10
292.052311
 20
558.887766
 30
0.0
 11
289.385644
 21
558.887766
 31
0.0
  0
LINE
  5
63
  8
002
 62
     3
 10
284.718977
 20
566.221099
 30
0.0
 11
288.718977
 21
555.221099
 31
0.0
  0
LINE
  5
64
  8
002
 62
     3
 10
288.718977
 20
555.221099
 30
0.0
 11
292.718977
 21
555.221099
 31
0.0
  0
ENDBLK
  5
59
  8
0
  0
BLOCK
  8
0
  2
JZB-6
 70
     0
 10
0.0
 20
0.0
 30
0.0
  3
JZB-6
  1

  0
CIRCLE
  5
68
  8
002
 62
     3
 10
1159.90849
 20
546.578293
 30
0.0
 40
3.5
  0
ENDBLK
  5
67
  8
0
  0
BLOCK
  8
0
  2
JZB-7
 70
     0
 10
0.0
 20
0.0
 30
0.0
  3
JZB-7
  1

  0
CIRCLE
  5
6C
  8
002
 62
     3
 10
1254.90849
 20
546.578293
 30
0.0
 40
3.5
  0
ENDBLK
  5
6B
  8
0
  0
BLOCK
  8
0
  2
JZB-8
 70
     0
 10
0.0
 20
0.0
 30
0.0
  3
JZB-8
  1

  0
CIRCLE
  5
70
  8
002
 62
     3
 10
1254.90849
 20
616.578293
 30
0.0
 40
3.5
  0
ENDBLK
  5
6F
  8
0
  0
BLOCK
  8
0
  2
JZB-9
 70
     0
 10
0.0
 20
0.0
 30
0.0
  3
JZB-9
  1

  0
CIRCLE
  5
74
  8
002
 62
     3
 10
1159.90849
 20
616.578293
 30
0.0
 40
3.5
  0
ENDBLK
  5
73
  8
0
  0
BLOCK
  8
0
  2
JZB-10
 70
     0
 10
0.0
 20
0.0
 30
0.0
  3
JZB-10
  1

  0
LINE
  5
78
  8
002
 62
     3
 10
1241.90849
 20
576.078293
 30
0.0
 11
1245.90849
 21
587.078293
 31
0.0
  0
LINE
  5
79
  8
002
 62
     3
 10
1245.241823
 20
586.411627
 30
0.0
 11
1241.241823
 21
579.74496
 31
0.0
  0
LINE
  5
7A
  8
002
 62
     3
 10
1245.90849
 20
587.078293
 30
0.0
 11
1238.575157
 21
587.078293
 31
0.0
  0
LINE
  5
7B
  8
002
 62
     3
 10
1241.90849
 20
586.411627
 30
0.0
 11
1245.241823
 21
586.411627
 31
0.0
  0
LINE
  5
7C
  8
002
 62
     3
 10
1241.241823
 20
581.74496
 30
0.0
 11
1241.90849
 21
586.411627
 31
0.0
  0
LINE
  5
7D
  8
002
 62
     3
 10
1239.90849
 20
581.74496
 30
0.0
 11
1241.241823
 21
581.74496
 31
0.0
  0
LINE
  5
7E
  8
002
 62
     3
 10
1238.575157
 20
587.078293
 30
0.0
 11
1239.90849
 21
581.74496
 31
0.0
  0
LINE
  5
7F
  8
002
 62
     3
 10
1238.575157
 20
579.74496
 30
0.0
 11
1233.90849
 21
587.078293
 31
0.0
  0
LINE
  5
80
  8
002
 62
     3
 10
1241.241823
 20
579.74496
 30
0.0
 11
1238.575157
 21
579.74496
 31
0.0
  0
LINE
  5
81
  8
002
 62
     3
 10
1233.90849
 20
587.078293
 30
0.0
 11
1237.90849
 21
576.078293
 31
0.0
  0
LINE
  5
82
  8
002
 62
     3
 10
1237.90849
 20
576.078293
 30
0.0
 11
1241.90849
 21
576.078293
 31
0.0
  0
ENDBLK
  5
77
  8
0
  0
ENDSEC
  0
SECTION
  2
ENTITIES
  0
INSERT
  5
83
  8
002
  6
BYBLOCK
 62
     0
  2
JZB-1
 10
0.0
 20
0.0
 30
0.0
  0
INSERT
  5
84
  8
002
  6
BYBLOCK
 62
     0
  2
JZB-2
 10
0.0
 20
0.0
 30
0.0
  0
INSERT
  5
85
  8
002
  6
BYBLOCK
 62
     0
  2
JZB-3
 10
0.0
 20
0.0
 30
0.0
  0
INSERT
  5
86
  8
002
  6
BYBLOCK
 62
     0
  2
JZB-4
 10
0.0
 20
0.0
 30
0.0
  0
INSERT
  5
87
  8
002
  6
BYBLOCK
 62
     0
  2
JZB-5
 10
0.0
 20
0.0
 30
0.0
  0
INSERT
  5
88
  8
002
  6
BYBLOCK
 62
     0
  2
JZB-6
 10
0.0
 20
0.0
 30
0.0
  0
INSERT
  5
89
  8
002
  6
BYBLOCK
 62
     0
  2
JZB-7
 10
0.0
 20
0.0
 30
0.0
  0
INSERT
  5
8A
  8
002
  6
BYBLOCK
 62
     0
  2
JZB-8
 10
0.0
 20
0.0
 30
0.0
  0
INSERT
  5
8B
  8
002
  6
BYBLOCK
 62
     0
  2
JZB-9
 10
0.0
 20
0.0
 30
0.0
  0
INSERT
  5
8C
  8
002
  6
BYBLOCK
 62
     0
  2
JZB-10
 10
0.0
 20
0.0
 30
0.0
  0
LINE
  5
8D
  8
002
  6
CENTER
 62
    40
 10
645.135738
 20
579.627567
 30
0.0
 11
645.135738
 21
483.3528
 31
0.0
  0
LINE
  5
8E
  8
002
 62
     3
 10
280.218977
 20
431.515599
 30
0.0
 11
279.968977
 21
431.765599
 31
0.0
  0
LINE
  5
8F
  8
002
 62
     3
 10
279.968977
 20
431.765599
 30
0.0
 11
275.468977
 21
431.765599
 31
0.0
  0
LINE
  5
90
  8
002
 62
     3
 10
275.468977
 20
431.765599
 30
0.0
 11
275.218977
 21
431.515599
 31
0.0
  0
LINE
  5
91
  8
002
 62
     3
 10
275.218977
 20
431.515599
 30
0.0
 11
275.218977
 21
427.015599
 31
0.0
  0
LINE
  5
92
  8
002
 62
     3
 10
275.218977
 20
427.015599
 30
0.0
 11
275.468977
 21
426.765599
 31
0.0
  0
LINE
  5
93
  8
002
 62
     3
 10
275.468977
 20
426.765599
 30
0.0
 11
279.968977
 21
426.765599
 31
0.0
  0
LINE
  5
94
  8
002
 62
     3
 10
279.968977
 20
426.765599
 30
0.0
 11
280.218977
 21
427.015599
 31
0.0
  0
LINE
  5
95
  8
002
 62
     3
 10
280.218977
 20
427.015599
 30
0.0
 11
280.218977
 21
431.515599
 31
0.0
  0
ARC
  5
96
  8
002
 62
     3
 10
280.018977
 20
426.965599
 30
0.0
 40
0.1999999999999318
 50
270.0
 51
0.0
  0
ARC
  5
97
  8
002
 62
     3
 10
275.418977
 20
426.965599
 30
0.0
 40
0.1999999999999318
 50
180.0
 51
270.0
  0
ARC
  5
98
  8
002
 62
     3
 10
277.718977
 20
422.265599
 30
0.0
 40
7.500030347271937
 50
109.471139
 51
70.528861
  0
LINE
  5
99
  8
002
  6
CENTER
 62
    40
 10
277.718977
 20
412.142299
 30
0.0
 11
277.718977
 21
434.077299
 31
0.0
  0
LINE
  5
9A
  8
002
  6
CENTER
 62
    40
 10
266.920077
 20
422.265599
 30
0.0
 11
289.453377
 21
422.265599
 31
0.0
  0
ARC
  5
9B
  8
002
 62
     3
 10
645.135738
 20
648.263751
 30
0.0
 40
13.00005157259
 50
302.204588
 51
57.795412
  0
ARC
  5
9C
  8
002
 62
     3
 10
645.135738
 20
648.263751
 30
0.0
 40
12.99999827846152
 50
122.204215
 51
237.795785
  0
LINE
  5
9D
  8
002
 62
     3
 10
633.516838
 20
637.263751
 30
0.0
 11
656.754738
 21
637.263751
 31
0.0
  0
CIRCLE
  5
9E
  8
002
 62
     3
 10
645.135738
 20
648.263751
 30
0.0
 40
16.0
  0
LINE
  5
9F
  8
002
 62
     3
 10
656.754738
 20
659.263751
 30
0.0
 11
633.516838
 21
659.263751
 31
0.0
  0
LINE
  5
A0
  8
002
  6
CENTER
 62
    40
 10
622.292538
 20
648.263751
 30
0.0
 11
668.000438
 21
648.263751
 31
0.0
  0
LINE
  5
A1
  8
002
  6
CENTER
 62
    40
 10
645.135738
 20
669.139751
 30
0.0
 11
645.135738
 21
627.824751
 31
0.0
  0
LINE
  5
A2
  8
002
 62
     3
 10
658.135738
 20
569.68247
 30
0.0
 11
632.135738
 21
569.68247
 31
0.0
  0
LINE
  5
A3
  8
002
 62
     3
 10
632.135738
 20
569.68247
 30
0.0
 11
629.135738
 21
566.68247
 31
0.0
  0
LINE
  5
A4
  8
002
 62
     3
 10
629.135738
 20
566.68247
 30
0.0
 11
629.135738
 21
511.68247
 31
0.0
  0
LINE
  5
A5
  8
002
 62
     3
 10
637.135738
 20
536.68247
 30
0.0
 11
653.135738
 21
536.68247
 31
0.0
  0
CIRCLE
  5
A6
  8
002
 62
     3
 10
645.135738
 20
554.68247
 30
0.0
 40
7.5
  0
LINE
  5
A7
  8
002
 62
     3
 10
656.754738
 20
539.68247
 30
0.0
 11
633.516838
 21
539.68247
 31
0.0
  0
ARC
  5
A8
  8
002
 62
     3
 10
638.142738
 20
541.57997
 30
0.0
 40
4.999955524802121
 50
202.30297
 51
258.381056
  0
LINE
  5
A9
  8
002
 62
     3
 10
633.516838
 20
539.68247
 30
0.0
 11
633.516838
 21
566.68247
 31
0.0
  0
LINE
  5
AA
  8
002
 62
     3
 10
633.516838
 20
566.68247
 30
0.0
 11
629.135738
 21
566.68247
 31
0.0
  0
LINE
  5
AB
  8
002
 62
     3
 10
633.516838
 20
566.68247
 30
0.0
 11
637.389838
 21
569.68247
 31
0.0
  0
LINE
  5
AC
  8
002
  6
CENTER
 62
    40
 10
632.306138
 20
554.68247
 30
0.0
 11
657.452038
 21
554.68247
 31
0.0
  0
LINE
  5
AD
  8
002
 62
     3
 10
656.754738
 20
566.68247
 30
0.0
 11
652.881738
 21
569.68247
 31
0.0
  0
LINE
  5
AE
  8
002
 62
     3
 10
656.754738
 20
566.68247
 30
0.0
 11
661.135738
 21
566.68247
 31
0.0
  0
LINE
  5
AF
  8
002
 62
     3
 10
656.754738
 20
539.68247
 30
0.0
 11
656.754738
 21
566.68247
 31
0.0
  0
LINE
  5
B0
  8
002
 62
     3
 10
661.135738
 20
511.68247
 30
0.0
 11
661.135738
 21
566.68247
 31
0.0
  0
LINE
  5
B1
  8
002
 62
     3
 10
661.135738
 20
566.68247
 30
0.0
 11
658.135738
 21
569.68247
 31
0.0
  0
ARC
  5
B2
  8
002
 62
     3
 10
652.128838
 20
541.57997
 30
0.0
 40
4.999945705705185
 50
281.617822
 51
337.69703
  0
LINE
  5
B3
  8
002
 62
     3
 10
661.135738
 20
511.68247
 30
0.0
 11
629.135738
 21
511.68247
 31
0.0
  0
LINE
  5
B4
  8
002
 62
     3
 10
629.135738
 20
511.68247
 30
0.0
 11
631.135738
 21
509.68247
 31
0.0
  0
LINE
  5
B5
  8
002
 62
     3
 10
631.135738
 20
509.68247
 30
0.0
 11
659.135738
 21
509.68247
 31
0.0
  0
LINE
  5
B6
  8
002
 62
     3
 10
659.135738
 20
509.68247
 30
0.0
 11
661.135738
 21
511.68247
 31
0.0
  0
LINE
  5
B7
  8
002
  6
HIDDEN
 62
    40
 10
637.635738
 20
659.263751
 30
0.0
 11
637.635738
 21
637.263751
 31
0.0
  0
LINE
  5
B8
  8
002
  6
HIDDEN
 62
    40
 10
652.635738
 20
659.263751
 30
0.0
 11
652.635738
 21
637.263751
 31
0.0
  0
CIRCLE
  5
B9
  8
002
 62
     3
 10
809.454011
 20
648.263751
 30
0.0
 40
6.188
  0
CIRCLE
  5
BA
  8
002
 62
     3
 10
809.455211
 20
625.761751
 30
0.0
 40
2.75
  0
CIRCLE
  5
BB
  8
002
 62
     3
 10
786.952711
 20
648.264351
 30
0.0
 40
2.75
  0
CIRCLE
  5
BC
  8
002
 62
     3
 10
809.455211
 20
670.766851
 30
0.0
 40
2.75
  0
CIRCLE
  5
BD
  8
002
 62
     3
 10
831.957811
 20
648.264351
 30
0.0
 40
2.75
  0
CIRCLE
  5
BE
  8
002
 62
     3
 10
809.450411
 20
648.263751
 30
0.0
 40
27.5
  0
LINE
  5
BF
  8
002
 62
     3
 10
836.950411
 20
509.68247
 30
0.0
 11
781.950411
 21
509.68247
 31
0.0
  0
LINE
  5
C0
  8
002
 62
     3
 10
836.950411
 20
531.68247
 30
0.0
 11
836.950411
 21
509.68247
 31
0.0
  0
LINE
  5
C1
  8
002
 62
     3
 10
781.950411
 20
531.68247
 30
0.0
 11
836.950411
 21
531.68247
 31
0.0
  0
LINE
  5
C2
  8
002
 62
     3
 10
781.950411
 20
509.68247
 30
0.0
 11
781.950411
 21
531.68247
 31
0.0
  0
LINE
  5
C3
  8
003
  6
CENTER
 62
    40
 10
853.535611
 20
648.263751
 30
0.0
 11
766.399011
 21
648.263751
 31
0.0
  0
LINE
  5
C4
  8
003
  6
CENTER
 62
    40
 10
809.454011
 20
614.985851
 30
0.0
 11
809.454011
 21
680.068751
 31
0.0
  0
CIRCLE
  5
C5
  8
003
  6
CENTER
 62
    40
 10
809.450411
 20
648.263751
 30
0.0
 40
22.5
  0
CIRCLE
  5
C6
  8
003
 62
    40
 10
809.454011
 20
648.263751
 30
0.0
 40
7.0
  0
LINE
  5
C7
  8
003
  6
CENTER
 62
    40
 10
786.950411
 20
534.68247
 30
0.0
 11
786.950411
 21
506.68247
 31
0.0
  0
LINE
  5
C8
  8
003
  6
CENTER
 62
    40
 10
831.950411
 20
534.68247
 30
0.0
 11
831.950411
 21
506.68247
 31
0.0
  0
LINE
  5
C9
  8
002
  6
CENTER
 62
    40
 10
809.450411
 20
541.68247
 30
0.0
 11
809.450411
 21
483.3528
 31
0.0
  0
LINE
  5
CA
  8
002
  6
HIDDEN
 62
    40
 10
802.450411
 20
509.68247
 30
0.0
 11
802.450411
 21
529.68247
 31
0.0
  0
LINE
  5
CB
  8
002
  6
HIDDEN
 62
    40
 10
802.450411
 20
529.68247
 30
0.0
 11
816.450411
 21
529.68247
 31
0.0
  0
LINE
  5
CC
  8
002
  6
HIDDEN
 62
    40
 10
816.450411
 20
529.68247
 30
0.0
 11
816.450411
 21
509.68247
 31
0.0
  0
LINE
  5
CD
  8
002
  6
HIDDEN
 62
    40
 10
803.262411
 20
529.68247
 30
0.0
 11
803.262411
 21
509.68247
 31
0.0
  0
LINE
  5
CE
  8
002
  6
HIDDEN
 62
    40
 10
815.638411
 20
509.68247
 30
0.0
 11
815.638411
 21
529.68247
 31
0.0
  0
LINE
  5
CF
  8
002
  6
HIDDEN
 62
    40
 10
638.135738
 20
509.68247
 30
0.0
 11
638.135738
 21
529.68247
 31
0.0
  0
LINE
  5
D0
  8
002
  6
HIDDEN
 62
    40
 10
638.135738
 20
529.68247
 30
0.0
 11
652.135738
 21
529.68247
 31
0.0
  0
LINE
  5
D1
  8
002
  6
HIDDEN
 62
    40
 10
652.135738
 20
529.68247
 30
0.0
 11
652.135738
 21
509.68247
 31
0.0
  0
LINE
  5
D2
  8
002
  6
HIDDEN
 62
    40
 10
638.947738
 20
529.68247
 30
0.0
 11
638.947738
 21
509.68247
 31
0.0
  0
LINE
  5
D3
  8
002
  6
HIDDEN
 62
    40
 10
651.323738
 20
509.68247
 30
0.0
 11
651.323738
 21
529.68247
 31
0.0
  0
LINE
  5
D4
  8
002
 62
     3
 10
234.059077
 20
155.674656
 30
0.0
 11
234.059077
 21
150.674656
 31
0.0
  0
LINE
  5
D5
  8
002
 62
     3
 10
225.559077
 20
150.674656
 30
0.0
 11
225.559077
 21
155.674656
 31
0.0
  0
ARC
  5
D6
  8
002
 62
     3
 10
222.165877
 20
152.674656
 30
0.0
 40
3.0
 50
0.832723
 51
90.0
  0
LINE
  5
D7
  8
002
 62
     3
 10
218.218977
 20
155.674656
 30
0.0
 11
218.218977
 21
159.674656
 31
0.0
  0
LINE
  5
D8
  8
002
 62
     3
 10
218.218977
 20
155.674656
 30
0.0
 11
273.218977
 21
155.674656
 31
0.0
  0
LINE
  5
D9
  8
002
 62
     3
 10
225.165577
 20
152.718256
 30
0.0
 11
225.718977
 21
114.674656
 31
0.0
  0
LINE
  5
DA
  8
002
 62
     3
 10
225.718977
 20
114.674656
 30
0.0
 11
265.718977
 21
114.674656
 31
0.0
  0
LINE
  5
DB
  8
002
 62
     3
 10
265.718977
 20
114.674656
 30
0.0
 11
266.272277
 21
152.718256
 31
0.0
  0
LINE
  5
DC
  8
002
 62
     3
 10
257.378877
 20
150.674656
 30
0.0
 11
265.878877
 21
150.674656
 31
0.0
  0
LINE
  5
DD
  8
002
 62
     3
 10
265.878877
 20
150.674656
 30
0.0
 11
265.878877
 21
155.674656
 31
0.0
  0
ARC
  5
DE
  8
002
 62
     3
 10
269.271977
 20
152.674656
 30
0.0
 40
3.000016841619355
 50
90.0
 51
179.167277
  0
LINE
  5
DF
  8
002
 62
     3
 10
257.378877
 20
155.674656
 30
0.0
 11
257.378877
 21
150.674656
 31
0.0
  0
LINE
  5
E0
  8
002
 62
     3
 10
234.059077
 20
150.674656
 30
0.0
 11
225.559077
 21
150.674656
 31
0.0
  0
LINE
  5
E1
  8
002
  6
CENTER
 62
    40
 10
229.809077
 20
147.953056
 30
0.0
 11
229.809077
 21
161.674656
 31
0.0
  0
LINE
  5
E2
  8
002
  6
CENTER
 62
    40
 10
261.628877
 20
161.674656
 30
0.0
 11
261.628877
 21
147.953056
 31
0.0
  0
LINE
  5
E3
  8
002
  6
CENTER
 62
    40
 10
321.541677
 20
189.674656
 30
0.0
 11
191.937277
 21
189.674656
 31
0.0
  0
LINE
  5
E4
  8
002
 62
     3
 10
251.718277
 20
355.004456
 30
0.0
 11
239.718277
 21
355.004456
 31
0.0
  0
LINE
  5
E5
  8
002
 62
     3
 10
239.718277
 20
355.004456
 30
0.0
 11
239.718277
 21
343.004456
 31
0.0
  0
LINE
  5
E6
  8
002
 62
     3
 10
239.718277
 20
343.004456
 30
0.0
 11
251.718277
 21
343.004456
 31
0.0
  0
LINE
  5
E7
  8
002
 62
     3
 10
251.718277
 20
343.004456
 30
0.0
 11
251.718277
 21
355.004456
 31
0.0
  0
LINE
  5
E8
  8
002
 62
     3
 10
250.568277
 20
343.004456
 30
0.0
 11
250.568277
 21
340.004456
 31
0.0
  0
LINE
  5
E9
  8
002
 62
     3
 10
237.718677
 20
340.004456
 30
0.0
 11
253.718577
 21
340.004456
 31
0.0
  0
LINE
  5
EA
  8
002
 62
     3
 10
240.868277
 20
340.004456
 30
0.0
 11
240.868277
 21
343.004456
 31
0.0
  0
LINE
  5
EB
  8
002
 62
    40
 10
240.768277
 20
355.004456
 30
0.0
 11
240.768277
 21
343.004456
 31
0.0
  0
LINE
  5
EC
  8
002
 62
    40
 10
250.668277
 20
343.004456
 30
0.0
 11
250.668277
 21
355.004456
 31
0.0
  0
LINE
  5
ED
  8
002
 62
     3
 10
227.718977
 20
59.674656
 30
0.0
 11
263.718977
 21
59.674656
 31
0.0
  0
LINE
  5
EE
  8
002
 62
     3
 10
263.718977
 20
59.674656
 30
0.0
 11
263.718977
 21
42.674656
 31
0.0
  0
LINE
  5
EF
  8
002
 62
     3
 10
260.718977
 20
39.674656
 30
0.0
 11
230.718977
 21
39.674656
 31
0.0
  0
LINE
  5
F0
  8
002
 62
     3
 10
227.718977
 20
42.674656
 30
0.0
 11
227.718977
 21
59.674656
 31
0.0
  0
ARC
  5
F1
  8
002
 62
     3
 10
230.718977
 20
42.674656
 30
0.0
 40
3.0
 50
180.0
 51
270.0
  0
ARC
  5
F2
  8
002
 62
     3
 10
260.718977
 20
42.674656
 30
0.0
 40
3.0
 50
270.0
 51
0.0
  0
LINE
  5
F3
  8
002
 62
     3
 10
1174.90849
 20
299.674656
 30
0.0
 11
1214.90849
 21
299.674656
 31
0.0
  0
LINE
  5
F4
  8
002
 62
     3
 10
1214.90849
 20
299.674656
 30
0.0
 11
1215.46149
 21
261.630956
 31
0.0
  0
LINE
  5
F5
  8
002
 62
     3
 10
1215.06849
 20
263.674656
 30
0.0
 11
1206.56849
 21
263.674656
 31
0.0
  0
LINE
  5
F6
  8
002
 62
     3
 10
1215.06849
 20
263.674656
 30
0.0
 11
1215.06849
 21
258.674656
 31
0.0
  0
ARC
  5
F7
  8
002
 62
     3
 10
1218.46149
 20
261.674656
 30
0.0
 40
3.000318264784589
 50
180.834549
 51
270.0
  0
LINE
  5
F8
  8
002
 62
     3
 10
1222.40849
 20
258.674656
 30
0.0
 11
1167.40849
 21
258.674656
 31
0.0
  0
LINE
  5
F9
  8
002
 62
     3
 10
1167.40849
 20
258.674656
 30
0.0
 11
1167.40849
 21
254.674656
 31
0.0
  0
LINE
  5
FA
  8
002
 62
     3
 10
1222.40849
 20
254.674656
 30
0.0
 11
1222.40849
 21
258.674656
 31
0.0
  0
LINE
  5
FB
  8
002
 62
     3
 10
1174.74849
 20
258.674656
 30
0.0
 11
1174.74849
 21
263.674656
 31
0.0
  0
LINE
  5
FC
  8
002
 62
     3
 10
1183.24849
 20
263.674656
 30
0.0
 11
1174.74849
 21
263.674656
 31
0.0
  0
ARC
  5
FD
  8
002
 62
     3
 10
1171.35549
 20
261.674656
 30
0.0
 40
3.0
 50
270.0
 51
359.165451
  0
LINE
  5
FE
  8
002
 62
     3
 10
1174.35549
 20
261.630956
 30
0.0
 11
1174.90849
 21
299.674656
 31
0.0
  0
LINE
  5
FF
  8
002
 62
     3
 10
1206.56849
 20
263.674656
 30
0.0
 11
1206.56849
 21
258.674656
 31
0.0
  0
LINE
  5
100
  8
002
 62
     3
 10
1183.24849
 20
258.674656
 30
0.0
 11
1183.24849
 21
263.674656
 31
0.0
  0
LINE
  5
101
  8
002
  6
CENTER
 62
    40
 10
1270.73149
 20
189.674656
 30
0.0
 11
1141.12649
 21
189.674656
 31
0.0
  0
LINE
  5
102
  8
002
  6
CENTER
 62
    40
 10
1210.81849
 20
242.951356
 30
0.0
 11
1210.81849
 21
266.396256
 31
0.0
  0
LINE
  5
103
  8
002
  6
CENTER
 62
    40
 10
1178.99849
 20
266.396256
 30
0.0
 11
1178.99849
 21
242.951356
 31
0.0
  0
LINE
  5
104
  8
002
 62
     3
 10
1179.90849
 20
374.674656
 30
0.0
 11
1209.90849
 21
374.674656
 31
0.0
  0
ARC
  5
105
  8
002
 62
     3
 10
1209.90849
 20
371.674656
 30
0.0
 40
3.0
 50
0.0
 51
90.0
  0
LINE
  5
106
  8
002
 62
     3
 10
1212.90849
 20
371.674656
 30
0.0
 11
1212.90849
 21
354.674656
 31
0.0
  0
LINE
  5
107
  8
002
 62
     3
 10
1212.90849
 20
354.674656
 30
0.0
 11
1176.90849
 21
354.674656
 31
0.0
  0
LINE
  5
108
  8
002
 62
     3
 10
1176.90849
 20
354.674656
 30
0.0
 11
1176.90849
 21
371.674656
 31
0.0
  0
ARC
  5
109
  8
002
 62
     3
 10
1179.90849
 20
371.674656
 30
0.0
 40
3.0
 50
90.0
 51
180.0
  0
LINE
  5
10A
  8
002
 62
     3
 10
1202.90849
 20
74.344856
 30
0.0
 11
1186.90849
 21
74.344856
 31
0.0
  0
LINE
  5
10B
  8
002
 62
     3
 10
1190.05749
 20
74.344856
 30
0.0
 11
1190.05749
 21
71.344856
 31
0.0
  0
LINE
  5
10C
  8
002
 62
     3
 10
1188.90749
 20
71.344856
 30
0.0
 11
1188.90749
 21
59.344856
 31
0.0
  0
LINE
  5
10D
  8
002
 62
     3
 10
1188.90749
 20
59.344856
 30
0.0
 11
1200.90749
 21
59.344856
 31
0.0
  0
LINE
  5
10E
  8
002
 62
     3
 10
1200.90749
 20
59.344856
 30
0.0
 11
1200.90749
 21
71.344856
 31
0.0
  0
LINE
  5
10F
  8
002
 62
     3
 10
1200.90749
 20
71.344856
 30
0.0
 11
1188.90749
 21
71.344856
 31
0.0
  0
LINE
  5
110
  8
002
 62
     3
 10
1199.75749
 20
71.344856
 30
0.0
 11
1199.75749
 21
74.344856
 31
0.0
  0
LINE
  5
111
  8
002
 62
    40
 10
1189.95749
 20
59.344856
 30
0.0
 11
1189.95749
 21
71.344856
 31
0.0
  0
LINE
  5
112
  8
002
 62
    40
 10
1199.85749
 20
71.344856
 30
0.0
 11
1199.85749
 21
59.344856
 31
0.0
  0
LINE
  5
113
  8
002
 62
     3
 10
684.304714
 20
155.674656
 30
0.0
 11
684.304714
 21
150.674656
 31
0.0
  0
LINE
  5
114
  8
002
 62
     3
 10
675.804714
 20
150.674656
 30
0.0
 11
675.804714
 21
155.674656
 31
0.0
  0
ARC
  5
115
  8
002
 62
     3
 10
672.411514
 20
152.674656
 30
0.0
 40
3.0
 50
0.832723
 51
90.0
  0
LINE
  5
116
  8
002
 62
     3
 10
668.464614
 20
155.674656
 30
0.0
 11
668.464614
 21
159.674656
 31
0.0
  0
LINE
  5
117
  8
002
 62
     3
 10
668.464614
 20
155.674656
 30
0.0
 11
723.464614
 21
155.674656
 31
0.0
  0
LINE
  5
118
  8
002
 62
     3
 10
675.411214
 20
152.718256
 30
0.0
 11
675.964614
 21
114.674656
 31
0.0
  0
LINE
  5
119
  8
002
 62
     3
 10
675.964614
 20
114.674656
 30
0.0
 11
715.964614
 21
114.674656
 31
0.0
  0
LINE
  5
11A
  8
002
 62
     3
 10
715.964614
 20
114.674656
 30
0.0
 11
716.517914
 21
152.718256
 31
0.0
  0
LINE
  5
11B
  8
002
 62
     3
 10
707.624514
 20
150.674656
 30
0.0
 11
716.124514
 21
150.674656
 31
0.0
  0
LINE
  5
11C
  8
002
 62
     3
 10
716.124514
 20
150.674656
 30
0.0
 11
716.124514
 21
155.674656
 31
0.0
  0
ARC
  5
11D
  8
002
 62
     3
 10
719.517614
 20
152.674656
 30
0.0
 40
3.000016841619355
 50
90.0
 51
179.167277
  0
LINE
  5
11E
  8
002
 62
     3
 10
707.624514
 20
155.674656
 30
0.0
 11
707.624514
 21
150.674656
 31
0.0
  0
LINE
  5
11F
  8
002
 62
     3
 10
684.304714
 20
150.674656
 30
0.0
 11
675.804714
 21
150.674656
 31
0.0
  0
LINE
  5
120
  8
002
  6
CENTER
 62
    40
 10
680.054714
 20
147.953056
 30
0.0
 11
680.054714
 21
161.674656
 31
0.0
  0
LINE
  5
121
  8
002
  6
CENTER
 62
    40
 10
711.874514
 20
161.674656
 30
0.0
 11
711.874514
 21
147.953056
 31
0.0
  0
LINE
  5
122
  8
002
  6
CENTER
 62
    40
 10
771.787314
 20
189.674656
 30
0.0
 11
642.182914
 21
189.674656
 31
0.0
  0
LINE
  5
123
  8
002
 62
     3
 10
723.464614
 20
254.674656
 30
0.0
 11
723.464614
 21
257.674656
 31
0.0
  0
LINE
  5
124
  8
002
 62
     3
 10
723.464614
 20
257.674656
 30
0.0
 11
668.464614
 21
257.674656
 31
0.0
  0
LINE
  5
125
  8
002
 62
     3
 10
668.464614
 20
257.674656
 30
0.0
 11
668.464614
 21
254.674656
 31
0.0
  0
LINE
  5
126
  8
002
 62
     3
 10
671.664614
 20
259.674656
 30
0.0
 11
675.804714
 21
259.674656
 31
0.0
  0
LINE
  5
127
  8
002
 62
     3
 10
675.804714
 20
257.674656
 30
0.0
 11
675.804714
 21
262.674656
 31
0.0
  0
LINE
  5
128
  8
002
 62
     3
 10
684.304714
 20
262.674656
 30
0.0
 11
684.304714
 21
257.674656
 31
0.0
  0
LINE
  5
129
  8
002
 62
     3
 10
684.304714
 20
259.674656
 30
0.0
 11
707.624514
 21
259.674656
 31
0.0
  0
LINE
  5
12A
  8
002
 62
     3
 10
707.624514
 20
257.674656
 30
0.0
 11
707.624514
 21
262.674656
 31
0.0
  0
LINE
  5
12B
  8
002
 62
     3
 10
707.624514
 20
262.674656
 30
0.0
 11
716.124514
 21
262.674656
 31
0.0
  0
LINE
  5
12C
  8
002
 62
     3
 10
716.124514
 20
262.674656
 30
0.0
 11
716.124514
 21
257.674656
 31
0.0
  0
LINE
  5
12D
  8
002
 62
     3
 10
712.264614
 20
262.674656
 30
0.0
 11
712.264614
 21
271.674656
 31
0.0
  0
LINE
  5
12E
  8
002
 62
     3
 10
712.264614
 20
271.674656
 30
0.0
 11
671.664614
 21
271.674656
 31
0.0
  0
ARC
  5
12F
  8
002
 62
     3
 10
671.664614
 20
269.674656
 30
0.0
 40
2.0
 50
90.0
 51
180.0
  0
LINE
  5
130
  8
002
 62
     3
 10
669.664614
 20
269.674656
 30
0.0
 11
669.664614
 21
261.674656
 31
0.0
  0
ARC
  5
131
  8
002
 62
     3
 10
671.664614
 20
261.674656
 30
0.0
 40
2.0
 50
180.0
 51
270.0
  0
LINE
  5
132
  8
002
 62
     3
 10
675.804714
 20
262.674656
 30
0.0
 11
684.304714
 21
262.674656
 31
0.0
  0
LINE
  5
133
  8
002
 62
     3
 10
679.664614
 20
262.674656
 30
0.0
 11
679.664614
 21
271.674656
 31
0.0
  0
LINE
  5
134
  8
002
 62
     3
 10
680.264614
 20
271.674656
 30
0.0
 11
680.264614
 21
272.674656
 31
0.0
  0
LINE
  5
135
  8
002
 62
     3
 10
680.264614
 20
272.674656
 30
0.0
 11
666.791014
 21
274.689756
 31
0.0
  0
LINE
  5
136
  8
002
 62
     3
 10
666.964614
 20
275.674656
 30
0.0
 11
724.964614
 21
275.674656
 31
0.0
  0
LINE
  5
137
  8
002
 62
     3
 10
725.138114
 20
274.689756
 30
0.0
 11
711.664614
 21
272.674656
 31
0.0
  0
LINE
  5
138
  8
002
 62
     3
 10
711.664614
 20
272.674656
 30
0.0
 11
711.664614
 21
271.674656
 31
0.0
  0
LINE
  5
139
  8
002
 62
     3
 10
677.638114
 20
277.689756
 30
0.0
 11
666.791014
 21
276.659456
 31
0.0
  0
ARC
  5
13A
  8
002
 62
     3
 10
666.964614
 20
275.674656
 30
0.0
 40
1.00008248159843
 50
99.997359
 51
260.003636
  0
LINE
  5
13B
  8
002
 62
     3
 10
666.791014
 20
280.689756
 30
0.0
 11
677.638114
 21
279.659456
 31
0.0
  0
ARC
  5
13C
  8
002
 62
     3
 10
677.464614
 20
278.674656
 30
0.0
 40
0.9999666444436526
 50
279.990722
 51
80.008284
  0
LINE
  5
13D
  8
002
 62
     3
 10
679.464614
 20
278.674656
 30
0.0
 11
712.464614
 21
278.674656
 31
0.0
  0
ARC
  5
13E
  8
002
 62
     3
 10
714.464614
 20
278.674656
 30
0.0
 40
1.00008248159843
 50
99.997359
 51
260.003636
  0
LINE
  5
13F
  8
002
 62
     3
 10
714.291014
 20
277.689756
 30
0.0
 11
725.138114
 21
276.659456
 31
0.0
  0
ARC
  5
140
  8
002
 62
     3
 10
724.964614
 20
275.674656
 30
0.0
 40
0.9999666444436526
 50
279.990722
 51
80.008284
  0
ARC
  5
141
  8
002
 62
     3
 10
724.964614
 20
281.674656
 30
0.0
 40
0.9999666444436526
 50
279.990722
 51
80.008284
  0
LINE
  5
142
  8
002
 62
     3
 10
725.138114
 20
282.659456
 30
0.0
 11
714.291014
 21
283.689756
 31
0.0
  0
ARC
  5
143
  8
002
 62
     3
 10
714.464614
 20
284.674656
 30
0.0
 40
1.00008248159843
 50
180.0
 51
260.003636
  0
LINE
  5
144
  8
002
 62
     3
 10
712.464614
 20
284.674656
 30
0.0
 11
679.464614
 21
284.674656
 31
0.0
  0
LINE
  5
145
  8
002
 62
     3
 10
677.638114
 20
283.689756
 30
0.0
 11
666.791014
 21
282.659456
 31
0.0
  0
ARC
  5
146
  8
002
 62
     3
 10
666.964614
 20
281.674656
 30
0.0
 40
1.00008248159843
 50
99.997359
 51
260.003636
  0
LINE
  5
147
  8
002
 62
     3
 10
666.964614
 20
281.674656
 30
0.0
 11
724.964614
 21
281.674656
 31
0.0
  0
LINE
  5
148
  8
002
 62
     3
 10
725.138114
 20
280.689756
 30
0.0
 11
714.291014
 21
279.659456
 31
0.0
  0
LINE
  5
149
  8
002
 62
     3
 10
712.464614
 20
312.974656
 30
0.0
 11
679.464614
 21
312.974656
 31
0.0
  0
ARC
  5
14A
  8
002
 62
     3
 10
677.464614
 20
312.974656
 30
0.0
 40
0.9999666444436526
 50
0.0
 51
80.008284
  0
LINE
  5
14B
  8
002
 62
     3
 10
677.638114
 20
313.959456
 30
0.0
 11
666.791014
 21
314.989756
 31
0.0
  0
LINE
  5
14C
  8
002
 62
     3
 10
666.964614
 20
315.974656
 30
0.0
 11
724.964614
 21
315.974656
 31
0.0
  0
ARC
  5
14D
  8
002
 62
     3
 10
724.964614
 20
315.974656
 30
0.0
 40
0.9999666444436526
 50
279.990722
 51
80.008284
  0
LINE
  5
14E
  8
002
 62
     3
 10
725.138114
 20
316.959456
 30
0.0
 11
714.291014
 21
317.989756
 31
0.0
  0
ARC
  5
14F
  8
002
 62
     3
 10
714.464614
 20
318.974656
 30
0.0
 40
1.00008248159843
 50
99.997359
 51
260.003636
  0
LINE
  5
150
  8
002
 62
     3
 10
714.291014
 20
319.959456
 30
0.0
 11
725.138114
 21
320.989756
 31
0.0
  0
ARC
  5
151
  8
002
 62
     3
 10
724.964614
 20
321.974656
 30
0.0
 40
0.9999666444436526
 50
279.990722
 51
80.008284
  0
LINE
  5
152
  8
002
 62
     3
 10
725.138114
 20
322.959456
 30
0.0
 11
704.664614
 21
324.974656
 31
0.0
  0
LINE
  5
153
  8
002
 62
     3
 10
687.264614
 20
324.974656
 30
0.0
 11
666.791014
 21
322.959456
 31
0.0
  0
ARC
  5
154
  8
002
 62
     3
 10
666.964614
 20
321.974656
 30
0.0
 40
1.00008248159843
 50
99.997359
 51
260.003636
  0
LINE
  5
155
  8
002
 62
     3
 10
666.791014
 20
320.989756
 30
0.0
 11
677.638114
 21
319.959456
 31
0.0
  0
LINE
  5
156
  8
002
 62
     3
 10
677.638114
 20
317.989756
 30
0.0
 11
666.791014
 21
316.959456
 31
0.0
  0
ARC
  5
157
  8
002
 62
     3
 10
666.964614
 20
315.974656
 30
0.0
 40
1.00008248159843
 50
99.997359
 51
260.003636
  0
LINE
  5
158
  8
002
 62
     3
 10
666.964614
 20
321.974656
 30
0.0
 11
724.964614
 21
321.974656
 31
0.0
  0
LINE
  5
159
  8
002
 62
     3
 10
725.138114
 20
314.989756
 30
0.0
 11
714.291014
 21
313.959456
 31
0.0
  0
ARC
  5
15A
  8
002
 62
     3
 10
714.464614
 20
312.974656
 30
0.0
 40
1.0
 50
99.997359
 51
180.0
  0
LINE
  5
15B
  8
002
 62
     3
 10
712.464614
 20
318.974656
 30
0.0
 11
679.464614
 21
318.974656
 31
0.0
  0
ARC
  5
15C
  8
002
 62
     3
 10
677.464614
 20
318.974656
 30
0.0
 40
0.9999666444436526
 50
279.990722
 51
80.008284
  0
LINE
  5
15D
  8
002
 62
     3
 10
678.664614
 20
325.974656
 30
0.0
 11
705.264614
 21
325.974656
 31
0.0
  0
LINE
  5
15E
  8
002
 62
     3
 10
705.264614
 20
325.974656
 30
0.0
 11
705.264614
 21
337.974656
 31
0.0
  0
LINE
  5
15F
  8
002
 62
     3
 10
705.264614
 20
337.974656
 30
0.0
 11
678.664614
 21
337.974656
 31
0.0
  0
ARC
  5
160
  8
002
 62
     3
 10
678.664614
 20
335.974656
 30
0.0
 40
2.0
 50
90.0
 51
180.0
  0
LINE
  5
161
  8
002
 62
     3
 10
676.664614
 20
335.974656
 30
0.0
 11
676.664614
 21
327.974656
 31
0.0
  0
ARC
  5
162
  8
002
 62
     3
 10
678.664614
 20
327.974656
 30
0.0
 40
2.0
 50
180.0
 51
270.0
  0
CIRCLE
  5
163
  8
002
 62
     3
 10
681.664614
 20
332.474656
 30
0.0
 40
1.0
  0
LINE
  5
164
  8
002
 62
     3
 10
686.664614
 20
325.974656
 30
0.0
 11
686.664614
 21
337.974656
 31
0.0
  0
LINE
  5
165
  8
002
 62
     3
 10
687.264614
 20
337.974656
 30
0.0
 11
687.264614
 21
339.974656
 31
0.0
  0
LINE
  5
166
  8
002
 62
     3
 10
687.264614
 20
339.974656
 30
0.0
 11
704.664614
 21
339.974656
 31
0.0
  0
LINE
  5
167
  8
002
 62
     3
 10
704.664614
 20
339.974656
 30
0.0
 11
704.664614
 21
337.974656
 31
0.0
  0
LINE
  5
168
  8
002
 62
     3
 10
691.113914
 20
339.974656
 30
0.0
 11
691.113914
 21
342.974656
 31
0.0
  0
LINE
  5
169
  8
002
 62
     3
 10
689.963914
 20
342.974656
 30
0.0
 11
689.963914
 21
354.974656
 31
0.0
  0
LINE
  5
16A
  8
002
 62
     3
 10
689.963914
 20
354.974656
 30
0.0
 11
701.963914
 21
354.974656
 31
0.0
  0
LINE
  5
16B
  8
002
 62
     3
 10
701.963914
 20
354.974656
 30
0.0
 11
701.963914
 21
342.974656
 31
0.0
  0
LINE
  5
16C
  8
002
 62
     3
 10
701.963914
 20
342.974656
 30
0.0
 11
689.963914
 21
342.974656
 31
0.0
  0
LINE
  5
16D
  8
002
 62
     3
 10
700.813914
 20
342.974656
 30
0.0
 11
700.813914
 21
339.974656
 31
0.0
  0
LINE
  5
16E
  8
002
 62
     3
 10
704.664614
 20
325.974656
 30
0.0
 11
704.664614
 21
324.974656
 31
0.0
  0
LINE
  5
16F
  8
002
 62
     3
 10
687.264614
 20
324.974656
 30
0.0
 11
687.264614
 21
325.974656
 31
0.0
  0
ARC
  5
170
  8
002
 62
     3
 10
677.464614
 20
284.674656
 30
0.0
 40
1.0
 50
279.990722
 51
0.0
  0
CIRCLE
  5
171
  8
002
 62
     3
 10
674.664614
 20
265.174656
 30
0.0
 40
1.0
  0
LINE
  5
172
  8
002
  6
CENTER
 62
    40
 10
711.874514
 20
251.674656
 30
0.0
 11
711.874514
 21
265.396256
 31
0.0
  0
LINE
  5
173
  8
002
  6
CENTER
 62
    40
 10
674.664614
 20
268.682356
 30
0.0
 11
674.664614
 21
261.922456
 31
0.0
  0
LINE
  5
174
  8
002
  6
CENTER
 62
    40
 10
672.296814
 20
265.174656
 30
0.0
 11
677.321914
 21
265.174656
 31
0.0
  0
LINE
  5
175
  8
002
  6
CENTER
 62
    40
 10
680.054714
 20
265.396256
 30
0.0
 11
680.054714
 21
251.674656
 31
0.0
  0
LINE
  5
176
  8
002
  6
CENTER
 62
    40
 10
681.664614
 20
329.222456
 30
0.0
 11
681.664614
 21
335.982356
 31
0.0
  0
LINE
  5
177
  8
002
  6
CENTER
 62
    40
 10
679.296814
 20
332.474656
 30
0.0
 11
684.321914
 21
332.474656
 31
0.0
  0
LINE
  5
178
  8
002
 62
    40
 10
691.013914
 20
342.974656
 30
0.0
 11
691.013914
 21
354.974656
 31
0.0
  0
LINE
  5
179
  8
002
 62
    40
 10
700.913914
 20
354.974656
 30
0.0
 11
700.913914
 21
342.974656
 31
0.0
  0
LINE
  5
17A
  8
002
  6
PHANTOM
 62
    40
 10
725.964614
 20
315.974656
 30
0.0
 11
725.964614
 21
281.674656
 31
0.0
  0
LINE
  5
17B
  8
002
  6
PHANTOM
 62
    40
 10
713.464614
 20
284.661812
 30
0.0
 11
713.464614
 21
312.974656
 31
0.0
  0
LINE
  5
17C
  8
002
  6
PHANTOM
 62
    40
 10
678.464614
 20
284.674656
 30
0.0
 11
678.464614
 21
312.974656
 31
0.0
  0
LINE
  5
17D
  8
002
  6
PHANTOM
 62
    40
 10
665.964614
 20
315.974656
 30
0.0
 11
665.964614
 21
281.674656
 31
0.0
  0
LINE
  5
17E
  8
002
 62
     3
 10
677.964614
 20
59.674656
 30
0.0
 11
713.964614
 21
59.674656
 31
0.0
  0
LINE
  5
17F
  8
002
 62
     3
 10
713.964614
 20
59.674656
 30
0.0
 11
713.964614
 21
42.674656
 31
0.0
  0
LINE
  5
180
  8
002
 62
     3
 10
710.964614
 20
39.674656
 30
0.0
 11
680.964614
 21
39.674656
 31
0.0
  0
LINE
  5
181
  8
002
 62
     3
 10
677.964614
 20
42.674656
 30
0.0
 11
677.964614
 21
59.674656
 31
0.0
  0
ARC
  5
182
  8
002
 62
     3
 10
680.964614
 20
42.674656
 30
0.0
 40
3.0
 50
180.0
 51
270.0
  0
ARC
  5
183
  8
002
 62
     3
 10
710.964614
 20
42.674656
 30
0.0
 40
3.0
 50
270.0
 51
0.0
  0
LINE
  5
184
  8
002
 62
     3
 10
653.135338
 20
509.68247
 30
0.0
 11
653.135338
 21
483.3528
 31
0.0
  0
LINE
  5
185
  8
002
 62
    40
 10
651.905338
 20
483.3528
 30
0.0
 11
651.905338
 21
509.68247
 31
0.0
  0
LINE
  5
186
  8
002
 62
     3
 10
637.135438
 20
483.3528
 30
0.0
 11
637.135438
 21
509.68247
 31
0.0
  0
LINE
  5
187
  8
002
 62
    40
 10
638.365438
 20
509.68247
 30
0.0
 11
638.365438
 21
483.3528
 31
0.0
  0
LINE
  5
188
  8
002
 62
     3
 10
817.450011
 20
509.68247
 30
0.0
 11
817.450011
 21
483.3528
 31
0.0
  0
LINE
  5
189
  8
002
 62
    40
 10
816.220011
 20
483.3528
 30
0.0
 11
816.220011
 21
509.68247
 31
0.0
  0
LINE
  5
18A
  8
002
 62
     3
 10
801.450111
 20
483.3528
 30
0.0
 11
801.450111
 21
509.68247
 31
0.0
  0
LINE
  5
18B
  8
002
 62
    40
 10
802.680111
 20
509.68247
 30
0.0
 11
802.680111
 21
483.3528
 31
0.0
  0
LINE
  5
18C
  8
002
 62
     3
 10
1644.51349
 20
299.674656
 30
0.0
 11
1684.51349
 21
299.674656
 31
0.0
  0
LINE
  5
18D
  8
002
 62
     3
 10
1684.51349
 20
299.674656
 30
0.0
 11
1685.06649
 21
261.630956
 31
0.0
  0
LINE
  5
18E
  8
002
 62
     3
 10
1684.67349
 20
263.674656
 30
0.0
 11
1676.17349
 21
263.674656
 31
0.0
  0
LINE
  5
18F
  8
002
 62
     3
 10
1684.67349
 20
263.674656
 30
0.0
 11
1684.67349
 21
258.674656
 31
0.0
  0
ARC
  5
190
  8
002
 62
     3
 10
1688.06649
 20
261.674656
 30
0.0
 40
3.000318264784589
 50
180.834549
 51
270.0
  0
LINE
  5
191
  8
002
 62
     3
 10
1692.01349
 20
258.674656
 30
0.0
 11
1637.01349
 21
258.674656
 31
0.0
  0
LINE
  5
192
  8
002
 62
     3
 10
1637.01349
 20
258.674656
 30
0.0
 11
1637.01349
 21
254.674656
 31
0.0
  0
LINE
  5
193
  8
002
 62
     3
 10
1692.01349
 20
254.674656
 30
0.0
 11
1692.01349
 21
258.674656
 31
0.0
  0
LINE
  5
194
  8
002
 62
     3
 10
1644.35349
 20
258.674656
 30
0.0
 11
1644.35349
 21
263.674656
 31
0.0
  0
LINE
  5
195
  8
002
 62
     3
 10
1652.85349
 20
263.674656
 30
0.0
 11
1644.35349
 21
263.674656
 31
0.0
  0
ARC
  5
196
  8
002
 62
     3
 10
1640.96049
 20
261.674656
 30
0.0
 40
3.0
 50
270.0
 51
359.165451
  0
LINE
  5
197
  8
002
 62
     3
 10
1643.96049
 20
261.630956
 30
0.0
 11
1644.51349
 21
299.674656
 31
0.0
  0
LINE
  5
198
  8
002
 62
     3
 10
1676.17349
 20
263.674656
 30
0.0
 11
1676.17349
 21
258.674656
 31
0.0
  0
LINE
  5
199
  8
002
 62
     3
 10
1652.85349
 20
258.674656
 30
0.0
 11
1652.85349
 21
263.674656
 31
0.0
  0
LINE
  5
19A
  8
002
  6
CENTER
 62
    40
 10
1740.33649
 20
189.674656
 30
0.0
 11
1610.73149
 21
189.674656
 31
0.0
  0
LINE
  5
19B
  8
002
  6
CENTER
 62
    40
 10
1680.42349
 20
242.951356
 30
0.0
 11
1680.42349
 21
266.396256
 31
0.0
  0
LINE
  5
19C
  8
002
  6
CENTER
 62
    40
 10
1648.60349
 20
266.396256
 30
0.0
 11
1648.60349
 21
242.951356
 31
0.0
  0
LINE
  5
19D
  8
002
 62
     3
 10
1649.51349
 20
374.674656
 30
0.0
 11
1679.51349
 21
374.674656
 31
0.0
  0
ARC
  5
19E
  8
002
 62
     3
 10
1679.51349
 20
371.674656
 30
0.0
 40
3.0
 50
0.0
 51
90.0
  0
LINE
  5
19F
  8
002
 62
     3
 10
1682.51349
 20
371.674656
 30
0.0
 11
1682.51349
 21
354.674656
 31
0.0
  0
LINE
  5
1A0
  8
002
 62
     3
 10
1682.51349
 20
354.674656
 30
0.0
 11
1646.51349
 21
354.674656
 31
0.0
  0
LINE
  5
1A1
  8
002
 62
     3
 10
1646.51349
 20
354.674656
 30
0.0
 11
1646.51349
 21
371.674656
 31
0.0
  0
ARC
  5
1A2
  8
002
 62
     3
 10
1649.51349
 20
371.674656
 30
0.0
 40
3.0
 50
90.0
 51
180.0
  0
LINE
  5
1A3
  8
002
 62
     3
 10
1692.01349
 20
159.674656
 30
0.0
 11
1692.01349
 21
156.674656
 31
0.0
  0
LINE
  5
1A4
  8
002
 62
     3
 10
1692.01349
 20
156.674656
 30
0.0
 11
1637.01349
 21
156.674656
 31
0.0
  0
LINE
  5
1A5
  8
002
 62
     3
 10
1637.01349
 20
156.674656
 30
0.0
 11
1637.01349
 21
159.674656
 31
0.0
  0
LINE
  5
1A6
  8
002
 62
     3
 10
1640.21349
 20
154.674656
 30
0.0
 11
1644.35359
 21
154.674656
 31
0.0
  0
LINE
  5
1A7
  8
002
 62
     3
 10
1644.35359
 20
156.674656
 30
0.0
 11
1644.35359
 21
151.674656
 31
0.0
  0
LINE
  5
1A8
  8
002
 62
     3
 10
1652.85359
 20
151.674656
 30
0.0
 11
1652.85359
 21
156.674656
 31
0.0
  0
LINE
  5
1A9
  8
002
 62
     3
 10
1652.85359
 20
154.674656
 30
0.0
 11
1676.17339
 21
154.674656
 31
0.0
  0
LINE
  5
1AA
  8
002
 62
     3
 10
1676.17339
 20
156.674656
 30
0.0
 11
1676.17339
 21
151.674656
 31
0.0
  0
LINE
  5
1AB
  8
002
 62
     3
 10
1676.17339
 20
151.674656
 30
0.0
 11
1684.67339
 21
151.674656
 31
0.0
  0
LINE
  5
1AC
  8
002
 62
     3
 10
1684.67339
 20
151.674656
 30
0.0
 11
1684.67339
 21
156.674656
 31
0.0
  0
LINE
  5
1AD
  8
002
 62
     3
 10
1680.81349
 20
151.674656
 30
0.0
 11
1680.81349
 21
142.674656
 31
0.0
  0
LINE
  5
1AE
  8
002
 62
     3
 10
1680.81349
 20
142.674656
 30
0.0
 11
1640.21349
 21
142.674656
 31
0.0
  0
ARC
  5
1AF
  8
002
 62
     3
 10
1640.21349
 20
144.674656
 30
0.0
 40
2.0
 50
180.0
 51
270.0
  0
LINE
  5
1B0
  8
002
 62
     3
 10
1638.21349
 20
144.674656
 30
0.0
 11
1638.21349
 21
152.674656
 31
0.0
  0
ARC
  5
1B1
  8
002
 62
     3
 10
1640.21349
 20
152.674656
 30
0.0
 40
2.0
 50
90.0
 51
180.0
  0
LINE
  5
1B2
  8
002
 62
     3
 10
1644.35359
 20
151.674656
 30
0.0
 11
1652.85359
 21
151.674656
 31
0.0
  0
LINE
  5
1B3
  8
002
 62
     3
 10
1648.21349
 20
151.674656
 30
0.0
 11
1648.21349
 21
142.674656
 31
0.0
  0
LINE
  5
1B4
  8
002
 62
     3
 10
1648.81349
 20
142.674656
 30
0.0
 11
1648.81349
 21
141.674656
 31
0.0
  0
LINE
  5
1B5
  8
002
 62
     3
 10
1648.81349
 20
141.674656
 30
0.0
 11
1635.33989
 21
139.659556
 31
0.0
  0
LINE
  5
1B6
  8
002
 62
     3
 10
1635.51349
 20
138.674656
 30
0.0
 11
1693.51349
 21
138.674656
 31
0.0
  0
LINE
  5
1B7
  8
002
 62
     3
 10
1693.68699
 20
139.659556
 30
0.0
 11
1680.21349
 21
141.674656
 31
0.0
  0
LINE
  5
1B8
  8
002
 62
     3
 10
1680.21349
 20
141.674656
 30
0.0
 11
1680.21349
 21
142.674656
 31
0.0
  0
LINE
  5
1B9
  8
002
 62
     3
 10
1646.18699
 20
136.659556
 30
0.0
 11
1635.33989
 21
137.689856
 31
0.0
  0
ARC
  5
1BA
  8
002
 62
     3
 10
1635.51349
 20
138.674656
 30
0.0
 40
1.00008248159843
 50
99.996364
 51
260.002641
  0
LINE
  5
1BB
  8
002
 62
     3
 10
1635.33989
 20
133.659556
 30
0.0
 11
1646.18699
 21
134.689856
 31
0.0
  0
ARC
  5
1BC
  8
002
 62
     3
 10
1646.01349
 20
135.674656
 30
0.0
 40
0.9999666444436526
 50
279.991716
 51
80.009278
  0
LINE
  5
1BD
  8
002
 62
     3
 10
1648.01349
 20
135.674656
 30
0.0
 11
1681.01349
 21
135.674656
 31
0.0
  0
ARC
  5
1BE
  8
002
 62
     3
 10
1683.01349
 20
135.674656
 30
0.0
 40
1.00008248159843
 50
99.996364
 51
260.002641
  0
LINE
  5
1BF
  8
002
 62
     3
 10
1682.83989
 20
136.659556
 30
0.0
 11
1693.68699
 21
137.689856
 31
0.0
  0
ARC
  5
1C0
  8
002
 62
     3
 10
1693.51349
 20
138.674656
 30
0.0
 40
0.9999666444436526
 50
279.991716
 51
80.009278
  0
ARC
  5
1C1
  8
002
 62
     3
 10
1693.51349
 20
132.674656
 30
0.0
 40
0.9999666444436526
 50
279.991716
 51
80.009278
  0
LINE
  5
1C2
  8
002
 62
     3
 10
1693.68699
 20
131.689856
 30
0.0
 11
1682.83989
 21
130.659556
 31
0.0
  0
ARC
  5
1C3
  8
002
 62
     3
 10
1683.01349
 20
129.674656
 30
0.0
 40
1.00008248159843
 50
99.996364
 51
180.0
  0
LINE
  5
1C4
  8
002
 62
     3
 10
1681.01349
 20
129.674656
 30
0.0
 11
1648.01349
 21
129.674656
 31
0.0
  0
LINE
  5
1C5
  8
002
 62
     3
 10
1646.18699
 20
130.659556
 30
0.0
 11
1635.33989
 21
131.689856
 31
0.0
  0
ARC
  5
1C6
  8
002
 62
     3
 10
1635.51349
 20
132.674656
 30
0.0
 40
1.00008248159843
 50
99.996364
 51
260.002641
  0
LINE
  5
1C7
  8
002
 62
     3
 10
1635.51349
 20
132.674656
 30
0.0
 11
1693.51349
 21
132.674656
 31
0.0
  0
LINE
  5
1C8
  8
002
 62
     3
 10
1693.68699
 20
133.659556
 30
0.0
 11
1682.83989
 21
134.689856
 31
0.0
  0
LINE
  5
1C9
  8
002
 62
     3
 10
1681.01349
 20
101.374656
 30
0.0
 11
1648.01349
 21
101.374656
 31
0.0
  0
ARC
  5
1CA
  8
002
 62
     3
 10
1646.01349
 20
101.374656
 30
0.0
 40
0.9999666444436526
 50
279.991716
 51
0.0
  0
LINE
  5
1CB
  8
002
 62
     3
 10
1646.18699
 20
100.389856
 30
0.0
 11
1635.33989
 21
99.359556
 31
0.0
  0
LINE
  5
1CC
  8
002
 62
     3
 10
1635.51349
 20
98.374656
 30
0.0
 11
1693.51349
 21
98.374656
 31
0.0
  0
ARC
  5
1CD
  8
002
 62
     3
 10
1693.51349
 20
98.374656
 30
0.0
 40
0.9999666444436526
 50
279.991716
 51
80.009278
  0
LINE
  5
1CE
  8
002
 62
     3
 10
1693.68699
 20
97.389856
 30
0.0
 11
1682.83989
 21
96.359556
 31
0.0
  0
ARC
  5
1CF
  8
002
 62
     3
 10
1683.01349
 20
95.374656
 30
0.0
 40
1.00008248159843
 50
99.996364
 51
260.002641
  0
LINE
  5
1D0
  8
002
 62
     3
 10
1682.83989
 20
94.389856
 30
0.0
 11
1693.68699
 21
93.359556
 31
0.0
  0
ARC
  5
1D1
  8
002
 62
     3
 10
1693.51349
 20
92.374656
 30
0.0
 40
0.9999666444436526
 50
279.991716
 51
80.009278
  0
LINE
  5
1D2
  8
002
 62
     3
 10
1693.68699
 20
91.389856
 30
0.0
 11
1673.21349
 21
89.374656
 31
0.0
  0
LINE
  5
1D3
  8
002
 62
     3
 10
1655.81349
 20
89.374656
 30
0.0
 11
1635.33989
 21
91.389856
 31
0.0
  0
ARC
  5
1D4
  8
002
 62
     3
 10
1635.51349
 20
92.374656
 30
0.0
 40
1.00008248159843
 50
99.996364
 51
260.002641
  0
LINE
  5
1D5
  8
002
 62
     3
 10
1635.33989
 20
93.359556
 30
0.0
 11
1646.18699
 21
94.389856
 31
0.0
  0
LINE
  5
1D6
  8
002
 62
     3
 10
1646.18699
 20
96.359556
 30
0.0
 11
1635.33989
 21
97.389856
 31
0.0
  0
ARC
  5
1D7
  8
002
 62
     3
 10
1635.51349
 20
98.374656
 30
0.0
 40
1.00008248159843
 50
99.996364
 51
260.002641
  0
LINE
  5
1D8
  8
002
 62
     3
 10
1635.51349
 20
92.374656
 30
0.0
 11
1693.51349
 21
92.374656
 31
0.0
  0
LINE
  5
1D9
  8
002
 62
     3
 10
1693.68699
 20
99.359556
 30
0.0
 11
1682.83989
 21
100.389856
 31
0.0
  0
ARC
  5
1DA
  8
002
 62
     3
 10
1683.01349
 20
101.374656
 30
0.0
 40
1.0
 50
180.0
 51
260.002641
  0
LINE
  5
1DB
  8
002
 62
     3
 10
1681.01349
 20
95.374656
 30
0.0
 11
1648.01349
 21
95.374656
 31
0.0
  0
ARC
  5
1DC
  8
002
 62
     3
 10
1646.01349
 20
95.374656
 30
0.0
 40
0.9999666444436526
 50
279.991716
 51
80.009278
  0
LINE
  5
1DD
  8
002
 62
     3
 10
1647.21349
 20
88.374656
 30
0.0
 11
1673.81349
 21
88.374656
 31
0.0
  0
LINE
  5
1DE
  8
002
 62
     3
 10
1673.81349
 20
88.374656
 30
0.0
 11
1673.81349
 21
76.374656
 31
0.0
  0
LINE
  5
1DF
  8
002
 62
     3
 10
1673.81349
 20
76.374656
 30
0.0
 11
1647.21349
 21
76.374656
 31
0.0
  0
ARC
  5
1E0
  8
002
 62
     3
 10
1647.21349
 20
78.374656
 30
0.0
 40
2.0
 50
180.0
 51
270.0
  0
LINE
  5
1E1
  8
002
 62
     3
 10
1645.21349
 20
78.374656
 30
0.0
 11
1645.21349
 21
86.374656
 31
0.0
  0
ARC
  5
1E2
  8
002
 62
     3
 10
1647.21349
 20
86.374656
 30
0.0
 40
2.0
 50
90.0
 51
180.0
  0
CIRCLE
  5
1E3
  8
002
 62
     3
 10
1650.21349
 20
81.874656
 30
0.0
 40
1.0
  0
LINE
  5
1E4
  8
002
 62
     3
 10
1655.21349
 20
88.374656
 30
0.0
 11
1655.21349
 21
76.374656
 31
0.0
  0
LINE
  5
1E5
  8
002
 62
     3
 10
1655.81349
 20
76.374656
 30
0.0
 11
1655.81349
 21
74.374656
 31
0.0
  0
LINE
  5
1E6
  8
002
 62
     3
 10
1655.81349
 20
74.374656
 30
0.0
 11
1673.21349
 21
74.374656
 31
0.0
  0
LINE
  5
1E7
  8
002
 62
     3
 10
1673.21349
 20
74.374656
 30
0.0
 11
1673.21349
 21
76.374656
 31
0.0
  0
LINE
  5
1E8
  8
002
 62
     3
 10
1659.66279
 20
74.374656
 30
0.0
 11
1659.66279
 21
71.374656
 31
0.0
  0
LINE
  5
1E9
  8
002
 62
     3
 10
1658.51279
 20
71.374656
 30
0.0
 11
1658.51279
 21
59.374656
 31
0.0
  0
LINE
  5
1EA
  8
002
 62
     3
 10
1658.51279
 20
59.374656
 30
0.0
 11
1670.51279
 21
59.374656
 31
0.0
  0
LINE
  5
1EB
  8
002
 62
     3
 10
1670.51279
 20
59.374656
 30
0.0
 11
1670.51279
 21
71.374656
 31
0.0
  0
LINE
  5
1EC
  8
002
 62
     3
 10
1670.51279
 20
71.374656
 30
0.0
 11
1658.51279
 21
71.374656
 31
0.0
  0
LINE
  5
1ED
  8
002
 62
     3
 10
1669.36279
 20
71.374656
 30
0.0
 11
1669.36279
 21
74.374656
 31
0.0
  0
LINE
  5
1EE
  8
002
 62
     3
 10
1673.21349
 20
88.374656
 30
0.0
 11
1673.21349
 21
89.374656
 31
0.0
  0
LINE
  5
1EF
  8
002
 62
     3
 10
1655.81349
 20
89.374656
 30
0.0
 11
1655.81349
 21
88.374656
 31
0.0
  0
ARC
  5
1F0
  8
002
 62
     3
 10
1646.01349
 20
129.674656
 30
0.0
 40
1.0
 50
0.0
 51
80.009278
  0
CIRCLE
  5
1F1
  8
002
 62
     3
 10
1643.21349
 20
149.174656
 30
0.0
 40
1.0
  0
LINE
  5
1F2
  8
002
  6
CENTER
 62
    40
 10
1680.42339
 20
162.674656
 30
0.0
 11
1680.42339
 21
148.953056
 31
0.0
  0
LINE
  5
1F3
  8
002
  6
CENTER
 62
    40
 10
1643.21349
 20
145.666956
 30
0.0
 11
1643.21349
 21
152.426856
 31
0.0
  0
LINE
  5
1F4
  8
002
  6
CENTER
 62
    40
 10
1640.84569
 20
149.174656
 30
0.0
 11
1645.87079
 21
149.174656
 31
0.0
  0
LINE
  5
1F5
  8
002
  6
CENTER
 62
    40
 10
1648.60359
 20
148.953056
 30
0.0
 11
1648.60359
 21
162.674656
 31
0.0
  0
LINE
  5
1F6
  8
002
  6
CENTER
 62
    40
 10
1650.21349
 20
85.126856
 30
0.0
 11
1650.21349
 21
78.366956
 31
0.0
  0
LINE
  5
1F7
  8
002
  6
CENTER
 62
    40
 10
1647.84569
 20
81.874656
 30
0.0
 11
1652.87079
 21
81.874656
 31
0.0
  0
LINE
  5
1F8
  8
002
 62
    40
 10
1659.56279
 20
71.374656
 30
0.0
 11
1659.56279
 21
59.374656
 31
0.0
  0
LINE
  5
1F9
  8
002
 62
    40
 10
1669.46279
 20
59.374656
 30
0.0
 11
1669.46279
 21
71.374656
 31
0.0
  0
LINE
  5
1FA
  8
002
  6
PHANTOM
 62
    40
 10
1694.51349
 20
98.374656
 30
0.0
 11
1694.51349
 21
132.674656
 31
0.0
  0
LINE
  5
1FB
  8
002
  6
PHANTOM
 62
    40
 10
1682.01349
 20
129.6875
 30
0.0
 11
1682.01349
 21
101.374656
 31
0.0
  0
LINE
  5
1FC
  8
002
  6
PHANTOM
 62
    40
 10
1647.01349
 20
129.674656
 30
0.0
 11
1647.01349
 21
101.374656
 31
0.0
  0
LINE
  5
1FD
  8
002
  6
PHANTOM
 62
    40
 10
1634.51349
 20
98.374656
 30
0.0
 11
1634.51349
 21
132.674656
 31
0.0
  0
POLYLINE
  5
1FE
  8
002
 62
     3
 66
     1
 10
0.0
 20
0.0
 30
0.0
  0
VERTEX
  5
200
  8
002
 62
     3
 10
237.718677
 20
293.339556
 30
0.0
  0
VERTEX
  5
201
  8
002
 62
     3
 10
239.718665
 20
290.589556
 30
0.0
  0
VERTEX
  5
202
  8
002
 62
     3
 10
241.718652
 20
289.339556
 30
0.0
  0
VERTEX
  5
203
  8
002
 62
     3
 10
243.71864
 20
290.589556
 30
0.0
  0
VERTEX
  5
204
  8
002
 62
     3
 10
245.718627
 20
293.339556
 30
0.0
  0
VERTEX
  5
205
  8
002
 62
     3
 10
247.718615
 20
296.089556
 30
0.0
  0
VERTEX
  5
206
  8
002
 62
     3
 10
249.718602
 20
297.339556
 30
0.0
  0
VERTEX
  5
207
  8
002
 62
     3
 10
251.71859
 20
296.089556
 30
0.0
  0
VERTEX
  5
208
  8
002
 62
     3
 10
253.718577
 20
293.339556
 30
0.0
  0
SEQEND
  5
1FF
  8
002
 62
     3
  0
POLYLINE
  5
209
  8
002
 62
     3
 66
     1
 10
0.0
 20
0.0
 30
0.0
  0
VERTEX
  5
20B
  8
002
 62
     3
 10
237.718677
 20
301.339556
 30
0.0
  0
VERTEX
  5
20C
  8
002
 62
     3
 10
239.718665
 20
298.589556
 30
0.0
  0
VERTEX
  5
20D
  8
002
 62
     3
 10
241.718652
 20
297.339556
 30
0.0
  0
VERTEX
  5
20E
  8
002
 62
     3
 10
243.71864
 20
298.589556
 30
0.0
  0
VERTEX
  5
20F
  8
002
 62
     3
 10
245.718627
 20
301.339556
 30
0.0
  0
VERTEX
  5
210
  8
002
 62
     3
 10
247.718615
 20
304.089556
 30
0.0
  0
VERTEX
  5
211
  8
002
 62
     3
 10
249.718602
 20
305.339556
 30
0.0
  0
VERTEX
  5
212
  8
002
 62
     3
 10
251.71859
 20
304.089556
 30
0.0
  0
VERTEX
  5
213
  8
002
 62
     3
 10
253.718577
 20
301.339556
 30
0.0
  0
SEQEND
  5
20A
  8
002
 62
     3
  0
LINE
  5
214
  8
002
 62
     3
 10
253.718577
 20
340.004456
 30
0.0
 11
253.718577
 21
301.339556
 31
0.0
  0
LINE
  5
215
  8
002
 62
     3
 10
253.718577
 20
293.339556
 30
0.0
 11
253.718577
 21
254.674656
 31
0.0
  0
LINE
  5
216
  8
002
 62
     3
 10
237.718677
 20
254.674656
 30
0.0
 11
237.718677
 21
293.339556
 31
0.0
  0
LINE
  5
217
  8
002
 62
     3
 10
237.718677
 20
301.339556
 30
0.0
 11
237.718677
 21
340.004456
 31
0.0
  0
LINE
  5
218
  8
002
 62
    40
 10
238.948677
 20
340.004456
 30
0.0
 11
238.948677
 21
299.552697
 31
0.0
  0
LINE
  5
219
  8
002
 62
    40
 10
238.948677
 20
291.552697
 30
0.0
 11
238.948677
 21
254.674656
 31
0.0
  0
LINE
  5
21A
  8
002
 62
    40
 10
252.488577
 20
254.674656
 30
0.0
 11
252.488577
 21
295.126414
 31
0.0
  0
LINE
  5
21B
  8
002
 62
    40
 10
252.488577
 20
303.126414
 30
0.0
 11
252.488577
 21
340.004456
 31
0.0
  0
POLYLINE
  5
21C
  8
002
 62
     3
 66
     1
 10
0.0
 20
0.0
 30
0.0
  0
VERTEX
  5
21E
  8
002
 62
     3
 10
261.718977
 20
91.174656
 30
0.0
  0
VERTEX
  5
21F
  8
002
 62
     3
 10
259.718977
 20
92.643406
 30
0.0
  0
VERTEX
  5
220
  8
002
 62
     3
 10
257.718977
 20
93.924656
 30
0.0
  0
VERTEX
  5
221
  8
002
 62
     3
 10
255.718977
 20
94.830906
 30
0.0
  0
VERTEX
  5
222
  8
002
 62
     3
 10
253.718977
 20
95.174656
 30
0.0
  0
VERTEX
  5
223
  8
002
 62
     3
 10
251.718977
 20
94.830906
 30
0.0
  0
VERTEX
  5
224
  8
002
 62
     3
 10
249.718977
 20
93.924656
 30
0.0
  0
VERTEX
  5
225
  8
002
 62
     3
 10
247.718977
 20
92.643406
 30
0.0
  0
VERTEX
  5
226
  8
002
 62
     3
 10
245.718977
 20
91.174656
 30
0.0
  0
VERTEX
  5
227
  8
002
 62
     3
 10
243.718977
 20
89.705906
 30
0.0
  0
VERTEX
  5
228
  8
002
 62
     3
 10
241.718977
 20
88.424656
 30
0.0
  0
VERTEX
  5
229
  8
002
 62
     3
 10
239.718977
 20
87.518406
 30
0.0
  0
VERTEX
  5
22A
  8
002
 62
     3
 10
237.718977
 20
87.174656
 30
0.0
  0
VERTEX
  5
22B
  8
002
 62
     3
 10
235.718977
 20
87.518406
 30
0.0
  0
VERTEX
  5
22C
  8
002
 62
     3
 10
233.718977
 20
88.424656
 30
0.0
  0
VERTEX
  5
22D
  8
002
 62
     3
 10
231.718977
 20
89.705906
 30
0.0
  0
VERTEX
  5
22E
  8
002
 62
     3
 10
229.718977
 20
91.174656
 30
0.0
  0
SEQEND
  5
21D
  8
002
 62
     3
  0
POLYLINE
  5
22F
  8
002
 62
     3
 66
     1
 10
0.0
 20
0.0
 30
0.0
  0
VERTEX
  5
231
  8
002
 62
     3
 10
261.718977
 20
83.174656
 30
0.0
  0
VERTEX
  5
232
  8
002
 62
     3
 10
259.718977
 20
84.643406
 30
0.0
  0
VERTEX
  5
233
  8
002
 62
     3
 10
257.718977
 20
85.924656
 30
0.0
  0
VERTEX
  5
234
  8
002
 62
     3
 10
255.718977
 20
86.830906
 30
0.0
  0
VERTEX
  5
235
  8
002
 62
     3
 10
253.718977
 20
87.174656
 30
0.0
  0
VERTEX
  5
236
  8
002
 62
     3
 10
251.718977
 20
86.830906
 30
0.0
  0
VERTEX
  5
237
  8
002
 62
     3
 10
249.718977
 20
85.924656
 30
0.0
  0
VERTEX
  5
238
  8
002
 62
     3
 10
247.718977
 20
84.643406
 30
0.0
  0
VERTEX
  5
239
  8
002
 62
     3
 10
245.718977
 20
83.174656
 30
0.0
  0
VERTEX
  5
23A
  8
002
 62
     3
 10
243.718977
 20
81.705906
 30
0.0
  0
VERTEX
  5
23B
  8
002
 62
     3
 10
241.718977
 20
80.424656
 30
0.0
  0
VERTEX
  5
23C
  8
002
 62
     3
 10
239.718977
 20
79.518406
 30
0.0
  0
VERTEX
  5
23D
  8
002
 62
     3
 10
237.718977
 20
79.174656
 30
0.0
  0
VERTEX
  5
23E
  8
002
 62
     3
 10
235.718977
 20
79.518406
 30
0.0
  0
VERTEX
  5
23F
  8
002
 62
     3
 10
233.718977
 20
80.424656
 30
0.0
  0
VERTEX
  5
240
  8
002
 62
     3
 10
231.718977
 20
81.705906
 30
0.0
  0
VERTEX
  5
241
  8
002
 62
     3
 10
229.718977
 20
83.174656
 30
0.0
  0
SEQEND
  5
230
  8
002
 62
     3
  0
LINE
  5
242
  8
002
 62
     3
 10
261.718977
 20
59.674656
 30
0.0
 11
261.718977
 21
83.174656
 31
0.0
  0
LINE
  5
243
  8
002
 62
     3
 10
261.718977
 20
91.174656
 30
0.0
 11
261.718977
 21
114.674656
 31
0.0
  0
LINE
  5
244
  8
002
 62
     3
 10
229.718977
 20
114.674656
 30
0.0
 11
229.718977
 21
91.174656
 31
0.0
  0
LINE
  5
245
  8
002
 62
     3
 10
229.718977
 20
83.174656
 30
0.0
 11
229.718977
 21
59.674656
 31
0.0
  0
POLYLINE
  5
246
  8
002
 62
     3
 66
     1
 10
0.0
 20
0.0
 30
0.0
  0
VERTEX
  5
248
  8
002
 62
     3
 10
679.964614
 20
83.174656
 30
0.0
  0
VERTEX
  5
249
  8
002
 62
     3
 10
681.964614
 20
81.705906
 30
0.0
  0
VERTEX
  5
24A
  8
002
 62
     3
 10
683.964614
 20
80.424656
 30
0.0
  0
VERTEX
  5
24B
  8
002
 62
     3
 10
685.964614
 20
79.518406
 30
0.0
  0
VERTEX
  5
24C
  8
002
 62
     3
 10
687.964614
 20
79.174656
 30
0.0
  0
VERTEX
  5
24D
  8
002
 62
     3
 10
689.964614
 20
79.518406
 30
0.0
  0
VERTEX
  5
24E
  8
002
 62
     3
 10
691.964614
 20
80.424656
 30
0.0
  0
VERTEX
  5
24F
  8
002
 62
     3
 10
693.964614
 20
81.705906
 30
0.0
  0
VERTEX
  5
250
  8
002
 62
     3
 10
695.964614
 20
83.174656
 30
0.0
  0
VERTEX
  5
251
  8
002
 62
     3
 10
697.964614
 20
84.643406
 30
0.0
  0
VERTEX
  5
252
  8
002
 62
     3
 10
699.964614
 20
85.924656
 30
0.0
  0
VERTEX
  5
253
  8
002
 62
     3
 10
701.964614
 20
86.830906
 30
0.0
  0
VERTEX
  5
254
  8
002
 62
     3
 10
703.964614
 20
87.174656
 30
0.0
  0
VERTEX
  5
255
  8
002
 62
     3
 10
705.964614
 20
86.830906
 30
0.0
  0
VERTEX
  5
256
  8
002
 62
     3
 10
707.964614
 20
85.924656
 30
0.0
  0
VERTEX
  5
257
  8
002
 62
     3
 10
709.964614
 20
84.643406
 30
0.0
  0
VERTEX
  5
258
  8
002
 62
     3
 10
711.964614
 20
83.174656
 30
0.0
  0
SEQEND
  5
247
  8
002
 62
     3
  0
POLYLINE
  5
259
  8
002
 62
     3
 66
     1
 10
0.0
 20
0.0
 30
0.0
  0
VERTEX
  5
25B
  8
002
 62
     3
 10
679.964614
 20
91.174656
 30
0.0
  0
VERTEX
  5
25C
  8
002
 62
     3
 10
681.964614
 20
89.705906
 30
0.0
  0
VERTEX
  5
25D
  8
002
 62
     3
 10
683.964614
 20
88.424656
 30
0.0
  0
VERTEX
  5
25E
  8
002
 62
     3
 10
685.964614
 20
87.518406
 30
0.0
  0
VERTEX
  5
25F
  8
002
 62
     3
 10
687.964614
 20
87.174656
 30
0.0
  0
VERTEX
  5
260
  8
002
 62
     3
 10
689.964614
 20
87.518406
 30
0.0
  0
VERTEX
  5
261
  8
002
 62
     3
 10
691.964614
 20
88.424656
 30
0.0
  0
VERTEX
  5
262
  8
002
 62
     3
 10
693.964614
 20
89.705906
 30
0.0
  0
VERTEX
  5
263
  8
002
 62
     3
 10
695.964614
 20
91.174656
 30
0.0
  0
VERTEX
  5
264
  8
002
 62
     3
 10
697.964614
 20
92.643406
 30
0.0
  0
VERTEX
  5
265
  8
002
 62
     3
 10
699.964614
 20
93.924656
 30
0.0
  0
VERTEX
  5
266
  8
002
 62
     3
 10
701.964614
 20
94.830906
 30
0.0
  0
VERTEX
  5
267
  8
002
 62
     3
 10
703.964614
 20
95.174656
 30
0.0
  0
VERTEX
  5
268
  8
002
 62
     3
 10
705.964614
 20
94.830906
 30
0.0
  0
VERTEX
  5
269
  8
002
 62
     3
 10
707.964614
 20
93.924656
 30
0.0
  0
VERTEX
  5
26A
  8
002
 62
     3
 10
709.964614
 20
92.643406
 30
0.0
  0
VERTEX
  5
26B
  8
002
 62
     3
 10
711.964614
 20
91.174656
 30
0.0
  0
SEQEND
  5
25A
  8
002
 62
     3
  0
LINE
  5
26C
  8
002
 62
     3
 10
711.964614
 20
59.674656
 30
0.0
 11
711.964614
 21
83.174656
 31
0.0
  0
LINE
  5
26D
  8
002
 62
     3
 10
711.964614
 20
91.174656
 30
0.0
 11
711.964614
 21
114.674656
 31
0.0
  0
LINE
  5
26E
  8
002
 62
     3
 10
679.964614
 20
114.674656
 30
0.0
 11
679.964614
 21
91.174656
 31
0.0
  0
LINE
  5
26F
  8
002
 62
     3
 10
679.964614
 20
83.174656
 30
0.0
 11
679.964614
 21
59.674656
 31
0.0
  0
POLYLINE
  5
270
  8
002
 62
     3
 66
     1
 10
0.0
 20
0.0
 30
0.0
  0
VERTEX
  5
272
  8
002
 62
     3
 10
1178.90849
 20
323.174656
 30
0.0
  0
VERTEX
  5
273
  8
002
 62
     3
 10
1180.90849
 20
321.705906
 30
0.0
  0
VERTEX
  5
274
  8
002
 62
     3
 10
1182.90849
 20
320.424656
 30
0.0
  0
VERTEX
  5
275
  8
002
 62
     3
 10
1184.90849
 20
319.518406
 30
0.0
  0
VERTEX
  5
276
  8
002
 62
     3
 10
1186.90849
 20
319.174656
 30
0.0
  0
VERTEX
  5
277
  8
002
 62
     3
 10
1188.90849
 20
319.518406
 30
0.0
  0
VERTEX
  5
278
  8
002
 62
     3
 10
1190.90849
 20
320.424656
 30
0.0
  0
VERTEX
  5
279
  8
002
 62
     3
 10
1192.90849
 20
321.705906
 30
0.0
  0
VERTEX
  5
27A
  8
002
 62
     3
 10
1194.90849
 20
323.174656
 30
0.0
  0
VERTEX
  5
27B
  8
002
 62
     3
 10
1196.90849
 20
324.643406
 30
0.0
  0
VERTEX
  5
27C
  8
002
 62
     3
 10
1198.90849
 20
325.924656
 30
0.0
  0
VERTEX
  5
27D
  8
002
 62
     3
 10
1200.90849
 20
326.830906
 30
0.0
  0
VERTEX
  5
27E
  8
002
 62
     3
 10
1202.90849
 20
327.174656
 30
0.0
  0
VERTEX
  5
27F
  8
002
 62
     3
 10
1204.90849
 20
326.830906
 30
0.0
  0
VERTEX
  5
280
  8
002
 62
     3
 10
1206.90849
 20
325.924656
 30
0.0
  0
VERTEX
  5
281
  8
002
 62
     3
 10
1208.90849
 20
324.643406
 30
0.0
  0
VERTEX
  5
282
  8
002
 62
     3
 10
1210.90849
 20
323.174656
 30
0.0
  0
SEQEND
  5
271
  8
002
 62
     3
  0
POLYLINE
  5
283
  8
002
 62
     3
 66
     1
 10
0.0
 20
0.0
 30
0.0
  0
VERTEX
  5
285
  8
002
 62
     3
 10
1178.90849
 20
331.174656
 30
0.0
  0
VERTEX
  5
286
  8
002
 62
     3
 10
1180.90849
 20
329.705906
 30
0.0
  0
VERTEX
  5
287
  8
002
 62
     3
 10
1182.90849
 20
328.424656
 30
0.0
  0
VERTEX
  5
288
  8
002
 62
     3
 10
1184.90849
 20
327.518406
 30
0.0
  0
VERTEX
  5
289
  8
002
 62
     3
 10
1186.90849
 20
327.174656
 30
0.0
  0
VERTEX
  5
28A
  8
002
 62
     3
 10
1188.90849
 20
327.518406
 30
0.0
  0
VERTEX
  5
28B
  8
002
 62
     3
 10
1190.90849
 20
328.424656
 30
0.0
  0
VERTEX
  5
28C
  8
002
 62
     3
 10
1192.90849
 20
329.705906
 30
0.0
  0
VERTEX
  5
28D
  8
002
 62
     3
 10
1194.90849
 20
331.174656
 30
0.0
  0
VERTEX
  5
28E
  8
002
 62
     3
 10
1196.90849
 20
332.643406
 30
0.0
  0
VERTEX
  5
28F
  8
002
 62
     3
 10
1198.90849
 20
333.924656
 30
0.0
  0
VERTEX
  5
290
  8
002
 62
     3
 10
1200.90849
 20
334.830906
 30
0.0
  0
VERTEX
  5
291
  8
002
 62
     3
 10
1202.90849
 20
335.174656
 30
0.0
  0
VERTEX
  5
292
  8
002
 62
     3
 10
1204.90849
 20
334.830906
 30
0.0
  0
VERTEX
  5
293
  8
002
 62
     3
 10
1206.90849
 20
333.924656
 30
0.0
  0
VERTEX
  5
294
  8
002
 62
     3
 10
1208.90849
 20
332.643406
 30
0.0
  0
VERTEX
  5
295
  8
002
 62
     3
 10
1210.90849
 20
331.174656
 30
0.0
  0
SEQEND
  5
284
  8
002
 62
     3
  0
LINE
  5
296
  8
002
 62
     3
 10
1178.90849
 20
354.674656
 30
0.0
 11
1178.90849
 21
331.174656
 31
0.0
  0
LINE
  5
297
  8
002
 62
     3
 10
1178.90849
 20
323.174656
 30
0.0
 11
1178.90849
 21
299.674656
 31
0.0
  0
LINE
  5
298
  8
002
 62
     3
 10
1210.90849
 20
299.674656
 30
0.0
 11
1210.90849
 21
323.174656
 31
0.0
  0
LINE
  5
299
  8
002
 62
     3
 10
1210.90849
 20
331.174656
 30
0.0
 11
1210.90849
 21
354.674656
 31
0.0
  0
POLYLINE
  5
29A
  8
002
 62
     3
 66
     1
 10
0.0
 20
0.0
 30
0.0
  0
VERTEX
  5
29C
  8
002
 62
     3
 10
1186.90849
 20
113.009756
 30
0.0
  0
VERTEX
  5
29D
  8
002
 62
     3
 10
1188.90849
 20
110.259756
 30
0.0
  0
VERTEX
  5
29E
  8
002
 62
     3
 10
1190.90849
 20
109.009756
 30
0.0
  0
VERTEX
  5
29F
  8
002
 62
     3
 10
1192.90849
 20
110.259756
 30
0.0
  0
VERTEX
  5
2A0
  8
002
 62
     3
 10
1194.90849
 20
113.009756
 30
0.0
  0
VERTEX
  5
2A1
  8
002
 62
     3
 10
1196.90849
 20
115.759756
 30
0.0
  0
VERTEX
  5
2A2
  8
002
 62
     3
 10
1198.90849
 20
117.009756
 30
0.0
  0
VERTEX
  5
2A3
  8
002
 62
     3
 10
1200.90849
 20
115.759756
 30
0.0
  0
VERTEX
  5
2A4
  8
002
 62
     3
 10
1202.90849
 20
113.009756
 30
0.0
  0
SEQEND
  5
29B
  8
002
 62
     3
  0
POLYLINE
  5
2A5
  8
002
 62
     3
 66
     1
 10
0.0
 20
0.0
 30
0.0
  0
VERTEX
  5
2A7
  8
002
 62
     3
 10
1186.90849
 20
121.009756
 30
0.0
  0
VERTEX
  5
2A8
  8
002
 62
     3
 10
1188.90849
 20
118.259756
 30
0.0
  0
VERTEX
  5
2A9
  8
002
 62
     3
 10
1190.90849
 20
117.009756
 30
0.0
  0
VERTEX
  5
2AA
  8
002
 62
     3
 10
1192.90849
 20
118.259756
 30
0.0
  0
VERTEX
  5
2AB
  8
002
 62
     3
 10
1194.90849
 20
121.009756
 30
0.0
  0
VERTEX
  5
2AC
  8
002
 62
     3
 10
1196.90849
 20
123.759756
 30
0.0
  0
VERTEX
  5
2AD
  8
002
 62
     3
 10
1198.90849
 20
125.009756
 30
0.0
  0
VERTEX
  5
2AE
  8
002
 62
     3
 10
1200.90849
 20
123.759756
 30
0.0
  0
VERTEX
  5
2AF
  8
002
 62
     3
 10
1202.90849
 20
121.009756
 30
0.0
  0
SEQEND
  5
2A6
  8
002
 62
     3
  0
LINE
  5
2B0
  8
002
 62
     3
 10
1202.90849
 20
159.674656
 30
0.0
 11
1202.90849
 21
121.009756
 31
0.0
  0
LINE
  5
2B1
  8
002
 62
     3
 10
1202.90849
 20
113.009756
 30
0.0
 11
1202.90849
 21
74.344856
 31
0.0
  0
LINE
  5
2B2
  8
002
 62
     3
 10
1186.90849
 20
74.344856
 30
0.0
 11
1186.90849
 21
113.009756
 31
0.0
  0
LINE
  5
2B3
  8
002
 62
     3
 10
1186.90849
 20
121.009756
 30
0.0
 11
1186.90849
 21
159.674656
 31
0.0
  0
LINE
  5
2B4
  8
002
 62
    40
 10
1188.13849
 20
159.674656
 30
0.0
 11
1188.13849
 21
119.222908
 31
0.0
  0
LINE
  5
2B5
  8
002
 62
    40
 10
1188.13849
 20
111.222908
 30
0.0
 11
1188.13849
 21
74.344856
 31
0.0
  0
LINE
  5
2B6
  8
002
 62
    40
 10
1201.67849
 20
74.344856
 30
0.0
 11
1201.67849
 21
114.796604
 31
0.0
  0
LINE
  5
2B7
  8
002
 62
    40
 10
1201.67849
 20
122.796604
 30
0.0
 11
1201.67849
 21
159.674656
 31
0.0
  0
POLYLINE
  5
2B8
  8
002
 62
     3
 66
     1
 10
0.0
 20
0.0
 30
0.0
  0
VERTEX
  5
2BA
  8
002
 62
     3
 10
1648.51349
 20
323.174656
 30
0.0
  0
VERTEX
  5
2BB
  8
002
 62
     3
 10
1650.51349
 20
321.705906
 30
0.0
  0
VERTEX
  5
2BC
  8
002
 62
     3
 10
1652.51349
 20
320.424656
 30
0.0
  0
VERTEX
  5
2BD
  8
002
 62
     3
 10
1654.51349
 20
319.518406
 30
0.0
  0
VERTEX
  5
2BE
  8
002
 62
     3
 10
1656.51349
 20
319.174656
 30
0.0
  0
VERTEX
  5
2BF
  8
002
 62
     3
 10
1658.51349
 20
319.518406
 30
0.0
  0
VERTEX
  5
2C0
  8
002
 62
     3
 10
1660.51349
 20
320.424656
 30
0.0
  0
VERTEX
  5
2C1
  8
002
 62
     3
 10
1662.51349
 20
321.705906
 30
0.0
  0
VERTEX
  5
2C2
  8
002
 62
     3
 10
1664.51349
 20
323.174656
 30
0.0
  0
VERTEX
  5
2C3
  8
002
 62
     3
 10
1666.51349
 20
324.643406
 30
0.0
  0
VERTEX
  5
2C4
  8
002
 62
     3
 10
1668.51349
 20
325.924656
 30
0.0
  0
VERTEX
  5
2C5
  8
002
 62
     3
 10
1670.51349
 20
326.830906
 30
0.0
  0
VERTEX
  5
2C6
  8
002
 62
     3
 10
1672.51349
 20
327.174656
 30
0.0
  0
VERTEX
  5
2C7
  8
002
 62
     3
 10
1674.51349
 20
326.830906
 30
0.0
  0
VERTEX
  5
2C8
  8
002
 62
     3
 10
1676.51349
 20
325.924656
 30
0.0
  0
VERTEX
  5
2C9
  8
002
 62
     3
 10
1678.51349
 20
324.643406
 30
0.0
  0
VERTEX
  5
2CA
  8
002
 62
     3
 10
1680.51349
 20
323.174656
 30
0.0
  0
SEQEND
  5
2B9
  8
002
 62
     3
  0
POLYLINE
  5
2CB
  8
002
 62
     3
 66
     1
 10
0.0
 20
0.0
 30
0.0
  0
VERTEX
  5
2CD
  8
002
 62
     3
 10
1648.51349
 20
331.174656
 30
0.0
  0
VERTEX
  5
2CE
  8
002
 62
     3
 10
1650.51349
 20
329.705906
 30
0.0
  0
VERTEX
  5
2CF
  8
002
 62
     3
 10
1652.51349
 20
328.424656
 30
0.0
  0
VERTEX
  5
2D0
  8
002
 62
     3
 10
1654.51349
 20
327.518406
 30
0.0
  0
VERTEX
  5
2D1
  8
002
 62
     3
 10
1656.51349
 20
327.174656
 30
0.0
  0
VERTEX
  5
2D2
  8
002
 62
     3
 10
1658.51349
 20
327.518406
 30
0.0
  0
VERTEX
  5
2D3
  8
002
 62
     3
 10
1660.51349
 20
328.424656
 30
0.0
  0
VERTEX
  5
2D4
  8
002
 62
     3
 10
1662.51349
 20
329.705906
 30
0.0
  0
VERTEX
  5
2D5
  8
002
 62
     3
 10
1664.51349
 20
331.174656
 30
0.0
  0
VERTEX
  5
2D6
  8
002
 62
     3
 10
1666.51349
 20
332.643406
 30
0.0
  0
VERTEX
  5
2D7
  8
002
 62
     3
 10
1668.51349
 20
333.924656
 30
0.0
  0
VERTEX
  5
2D8
  8
002
 62
     3
 10
1670.51349
 20
334.830906
 30
0.0
  0
VERTEX
  5
2D9
  8
002
 62
     3
 10
1672.51349
 20
335.174656
 30
0.0
  0
VERTEX
  5
2DA
  8
002
 62
     3
 10
1674.51349
 20
334.830906
 30
0.0
  0
VERTEX
  5
2DB
  8
002
 62
     3
 10
1676.51349
 20
333.924656
 30
0.0
  0
VERTEX
  5
2DC
  8
002
 62
     3
 10
1678.51349
 20
332.643406
 30
0.0
  0
VERTEX
  5
2DD
  8
002
 62
     3
 10
1680.51349
 20
331.174656
 30
0.0
  0
SEQEND
  5
2CC
  8
002
 62
     3
  0
LINE
  5
2DE
  8
002
 62
     3
 10
1648.51349
 20
354.674656
 30
0.0
 11
1648.51349
 21
331.174656
 31
0.0
  0
LINE
  5
2DF
  8
002
 62
     3
 10
1648.51349
 20
323.174656
 30
0.0
 11
1648.51349
 21
299.674656
 31
0.0
  0
LINE
  5
2E0
  8
002
 62
     3
 10
1680.51349
 20
299.674656
 30
0.0
 11
1680.51349
 21
323.174656
 31
0.0
  0
LINE
  5
2E1
  8
002
 62
     3
 10
1680.51349
 20
331.174656
 30
0.0
 11
1680.51349
 21
354.674656
 31
0.0
  0
LINE
  5
2E2
  8
002
  6
CENTER
 62
    40
 10
695.964614
 20
34.989106
 30
0.0
 11
695.964614
 21
362.369056
 31
0.0
  0
LINE
  5
2E3
  8
002
  6
CENTER
 62
    40
 10
1194.90849
 20
381.578293
 30
0.0
 11
1194.90849
 21
52.160556
 31
0.0
  0
LINE
  5
2E4
  8
002
  6
CENTER
 62
    40
 10
1664.51349
 20
381.578293
 30
0.0
 11
1664.51349
 21
52.160556
 31
0.0
  0
LINE
  5
2E5
  8
002
  6
CENTER
 62
    40
 10
245.718977
 20
32.550763
 30
0.0
 11
245.718977
 21
362.369056
 31
0.0
  0
LINE
  5
2E6
  8
002
  6
CENTER
 62
    40
 10
351.541677
 20
189.674656
 30
0.0
 11
508.533759
 21
189.674656
 31
0.0
  0
LINE
  5
2E7
  8
003
  6
CENTER
 62
    40
 10
4.909917
 20
189.674656
 30
0.0
 11
161.937277
 21
189.674656
 31
0.0
  0
LINE
  5
2E8
  8
003
  6
CENTER
 62
    40
 10
82.521977
 20
32.550763
 30
0.0
 11
82.521977
 21
362.369056
 31
0.0
  0
LINE
  5
2E9
  8
002
  6
CENTER
 62
    40
 10
430.695099
 20
362.369056
 30
0.0
 11
430.695099
 21
32.550763
 31
0.0
  0
LINE
  5
2EA
  8
002
 62
     3
 10
70.862077
 20
155.674656
 30
0.0
 11
70.862077
 21
150.674656
 31
0.0
  0
LINE
  5
2EB
  8
002
 62
     3
 10
62.362077
 20
150.674656
 30
0.0
 11
62.362077
 21
155.674656
 31
0.0
  0
ARC
  5
2EC
  8
002
 62
     3
 10
58.968877
 20
152.674656
 30
0.0
 40
3.0
 50
0.832723
 51
90.0
  0
LINE
  5
2ED
  8
002
 62
     3
 10
55.021977
 20
155.674656
 30
0.0
 11
55.021977
 21
159.674656
 31
0.0
  0
LINE
  5
2EE
  8
002
 62
     3
 10
55.021977
 20
155.674656
 30
0.0
 11
110.021977
 21
155.674656
 31
0.0
  0
LINE
  5
2EF
  8
002
 62
     3
 10
61.968577
 20
152.718256
 30
0.0
 11
62.521977
 21
114.674656
 31
0.0
  0
LINE
  5
2F0
  8
002
 62
     3
 10
62.521977
 20
114.674656
 30
0.0
 11
102.521977
 21
114.674656
 31
0.0
  0
LINE
  5
2F1
  8
002
 62
     3
 10
102.521977
 20
114.674656
 30
0.0
 11
103.075277
 21
152.718256
 31
0.0
  0
LINE
  5
2F2
  8
002
 62
     3
 10
94.181877
 20
150.674656
 30
0.0
 11
102.681877
 21
150.674656
 31
0.0
  0
LINE
  5
2F3
  8
002
 62
     3
 10
102.681877
 20
150.674656
 30
0.0
 11
102.681877
 21
155.674656
 31
0.0
  0
ARC
  5
2F4
  8
002
 62
     3
 10
106.074977
 20
152.674656
 30
0.0
 40
3.000016841619355
 50
90.0
 51
179.167277
  0
LINE
  5
2F5
  8
002
 62
     3
 10
94.181877
 20
155.674656
 30
0.0
 11
94.181877
 21
150.674656
 31
0.0
  0
LINE
  5
2F6
  8
002
 62
     3
 10
70.862077
 20
150.674656
 30
0.0
 11
62.362077
 21
150.674656
 31
0.0
  0
LINE
  5
2F7
  8
002
  6
CENTER
 62
    40
 10
66.612077
 20
147.953056
 30
0.0
 11
66.612077
 21
161.674656
 31
0.0
  0
LINE
  5
2F8
  8
002
  6
CENTER
 62
    40
 10
98.431877
 20
161.674656
 30
0.0
 11
98.431877
 21
147.953056
 31
0.0
  0
LINE
  5
2F9
  8
002
 62
     3
 10
88.521277
 20
355.004456
 30
0.0
 11
76.521277
 21
355.004456
 31
0.0
  0
LINE
  5
2FA
  8
002
 62
     3
 10
76.521277
 20
355.004456
 30
0.0
 11
76.521277
 21
343.004456
 31
0.0
  0
LINE
  5
2FB
  8
002
 62
     3
 10
76.521277
 20
343.004456
 30
0.0
 11
88.521277
 21
343.004456
 31
0.0
  0
LINE
  5
2FC
  8
002
 62
     3
 10
88.521277
 20
343.004456
 30
0.0
 11
88.521277
 21
355.004456
 31
0.0
  0
LINE
  5
2FD
  8
002
 62
     3
 10
87.371277
 20
343.004456
 30
0.0
 11
87.371277
 21
340.004456
 31
0.0
  0
LINE
  5
2FE
  8
002
 62
     3
 10
74.521677
 20
340.004456
 30
0.0
 11
90.521577
 21
340.004456
 31
0.0
  0
LINE
  5
2FF
  8
002
 62
     3
 10
77.671277
 20
340.004456
 30
0.0
 11
77.671277
 21
343.004456
 31
0.0
  0
LINE
  5
300
  8
002
 62
    40
 10
77.571277
 20
355.004456
 30
0.0
 11
77.571277
 21
343.004456
 31
0.0
  0
LINE
  5
301
  8
002
 62
    40
 10
87.471277
 20
343.004456
 30
0.0
 11
87.471277
 21
355.004456
 31
0.0
  0
LINE
  5
302
  8
002
 62
     3
 10
64.521977
 20
59.674656
 30
0.0
 11
100.521977
 21
59.674656
 31
0.0
  0
LINE
  5
303
  8
002
 62
     3
 10
100.521977
 20
59.674656
 30
0.0
 11
100.521977
 21
42.674656
 31
0.0
  0
LINE
  5
304
  8
002
 62
     3
 10
97.521977
 20
39.674656
 30
0.0
 11
67.521977
 21
39.674656
 31
0.0
  0
LINE
  5
305
  8
002
 62
     3
 10
64.521977
 20
42.674656
 30
0.0
 11
64.521977
 21
59.674656
 31
0.0
  0
ARC
  5
306
  8
002
 62
     3
 10
67.521977
 20
42.674656
 30
0.0
 40
3.0
 50
180.0
 51
270.0
  0
ARC
  5
307
  8
002
 62
     3
 10
97.521977
 20
42.674656
 30
0.0
 40
3.0
 50
270.0
 51
0.0
  0
POLYLINE
  5
308
  8
002
 62
     3
 66
     1
 10
0.0
 20
0.0
 30
0.0
  0
VERTEX
  5
30A
  8
002
 62
     3
 10
74.521677
 20
293.339556
 30
0.0
  0
VERTEX
  5
30B
  8
002
 62
     3
 10
76.521665
 20
290.589556
 30
0.0
  0
VERTEX
  5
30C
  8
002
 62
     3
 10
78.521652
 20
289.339556
 30
0.0
  0
VERTEX
  5
30D
  8
002
 62
     3
 10
80.52164
 20
290.589556
 30
0.0
  0
VERTEX
  5
30E
  8
002
 62
     3
 10
82.521627
 20
293.339556
 30
0.0
  0
VERTEX
  5
30F
  8
002
 62
     3
 10
84.521615
 20
296.089556
 30
0.0
  0
VERTEX
  5
310
  8
002
 62
     3
 10
86.521602
 20
297.339556
 30
0.0
  0
VERTEX
  5
311
  8
002
 62
     3
 10
88.52159
 20
296.089556
 30
0.0
  0
VERTEX
  5
312
  8
002
 62
     3
 10
90.521577
 20
293.339556
 30
0.0
  0
SEQEND
  5
309
  8
002
 62
     3
  0
POLYLINE
  5
313
  8
002
 62
     3
 66
     1
 10
0.0
 20
0.0
 30
0.0
  0
VERTEX
  5
315
  8
002
 62
     3
 10
74.521677
 20
301.339556
 30
0.0
  0
VERTEX
  5
316
  8
002
 62
     3
 10
76.521665
 20
298.589556
 30
0.0
  0
VERTEX
  5
317
  8
002
 62
     3
 10
78.521652
 20
297.339556
 30
0.0
  0
VERTEX
  5
318
  8
002
 62
     3
 10
80.52164
 20
298.589556
 30
0.0
  0
VERTEX
  5
319
  8
002
 62
     3
 10
82.521627
 20
301.339556
 30
0.0
  0
VERTEX
  5
31A
  8
002
 62
     3
 10
84.521615
 20
304.089556
 30
0.0
  0
VERTEX
  5
31B
  8
002
 62
     3
 10
86.521602
 20
305.339556
 30
0.0
  0
VERTEX
  5
31C
  8
002
 62
     3
 10
88.52159
 20
304.089556
 30
0.0
  0
VERTEX
  5
31D
  8
002
 62
     3
 10
90.521577
 20
301.339556
 30
0.0
  0
SEQEND
  5
314
  8
002
 62
     3
  0
LINE
  5
31E
  8
002
 62
     3
 10
90.521577
 20
340.004456
 30
0.0
 11
90.521577
 21
301.339556
 31
0.0
  0
LINE
  5
31F
  8
002
 62
     3
 10
90.521577
 20
293.339556
 30
0.0
 11
90.521577
 21
254.674656
 31
0.0
  0
LINE
  5
320
  8
002
 62
     3
 10
74.521677
 20
254.674656
 30
0.0
 11
74.521677
 21
293.339556
 31
0.0
  0
LINE
  5
321
  8
002
 62
     3
 10
74.521677
 20
301.339556
 30
0.0
 11
74.521677
 21
340.004456
 31
0.0
  0
LINE
  5
322
  8
002
 62
    40
 10
75.751677
 20
340.004456
 30
0.0
 11
75.751677
 21
299.552697
 31
0.0
  0
LINE
  5
323
  8
002
 62
    40
 10
75.751677
 20
291.552697
 30
0.0
 11
75.751677
 21
254.674656
 31
0.0
  0
LINE
  5
324
  8
002
 62
    40
 10
89.291577
 20
254.674656
 30
0.0
 11
89.291577
 21
295.126414
 31
0.0
  0
LINE
  5
325
  8
002
 62
    40
 10
89.291577
 20
303.126414
 30
0.0
 11
89.291577
 21
340.004456
 31
0.0
  0
POLYLINE
  5
326
  8
002
 62
     3
 66
     1
 10
0.0
 20
0.0
 30
0.0
  0
VERTEX
  5
328
  8
002
 62
     3
 10
98.521977
 20
91.174656
 30
0.0
  0
VERTEX
  5
329
  8
002
 62
     3
 10
96.521977
 20
92.643406
 30
0.0
  0
VERTEX
  5
32A
  8
002
 62
     3
 10
94.521977
 20
93.924656
 30
0.0
  0
VERTEX
  5
32B
  8
002
 62
     3
 10
92.521977
 20
94.830906
 30
0.0
  0
VERTEX
  5
32C
  8
002
 62
     3
 10
90.521977
 20
95.174656
 30
0.0
  0
VERTEX
  5
32D
  8
002
 62
     3
 10
88.521977
 20
94.830906
 30
0.0
  0
VERTEX
  5
32E
  8
002
 62
     3
 10
86.521977
 20
93.924656
 30
0.0
  0
VERTEX
  5
32F
  8
002
 62
     3
 10
84.521977
 20
92.643406
 30
0.0
  0
VERTEX
  5
330
  8
002
 62
     3
 10
82.521977
 20
91.174656
 30
0.0
  0
VERTEX
  5
331
  8
002
 62
     3
 10
80.521977
 20
89.705906
 30
0.0
  0
VERTEX
  5
332
  8
002
 62
     3
 10
78.521977
 20
88.424656
 30
0.0
  0
VERTEX
  5
333
  8
002
 62
     3
 10
76.521977
 20
87.518406
 30
0.0
  0
VERTEX
  5
334
  8
002
 62
     3
 10
74.521977
 20
87.174656
 30
0.0
  0
VERTEX
  5
335
  8
002
 62
     3
 10
72.521977
 20
87.518406
 30
0.0
  0
VERTEX
  5
336
  8
002
 62
     3
 10
70.521977
 20
88.424656
 30
0.0
  0
VERTEX
  5
337
  8
002
 62
     3
 10
68.521977
 20
89.705906
 30
0.0
  0
VERTEX
  5
338
  8
002
 62
     3
 10
66.521977
 20
91.174656
 30
0.0
  0
SEQEND
  5
327
  8
002
 62
     3
  0
POLYLINE
  5
339
  8
002
 62
     3
 66
     1
 10
0.0
 20
0.0
 30
0.0
  0
VERTEX
  5
33B
  8
002
 62
     3
 10
98.521977
 20
83.174656
 30
0.0
  0
VERTEX
  5
33C
  8
002
 62
     3
 10
96.521977
 20
84.643406
 30
0.0
  0
VERTEX
  5
33D
  8
002
 62
     3
 10
94.521977
 20
85.924656
 30
0.0
  0
VERTEX
  5
33E
  8
002
 62
     3
 10
92.521977
 20
86.830906
 30
0.0
  0
VERTEX
  5
33F
  8
002
 62
     3
 10
90.521977
 20
87.174656
 30
0.0
  0
VERTEX
  5
340
  8
002
 62
     3
 10
88.521977
 20
86.830906
 30
0.0
  0
VERTEX
  5
341
  8
002
 62
     3
 10
86.521977
 20
85.924656
 30
0.0
  0
VERTEX
  5
342
  8
002
 62
     3
 10
84.521977
 20
84.643406
 30
0.0
  0
VERTEX
  5
343
  8
002
 62
     3
 10
82.521977
 20
83.174656
 30
0.0
  0
VERTEX
  5
344
  8
002
 62
     3
 10
80.521977
 20
81.705906
 30
0.0
  0
VERTEX
  5
345
  8
002
 62
     3
 10
78.521977
 20
80.424656
 30
0.0
  0
VERTEX
  5
346
  8
002
 62
     3
 10
76.521977
 20
79.518406
 30
0.0
  0
VERTEX
  5
347
  8
002
 62
     3
 10
74.521977
 20
79.174656
 30
0.0
  0
VERTEX
  5
348
  8
002
 62
     3
 10
72.521977
 20
79.518406
 30
0.0
  0
VERTEX
  5
349
  8
002
 62
     3
 10
70.521977
 20
80.424656
 30
0.0
  0
VERTEX
  5
34A
  8
002
 62
     3
 10
68.521977
 20
81.705906
 30
0.0
  0
VERTEX
  5
34B
  8
002
 62
     3
 10
66.521977
 20
83.174656
 30
0.0
  0
SEQEND
  5
33A
  8
002
 62
     3
  0
LINE
  5
34C
  8
002
 62
     3
 10
98.521977
 20
59.674656
 30
0.0
 11
98.521977
 21
83.174656
 31
0.0
  0
LINE
  5
34D
  8
002
 62
     3
 10
98.521977
 20
91.174656
 30
0.0
 11
98.521977
 21
114.674656
 31
0.0
  0
LINE
  5
34E
  8
002
 62
     3
 10
66.521977
 20
114.674656
 30
0.0
 11
66.521977
 21
91.174656
 31
0.0
  0
LINE
  5
34F
  8
002
 62
     3
 10
66.521977
 20
83.174656
 30
0.0
 11
66.521977
 21
59.674656
 31
0.0
  0
LINE
  5
350
  8
002
 62
     3
 10
419.035199
 20
155.674656
 30
0.0
 11
419.035199
 21
150.674656
 31
0.0
  0
LINE
  5
351
  8
002
 62
     3
 10
410.535199
 20
150.674656
 30
0.0
 11
410.535199
 21
155.674656
 31
0.0
  0
ARC
  5
352
  8
002
 62
     3
 10
407.141999
 20
152.674656
 30
0.0
 40
3.0
 50
0.832723
 51
90.0
  0
LINE
  5
353
  8
002
 62
     3
 10
403.195099
 20
155.674656
 30
0.0
 11
403.195099
 21
159.674656
 31
0.0
  0
LINE
  5
354
  8
002
 62
     3
 10
403.195099
 20
155.674656
 30
0.0
 11
458.195099
 21
155.674656
 31
0.0
  0
LINE
  5
355
  8
002
 62
     3
 10
410.141699
 20
152.718256
 30
0.0
 11
410.695099
 21
114.674656
 31
0.0
  0
LINE
  5
356
  8
002
 62
     3
 10
410.695099
 20
114.674656
 30
0.0
 11
450.695099
 21
114.674656
 31
0.0
  0
LINE
  5
357
  8
002
 62
     3
 10
450.695099
 20
114.674656
 30
0.0
 11
451.248399
 21
152.718256
 31
0.0
  0
LINE
  5
358
  8
002
 62
     3
 10
442.354999
 20
150.674656
 30
0.0
 11
450.854999
 21
150.674656
 31
0.0
  0
LINE
  5
359
  8
002
 62
     3
 10
450.854999
 20
150.674656
 30
0.0
 11
450.854999
 21
155.674656
 31
0.0
  0
ARC
  5
35A
  8
002
 62
     3
 10
454.248099
 20
152.674656
 30
0.0
 40
3.000016841619355
 50
90.0
 51
179.167277
  0
LINE
  5
35B
  8
002
 62
     3
 10
442.354999
 20
155.674656
 30
0.0
 11
442.354999
 21
150.674656
 31
0.0
  0
LINE
  5
35C
  8
002
 62
     3
 10
419.035199
 20
150.674656
 30
0.0
 11
410.535199
 21
150.674656
 31
0.0
  0
LINE
  5
35D
  8
002
  6
CENTER
 62
    40
 10
414.785199
 20
147.953056
 30
0.0
 11
414.785199
 21
161.674656
 31
0.0
  0
LINE
  5
35E
  8
002
  6
CENTER
 62
    40
 10
446.604999
 20
161.674656
 30
0.0
 11
446.604999
 21
147.953056
 31
0.0
  0
LINE
  5
35F
  8
002
 62
     3
 10
436.694399
 20
355.004456
 30
0.0
 11
424.694399
 21
355.004456
 31
0.0
  0
LINE
  5
360
  8
002
 62
     3
 10
424.694399
 20
355.004456
 30
0.0
 11
424.694399
 21
343.004456
 31
0.0
  0
LINE
  5
361
  8
002
 62
     3
 10
424.694399
 20
343.004456
 30
0.0
 11
436.694399
 21
343.004456
 31
0.0
  0
LINE
  5
362
  8
002
 62
     3
 10
436.694399
 20
343.004456
 30
0.0
 11
436.694399
 21
355.004456
 31
0.0
  0
LINE
  5
363
  8
002
 62
     3
 10
435.544399
 20
343.004456
 30
0.0
 11
435.544399
 21
340.004456
 31
0.0
  0
LINE
  5
364
  8
002
 62
     3
 10
422.694799
 20
340.004456
 30
0.0
 11
438.694699
 21
340.004456
 31
0.0
  0
LINE
  5
365
  8
002
 62
     3
 10
425.844399
 20
340.004456
 30
0.0
 11
425.844399
 21
343.004456
 31
0.0
  0
LINE
  5
366
  8
002
 62
    40
 10
425.744399
 20
355.004456
 30
0.0
 11
425.744399
 21
343.004456
 31
0.0
  0
LINE
  5
367
  8
002
 62
    40
 10
435.644399
 20
343.004456
 30
0.0
 11
435.644399
 21
355.004456
 31
0.0
  0
LINE
  5
368
  8
002
 62
     3
 10
412.695099
 20
59.674656
 30
0.0
 11
448.695099
 21
59.674656
 31
0.0
  0
LINE
  5
369
  8
002
 62
     3
 10
448.695099
 20
59.674656
 30
0.0
 11
448.695099
 21
42.674656
 31
0.0
  0
LINE
  5
36A
  8
002
 62
     3
 10
445.695099
 20
39.674656
 30
0.0
 11
415.695099
 21
39.674656
 31
0.0
  0
LINE
  5
36B
  8
002
 62
     3
 10
412.695099
 20
42.674656
 30
0.0
 11
412.695099
 21
59.674656
 31
0.0
  0
ARC
  5
36C
  8
002
 62
     3
 10
415.695099
 20
42.674656
 30
0.0
 40
3.0
 50
180.0
 51
270.0
  0
ARC
  5
36D
  8
002
 62
     3
 10
445.695099
 20
42.674656
 30
0.0
 40
3.0
 50
270.0
 51
0.0
  0
POLYLINE
  5
36E
  8
002
 62
     3
 66
     1
 10
0.0
 20
0.0
 30
0.0
  0
VERTEX
  5
370
  8
002
 62
     3
 10
422.694799
 20
293.339556
 30
0.0
  0
VERTEX
  5
371
  8
002
 62
     3
 10
424.694786
 20
290.589556
 30
0.0
  0
VERTEX
  5
372
  8
002
 62
     3
 10
426.694774
 20
289.339556
 30
0.0
  0
VERTEX
  5
373
  8
002
 62
     3
 10
428.694761
 20
290.589556
 30
0.0
  0
VERTEX
  5
374
  8
002
 62
     3
 10
430.694749
 20
293.339556
 30
0.0
  0
VERTEX
  5
375
  8
002
 62
     3
 10
432.694736
 20
296.089556
 30
0.0
  0
VERTEX
  5
376
  8
002
 62
     3
 10
434.694724
 20
297.339556
 30
0.0
  0
VERTEX
  5
377
  8
002
 62
     3
 10
436.694711
 20
296.089556
 30
0.0
  0
VERTEX
  5
378
  8
002
 62
     3
 10
438.694699
 20
293.339556
 30
0.0
  0
SEQEND
  5
36F
  8
002
 62
     3
  0
POLYLINE
  5
379
  8
002
 62
     3
 66
     1
 10
0.0
 20
0.0
 30
0.0
  0
VERTEX
  5
37B
  8
002
 62
     3
 10
422.694799
 20
301.339556
 30
0.0
  0
VERTEX
  5
37C
  8
002
 62
     3
 10
424.694786
 20
298.589556
 30
0.0
  0
VERTEX
  5
37D
  8
002
 62
     3
 10
426.694774
 20
297.339556
 30
0.0
  0
VERTEX
  5
37E
  8
002
 62
     3
 10
428.694761
 20
298.589556
 30
0.0
  0
VERTEX
  5
37F
  8
002
 62
     3
 10
430.694749
 20
301.339556
 30
0.0
  0
VERTEX
  5
380
  8
002
 62
     3
 10
432.694736
 20
304.089556
 30
0.0
  0
VERTEX
  5
381
  8
002
 62
     3
 10
434.694724
 20
305.339556
 30
0.0
  0
VERTEX
  5
382
  8
002
 62
     3
 10
436.694711
 20
304.089556
 30
0.0
  0
VERTEX
  5
383
  8
002
 62
     3
 10
438.694699
 20
301.339556
 30
0.0
  0
SEQEND
  5
37A
  8
002
 62
     3
  0
LINE
  5
384
  8
002
 62
     3
 10
438.694699
 20
340.004456
 30
0.0
 11
438.694699
 21
301.339556
 31
0.0
  0
LINE
  5
385
  8
002
 62
     3
 10
438.694699
 20
293.339556
 30
0.0
 11
438.694699
 21
254.674656
 31
0.0
  0
LINE
  5
386
  8
002
 62
     3
 10
422.694799
 20
254.674656
 30
0.0
 11
422.694799
 21
293.339556
 31
0.0
  0
LINE
  5
387
  8
002
 62
     3
 10
422.694799
 20
301.339556
 30
0.0
 11
422.694799
 21
340.004456
 31
0.0
  0
LINE
  5
388
  8
002
 62
    40
 10
423.924799
 20
340.004456
 30
0.0
 11
423.924799
 21
299.552697
 31
0.0
  0
LINE
  5
389
  8
002
 62
    40
 10
423.924799
 20
291.552697
 30
0.0
 11
423.924799
 21
254.674656
 31
0.0
  0
LINE
  5
38A
  8
002
 62
    40
 10
437.464699
 20
254.674656
 30
0.0
 11
437.464699
 21
295.126414
 31
0.0
  0
LINE
  5
38B
  8
002
 62
    40
 10
437.464699
 20
303.126414
 30
0.0
 11
437.464699
 21
340.004456
 31
0.0
  0
POLYLINE
  5
38C
  8
002
 62
     3
 66
     1
 10
0.0
 20
0.0
 30
0.0
  0
VERTEX
  5
38E
  8
002
 62
     3
 10
446.695099
 20
91.174656
 30
0.0
  0
VERTEX
  5
38F
  8
002
 62
     3
 10
444.695099
 20
92.643406
 30
0.0
  0
VERTEX
  5
390
  8
002
 62
     3
 10
442.695099
 20
93.924656
 30
0.0
  0
VERTEX
  5
391
  8
002
 62
     3
 10
440.695099
 20
94.830906
 30
0.0
  0
VERTEX
  5
392
  8
002
 62
     3
 10
438.695099
 20
95.174656
 30
0.0
  0
VERTEX
  5
393
  8
002
 62
     3
 10
436.695099
 20
94.830906
 30
0.0
  0
VERTEX
  5
394
  8
002
 62
     3
 10
434.695099
 20
93.924656
 30
0.0
  0
VERTEX
  5
395
  8
002
 62
     3
 10
432.695099
 20
92.643406
 30
0.0
  0
VERTEX
  5
396
  8
002
 62
     3
 10
430.695099
 20
91.174656
 30
0.0
  0
VERTEX
  5
397
  8
002
 62
     3
 10
428.695099
 20
89.705906
 30
0.0
  0
VERTEX
  5
398
  8
002
 62
     3
 10
426.695099
 20
88.424656
 30
0.0
  0
VERTEX
  5
399
  8
002
 62
     3
 10
424.695099
 20
87.518406
 30
0.0
  0
VERTEX
  5
39A
  8
002
 62
     3
 10
422.695099
 20
87.174656
 30
0.0
  0
VERTEX
  5
39B
  8
002
 62
     3
 10
420.695099
 20
87.518406
 30
0.0
  0
VERTEX
  5
39C
  8
002
 62
     3
 10
418.695099
 20
88.424656
 30
0.0
  0
VERTEX
  5
39D
  8
002
 62
     3
 10
416.695099
 20
89.705906
 30
0.0
  0
VERTEX
  5
39E
  8
002
 62
     3
 10
414.695099
 20
91.174656
 30
0.0
  0
SEQEND
  5
38D
  8
002
 62
     3
  0
POLYLINE
  5
39F
  8
002
 62
     3
 66
     1
 10
0.0
 20
0.0
 30
0.0
  0
VERTEX
  5
3A1
  8
002
 62
     3
 10
446.695099
 20
83.174656
 30
0.0
  0
VERTEX
  5
3A2
  8
002
 62
     3
 10
444.695099
 20
84.643406
 30
0.0
  0
VERTEX
  5
3A3
  8
002
 62
     3
 10
442.695099
 20
85.924656
 30
0.0
  0
VERTEX
  5
3A4
  8
002
 62
     3
 10
440.695099
 20
86.830906
 30
0.0
  0
VERTEX
  5
3A5
  8
002
 62
     3
 10
438.695099
 20
87.174656
 30
0.0
  0
VERTEX
  5
3A6
  8
002
 62
     3
 10
436.695099
 20
86.830906
 30
0.0
  0
VERTEX
  5
3A7
  8
002
 62
     3
 10
434.695099
 20
85.924656
 30
0.0
  0
VERTEX
  5
3A8
  8
002
 62
     3
 10
432.695099
 20
84.643406
 30
0.0
  0
VERTEX
  5
3A9
  8
002
 62
     3
 10
430.695099
 20
83.174656
 30
0.0
  0
VERTEX
  5
3AA
  8
002
 62
     3
 10
428.695099
 20
81.705906
 30
0.0
  0
VERTEX
  5
3AB
  8
002
 62
     3
 10
426.695099
 20
80.424656
 30
0.0
  0
VERTEX
  5
3AC
  8
002
 62
     3
 10
424.695099
 20
79.518406
 30
0.0
  0
VERTEX
  5
3AD
  8
002
 62
     3
 10
422.695099
 20
79.174656
 30
0.0
  0
VERTEX
  5
3AE
  8
002
 62
     3
 10
420.695099
 20
79.518406
 30
0.0
  0
VERTEX
  5
3AF
  8
002
 62
     3
 10
418.695099
 20
80.424656
 30
0.0
  0
VERTEX
  5
3B0
  8
002
 62
     3
 10
416.695099
 20
81.705906
 30
0.0
  0
VERTEX
  5
3B1
  8
002
 62
     3
 10
414.695099
 20
83.174656
 30
0.0
  0
SEQEND
  5
3A0
  8
002
 62
     3
  0
LINE
  5
3B2
  8
002
 62
     3
 10
446.695099
 20
59.674656
 30
0.0
 11
446.695099
 21
83.174656
 31
0.0
  0
LINE
  5
3B3
  8
002
 62
     3
 10
446.695099
 20
91.174656
 30
0.0
 11
446.695099
 21
114.674656
 31
0.0
  0
LINE
  5
3B4
  8
002
 62
     3
 10
414.695099
 20
114.674656
 30
0.0
 11
414.695099
 21
91.174656
 31
0.0
  0
LINE
  5
3B5
  8
002
 62
     3
 10
414.695099
 20
83.174656
 30
0.0
 11
414.695099
 21
59.674656
 31
0.0
  0
LINE
  5
3B6
  8
002
  6
CENTER
 62
    40
 10
1300.73119
 20
189.674656
 30
0.0
 11
1457.723271
 21
189.674656
 31
0.0
  0
LINE
  5
3B7
  8
003
  6
CENTER
 62
    40
 10
954.09943
 20
189.674656
 30
0.0
 11
1111.12679
 21
189.674656
 31
0.0
  0
LINE
  5
3B8
  8
002
 62
     3
 10
458.195099
 20
155.674656
 30
0.0
 11
458.195099
 21
159.674656
 31
0.0
  0
LINE
  5
3B9
  8
002
 62
     3
 10
110.021977
 20
155.674656
 30
0.0
 11
110.021977
 21
159.674656
 31
0.0
  0
LINE
  5
3BA
  8
002
 62
     3
 10
1011.71149
 20
299.674656
 30
0.0
 11
1051.71149
 21
299.674656
 31
0.0
  0
LINE
  5
3BB
  8
002
 62
     3
 10
1051.71149
 20
299.674656
 30
0.0
 11
1052.26449
 21
261.630956
 31
0.0
  0
LINE
  5
3BC
  8
002
 62
     3
 10
1051.87149
 20
263.674656
 30
0.0
 11
1043.37149
 21
263.674656
 31
0.0
  0
LINE
  5
3BD
  8
002
 62
     3
 10
1051.87149
 20
263.674656
 30
0.0
 11
1051.87149
 21
258.674656
 31
0.0
  0
ARC
  5
3BE
  8
002
 62
     3
 10
1055.26449
 20
261.674656
 30
0.0
 40
3.000318264784589
 50
180.834549
 51
270.0
  0
LINE
  5
3BF
  8
002
 62
     3
 10
1059.21149
 20
258.674656
 30
0.0
 11
1004.21149
 21
258.674656
 31
0.0
  0
LINE
  5
3C0
  8
002
 62
     3
 10
1004.21149
 20
258.674656
 30
0.0
 11
1004.21149
 21
254.674656
 31
0.0
  0
LINE
  5
3C1
  8
002
 62
     3
 10
1059.21149
 20
254.674656
 30
0.0
 11
1059.21149
 21
258.674656
 31
0.0
  0
LINE
  5
3C2
  8
002
 62
     3
 10
1011.55149
 20
258.674656
 30
0.0
 11
1011.55149
 21
263.674656
 31
0.0
  0
LINE
  5
3C3
  8
002
 62
     3
 10
1020.05149
 20
263.674656
 30
0.0
 11
1011.55149
 21
263.674656
 31
0.0
  0
ARC
  5
3C4
  8
002
 62
     3
 10
1008.15849
 20
261.674656
 30
0.0
 40
3.0
 50
270.0
 51
359.165451
  0
LINE
  5
3C5
  8
002
 62
     3
 10
1011.15849
 20
261.630956
 30
0.0
 11
1011.71149
 21
299.674656
 31
0.0
  0
LINE
  5
3C6
  8
002
 62
     3
 10
1043.37149
 20
263.674656
 30
0.0
 11
1043.37149
 21
258.674656
 31
0.0
  0
LINE
  5
3C7
  8
002
 62
     3
 10
1020.05149
 20
258.674656
 30
0.0
 11
1020.05149
 21
263.674656
 31
0.0
  0
LINE
  5
3C8
  8
002
  6
CENTER
 62
    40
 10
1047.62149
 20
242.951356
 30
0.0
 11
1047.62149
 21
266.396256
 31
0.0
  0
LINE
  5
3C9
  8
002
  6
CENTER
 62
    40
 10
1015.80149
 20
266.396256
 30
0.0
 11
1015.80149
 21
242.951356
 31
0.0
  0
LINE
  5
3CA
  8
002
 62
     3
 10
1016.71149
 20
374.674656
 30
0.0
 11
1046.71149
 21
374.674656
 31
0.0
  0
ARC
  5
3CB
  8
002
 62
     3
 10
1046.71149
 20
371.674656
 30
0.0
 40
3.0
 50
0.0
 51
90.0
  0
LINE
  5
3CC
  8
002
 62
     3
 10
1049.71149
 20
371.674656
 30
0.0
 11
1049.71149
 21
354.674656
 31
0.0
  0
LINE
  5
3CD
  8
002
 62
     3
 10
1049.71149
 20
354.674656
 30
0.0
 11
1013.71149
 21
354.674656
 31
0.0
  0
LINE
  5
3CE
  8
002
 62
     3
 10
1013.71149
 20
354.674656
 30
0.0
 11
1013.71149
 21
371.674656
 31
0.0
  0
ARC
  5
3CF
  8
002
 62
     3
 10
1016.71149
 20
371.674656
 30
0.0
 40
3.0
 50
90.0
 51
180.0
  0
POLYLINE
  5
3D0
  8
002
 62
     3
 66
     1
 10
0.0
 20
0.0
 30
0.0
  0
VERTEX
  5
3D2
  8
002
 62
     3
 10
1015.71149
 20
323.174656
 30
0.0
  0
VERTEX
  5
3D3
  8
002
 62
     3
 10
1017.71149
 20
321.705906
 30
0.0
  0
VERTEX
  5
3D4
  8
002
 62
     3
 10
1019.71149
 20
320.424656
 30
0.0
  0
VERTEX
  5
3D5
  8
002
 62
     3
 10
1021.71149
 20
319.518406
 30
0.0
  0
VERTEX
  5
3D6
  8
002
 62
     3
 10
1023.71149
 20
319.174656
 30
0.0
  0
VERTEX
  5
3D7
  8
002
 62
     3
 10
1025.71149
 20
319.518406
 30
0.0
  0
VERTEX
  5
3D8
  8
002
 62
     3
 10
1027.71149
 20
320.424656
 30
0.0
  0
VERTEX
  5
3D9
  8
002
 62
     3
 10
1029.71149
 20
321.705906
 30
0.0
  0
VERTEX
  5
3DA
  8
002
 62
     3
 10
1031.71149
 20
323.174656
 30
0.0
  0
VERTEX
  5
3DB
  8
002
 62
     3
 10
1033.71149
 20
324.643406
 30
0.0
  0
VERTEX
  5
3DC
  8
002
 62
     3
 10
1035.71149
 20
325.924656
 30
0.0
  0
VERTEX
  5
3DD
  8
002
 62
     3
 10
1037.71149
 20
326.830906
 30
0.0
  0
VERTEX
  5
3DE
  8
002
 62
     3
 10
1039.71149
 20
327.174656
 30
0.0
  0
VERTEX
  5
3DF
  8
002
 62
     3
 10
1041.71149
 20
326.830906
 30
0.0
  0
VERTEX
  5
3E0
  8
002
 62
     3
 10
1043.71149
 20
325.924656
 30
0.0
  0
VERTEX
  5
3E1
  8
002
 62
     3
 10
1045.71149
 20
324.643406
 30
0.0
  0
VERTEX
  5
3E2
  8
002
 62
     3
 10
1047.71149
 20
323.174656
 30
0.0
  0
SEQEND
  5
3D1
  8
002
 62
     3
  0
POLYLINE
  5
3E3
  8
002
 62
     3
 66
     1
 10
0.0
 20
0.0
 30
0.0
  0
VERTEX
  5
3E5
  8
002
 62
     3
 10
1015.71149
 20
331.174656
 30
0.0
  0
VERTEX
  5
3E6
  8
002
 62
     3
 10
1017.71149
 20
329.705906
 30
0.0
  0
VERTEX
  5
3E7
  8
002
 62
     3
 10
1019.71149
 20
328.424656
 30
0.0
  0
VERTEX
  5
3E8
  8
002
 62
     3
 10
1021.71149
 20
327.518406
 30
0.0
  0
VERTEX
  5
3E9
  8
002
 62
     3
 10
1023.71149
 20
327.174656
 30
0.0
  0
VERTEX
  5
3EA
  8
002
 62
     3
 10
1025.71149
 20
327.518406
 30
0.0
  0
VERTEX
  5
3EB
  8
002
 62
     3
 10
1027.71149
 20
328.424656
 30
0.0
  0
VERTEX
  5
3EC
  8
002
 62
     3
 10
1029.71149
 20
329.705906
 30
0.0
  0
VERTEX
  5
3ED
  8
002
 62
     3
 10
1031.71149
 20
331.174656
 30
0.0
  0
VERTEX
  5
3EE
  8
002
 62
     3
 10
1033.71149
 20
332.643406
 30
0.0
  0
VERTEX
  5
3EF
  8
002
 62
     3
 10
1035.71149
 20
333.924656
 30
0.0
  0
VERTEX
  5
3F0
  8
002
 62
     3
 10
1037.71149
 20
334.830906
 30
0.0
  0
VERTEX
  5
3F1
  8
002
 62
     3
 10
1039.71149
 20
335.174656
 30
0.0
  0
VERTEX
  5
3F2
  8
002
 62
     3
 10
1041.71149
 20
334.830906
 30
0.0
  0
VERTEX
  5
3F3
  8
002
 62
     3
 10
1043.71149
 20
333.924656
 30
0.0
  0
VERTEX
  5
3F4
  8
002
 62
     3
 10
1045.71149
 20
332.643406
 30
0.0
  0
VERTEX
  5
3F5
  8
002
 62
     3
 10
1047.71149
 20
331.174656
 30
0.0
  0
SEQEND
  5
3E4
  8
002
 62
     3
  0
LINE
  5
3F6
  8
002
 62
     3
 10
1015.71149
 20
354.674656
 30
0.0
 11
1015.71149
 21
331.174656
 31
0.0
  0
LINE
  5
3F7
  8
002
 62
     3
 10
1015.71149
 20
323.174656
 30
0.0
 11
1015.71149
 21
299.674656
 31
0.0
  0
LINE
  5
3F8
  8
002
 62
     3
 10
1047.71149
 20
299.674656
 30
0.0
 11
1047.71149
 21
323.174656
 31
0.0
  0
LINE
  5
3F9
  8
002
 62
     3
 10
1047.71149
 20
331.174656
 30
0.0
 11
1047.71149
 21
354.674656
 31
0.0
  0
LINE
  5
3FA
  8
002
 62
     3
 10
1359.884611
 20
299.674656
 30
0.0
 11
1399.884611
 21
299.674656
 31
0.0
  0
LINE
  5
3FB
  8
002
 62
     3
 10
1399.884611
 20
299.674656
 30
0.0
 11
1400.437611
 21
261.630956
 31
0.0
  0
LINE
  5
3FC
  8
002
 62
     3
 10
1400.044611
 20
263.674656
 30
0.0
 11
1391.544611
 21
263.674656
 31
0.0
  0
LINE
  5
3FD
  8
002
 62
     3
 10
1400.044611
 20
263.674656
 30
0.0
 11
1400.044611
 21
258.674656
 31
0.0
  0
ARC
  5
3FE
  8
002
 62
     3
 10
1403.437611
 20
261.674656
 30
0.0
 40
3.000318264784589
 50
180.834549
 51
270.0
  0
LINE
  5
3FF
  8
002
 62
     3
 10
1407.384611
 20
258.674656
 30
0.0
 11
1352.384611
 21
258.674656
 31
0.0
  0
LINE
  5
400
  8
002
 62
     3
 10
1352.384611
 20
258.674656
 30
0.0
 11
1352.384611
 21
254.674656
 31
0.0
  0
LINE
  5
401
  8
002
 62
     3
 10
1407.384611
 20
254.674656
 30
0.0
 11
1407.384611
 21
258.674656
 31
0.0
  0
LINE
  5
402
  8
002
 62
     3
 10
1359.724611
 20
258.674656
 30
0.0
 11
1359.724611
 21
263.674656
 31
0.0
  0
LINE
  5
403
  8
002
 62
     3
 10
1368.224611
 20
263.674656
 30
0.0
 11
1359.724611
 21
263.674656
 31
0.0
  0
ARC
  5
404
  8
002
 62
     3
 10
1356.331611
 20
261.674656
 30
0.0
 40
3.0
 50
270.0
 51
359.165451
  0
LINE
  5
405
  8
002
 62
     3
 10
1359.331611
 20
261.630956
 30
0.0
 11
1359.884611
 21
299.674656
 31
0.0
  0
LINE
  5
406
  8
002
 62
     3
 10
1391.544611
 20
263.674656
 30
0.0
 11
1391.544611
 21
258.674656
 31
0.0
  0
LINE
  5
407
  8
002
 62
     3
 10
1368.224611
 20
258.674656
 30
0.0
 11
1368.224611
 21
263.674656
 31
0.0
  0
LINE
  5
408
  8
002
  6
CENTER
 62
    40
 10
1395.794611
 20
242.951356
 30
0.0
 11
1395.794611
 21
266.396256
 31
0.0
  0
LINE
  5
409
  8
002
  6
CENTER
 62
    40
 10
1363.974611
 20
266.396256
 30
0.0
 11
1363.974611
 21
242.951356
 31
0.0
  0
LINE
  5
40A
  8
002
 62
     3
 10
1364.884611
 20
374.674656
 30
0.0
 11
1394.884611
 21
374.674656
 31
0.0
  0
ARC
  5
40B
  8
002
 62
     3
 10
1394.884611
 20
371.674656
 30
0.0
 40
3.0
 50
0.0
 51
90.0
  0
LINE
  5
40C
  8
002
 62
     3
 10
1397.884611
 20
371.674656
 30
0.0
 11
1397.884611
 21
354.674656
 31
0.0
  0
LINE
  5
40D
  8
002
 62
     3
 10
1397.884611
 20
354.674656
 30
0.0
 11
1361.884611
 21
354.674656
 31
0.0
  0
LINE
  5
40E
  8
002
 62
     3
 10
1361.884611
 20
354.674656
 30
0.0
 11
1361.884611
 21
371.674656
 31
0.0
  0
ARC
  5
40F
  8
002
 62
     3
 10
1364.884611
 20
371.674656
 30
0.0
 40
3.0
 50
90.0
 51
180.0
  0
POLYLINE
  5
410
  8
002
 62
     3
 66
     1
 10
0.0
 20
0.0
 30
0.0
  0
VERTEX
  5
412
  8
002
 62
     3
 10
1363.884611
 20
323.174656
 30
0.0
  0
VERTEX
  5
413
  8
002
 62
     3
 10
1365.884611
 20
321.705906
 30
0.0
  0
VERTEX
  5
414
  8
002
 62
     3
 10
1367.884611
 20
320.424656
 30
0.0
  0
VERTEX
  5
415
  8
002
 62
     3
 10
1369.884611
 20
319.518406
 30
0.0
  0
VERTEX
  5
416
  8
002
 62
     3
 10
1371.884611
 20
319.174656
 30
0.0
  0
VERTEX
  5
417
  8
002
 62
     3
 10
1373.884611
 20
319.518406
 30
0.0
  0
VERTEX
  5
418
  8
002
 62
     3
 10
1375.884611
 20
320.424656
 30
0.0
  0
VERTEX
  5
419
  8
002
 62
     3
 10
1377.884611
 20
321.705906
 30
0.0
  0
VERTEX
  5
41A
  8
002
 62
     3
 10
1379.884611
 20
323.174656
 30
0.0
  0
VERTEX
  5
41B
  8
002
 62
     3
 10
1381.884611
 20
324.643406
 30
0.0
  0
VERTEX
  5
41C
  8
002
 62
     3
 10
1383.884611
 20
325.924656
 30
0.0
  0
VERTEX
  5
41D
  8
002
 62
     3
 10
1385.884611
 20
326.830906
 30
0.0
  0
VERTEX
  5
41E
  8
002
 62
     3
 10
1387.884611
 20
327.174656
 30
0.0
  0
VERTEX
  5
41F
  8
002
 62
     3
 10
1389.884611
 20
326.830906
 30
0.0
  0
VERTEX
  5
420
  8
002
 62
     3
 10
1391.884611
 20
325.924656
 30
0.0
  0
VERTEX
  5
421
  8
002
 62
     3
 10
1393.884611
 20
324.643406
 30
0.0
  0
VERTEX
  5
422
  8
002
 62
     3
 10
1395.884611
 20
323.174656
 30
0.0
  0
SEQEND
  5
411
  8
002
 62
     3
  0
POLYLINE
  5
423
  8
002
 62
     3
 66
     1
 10
0.0
 20
0.0
 30
0.0
  0
VERTEX
  5
425
  8
002
 62
     3
 10
1363.884611
 20
331.174656
 30
0.0
  0
VERTEX
  5
426
  8
002
 62
     3
 10
1365.884611
 20
329.705906
 30
0.0
  0
VERTEX
  5
427
  8
002
 62
     3
 10
1367.884611
 20
328.424656
 30
0.0
  0
VERTEX
  5
428
  8
002
 62
     3
 10
1369.884611
 20
327.518406
 30
0.0
  0
VERTEX
  5
429
  8
002
 62
     3
 10
1371.884611
 20
327.174656
 30
0.0
  0
VERTEX
  5
42A
  8
002
 62
     3
 10
1373.884611
 20
327.518406
 30
0.0
  0
VERTEX
  5
42B
  8
002
 62
     3
 10
1375.884611
 20
328.424656
 30
0.0
  0
VERTEX
  5
42C
  8
002
 62
     3
 10
1377.884611
 20
329.705906
 30
0.0
  0
VERTEX
  5
42D
  8
002
 62
     3
 10
1379.884611
 20
331.174656
 30
0.0
  0
VERTEX
  5
42E
  8
002
 62
     3
 10
1381.884611
 20
332.643406
 30
0.0
  0
VERTEX
  5
42F
  8
002
 62
     3
 10
1383.884611
 20
333.924656
 30
0.0
  0
VERTEX
  5
430
  8
002
 62
     3
 10
1385.884611
 20
334.830906
 30
0.0
  0
VERTEX
  5
431
  8
002
 62
     3
 10
1387.884611
 20
335.174656
 30
0.0
  0
VERTEX
  5
432
  8
002
 62
     3
 10
1389.884611
 20
334.830906
 30
0.0
  0
VERTEX
  5
433
  8
002
 62
     3
 10
1391.884611
 20
333.924656
 30
0.0
  0
VERTEX
  5
434
  8
002
 62
     3
 10
1393.884611
 20
332.643406
 30
0.0
  0
VERTEX
  5
435
  8
002
 62
     3
 10
1395.884611
 20
331.174656
 30
0.0
  0
SEQEND
  5
424
  8
002
 62
     3
  0
LINE
  5
436
  8
002
 62
     3
 10
1363.884611
 20
354.674656
 30
0.0
 11
1363.884611
 21
331.174656
 31
0.0
  0
LINE
  5
437
  8
002
 62
     3
 10
1363.884611
 20
323.174656
 30
0.0
 11
1363.884611
 21
299.674656
 31
0.0
  0
LINE
  5
438
  8
002
 62
     3
 10
1395.884611
 20
299.674656
 30
0.0
 11
1395.884611
 21
323.174656
 31
0.0
  0
LINE
  5
439
  8
002
 62
     3
 10
1395.884611
 20
331.174656
 30
0.0
 11
1395.884611
 21
354.674656
 31
0.0
  0
LINE
  5
43A
  8
003
  6
CENTER
 62
    40
 10
1031.71149
 20
52.160556
 30
0.0
 11
1031.71149
 21
381.578293
 31
0.0
  0
LINE
  5
43B
  8
002
  6
CENTER
 62
    40
 10
1379.884611
 20
381.578293
 30
0.0
 11
1379.884611
 21
52.160556
 31
0.0
  0
LINE
  5
43C
  8
002
 62
     3
 10
1039.71149
 20
74.344856
 30
0.0
 11
1023.71149
 21
74.344856
 31
0.0
  0
LINE
  5
43D
  8
002
 62
     3
 10
1026.86049
 20
74.344856
 30
0.0
 11
1026.86049
 21
71.344856
 31
0.0
  0
LINE
  5
43E
  8
002
 62
     3
 10
1025.71049
 20
71.344856
 30
0.0
 11
1025.71049
 21
59.344856
 31
0.0
  0
LINE
  5
43F
  8
002
 62
     3
 10
1025.71049
 20
59.344856
 30
0.0
 11
1037.71049
 21
59.344856
 31
0.0
  0
LINE
  5
440
  8
002
 62
     3
 10
1037.71049
 20
59.344856
 30
0.0
 11
1037.71049
 21
71.344856
 31
0.0
  0
LINE
  5
441
  8
002
 62
     3
 10
1037.71049
 20
71.344856
 30
0.0
 11
1025.71049
 21
71.344856
 31
0.0
  0
LINE
  5
442
  8
002
 62
     3
 10
1036.56049
 20
71.344856
 30
0.0
 11
1036.56049
 21
74.344856
 31
0.0
  0
LINE
  5
443
  8
002
 62
    40
 10
1026.76049
 20
59.344856
 30
0.0
 11
1026.76049
 21
71.344856
 31
0.0
  0
LINE
  5
444
  8
002
 62
    40
 10
1036.66049
 20
71.344856
 30
0.0
 11
1036.66049
 21
59.344856
 31
0.0
  0
POLYLINE
  5
445
  8
002
 62
     3
 66
     1
 10
0.0
 20
0.0
 30
0.0
  0
VERTEX
  5
447
  8
002
 62
     3
 10
1023.71149
 20
113.009756
 30
0.0
  0
VERTEX
  5
448
  8
002
 62
     3
 10
1025.71149
 20
110.259756
 30
0.0
  0
VERTEX
  5
449
  8
002
 62
     3
 10
1027.71149
 20
109.009756
 30
0.0
  0
VERTEX
  5
44A
  8
002
 62
     3
 10
1029.71149
 20
110.259756
 30
0.0
  0
VERTEX
  5
44B
  8
002
 62
     3
 10
1031.71149
 20
113.009756
 30
0.0
  0
VERTEX
  5
44C
  8
002
 62
     3
 10
1033.71149
 20
115.759756
 30
0.0
  0
VERTEX
  5
44D
  8
002
 62
     3
 10
1035.71149
 20
117.009756
 30
0.0
  0
VERTEX
  5
44E
  8
002
 62
     3
 10
1037.71149
 20
115.759756
 30
0.0
  0
VERTEX
  5
44F
  8
002
 62
     3
 10
1039.71149
 20
113.009756
 30
0.0
  0
SEQEND
  5
446
  8
002
 62
     3
  0
POLYLINE
  5
450
  8
002
 62
     3
 66
     1
 10
0.0
 20
0.0
 30
0.0
  0
VERTEX
  5
452
  8
002
 62
     3
 10
1023.71149
 20
121.009756
 30
0.0
  0
VERTEX
  5
453
  8
002
 62
     3
 10
1025.71149
 20
118.259756
 30
0.0
  0
VERTEX
  5
454
  8
002
 62
     3
 10
1027.71149
 20
117.009756
 30
0.0
  0
VERTEX
  5
455
  8
002
 62
     3
 10
1029.71149
 20
118.259756
 30
0.0
  0
VERTEX
  5
456
  8
002
 62
     3
 10
1031.71149
 20
121.009756
 30
0.0
  0
VERTEX
  5
457
  8
002
 62
     3
 10
1033.71149
 20
123.759756
 30
0.0
  0
VERTEX
  5
458
  8
002
 62
     3
 10
1035.71149
 20
125.009756
 30
0.0
  0
VERTEX
  5
459
  8
002
 62
     3
 10
1037.71149
 20
123.759756
 30
0.0
  0
VERTEX
  5
45A
  8
002
 62
     3
 10
1039.71149
 20
121.009756
 30
0.0
  0
SEQEND
  5
451
  8
002
 62
     3
  0
LINE
  5
45B
  8
002
 62
     3
 10
1039.71149
 20
159.674656
 30
0.0
 11
1039.71149
 21
121.009756
 31
0.0
  0
LINE
  5
45C
  8
002
 62
     3
 10
1039.71149
 20
113.009756
 30
0.0
 11
1039.71149
 21
74.344856
 31
0.0
  0
LINE
  5
45D
  8
002
 62
     3
 10
1023.71149
 20
74.344856
 30
0.0
 11
1023.71149
 21
113.009756
 31
0.0
  0
LINE
  5
45E
  8
002
 62
     3
 10
1023.71149
 20
121.009756
 30
0.0
 11
1023.71149
 21
159.674656
 31
0.0
  0
LINE
  5
45F
  8
002
 62
    40
 10
1024.94149
 20
159.674656
 30
0.0
 11
1024.94149
 21
119.222908
 31
0.0
  0
LINE
  5
460
  8
002
 62
    40
 10
1024.94149
 20
111.222908
 30
0.0
 11
1024.94149
 21
74.344856
 31
0.0
  0
LINE
  5
461
  8
002
 62
    40
 10
1038.48149
 20
74.344856
 30
0.0
 11
1038.48149
 21
114.796604
 31
0.0
  0
LINE
  5
462
  8
002
 62
    40
 10
1038.48149
 20
122.796604
 30
0.0
 11
1038.48149
 21
159.674656
 31
0.0
  0
LINE
  5
463
  8
002
 62
     3
 10
1387.884611
 20
74.344856
 30
0.0
 11
1371.884611
 21
74.344856
 31
0.0
  0
LINE
  5
464
  8
002
 62
     3
 10
1375.033611
 20
74.344856
 30
0.0
 11
1375.033611
 21
71.344856
 31
0.0
  0
LINE
  5
465
  8
002
 62
     3
 10
1373.883611
 20
71.344856
 30
0.0
 11
1373.883611
 21
59.344856
 31
0.0
  0
LINE
  5
466
  8
002
 62
     3
 10
1373.883611
 20
59.344856
 30
0.0
 11
1385.883611
 21
59.344856
 31
0.0
  0
LINE
  5
467
  8
002
 62
     3
 10
1385.883611
 20
59.344856
 30
0.0
 11
1385.883611
 21
71.344856
 31
0.0
  0
LINE
  5
468
  8
002
 62
     3
 10
1385.883611
 20
71.344856
 30
0.0
 11
1373.883611
 21
71.344856
 31
0.0
  0
LINE
  5
469
  8
002
 62
     3
 10
1384.733611
 20
71.344856
 30
0.0
 11
1384.733611
 21
74.344856
 31
0.0
  0
LINE
  5
46A
  8
002
 62
    40
 10
1374.933611
 20
59.344856
 30
0.0
 11
1374.933611
 21
71.344856
 31
0.0
  0
LINE
  5
46B
  8
002
 62
    40
 10
1384.833611
 20
71.344856
 30
0.0
 11
1384.833611
 21
59.344856
 31
0.0
  0
POLYLINE
  5
46C
  8
002
 62
     3
 66
     1
 10
0.0
 20
0.0
 30
0.0
  0
VERTEX
  5
46E
  8
002
 62
     3
 10
1371.884611
 20
113.009756
 30
0.0
  0
VERTEX
  5
46F
  8
002
 62
     3
 10
1373.884611
 20
110.259756
 30
0.0
  0
VERTEX
  5
470
  8
002
 62
     3
 10
1375.884611
 20
109.009756
 30
0.0
  0
VERTEX
  5
471
  8
002
 62
     3
 10
1377.884611
 20
110.259756
 30
0.0
  0
VERTEX
  5
472
  8
002
 62
     3
 10
1379.884611
 20
113.009756
 30
0.0
  0
VERTEX
  5
473
  8
002
 62
     3
 10
1381.884611
 20
115.759756
 30
0.0
  0
VERTEX
  5
474
  8
002
 62
     3
 10
1383.884611
 20
117.009756
 30
0.0
  0
VERTEX
  5
475
  8
002
 62
     3
 10
1385.884611
 20
115.759756
 30
0.0
  0
VERTEX
  5
476
  8
002
 62
     3
 10
1387.884611
 20
113.009756
 30
0.0
  0
SEQEND
  5
46D
  8
002
 62
     3
  0
POLYLINE
  5
477
  8
002
 62
     3
 66
     1
 10
0.0
 20
0.0
 30
0.0
  0
VERTEX
  5
479
  8
002
 62
     3
 10
1371.884611
 20
121.009756
 30
0.0
  0
VERTEX
  5
47A
  8
002
 62
     3
 10
1373.884611
 20
118.259756
 30
0.0
  0
VERTEX
  5
47B
  8
002
 62
     3
 10
1375.884611
 20
117.009756
 30
0.0
  0
VERTEX
  5
47C
  8
002
 62
     3
 10
1377.884611
 20
118.259756
 30
0.0
  0
VERTEX
  5
47D
  8
002
 62
     3
 10
1379.884611
 20
121.009756
 30
0.0
  0
VERTEX
  5
47E
  8
002
 62
     3
 10
1381.884611
 20
123.759756
 30
0.0
  0
VERTEX
  5
47F
  8
002
 62
     3
 10
1383.884611
 20
125.009756
 30
0.0
  0
VERTEX
  5
480
  8
002
 62
     3
 10
1385.884611
 20
123.759756
 30
0.0
  0
VERTEX
  5
481
  8
002
 62
     3
 10
1387.884611
 20
121.009756
 30
0.0
  0
SEQEND
  5
478
  8
002
 62
     3
  0
LINE
  5
482
  8
002
 62
     3
 10
1387.884611
 20
159.674656
 30
0.0
 11
1387.884611
 21
121.009756
 31
0.0
  0
LINE
  5
483
  8
002
 62
     3
 10
1387.884611
 20
113.009756
 30
0.0
 11
1387.884611
 21
74.344856
 31
0.0
  0
LINE
  5
484
  8
002
 62
     3
 10
1371.884611
 20
74.344856
 30
0.0
 11
1371.884611
 21
113.009756
 31
0.0
  0
LINE
  5
485
  8
002
 62
     3
 10
1371.884611
 20
121.009756
 30
0.0
 11
1371.884611
 21
159.674656
 31
0.0
  0
LINE
  5
486
  8
002
 62
    40
 10
1373.114611
 20
159.674656
 30
0.0
 11
1373.114611
 21
119.222908
 31
0.0
  0
LINE
  5
487
  8
002
 62
    40
 10
1373.114611
 20
111.222908
 30
0.0
 11
1373.114611
 21
74.344856
 31
0.0
  0
LINE
  5
488
  8
002
 62
    40
 10
1386.654611
 20
74.344856
 30
0.0
 11
1386.654611
 21
114.796604
 31
0.0
  0
LINE
  5
489
  8
002
 62
    40
 10
1386.654611
 20
122.796604
 30
0.0
 11
1386.654611
 21
159.674656
 31
0.0
  0
CIRCLE
  5
48A
  8
002
 62
     3
 10
1178.99859
 20
597.488193
 30
0.0
 40
4.25
  0
LINE
  5
48B
  8
002
 62
     3
 10
1177.84389
 20
599.488193
 30
0.0
 11
1180.15329
 21
599.488193
 31
0.0
  0
LINE
  5
48C
  8
002
 62
     3
 10
1180.15329
 20
599.488193
 30
0.0
 11
1181.30799
 21
597.488193
 31
0.0
  0
LINE
  5
48D
  8
002
 62
     3
 10
1181.30799
 20
597.488193
 30
0.0
 11
1180.15329
 21
595.488193
 31
0.0
  0
LINE
  5
48E
  8
002
 62
     3
 10
1180.15329
 20
595.488193
 30
0.0
 11
1177.84389
 21
595.488193
 31
0.0
  0
LINE
  5
48F
  8
002
 62
     3
 10
1177.84389
 20
595.488193
 30
0.0
 11
1176.68919
 21
597.488193
 31
0.0
  0
LINE
  5
490
  8
002
 62
     3
 10
1176.68919
 20
597.488193
 30
0.0
 11
1177.84389
 21
599.488193
 31
0.0
  0
LINE
  5
491
  8
002
 62
     3
 10
1184.62819
 20
601.592393
 30
0.0
 11
1185.27709
 21
599.170493
 31
0.0
  0
ARC
  5
492
  8
002
 62
     3
 10
1178.99859
 20
597.488193
 30
0.0
 40
6.4999765799578
 50
354.868218
 51
14.999838
  0
CIRCLE
  5
493
  8
002
 62
     3
 10
1194.90849
 20
581.578293
 30
0.0
 40
18.0
  0
CIRCLE
  5
494
  8
002
 62
     3
 10
1194.90849
 20
581.578293
 30
0.0
 40
27.5
  0
LINE
  5
495
  8
002
 62
     3
 10
1205.18879
 20
601.592393
 30
0.0
 11
1204.53989
 21
599.170493
 31
0.0
  0
ARC
  5
496
  8
002
 62
     3
 10
1210.81839
 20
597.488193
 30
0.0
 40
6.500053996698846
 50
165.000162
 51
185.131703
  0
ARC
  5
497
  8
002
 62
     3
 10
1194.90849
 20
581.578293
 30
0.0
 40
19.4999873487139
 50
60.823079
 51
119.176921
  0
ARC
  5
498
  8
002
 62
     3
 10
1194.90849
 20
581.578293
 30
0.0
 40
19.49998734871384
 50
150.823079
 51
209.176921
  0
LINE
  5
499
  8
002
 62
     3
 10
1177.31629
 20
571.946893
 30
0.0
 11
1174.89439
 21
571.297993
 31
0.0
  0
CIRCLE
  5
49A
  8
002
 62
     3
 10
1178.99859
 20
565.668393
 30
0.0
 40
4.25
  0
LINE
  5
49B
  8
002
 62
     3
 10
1178.99859
 20
567.977793
 30
0.0
 11
1176.99859
 21
566.823093
 31
0.0
  0
LINE
  5
49C
  8
002
 62
     3
 10
1176.99859
 20
566.823093
 30
0.0
 11
1176.99859
 21
564.513693
 31
0.0
  0
LINE
  5
49D
  8
002
 62
     3
 10
1176.99859
 20
564.513693
 30
0.0
 11
1178.99859
 21
563.358993
 31
0.0
  0
LINE
  5
49E
  8
002
 62
     3
 10
1178.99859
 20
563.358993
 30
0.0
 11
1180.99859
 21
564.513693
 31
0.0
  0
LINE
  5
49F
  8
002
 62
     3
 10
1180.99859
 20
564.513693
 30
0.0
 11
1180.99859
 21
566.823093
 31
0.0
  0
LINE
  5
4A0
  8
002
 62
     3
 10
1180.99859
 20
566.823093
 30
0.0
 11
1178.99859
 21
567.977793
 31
0.0
  0
ARC
  5
4A1
  8
002
 62
     3
 10
1178.99859
 20
565.668393
 30
0.0
 40
6.4999765799578
 50
84.868218
 51
104.999838
  0
ARC
  5
4A2
  8
002
 62
     3
 10
1194.90849
 20
581.578293
 30
0.0
 40
19.49998734871384
 50
240.823079
 51
299.176921
  0
LINE
  5
4A3
  8
002
 62
     3
 10
1204.53989
 20
563.986093
 30
0.0
 11
1205.18879
 21
561.564193
 31
0.0
  0
ARC
  5
4A4
  8
002
 62
     3
 10
1210.81839
 20
565.668393
 30
0.0
 40
6.49997657995783
 50
174.868297
 51
194.999838
  0
LINE
  5
4A5
  8
002
 62
     3
 10
1208.50899
 20
565.668393
 30
0.0
 11
1209.66369
 21
563.668393
 31
0.0
  0
LINE
  5
4A6
  8
002
 62
     3
 10
1209.66369
 20
563.668393
 30
0.0
 11
1211.97309
 21
563.668393
 31
0.0
  0
LINE
  5
4A7
  8
002
 62
     3
 10
1211.97309
 20
563.668393
 30
0.0
 11
1213.12779
 21
565.668393
 31
0.0
  0
LINE
  5
4A8
  8
002
 62
     3
 10
1213.12779
 20
565.668393
 30
0.0
 11
1211.97309
 21
567.668393
 31
0.0
  0
LINE
  5
4A9
  8
002
 62
     3
 10
1211.97309
 20
567.668393
 30
0.0
 11
1209.66369
 21
567.668393
 31
0.0
  0
LINE
  5
4AA
  8
002
 62
     3
 10
1209.66369
 20
567.668393
 30
0.0
 11
1208.50899
 21
565.668393
 31
0.0
  0
CIRCLE
  5
4AB
  8
002
 62
     3
 10
1210.81839
 20
565.668393
 30
0.0
 40
4.25
  0
ARC
  5
4AC
  8
002
 62
     3
 10
1194.90849
 20
581.578293
 30
0.0
 40
19.49998734871374
 50
330.823079
 51
29.176921
  0
LINE
  5
4AD
  8
002
 62
     3
 10
1212.50069
 20
591.209693
 30
0.0
 11
1214.92259
 21
591.858593
 31
0.0
  0
ARC
  5
4AE
  8
002
 62
     3
 10
1210.81839
 20
597.488193
 30
0.0
 40
6.4999765799578
 50
264.868297
 51
284.999838
  0
LINE
  5
4AF
  8
002
 62
     3
 10
1210.81839
 20
595.178793
 30
0.0
 11
1212.81839
 21
596.333493
 31
0.0
  0
LINE
  5
4B0
  8
002
 62
     3
 10
1212.81839
 20
596.333493
 30
0.0
 11
1212.81839
 21
598.642893
 31
0.0
  0
LINE
  5
4B1
  8
002
 62
     3
 10
1212.81839
 20
598.642893
 30
0.0
 11
1210.81839
 21
599.797593
 31
0.0
  0
LINE
  5
4B2
  8
002
 62
     3
 10
1210.81839
 20
599.797593
 30
0.0
 11
1208.81839
 21
598.642893
 31
0.0
  0
LINE
  5
4B3
  8
002
 62
     3
 10
1208.81839
 20
598.642893
 30
0.0
 11
1208.81839
 21
596.333493
 31
0.0
  0
LINE
  5
4B4
  8
002
 62
     3
 10
1208.81839
 20
596.333493
 30
0.0
 11
1210.81839
 21
595.178793
 31
0.0
  0
CIRCLE
  5
4B5
  8
002
 62
     3
 10
1210.81839
 20
597.488193
 30
0.0
 40
4.25
  0
LINE
  5
4B6
  8
002
 62
     3
 10
1212.50069
 20
571.946893
 30
0.0
 11
1214.92259
 21
571.297993
 31
0.0
  0
ARC
  5
4B7
  8
002
 62
     3
 10
1210.81839
 20
565.668393
 30
0.0
 40
6.4999543975323
 50
75.000162
 51
95.131782
  0
LINE
  5
4B8
  8
002
 62
     3
 10
1184.62819
 20
561.564193
 30
0.0
 11
1185.27709
 21
563.986093
 31
0.0
  0
ARC
  5
4B9
  8
002
 62
     3
 10
1178.99859
 20
565.668393
 30
0.0
 40
6.499954397532403
 50
345.000162
 51
5.131782
  0
LINE
  5
4BA
  8
002
 62
     3
 10
1174.89439
 20
591.858593
 30
0.0
 11
1177.31629
 21
591.209693
 31
0.0
  0
ARC
  5
4BB
  8
002
 62
     3
 10
1178.99859
 20
597.488193
 30
0.0
 40
6.500053996698846
 50
255.000162
 51
275.131703
  0
LINE
  5
4BC
  8
002
  6
CENTER
 62
    40
 10
1184.66149
 20
571.331293
 30
0.0
 11
1173.89189
 21
560.561693
 31
0.0
  0
LINE
  5
4BD
  8
002
  6
CENTER
 62
    40
 10
1173.89189
 20
602.594893
 30
0.0
 11
1184.66149
 21
591.825293
 31
0.0
  0
LINE
  5
4BE
  8
002
  6
CENTER
 62
    40
 10
1205.15549
 20
591.825293
 30
0.0
 11
1215.92509
 21
602.594893
 31
0.0
  0
LINE
  5
4BF
  8
002
  6
CENTER
 62
    40
 10
1215.92509
 20
560.561693
 30
0.0
 11
1205.15549
 21
571.331293
 31
0.0
  0
CIRCLE
  5
4C0
  8
002
  6
CENTER
 62
    40
 10
1194.90849
 20
581.578293
 30
0.0
 40
22.5
  0
LINE
  5
4C1
  8
002
 62
     3
 10
1229.40849
 20
440.832652
 30
0.0
 11
1229.15849
 21
441.082652
 31
0.0
  0
LINE
  5
4C2
  8
002
 62
     3
 10
1229.15849
 20
441.082652
 30
0.0
 11
1224.65849
 21
441.082652
 31
0.0
  0
LINE
  5
4C3
  8
002
 62
     3
 10
1224.65849
 20
441.082652
 30
0.0
 11
1224.40849
 21
440.832652
 31
0.0
  0
LINE
  5
4C4
  8
002
 62
     3
 10
1224.40849
 20
440.832652
 30
0.0
 11
1224.40849
 21
436.332652
 31
0.0
  0
LINE
  5
4C5
  8
002
 62
     3
 10
1224.40849
 20
436.332652
 30
0.0
 11
1224.65849
 21
436.082652
 31
0.0
  0
LINE
  5
4C6
  8
002
 62
     3
 10
1224.65849
 20
436.082652
 30
0.0
 11
1229.15849
 21
436.082652
 31
0.0
  0
LINE
  5
4C7
  8
002
 62
     3
 10
1229.15849
 20
436.082652
 30
0.0
 11
1229.40849
 21
436.332652
 31
0.0
  0
LINE
  5
4C8
  8
002
 62
     3
 10
1229.40849
 20
436.332652
 30
0.0
 11
1229.40849
 21
440.832652
 31
0.0
  0
ARC
  5
4C9
  8
002
 62
     3
 10
1229.20849
 20
436.282652
 30
0.0
 40
0.1999999999999318
 50
270.0
 51
0.0
  0
ARC
  5
4CA
  8
002
 62
     3
 10
1224.60849
 20
436.282652
 30
0.0
 40
0.1999999999999318
 50
180.0
 51
270.0
  0
ARC
  5
4CB
  8
002
 62
     3
 10
1226.90849
 20
431.582652
 30
0.0
 40
7.500030347271937
 50
109.471139
 51
70.528861
  0
LINE
  5
4CC
  8
002
  6
CENTER
 62
    40
 10
1226.90849
 20
421.459352
 30
0.0
 11
1226.90849
 21
443.394352
 31
0.0
  0
LINE
  5
4CD
  8
002
  6
CENTER
 62
    40
 10
1216.10959
 20
431.582652
 30
0.0
 11
1238.64289
 21
431.582652
 31
0.0
  0
CIRCLE
  5
4CE
  8
002
 62
     3
 10
305.718977
 20
525.721099
 30
0.0
 40
8.0
  0
CIRCLE
  5
4CF
  8
002
 62
     3
 10
305.718977
 20
595.721099
 30
0.0
 40
8.0
  0
CIRCLE
  5
4D0
  8
002
 62
     3
 10
210.718977
 20
595.721099
 30
0.0
 40
8.0
  0
CIRCLE
  5
4D1
  8
002
 62
     3
 10
210.718977
 20
525.721099
 30
0.0
 40
8.0
  0
LINE
  5
4D2
  8
002
 62
     3
 10
301.718977
 20
533.721099
 30
0.0
 11
305.718977
 21
533.721099
 31
0.0
  0
LINE
  5
4D3
  8
002
 62
     3
 10
301.718977
 20
517.721099
 30
0.0
 11
305.718977
 21
517.721099
 31
0.0
  0
LINE
  5
4D4
  8
002
 62
     3
 10
301.718977
 20
603.721099
 30
0.0
 11
305.718977
 21
603.721099
 31
0.0
  0
LINE
  5
4D5
  8
002
 62
     3
 10
301.718977
 20
587.721099
 30
0.0
 11
305.718977
 21
587.721099
 31
0.0
  0
LINE
  5
4D6
  8
002
 62
     3
 10
299.718977
 20
585.721099
 30
0.0
 11
299.718977
 21
535.721099
 31
0.0
  0
ARC
  5
4D7
  8
002
 62
     3
 10
245.718977
 20
560.721099
 30
0.0
 40
36.00000000000006
 50
270.0
 51
90.0
  0
ARC
  5
4D8
  8
002
 62
     3
 10
245.718977
 20
606.721099
 30
0.0
 40
10.0
 50
270.0
 51
0.0
  0
ARC
  5
4D9
  8
002
 62
     3
 10
245.718977
 20
514.721099
 30
0.0
 40
10.0
 50
360.0
 51
90.0
  0
ARC
  5
4DA
  8
002
 62
     3
 10
245.718977
 20
560.721099
 30
0.0
 40
36.00000000000006
 50
90.0
 51
102.306598
  0
ARC
  5
4DB
  8
002
 62
     3
 10
186.120694
 20
573.722816
 30
0.0
 40
25.0
 50
347.693402
 51
41.806316
  0
ARC
  5
4DC
  8
002
 62
     3
 10
232.717261
 20
620.319383
 30
0.0
 40
25.0
 50
228.193684
 51
282.306598
  0
ARC
  5
4DD
  8
002
 62
     3
 10
186.120694
 20
547.719383
 30
0.0
 40
25.0
 50
318.193684
 51
12.306598
  0
ARC
  5
4DE
  8
002
 62
     3
 10
232.717261
 20
501.122816
 30
0.0
 40
25.0
 50
77.693402
 51
131.806316
  0
ARC
  5
4DF
  8
002
 62
     3
 10
245.718977
 20
560.721099
 30
0.0
 40
36.00000000000006
 50
167.693402
 51
192.306598
  0
ARC
  5
4E0
  8
002
 62
     3
 10
245.718977
 20
560.721099
 30
0.0
 40
36.00000000000006
 50
257.693402
 51
270.0
  0
LINE
  5
4E1
  8
002
  6
CENTER
 62
    40
 10
305.718977
 20
585.721099
 30
0.0
 11
305.718977
 21
605.721099
 31
0.0
  0
LINE
  5
4E2
  8
002
  6
CENTER
 62
    40
 10
315.718977
 20
595.721099
 30
0.0
 11
295.718977
 21
595.721099
 31
0.0
  0
LINE
  5
4E3
  8
002
  6
CENTER
 62
    40
 10
305.718977
 20
515.721099
 30
0.0
 11
305.718977
 21
535.721099
 31
0.0
  0
LINE
  5
4E4
  8
002
  6
CENTER
 62
    40
 10
315.718977
 20
525.721099
 30
0.0
 11
295.718977
 21
525.721099
 31
0.0
  0
LINE
  5
4E5
  8
002
  6
CENTER
 62
    40
 10
210.718977
 20
515.721099
 30
0.0
 11
210.718977
 21
535.721099
 31
0.0
  0
LINE
  5
4E6
  8
002
  6
CENTER
 62
    40
 10
220.718977
 20
525.721099
 30
0.0
 11
200.718977
 21
525.721099
 31
0.0
  0
LINE
  5
4E7
  8
002
  6
CENTER
 62
    40
 10
210.718977
 20
585.721099
 30
0.0
 11
210.718977
 21
605.721099
 31
0.0
  0
LINE
  5
4E8
  8
002
  6
CENTER
 62
    40
 10
220.718977
 20
595.721099
 30
0.0
 11
200.718977
 21
595.721099
 31
0.0
  0
LINE
  5
4E9
  8
002
  6
CENTER
 62
    40
 10
206.874441
 20
560.721099
 30
0.0
 11
306.533027
 21
560.721099
 31
0.0
  0
ARC
  5
4EA
  8
002
 62
     3
 10
301.718977
 20
535.721099
 30
0.0
 40
2.0
 50
180.0
 51
270.0
  0
ARC
  5
4EB
  8
002
 62
     3
 10
301.718977
 20
515.721099
 30
0.0
 40
2.0
 50
90.0
 51
180.0
  0
ARC
  5
4EC
  8
002
 62
     3
 10
301.718977
 20
585.721099
 30
0.0
 40
2.0
 50
90.0
 51
180.0
  0
ARC
  5
4ED
  8
002
 62
     3
 10
301.718977
 20
605.721099
 30
0.0
 40
2.0
 50
180.0
 51
270.0
  0
CIRCLE
  5
4EE
  8
002
 62
    40
 10
245.718977
 20
560.721099
 30
0.0
 40
31.0
  0
CIRCLE
  5
4EF
  8
002
 62
    40
 10
245.718977
 20
560.721099
 30
0.0
 40
29.9175
  0
LINE
  5
4F0
  8
002
 62
     3
 10
255.718977
 20
607.721099
 30
0.0
 11
299.718977
 21
607.721099
 31
0.0
  0
LINE
  5
4F1
  8
002
 62
     3
 10
255.668852
 20
513.721099
 30
0.0
 11
299.718977
 21
513.721099
 31
0.0
  0
LINE
  5
4F2
  8
002
 62
     3
 10
255.718977
 20
606.721099
 30
0.0
 11
255.718977
 21
607.721099
 31
0.0
  0
LINE
  5
4F3
  8
002
 62
     3
 10
299.718977
 20
605.721099
 30
0.0
 11
299.718977
 21
607.721099
 31
0.0
  0
LINE
  5
4F4
  8
002
 62
     3
 10
299.718977
 20
515.721099
 30
0.0
 11
299.718977
 21
513.721099
 31
0.0
  0
LINE
  5
4F5
  8
002
 62
     3
 10
255.718977
 20
514.721099
 30
0.0
 11
255.718977
 21
513.721099
 31
0.0
  0
LINE
  5
4F6
  8
002
 62
     3
 10
270.218977
 20
607.721099
 30
0.0
 11
270.218977
 21
634.721099
 31
0.0
  0
LINE
  5
4F7
  8
002
 62
     3
 10
270.218977
 20
634.721099
 30
0.0
 11
271.218977
 21
635.721099
 31
0.0
  0
LINE
  5
4F8
  8
002
 62
     3
 10
271.218977
 20
635.721099
 30
0.0
 11
284.218977
 21
635.721099
 31
0.0
  0
LINE
  5
4F9
  8
002
 62
     3
 10
284.218977
 20
635.721099
 30
0.0
 11
285.218977
 21
634.721099
 31
0.0
  0
LINE
  5
4FA
  8
002
 62
     3
 10
285.218977
 20
634.721099
 30
0.0
 11
280.218977
 21
634.721099
 31
0.0
  0
LINE
  5
4FB
  8
002
 62
     3
 10
280.218977
 20
635.721099
 30
0.0
 11
280.218977
 21
613.721099
 31
0.0
  0
LINE
  5
4FC
  8
002
 62
     3
 10
280.218977
 20
613.721099
 30
0.0
 11
275.218977
 21
613.721099
 31
0.0
  0
LINE
  5
4FD
  8
002
 62
     3
 10
275.218977
 20
613.721099
 30
0.0
 11
275.218977
 21
635.721099
 31
0.0
  0
LINE
  5
4FE
  8
002
 62
     3
 10
275.218977
 20
634.721099
 30
0.0
 11
270.218977
 21
634.721099
 31
0.0
  0
LINE
  5
4FF
  8
002
 62
     3
 10
285.218977
 20
634.721099
 30
0.0
 11
285.218977
 21
607.721099
 31
0.0
  0
ARC
  5
500
  8
002
 62
     3
 10
277.718977
 20
613.721099
 30
0.0
 40
2.5
 50
180.0
 51
0.0
  0
LINE
  5
501
  8
002
 62
     3
 10
285.218977
 20
513.721099
 30
0.0
 11
285.218977
 21
486.721099
 31
0.0
  0
LINE
  5
502
  8
002
 62
     3
 10
285.218977
 20
486.721099
 30
0.0
 11
284.218977
 21
485.721099
 31
0.0
  0
LINE
  5
503
  8
002
 62
     3
 10
284.218977
 20
485.721099
 30
0.0
 11
271.218977
 21
485.721099
 31
0.0
  0
LINE
  5
504
  8
002
 62
     3
 10
271.218977
 20
485.721099
 30
0.0
 11
270.218977
 21
486.721099
 31
0.0
  0
LINE
  5
505
  8
002
 62
     3
 10
270.218977
 20
486.721099
 30
0.0
 11
270.218977
 21
513.721099
 31
0.0
  0
LINE
  5
506
  8
002
 62
     3
 10
275.218977
 20
507.721099
 30
0.0
 11
280.218977
 21
507.721099
 31
0.0
  0
LINE
  5
507
  8
002
 62
     3
 10
280.218977
 20
507.721099
 30
0.0
 11
280.218977
 21
485.721099
 31
0.0
  0
LINE
  5
508
  8
002
 62
     3
 10
280.218977
 20
486.721099
 30
0.0
 11
285.218977
 21
486.721099
 31
0.0
  0
LINE
  5
509
  8
002
 62
     3
 10
275.218977
 20
486.721099
 30
0.0
 11
270.218977
 21
486.721099
 31
0.0
  0
LINE
  5
50A
  8
002
 62
     3
 10
275.218977
 20
485.721099
 30
0.0
 11
275.218977
 21
507.721099
 31
0.0
  0
ARC
  5
50B
  8
002
 62
     3
 10
277.718977
 20
507.721099
 30
0.0
 40
2.5
 50
0.0
 51
180.0
  0
LINE
  5
50C
  8
002
  6
CENTER
 62
    40
 10
245.718977
 20
601.090884
 30
0.0
 11
245.718977
 21
517.246046
 31
0.0
  0
LINE
  5
50D
  8
002
  6
CENTER
 62
    40
 10
277.718977
 20
639.10404
 30
0.0
 11
277.718977
 21
481.258606
 31
0.0
  0
CIRCLE
  5
50E
  8
002
 62
     3
 10
245.718977
 20
560.721099
 30
0.0
 40
28.50000000000006
  0
CIRCLE
  5
50F
  8
002
 62
     3
 10
245.718627
 20
560.721099
 30
0.0
 40
7.999949999999899
  0
CIRCLE
  5
510
  8
002
 62
    40
 10
245.718977
 20
560.721099
 30
0.0
 40
6.770299999999907
  0
CIRCLE
  5
511
  8
002
 62
     3
 10
245.718977
 20
560.721099
 30
0.0
 40
6.000699999999824
  0
CIRCLE
  5
512
  8
002
 62
    40
 10
245.718977
 20
560.721099
 30
0.0
 40
4.95069999999987
  0
LINE
  5
513
  8
002
 62
     3
 10
125.521977
 20
159.674656
 30
0.0
 11
39.521977
 21
159.674656
 31
0.0
  0
LINE
  5
514
  8
002
 62
     3
 10
35.521977
 20
167.674656
 30
0.0
 11
38.611986
 21
167.674656
 31
0.0
  0
LINE
  5
515
  8
002
 62
     3
 10
35.521977
 20
211.674656
 30
0.0
 11
38.611986
 21
211.674656
 31
0.0
  0
LINE
  5
516
  8
002
 62
     3
 10
129.521977
 20
211.674656
 30
0.0
 11
126.431969
 21
211.674656
 31
0.0
  0
LINE
  5
517
  8
002
 62
     3
 10
129.521977
 20
167.674656
 30
0.0
 11
126.431969
 21
167.674656
 31
0.0
  0
LINE
  5
518
  8
002
 62
     3
 10
35.521977
 20
182.174656
 30
0.0
 11
8.521937
 21
182.174656
 31
0.0
  0
LINE
  5
519
  8
002
 62
     3
 10
8.521937
 20
182.174656
 30
0.0
 11
7.521937
 21
183.174656
 31
0.0
  0
LINE
  5
51A
  8
002
 62
     3
 10
7.521937
 20
183.174656
 30
0.0
 11
7.521937
 21
199.174656
 31
0.0
  0
LINE
  5
51B
  8
002
 62
     3
 10
7.521937
 20
199.174656
 30
0.0
 11
29.521977
 21
199.174656
 31
0.0
  0
LINE
  5
51C
  8
002
 62
     3
 10
29.521977
 20
199.174656
 30
0.0
 11
29.521977
 21
196.745756
 31
0.0
  0
LINE
  5
51D
  8
002
 62
     3
 10
29.521977
 20
196.745756
 30
0.0
 11
32.021977
 21
197.174656
 31
0.0
  0
LINE
  5
51E
  8
002
 62
     3
 10
32.021977
 20
197.174656
 30
0.0
 11
35.521977
 21
197.174656
 31
0.0
  0
LINE
  5
51F
  8
002
 62
     3
 10
129.521977
 20
197.174656
 30
0.0
 11
133.021977
 21
197.174656
 31
0.0
  0
LINE
  5
520
  8
002
 62
     3
 10
133.021977
 20
197.174656
 30
0.0
 11
135.521977
 21
196.745756
 31
0.0
  0
LINE
  5
521
  8
002
 62
     3
 10
135.521977
 20
196.745756
 30
0.0
 11
135.521977
 21
199.174656
 31
0.0
  0
LINE
  5
522
  8
002
 62
     3
 10
135.521977
 20
199.174656
 30
0.0
 11
157.521977
 21
199.174656
 31
0.0
  0
LINE
  5
523
  8
002
 62
     3
 10
157.521977
 20
199.174656
 30
0.0
 11
157.521977
 21
183.174656
 31
0.0
  0
LINE
  5
524
  8
002
 62
     3
 10
157.521977
 20
183.174656
 30
0.0
 11
156.521977
 21
182.174656
 31
0.0
  0
LINE
  5
525
  8
002
 62
     3
 10
156.521977
 20
182.174656
 30
0.0
 11
129.521977
 21
182.174656
 31
0.0
  0
LINE
  5
526
  8
002
 62
     3
 10
29.521977
 20
196.745756
 30
0.0
 11
8.093007
 21
196.745756
 31
0.0
  0
LINE
  5
527
  8
002
 62
     3
 10
8.093007
 20
196.745756
 30
0.0
 11
7.521937
 21
196.174656
 31
0.0
  0
LINE
  5
528
  8
002
 62
     3
 10
8.521937
 20
196.745756
 30
0.0
 11
8.521937
 21
182.174656
 31
0.0
  0
LINE
  5
529
  8
002
 62
     3
 10
135.521977
 20
196.745756
 30
0.0
 11
156.950877
 21
196.745756
 31
0.0
  0
LINE
  5
52A
  8
002
 62
     3
 10
156.950877
 20
196.745756
 30
0.0
 11
157.521977
 21
196.174656
 31
0.0
  0
LINE
  5
52B
  8
002
 62
     3
 10
156.521977
 20
196.745756
 30
0.0
 11
156.521977
 21
182.174656
 31
0.0
  0
LINE
  5
52C
  8
002
 62
     3
 10
125.521977
 20
219.674656
 30
0.0
 11
125.521977
 21
159.674656
 31
0.0
  0
LINE
  5
52D
  8
002
 62
     3
 10
109.521977
 20
165.674656
 30
0.0
 11
109.521977
 21
159.674656
 31
0.0
  0
LINE
  5
52E
  8
002
 62
     3
 10
112.18906
 20
165.674656
 30
0.0
 11
112.18906
 21
219.674656
 31
0.0
  0
LINE
  5
52F
  8
002
 62
     3
 10
55.521977
 20
159.674656
 30
0.0
 11
55.521977
 21
165.674656
 31
0.0
  0
LINE
  5
530
  8
002
 62
     3
 10
39.521977
 20
159.674656
 30
0.0
 11
39.521977
 21
219.674656
 31
0.0
  0
LINE
  5
531
  8
002
 62
     3
 10
52.854894
 20
165.674656
 30
0.0
 11
52.854894
 21
219.674656
 31
0.0
  0
POLYLINE
  5
532
  8
002
 62
     3
 66
     1
 10
0.0
 20
0.0
 30
0.0
  0
VERTEX
  5
534
  8
002
 62
     3
 10
112.18906
 20
219.674656
 30
0.0
  0
VERTEX
  5
535
  8
002
 62
     3
 10
112.184027
 20
219.670778
 30
0.0
  0
VERTEX
  5
536
  8
002
 62
     3
 10
112.178994
 20
219.6669
 30
0.0
  0
VERTEX
  5
537
  8
002
 62
     3
 10
111.856044
 20
219.420584
 30
0.0
  0
VERTEX
  5
538
  8
002
 62
     3
 10
111.529608
 20
219.178921
 30
0.0
  0
VERTEX
  5
539
  8
002
 62
     3
 10
111.193967
 20
218.941365
 30
0.0
  0
VERTEX
  5
53A
  8
002
 62
     3
 10
110.851782
 20
218.713235
 30
0.0
  0
VERTEX
  5
53B
  8
002
 62
     3
 10
110.493977
 20
218.492544
 30
0.0
  0
VERTEX
  5
53C
  8
002
 62
     3
 10
110.126573
 20
218.288566
 30
0.0
  0
VERTEX
  5
53D
  8
002
 62
     3
 10
109.746458
 20
218.104631
 30
0.0
  0
VERTEX
  5
53E
  8
002
 62
     3
 10
109.355109
 20
217.944748
 30
0.0
  0
VERTEX
  5
53F
  8
002
 62
     3
 10
109.01987
 20
217.833122
 30
0.0
  0
VERTEX
  5
540
  8
002
 62
     3
 10
108.677335
 20
217.750708
 30
0.0
  0
VERTEX
  5
541
  8
002
 62
     3
 10
108.317447
 20
217.70208
 30
0.0
  0
VERTEX
  5
542
  8
002
 62
     3
 10
107.954006
 20
217.674656
 30
0.0
  0
SEQEND
  5
533
  8
002
 62
     3
  0
POLYLINE
  5
543
  8
002
 62
     3
 66
     1
 10
0.0
 20
0.0
 30
0.0
  0
VERTEX
  5
545
  8
002
 62
     3
 10
107.954006
 20
167.674656
 30
0.0
  0
VERTEX
  5
546
  8
002
 62
     3
 10
108.309322
 20
167.648377
 30
0.0
  0
VERTEX
  5
547
  8
002
 62
     3
 10
108.661305
 20
167.601834
 30
0.0
  0
VERTEX
  5
548
  8
002
 62
     3
 10
109.012002
 20
167.518488
 30
0.0
  0
VERTEX
  5
549
  8
002
 62
     3
 10
109.355109
 20
167.404563
 30
0.0
  0
VERTEX
  5
54A
  8
002
 62
     3
 10
109.740084
 20
167.247546
 30
0.0
  0
VERTEX
  5
54B
  8
002
 62
     3
 10
110.114166
 20
167.067194
 30
0.0
  0
VERTEX
  5
54C
  8
002
 62
     3
 10
110.475932
 20
166.867317
 30
0.0
  0
VERTEX
  5
54D
  8
002
 62
     3
 10
110.828365
 20
166.651095
 30
0.0
  0
VERTEX
  5
54E
  8
002
 62
     3
 10
111.176836
 20
166.41974
 30
0.0
  0
VERTEX
  5
54F
  8
002
 62
     3
 10
111.51846
 20
166.178485
 30
0.0
  0
VERTEX
  5
550
  8
002
 62
     3
 10
111.850544
 20
165.932872
 30
0.0
  0
VERTEX
  5
551
  8
002
 62
     3
 10
112.178994
 20
165.682411
 30
0.0
  0
VERTEX
  5
552
  8
002
 62
     3
 10
112.184027
 20
165.678534
 30
0.0
  0
VERTEX
  5
553
  8
002
 62
     3
 10
112.18906
 20
165.674656
 30
0.0
  0
SEQEND
  5
544
  8
002
 62
     3
  0
ARC
  5
554
  8
002
 62
     3
 10
107.521977
 20
165.674656
 30
0.0
 40
2.0
 50
0.0
 51
90.0
  0
ARC
  5
555
  8
002
 62
     3
 10
107.521977
 20
219.674656
 30
0.0
 40
2.0
 50
270.0
 51
360.0
  0
ARC
  5
556
  8
002
 62
     3
 10
57.521977
 20
219.674656
 30
0.0
 40
2.0
 50
180.0
 51
270.0
  0
POLYLINE
  5
557
  8
002
 62
     3
 66
     1
 10
0.0
 20
0.0
 30
0.0
  0
VERTEX
  5
559
  8
002
 62
     3
 10
57.089949
 20
217.674656
 30
0.0
  0
VERTEX
  5
55A
  8
002
 62
     3
 10
56.734633
 20
217.700934
 30
0.0
  0
VERTEX
  5
55B
  8
002
 62
     3
 10
56.382649
 20
217.747477
 30
0.0
  0
VERTEX
  5
55C
  8
002
 62
     3
 10
56.031952
 20
217.830823
 30
0.0
  0
VERTEX
  5
55D
  8
002
 62
     3
 10
55.688846
 20
217.944748
 30
0.0
  0
VERTEX
  5
55E
  8
002
 62
     3
 10
55.303871
 20
218.101765
 30
0.0
  0
VERTEX
  5
55F
  8
002
 62
     3
 10
54.929789
 20
218.282117
 30
0.0
  0
VERTEX
  5
560
  8
002
 62
     3
 10
54.568023
 20
218.481994
 30
0.0
  0
VERTEX
  5
561
  8
002
 62
     3
 10
54.21559
 20
218.698216
 30
0.0
  0
VERTEX
  5
562
  8
002
 62
     3
 10
53.867119
 20
218.929572
 30
0.0
  0
VERTEX
  5
563
  8
002
 62
     3
 10
53.525494
 20
219.170826
 30
0.0
  0
VERTEX
  5
564
  8
002
 62
     3
 10
53.193411
 20
219.416439
 30
0.0
  0
VERTEX
  5
565
  8
002
 62
     3
 10
52.864961
 20
219.6669
 30
0.0
  0
VERTEX
  5
566
  8
002
 62
     3
 10
52.859927
 20
219.670778
 30
0.0
  0
VERTEX
  5
567
  8
002
 62
     3
 10
52.854894
 20
219.674656
 30
0.0
  0
SEQEND
  5
558
  8
002
 62
     3
  0
ARC
  5
568
  8
002
 62
     3
 10
57.521977
 20
165.674656
 30
0.0
 40
2.0
 50
90.0
 51
180.0
  0
POLYLINE
  5
569
  8
002
 62
     3
 66
     1
 10
0.0
 20
0.0
 30
0.0
  0
VERTEX
  5
56B
  8
002
 62
     3
 10
52.854894
 20
165.674656
 30
0.0
  0
VERTEX
  5
56C
  8
002
 62
     3
 10
52.859927
 20
165.678534
 30
0.0
  0
VERTEX
  5
56D
  8
002
 62
     3
 10
52.864961
 20
165.682411
 30
0.0
  0
VERTEX
  5
56E
  8
002
 62
     3
 10
53.18791
 20
165.928727
 30
0.0
  0
VERTEX
  5
56F
  8
002
 62
     3
 10
53.514347
 20
166.17039
 30
0.0
  0
VERTEX
  5
570
  8
002
 62
     3
 10
53.849987
 20
166.407946
 30
0.0
  0
VERTEX
  5
571
  8
002
 62
     3
 10
54.192173
 20
166.636077
 30
0.0
  0
VERTEX
  5
572
  8
002
 62
     3
 10
54.549978
 20
166.856767
 30
0.0
  0
VERTEX
  5
573
  8
002
 62
     3
 10
54.917382
 20
167.060745
 30
0.0
  0
VERTEX
  5
574
  8
002
 62
     3
 10
55.297496
 20
167.24468
 30
0.0
  0
VERTEX
  5
575
  8
002
 62
     3
 10
55.688846
 20
167.404563
 30
0.0
  0
VERTEX
  5
576
  8
002
 62
     3
 10
56.024085
 20
167.516189
 30
0.0
  0
VERTEX
  5
577
  8
002
 62
     3
 10
56.36662
 20
167.598603
 30
0.0
  0
VERTEX
  5
578
  8
002
 62
     3
 10
56.726508
 20
167.647231
 30
0.0
  0
VERTEX
  5
579
  8
002
 62
     3
 10
57.089949
 20
167.674656
 30
0.0
  0
SEQEND
  5
56A
  8
002
 62
     3
  0
LINE
  5
57A
  8
002
 62
     3
 10
107.954006
 20
167.674656
 30
0.0
 11
57.089949
 21
167.674656
 31
0.0
  0
LINE
  5
57B
  8
002
 62
     3
 10
107.954006
 20
217.674656
 30
0.0
 11
57.089949
 21
217.674656
 31
0.0
  0
LINE
  5
57C
  8
002
 62
     3
 10
125.521977
 20
219.674656
 30
0.0
 11
39.521977
 21
219.674656
 31
0.0
  0
LINE
  5
57D
  8
002
 62
     3
 10
129.521977
 20
167.674656
 30
0.0
 11
129.521977
 21
211.674656
 31
0.0
  0
LINE
  5
57E
  8
002
 62
     3
 10
35.521977
 20
167.674656
 30
0.0
 11
35.521977
 21
211.674656
 31
0.0
  0
POLYLINE
  5
57F
  8
002
 62
     3
 66
     1
 10
0.0
 20
0.0
 30
0.0
  0
VERTEX
  5
581
  8
002
 62
     3
 10
126.431969
 20
211.674656
 30
0.0
  0
VERTEX
  5
582
  8
002
 62
     3
 10
126.30998
 20
211.685583
 30
0.0
  0
VERTEX
  5
583
  8
002
 62
     3
 10
126.190458
 20
211.707615
 30
0.0
  0
VERTEX
  5
584
  8
002
 62
     3
 10
126.082509
 20
211.746359
 30
0.0
  0
VERTEX
  5
585
  8
002
 62
     3
 10
125.981267
 20
211.801619
 30
0.0
  0
VERTEX
  5
586
  8
002
 62
     3
 10
125.865901
 20
211.890785
 30
0.0
  0
VERTEX
  5
587
  8
002
 62
     3
 10
125.766992
 20
211.997564
 30
0.0
  0
VERTEX
  5
588
  8
002
 62
     3
 10
125.685086
 20
212.119454
 30
0.0
  0
VERTEX
  5
589
  8
002
 62
     3
 10
125.619955
 20
212.251457
 30
0.0
  0
VERTEX
  5
58A
  8
002
 62
     3
 10
125.577192
 20
212.367844
 30
0.0
  0
VERTEX
  5
58B
  8
002
 62
     3
 10
125.547166
 20
212.487687
 30
0.0
  0
VERTEX
  5
58C
  8
002
 62
     3
 10
125.531408
 20
212.59995
 30
0.0
  0
VERTEX
  5
58D
  8
002
 62
     3
 10
125.521977
 20
212.713289
 30
0.0
  0
SEQEND
  5
580
  8
002
 62
     3
  0
POLYLINE
  5
58E
  8
002
 62
     3
 66
     1
 10
0.0
 20
0.0
 30
0.0
  0
VERTEX
  5
590
  8
002
 62
     3
 10
125.521977
 20
166.636022
 30
0.0
  0
VERTEX
  5
591
  8
002
 62
     3
 10
125.543392
 20
166.813618
 30
0.0
  0
VERTEX
  5
592
  8
002
 62
     3
 10
125.579969
 20
166.987888
 30
0.0
  0
VERTEX
  5
593
  8
002
 62
     3
 10
125.652736
 20
167.172983
 30
0.0
  0
VERTEX
  5
594
  8
002
 62
     3
 10
125.75903
 20
167.341474
 30
0.0
  0
VERTEX
  5
595
  8
002
 62
     3
 10
125.833966
 20
167.427567
 30
0.0
  0
VERTEX
  5
596
  8
002
 62
     3
 10
125.918964
 20
167.503792
 30
0.0
  0
VERTEX
  5
597
  8
002
 62
     3
 10
126.020093
 20
167.571685
 30
0.0
  0
VERTEX
  5
598
  8
002
 62
     3
 10
126.130261
 20
167.621887
 30
0.0
  0
VERTEX
  5
599
  8
002
 62
     3
 10
126.278549
 20
167.657251
 30
0.0
  0
VERTEX
  5
59A
  8
002
 62
     3
 10
126.431969
 20
167.674656
 30
0.0
  0
SEQEND
  5
58F
  8
002
 62
     3
  0
POLYLINE
  5
59B
  8
002
 62
     3
 66
     1
 10
0.0
 20
0.0
 30
0.0
  0
VERTEX
  5
59D
  8
002
 62
     3
 10
38.611986
 20
167.674656
 30
0.0
  0
VERTEX
  5
59E
  8
002
 62
     3
 10
38.733975
 20
167.663728
 30
0.0
  0
VERTEX
  5
59F
  8
002
 62
     3
 10
38.853497
 20
167.641696
 30
0.0
  0
VERTEX
  5
5A0
  8
002
 62
     3
 10
38.961446
 20
167.602952
 30
0.0
  0
VERTEX
  5
5A1
  8
002
 62
     3
 10
39.062688
 20
167.547693
 30
0.0
  0
VERTEX
  5
5A2
  8
002
 62
     3
 10
39.178054
 20
167.458526
 30
0.0
  0
VERTEX
  5
5A3
  8
002
 62
     3
 10
39.276962
 20
167.351747
 30
0.0
  0
VERTEX
  5
5A4
  8
002
 62
     3
 10
39.358868
 20
167.229857
 30
0.0
  0
VERTEX
  5
5A5
  8
002
 62
     3
 10
39.423999
 20
167.097854
 30
0.0
  0
VERTEX
  5
5A6
  8
002
 62
     3
 10
39.466763
 20
166.981467
 30
0.0
  0
VERTEX
  5
5A7
  8
002
 62
     3
 10
39.496789
 20
166.861624
 30
0.0
  0
VERTEX
  5
5A8
  8
002
 62
     3
 10
39.512547
 20
166.749361
 30
0.0
  0
VERTEX
  5
5A9
  8
002
 62
     3
 10
39.521977
 20
166.636022
 30
0.0
  0
SEQEND
  5
59C
  8
002
 62
     3
  0
POLYLINE
  5
5AA
  8
002
 62
     3
 66
     1
 10
0.0
 20
0.0
 30
0.0
  0
VERTEX
  5
5AC
  8
002
 62
     3
 10
39.521977
 20
212.713289
 30
0.0
  0
VERTEX
  5
5AD
  8
002
 62
     3
 10
39.500562
 20
212.535693
 30
0.0
  0
VERTEX
  5
5AE
  8
002
 62
     3
 10
39.463985
 20
212.361423
 30
0.0
  0
VERTEX
  5
5AF
  8
002
 62
     3
 10
39.391219
 20
212.176328
 30
0.0
  0
VERTEX
  5
5B0
  8
002
 62
     3
 10
39.284925
 20
212.007838
 30
0.0
  0
VERTEX
  5
5B1
  8
002
 62
     3
 10
39.209989
 20
211.921744
 30
0.0
  0
VERTEX
  5
5B2
  8
002
 62
     3
 10
39.124991
 20
211.84552
 30
0.0
  0
VERTEX
  5
5B3
  8
002
 62
     3
 10
39.023862
 20
211.777626
 30
0.0
  0
VERTEX
  5
5B4
  8
002
 62
     3
 10
38.913694
 20
211.727424
 30
0.0
  0
VERTEX
  5
5B5
  8
002
 62
     3
 10
38.765406
 20
211.69206
 30
0.0
  0
VERTEX
  5
5B6
  8
002
 62
     3
 10
38.611986
 20
211.674656
 30
0.0
  0
SEQEND
  5
5AB
  8
002
 62
     3
  0
LINE
  5
5B7
  8
002
 62
     3
 10
110.021977
 20
254.674656
 30
0.0
 11
55.021977
 21
254.674656
 31
0.0
  0
LINE
  5
5B8
  8
002
 62
     3
 10
54.021977
 20
253.674656
 30
0.0
 11
54.021977
 21
219.674656
 31
0.0
  0
LINE
  5
5B9
  8
002
 62
     3
 10
111.021977
 20
253.674656
 30
0.0
 11
111.021977
 21
219.674656
 31
0.0
  0
LINE
  5
5BA
  8
002
 62
     3
 10
55.021977
 20
254.674656
 30
0.0
 11
54.021977
 21
253.674656
 31
0.0
  0
LINE
  5
5BB
  8
002
 62
     3
 10
110.021977
 20
254.674656
 30
0.0
 11
111.021977
 21
253.674656
 31
0.0
  0
LINE
  5
5BC
  8
002
 62
     3
 10
273.218977
 20
155.674656
 30
0.0
 11
273.218977
 21
159.674656
 31
0.0
  0
LINE
  5
5BD
  8
002
 62
     3
 10
202.718977
 20
219.674656
 30
0.0
 11
202.718977
 21
159.674656
 31
0.0
  0
LINE
  5
5BE
  8
002
 62
     3
 10
313.718977
 20
219.674656
 30
0.0
 11
313.718977
 21
159.674656
 31
0.0
  0
LINE
  5
5BF
  8
002
 62
     3
 10
218.718977
 20
219.674656
 30
0.0
 11
218.718977
 21
159.674656
 31
0.0
  0
LINE
  5
5C0
  8
002
 62
     3
 10
313.718977
 20
219.674656
 30
0.0
 11
297.718977
 21
219.674656
 31
0.0
  0
LINE
  5
5C1
  8
002
 62
     3
 10
297.718977
 20
159.674656
 30
0.0
 11
313.718977
 21
159.674656
 31
0.0
  0
LINE
  5
5C2
  8
002
 62
     3
 10
281.718977
 20
213.674656
 30
0.0
 11
281.718977
 21
217.674656
 31
0.0
  0
LINE
  5
5C3
  8
002
 62
     3
 10
297.718977
 20
165.674656
 30
0.0
 11
297.718977
 21
159.674656
 31
0.0
  0
LINE
  5
5C4
  8
002
 62
     3
 10
297.718977
 20
213.674656
 30
0.0
 11
297.718977
 21
219.674656
 31
0.0
  0
ARC
  5
5C5
  8
002
 62
     3
 10
275.218977
 20
165.674656
 30
0.0
 40
2.0
 50
90.0
 51
180.0
  0
LINE
  5
5C6
  8
002
 62
     3
 10
273.218977
 20
165.674656
 30
0.0
 11
273.218977
 21
159.674656
 31
0.0
  0
LINE
  5
5C7
  8
002
 62
     3
 10
220.718977
 20
217.674656
 30
0.0
 11
281.718977
 21
217.674656
 31
0.0
  0
ARC
  5
5C8
  8
002
 62
     3
 10
220.718977
 20
219.674656
 30
0.0
 40
2.0
 50
180.0
 51
270.0
  0
ARC
  5
5C9
  8
002
 62
     3
 10
295.718977
 20
213.674656
 30
0.0
 40
2.0
 50
270.0
 51
0.0
  0
ARC
  5
5CA
  8
002
 62
     3
 10
283.718977
 20
213.674656
 30
0.0
 40
2.0
 50
180.0
 51
270.0
  0
ARC
  5
5CB
  8
002
 62
     3
 10
295.718977
 20
165.674656
 30
0.0
 40
2.0
 50
0.0
 51
90.0
  0
LINE
  5
5CC
  8
002
 62
     3
 10
255.718977
 20
209.674656
 30
0.0
 11
255.718977
 21
169.674656
 31
0.0
  0
LINE
  5
5CD
  8
002
 62
     3
 10
297.718977
 20
211.674656
 30
0.0
 11
257.718977
 21
211.674656
 31
0.0
  0
LINE
  5
5CE
  8
002
 62
     3
 10
299.718977
 20
169.674656
 30
0.0
 11
299.718977
 21
209.674656
 31
0.0
  0
LINE
  5
5CF
  8
002
 62
     3
 10
297.718977
 20
167.674656
 30
0.0
 11
257.718977
 21
167.674656
 31
0.0
  0
ARC
  5
5D0
  8
002
 62
     3
 10
257.718977
 20
169.674656
 30
0.0
 40
2.0
 50
180.0
 51
270.0
  0
ARC
  5
5D1
  8
002
 62
     3
 10
257.718977
 20
209.674656
 30
0.0
 40
2.0
 50
90.0
 51
180.0
  0
ARC
  5
5D2
  8
002
 62
     3
 10
297.718977
 20
209.674656
 30
0.0
 40
2.0
 50
0.0
 51
90.0
  0
ARC
  5
5D3
  8
002
 62
     3
 10
297.718977
 20
169.674656
 30
0.0
 40
2.0
 50
270.0
 51
0.0
  0
LINE
  5
5D4
  8
002
 62
     3
 10
273.218977
 20
159.674656
 30
0.0
 11
202.718977
 21
159.674656
 31
0.0
  0
LINE
  5
5D5
  8
002
 62
     3
 10
276.004777
 20
173.792056
 30
0.0
 11
276.004777
 21
175.846056
 31
0.0
  0
CIRCLE
  5
5D6
  8
002
 62
     3
 10
273.718977
 20
175.846056
 30
0.0
 40
1.0
  0
ARC
  5
5D7
  8
002
 62
     3
 10
273.718977
 20
175.846056
 30
0.0
 40
2.285799999999995
 50
0.0
 51
134.849339
  0
LINE
  5
5D8
  8
002
 62
     3
 10
279.433277
 20
175.846056
 30
0.0
 11
279.433277
 21
173.792056
 31
0.0
  0
ARC
  5
5D9
  8
002
 62
     3
 10
281.718977
 20
175.846056
 30
0.0
 40
2.285730572486588
 50
45.150661
 51
180.0
  0
ARC
  5
5DA
  8
002
 62
     3
 10
284.942977
 20
179.087056
 30
0.0
 40
2.285730572486588
 50
225.150661
 51
306.868895
  0
CIRCLE
  5
5DB
  8
002
 62
     3
 10
281.718977
 20
175.846056
 30
0.0
 40
1.0
  0
ARC
  5
5DC
  8
002
 62
     3
 10
270.495077
 20
179.087056
 30
0.0
 40
2.28572000035006
 50
233.131105
 51
314.847561
  0
ARC
  5
5DD
  8
002
 62
     3
 10
277.718977
 20
188.719756
 30
0.0
 40
14.32628000738505
 50
306.868058
 51
233.132262
  0
LINE
  5
5DE
  8
002
 62
     3
 10
279.968977
 20
194.174656
 30
0.0
 11
275.468977
 21
194.174656
 31
0.0
  0
LINE
  5
5DF
  8
002
 62
     3
 10
275.468977
 20
194.174656
 30
0.0
 11
275.218977
 21
194.424656
 31
0.0
  0
LINE
  5
5E0
  8
002
 62
     3
 10
275.218977
 20
194.424656
 30
0.0
 11
275.218977
 21
198.924656
 31
0.0
  0
LINE
  5
5E1
  8
002
 62
     3
 10
275.218977
 20
198.924656
 30
0.0
 11
275.468977
 21
199.174656
 31
0.0
  0
LINE
  5
5E2
  8
002
 62
     3
 10
275.468977
 20
199.174656
 30
0.0
 11
279.968977
 21
199.174656
 31
0.0
  0
LINE
  5
5E3
  8
002
 62
     3
 10
279.968977
 20
199.174656
 30
0.0
 11
280.218977
 21
198.924656
 31
0.0
  0
LINE
  5
5E4
  8
002
 62
     3
 10
280.218977
 20
198.924656
 30
0.0
 11
280.218977
 21
194.424656
 31
0.0
  0
LINE
  5
5E5
  8
002
 62
     3
 10
280.218977
 20
194.424656
 30
0.0
 11
279.968977
 21
194.174656
 31
0.0
  0
ARC
  5
5E6
  8
002
 62
     3
 10
280.018977
 20
194.374656
 30
0.0
 40
0.1999999999999886
 50
270.0
 51
0.0
  0
ARC
  5
5E7
  8
002
 62
     3
 10
277.718977
 20
189.674656
 30
0.0
 40
7.499936066394191
 50
109.471393
 51
70.528607
  0
ARC
  5
5E8
  8
002
 62
     3
 10
275.418977
 20
194.374656
 30
0.0
 40
0.2000000000000455
 50
180.0
 51
270.0
  0
CIRCLE
  5
5E9
  8
002
 62
     3
 10
277.718977
 20
189.674656
 30
0.0
 40
16.0
  0
LINE
  5
5EA
  8
002
  6
CENTER
 62
    40
 10
210.718977
 20
155.262456
 30
0.0
 11
210.718977
 21
224.569356
 31
0.0
  0
LINE
  5
5EB
  8
002
  6
CENTER
 62
    40
 10
305.719077
 20
155.262456
 30
0.0
 11
305.719077
 21
224.569356
 31
0.0
  0
LINE
  5
5EC
  8
002
  6
CENTER
 62
    40
 10
277.718977
 20
219.674656
 30
0.0
 11
277.718977
 21
158.223202
 31
0.0
  0
LINE
  5
5ED
  8
002
 62
     3
 10
218.718977
 20
219.674656
 30
0.0
 11
202.718977
 21
219.674656
 31
0.0
  0
LINE
  5
5EE
  8
002
 62
     3
 10
273.218977
 20
254.674656
 30
0.0
 11
218.218977
 21
254.674656
 31
0.0
  0
ARC
  5
5EF
  8
002
 62
     3
 10
275.218977
 20
219.674656
 30
0.0
 40
1.0
 50
180.0
 51
270.0
  0
LINE
  5
5F0
  8
002
 62
     3
 10
217.218977
 20
253.674656
 30
0.0
 11
217.218977
 21
219.674656
 31
0.0
  0
LINE
  5
5F1
  8
002
 62
     3
 10
274.218977
 20
253.674656
 30
0.0
 11
274.218977
 21
219.674656
 31
0.0
  0
LINE
  5
5F2
  8
002
 62
     3
 10
218.218977
 20
254.674656
 30
0.0
 11
217.218977
 21
253.674656
 31
0.0
  0
LINE
  5
5F3
  8
002
 62
     3
 10
273.218977
 20
254.674656
 30
0.0
 11
274.218977
 21
253.674656
 31
0.0
  0
LINE
  5
5F4
  8
002
 62
    40
 10
275.718977
 20
217.674656
 30
0.0
 11
275.718977
 21
218.674656
 31
0.0
  0
LINE
  5
5F5
  8
002
 62
     3
 10
276.718977
 20
217.674656
 30
0.0
 11
276.718977
 21
218.674656
 31
0.0
  0
LINE
  5
5F6
  8
002
 62
     3
 10
218.986927
 20
218.674656
 30
0.0
 11
276.718977
 21
218.674656
 31
0.0
  0
LINE
  5
5F7
  8
002
 62
     3
 10
457.695099
 20
159.674656
 30
0.0
 11
457.695099
 21
219.674656
 31
0.0
  0
LINE
  5
5F8
  8
002
 62
     3
 10
473.695099
 20
159.674656
 30
0.0
 11
473.695099
 21
219.674656
 31
0.0
  0
LINE
  5
5F9
  8
002
 62
     3
 10
387.695099
 20
219.674656
 30
0.0
 11
387.695099
 21
159.674656
 31
0.0
  0
LINE
  5
5FA
  8
002
 62
     3
 10
403.695099
 20
219.674656
 30
0.0
 11
403.695099
 21
159.674656
 31
0.0
  0
POLYLINE
  5
5FB
  8
002
 62
     3
 66
     1
 10
0.0
 20
0.0
 30
0.0
  0
VERTEX
  5
5FD
  8
002
 62
     3
 10
457.695099
 20
212.713289
 30
0.0
  0
VERTEX
  5
5FE
  8
002
 62
     3
 10
457.673684
 20
212.535693
 30
0.0
  0
VERTEX
  5
5FF
  8
002
 62
     3
 10
457.637107
 20
212.361423
 30
0.0
  0
VERTEX
  5
600
  8
002
 62
     3
 10
457.56434
 20
212.176328
 30
0.0
  0
VERTEX
  5
601
  8
002
 62
     3
 10
457.458046
 20
212.007838
 30
0.0
  0
VERTEX
  5
602
  8
002
 62
     3
 10
457.38311
 20
211.921744
 30
0.0
  0
VERTEX
  5
603
  8
002
 62
     3
 10
457.298112
 20
211.84552
 30
0.0
  0
VERTEX
  5
604
  8
002
 62
     3
 10
457.196983
 20
211.777626
 30
0.0
  0
VERTEX
  5
605
  8
002
 62
     3
 10
457.086815
 20
211.727424
 30
0.0
  0
VERTEX
  5
606
  8
002
 62
     3
 10
456.938527
 20
211.69206
 30
0.0
  0
VERTEX
  5
607
  8
002
 62
     3
 10
456.785107
 20
211.674656
 30
0.0
  0
SEQEND
  5
5FC
  8
002
 62
     3
  0
POLYLINE
  5
608
  8
002
 62
     3
 66
     1
 10
0.0
 20
0.0
 30
0.0
  0
VERTEX
  5
60A
  8
002
 62
     3
 10
474.605091
 20
167.674656
 30
0.0
  0
VERTEX
  5
60B
  8
002
 62
     3
 10
474.483102
 20
167.663728
 30
0.0
  0
VERTEX
  5
60C
  8
002
 62
     3
 10
474.363579
 20
167.641696
 30
0.0
  0
VERTEX
  5
60D
  8
002
 62
     3
 10
474.25563
 20
167.602952
 30
0.0
  0
VERTEX
  5
60E
  8
002
 62
     3
 10
474.154389
 20
167.547693
 30
0.0
  0
VERTEX
  5
60F
  8
002
 62
     3
 10
474.039022
 20
167.458526
 30
0.0
  0
VERTEX
  5
610
  8
002
 62
     3
 10
473.940114
 20
167.351747
 30
0.0
  0
VERTEX
  5
611
  8
002
 62
     3
 10
473.858208
 20
167.229857
 30
0.0
  0
VERTEX
  5
612
  8
002
 62
     3
 10
473.793077
 20
167.097854
 30
0.0
  0
VERTEX
  5
613
  8
002
 62
     3
 10
473.750313
 20
166.981467
 30
0.0
  0
VERTEX
  5
614
  8
002
 62
     3
 10
473.720287
 20
166.861624
 30
0.0
  0
VERTEX
  5
615
  8
002
 62
     3
 10
473.704529
 20
166.749361
 30
0.0
  0
VERTEX
  5
616
  8
002
 62
     3
 10
473.695099
 20
166.636022
 30
0.0
  0
SEQEND
  5
609
  8
002
 62
     3
  0
POLYLINE
  5
617
  8
002
 62
     3
 66
     1
 10
0.0
 20
0.0
 30
0.0
  0
VERTEX
  5
619
  8
002
 62
     3
 10
473.695099
 20
212.713289
 30
0.0
  0
VERTEX
  5
61A
  8
002
 62
     3
 10
473.716514
 20
212.535693
 30
0.0
  0
VERTEX
  5
61B
  8
002
 62
     3
 10
473.753091
 20
212.361423
 30
0.0
  0
VERTEX
  5
61C
  8
002
 62
     3
 10
473.825857
 20
212.176328
 30
0.0
  0
VERTEX
  5
61D
  8
002
 62
     3
 10
473.932151
 20
212.007838
 30
0.0
  0
VERTEX
  5
61E
  8
002
 62
     3
 10
474.007087
 20
211.921744
 30
0.0
  0
VERTEX
  5
61F
  8
002
 62
     3
 10
474.092085
 20
211.84552
 30
0.0
  0
VERTEX
  5
620
  8
002
 62
     3
 10
474.193214
 20
211.777626
 30
0.0
  0
VERTEX
  5
621
  8
002
 62
     3
 10
474.303383
 20
211.727424
 30
0.0
  0
VERTEX
  5
622
  8
002
 62
     3
 10
474.45167
 20
211.69206
 30
0.0
  0
VERTEX
  5
623
  8
002
 62
     3
 10
474.605091
 20
211.674656
 30
0.0
  0
SEQEND
  5
618
  8
002
 62
     3
  0
POLYLINE
  5
624
  8
002
 62
     3
 66
     1
 10
0.0
 20
0.0
 30
0.0
  0
VERTEX
  5
626
  8
002
 62
     3
 10
456.785107
 20
167.674656
 30
0.0
  0
VERTEX
  5
627
  8
002
 62
     3
 10
456.907096
 20
167.663728
 30
0.0
  0
VERTEX
  5
628
  8
002
 62
     3
 10
457.026618
 20
167.641696
 30
0.0
  0
VERTEX
  5
629
  8
002
 62
     3
 10
457.134567
 20
167.602952
 30
0.0
  0
VERTEX
  5
62A
  8
002
 62
     3
 10
457.235809
 20
167.547693
 30
0.0
  0
VERTEX
  5
62B
  8
002
 62
     3
 10
457.351176
 20
167.458526
 30
0.0
  0
VERTEX
  5
62C
  8
002
 62
     3
 10
457.450084
 20
167.351747
 30
0.0
  0
VERTEX
  5
62D
  8
002
 62
     3
 10
457.53199
 20
167.229857
 30
0.0
  0
VERTEX
  5
62E
  8
002
 62
     3
 10
457.597121
 20
167.097854
 30
0.0
  0
VERTEX
  5
62F
  8
002
 62
     3
 10
457.639884
 20
166.981467
 30
0.0
  0
VERTEX
  5
630
  8
002
 62
     3
 10
457.66991
 20
166.861624
 30
0.0
  0
VERTEX
  5
631
  8
002
 62
     3
 10
457.685668
 20
166.749361
 30
0.0
  0
VERTEX
  5
632
  8
002
 62
     3
 10
457.695099
 20
166.636022
 30
0.0
  0
SEQEND
  5
625
  8
002
 62
     3
  0
POLYLINE
  5
633
  8
002
 62
     3
 66
     1
 10
0.0
 20
0.0
 30
0.0
  0
VERTEX
  5
635
  8
002
 62
     3
 10
403.695099
 20
166.636022
 30
0.0
  0
VERTEX
  5
636
  8
002
 62
     3
 10
403.716514
 20
166.813618
 30
0.0
  0
VERTEX
  5
637
  8
002
 62
     3
 10
403.753091
 20
166.987888
 30
0.0
  0
VERTEX
  5
638
  8
002
 62
     3
 10
403.825857
 20
167.172983
 30
0.0
  0
VERTEX
  5
639
  8
002
 62
     3
 10
403.932151
 20
167.341474
 30
0.0
  0
VERTEX
  5
63A
  8
002
 62
     3
 10
404.007087
 20
167.427567
 30
0.0
  0
VERTEX
  5
63B
  8
002
 62
     3
 10
404.092085
 20
167.503792
 30
0.0
  0
VERTEX
  5
63C
  8
002
 62
     3
 10
404.193214
 20
167.571685
 30
0.0
  0
VERTEX
  5
63D
  8
002
 62
     3
 10
404.303383
 20
167.621887
 30
0.0
  0
VERTEX
  5
63E
  8
002
 62
     3
 10
404.45167
 20
167.657251
 30
0.0
  0
VERTEX
  5
63F
  8
002
 62
     3
 10
404.605091
 20
167.674656
 30
0.0
  0
SEQEND
  5
634
  8
002
 62
     3
  0
POLYLINE
  5
640
  8
002
 62
     3
 66
     1
 10
0.0
 20
0.0
 30
0.0
  0
VERTEX
  5
642
  8
002
 62
     3
 10
386.785107
 20
211.674656
 30
0.0
  0
VERTEX
  5
643
  8
002
 62
     3
 10
386.907096
 20
211.685583
 30
0.0
  0
VERTEX
  5
644
  8
002
 62
     3
 10
387.026618
 20
211.707615
 30
0.0
  0
VERTEX
  5
645
  8
002
 62
     3
 10
387.134567
 20
211.746359
 30
0.0
  0
VERTEX
  5
646
  8
002
 62
     3
 10
387.235809
 20
211.801619
 30
0.0
  0
VERTEX
  5
647
  8
002
 62
     3
 10
387.351176
 20
211.890785
 30
0.0
  0
VERTEX
  5
648
  8
002
 62
     3
 10
387.450084
 20
211.997564
 30
0.0
  0
VERTEX
  5
649
  8
002
 62
     3
 10
387.53199
 20
212.119454
 30
0.0
  0
VERTEX
  5
64A
  8
002
 62
     3
 10
387.597121
 20
212.251457
 30
0.0
  0
VERTEX
  5
64B
  8
002
 62
     3
 10
387.639884
 20
212.367844
 30
0.0
  0
VERTEX
  5
64C
  8
002
 62
     3
 10
387.66991
 20
212.487687
 30
0.0
  0
VERTEX
  5
64D
  8
002
 62
     3
 10
387.685668
 20
212.59995
 30
0.0
  0
VERTEX
  5
64E
  8
002
 62
     3
 10
387.695099
 20
212.713289
 30
0.0
  0
SEQEND
  5
641
  8
002
 62
     3
  0
POLYLINE
  5
64F
  8
002
 62
     3
 66
     1
 10
0.0
 20
0.0
 30
0.0
  0
VERTEX
  5
651
  8
002
 62
     3
 10
387.695099
 20
166.636022
 30
0.0
  0
VERTEX
  5
652
  8
002
 62
     3
 10
387.673684
 20
166.813618
 30
0.0
  0
VERTEX
  5
653
  8
002
 62
     3
 10
387.637107
 20
166.987888
 30
0.0
  0
VERTEX
  5
654
  8
002
 62
     3
 10
387.56434
 20
167.172983
 30
0.0
  0
VERTEX
  5
655
  8
002
 62
     3
 10
387.458046
 20
167.341474
 30
0.0
  0
VERTEX
  5
656
  8
002
 62
     3
 10
387.38311
 20
167.427567
 30
0.0
  0
VERTEX
  5
657
  8
002
 62
     3
 10
387.298112
 20
167.503792
 30
0.0
  0
VERTEX
  5
658
  8
002
 62
     3
 10
387.196983
 20
167.571685
 30
0.0
  0
VERTEX
  5
659
  8
002
 62
     3
 10
387.086815
 20
167.621887
 30
0.0
  0
VERTEX
  5
65A
  8
002
 62
     3
 10
386.938527
 20
167.657251
 30
0.0
  0
VERTEX
  5
65B
  8
002
 62
     3
 10
386.785107
 20
167.674656
 30
0.0
  0
SEQEND
  5
650
  8
002
 62
     3
  0
POLYLINE
  5
65C
  8
002
 62
     3
 66
     1
 10
0.0
 20
0.0
 30
0.0
  0
VERTEX
  5
65E
  8
002
 62
     3
 10
404.605091
 20
211.674656
 30
0.0
  0
VERTEX
  5
65F
  8
002
 62
     3
 10
404.483102
 20
211.685583
 30
0.0
  0
VERTEX
  5
660
  8
002
 62
     3
 10
404.363579
 20
211.707615
 30
0.0
  0
VERTEX
  5
661
  8
002
 62
     3
 10
404.25563
 20
211.746359
 30
0.0
  0
VERTEX
  5
662
  8
002
 62
     3
 10
404.154389
 20
211.801619
 30
0.0
  0
VERTEX
  5
663
  8
002
 62
     3
 10
404.039022
 20
211.890785
 30
0.0
  0
VERTEX
  5
664
  8
002
 62
     3
 10
403.940114
 20
211.997564
 30
0.0
  0
VERTEX
  5
665
  8
002
 62
     3
 10
403.858208
 20
212.119454
 30
0.0
  0
VERTEX
  5
666
  8
002
 62
     3
 10
403.793077
 20
212.251457
 30
0.0
  0
VERTEX
  5
667
  8
002
 62
     3
 10
403.750313
 20
212.367844
 30
0.0
  0
VERTEX
  5
668
  8
002
 62
     3
 10
403.720287
 20
212.487687
 30
0.0
  0
VERTEX
  5
669
  8
002
 62
     3
 10
403.704529
 20
212.59995
 30
0.0
  0
VERTEX
  5
66A
  8
002
 62
     3
 10
403.695099
 20
212.713289
 30
0.0
  0
SEQEND
  5
65D
  8
002
 62
     3
  0
LINE
  5
66B
  8
002
 62
     3
 10
477.695099
 20
211.674656
 30
0.0
 11
477.695099
 21
167.674656
 31
0.0
  0
LINE
  5
66C
  8
002
 62
     3
 10
383.695099
 20
211.674656
 30
0.0
 11
383.695099
 21
167.674656
 31
0.0
  0
LINE
  5
66D
  8
002
 62
     3
 10
456.785107
 20
167.674656
 30
0.0
 11
404.605091
 21
167.674656
 31
0.0
  0
LINE
  5
66E
  8
002
 62
     3
 10
456.785107
 20
211.674656
 30
0.0
 11
404.605091
 21
211.674656
 31
0.0
  0
LINE
  5
66F
  8
002
 62
     3
 10
457.695099
 20
217.674656
 30
0.0
 11
403.695099
 21
217.674656
 31
0.0
  0
LINE
  5
670
  8
002
 62
     3
 10
473.695099
 20
219.674656
 30
0.0
 11
387.695099
 21
219.674656
 31
0.0
  0
ARC
  5
671
  8
002
 62
     3
 10
455.695099
 20
219.674656
 30
0.0
 40
2.0
 50
270.0
 51
360.0
  0
ARC
  5
672
  8
002
 62
     3
 10
405.695099
 20
219.674656
 30
0.0
 40
2.0
 50
180.0
 51
270.0
  0
LINE
  5
673
  8
002
 62
     3
 10
383.695099
 20
167.674656
 30
0.0
 11
386.785107
 21
167.674656
 31
0.0
  0
LINE
  5
674
  8
002
 62
     3
 10
383.695099
 20
211.674656
 30
0.0
 11
386.785107
 21
211.674656
 31
0.0
  0
LINE
  5
675
  8
002
 62
     3
 10
477.695099
 20
211.674656
 30
0.0
 11
474.605091
 21
211.674656
 31
0.0
  0
LINE
  5
676
  8
002
 62
     3
 10
477.695099
 20
167.674656
 30
0.0
 11
474.605091
 21
167.674656
 31
0.0
  0
LINE
  5
677
  8
002
 62
     3
 10
473.695099
 20
159.674656
 30
0.0
 11
387.695099
 21
159.674656
 31
0.0
  0
LINE
  5
678
  8
002
 62
     3
 10
383.695099
 20
182.174656
 30
0.0
 11
356.695059
 21
182.174656
 31
0.0
  0
LINE
  5
679
  8
002
 62
     3
 10
356.695059
 20
182.174656
 30
0.0
 11
355.695059
 21
183.174656
 31
0.0
  0
LINE
  5
67A
  8
002
 62
     3
 10
355.695059
 20
183.174656
 30
0.0
 11
355.695059
 21
199.174656
 31
0.0
  0
LINE
  5
67B
  8
002
 62
     3
 10
355.695059
 20
199.174656
 30
0.0
 11
377.695099
 21
199.174656
 31
0.0
  0
LINE
  5
67C
  8
002
 62
     3
 10
377.695099
 20
199.174656
 30
0.0
 11
377.695099
 21
196.745756
 31
0.0
  0
LINE
  5
67D
  8
002
 62
     3
 10
377.695099
 20
196.745756
 30
0.0
 11
380.195099
 21
197.174656
 31
0.0
  0
LINE
  5
67E
  8
002
 62
     3
 10
380.195099
 20
197.174656
 30
0.0
 11
383.695099
 21
197.174656
 31
0.0
  0
LINE
  5
67F
  8
002
 62
     3
 10
477.695099
 20
197.174656
 30
0.0
 11
481.195099
 21
197.174656
 31
0.0
  0
LINE
  5
680
  8
002
 62
     3
 10
481.195099
 20
197.174656
 30
0.0
 11
483.695099
 21
196.745756
 31
0.0
  0
LINE
  5
681
  8
002
 62
     3
 10
483.695099
 20
196.745756
 30
0.0
 11
483.695099
 21
199.174656
 31
0.0
  0
LINE
  5
682
  8
002
 62
     3
 10
483.695099
 20
199.174656
 30
0.0
 11
505.695099
 21
199.174656
 31
0.0
  0
LINE
  5
683
  8
002
 62
     3
 10
505.695099
 20
199.174656
 30
0.0
 11
505.695099
 21
183.174656
 31
0.0
  0
LINE
  5
684
  8
002
 62
     3
 10
505.695099
 20
183.174656
 30
0.0
 11
504.695099
 21
182.174656
 31
0.0
  0
LINE
  5
685
  8
002
 62
     3
 10
504.695099
 20
182.174656
 30
0.0
 11
477.695099
 21
182.174656
 31
0.0
  0
LINE
  5
686
  8
002
 62
     3
 10
377.695099
 20
196.745756
 30
0.0
 11
356.266129
 21
196.745756
 31
0.0
  0
LINE
  5
687
  8
002
 62
     3
 10
356.266129
 20
196.745756
 30
0.0
 11
355.695059
 21
196.174656
 31
0.0
  0
LINE
  5
688
  8
002
 62
     3
 10
356.695059
 20
196.745756
 30
0.0
 11
356.695059
 21
182.174656
 31
0.0
  0
LINE
  5
689
  8
002
 62
     3
 10
483.695099
 20
196.745756
 30
0.0
 11
505.123999
 21
196.745756
 31
0.0
  0
LINE
  5
68A
  8
002
 62
     3
 10
505.123999
 20
196.745756
 30
0.0
 11
505.695099
 21
196.174656
 31
0.0
  0
LINE
  5
68B
  8
002
 62
     3
 10
504.695099
 20
196.745756
 30
0.0
 11
504.695099
 21
182.174656
 31
0.0
  0
LINE
  5
68C
  8
002
 62
     3
 10
458.195099
 20
254.674656
 30
0.0
 11
403.195099
 21
254.674656
 31
0.0
  0
LINE
  5
68D
  8
002
 62
     3
 10
402.195099
 20
253.674656
 30
0.0
 11
402.195099
 21
219.674656
 31
0.0
  0
LINE
  5
68E
  8
002
 62
     3
 10
459.195099
 20
253.674656
 30
0.0
 11
459.195099
 21
219.674656
 31
0.0
  0
LINE
  5
68F
  8
002
 62
     3
 10
403.195099
 20
254.674656
 30
0.0
 11
402.195099
 21
253.674656
 31
0.0
  0
LINE
  5
690
  8
002
 62
     3
 10
458.195099
 20
254.674656
 30
0.0
 11
459.195099
 21
253.674656
 31
0.0
  0
LINE
  5
691
  8
002
 62
     3
 10
723.464614
 20
155.674656
 30
0.0
 11
723.464614
 21
159.674656
 31
0.0
  0
LINE
  5
692
  8
002
 62
     3
 10
652.964614
 20
219.674656
 30
0.0
 11
652.964614
 21
159.674656
 31
0.0
  0
LINE
  5
693
  8
002
 62
     3
 10
763.964614
 20
219.674656
 30
0.0
 11
763.964614
 21
159.674656
 31
0.0
  0
LINE
  5
694
  8
002
 62
     3
 10
668.964614
 20
219.674656
 30
0.0
 11
668.964614
 21
159.674656
 31
0.0
  0
LINE
  5
695
  8
002
 62
     3
 10
763.964614
 20
219.674656
 30
0.0
 11
747.964614
 21
219.674656
 31
0.0
  0
LINE
  5
696
  8
002
 62
     3
 10
747.964614
 20
159.674656
 30
0.0
 11
763.964614
 21
159.674656
 31
0.0
  0
LINE
  5
697
  8
002
 62
     3
 10
731.964614
 20
213.674656
 30
0.0
 11
731.964614
 21
217.674656
 31
0.0
  0
LINE
  5
698
  8
002
 62
     3
 10
747.964614
 20
165.674656
 30
0.0
 11
747.964614
 21
159.674656
 31
0.0
  0
LINE
  5
699
  8
002
 62
     3
 10
747.964614
 20
213.674656
 30
0.0
 11
747.964614
 21
219.674656
 31
0.0
  0
ARC
  5
69A
  8
002
 62
     3
 10
725.464614
 20
165.674656
 30
0.0
 40
2.0
 50
90.0
 51
180.0
  0
LINE
  5
69B
  8
002
 62
     3
 10
723.464614
 20
165.674656
 30
0.0
 11
723.464614
 21
159.674656
 31
0.0
  0
LINE
  5
69C
  8
002
 62
     3
 10
670.964614
 20
217.674656
 30
0.0
 11
731.964614
 21
217.674656
 31
0.0
  0
ARC
  5
69D
  8
002
 62
     3
 10
670.964614
 20
219.674656
 30
0.0
 40
2.0
 50
180.0
 51
270.0
  0
ARC
  5
69E
  8
002
 62
     3
 10
745.964614
 20
213.674656
 30
0.0
 40
2.0
 50
270.0
 51
0.0
  0
ARC
  5
69F
  8
002
 62
     3
 10
733.964614
 20
213.674656
 30
0.0
 40
2.0
 50
180.0
 51
270.0
  0
ARC
  5
6A0
  8
002
 62
     3
 10
745.964614
 20
165.674656
 30
0.0
 40
2.0
 50
0.0
 51
90.0
  0
LINE
  5
6A1
  8
002
 62
     3
 10
705.964614
 20
209.674656
 30
0.0
 11
705.964614
 21
169.674656
 31
0.0
  0
LINE
  5
6A2
  8
002
 62
     3
 10
747.964614
 20
211.674656
 30
0.0
 11
707.964614
 21
211.674656
 31
0.0
  0
LINE
  5
6A3
  8
002
 62
     3
 10
749.964614
 20
169.674656
 30
0.0
 11
749.964614
 21
209.674656
 31
0.0
  0
LINE
  5
6A4
  8
002
 62
     3
 10
747.964614
 20
167.674656
 30
0.0
 11
707.964614
 21
167.674656
 31
0.0
  0
ARC
  5
6A5
  8
002
 62
     3
 10
707.964614
 20
169.674656
 30
0.0
 40
2.0
 50
180.0
 51
270.0
  0
ARC
  5
6A6
  8
002
 62
     3
 10
707.964614
 20
209.674656
 30
0.0
 40
2.0
 50
90.0
 51
180.0
  0
ARC
  5
6A7
  8
002
 62
     3
 10
747.964614
 20
209.674656
 30
0.0
 40
2.0
 50
0.0
 51
90.0
  0
ARC
  5
6A8
  8
002
 62
     3
 10
747.964614
 20
169.674656
 30
0.0
 40
2.0
 50
270.0
 51
0.0
  0
LINE
  5
6A9
  8
002
 62
     3
 10
723.464614
 20
159.674656
 30
0.0
 11
652.964614
 21
159.674656
 31
0.0
  0
LINE
  5
6AA
  8
002
 62
     3
 10
726.250414
 20
173.792056
 30
0.0
 11
726.250414
 21
175.846056
 31
0.0
  0
CIRCLE
  5
6AB
  8
002
 62
     3
 10
723.964614
 20
175.846056
 30
0.0
 40
1.0
  0
ARC
  5
6AC
  8
002
 62
     3
 10
723.964614
 20
175.846056
 30
0.0
 40
2.285799999999995
 50
0.0
 51
134.849339
  0
LINE
  5
6AD
  8
002
 62
     3
 10
729.678914
 20
175.846056
 30
0.0
 11
729.678914
 21
173.792056
 31
0.0
  0
ARC
  5
6AE
  8
002
 62
     3
 10
731.964614
 20
175.846056
 30
0.0
 40
2.285730572486588
 50
45.150661
 51
180.0
  0
ARC
  5
6AF
  8
002
 62
     3
 10
735.188614
 20
179.087056
 30
0.0
 40
2.285730572486588
 50
225.150661
 51
306.868895
  0
CIRCLE
  5
6B0
  8
002
 62
     3
 10
731.964614
 20
175.846056
 30
0.0
 40
1.0
  0
ARC
  5
6B1
  8
002
 62
     3
 10
720.740714
 20
179.087056
 30
0.0
 40
2.28572000035006
 50
233.131105
 51
314.847561
  0
ARC
  5
6B2
  8
002
 62
     3
 10
727.964614
 20
188.719756
 30
0.0
 40
14.32628000738505
 50
306.868058
 51
233.132262
  0
LINE
  5
6B3
  8
002
 62
     3
 10
730.214614
 20
194.174656
 30
0.0
 11
725.714614
 21
194.174656
 31
0.0
  0
LINE
  5
6B4
  8
002
 62
     3
 10
725.714614
 20
194.174656
 30
0.0
 11
725.464614
 21
194.424656
 31
0.0
  0
LINE
  5
6B5
  8
002
 62
     3
 10
725.464614
 20
194.424656
 30
0.0
 11
725.464614
 21
198.924656
 31
0.0
  0
LINE
  5
6B6
  8
002
 62
     3
 10
725.464614
 20
198.924656
 30
0.0
 11
725.714614
 21
199.174656
 31
0.0
  0
LINE
  5
6B7
  8
002
 62
     3
 10
725.714614
 20
199.174656
 30
0.0
 11
730.214614
 21
199.174656
 31
0.0
  0
LINE
  5
6B8
  8
002
 62
     3
 10
730.214614
 20
199.174656
 30
0.0
 11
730.464614
 21
198.924656
 31
0.0
  0
LINE
  5
6B9
  8
002
 62
     3
 10
730.464614
 20
198.924656
 30
0.0
 11
730.464614
 21
194.424656
 31
0.0
  0
LINE
  5
6BA
  8
002
 62
     3
 10
730.464614
 20
194.424656
 30
0.0
 11
730.214614
 21
194.174656
 31
0.0
  0
ARC
  5
6BB
  8
002
 62
     3
 10
730.264614
 20
194.374656
 30
0.0
 40
0.1999999999999886
 50
270.0
 51
0.0
  0
ARC
  5
6BC
  8
002
 62
     3
 10
727.964614
 20
189.674656
 30
0.0
 40
7.499936066394191
 50
109.471393
 51
70.528607
  0
ARC
  5
6BD
  8
002
 62
     3
 10
725.664614
 20
194.374656
 30
0.0
 40
0.2000000000000455
 50
180.0
 51
270.0
  0
CIRCLE
  5
6BE
  8
002
 62
     3
 10
727.964614
 20
189.674656
 30
0.0
 40
16.0
  0
LINE
  5
6BF
  8
002
  6
CENTER
 62
    40
 10
660.964614
 20
155.262456
 30
0.0
 11
660.964614
 21
224.569356
 31
0.0
  0
LINE
  5
6C0
  8
002
  6
CENTER
 62
    40
 10
755.964714
 20
155.262456
 30
0.0
 11
755.964714
 21
224.569356
 31
0.0
  0
LINE
  5
6C1
  8
002
  6
CENTER
 62
    40
 10
727.964614
 20
219.674656
 30
0.0
 11
727.964614
 21
158.223202
 31
0.0
  0
LINE
  5
6C2
  8
002
 62
     3
 10
668.964614
 20
219.674656
 30
0.0
 11
652.964614
 21
219.674656
 31
0.0
  0
LINE
  5
6C3
  8
002
 62
     3
 10
723.464614
 20
254.674656
 30
0.0
 11
668.464614
 21
254.674656
 31
0.0
  0
ARC
  5
6C4
  8
002
 62
     3
 10
725.464614
 20
219.674656
 30
0.0
 40
1.0
 50
180.0
 51
270.0
  0
LINE
  5
6C5
  8
002
 62
     3
 10
667.464614
 20
253.674656
 30
0.0
 11
667.464614
 21
219.674656
 31
0.0
  0
LINE
  5
6C6
  8
002
 62
     3
 10
724.464614
 20
253.674656
 30
0.0
 11
724.464614
 21
219.674656
 31
0.0
  0
LINE
  5
6C7
  8
002
 62
     3
 10
668.464614
 20
254.674656
 30
0.0
 11
667.464614
 21
253.674656
 31
0.0
  0
LINE
  5
6C8
  8
002
 62
     3
 10
723.464614
 20
254.674656
 30
0.0
 11
724.464614
 21
253.674656
 31
0.0
  0
LINE
  5
6C9
  8
002
 62
    40
 10
725.964614
 20
217.674656
 30
0.0
 11
725.964614
 21
218.674656
 31
0.0
  0
LINE
  5
6CA
  8
002
 62
     3
 10
726.964614
 20
217.674656
 30
0.0
 11
726.964614
 21
218.674656
 31
0.0
  0
LINE
  5
6CB
  8
002
 62
     3
 10
669.232563
 20
218.674656
 30
0.0
 11
726.964614
 21
218.674656
 31
0.0
  0
CIRCLE
  5
6CC
  8
002
 62
     3
 10
1254.90849
 20
546.578293
 30
0.0
 40
8.0
  0
CIRCLE
  5
6CD
  8
002
 62
     3
 10
1254.90849
 20
616.578293
 30
0.0
 40
8.0
  0
CIRCLE
  5
6CE
  8
002
 62
     3
 10
1159.90849
 20
616.578293
 30
0.0
 40
8.0
  0
CIRCLE
  5
6CF
  8
002
 62
     3
 10
1159.90849
 20
546.578293
 30
0.0
 40
8.0
  0
LINE
  5
6D0
  8
002
 62
     3
 10
1250.90849
 20
554.578293
 30
0.0
 11
1254.90849
 21
554.578293
 31
0.0
  0
LINE
  5
6D1
  8
002
 62
     3
 10
1250.90849
 20
538.578293
 30
0.0
 11
1254.90849
 21
538.578293
 31
0.0
  0
LINE
  5
6D2
  8
002
 62
     3
 10
1250.90849
 20
624.578293
 30
0.0
 11
1254.90849
 21
624.578293
 31
0.0
  0
LINE
  5
6D3
  8
002
 62
     3
 10
1250.90849
 20
608.578293
 30
0.0
 11
1254.90849
 21
608.578293
 31
0.0
  0
LINE
  5
6D4
  8
002
 62
     3
 10
1248.90849
 20
606.578293
 30
0.0
 11
1248.90849
 21
556.578293
 31
0.0
  0
ARC
  5
6D5
  8
002
 62
     3
 10
1194.90849
 20
581.578293
 30
0.0
 40
36.00000000000006
 50
270.0
 51
90.0
  0
ARC
  5
6D6
  8
002
 62
     3
 10
1194.90849
 20
627.578293
 30
0.0
 40
10.0
 50
270.0
 51
0.0
  0
ARC
  5
6D7
  8
002
 62
     3
 10
1194.90849
 20
535.578293
 30
0.0
 40
10.0
 50
360.0
 51
90.0
  0
ARC
  5
6D8
  8
002
 62
     3
 10
1194.90849
 20
581.578293
 30
0.0
 40
36.00000000000006
 50
90.0
 51
102.306598
  0
ARC
  5
6D9
  8
002
 62
     3
 10
1135.310207
 20
594.58001
 30
0.0
 40
25.0
 50
347.693402
 51
41.806316
  0
ARC
  5
6DA
  8
002
 62
     3
 10
1181.906773
 20
641.176576
 30
0.0
 40
25.0
 50
228.193684
 51
282.306598
  0
ARC
  5
6DB
  8
002
 62
     3
 10
1135.310207
 20
568.576576
 30
0.0
 40
25.0
 50
318.193684
 51
12.306598
  0
ARC
  5
6DC
  8
002
 62
     3
 10
1181.906773
 20
521.98001
 30
0.0
 40
25.0
 50
77.693402
 51
131.806316
  0
ARC
  5
6DD
  8
002
 62
     3
 10
1194.90849
 20
581.578293
 30
0.0
 40
36.00000000000006
 50
167.693402
 51
192.306598
  0
ARC
  5
6DE
  8
002
 62
     3
 10
1194.90849
 20
581.578293
 30
0.0
 40
36.00000000000006
 50
257.693402
 51
270.0
  0
LINE
  5
6DF
  8
002
  6
CENTER
 62
    40
 10
1254.90849
 20
606.578293
 30
0.0
 11
1254.90849
 21
626.578293
 31
0.0
  0
LINE
  5
6E0
  8
002
  6
CENTER
 62
    40
 10
1264.90849
 20
616.578293
 30
0.0
 11
1244.90849
 21
616.578293
 31
0.0
  0
LINE
  5
6E1
  8
002
  6
CENTER
 62
    40
 10
1254.90849
 20
536.578293
 30
0.0
 11
1254.90849
 21
556.578293
 31
0.0
  0
LINE
  5
6E2
  8
002
  6
CENTER
 62
    40
 10
1264.90849
 20
546.578293
 30
0.0
 11
1244.90849
 21
546.578293
 31
0.0
  0
LINE
  5
6E3
  8
002
  6
CENTER
 62
    40
 10
1159.90849
 20
536.578293
 30
0.0
 11
1159.90849
 21
556.578293
 31
0.0
  0
LINE
  5
6E4
  8
002
  6
CENTER
 62
    40
 10
1169.90849
 20
546.578293
 30
0.0
 11
1149.90849
 21
546.578293
 31
0.0
  0
LINE
  5
6E5
  8
002
  6
CENTER
 62
    40
 10
1159.90849
 20
606.578293
 30
0.0
 11
1159.90849
 21
626.578293
 31
0.0
  0
LINE
  5
6E6
  8
002
  6
CENTER
 62
    40
 10
1169.90849
 20
616.578293
 30
0.0
 11
1149.90849
 21
616.578293
 31
0.0
  0
LINE
  5
6E7
  8
002
  6
CENTER
 62
    40
 10
1156.063954
 20
581.578293
 30
0.0
 11
1255.72254
 21
581.578293
 31
0.0
  0
ARC
  5
6E8
  8
002
 62
     3
 10
1250.90849
 20
556.578293
 30
0.0
 40
2.0
 50
180.0
 51
270.0
  0
ARC
  5
6E9
  8
002
 62
     3
 10
1250.90849
 20
536.578293
 30
0.0
 40
2.0
 50
90.0
 51
180.0
  0
ARC
  5
6EA
  8
002
 62
     3
 10
1250.90849
 20
606.578293
 30
0.0
 40
2.0
 50
90.0
 51
180.0
  0
ARC
  5
6EB
  8
002
 62
     3
 10
1250.90849
 20
626.578293
 30
0.0
 40
2.0
 50
180.0
 51
270.0
  0
CIRCLE
  5
6EC
  8
002
 62
    40
 10
1194.90849
 20
581.578293
 30
0.0
 40
31.0
  0
CIRCLE
  5
6ED
  8
002
 62
    40
 10
1194.90849
 20
581.578293
 30
0.0
 40
29.9175
  0
LINE
  5
6EE
  8
002
 62
     3
 10
1204.90849
 20
628.578293
 30
0.0
 11
1248.90849
 21
628.578293
 31
0.0
  0
LINE
  5
6EF
  8
002
 62
     3
 10
1204.858364
 20
534.578293
 30
0.0
 11
1248.90849
 21
534.578293
 31
0.0
  0
LINE
  5
6F0
  8
002
 62
     3
 10
1204.90849
 20
627.578293
 30
0.0
 11
1204.90849
 21
628.578293
 31
0.0
  0
LINE
  5
6F1
  8
002
 62
     3
 10
1248.90849
 20
626.578293
 30
0.0
 11
1248.90849
 21
628.578293
 31
0.0
  0
LINE
  5
6F2
  8
002
 62
     3
 10
1248.90849
 20
536.578293
 30
0.0
 11
1248.90849
 21
534.578293
 31
0.0
  0
LINE
  5
6F3
  8
002
 62
     3
 10
1204.90849
 20
535.578293
 30
0.0
 11
1204.90849
 21
534.578293
 31
0.0
  0
LINE
  5
6F4
  8
002
 62
     3
 10
1219.40849
 20
628.578293
 30
0.0
 11
1219.40849
 21
655.578293
 31
0.0
  0
LINE
  5
6F5
  8
002
 62
     3
 10
1219.40849
 20
655.578293
 30
0.0
 11
1220.40849
 21
656.578293
 31
0.0
  0
LINE
  5
6F6
  8
002
 62
     3
 10
1220.40849
 20
656.578293
 30
0.0
 11
1233.40849
 21
656.578293
 31
0.0
  0
LINE
  5
6F7
  8
002
 62
     3
 10
1233.40849
 20
656.578293
 30
0.0
 11
1234.40849
 21
655.578293
 31
0.0
  0
LINE
  5
6F8
  8
002
 62
     3
 10
1234.40849
 20
655.578293
 30
0.0
 11
1229.40849
 21
655.578293
 31
0.0
  0
LINE
  5
6F9
  8
002
 62
     3
 10
1229.40849
 20
656.578293
 30
0.0
 11
1229.40849
 21
634.578293
 31
0.0
  0
LINE
  5
6FA
  8
002
 62
     3
 10
1229.40849
 20
634.578293
 30
0.0
 11
1224.40849
 21
634.578293
 31
0.0
  0
LINE
  5
6FB
  8
002
 62
     3
 10
1224.40849
 20
634.578293
 30
0.0
 11
1224.40849
 21
656.578293
 31
0.0
  0
LINE
  5
6FC
  8
002
 62
     3
 10
1224.40849
 20
655.578293
 30
0.0
 11
1219.40849
 21
655.578293
 31
0.0
  0
LINE
  5
6FD
  8
002
 62
     3
 10
1234.40849
 20
655.578293
 30
0.0
 11
1234.40849
 21
628.578293
 31
0.0
  0
ARC
  5
6FE
  8
002
 62
     3
 10
1226.90849
 20
634.578293
 30
0.0
 40
2.5
 50
180.0
 51
0.0
  0
LINE
  5
6FF
  8
002
 62
     3
 10
1234.40849
 20
534.578293
 30
0.0
 11
1234.40849
 21
507.578293
 31
0.0
  0
LINE
  5
700
  8
002
 62
     3
 10
1234.40849
 20
507.578293
 30
0.0
 11
1233.40849
 21
506.578293
 31
0.0
  0
LINE
  5
701
  8
002
 62
     3
 10
1233.40849
 20
506.578293
 30
0.0
 11
1220.40849
 21
506.578293
 31
0.0
  0
LINE
  5
702
  8
002
 62
     3
 10
1220.40849
 20
506.578293
 30
0.0
 11
1219.40849
 21
507.578293
 31
0.0
  0
LINE
  5
703
  8
002
 62
     3
 10
1219.40849
 20
507.578293
 30
0.0
 11
1219.40849
 21
534.578293
 31
0.0
  0
LINE
  5
704
  8
002
 62
     3
 10
1224.40849
 20
528.578293
 30
0.0
 11
1229.40849
 21
528.578293
 31
0.0
  0
LINE
  5
705
  8
002
 62
     3
 10
1229.40849
 20
528.578293
 30
0.0
 11
1229.40849
 21
506.578293
 31
0.0
  0
LINE
  5
706
  8
002
 62
     3
 10
1229.40849
 20
507.578293
 30
0.0
 11
1234.40849
 21
507.578293
 31
0.0
  0
LINE
  5
707
  8
002
 62
     3
 10
1224.40849
 20
507.578293
 30
0.0
 11
1219.40849
 21
507.578293
 31
0.0
  0
LINE
  5
708
  8
002
 62
     3
 10
1224.40849
 20
506.578293
 30
0.0
 11
1224.40849
 21
528.578293
 31
0.0
  0
ARC
  5
709
  8
002
 62
     3
 10
1226.90849
 20
528.578293
 30
0.0
 40
2.5
 50
0.0
 51
180.0
  0
LINE
  5
70A
  8
002
  6
CENTER
 62
    40
 10
1194.90849
 20
621.948077
 30
0.0
 11
1194.90849
 21
538.10324
 31
0.0
  0
LINE
  5
70B
  8
002
  6
CENTER
 62
    40
 10
1226.90849
 20
659.961234
 30
0.0
 11
1226.90849
 21
502.1158
 31
0.0
  0
CIRCLE
  5
70C
  8
002
 62
     3
 10
1194.90849
 20
581.578293
 30
0.0
 40
28.50000000000006
  0
LINE
  5
70D
  8
002
 62
     3
 10
1074.71149
 20
159.674656
 30
0.0
 11
988.71149
 21
159.674656
 31
0.0
  0
LINE
  5
70E
  8
002
 62
     3
 10
984.71149
 20
167.674656
 30
0.0
 11
987.801498
 21
167.674656
 31
0.0
  0
LINE
  5
70F
  8
002
 62
     3
 10
984.71149
 20
211.674656
 30
0.0
 11
987.801498
 21
211.674656
 31
0.0
  0
LINE
  5
710
  8
002
 62
     3
 10
1078.71149
 20
211.674656
 30
0.0
 11
1075.621482
 21
211.674656
 31
0.0
  0
LINE
  5
711
  8
002
 62
     3
 10
1078.71149
 20
167.674656
 30
0.0
 11
1075.621482
 21
167.674656
 31
0.0
  0
LINE
  5
712
  8
002
 62
     3
 10
984.71149
 20
182.174656
 30
0.0
 11
957.71145
 21
182.174656
 31
0.0
  0
LINE
  5
713
  8
002
 62
     3
 10
957.71145
 20
182.174656
 30
0.0
 11
956.71145
 21
183.174656
 31
0.0
  0
LINE
  5
714
  8
002
 62
     3
 10
956.71145
 20
183.174656
 30
0.0
 11
956.71145
 21
199.174656
 31
0.0
  0
LINE
  5
715
  8
002
 62
     3
 10
956.71145
 20
199.174656
 30
0.0
 11
978.71149
 21
199.174656
 31
0.0
  0
LINE
  5
716
  8
002
 62
     3
 10
978.71149
 20
199.174656
 30
0.0
 11
978.71149
 21
196.745756
 31
0.0
  0
LINE
  5
717
  8
002
 62
     3
 10
978.71149
 20
196.745756
 30
0.0
 11
981.21149
 21
197.174656
 31
0.0
  0
LINE
  5
718
  8
002
 62
     3
 10
981.21149
 20
197.174656
 30
0.0
 11
984.71149
 21
197.174656
 31
0.0
  0
LINE
  5
719
  8
002
 62
     3
 10
1078.71149
 20
197.174656
 30
0.0
 11
1082.21149
 21
197.174656
 31
0.0
  0
LINE
  5
71A
  8
002
 62
     3
 10
1082.21149
 20
197.174656
 30
0.0
 11
1084.71149
 21
196.745756
 31
0.0
  0
LINE
  5
71B
  8
002
 62
     3
 10
1084.71149
 20
196.745756
 30
0.0
 11
1084.71149
 21
199.174656
 31
0.0
  0
LINE
  5
71C
  8
002
 62
     3
 10
1084.71149
 20
199.174656
 30
0.0
 11
1106.71149
 21
199.174656
 31
0.0
  0
LINE
  5
71D
  8
002
 62
     3
 10
1106.71149
 20
199.174656
 30
0.0
 11
1106.71149
 21
183.174656
 31
0.0
  0
LINE
  5
71E
  8
002
 62
     3
 10
1106.71149
 20
183.174656
 30
0.0
 11
1105.71149
 21
182.174656
 31
0.0
  0
LINE
  5
71F
  8
002
 62
     3
 10
1105.71149
 20
182.174656
 30
0.0
 11
1078.71149
 21
182.174656
 31
0.0
  0
LINE
  5
720
  8
002
 62
     3
 10
978.71149
 20
196.745756
 30
0.0
 11
957.28252
 21
196.745756
 31
0.0
  0
LINE
  5
721
  8
002
 62
     3
 10
957.28252
 20
196.745756
 30
0.0
 11
956.71145
 21
196.174656
 31
0.0
  0
LINE
  5
722
  8
002
 62
     3
 10
957.71145
 20
196.745756
 30
0.0
 11
957.71145
 21
182.174656
 31
0.0
  0
LINE
  5
723
  8
002
 62
     3
 10
1084.71149
 20
196.745756
 30
0.0
 11
1106.14039
 21
196.745756
 31
0.0
  0
LINE
  5
724
  8
002
 62
     3
 10
1106.14039
 20
196.745756
 30
0.0
 11
1106.71149
 21
196.174656
 31
0.0
  0
LINE
  5
725
  8
002
 62
     3
 10
1105.71149
 20
196.745756
 30
0.0
 11
1105.71149
 21
182.174656
 31
0.0
  0
LINE
  5
726
  8
002
 62
     3
 10
1074.71149
 20
219.674656
 30
0.0
 11
1074.71149
 21
159.674656
 31
0.0
  0
LINE
  5
727
  8
002
 62
     3
 10
1058.71149
 20
165.674656
 30
0.0
 11
1058.71149
 21
159.674656
 31
0.0
  0
LINE
  5
728
  8
002
 62
     3
 10
1061.378573
 20
165.674656
 30
0.0
 11
1061.378573
 21
219.674656
 31
0.0
  0
LINE
  5
729
  8
002
 62
     3
 10
1004.71149
 20
159.674656
 30
0.0
 11
1004.71149
 21
165.674656
 31
0.0
  0
LINE
  5
72A
  8
002
 62
     3
 10
988.71149
 20
159.674656
 30
0.0
 11
988.71149
 21
219.674656
 31
0.0
  0
LINE
  5
72B
  8
002
 62
     3
 10
1002.044407
 20
165.674656
 30
0.0
 11
1002.044407
 21
219.674656
 31
0.0
  0
POLYLINE
  5
72C
  8
002
 62
     3
 66
     1
 10
0.0
 20
0.0
 30
0.0
  0
VERTEX
  5
72E
  8
002
 62
     3
 10
1061.378573
 20
219.674656
 30
0.0
  0
VERTEX
  5
72F
  8
002
 62
     3
 10
1061.37354
 20
219.670778
 30
0.0
  0
VERTEX
  5
730
  8
002
 62
     3
 10
1061.368507
 20
219.6669
 30
0.0
  0
VERTEX
  5
731
  8
002
 62
     3
 10
1061.045557
 20
219.420584
 30
0.0
  0
VERTEX
  5
732
  8
002
 62
     3
 10
1060.71912
 20
219.178921
 30
0.0
  0
VERTEX
  5
733
  8
002
 62
     3
 10
1060.38348
 20
218.941365
 30
0.0
  0
VERTEX
  5
734
  8
002
 62
     3
 10
1060.041294
 20
218.713235
 30
0.0
  0
VERTEX
  5
735
  8
002
 62
     3
 10
1059.68349
 20
218.492544
 30
0.0
  0
VERTEX
  5
736
  8
002
 62
     3
 10
1059.316086
 20
218.288566
 30
0.0
  0
VERTEX
  5
737
  8
002
 62
     3
 10
1058.935971
 20
218.104631
 30
0.0
  0
VERTEX
  5
738
  8
002
 62
     3
 10
1058.544621
 20
217.944748
 30
0.0
  0
VERTEX
  5
739
  8
002
 62
     3
 10
1058.209382
 20
217.833122
 30
0.0
  0
VERTEX
  5
73A
  8
002
 62
     3
 10
1057.866848
 20
217.750708
 30
0.0
  0
VERTEX
  5
73B
  8
002
 62
     3
 10
1057.50696
 20
217.70208
 30
0.0
  0
VERTEX
  5
73C
  8
002
 62
     3
 10
1057.143518
 20
217.674656
 30
0.0
  0
SEQEND
  5
72D
  8
002
 62
     3
  0
POLYLINE
  5
73D
  8
002
 62
     3
 66
     1
 10
0.0
 20
0.0
 30
0.0
  0
VERTEX
  5
73F
  8
002
 62
     3
 10
1057.143518
 20
167.674656
 30
0.0
  0
VERTEX
  5
740
  8
002
 62
     3
 10
1057.498834
 20
167.648377
 30
0.0
  0
VERTEX
  5
741
  8
002
 62
     3
 10
1057.850818
 20
167.601834
 30
0.0
  0
VERTEX
  5
742
  8
002
 62
     3
 10
1058.201515
 20
167.518488
 30
0.0
  0
VERTEX
  5
743
  8
002
 62
     3
 10
1058.544621
 20
167.404563
 30
0.0
  0
VERTEX
  5
744
  8
002
 62
     3
 10
1058.929597
 20
167.247546
 30
0.0
  0
VERTEX
  5
745
  8
002
 62
     3
 10
1059.303678
 20
167.067194
 30
0.0
  0
VERTEX
  5
746
  8
002
 62
     3
 10
1059.665445
 20
166.867317
 30
0.0
  0
VERTEX
  5
747
  8
002
 62
     3
 10
1060.017877
 20
166.651095
 30
0.0
  0
VERTEX
  5
748
  8
002
 62
     3
 10
1060.366348
 20
166.41974
 30
0.0
  0
VERTEX
  5
749
  8
002
 62
     3
 10
1060.707973
 20
166.178485
 30
0.0
  0
VERTEX
  5
74A
  8
002
 62
     3
 10
1061.040056
 20
165.932872
 30
0.0
  0
VERTEX
  5
74B
  8
002
 62
     3
 10
1061.368507
 20
165.682411
 30
0.0
  0
VERTEX
  5
74C
  8
002
 62
     3
 10
1061.37354
 20
165.678534
 30
0.0
  0
VERTEX
  5
74D
  8
002
 62
     3
 10
1061.378573
 20
165.674656
 30
0.0
  0
SEQEND
  5
73E
  8
002
 62
     3
  0
ARC
  5
74E
  8
002
 62
     3
 10
1056.71149
 20
165.674656
 30
0.0
 40
2.0
 50
0.0
 51
90.0
  0
ARC
  5
74F
  8
002
 62
     3
 10
1056.71149
 20
219.674656
 30
0.0
 40
2.0
 50
270.0
 51
360.0
  0
ARC
  5
750
  8
002
 62
     3
 10
1006.71149
 20
219.674656
 30
0.0
 40
2.0
 50
180.0
 51
270.0
  0
POLYLINE
  5
751
  8
002
 62
     3
 66
     1
 10
0.0
 20
0.0
 30
0.0
  0
VERTEX
  5
753
  8
002
 62
     3
 10
1006.279461
 20
217.674656
 30
0.0
  0
VERTEX
  5
754
  8
002
 62
     3
 10
1005.924146
 20
217.700934
 30
0.0
  0
VERTEX
  5
755
  8
002
 62
     3
 10
1005.572162
 20
217.747477
 30
0.0
  0
VERTEX
  5
756
  8
002
 62
     3
 10
1005.221465
 20
217.830823
 30
0.0
  0
VERTEX
  5
757
  8
002
 62
     3
 10
1004.878358
 20
217.944748
 30
0.0
  0
VERTEX
  5
758
  8
002
 62
     3
 10
1004.493383
 20
218.101765
 30
0.0
  0
VERTEX
  5
759
  8
002
 62
     3
 10
1004.119302
 20
218.282117
 30
0.0
  0
VERTEX
  5
75A
  8
002
 62
     3
 10
1003.757535
 20
218.481994
 30
0.0
  0
VERTEX
  5
75B
  8
002
 62
     3
 10
1003.405103
 20
218.698216
 30
0.0
  0
VERTEX
  5
75C
  8
002
 62
     3
 10
1003.056632
 20
218.929572
 30
0.0
  0
VERTEX
  5
75D
  8
002
 62
     3
 10
1002.715007
 20
219.170826
 30
0.0
  0
VERTEX
  5
75E
  8
002
 62
     3
 10
1002.382924
 20
219.416439
 30
0.0
  0
VERTEX
  5
75F
  8
002
 62
     3
 10
1002.054473
 20
219.6669
 30
0.0
  0
VERTEX
  5
760
  8
002
 62
     3
 10
1002.04944
 20
219.670778
 30
0.0
  0
VERTEX
  5
761
  8
002
 62
     3
 10
1002.044407
 20
219.674656
 30
0.0
  0
SEQEND
  5
752
  8
002
 62
     3
  0
ARC
  5
762
  8
002
 62
     3
 10
1006.71149
 20
165.674656
 30
0.0
 40
2.0
 50
90.0
 51
180.0
  0
POLYLINE
  5
763
  8
002
 62
     3
 66
     1
 10
0.0
 20
0.0
 30
0.0
  0
VERTEX
  5
765
  8
002
 62
     3
 10
1002.044407
 20
165.674656
 30
0.0
  0
VERTEX
  5
766
  8
002
 62
     3
 10
1002.04944
 20
165.678534
 30
0.0
  0
VERTEX
  5
767
  8
002
 62
     3
 10
1002.054473
 20
165.682411
 30
0.0
  0
VERTEX
  5
768
  8
002
 62
     3
 10
1002.377423
 20
165.928727
 30
0.0
  0
VERTEX
  5
769
  8
002
 62
     3
 10
1002.70386
 20
166.17039
 30
0.0
  0
VERTEX
  5
76A
  8
002
 62
     3
 10
1003.0395
 20
166.407946
 30
0.0
  0
VERTEX
  5
76B
  8
002
 62
     3
 10
1003.381686
 20
166.636077
 30
0.0
  0
VERTEX
  5
76C
  8
002
 62
     3
 10
1003.73949
 20
166.856767
 30
0.0
  0
VERTEX
  5
76D
  8
002
 62
     3
 10
1004.106894
 20
167.060745
 30
0.0
  0
VERTEX
  5
76E
  8
002
 62
     3
 10
1004.487009
 20
167.24468
 30
0.0
  0
VERTEX
  5
76F
  8
002
 62
     3
 10
1004.878358
 20
167.404563
 30
0.0
  0
VERTEX
  5
770
  8
002
 62
     3
 10
1005.213598
 20
167.516189
 30
0.0
  0
VERTEX
  5
771
  8
002
 62
     3
 10
1005.556132
 20
167.598603
 30
0.0
  0
VERTEX
  5
772
  8
002
 62
     3
 10
1005.91602
 20
167.647231
 30
0.0
  0
VERTEX
  5
773
  8
002
 62
     3
 10
1006.279461
 20
167.674656
 30
0.0
  0
SEQEND
  5
764
  8
002
 62
     3
  0
LINE
  5
774
  8
002
 62
     3
 10
1057.143518
 20
167.674656
 30
0.0
 11
1006.279461
 21
167.674656
 31
0.0
  0
LINE
  5
775
  8
002
 62
     3
 10
1057.143518
 20
217.674656
 30
0.0
 11
1006.279461
 21
217.674656
 31
0.0
  0
LINE
  5
776
  8
002
 62
     3
 10
1074.71149
 20
219.674656
 30
0.0
 11
988.71149
 21
219.674656
 31
0.0
  0
LINE
  5
777
  8
002
 62
     3
 10
1078.71149
 20
167.674656
 30
0.0
 11
1078.71149
 21
211.674656
 31
0.0
  0
LINE
  5
778
  8
002
 62
     3
 10
984.71149
 20
167.674656
 30
0.0
 11
984.71149
 21
211.674656
 31
0.0
  0
POLYLINE
  5
779
  8
002
 62
     3
 66
     1
 10
0.0
 20
0.0
 30
0.0
  0
VERTEX
  5
77B
  8
002
 62
     3
 10
1075.621482
 20
211.674656
 30
0.0
  0
VERTEX
  5
77C
  8
002
 62
     3
 10
1075.499493
 20
211.685583
 30
0.0
  0
VERTEX
  5
77D
  8
002
 62
     3
 10
1075.379971
 20
211.707615
 30
0.0
  0
VERTEX
  5
77E
  8
002
 62
     3
 10
1075.272021
 20
211.746359
 30
0.0
  0
VERTEX
  5
77F
  8
002
 62
     3
 10
1075.17078
 20
211.801619
 30
0.0
  0
VERTEX
  5
780
  8
002
 62
     3
 10
1075.055413
 20
211.890785
 30
0.0
  0
VERTEX
  5
781
  8
002
 62
     3
 10
1074.956505
 20
211.997564
 30
0.0
  0
VERTEX
  5
782
  8
002
 62
     3
 10
1074.874599
 20
212.119454
 30
0.0
  0
VERTEX
  5
783
  8
002
 62
     3
 10
1074.809468
 20
212.251457
 30
0.0
  0
VERTEX
  5
784
  8
002
 62
     3
 10
1074.766705
 20
212.367844
 30
0.0
  0
VERTEX
  5
785
  8
002
 62
     3
 10
1074.736679
 20
212.487687
 30
0.0
  0
VERTEX
  5
786
  8
002
 62
     3
 10
1074.72092
 20
212.59995
 30
0.0
  0
VERTEX
  5
787
  8
002
 62
     3
 10
1074.71149
 20
212.713289
 30
0.0
  0
SEQEND
  5
77A
  8
002
 62
     3
  0
POLYLINE
  5
788
  8
002
 62
     3
 66
     1
 10
0.0
 20
0.0
 30
0.0
  0
VERTEX
  5
78A
  8
002
 62
     3
 10
1074.71149
 20
166.636022
 30
0.0
  0
VERTEX
  5
78B
  8
002
 62
     3
 10
1074.732905
 20
166.813618
 30
0.0
  0
VERTEX
  5
78C
  8
002
 62
     3
 10
1074.769482
 20
166.987888
 30
0.0
  0
VERTEX
  5
78D
  8
002
 62
     3
 10
1074.842249
 20
167.172983
 30
0.0
  0
VERTEX
  5
78E
  8
002
 62
     3
 10
1074.948542
 20
167.341474
 30
0.0
  0
VERTEX
  5
78F
  8
002
 62
     3
 10
1075.023478
 20
167.427567
 30
0.0
  0
VERTEX
  5
790
  8
002
 62
     3
 10
1075.108477
 20
167.503792
 30
0.0
  0
VERTEX
  5
791
  8
002
 62
     3
 10
1075.209605
 20
167.571685
 30
0.0
  0
VERTEX
  5
792
  8
002
 62
     3
 10
1075.319774
 20
167.621887
 30
0.0
  0
VERTEX
  5
793
  8
002
 62
     3
 10
1075.468062
 20
167.657251
 30
0.0
  0
VERTEX
  5
794
  8
002
 62
     3
 10
1075.621482
 20
167.674656
 30
0.0
  0
SEQEND
  5
789
  8
002
 62
     3
  0
POLYLINE
  5
795
  8
002
 62
     3
 66
     1
 10
0.0
 20
0.0
 30
0.0
  0
VERTEX
  5
797
  8
002
 62
     3
 10
987.801498
 20
167.674656
 30
0.0
  0
VERTEX
  5
798
  8
002
 62
     3
 10
987.923487
 20
167.663728
 30
0.0
  0
VERTEX
  5
799
  8
002
 62
     3
 10
988.043009
 20
167.641696
 30
0.0
  0
VERTEX
  5
79A
  8
002
 62
     3
 10
988.150959
 20
167.602952
 30
0.0
  0
VERTEX
  5
79B
  8
002
 62
     3
 10
988.2522
 20
167.547693
 30
0.0
  0
VERTEX
  5
79C
  8
002
 62
     3
 10
988.367567
 20
167.458526
 30
0.0
  0
VERTEX
  5
79D
  8
002
 62
     3
 10
988.466475
 20
167.351747
 30
0.0
  0
VERTEX
  5
79E
  8
002
 62
     3
 10
988.548381
 20
167.229857
 30
0.0
  0
VERTEX
  5
79F
  8
002
 62
     3
 10
988.613512
 20
167.097854
 30
0.0
  0
VERTEX
  5
7A0
  8
002
 62
     3
 10
988.656275
 20
166.981467
 30
0.0
  0
VERTEX
  5
7A1
  8
002
 62
     3
 10
988.686301
 20
166.861624
 30
0.0
  0
VERTEX
  5
7A2
  8
002
 62
     3
 10
988.702059
 20
166.749361
 30
0.0
  0
VERTEX
  5
7A3
  8
002
 62
     3
 10
988.71149
 20
166.636022
 30
0.0
  0
SEQEND
  5
796
  8
002
 62
     3
  0
POLYLINE
  5
7A4
  8
002
 62
     3
 66
     1
 10
0.0
 20
0.0
 30
0.0
  0
VERTEX
  5
7A6
  8
002
 62
     3
 10
988.71149
 20
212.713289
 30
0.0
  0
VERTEX
  5
7A7
  8
002
 62
     3
 10
988.690075
 20
212.535693
 30
0.0
  0
VERTEX
  5
7A8
  8
002
 62
     3
 10
988.653498
 20
212.361423
 30
0.0
  0
VERTEX
  5
7A9
  8
002
 62
     3
 10
988.580731
 20
212.176328
 30
0.0
  0
VERTEX
  5
7AA
  8
002
 62
     3
 10
988.474438
 20
212.007838
 30
0.0
  0
VERTEX
  5
7AB
  8
002
 62
     3
 10
988.399502
 20
211.921744
 30
0.0
  0
VERTEX
  5
7AC
  8
002
 62
     3
 10
988.314503
 20
211.84552
 30
0.0
  0
VERTEX
  5
7AD
  8
002
 62
     3
 10
988.213375
 20
211.777626
 30
0.0
  0
VERTEX
  5
7AE
  8
002
 62
     3
 10
988.103206
 20
211.727424
 30
0.0
  0
VERTEX
  5
7AF
  8
002
 62
     3
 10
987.954918
 20
211.69206
 30
0.0
  0
VERTEX
  5
7B0
  8
002
 62
     3
 10
987.801498
 20
211.674656
 30
0.0
  0
SEQEND
  5
7A5
  8
002
 62
     3
  0
LINE
  5
7B1
  8
002
 62
     3
 10
1059.21149
 20
254.674656
 30
0.0
 11
1004.21149
 21
254.674656
 31
0.0
  0
LINE
  5
7B2
  8
002
 62
     3
 10
1003.21149
 20
253.674656
 30
0.0
 11
1003.21149
 21
219.674656
 31
0.0
  0
LINE
  5
7B3
  8
002
 62
     3
 10
1060.21149
 20
253.674656
 30
0.0
 11
1060.21149
 21
219.674656
 31
0.0
  0
LINE
  5
7B4
  8
002
 62
     3
 10
1004.21149
 20
254.674656
 30
0.0
 11
1003.21149
 21
253.674656
 31
0.0
  0
LINE
  5
7B5
  8
002
 62
     3
 10
1059.21149
 20
254.674656
 30
0.0
 11
1060.21149
 21
253.674656
 31
0.0
  0
LINE
  5
7B6
  8
002
 62
     3
 10
1151.90849
 20
219.674656
 30
0.0
 11
1151.90849
 21
159.674656
 31
0.0
  0
LINE
  5
7B7
  8
002
 62
     3
 10
1262.90849
 20
219.674656
 30
0.0
 11
1262.90849
 21
159.674656
 31
0.0
  0
LINE
  5
7B8
  8
002
 62
     3
 10
1167.90849
 20
219.674656
 30
0.0
 11
1167.90849
 21
159.674656
 31
0.0
  0
LINE
  5
7B9
  8
002
 62
     3
 10
1262.90849
 20
219.674656
 30
0.0
 11
1246.90849
 21
219.674656
 31
0.0
  0
LINE
  5
7BA
  8
002
 62
     3
 10
1246.90849
 20
159.674656
 30
0.0
 11
1262.90849
 21
159.674656
 31
0.0
  0
LINE
  5
7BB
  8
002
 62
     3
 10
1230.90849
 20
213.674656
 30
0.0
 11
1230.90849
 21
217.674656
 31
0.0
  0
LINE
  5
7BC
  8
002
 62
     3
 10
1246.90849
 20
165.674656
 30
0.0
 11
1246.90849
 21
159.674656
 31
0.0
  0
LINE
  5
7BD
  8
002
 62
     3
 10
1246.90849
 20
213.674656
 30
0.0
 11
1246.90849
 21
219.674656
 31
0.0
  0
ARC
  5
7BE
  8
002
 62
     3
 10
1224.40849
 20
165.674656
 30
0.0
 40
2.0
 50
90.0
 51
180.0
  0
LINE
  5
7BF
  8
002
 62
     3
 10
1222.40849
 20
165.674656
 30
0.0
 11
1222.40849
 21
159.674656
 31
0.0
  0
LINE
  5
7C0
  8
002
 62
     3
 10
1169.90849
 20
217.674656
 30
0.0
 11
1230.90849
 21
217.674656
 31
0.0
  0
ARC
  5
7C1
  8
002
 62
     3
 10
1169.90849
 20
219.674656
 30
0.0
 40
2.0
 50
180.0
 51
270.0
  0
ARC
  5
7C2
  8
002
 62
     3
 10
1244.90849
 20
213.674656
 30
0.0
 40
2.0
 50
270.0
 51
0.0
  0
ARC
  5
7C3
  8
002
 62
     3
 10
1232.90849
 20
213.674656
 30
0.0
 40
2.0
 50
180.0
 51
270.0
  0
ARC
  5
7C4
  8
002
 62
     3
 10
1244.90849
 20
165.674656
 30
0.0
 40
2.0
 50
0.0
 51
90.0
  0
LINE
  5
7C5
  8
002
 62
     3
 10
1204.90849
 20
209.674656
 30
0.0
 11
1204.90849
 21
169.674656
 31
0.0
  0
LINE
  5
7C6
  8
002
 62
     3
 10
1246.90849
 20
211.674656
 30
0.0
 11
1206.90849
 21
211.674656
 31
0.0
  0
LINE
  5
7C7
  8
002
 62
     3
 10
1248.90849
 20
169.674656
 30
0.0
 11
1248.90849
 21
209.674656
 31
0.0
  0
LINE
  5
7C8
  8
002
 62
     3
 10
1246.90849
 20
167.674656
 30
0.0
 11
1206.90849
 21
167.674656
 31
0.0
  0
ARC
  5
7C9
  8
002
 62
     3
 10
1206.90849
 20
169.674656
 30
0.0
 40
2.0
 50
180.0
 51
270.0
  0
ARC
  5
7CA
  8
002
 62
     3
 10
1206.90849
 20
209.674656
 30
0.0
 40
2.0
 50
90.0
 51
180.0
  0
ARC
  5
7CB
  8
002
 62
     3
 10
1246.90849
 20
209.674656
 30
0.0
 40
2.0
 50
0.0
 51
90.0
  0
ARC
  5
7CC
  8
002
 62
     3
 10
1246.90849
 20
169.674656
 30
0.0
 40
2.0
 50
270.0
 51
0.0
  0
LINE
  5
7CD
  8
002
 62
     3
 10
1222.40849
 20
159.674656
 30
0.0
 11
1151.90849
 21
159.674656
 31
0.0
  0
LINE
  5
7CE
  8
002
 62
     3
 10
1225.19429
 20
173.792056
 30
0.0
 11
1225.19429
 21
175.846056
 31
0.0
  0
CIRCLE
  5
7CF
  8
002
 62
     3
 10
1222.90849
 20
175.846056
 30
0.0
 40
1.0
  0
ARC
  5
7D0
  8
002
 62
     3
 10
1222.90849
 20
175.846056
 30
0.0
 40
2.285799999999995
 50
0.0
 51
134.849339
  0
LINE
  5
7D1
  8
002
 62
     3
 10
1228.62279
 20
175.846056
 30
0.0
 11
1228.62279
 21
173.792056
 31
0.0
  0
ARC
  5
7D2
  8
002
 62
     3
 10
1230.90849
 20
175.846056
 30
0.0
 40
2.285730572486588
 50
45.150661
 51
180.0
  0
ARC
  5
7D3
  8
002
 62
     3
 10
1234.13249
 20
179.087056
 30
0.0
 40
2.285730572486588
 50
225.150661
 51
306.868895
  0
CIRCLE
  5
7D4
  8
002
 62
     3
 10
1230.90849
 20
175.846056
 30
0.0
 40
1.0
  0
ARC
  5
7D5
  8
002
 62
     3
 10
1219.68459
 20
179.087056
 30
0.0
 40
2.28572000035006
 50
233.131105
 51
314.847561
  0
ARC
  5
7D6
  8
002
 62
     3
 10
1226.90849
 20
188.719756
 30
0.0
 40
14.32628000738505
 50
306.868058
 51
233.132262
  0
LINE
  5
7D7
  8
002
 62
     3
 10
1229.15849
 20
194.174656
 30
0.0
 11
1224.65849
 21
194.174656
 31
0.0
  0
LINE
  5
7D8
  8
002
 62
     3
 10
1224.65849
 20
194.174656
 30
0.0
 11
1224.40849
 21
194.424656
 31
0.0
  0
LINE
  5
7D9
  8
002
 62
     3
 10
1224.40849
 20
194.424656
 30
0.0
 11
1224.40849
 21
198.924656
 31
0.0
  0
LINE
  5
7DA
  8
002
 62
     3
 10
1224.40849
 20
198.924656
 30
0.0
 11
1224.65849
 21
199.174656
 31
0.0
  0
LINE
  5
7DB
  8
002
 62
     3
 10
1224.65849
 20
199.174656
 30
0.0
 11
1229.15849
 21
199.174656
 31
0.0
  0
LINE
  5
7DC
  8
002
 62
     3
 10
1229.15849
 20
199.174656
 30
0.0
 11
1229.40849
 21
198.924656
 31
0.0
  0
LINE
  5
7DD
  8
002
 62
     3
 10
1229.40849
 20
198.924656
 30
0.0
 11
1229.40849
 21
194.424656
 31
0.0
  0
LINE
  5
7DE
  8
002
 62
     3
 10
1229.40849
 20
194.424656
 30
0.0
 11
1229.15849
 21
194.174656
 31
0.0
  0
ARC
  5
7DF
  8
002
 62
     3
 10
1229.20849
 20
194.374656
 30
0.0
 40
0.1999999999999886
 50
270.0
 51
0.0
  0
ARC
  5
7E0
  8
002
 62
     3
 10
1226.90849
 20
189.674656
 30
0.0
 40
7.499936066394191
 50
109.471393
 51
70.528607
  0
ARC
  5
7E1
  8
002
 62
     3
 10
1224.60849
 20
194.374656
 30
0.0
 40
0.2000000000000455
 50
180.0
 51
270.0
  0
CIRCLE
  5
7E2
  8
002
 62
     3
 10
1226.90849
 20
189.674656
 30
0.0
 40
16.0
  0
LINE
  5
7E3
  8
002
  6
CENTER
 62
    40
 10
1159.90849
 20
155.262456
 30
0.0
 11
1159.90849
 21
224.569356
 31
0.0
  0
LINE
  5
7E4
  8
002
  6
CENTER
 62
    40
 10
1254.90859
 20
155.262456
 30
0.0
 11
1254.90859
 21
224.569356
 31
0.0
  0
LINE
  5
7E5
  8
002
  6
CENTER
 62
    40
 10
1226.90849
 20
219.674656
 30
0.0
 11
1226.90849
 21
158.223202
 31
0.0
  0
LINE
  5
7E6
  8
002
 62
     3
 10
1167.90849
 20
219.674656
 30
0.0
 11
1151.90849
 21
219.674656
 31
0.0
  0
LINE
  5
7E7
  8
002
 62
     3
 10
1222.40849
 20
254.674656
 30
0.0
 11
1167.40849
 21
254.674656
 31
0.0
  0
ARC
  5
7E8
  8
002
 62
     3
 10
1224.40849
 20
219.674656
 30
0.0
 40
1.0
 50
180.0
 51
270.0
  0
LINE
  5
7E9
  8
002
 62
     3
 10
1166.40849
 20
253.674656
 30
0.0
 11
1166.40849
 21
219.674656
 31
0.0
  0
LINE
  5
7EA
  8
002
 62
     3
 10
1223.40849
 20
253.674656
 30
0.0
 11
1223.40849
 21
219.674656
 31
0.0
  0
LINE
  5
7EB
  8
002
 62
     3
 10
1167.40849
 20
254.674656
 30
0.0
 11
1166.40849
 21
253.674656
 31
0.0
  0
LINE
  5
7EC
  8
002
 62
     3
 10
1222.40849
 20
254.674656
 30
0.0
 11
1223.40849
 21
253.674656
 31
0.0
  0
LINE
  5
7ED
  8
002
 62
    40
 10
1224.90849
 20
217.674656
 30
0.0
 11
1224.90849
 21
218.674656
 31
0.0
  0
LINE
  5
7EE
  8
002
 62
     3
 10
1225.90849
 20
217.674656
 30
0.0
 11
1225.90849
 21
218.674656
 31
0.0
  0
LINE
  5
7EF
  8
002
 62
     3
 10
1168.176439
 20
218.674656
 30
0.0
 11
1225.90849
 21
218.674656
 31
0.0
  0
LINE
  5
7F0
  8
002
 62
     3
 10
1406.884611
 20
159.674656
 30
0.0
 11
1406.884611
 21
219.674656
 31
0.0
  0
LINE
  5
7F1
  8
002
 62
     3
 10
1422.884611
 20
159.674656
 30
0.0
 11
1422.884611
 21
219.674656
 31
0.0
  0
LINE
  5
7F2
  8
002
 62
     3
 10
1336.884611
 20
219.674656
 30
0.0
 11
1336.884611
 21
159.674656
 31
0.0
  0
LINE
  5
7F3
  8
002
 62
     3
 10
1352.884611
 20
219.674656
 30
0.0
 11
1352.884611
 21
159.674656
 31
0.0
  0
POLYLINE
  5
7F4
  8
002
 62
     3
 66
     1
 10
0.0
 20
0.0
 30
0.0
  0
VERTEX
  5
7F6
  8
002
 62
     3
 10
1406.884611
 20
212.713289
 30
0.0
  0
VERTEX
  5
7F7
  8
002
 62
     3
 10
1406.863196
 20
212.535693
 30
0.0
  0
VERTEX
  5
7F8
  8
002
 62
     3
 10
1406.826619
 20
212.361423
 30
0.0
  0
VERTEX
  5
7F9
  8
002
 62
     3
 10
1406.753853
 20
212.176328
 30
0.0
  0
VERTEX
  5
7FA
  8
002
 62
     3
 10
1406.647559
 20
212.007838
 30
0.0
  0
VERTEX
  5
7FB
  8
002
 62
     3
 10
1406.572623
 20
211.921744
 30
0.0
  0
VERTEX
  5
7FC
  8
002
 62
     3
 10
1406.487625
 20
211.84552
 30
0.0
  0
VERTEX
  5
7FD
  8
002
 62
     3
 10
1406.386496
 20
211.777626
 30
0.0
  0
VERTEX
  5
7FE
  8
002
 62
     3
 10
1406.276328
 20
211.727424
 30
0.0
  0
VERTEX
  5
7FF
  8
002
 62
     3
 10
1406.12804
 20
211.69206
 30
0.0
  0
VERTEX
  5
800
  8
002
 62
     3
 10
1405.97462
 20
211.674656
 30
0.0
  0
SEQEND
  5
7F5
  8
002
 62
     3
  0
POLYLINE
  5
801
  8
002
 62
     3
 66
     1
 10
0.0
 20
0.0
 30
0.0
  0
VERTEX
  5
803
  8
002
 62
     3
 10
1423.794603
 20
167.674656
 30
0.0
  0
VERTEX
  5
804
  8
002
 62
     3
 10
1423.672614
 20
167.663728
 30
0.0
  0
VERTEX
  5
805
  8
002
 62
     3
 10
1423.553092
 20
167.641696
 30
0.0
  0
VERTEX
  5
806
  8
002
 62
     3
 10
1423.445143
 20
167.602952
 30
0.0
  0
VERTEX
  5
807
  8
002
 62
     3
 10
1423.343901
 20
167.547693
 30
0.0
  0
VERTEX
  5
808
  8
002
 62
     3
 10
1423.228535
 20
167.458526
 30
0.0
  0
VERTEX
  5
809
  8
002
 62
     3
 10
1423.129626
 20
167.351747
 30
0.0
  0
VERTEX
  5
80A
  8
002
 62
     3
 10
1423.04772
 20
167.229857
 30
0.0
  0
VERTEX
  5
80B
  8
002
 62
     3
 10
1422.982589
 20
167.097854
 30
0.0
  0
VERTEX
  5
80C
  8
002
 62
     3
 10
1422.939826
 20
166.981467
 30
0.0
  0
VERTEX
  5
80D
  8
002
 62
     3
 10
1422.9098
 20
166.861624
 30
0.0
  0
VERTEX
  5
80E
  8
002
 62
     3
 10
1422.894042
 20
166.749361
 30
0.0
  0
VERTEX
  5
80F
  8
002
 62
     3
 10
1422.884611
 20
166.636022
 30
0.0
  0
SEQEND
  5
802
  8
002
 62
     3
  0
POLYLINE
  5
810
  8
002
 62
     3
 66
     1
 10
0.0
 20
0.0
 30
0.0
  0
VERTEX
  5
812
  8
002
 62
     3
 10
1422.884611
 20
212.713289
 30
0.0
  0
VERTEX
  5
813
  8
002
 62
     3
 10
1422.906026
 20
212.535693
 30
0.0
  0
VERTEX
  5
814
  8
002
 62
     3
 10
1422.942603
 20
212.361423
 30
0.0
  0
VERTEX
  5
815
  8
002
 62
     3
 10
1423.01537
 20
212.176328
 30
0.0
  0
VERTEX
  5
816
  8
002
 62
     3
 10
1423.121664
 20
212.007838
 30
0.0
  0
VERTEX
  5
817
  8
002
 62
     3
 10
1423.1966
 20
211.921744
 30
0.0
  0
VERTEX
  5
818
  8
002
 62
     3
 10
1423.281598
 20
211.84552
 30
0.0
  0
VERTEX
  5
819
  8
002
 62
     3
 10
1423.382727
 20
211.777626
 30
0.0
  0
VERTEX
  5
81A
  8
002
 62
     3
 10
1423.492895
 20
211.727424
 30
0.0
  0
VERTEX
  5
81B
  8
002
 62
     3
 10
1423.641183
 20
211.69206
 30
0.0
  0
VERTEX
  5
81C
  8
002
 62
     3
 10
1423.794603
 20
211.674656
 30
0.0
  0
SEQEND
  5
811
  8
002
 62
     3
  0
POLYLINE
  5
81D
  8
002
 62
     3
 66
     1
 10
0.0
 20
0.0
 30
0.0
  0
VERTEX
  5
81F
  8
002
 62
     3
 10
1405.97462
 20
167.674656
 30
0.0
  0
VERTEX
  5
820
  8
002
 62
     3
 10
1406.096608
 20
167.663728
 30
0.0
  0
VERTEX
  5
821
  8
002
 62
     3
 10
1406.216131
 20
167.641696
 30
0.0
  0
VERTEX
  5
822
  8
002
 62
     3
 10
1406.32408
 20
167.602952
 30
0.0
  0
VERTEX
  5
823
  8
002
 62
     3
 10
1406.425322
 20
167.547693
 30
0.0
  0
VERTEX
  5
824
  8
002
 62
     3
 10
1406.540688
 20
167.458526
 30
0.0
  0
VERTEX
  5
825
  8
002
 62
     3
 10
1406.639596
 20
167.351747
 30
0.0
  0
VERTEX
  5
826
  8
002
 62
     3
 10
1406.721502
 20
167.229857
 30
0.0
  0
VERTEX
  5
827
  8
002
 62
     3
 10
1406.786633
 20
167.097854
 30
0.0
  0
VERTEX
  5
828
  8
002
 62
     3
 10
1406.829397
 20
166.981467
 30
0.0
  0
VERTEX
  5
829
  8
002
 62
     3
 10
1406.859423
 20
166.861624
 30
0.0
  0
VERTEX
  5
82A
  8
002
 62
     3
 10
1406.875181
 20
166.749361
 30
0.0
  0
VERTEX
  5
82B
  8
002
 62
     3
 10
1406.884611
 20
166.636022
 30
0.0
  0
SEQEND
  5
81E
  8
002
 62
     3
  0
POLYLINE
  5
82C
  8
002
 62
     3
 66
     1
 10
0.0
 20
0.0
 30
0.0
  0
VERTEX
  5
82E
  8
002
 62
     3
 10
1352.884611
 20
166.636022
 30
0.0
  0
VERTEX
  5
82F
  8
002
 62
     3
 10
1352.906026
 20
166.813618
 30
0.0
  0
VERTEX
  5
830
  8
002
 62
     3
 10
1352.942603
 20
166.987888
 30
0.0
  0
VERTEX
  5
831
  8
002
 62
     3
 10
1353.01537
 20
167.172983
 30
0.0
  0
VERTEX
  5
832
  8
002
 62
     3
 10
1353.121664
 20
167.341474
 30
0.0
  0
VERTEX
  5
833
  8
002
 62
     3
 10
1353.1966
 20
167.427567
 30
0.0
  0
VERTEX
  5
834
  8
002
 62
     3
 10
1353.281598
 20
167.503792
 30
0.0
  0
VERTEX
  5
835
  8
002
 62
     3
 10
1353.382727
 20
167.571685
 30
0.0
  0
VERTEX
  5
836
  8
002
 62
     3
 10
1353.492895
 20
167.621887
 30
0.0
  0
VERTEX
  5
837
  8
002
 62
     3
 10
1353.641183
 20
167.657251
 30
0.0
  0
VERTEX
  5
838
  8
002
 62
     3
 10
1353.794603
 20
167.674656
 30
0.0
  0
SEQEND
  5
82D
  8
002
 62
     3
  0
POLYLINE
  5
839
  8
002
 62
     3
 66
     1
 10
0.0
 20
0.0
 30
0.0
  0
VERTEX
  5
83B
  8
002
 62
     3
 10
1335.97462
 20
211.674656
 30
0.0
  0
VERTEX
  5
83C
  8
002
 62
     3
 10
1336.096608
 20
211.685583
 30
0.0
  0
VERTEX
  5
83D
  8
002
 62
     3
 10
1336.216131
 20
211.707615
 30
0.0
  0
VERTEX
  5
83E
  8
002
 62
     3
 10
1336.32408
 20
211.746359
 30
0.0
  0
VERTEX
  5
83F
  8
002
 62
     3
 10
1336.425322
 20
211.801619
 30
0.0
  0
VERTEX
  5
840
  8
002
 62
     3
 10
1336.540688
 20
211.890785
 30
0.0
  0
VERTEX
  5
841
  8
002
 62
     3
 10
1336.639596
 20
211.997564
 30
0.0
  0
VERTEX
  5
842
  8
002
 62
     3
 10
1336.721502
 20
212.119454
 30
0.0
  0
VERTEX
  5
843
  8
002
 62
     3
 10
1336.786633
 20
212.251457
 30
0.0
  0
VERTEX
  5
844
  8
002
 62
     3
 10
1336.829397
 20
212.367844
 30
0.0
  0
VERTEX
  5
845
  8
002
 62
     3
 10
1336.859423
 20
212.487687
 30
0.0
  0
VERTEX
  5
846
  8
002
 62
     3
 10
1336.875181
 20
212.59995
 30
0.0
  0
VERTEX
  5
847
  8
002
 62
     3
 10
1336.884611
 20
212.713289
 30
0.0
  0
SEQEND
  5
83A
  8
002
 62
     3
  0
POLYLINE
  5
848
  8
002
 62
     3
 66
     1
 10
0.0
 20
0.0
 30
0.0
  0
VERTEX
  5
84A
  8
002
 62
     3
 10
1336.884611
 20
166.636022
 30
0.0
  0
VERTEX
  5
84B
  8
002
 62
     3
 10
1336.863196
 20
166.813618
 30
0.0
  0
VERTEX
  5
84C
  8
002
 62
     3
 10
1336.826619
 20
166.987888
 30
0.0
  0
VERTEX
  5
84D
  8
002
 62
     3
 10
1336.753853
 20
167.172983
 30
0.0
  0
VERTEX
  5
84E
  8
002
 62
     3
 10
1336.647559
 20
167.341474
 30
0.0
  0
VERTEX
  5
84F
  8
002
 62
     3
 10
1336.572623
 20
167.427567
 30
0.0
  0
VERTEX
  5
850
  8
002
 62
     3
 10
1336.487625
 20
167.503792
 30
0.0
  0
VERTEX
  5
851
  8
002
 62
     3
 10
1336.386496
 20
167.571685
 30
0.0
  0
VERTEX
  5
852
  8
002
 62
     3
 10
1336.276328
 20
167.621887
 30
0.0
  0
VERTEX
  5
853
  8
002
 62
     3
 10
1336.12804
 20
167.657251
 30
0.0
  0
VERTEX
  5
854
  8
002
 62
     3
 10
1335.97462
 20
167.674656
 30
0.0
  0
SEQEND
  5
849
  8
002
 62
     3
  0
POLYLINE
  5
855
  8
002
 62
     3
 66
     1
 10
0.0
 20
0.0
 30
0.0
  0
VERTEX
  5
857
  8
002
 62
     3
 10
1353.794603
 20
211.674656
 30
0.0
  0
VERTEX
  5
858
  8
002
 62
     3
 10
1353.672614
 20
211.685583
 30
0.0
  0
VERTEX
  5
859
  8
002
 62
     3
 10
1353.553092
 20
211.707615
 30
0.0
  0
VERTEX
  5
85A
  8
002
 62
     3
 10
1353.445143
 20
211.746359
 30
0.0
  0
VERTEX
  5
85B
  8
002
 62
     3
 10
1353.343901
 20
211.801619
 30
0.0
  0
VERTEX
  5
85C
  8
002
 62
     3
 10
1353.228535
 20
211.890785
 30
0.0
  0
VERTEX
  5
85D
  8
002
 62
     3
 10
1353.129626
 20
211.997564
 30
0.0
  0
VERTEX
  5
85E
  8
002
 62
     3
 10
1353.04772
 20
212.119454
 30
0.0
  0
VERTEX
  5
85F
  8
002
 62
     3
 10
1352.982589
 20
212.251457
 30
0.0
  0
VERTEX
  5
860
  8
002
 62
     3
 10
1352.939826
 20
212.367844
 30
0.0
  0
VERTEX
  5
861
  8
002
 62
     3
 10
1352.9098
 20
212.487687
 30
0.0
  0
VERTEX
  5
862
  8
002
 62
     3
 10
1352.894042
 20
212.59995
 30
0.0
  0
VERTEX
  5
863
  8
002
 62
     3
 10
1352.884611
 20
212.713289
 30
0.0
  0
SEQEND
  5
856
  8
002
 62
     3
  0
LINE
  5
864
  8
002
 62
     3
 10
1426.884611
 20
211.674656
 30
0.0
 11
1426.884611
 21
167.674656
 31
0.0
  0
LINE
  5
865
  8
002
 62
     3
 10
1332.884611
 20
211.674656
 30
0.0
 11
1332.884611
 21
167.674656
 31
0.0
  0
LINE
  5
866
  8
002
 62
     3
 10
1405.97462
 20
167.674656
 30
0.0
 11
1353.794603
 21
167.674656
 31
0.0
  0
LINE
  5
867
  8
002
 62
     3
 10
1405.97462
 20
211.674656
 30
0.0
 11
1353.794603
 21
211.674656
 31
0.0
  0
LINE
  5
868
  8
002
 62
     3
 10
1406.884611
 20
217.674656
 30
0.0
 11
1352.884611
 21
217.674656
 31
0.0
  0
LINE
  5
869
  8
002
 62
     3
 10
1422.884611
 20
219.674656
 30
0.0
 11
1336.884611
 21
219.674656
 31
0.0
  0
ARC
  5
86A
  8
002
 62
     3
 10
1404.884611
 20
219.674656
 30
0.0
 40
2.0
 50
270.0
 51
360.0
  0
ARC
  5
86B
  8
002
 62
     3
 10
1354.884611
 20
219.674656
 30
0.0
 40
2.0
 50
180.0
 51
270.0
  0
LINE
  5
86C
  8
002
 62
     3
 10
1332.884611
 20
167.674656
 30
0.0
 11
1335.97462
 21
167.674656
 31
0.0
  0
LINE
  5
86D
  8
002
 62
     3
 10
1332.884611
 20
211.674656
 30
0.0
 11
1335.97462
 21
211.674656
 31
0.0
  0
LINE
  5
86E
  8
002
 62
     3
 10
1426.884611
 20
211.674656
 30
0.0
 11
1423.794603
 21
211.674656
 31
0.0
  0
LINE
  5
86F
  8
002
 62
     3
 10
1426.884611
 20
167.674656
 30
0.0
 11
1423.794603
 21
167.674656
 31
0.0
  0
LINE
  5
870
  8
002
 62
     3
 10
1422.884611
 20
159.674656
 30
0.0
 11
1336.884611
 21
159.674656
 31
0.0
  0
LINE
  5
871
  8
002
 62
     3
 10
1332.884611
 20
182.174656
 30
0.0
 11
1305.884571
 21
182.174656
 31
0.0
  0
LINE
  5
872
  8
002
 62
     3
 10
1305.884571
 20
182.174656
 30
0.0
 11
1304.884571
 21
183.174656
 31
0.0
  0
LINE
  5
873
  8
002
 62
     3
 10
1304.884571
 20
183.174656
 30
0.0
 11
1304.884571
 21
199.174656
 31
0.0
  0
LINE
  5
874
  8
002
 62
     3
 10
1304.884571
 20
199.174656
 30
0.0
 11
1326.884611
 21
199.174656
 31
0.0
  0
LINE
  5
875
  8
002
 62
     3
 10
1326.884611
 20
199.174656
 30
0.0
 11
1326.884611
 21
196.745756
 31
0.0
  0
LINE
  5
876
  8
002
 62
     3
 10
1326.884611
 20
196.745756
 30
0.0
 11
1329.384611
 21
197.174656
 31
0.0
  0
LINE
  5
877
  8
002
 62
     3
 10
1329.384611
 20
197.174656
 30
0.0
 11
1332.884611
 21
197.174656
 31
0.0
  0
LINE
  5
878
  8
002
 62
     3
 10
1426.884611
 20
197.174656
 30
0.0
 11
1430.384611
 21
197.174656
 31
0.0
  0
LINE
  5
879
  8
002
 62
     3
 10
1430.384611
 20
197.174656
 30
0.0
 11
1432.884611
 21
196.745756
 31
0.0
  0
LINE
  5
87A
  8
002
 62
     3
 10
1432.884611
 20
196.745756
 30
0.0
 11
1432.884611
 21
199.174656
 31
0.0
  0
LINE
  5
87B
  8
002
 62
     3
 10
1432.884611
 20
199.174656
 30
0.0
 11
1454.884611
 21
199.174656
 31
0.0
  0
LINE
  5
87C
  8
002
 62
     3
 10
1454.884611
 20
199.174656
 30
0.0
 11
1454.884611
 21
183.174656
 31
0.0
  0
LINE
  5
87D
  8
002
 62
     3
 10
1454.884611
 20
183.174656
 30
0.0
 11
1453.884611
 21
182.174656
 31
0.0
  0
LINE
  5
87E
  8
002
 62
     3
 10
1453.884611
 20
182.174656
 30
0.0
 11
1426.884611
 21
182.174656
 31
0.0
  0
LINE
  5
87F
  8
002
 62
     3
 10
1326.884611
 20
196.745756
 30
0.0
 11
1305.455641
 21
196.745756
 31
0.0
  0
LINE
  5
880
  8
002
 62
     3
 10
1305.455641
 20
196.745756
 30
0.0
 11
1304.884571
 21
196.174656
 31
0.0
  0
LINE
  5
881
  8
002
 62
     3
 10
1305.884571
 20
196.745756
 30
0.0
 11
1305.884571
 21
182.174656
 31
0.0
  0
LINE
  5
882
  8
002
 62
     3
 10
1432.884611
 20
196.745756
 30
0.0
 11
1454.313511
 21
196.745756
 31
0.0
  0
LINE
  5
883
  8
002
 62
     3
 10
1454.313511
 20
196.745756
 30
0.0
 11
1454.884611
 21
196.174656
 31
0.0
  0
LINE
  5
884
  8
002
 62
     3
 10
1453.884611
 20
196.745756
 30
0.0
 11
1453.884611
 21
182.174656
 31
0.0
  0
LINE
  5
885
  8
002
 62
     3
 10
1407.384611
 20
254.674656
 30
0.0
 11
1352.384611
 21
254.674656
 31
0.0
  0
LINE
  5
886
  8
002
 62
     3
 10
1351.384611
 20
253.674656
 30
0.0
 11
1351.384611
 21
219.674656
 31
0.0
  0
LINE
  5
887
  8
002
 62
     3
 10
1408.384611
 20
253.674656
 30
0.0
 11
1408.384611
 21
219.674656
 31
0.0
  0
LINE
  5
888
  8
002
 62
     3
 10
1352.384611
 20
254.674656
 30
0.0
 11
1351.384611
 21
253.674656
 31
0.0
  0
LINE
  5
889
  8
002
 62
     3
 10
1407.384611
 20
254.674656
 30
0.0
 11
1408.384611
 21
253.674656
 31
0.0
  0
LINE
  5
88A
  8
002
 62
     3
 10
1621.51349
 20
219.674656
 30
0.0
 11
1621.51349
 21
159.674656
 31
0.0
  0
LINE
  5
88B
  8
002
 62
     3
 10
1732.51349
 20
219.674656
 30
0.0
 11
1732.51349
 21
159.674656
 31
0.0
  0
LINE
  5
88C
  8
002
 62
     3
 10
1637.51349
 20
219.674656
 30
0.0
 11
1637.51349
 21
159.674656
 31
0.0
  0
LINE
  5
88D
  8
002
 62
     3
 10
1732.51349
 20
219.674656
 30
0.0
 11
1716.51349
 21
219.674656
 31
0.0
  0
LINE
  5
88E
  8
002
 62
     3
 10
1716.51349
 20
159.674656
 30
0.0
 11
1732.51349
 21
159.674656
 31
0.0
  0
LINE
  5
88F
  8
002
 62
     3
 10
1700.51349
 20
213.674656
 30
0.0
 11
1700.51349
 21
217.674656
 31
0.0
  0
LINE
  5
890
  8
002
 62
     3
 10
1716.51349
 20
165.674656
 30
0.0
 11
1716.51349
 21
159.674656
 31
0.0
  0
LINE
  5
891
  8
002
 62
     3
 10
1716.51349
 20
213.674656
 30
0.0
 11
1716.51349
 21
219.674656
 31
0.0
  0
ARC
  5
892
  8
002
 62
     3
 10
1694.01349
 20
165.674656
 30
0.0
 40
2.0
 50
90.0
 51
180.0
  0
LINE
  5
893
  8
002
 62
     3
 10
1692.01349
 20
165.674656
 30
0.0
 11
1692.01349
 21
159.674656
 31
0.0
  0
LINE
  5
894
  8
002
 62
     3
 10
1639.51349
 20
217.674656
 30
0.0
 11
1700.51349
 21
217.674656
 31
0.0
  0
ARC
  5
895
  8
002
 62
     3
 10
1639.51349
 20
219.674656
 30
0.0
 40
2.0
 50
180.0
 51
270.0
  0
ARC
  5
896
  8
002
 62
     3
 10
1714.51349
 20
213.674656
 30
0.0
 40
2.0
 50
270.0
 51
0.0
  0
ARC
  5
897
  8
002
 62
     3
 10
1702.51349
 20
213.674656
 30
0.0
 40
2.0
 50
180.0
 51
270.0
  0
ARC
  5
898
  8
002
 62
     3
 10
1714.51349
 20
165.674656
 30
0.0
 40
2.0
 50
0.0
 51
90.0
  0
LINE
  5
899
  8
002
 62
     3
 10
1674.51349
 20
209.674656
 30
0.0
 11
1674.51349
 21
169.674656
 31
0.0
  0
LINE
  5
89A
  8
002
 62
     3
 10
1716.51349
 20
211.674656
 30
0.0
 11
1676.51349
 21
211.674656
 31
0.0
  0
LINE
  5
89B
  8
002
 62
     3
 10
1718.51349
 20
169.674656
 30
0.0
 11
1718.51349
 21
209.674656
 31
0.0
  0
LINE
  5
89C
  8
002
 62
     3
 10
1716.51349
 20
167.674656
 30
0.0
 11
1676.51349
 21
167.674656
 31
0.0
  0
ARC
  5
89D
  8
002
 62
     3
 10
1676.51349
 20
169.674656
 30
0.0
 40
2.0
 50
180.0
 51
270.0
  0
ARC
  5
89E
  8
002
 62
     3
 10
1676.51349
 20
209.674656
 30
0.0
 40
2.0
 50
90.0
 51
180.0
  0
ARC
  5
89F
  8
002
 62
     3
 10
1716.51349
 20
209.674656
 30
0.0
 40
2.0
 50
0.0
 51
90.0
  0
ARC
  5
8A0
  8
002
 62
     3
 10
1716.51349
 20
169.674656
 30
0.0
 40
2.0
 50
270.0
 51
0.0
  0
LINE
  5
8A1
  8
002
 62
     3
 10
1692.01349
 20
159.674656
 30
0.0
 11
1621.51349
 21
159.674656
 31
0.0
  0
LINE
  5
8A2
  8
002
 62
     3
 10
1694.79929
 20
173.792056
 30
0.0
 11
1694.79929
 21
175.846056
 31
0.0
  0
CIRCLE
  5
8A3
  8
002
 62
     3
 10
1692.51349
 20
175.846056
 30
0.0
 40
1.0
  0
ARC
  5
8A4
  8
002
 62
     3
 10
1692.51349
 20
175.846056
 30
0.0
 40
2.285799999999995
 50
0.0
 51
134.849339
  0
LINE
  5
8A5
  8
002
 62
     3
 10
1698.22779
 20
175.846056
 30
0.0
 11
1698.22779
 21
173.792056
 31
0.0
  0
ARC
  5
8A6
  8
002
 62
     3
 10
1700.51349
 20
175.846056
 30
0.0
 40
2.285730572486588
 50
45.150661
 51
180.0
  0
ARC
  5
8A7
  8
002
 62
     3
 10
1703.73749
 20
179.087056
 30
0.0
 40
2.285730572486588
 50
225.150661
 51
306.868895
  0
CIRCLE
  5
8A8
  8
002
 62
     3
 10
1700.51349
 20
175.846056
 30
0.0
 40
1.0
  0
ARC
  5
8A9
  8
002
 62
     3
 10
1689.28959
 20
179.087056
 30
0.0
 40
2.28572000035006
 50
233.131105
 51
314.847561
  0
ARC
  5
8AA
  8
002
 62
     3
 10
1696.51349
 20
188.719756
 30
0.0
 40
14.32628000738505
 50
306.868058
 51
233.132262
  0
LINE
  5
8AB
  8
002
 62
     3
 10
1698.76349
 20
194.174656
 30
0.0
 11
1694.26349
 21
194.174656
 31
0.0
  0
LINE
  5
8AC
  8
002
 62
     3
 10
1694.26349
 20
194.174656
 30
0.0
 11
1694.01349
 21
194.424656
 31
0.0
  0
LINE
  5
8AD
  8
002
 62
     3
 10
1694.01349
 20
194.424656
 30
0.0
 11
1694.01349
 21
198.924656
 31
0.0
  0
LINE
  5
8AE
  8
002
 62
     3
 10
1694.01349
 20
198.924656
 30
0.0
 11
1694.26349
 21
199.174656
 31
0.0
  0
LINE
  5
8AF
  8
002
 62
     3
 10
1694.26349
 20
199.174656
 30
0.0
 11
1698.76349
 21
199.174656
 31
0.0
  0
LINE
  5
8B0
  8
002
 62
     3
 10
1698.76349
 20
199.174656
 30
0.0
 11
1699.01349
 21
198.924656
 31
0.0
  0
LINE
  5
8B1
  8
002
 62
     3
 10
1699.01349
 20
198.924656
 30
0.0
 11
1699.01349
 21
194.424656
 31
0.0
  0
LINE
  5
8B2
  8
002
 62
     3
 10
1699.01349
 20
194.424656
 30
0.0
 11
1698.76349
 21
194.174656
 31
0.0
  0
ARC
  5
8B3
  8
002
 62
     3
 10
1698.81349
 20
194.374656
 30
0.0
 40
0.1999999999999886
 50
270.0
 51
0.0
  0
ARC
  5
8B4
  8
002
 62
     3
 10
1696.51349
 20
189.674656
 30
0.0
 40
7.499936066394191
 50
109.471393
 51
70.528607
  0
ARC
  5
8B5
  8
002
 62
     3
 10
1694.21349
 20
194.374656
 30
0.0
 40
0.2000000000000455
 50
180.0
 51
270.0
  0
CIRCLE
  5
8B6
  8
002
 62
     3
 10
1696.51349
 20
189.674656
 30
0.0
 40
16.0
  0
LINE
  5
8B7
  8
002
  6
CENTER
 62
    40
 10
1629.51349
 20
155.262456
 30
0.0
 11
1629.51349
 21
224.569356
 31
0.0
  0
LINE
  5
8B8
  8
002
  6
CENTER
 62
    40
 10
1724.51359
 20
155.262456
 30
0.0
 11
1724.51359
 21
224.569356
 31
0.0
  0
LINE
  5
8B9
  8
002
  6
CENTER
 62
    40
 10
1696.51349
 20
219.674656
 30
0.0
 11
1696.51349
 21
158.223202
 31
0.0
  0
LINE
  5
8BA
  8
002
 62
     3
 10
1637.51349
 20
219.674656
 30
0.0
 11
1621.51349
 21
219.674656
 31
0.0
  0
LINE
  5
8BB
  8
002
 62
     3
 10
1692.01349
 20
254.674656
 30
0.0
 11
1637.01349
 21
254.674656
 31
0.0
  0
ARC
  5
8BC
  8
002
 62
     3
 10
1694.01349
 20
219.674656
 30
0.0
 40
1.0
 50
180.0
 51
270.0
  0
LINE
  5
8BD
  8
002
 62
     3
 10
1636.01349
 20
253.674656
 30
0.0
 11
1636.01349
 21
219.674656
 31
0.0
  0
LINE
  5
8BE
  8
002
 62
     3
 10
1693.01349
 20
253.674656
 30
0.0
 11
1693.01349
 21
219.674656
 31
0.0
  0
LINE
  5
8BF
  8
002
 62
     3
 10
1637.01349
 20
254.674656
 30
0.0
 11
1636.01349
 21
253.674656
 31
0.0
  0
LINE
  5
8C0
  8
002
 62
     3
 10
1692.01349
 20
254.674656
 30
0.0
 11
1693.01349
 21
253.674656
 31
0.0
  0
LINE
  5
8C1
  8
002
 62
    40
 10
1694.51349
 20
217.674656
 30
0.0
 11
1694.51349
 21
218.674656
 31
0.0
  0
LINE
  5
8C2
  8
002
 62
     3
 10
1695.51349
 20
217.674656
 30
0.0
 11
1695.51349
 21
218.674656
 31
0.0
  0
LINE
  5
8C3
  8
002
 62
     3
 10
1637.781439
 20
218.674656
 30
0.0
 11
1695.51349
 21
218.674656
 31
0.0
  0
ENDSEC
  0
EOF
