  0
SECTION
  2
HEADER
  9
$ACADVER
  1
AC1009
  9
$DWGCODEPAGE
  3
ansi_932
  9
$INSBASE
 10
0.0
 20
0.0
 30
0.0
  9
$EXTMIN
 10
-1.416626
 20
-54.636169
 30
0.0
  9
$EXTMAX
 10
1698.701782
 20
695.304199
 30
0.0
  9
$LIMMIN
 10
0.0
 20
0.0
  9
$LIMMAX
 10
12.0
 20
9.0
  9
$ORTHOMODE
 70
     0
  9
$REGENMODE
 70
     1
  9
$FILLMODE
 70
     1
  9
$QTEXTMODE
 70
     0
  9
$MIRRTEXT
 70
     1
  9
$DRAGMODE
 70
     2
  9
$LTSCALE
 40
18.581747
  9
$OSMODE
 70
    37
  9
$ATTMODE
 70
     1
  9
$TEXTSIZE
 40
3.2
  9
$TRACEWID
 40
1.0
  9
$TEXTSTYLE
  7
STANDARD
  9
$CLAYER
  8
0
  9
$CELTYPE
  6
BYLAYER
  9
$CECOLOR
 62
   256
  9
$DIMSCALE
 40
1.0
  9
$DIMASZ
 40
2.5
  9
$DIMEXO
 40
0.625
  9
$DIMDLI
 40
3.75
  9
$DIMRND
 40
0.0
  9
$DIMDLE
 40
0.0
  9
$DIMEXE
 40
1.25
  9
$DIMTP
 40
0.0
  9
$DIMTM
 40
0.0
  9
$DIMTXT
 40
2.5
  9
$DIMCEN
 40
0.09
  9
$DIMTSZ
 40
0.0
  9
$DIMTOL
 70
     0
  9
$DIMLIM
 70
     0
  9
$DIMTIH
 70
     0
  9
$DIMTOH
 70
     0
  9
$DIMSE1
 70
     0
  9
$DIMSE2
 70
     0
  9
$DIMTAD
 70
     0
  9
$DIMZIN
 70
     8
  9
$DIMBLK
  1

  9
$DIMASO
 70
     1
  9
$DIMSHO
 70
     0
  9
$DIMPOST
  1

  9
$DIMAPOST
  1

  9
$DIMALT
 70
     0
  9
$DIMALTD
 70
     3
  9
$DIMALTF
 40
0.03937
  9
$DIMLFAC
 40
1.0
  9
$DIMTOFL
 70
     1
  9
$DIMTVP
 40
0.0
  9
$DIMTIX
 70
     0
  9
$DIMSOXD
 70
     0
  9
$DIMSAH
 70
     0
  9
$DIMBLK1
  1

  9
$DIMBLK2
  1

  9
$DIMSTYLE
  2
ISO-25
  9
$DIMCLRD
 70
     0
  9
$DIMCLRE
 70
     0
  9
$DIMCLRT
 70
     0
  9
$DIMTFAC
 40
1.0
  9
$DIMGAP
 40
0.625
  9
$LUNITS
 70
     2
  9
$LUPREC
 70
     4
  9
$SKETCHINC
 40
1.0
  9
$FILLETRAD
 40
0.0
  9
$AUNITS
 70
     0
  9
$AUPREC
 70
     0
  9
$MENU
  1
acad
  9
$ELEVATION
 40
0.0
  9
$PELEVATION
 40
0.0
  9
$THICKNESS
 40
0.0
  9
$LIMCHECK
 70
     0
  9
$CHAMFERA
 40
10.0
  9
$CHAMFERB
 40
10.0
  9
$SKPOLY
 70
     0
  9
$TDCREATE
 40
2457595.492179676
  9
$TDUPDATE
 40
2457595.492180579
  9
$TDINDWG
 40
0.0000000116
  9
$TDUSRTIMER
 40
0.0000000116
  9
$USRTIMER
 70
     1
  9
$ANGBASE
 50
0.0
  9
$ANGDIR
 70
     0
  9
$PDMODE
 70
     0
  9
$PDSIZE
 40
0.0
  9
$PLINEWID
 40
0.0
  9
$COORDS
 70
     1
  9
$SPLFRAME
 70
     0
  9
$SPLINETYPE
 70
     6
  9
$SPLINESEGS
 70
     8
  9
$ATTDIA
 70
     0
  9
$ATTREQ
 70
     1
  9
$HANDLING
 70
     1
  9
$HANDSEED
  5
8B2
  9
$SURFTAB1
 70
     6
  9
$SURFTAB2
 70
     6
  9
$SURFTYPE
 70
     6
  9
$SURFU
 70
     6
  9
$SURFV
 70
     6
  9
$UCSNAME
  2

  9
$UCSORG
 10
0.0
 20
0.0
 30
0.0
  9
$UCSXDIR
 10
1.0
 20
0.0
 30
0.0
  9
$UCSYDIR
 10
0.0
 20
1.0
 30
0.0
  9
$PUCSNAME
  2

  9
$PUCSORG
 10
0.0
 20
0.0
 30
0.0
  9
$PUCSXDIR
 10
1.0
 20
0.0
 30
0.0
  9
$PUCSYDIR
 10
0.0
 20
1.0
 30
0.0
  9
$USERI1
 70
     0
  9
$USERI2
 70
     0
  9
$USERI3
 70
     0
  9
$USERI4
 70
     0
  9
$USERI5
 70
     0
  9
$USERR1
 40
0.0
  9
$USERR2
 40
0.0
  9
$USERR3
 40
0.0
  9
$USERR4
 40
0.0
  9
$USERR5
 40
0.0
  9
$WORLDVIEW
 70
     1
  9
$SHADEDGE
 70
     3
  9
$SHADEDIF
 70
    70
  9
$TILEMODE
 70
     1
  9
$MAXACTVP
 70
    64
  9
$PLIMCHECK
 70
     0
  9
$PEXTMIN
 10
1.000000E+20
 20
1.000000E+20
 30
0.0
  9
$PEXTMAX
 10
-1.000000E+20
 20
-1.000000E+20
 30
0.0
  9
$PLIMMIN
 10
0.0
 20
0.0
  9
$PLIMMAX
 10
12.0
 20
9.0
  9
$UNITMODE
 70
     0
  9
$VISRETAIN
 70
     1
  9
$PLINEGEN
 70
     0
  9
$PSLTSCALE
 70
     1
  0
ENDSEC
  0
SECTION
  2
TABLES
  0
TABLE
  2
VPORT
 70
     1
  0
VPORT
  2
*ACTIVE
 70
     0
 10
0.0
 20
0.0
 11
1.0
 21
1.0
 12
848.642578
 22
320.334015
 13
0.0
 23
0.0
 14
1.0
 24
1.0
 15
0.0
 25
0.0
 16
0.0
 26
0.0
 36
1.0
 17
0.0
 27
0.0
 37
0.0
 40
1015.273326
 41
1.691288
 42
50.0
 43
0.0
 44
0.0
 50
0.0
 51
0.0
 71
     0
 72
  1000
 73
     1
 74
     3
 75
     0
 76
     0
 77
     0
 78
     0
  0
ENDTAB
  0
TABLE
  2
LTYPE
 70
     5
  0
LTYPE
  2
CONTINUOUS
 70
     0
  3
Solid line
 72
    65
 73
     0
 40
0.0
  0
LTYPE
  2
DASHED
 70
     0
  3
DASHED
 72
    83
 73
     2
 40
0.75
 49
0.5
 49
-0.25
  0
LTYPE
  2
HIDDEN
 70
     0
  3
HIDDEN
 72
    83
 73
     2
 40
0.375
 49
0.25
 49
-0.125
  0
LTYPE
  2
CENTER
 70
     0
  3
CENTER
 72
    83
 73
     4
 40
2.0
 49
1.25
 49
-0.25
 49
0.25
 49
-0.25
  0
LTYPE
  2
PHANTOM
 70
     0
  3
PHANTOM
 72
    83
 73
     6
 40
2.5
 49
1.25
 49
-0.25
 49
0.25
 49
-0.25
 49
0.25
 49
-0.25
  0
ENDTAB
  0
TABLE
  2
LAYER
 70
     4
  0
LAYER
  2
0
 70
     0
 62
     7
  6
CONTINUOUS
  0
LAYER
  2
001
 70
     0
 62
     7
  6
CONTINUOUS
  0
LAYER
  2
002
 70
     0
 62
     7
  6
CONTINUOUS
  0
LAYER
  2
003
 70
     0
 62
     7
  6
CONTINUOUS
  0
ENDTAB
  0
TABLE
  2
STYLE
 70
     2
  0
STYLE
  2
STANDARD
 70
     0
 40
0.0
 41
1.0
 50
0.0
 71
     0
 42
0.2
  3
TXT
  4
BIGFONT
  0
STYLE
  2
TATEGAKI
 70
     4
 40
1.0
 41
1.0
 50
0.0
 71
     0
 42
0.2
  3
TXT
  4
BIGFONT
  0
ENDTAB
  0
TABLE
  2
VIEW
 70
     0
  0
ENDTAB
  0
TABLE
  2
UCS
 70
     0
  0
ENDTAB
  0
TABLE
  2
APPID
 70
     1
  0
APPID
  2
ACAD
 70
     0
  0
ENDTAB
  0
TABLE
  2
DIMSTYLE
 70
     2
  0
DIMSTYLE
  2
ISO-25
 70
     0
  3

  4

  5

  6

  7

 40
1.0
 41
2.5
 42
0.625
 43
3.75
 44
1.25
 45
0.0
 46
0.0
 47
0.0
 48
0.0
140
2.5
141
2.5
142
0.0
143
0.03937
144
1.0
145
0.0
146
1.0
147
0.625
 71
     0
 72
     0
 73
     0
 74
     0
 75
     0
 76
     0
 77
     1
 78
     8
170
     0
171
     3
172
     1
173
     0
174
     0
175
     0
176
     0
177
     0
178
     0
  0
DIMSTYLE
  2
STANDARD
 70
     0
  3

  4

  5

  6

  7

 40
1.0
 41
3.0
 42
0.5
 43
0.38
 44
0.7
 45
0.0
 46
0.0
 47
0.0
 48
0.0
140
4.0
141
0.09
142
0.0
143
25.4
144
1.0
145
0.0
146
0.65
147
1.0
 71
     0
 72
     0
 73
     0
 74
     0
 75
     0
 76
     0
 77
     1
 78
     8
170
     0
171
     2
172
     1
173
     0
174
     0
175
     0
176
     0
177
     0
178
     0
  0
ENDTAB
  0
ENDSEC
  0
SECTION
  2
BLOCKS
  0
BLOCK
  8
0
  2
$MODEL_SPACE
 70
     0
 10
0.0
 20
0.0
 30
0.0
  3
$MODEL_SPACE
  1

  0
ENDBLK
  5
21
  8
0
  0
BLOCK
 67
     1
  8
0
  2
$PAPER_SPACE
 70
     0
 10
0.0
 20
0.0
 30
0.0
  3
$PAPER_SPACE
  1

  0
ENDBLK
  5
1D
 67
     1
  8
0
  0
BLOCK
  8
0
  2
JZB-1
 70
     0
 10
0.0
 20
0.0
 30
0.0
  3
JZB-1
  1

  0
CIRCLE
  5
4B
  8
002
 62
     3
 10
204.392391
 20
581.921233
 30
0.0
 40
3.5
  0
ENDBLK
  5
4A
  8
0
  0
BLOCK
  8
0
  2
JZB-2
 70
     0
 10
0.0
 20
0.0
 30
0.0
  3
JZB-2
  1

  0
CIRCLE
  5
4F
  8
002
 62
     3
 10
299.392391
 20
581.921233
 30
0.0
 40
3.5
  0
ENDBLK
  5
4E
  8
0
  0
BLOCK
  8
0
  2
JZB-3
 70
     0
 10
0.0
 20
0.0
 30
0.0
  3
JZB-3
  1

  0
CIRCLE
  5
53
  8
002
 62
     3
 10
299.392391
 20
651.921233
 30
0.0
 40
3.5
  0
ENDBLK
  5
52
  8
0
  0
BLOCK
  8
0
  2
JZB-4
 70
     0
 10
0.0
 20
0.0
 30
0.0
  3
JZB-4
  1

  0
CIRCLE
  5
57
  8
002
 62
     3
 10
204.392391
 20
651.921233
 30
0.0
 40
3.5
  0
ENDBLK
  5
56
  8
0
  0
BLOCK
  8
0
  2
JZB-5
 70
     0
 10
0.0
 20
0.0
 30
0.0
  3
JZB-5
  1

  0
LINE
  5
5B
  8
002
 62
     3
 10
286.392391
 20
611.421233
 30
0.0
 11
290.392391
 21
622.421233
 31
0.0
  0
LINE
  5
5C
  8
002
 62
     3
 10
289.725725
 20
621.754566
 30
0.0
 11
285.725725
 21
615.0879
 31
0.0
  0
LINE
  5
5D
  8
002
 62
     3
 10
290.392391
 20
622.421233
 30
0.0
 11
283.059058
 21
622.421233
 31
0.0
  0
LINE
  5
5E
  8
002
 62
     3
 10
286.392391
 20
621.754566
 30
0.0
 11
289.725725
 21
621.754566
 31
0.0
  0
LINE
  5
5F
  8
002
 62
     3
 10
285.725725
 20
617.0879
 30
0.0
 11
286.392391
 21
621.754566
 31
0.0
  0
LINE
  5
60
  8
002
 62
     3
 10
284.392391
 20
617.0879
 30
0.0
 11
285.725725
 21
617.0879
 31
0.0
  0
LINE
  5
61
  8
002
 62
     3
 10
283.059058
 20
622.421233
 30
0.0
 11
284.392391
 21
617.0879
 31
0.0
  0
LINE
  5
62
  8
002
 62
     3
 10
283.059058
 20
615.0879
 30
0.0
 11
278.392391
 21
622.421233
 31
0.0
  0
LINE
  5
63
  8
002
 62
     3
 10
285.725725
 20
615.0879
 30
0.0
 11
283.059058
 21
615.0879
 31
0.0
  0
LINE
  5
64
  8
002
 62
     3
 10
278.392391
 20
622.421233
 30
0.0
 11
282.392391
 21
611.421233
 31
0.0
  0
LINE
  5
65
  8
002
 62
     3
 10
282.392391
 20
611.421233
 30
0.0
 11
286.392391
 21
611.421233
 31
0.0
  0
ENDBLK
  5
5A
  8
0
  0
BLOCK
  8
0
  2
JZB-6
 70
     0
 10
0.0
 20
0.0
 30
0.0
  3
JZB-6
  1

  0
CIRCLE
  5
69
  8
002
 62
     3
 10
1128.273781
 20
557.863845
 30
0.0
 40
3.5
  0
ENDBLK
  5
68
  8
0
  0
BLOCK
  8
0
  2
JZB-7
 70
     0
 10
0.0
 20
0.0
 30
0.0
  3
JZB-7
  1

  0
CIRCLE
  5
6D
  8
002
 62
     3
 10
1223.273781
 20
557.863845
 30
0.0
 40
3.5
  0
ENDBLK
  5
6C
  8
0
  0
BLOCK
  8
0
  2
JZB-8
 70
     0
 10
0.0
 20
0.0
 30
0.0
  3
JZB-8
  1

  0
CIRCLE
  5
71
  8
002
 62
     3
 10
1223.273781
 20
487.863845
 30
0.0
 40
3.5
  0
ENDBLK
  5
70
  8
0
  0
BLOCK
  8
0
  2
JZB-9
 70
     0
 10
0.0
 20
0.0
 30
0.0
  3
JZB-9
  1

  0
CIRCLE
  5
75
  8
002
 62
     3
 10
1128.273781
 20
487.863845
 30
0.0
 40
3.5
  0
ENDBLK
  5
74
  8
0
  0
BLOCK
  8
0
  2
JZB-10
 70
     0
 10
0.0
 20
0.0
 30
0.0
  3
JZB-10
  1

  0
LINE
  5
79
  8
002
  6
CENTER
 62
    40
 10
1203.273781
 20
517.027047
 30
0.0
 11
1203.273781
 21
528.700643
 31
0.0
  0
ENDBLK
  5
78
  8
0
  0
ENDSEC
  0
SECTION
  2
ENTITIES
  0
INSERT
  5
7A
  8
002
  6
BYBLOCK
 62
     0
  2
JZB-1
 10
0.0
 20
0.0
 30
0.0
  0
INSERT
  5
7B
  8
002
  6
BYBLOCK
 62
     0
  2
JZB-2
 10
0.0
 20
0.0
 30
0.0
  0
INSERT
  5
7C
  8
002
  6
BYBLOCK
 62
     0
  2
JZB-3
 10
0.0
 20
0.0
 30
0.0
  0
INSERT
  5
7D
  8
002
  6
BYBLOCK
 62
     0
  2
JZB-4
 10
0.0
 20
0.0
 30
0.0
  0
INSERT
  5
7E
  8
002
  6
BYBLOCK
 62
     0
  2
JZB-5
 10
0.0
 20
0.0
 30
0.0
  0
INSERT
  5
7F
  8
002
  6
BYBLOCK
 62
     0
  2
JZB-6
 10
0.0
 20
0.0
 30
0.0
  0
INSERT
  5
80
  8
002
  6
BYBLOCK
 62
     0
  2
JZB-7
 10
0.0
 20
0.0
 30
0.0
  0
INSERT
  5
81
  8
002
  6
BYBLOCK
 62
     0
  2
JZB-8
 10
0.0
 20
0.0
 30
0.0
  0
INSERT
  5
82
  8
002
  6
BYBLOCK
 62
     0
  2
JZB-9
 10
0.0
 20
0.0
 30
0.0
  0
INSERT
  5
83
  8
002
  6
BYBLOCK
 62
     0
  2
JZB-10
 10
0.0
 20
0.0
 30
0.0
  0
LINE
  5
84
  8
002
 62
     3
 10
273.892391
 20
497.715733
 30
0.0
 11
273.642391
 21
497.965733
 31
0.0
  0
LINE
  5
85
  8
002
 62
     3
 10
273.642391
 20
497.965733
 30
0.0
 11
269.142391
 21
497.965733
 31
0.0
  0
LINE
  5
86
  8
002
 62
     3
 10
269.142391
 20
497.965733
 30
0.0
 11
268.892391
 21
497.715733
 31
0.0
  0
LINE
  5
87
  8
002
 62
     3
 10
268.892391
 20
497.715733
 30
0.0
 11
268.892391
 21
493.215733
 31
0.0
  0
LINE
  5
88
  8
002
 62
     3
 10
268.892391
 20
493.215733
 30
0.0
 11
269.142391
 21
492.965733
 31
0.0
  0
LINE
  5
89
  8
002
 62
     3
 10
269.142391
 20
492.965733
 30
0.0
 11
273.642391
 21
492.965733
 31
0.0
  0
LINE
  5
8A
  8
002
 62
     3
 10
273.642391
 20
492.965733
 30
0.0
 11
273.892391
 21
493.215733
 31
0.0
  0
LINE
  5
8B
  8
002
 62
     3
 10
273.892391
 20
493.215733
 30
0.0
 11
273.892391
 21
497.715733
 31
0.0
  0
ARC
  5
8C
  8
002
 62
     3
 10
273.692391
 20
493.165733
 30
0.0
 40
0.1999999999999318
 50
270.0
 51
0.0
  0
ARC
  5
8D
  8
002
 62
     3
 10
269.092391
 20
493.165733
 30
0.0
 40
0.1999999999999318
 50
180.0
 51
270.0
  0
ARC
  5
8E
  8
002
 62
     3
 10
271.392391
 20
488.465733
 30
0.0
 40
7.500030347271937
 50
109.471139
 51
70.528861
  0
LINE
  5
8F
  8
002
  6
CENTER
 62
    40
 10
271.392391
 20
478.342433
 30
0.0
 11
271.392391
 21
500.277433
 31
0.0
  0
LINE
  5
90
  8
002
  6
CENTER
 62
    40
 10
260.593491
 20
488.465733
 30
0.0
 11
283.126791
 21
488.465733
 31
0.0
  0
LINE
  5
91
  8
002
 62
     3
 10
1151.613781
 20
306.863845
 30
0.0
 11
1151.613781
 21
311.863845
 31
0.0
  0
LINE
  5
92
  8
002
 62
     3
 10
1151.613781
 20
311.863845
 30
0.0
 11
1143.113781
 21
311.863845
 31
0.0
  0
LINE
  5
93
  8
002
 62
     3
 10
1146.273781
 20
311.863845
 30
0.0
 11
1146.273781
 21
332.863845
 31
0.0
  0
LINE
  5
94
  8
002
 62
     3
 10
1146.273781
 20
332.863845
 30
0.0
 11
1180.273781
 21
332.863845
 31
0.0
  0
LINE
  5
95
  8
002
 62
     3
 10
1180.273781
 20
332.863845
 30
0.0
 11
1180.273781
 21
311.863845
 31
0.0
  0
LINE
  5
96
  8
002
 62
     3
 10
1174.933781
 20
311.863845
 30
0.0
 11
1174.933781
 21
306.863845
 31
0.0
  0
LINE
  5
97
  8
002
 62
     3
 10
1174.933781
 20
311.863845
 30
0.0
 11
1183.433781
 21
311.863845
 31
0.0
  0
LINE
  5
98
  8
002
 62
     3
 10
1183.433781
 20
311.863845
 30
0.0
 11
1183.433781
 21
306.863845
 31
0.0
  0
LINE
  5
99
  8
002
 62
     3
 10
1169.773781
 20
170.863845
 30
0.0
 11
1156.773781
 21
170.863845
 31
0.0
  0
ARC
  5
9A
  8
002
 62
     3
 10
1156.773781
 20
169.863845
 30
0.0
 40
1.0
 50
90.0
 51
180.0
  0
LINE
  5
9B
  8
002
 62
     3
 10
1155.773781
 20
169.863845
 30
0.0
 11
1155.773781
 21
141.863845
 31
0.0
  0
ARC
  5
9C
  8
002
 62
     3
 10
1156.773781
 20
141.863745
 30
0.0
 40
1.0
 50
180.0
 51
270.0
  0
LINE
  5
9D
  8
002
 62
     3
 10
1156.773781
 20
140.863745
 30
0.0
 11
1169.772781
 21
140.863745
 31
0.0
  0
ARC
  5
9E
  8
002
 62
     3
 10
1169.772781
 20
141.863745
 30
0.0
 40
1.0
 50
270.0
 51
0.0
  0
LINE
  5
9F
  8
002
 62
     3
 10
1170.772781
 20
141.863745
 30
0.0
 11
1170.772781
 21
169.863745
 31
0.0
  0
ARC
  5
A0
  8
002
 62
     3
 10
1169.773781
 20
169.863845
 30
0.0
 40
1.000000000000028
 50
0.0
 51
90.0
  0
CIRCLE
  5
A1
  8
002
 62
     3
 10
1163.273781
 20
165.863845
 30
0.0
 40
2.749998
  0
LINE
  5
A2
  8
002
 62
     3
 10
1165.023781
 20
166.263845
 30
0.0
 11
1164.323781
 21
166.263845
 31
0.0
  0
LINE
  5
A3
  8
002
 62
     3
 10
1164.323781
 20
166.263845
 30
0.0
 11
1163.910781
 21
166.501745
 31
0.0
  0
LINE
  5
A4
  8
002
 62
     3
 10
1163.910781
 20
166.501745
 30
0.0
 11
1163.673781
 21
166.913845
 31
0.0
  0
LINE
  5
A5
  8
002
 62
     3
 10
1163.673781
 20
166.913845
 30
0.0
 11
1163.673781
 21
167.613845
 31
0.0
  0
LINE
  5
A6
  8
002
 62
     3
 10
1163.673781
 20
167.613845
 30
0.0
 11
1162.873781
 21
167.613845
 31
0.0
  0
LINE
  5
A7
  8
002
 62
     3
 10
1162.873781
 20
167.613845
 30
0.0
 11
1162.873781
 21
166.913845
 31
0.0
  0
LINE
  5
A8
  8
002
 62
     3
 10
1162.873781
 20
166.913845
 30
0.0
 11
1162.635781
 21
166.501745
 31
0.0
  0
LINE
  5
A9
  8
002
 62
     3
 10
1162.635781
 20
166.501745
 30
0.0
 11
1162.223781
 21
166.263845
 31
0.0
  0
LINE
  5
AA
  8
002
 62
     3
 10
1162.223781
 20
166.263845
 30
0.0
 11
1161.523781
 21
166.263845
 31
0.0
  0
LINE
  5
AB
  8
002
 62
     3
 10
1161.523781
 20
166.263845
 30
0.0
 11
1161.523781
 21
165.463845
 31
0.0
  0
LINE
  5
AC
  8
002
 62
     3
 10
1161.523781
 20
165.463845
 30
0.0
 11
1162.223781
 21
165.463845
 31
0.0
  0
LINE
  5
AD
  8
002
 62
     3
 10
1162.223781
 20
165.463845
 30
0.0
 11
1162.635781
 21
165.225945
 31
0.0
  0
LINE
  5
AE
  8
002
 62
     3
 10
1162.635781
 20
165.225945
 30
0.0
 11
1162.872781
 21
164.813845
 31
0.0
  0
LINE
  5
AF
  8
002
 62
     3
 10
1162.873781
 20
164.813845
 30
0.0
 11
1162.873781
 21
164.113845
 31
0.0
  0
LINE
  5
B0
  8
002
 62
     3
 10
1162.873781
 20
164.113845
 30
0.0
 11
1163.673781
 21
164.113845
 31
0.0
  0
LINE
  5
B1
  8
002
 62
     3
 10
1163.673781
 20
164.113845
 30
0.0
 11
1163.673781
 21
164.813845
 31
0.0
  0
LINE
  5
B2
  8
002
 62
     3
 10
1163.673781
 20
164.813845
 30
0.0
 11
1163.910781
 21
165.225945
 31
0.0
  0
LINE
  5
B3
  8
002
 62
     3
 10
1163.910781
 20
165.225945
 30
0.0
 11
1164.323781
 21
165.463845
 31
0.0
  0
LINE
  5
B4
  8
002
 62
     3
 10
1164.323781
 20
165.463845
 30
0.0
 11
1165.023781
 21
165.463845
 31
0.0
  0
LINE
  5
B5
  8
002
 62
     3
 10
1165.023781
 20
165.463845
 30
0.0
 11
1165.023781
 21
166.263845
 31
0.0
  0
ARC
  5
B6
  8
002
 62
     3
 10
1155.783781
 20
164.987845
 30
0.0
 40
2.750373067421928
 50
90.208347
 51
219.377204
  0
LINE
  5
B7
  8
002
 62
     3
 10
1153.657781
 20
163.242845
 30
0.0
 11
1155.772781
 21
160.665845
 31
0.0
  0
LINE
  5
B8
  8
002
 62
     3
 10
1155.773781
 20
159.405045
 30
0.0
 11
1170.615781
 21
141.324845
 31
0.0
  0
ARC
  5
B9
  8
002
 62
     3
 10
1170.762781
 20
146.739845
 30
0.0
 40
2.750309626205728
 50
270.208347
 51
39.375594
  0
LINE
  5
BA
  8
002
 62
     3
 10
1172.888781
 20
148.484745
 30
0.0
 11
1170.772781
 21
151.061945
 31
0.0
  0
LINE
  5
BB
  8
002
 62
     3
 10
1170.772781
 20
152.322545
 30
0.0
 11
1155.930781
 21
170.402745
 31
0.0
  0
LINE
  5
BC
  8
002
 62
     3
 10
1190.773781
 20
306.863845
 30
0.0
 11
1135.773781
 21
306.863845
 31
0.0
  0
LINE
  5
BD
  8
002
 62
     3
 10
1135.773781
 20
306.863845
 30
0.0
 11
1135.773781
 21
302.863845
 31
0.0
  0
LINE
  5
BE
  8
002
 62
     3
 10
1143.113781
 20
306.863845
 30
0.0
 11
1143.113781
 21
311.863845
 31
0.0
  0
LINE
  5
BF
  8
002
 62
     3
 10
1178.273781
 20
172.863745
 30
0.0
 11
1148.273781
 21
172.863745
 31
0.0
  0
LINE
  5
C0
  8
002
 62
     3
 10
1178.273781
 20
172.863745
 30
0.0
 11
1178.273781
 21
138.863845
 31
0.0
  0
LINE
  5
C1
  8
002
 62
     3
 10
1148.273781
 20
138.863845
 30
0.0
 11
1148.273781
 21
172.863745
 31
0.0
  0
LINE
  5
C2
  8
002
 62
     3
 10
1163.672781
 20
147.613745
 30
0.0
 11
1163.672781
 21
146.913845
 31
0.0
  0
LINE
  5
C3
  8
002
 62
     3
 10
1163.672781
 20
146.913745
 30
0.0
 11
1163.910781
 21
146.501745
 31
0.0
  0
LINE
  5
C4
  8
002
 62
     3
 10
1163.910781
 20
146.501745
 30
0.0
 11
1164.322781
 21
146.263845
 31
0.0
  0
LINE
  5
C5
  8
002
 62
     3
 10
1164.322781
 20
146.263745
 30
0.0
 11
1165.022781
 21
146.263745
 31
0.0
  0
LINE
  5
C6
  8
002
 62
     3
 10
1165.022781
 20
146.263745
 30
0.0
 11
1165.022781
 21
145.463845
 31
0.0
  0
LINE
  5
C7
  8
002
 62
     3
 10
1165.022781
 20
145.463845
 30
0.0
 11
1164.322781
 21
145.463845
 31
0.0
  0
LINE
  5
C8
  8
002
 62
     3
 10
1164.322781
 20
145.463745
 30
0.0
 11
1163.910781
 21
145.225845
 31
0.0
  0
LINE
  5
C9
  8
002
 62
     3
 10
1163.910781
 20
145.225845
 30
0.0
 11
1163.672781
 21
144.813745
 31
0.0
  0
LINE
  5
CA
  8
002
 62
     3
 10
1163.672781
 20
144.813745
 30
0.0
 11
1163.672781
 21
144.113745
 31
0.0
  0
LINE
  5
CB
  8
002
 62
     3
 10
1163.672781
 20
144.113745
 30
0.0
 11
1162.872781
 21
144.113745
 31
0.0
  0
LINE
  5
CC
  8
002
 62
     3
 10
1162.872781
 20
144.113745
 30
0.0
 11
1162.872781
 21
144.813745
 31
0.0
  0
LINE
  5
CD
  8
002
 62
     3
 10
1162.872781
 20
144.813745
 30
0.0
 11
1162.635781
 21
145.225845
 31
0.0
  0
LINE
  5
CE
  8
002
 62
     3
 10
1162.635781
 20
145.225845
 30
0.0
 11
1162.222781
 21
145.463845
 31
0.0
  0
LINE
  5
CF
  8
002
 62
     3
 10
1162.222781
 20
145.463845
 30
0.0
 11
1161.522781
 21
145.463845
 31
0.0
  0
LINE
  5
D0
  8
002
 62
     3
 10
1161.522781
 20
145.463845
 30
0.0
 11
1161.522781
 21
146.263745
 31
0.0
  0
LINE
  5
D1
  8
002
 62
     3
 10
1161.522781
 20
146.263745
 30
0.0
 11
1162.222781
 21
146.263745
 31
0.0
  0
LINE
  5
D2
  8
002
 62
     3
 10
1162.223781
 20
146.263845
 30
0.0
 11
1162.635781
 21
146.501745
 31
0.0
  0
LINE
  5
D3
  8
002
 62
     3
 10
1162.635781
 20
146.501745
 30
0.0
 11
1162.872781
 21
146.913745
 31
0.0
  0
LINE
  5
D4
  8
002
 62
     3
 10
1162.872781
 20
146.913845
 30
0.0
 11
1162.872781
 21
147.613745
 31
0.0
  0
LINE
  5
D5
  8
002
 62
     3
 10
1162.872781
 20
147.613745
 30
0.0
 11
1163.672781
 21
147.613745
 31
0.0
  0
CIRCLE
  5
D6
  8
002
 62
     3
 10
1163.272781
 20
145.863745
 30
0.0
 40
2.749998
  0
LINE
  5
D7
  8
002
 62
     3
 10
1134.273781
 20
138.863845
 30
0.0
 11
1192.274281
 21
138.863845
 31
0.0
  0
LINE
  5
D8
  8
002
 62
     3
 10
1192.274281
 20
138.863845
 30
0.0
 11
1192.274281
 21
128.863845
 31
0.0
  0
LINE
  5
D9
  8
002
 62
     3
 10
1134.273781
 20
128.863845
 30
0.0
 11
1134.273781
 21
138.863845
 31
0.0
  0
LINE
  5
DA
  8
002
 62
     3
 10
1192.274281
 20
128.863845
 30
0.0
 11
1134.273781
 21
128.863845
 31
0.0
  0
LINE
  5
DB
  8
002
  6
CENTER
 62
    40
 10
1185.773781
 20
140.254645
 30
0.0
 11
1185.773781
 21
126.214845
 31
0.0
  0
LINE
  5
DC
  8
002
  6
PHANTOM
 62
    40
 10
1155.773781
 20
164.999845
 30
0.0
 11
1152.882781
 21
168.521245
 31
0.0
  0
LINE
  5
DD
  8
002
  6
CENTER
 62
    40
 10
1179.183781
 20
300.863845
 30
0.0
 11
1179.183781
 21
314.585445
 31
0.0
  0
LINE
  5
DE
  8
002
  6
CENTER
 62
    40
 10
1239.096781
 20
272.863845
 30
0.0
 11
1109.491781
 21
272.863845
 31
0.0
  0
LINE
  5
DF
  8
002
  6
PHANTOM
 62
    40
 10
1170.772781
 20
146.727745
 30
0.0
 11
1173.421781
 21
143.501445
 31
0.0
  0
LINE
  5
E0
  8
002
  6
CENTER
 62
    40
 10
1140.773781
 20
140.254645
 30
0.0
 11
1140.773781
 21
126.214845
 31
0.0
  0
LINE
  5
E1
  8
002
  6
CENTER
 62
    40
 10
1147.363781
 20
300.863845
 30
0.0
 11
1147.363781
 21
314.585445
 31
0.0
  0
LINE
  5
E2
  8
002
 62
     3
 10
1171.273781
 20
128.863845
 30
0.0
 11
1171.273781
 21
57.863845
 31
0.0
  0
LINE
  5
E3
  8
002
 62
     3
 10
1171.273781
 20
57.863845
 30
0.0
 11
1155.273781
 21
57.863845
 31
0.0
  0
LINE
  5
E4
  8
002
 62
     3
 10
1155.273781
 20
57.863845
 30
0.0
 11
1155.273781
 21
128.863845
 31
0.0
  0
LINE
  5
E5
  8
002
 62
     3
 10
1169.274781
 20
57.863845
 30
0.0
 11
1169.274781
 21
37.863845
 31
0.0
  0
LINE
  5
E6
  8
002
 62
     3
 10
1169.274781
 20
37.863845
 30
0.0
 11
1157.274781
 21
37.863845
 31
0.0
  0
LINE
  5
E7
  8
002
 62
     3
 10
1157.274781
 20
37.863845
 30
0.0
 11
1157.274781
 21
57.863845
 31
0.0
  0
LINE
  5
E8
  8
002
 62
    40
 10
1170.043781
 20
57.863845
 30
0.0
 11
1170.043781
 21
128.863845
 31
0.0
  0
LINE
  5
E9
  8
002
 62
    40
 10
1156.503781
 20
128.863845
 30
0.0
 11
1156.503781
 21
57.863845
 31
0.0
  0
LINE
  5
EA
  8
002
 62
     3
 10
227.732491
 20
62.005733
 30
0.0
 11
227.732491
 21
57.005733
 31
0.0
  0
LINE
  5
EB
  8
002
 62
     3
 10
219.232491
 20
57.005733
 30
0.0
 11
219.232491
 21
62.005733
 31
0.0
  0
LINE
  5
EC
  8
002
 62
     3
 10
219.232491
 20
57.005733
 30
0.0
 11
227.732491
 21
57.005733
 31
0.0
  0
LINE
  5
ED
  8
002
 62
     3
 10
222.392391
 20
57.005733
 30
0.0
 11
222.392391
 21
36.005733
 31
0.0
  0
LINE
  5
EE
  8
002
 62
     3
 10
222.392391
 20
36.005733
 30
0.0
 11
256.392391
 21
36.005733
 31
0.0
  0
LINE
  5
EF
  8
002
 62
     3
 10
256.392391
 20
36.005733
 30
0.0
 11
256.392391
 21
57.005733
 31
0.0
  0
LINE
  5
F0
  8
002
 62
     3
 10
259.552291
 20
57.005733
 30
0.0
 11
251.052291
 21
57.005733
 31
0.0
  0
LINE
  5
F1
  8
002
 62
     3
 10
259.552291
 20
57.005733
 30
0.0
 11
259.552291
 21
62.005733
 31
0.0
  0
LINE
  5
F2
  8
002
 62
     3
 10
251.052291
 20
57.005733
 30
0.0
 11
251.052291
 21
62.005733
 31
0.0
  0
LINE
  5
F3
  8
002
 62
     3
 10
232.891991
 20
209.005733
 30
0.0
 11
245.891991
 21
209.005733
 31
0.0
  0
ARC
  5
F4
  8
002
 62
     3
 10
245.891991
 20
210.005733
 30
0.0
 40
1.0
 50
270.0
 51
0.0
  0
LINE
  5
F5
  8
002
 62
     3
 10
246.891991
 20
210.005733
 30
0.0
 11
246.891991
 21
238.005633
 31
0.0
  0
ARC
  5
F6
  8
002
 62
     3
 10
245.891991
 20
238.005733
 30
0.0
 40
1.0
 50
0.0
 51
90.0
  0
LINE
  5
F7
  8
002
 62
     3
 10
245.891991
 20
239.005733
 30
0.0
 11
232.892091
 21
239.005733
 31
0.0
  0
ARC
  5
F8
  8
002
 62
     3
 10
232.892091
 20
238.005733
 30
0.0
 40
1.0
 50
90.0
 51
180.0
  0
LINE
  5
F9
  8
002
 62
     3
 10
231.892091
 20
238.005733
 30
0.0
 11
231.892091
 21
210.005733
 31
0.0
  0
ARC
  5
FA
  8
002
 62
     3
 10
232.891991
 20
210.005733
 30
0.0
 40
1.0
 50
180.0
 51
270.0
  0
LINE
  5
FB
  8
002
 62
     3
 10
237.641991
 20
213.605733
 30
0.0
 11
237.641991
 21
214.405733
 31
0.0
  0
LINE
  5
FC
  8
002
 62
     3
 10
237.641991
 20
214.405733
 30
0.0
 11
238.341991
 21
214.405733
 31
0.0
  0
LINE
  5
FD
  8
002
 62
     3
 10
238.341991
 20
214.405733
 30
0.0
 11
238.754091
 21
214.643633
 31
0.0
  0
LINE
  5
FE
  8
002
 62
     3
 10
238.754091
 20
214.643633
 30
0.0
 11
238.991991
 21
215.055733
 31
0.0
  0
LINE
  5
FF
  8
002
 62
     3
 10
238.991991
 20
215.055733
 30
0.0
 11
238.991991
 21
215.755733
 31
0.0
  0
LINE
  5
100
  8
002
 62
     3
 10
238.991991
 20
215.755733
 30
0.0
 11
239.791991
 21
215.755733
 31
0.0
  0
LINE
  5
101
  8
002
 62
     3
 10
239.791991
 20
215.755733
 30
0.0
 11
239.791991
 21
215.055733
 31
0.0
  0
LINE
  5
102
  8
002
 62
     3
 10
239.791991
 20
215.055733
 30
0.0
 11
240.029891
 21
214.643633
 31
0.0
  0
LINE
  5
103
  8
002
 62
     3
 10
240.029891
 20
214.643633
 30
0.0
 11
240.441991
 21
214.405733
 31
0.0
  0
LINE
  5
104
  8
002
 62
     3
 10
240.441991
 20
214.405733
 30
0.0
 11
241.141991
 21
214.405733
 31
0.0
  0
LINE
  5
105
  8
002
 62
     3
 10
241.141991
 20
214.405733
 30
0.0
 11
241.141991
 21
213.605733
 31
0.0
  0
LINE
  5
106
  8
002
 62
     3
 10
241.141991
 20
213.605733
 30
0.0
 11
240.441991
 21
213.605733
 31
0.0
  0
LINE
  5
107
  8
002
 62
     3
 10
240.441991
 20
213.605633
 30
0.0
 11
240.029891
 21
213.367733
 31
0.0
  0
LINE
  5
108
  8
002
 62
     3
 10
240.029991
 20
213.367733
 30
0.0
 11
239.791991
 21
212.955733
 31
0.0
  0
LINE
  5
109
  8
002
 62
     3
 10
239.791991
 20
212.955733
 30
0.0
 11
239.791991
 21
212.255733
 31
0.0
  0
LINE
  5
10A
  8
002
 62
     3
 10
239.791991
 20
212.255733
 30
0.0
 11
238.991991
 21
212.255733
 31
0.0
  0
LINE
  5
10B
  8
002
 62
     3
 10
238.991991
 20
212.255733
 30
0.0
 11
238.991991
 21
212.955733
 31
0.0
  0
LINE
  5
10C
  8
002
 62
     3
 10
238.991991
 20
212.955733
 30
0.0
 11
238.754091
 21
213.367733
 31
0.0
  0
LINE
  5
10D
  8
002
 62
     3
 10
238.754091
 20
213.367733
 30
0.0
 11
238.341991
 21
213.605733
 31
0.0
  0
LINE
  5
10E
  8
002
 62
     3
 10
238.341991
 20
213.605733
 30
0.0
 11
237.641991
 21
213.605733
 31
0.0
  0
CIRCLE
  5
10F
  8
002
 62
     3
 10
239.391991
 20
214.005733
 30
0.0
 40
2.749998
  0
ARC
  5
110
  8
002
 62
     3
 10
246.881991
 20
214.881733
 30
0.0
 40
2.750000436363616
 50
270.208347
 51
39.380881
  0
LINE
  5
111
  8
002
 62
     3
 10
249.007691
 20
216.626633
 30
0.0
 11
246.891991
 21
219.203833
 31
0.0
  0
LINE
  5
112
  8
002
 62
     3
 10
246.891991
 20
220.464433
 30
0.0
 11
232.049691
 21
238.544733
 31
0.0
  0
LINE
  5
113
  8
002
 62
     3
 10
254.392691
 20
241.005733
 30
0.0
 11
254.392691
 21
207.005733
 31
0.0
  0
LINE
  5
114
  8
002
 62
     3
 10
246.734391
 20
209.466733
 30
0.0
 11
231.892091
 21
227.546933
 31
0.0
  0
LINE
  5
115
  8
002
 62
     3
 10
231.891991
 20
228.807733
 30
0.0
 11
229.776391
 21
231.384733
 31
0.0
  0
ARC
  5
116
  8
002
 62
     3
 10
231.902091
 20
233.129733
 30
0.0
 40
2.750063884712533
 50
90.208347
 51
219.382492
  0
LINE
  5
117
  8
002
 62
     3
 10
237.642091
 20
233.605733
 30
0.0
 11
237.642091
 21
234.405733
 31
0.0
  0
LINE
  5
118
  8
002
 62
     3
 10
237.642091
 20
234.405733
 30
0.0
 11
238.342091
 21
234.405733
 31
0.0
  0
LINE
  5
119
  8
002
 62
     3
 10
238.341991
 20
234.405733
 30
0.0
 11
238.754091
 21
234.643633
 31
0.0
  0
LINE
  5
11A
  8
002
 62
     3
 10
238.754091
 20
234.643633
 30
0.0
 11
238.991991
 21
235.055733
 31
0.0
  0
LINE
  5
11B
  8
002
 62
     3
 10
238.992091
 20
235.055733
 30
0.0
 11
238.992091
 21
235.755733
 31
0.0
  0
LINE
  5
11C
  8
002
 62
     3
 10
238.992091
 20
235.755733
 30
0.0
 11
239.792091
 21
235.755733
 31
0.0
  0
LINE
  5
11D
  8
002
 62
     3
 10
239.792091
 20
235.755733
 30
0.0
 11
239.792091
 21
235.055733
 31
0.0
  0
LINE
  5
11E
  8
002
 62
     3
 10
239.791991
 20
235.055733
 30
0.0
 11
240.029991
 21
234.643633
 31
0.0
  0
LINE
  5
11F
  8
002
 62
     3
 10
240.029991
 20
234.643633
 30
0.0
 11
240.441991
 21
234.405733
 31
0.0
  0
LINE
  5
120
  8
002
 62
     3
 10
240.442091
 20
234.405733
 30
0.0
 11
241.142091
 21
234.405733
 31
0.0
  0
LINE
  5
121
  8
002
 62
     3
 10
241.142091
 20
234.405733
 30
0.0
 11
241.142091
 21
233.605733
 31
0.0
  0
LINE
  5
122
  8
002
 62
     3
 10
241.142091
 20
233.605733
 30
0.0
 11
240.441991
 21
233.605733
 31
0.0
  0
LINE
  5
123
  8
002
 62
     3
 10
240.442091
 20
233.605733
 30
0.0
 11
240.029991
 21
233.367833
 31
0.0
  0
LINE
  5
124
  8
002
 62
     3
 10
240.029991
 20
233.367833
 30
0.0
 11
239.792091
 21
232.955733
 31
0.0
  0
LINE
  5
125
  8
002
 62
     3
 10
239.792091
 20
232.955733
 30
0.0
 11
239.792091
 21
232.255733
 31
0.0
  0
LINE
  5
126
  8
002
 62
     3
 10
239.792091
 20
232.255733
 30
0.0
 11
238.992091
 21
232.255733
 31
0.0
  0
LINE
  5
127
  8
002
 62
     3
 10
238.992091
 20
232.255733
 30
0.0
 11
238.992091
 21
232.955733
 31
0.0
  0
LINE
  5
128
  8
002
 62
     3
 10
238.991991
 20
232.955733
 30
0.0
 11
238.754091
 21
233.367833
 31
0.0
  0
LINE
  5
129
  8
002
 62
     3
 10
238.754191
 20
233.367833
 30
0.0
 11
238.342091
 21
233.605733
 31
0.0
  0
LINE
  5
12A
  8
002
 62
     3
 10
238.342091
 20
233.605733
 30
0.0
 11
237.642091
 21
233.605733
 31
0.0
  0
CIRCLE
  5
12B
  8
002
 62
     3
 10
239.392091
 20
234.005733
 30
0.0
 40
2.749998
  0
LINE
  5
12C
  8
002
 62
     3
 10
254.392691
 20
241.005733
 30
0.0
 11
224.392691
 21
241.005733
 31
0.0
  0
LINE
  5
12D
  8
002
 62
     3
 10
224.392691
 20
241.005733
 30
0.0
 11
224.392691
 21
207.005733
 31
0.0
  0
LINE
  5
12E
  8
002
 62
     3
 10
210.392691
 20
207.005733
 30
0.0
 11
268.392691
 21
207.005733
 31
0.0
  0
LINE
  5
12F
  8
002
 62
     3
 10
268.392691
 20
207.005733
 30
0.0
 11
268.392691
 21
197.005733
 31
0.0
  0
LINE
  5
130
  8
002
 62
     3
 10
210.392691
 20
197.005733
 30
0.0
 11
210.392691
 21
207.005733
 31
0.0
  0
LINE
  5
131
  8
002
 62
     3
 10
268.392691
 20
197.005733
 30
0.0
 11
210.392691
 21
197.005733
 31
0.0
  0
LINE
  5
132
  8
002
 62
     3
 10
266.892391
 20
62.005733
 30
0.0
 11
211.892391
 21
62.005733
 31
0.0
  0
LINE
  5
133
  8
002
 62
     3
 10
211.892391
 20
62.005733
 30
0.0
 11
211.892391
 21
66.005733
 31
0.0
  0
CIRCLE
  5
134
  8
002
 62
     3
 10
219.906791
 20
387.582933
 30
0.0
 40
3.299997
  0
LINE
  5
135
  8
002
 62
     3
 10
229.152391
 20
387.432233
 30
0.0
 11
229.152391
 21
387.871233
 31
0.0
  0
LINE
  5
136
  8
002
 62
     3
 10
249.632391
 20
387.432233
 30
0.0
 11
249.632391
 21
387.871233
 31
0.0
  0
CIRCLE
  5
137
  8
002
 62
     3
 10
239.392291
 20
398.832133
 30
0.0
 40
7.999999
  0
CIRCLE
  5
138
  8
002
 62
     3
 10
239.392391
 20
398.832433
 30
0.0
 40
28.99997
  0
CIRCLE
  5
139
  8
002
 62
     3
 10
258.877891
 20
387.582933
 30
0.0
 40
3.299997
  0
CIRCLE
  5
13A
  8
002
 62
     3
 10
258.877891
 20
410.082433
 30
0.0
 40
3.299997
  0
CIRCLE
  5
13B
  8
002
 62
     3
 10
219.906791
 20
410.082433
 30
0.0
 40
3.299997
  0
LINE
  5
13C
  8
002
  6
CENTER
 62
    40
 10
255.302291
 20
68.005733
 30
0.0
 11
255.302291
 21
54.284133
 31
0.0
  0
LINE
  5
13D
  8
002
  6
PHANTOM
 62
    40
 10
229.001191
 20
236.663133
 30
0.0
 11
231.892091
 21
233.141733
 31
0.0
  0
LINE
  5
13E
  8
002
  6
PHANTOM
 62
    40
 10
246.891991
 20
214.869733
 30
0.0
 11
249.540591
 21
211.643333
 31
0.0
  0
LINE
  5
13F
  8
002
  6
CENTER
 62
    40
 10
261.892691
 20
194.356733
 30
0.0
 11
261.892691
 21
208.396633
 31
0.0
  0
LINE
  5
140
  8
002
  6
CENTER
 62
    40
 10
216.892691
 20
194.356733
 30
0.0
 11
216.892691
 21
208.396633
 31
0.0
  0
LINE
  5
141
  8
002
  6
CENTER
 62
    40
 10
315.215091
 20
96.005733
 30
0.0
 11
185.610691
 21
96.005733
 31
0.0
  0
LINE
  5
142
  8
002
  6
CENTER
 62
    40
 10
223.482491
 20
68.005733
 30
0.0
 11
223.482491
 21
54.284133
 31
0.0
  0
LINE
  5
143
  8
002
  6
CENTER
 62
    40
 10
212.345591
 20
414.448133
 30
0.0
 11
224.535191
 21
407.410533
 31
0.0
  0
LINE
  5
144
  8
002
  6
CENTER
 62
    40
 10
223.883791
 20
389.878633
 30
0.0
 11
212.690791
 21
383.416333
 31
0.0
  0
LINE
  5
145
  8
002
  6
CENTER
 62
    40
 10
208.702191
 20
398.832433
 30
0.0
 11
268.392291
 21
398.832433
 31
0.0
  0
LINE
  5
146
  8
002
  6
CENTER
 62
    40
 10
264.507191
 20
384.332633
 30
0.0
 11
254.701791
 21
389.993833
 31
0.0
  0
LINE
  5
147
  8
002
  6
PHANTOM
 62
    40
 10
250.892391
 20
389.201533
 30
0.0
 11
250.892391
 21
377.832433
 31
0.0
  0
LINE
  5
148
  8
002
  6
PHANTOM
 62
    40
 10
247.892391
 20
374.832433
 30
0.0
 11
230.892391
 21
374.832433
 31
0.0
  0
LINE
  5
149
  8
002
  6
PHANTOM
 62
    40
 10
227.892391
 20
377.832433
 30
0.0
 11
227.892391
 21
389.201433
 31
0.0
  0
ARC
  5
14A
  8
002
  6
PHANTOM
 62
    40
 10
230.892391
 20
377.832433
 30
0.0
 40
3.0
 50
180.0
 51
270.0
  0
LINE
  5
14B
  8
002
  6
CENTER
 62
    40
 10
239.392391
 20
367.611233
 30
0.0
 11
239.392391
 21
429.921233
 31
0.0
  0
LINE
  5
14C
  8
002
  6
CENTER
 62
    40
 10
255.046791
 20
407.870533
 30
0.0
 11
264.507091
 21
413.332433
 31
0.0
  0
ARC
  5
14D
  8
002
  6
CENTER
 62
    40
 10
239.392391
 20
398.832433
 30
0.0
 40
22.50000432222186
 50
315.293504
 51
229.566555
  0
ARC
  5
14E
  8
002
  6
PHANTOM
 62
    40
 10
247.892391
 20
377.832433
 30
0.0
 40
3.0
 50
270.0
 51
0.0
  0
CIRCLE
  5
14F
  8
002
 62
     3
 10
239.392291
 20
398.832133
 30
0.0
 40
15.0
  0
CIRCLE
  5
150
  8
002
 62
     3
 10
239.392291
 20
398.832133
 30
0.0
 40
14.0
  0
ARC
  5
151
  8
002
 62
     3
 10
240.632391
 20
387.432233
 30
0.0
 40
9.0
 50
314.07173
 51
0.0
  0
LINE
  5
152
  8
002
 62
     3
 10
246.892291
 20
377.632233
 30
0.0
 11
246.892291
 21
385.841933
 31
0.0
  0
LINE
  5
153
  8
002
 62
     3
 10
231.892391
 20
377.632233
 30
0.0
 11
246.892291
 21
377.632233
 31
0.0
  0
LINE
  5
154
  8
002
 62
     3
 10
231.892391
 20
385.841933
 30
0.0
 11
231.892391
 21
377.632233
 31
0.0
  0
ARC
  5
155
  8
002
 62
     3
 10
238.152391
 20
387.432233
 30
0.0
 40
8.999963468814713
 50
180.0
 51
225.92827
  0
ARC
  5
156
  8
002
 62
     3
 10
239.392291
 20
398.832133
 30
0.0
 40
15.79993547328593
 50
241.661126
 51
298.338874
  0
LINE
  5
157
  8
002
 62
     3
 10
242.342291
 20
383.032333
 30
0.0
 11
242.342291
 21
382.332333
 31
0.0
  0
LINE
  5
158
  8
002
 62
     3
 10
239.392291
 20
383.032333
 30
0.0
 11
242.342291
 21
383.032333
 31
0.0
  0
LINE
  5
159
  8
002
 62
     3
 10
242.342291
 20
382.332333
 30
0.0
 11
236.442391
 21
382.332333
 31
0.0
  0
LINE
  5
15A
  8
002
 62
     3
 10
236.442391
 20
382.332333
 30
0.0
 11
236.442391
 21
383.032333
 31
0.0
  0
LINE
  5
15B
  8
002
 62
     3
 10
236.442391
 20
383.032333
 30
0.0
 11
238.988191
 21
383.032333
 31
0.0
  0
LINE
  5
15C
  8
002
 62
     3
 10
236.716491
 20
381.484933
 30
0.0
 11
236.642391
 21
382.332233
 31
0.0
  0
ARC
  5
15D
  8
002
 62
     3
 10
237.712691
 20
381.572133
 30
0.0
 40
0.9999720046081633
 50
185.008207
 51
253.745296
  0
ARC
  5
15E
  8
002
 62
     3
 10
239.392291
 20
387.332133
 30
0.0
 40
6.99972719254114
 50
253.743495
 51
264.771259
  0
LINE
  5
15F
  8
002
 62
     3
 10
238.992391
 20
380.554533
 30
0.0
 11
238.992391
 21
380.411233
 31
0.0
  0
LINE
  5
160
  8
002
 62
     3
 10
238.992391
 20
380.411433
 30
0.0
 11
238.754491
 21
380.361333
 31
0.0
  0
LINE
  5
161
  8
002
 62
     3
 10
239.792291
 20
380.554533
 30
0.0
 11
238.992391
 21
380.554533
 31
0.0
  0
LINE
  5
162
  8
002
 62
     3
 10
239.792291
 20
380.411233
 30
0.0
 11
239.792291
 21
380.554533
 31
0.0
  0
ARC
  5
163
  8
002
 62
     3
 10
239.392291
 20
387.332133
 30
0.0
 40
6.99979200905278
 50
275.229556
 51
286.257291
  0
LINE
  5
164
  8
002
 62
     3
 10
240.030191
 20
380.361333
 30
0.0
 11
239.792291
 21
380.411333
 31
0.0
  0
ARC
  5
165
  8
002
 62
     3
 10
241.071991
 20
381.572133
 30
0.0
 40
1.000017864840442
 50
286.254704
 51
354.991793
  0
LINE
  5
166
  8
002
 62
     3
 10
242.142291
 20
382.332233
 30
0.0
 11
242.068191
 21
381.484833
 31
0.0
  0
LINE
  5
167
  8
002
 62
     3
 10
239.796491
 20
382.332333
 30
0.0
 11
239.392291
 21
383.032333
 31
0.0
  0
LINE
  5
168
  8
002
 62
     3
 10
238.988191
 20
383.032333
 30
0.0
 11
239.392291
 21
382.332333
 31
0.0
  0
CIRCLE
  5
169
  8
002
 62
     3
 10
239.392391
 20
398.832433
 30
0.0
 40
6.0
  0
LINE
  5
16A
  8
002
 62
     3
 10
231.392691
 20
241.005733
 30
0.0
 11
231.392691
 21
311.005733
 31
0.0
  0
LINE
  5
16B
  8
002
 62
     3
 10
231.392691
 20
311.005733
 30
0.0
 11
247.392691
 21
311.005733
 31
0.0
  0
LINE
  5
16C
  8
002
 62
     3
 10
247.392691
 20
311.005733
 30
0.0
 11
247.392691
 21
241.005733
 31
0.0
  0
LINE
  5
16D
  8
002
 62
     3
 10
233.392991
 20
311.005733
 30
0.0
 11
233.392991
 21
331.005733
 31
0.0
  0
LINE
  5
16E
  8
002
 62
     3
 10
233.392991
 20
331.005733
 30
0.0
 11
245.392991
 21
331.005733
 31
0.0
  0
LINE
  5
16F
  8
002
 62
     3
 10
245.392991
 20
331.005733
 30
0.0
 11
245.392991
 21
311.005733
 31
0.0
  0
LINE
  5
170
  8
002
 62
    40
 10
232.622691
 20
311.005733
 30
0.0
 11
232.622691
 21
241.005733
 31
0.0
  0
LINE
  5
171
  8
002
 62
    40
 10
246.162691
 20
241.005733
 30
0.0
 11
246.162691
 21
311.005733
 31
0.0
  0
CIRCLE
  5
172
  8
003
 62
    40
 10
239.392391
 20
398.832433
 30
0.0
 40
6.769700000000057
  0
LINE
  5
173
  8
002
 62
     3
 10
677.336891
 20
62.005733
 30
0.0
 11
677.336891
 21
57.005733
 31
0.0
  0
LINE
  5
174
  8
002
 62
     3
 10
668.836891
 20
57.005733
 30
0.0
 11
668.836891
 21
62.005733
 31
0.0
  0
LINE
  5
175
  8
002
 62
     3
 10
668.836891
 20
57.005733
 30
0.0
 11
677.336891
 21
57.005733
 31
0.0
  0
LINE
  5
176
  8
002
 62
     3
 10
671.996791
 20
57.005733
 30
0.0
 11
671.996791
 21
36.005733
 31
0.0
  0
LINE
  5
177
  8
002
 62
     3
 10
671.996791
 20
36.005733
 30
0.0
 11
705.996791
 21
36.005733
 31
0.0
  0
LINE
  5
178
  8
002
 62
     3
 10
705.996791
 20
36.005733
 30
0.0
 11
705.996791
 21
57.005733
 31
0.0
  0
LINE
  5
179
  8
002
 62
     3
 10
709.156691
 20
57.005733
 30
0.0
 11
700.656691
 21
57.005733
 31
0.0
  0
LINE
  5
17A
  8
002
 62
     3
 10
709.156691
 20
57.005733
 30
0.0
 11
709.156691
 21
62.005733
 31
0.0
  0
LINE
  5
17B
  8
002
 62
     3
 10
700.656691
 20
57.005733
 30
0.0
 11
700.656691
 21
62.005733
 31
0.0
  0
LINE
  5
17C
  8
002
 62
     3
 10
695.497191
 20
229.005733
 30
0.0
 11
682.497191
 21
229.005733
 31
0.0
  0
ARC
  5
17D
  8
002
 62
     3
 10
682.497191
 20
228.005733
 30
0.0
 40
1.0
 50
90.0
 51
180.0
  0
LINE
  5
17E
  8
002
 62
     3
 10
681.497191
 20
228.005733
 30
0.0
 11
681.497191
 21
200.005833
 31
0.0
  0
ARC
  5
17F
  8
002
 62
     3
 10
682.497191
 20
200.005733
 30
0.0
 40
1.0
 50
180.0
 51
270.0
  0
LINE
  5
180
  8
002
 62
     3
 10
682.497191
 20
199.005733
 30
0.0
 11
695.497091
 21
199.005733
 31
0.0
  0
ARC
  5
181
  8
002
 62
     3
 10
695.497091
 20
200.005733
 30
0.0
 40
1.0
 50
270.0
 51
0.0
  0
LINE
  5
182
  8
002
 62
     3
 10
696.497091
 20
200.005733
 30
0.0
 11
696.497091
 21
228.005733
 31
0.0
  0
ARC
  5
183
  8
002
 62
     3
 10
695.497191
 20
228.005733
 30
0.0
 40
1.0
 50
0.0
 51
90.0
  0
LINE
  5
184
  8
002
 62
     3
 10
690.747191
 20
224.405733
 30
0.0
 11
690.747191
 21
223.605733
 31
0.0
  0
LINE
  5
185
  8
002
 62
     3
 10
690.747191
 20
223.605733
 30
0.0
 11
690.047191
 21
223.605733
 31
0.0
  0
LINE
  5
186
  8
002
 62
     3
 10
690.047191
 20
223.605733
 30
0.0
 11
689.635091
 21
223.367833
 31
0.0
  0
LINE
  5
187
  8
002
 62
     3
 10
689.635091
 20
223.367833
 30
0.0
 11
689.397191
 21
222.955733
 31
0.0
  0
LINE
  5
188
  8
002
 62
     3
 10
689.397191
 20
222.955733
 30
0.0
 11
689.397191
 21
222.255733
 31
0.0
  0
LINE
  5
189
  8
002
 62
     3
 10
689.397191
 20
222.255733
 30
0.0
 11
688.597191
 21
222.255733
 31
0.0
  0
LINE
  5
18A
  8
002
 62
     3
 10
688.597191
 20
222.255733
 30
0.0
 11
688.597191
 21
222.955733
 31
0.0
  0
LINE
  5
18B
  8
002
 62
     3
 10
688.597191
 20
222.955733
 30
0.0
 11
688.359291
 21
223.367833
 31
0.0
  0
LINE
  5
18C
  8
002
 62
     3
 10
688.359291
 20
223.367833
 30
0.0
 11
687.947191
 21
223.605733
 31
0.0
  0
LINE
  5
18D
  8
002
 62
     3
 10
687.947191
 20
223.605733
 30
0.0
 11
687.247191
 21
223.605733
 31
0.0
  0
LINE
  5
18E
  8
002
 62
     3
 10
687.247191
 20
223.605733
 30
0.0
 11
687.247191
 21
224.405733
 31
0.0
  0
LINE
  5
18F
  8
002
 62
     3
 10
687.247191
 20
224.405733
 30
0.0
 11
687.947191
 21
224.405733
 31
0.0
  0
LINE
  5
190
  8
002
 62
     3
 10
687.947191
 20
224.405833
 30
0.0
 11
688.359291
 21
224.643733
 31
0.0
  0
LINE
  5
191
  8
002
 62
     3
 10
688.359191
 20
224.643733
 30
0.0
 11
688.597191
 21
225.055733
 31
0.0
  0
LINE
  5
192
  8
002
 62
     3
 10
688.597191
 20
225.055733
 30
0.0
 11
688.597191
 21
225.755733
 31
0.0
  0
LINE
  5
193
  8
002
 62
     3
 10
688.597191
 20
225.755733
 30
0.0
 11
689.397191
 21
225.755733
 31
0.0
  0
LINE
  5
194
  8
002
 62
     3
 10
689.397191
 20
225.755733
 30
0.0
 11
689.397191
 21
225.055733
 31
0.0
  0
LINE
  5
195
  8
002
 62
     3
 10
689.397191
 20
225.055733
 30
0.0
 11
689.635091
 21
224.643733
 31
0.0
  0
LINE
  5
196
  8
002
 62
     3
 10
689.635091
 20
224.643733
 30
0.0
 11
690.047191
 21
224.405733
 31
0.0
  0
LINE
  5
197
  8
002
 62
     3
 10
690.047191
 20
224.405733
 30
0.0
 11
690.747191
 21
224.405733
 31
0.0
  0
CIRCLE
  5
198
  8
002
 62
     3
 10
688.997191
 20
224.005733
 30
0.0
 40
2.749998
  0
ARC
  5
199
  8
002
 62
     3
 10
681.507191
 20
223.129733
 30
0.0
 40
2.750000436363616
 50
90.208347
 51
219.380881
  0
LINE
  5
19A
  8
002
 62
     3
 10
679.381491
 20
221.384833
 30
0.0
 11
681.497191
 21
218.807633
 31
0.0
  0
LINE
  5
19B
  8
002
 62
     3
 10
681.497191
 20
217.547033
 30
0.0
 11
696.339491
 21
199.466733
 31
0.0
  0
LINE
  5
19C
  8
002
 62
     3
 10
673.996491
 20
197.005733
 30
0.0
 11
673.996491
 21
231.005733
 31
0.0
  0
LINE
  5
19D
  8
002
 62
     3
 10
681.654791
 20
228.544733
 30
0.0
 11
696.497091
 21
210.464533
 31
0.0
  0
LINE
  5
19E
  8
002
 62
     3
 10
696.497191
 20
209.203733
 30
0.0
 11
698.612791
 21
206.626733
 31
0.0
  0
ARC
  5
19F
  8
002
 62
     3
 10
696.487091
 20
204.881733
 30
0.0
 40
2.750063884712533
 50
270.208347
 51
39.382492
  0
LINE
  5
1A0
  8
002
 62
     3
 10
690.747091
 20
204.405733
 30
0.0
 11
690.747091
 21
203.605733
 31
0.0
  0
LINE
  5
1A1
  8
002
 62
     3
 10
690.747091
 20
203.605733
 30
0.0
 11
690.047091
 21
203.605733
 31
0.0
  0
LINE
  5
1A2
  8
002
 62
     3
 10
690.047191
 20
203.605733
 30
0.0
 11
689.635091
 21
203.367833
 31
0.0
  0
LINE
  5
1A3
  8
002
 62
     3
 10
689.635091
 20
203.367833
 30
0.0
 11
689.397191
 21
202.955733
 31
0.0
  0
LINE
  5
1A4
  8
002
 62
     3
 10
689.397091
 20
202.955733
 30
0.0
 11
689.397091
 21
202.255733
 31
0.0
  0
LINE
  5
1A5
  8
002
 62
     3
 10
689.397091
 20
202.255733
 30
0.0
 11
688.597091
 21
202.255733
 31
0.0
  0
LINE
  5
1A6
  8
002
 62
     3
 10
688.597091
 20
202.255733
 30
0.0
 11
688.597091
 21
202.955733
 31
0.0
  0
LINE
  5
1A7
  8
002
 62
     3
 10
688.597191
 20
202.955733
 30
0.0
 11
688.359191
 21
203.367833
 31
0.0
  0
LINE
  5
1A8
  8
002
 62
     3
 10
688.359191
 20
203.367833
 30
0.0
 11
687.947191
 21
203.605733
 31
0.0
  0
LINE
  5
1A9
  8
002
 62
     3
 10
687.947091
 20
203.605733
 30
0.0
 11
687.247091
 21
203.605733
 31
0.0
  0
LINE
  5
1AA
  8
002
 62
     3
 10
687.247091
 20
203.605733
 30
0.0
 11
687.247091
 21
204.405733
 31
0.0
  0
LINE
  5
1AB
  8
002
 62
     3
 10
687.247091
 20
204.405733
 30
0.0
 11
687.947191
 21
204.405733
 31
0.0
  0
LINE
  5
1AC
  8
002
 62
     3
 10
687.947091
 20
204.405733
 30
0.0
 11
688.359191
 21
204.643633
 31
0.0
  0
LINE
  5
1AD
  8
002
 62
     3
 10
688.359191
 20
204.643633
 30
0.0
 11
688.597091
 21
205.055733
 31
0.0
  0
LINE
  5
1AE
  8
002
 62
     3
 10
688.597091
 20
205.055733
 30
0.0
 11
688.597091
 21
205.755733
 31
0.0
  0
LINE
  5
1AF
  8
002
 62
     3
 10
688.597091
 20
205.755733
 30
0.0
 11
689.397091
 21
205.755733
 31
0.0
  0
LINE
  5
1B0
  8
002
 62
     3
 10
689.397091
 20
205.755733
 30
0.0
 11
689.397091
 21
205.055733
 31
0.0
  0
LINE
  5
1B1
  8
002
 62
     3
 10
689.397191
 20
205.055733
 30
0.0
 11
689.635091
 21
204.643633
 31
0.0
  0
LINE
  5
1B2
  8
002
 62
     3
 10
689.634991
 20
204.643633
 30
0.0
 11
690.047091
 21
204.405733
 31
0.0
  0
LINE
  5
1B3
  8
002
 62
     3
 10
690.047091
 20
204.405733
 30
0.0
 11
690.747091
 21
204.405733
 31
0.0
  0
CIRCLE
  5
1B4
  8
002
 62
     3
 10
688.997091
 20
204.005733
 30
0.0
 40
2.749998
  0
LINE
  5
1B5
  8
002
 62
     3
 10
673.996491
 20
197.005733
 30
0.0
 11
703.996491
 21
197.005733
 31
0.0
  0
LINE
  5
1B6
  8
002
 62
     3
 10
703.996491
 20
197.005733
 30
0.0
 11
703.996491
 21
231.005733
 31
0.0
  0
LINE
  5
1B7
  8
002
 62
     3
 10
717.996491
 20
231.005733
 30
0.0
 11
659.996491
 21
231.005733
 31
0.0
  0
LINE
  5
1B8
  8
002
 62
     3
 10
659.996491
 20
231.005733
 30
0.0
 11
659.996491
 21
241.005733
 31
0.0
  0
LINE
  5
1B9
  8
002
 62
     3
 10
717.996491
 20
241.005733
 30
0.0
 11
717.996491
 21
231.005733
 31
0.0
  0
LINE
  5
1BA
  8
002
 62
     3
 10
659.996491
 20
241.005733
 30
0.0
 11
717.996491
 21
241.005733
 31
0.0
  0
LINE
  5
1BB
  8
002
 62
     3
 10
716.496791
 20
62.005733
 30
0.0
 11
661.496791
 21
62.005733
 31
0.0
  0
LINE
  5
1BC
  8
002
 62
     3
 10
661.496791
 20
62.005733
 30
0.0
 11
661.496791
 21
66.005733
 31
0.0
  0
LINE
  5
1BD
  8
002
  6
CENTER
 62
    40
 10
704.906691
 20
68.005733
 30
0.0
 11
704.906691
 21
54.284133
 31
0.0
  0
LINE
  5
1BE
  8
002
  6
PHANTOM
 62
    40
 10
699.387991
 20
201.348333
 30
0.0
 11
696.497091
 21
204.869733
 31
0.0
  0
LINE
  5
1BF
  8
002
  6
PHANTOM
 62
    40
 10
681.497191
 20
223.141733
 30
0.0
 11
678.848591
 21
226.368133
 31
0.0
  0
LINE
  5
1C0
  8
002
  6
CENTER
 62
    40
 10
666.496491
 20
243.654733
 30
0.0
 11
666.496491
 21
229.614833
 31
0.0
  0
LINE
  5
1C1
  8
002
  6
CENTER
 62
    40
 10
711.496491
 20
243.654733
 30
0.0
 11
711.496491
 21
229.614833
 31
0.0
  0
LINE
  5
1C2
  8
002
  6
CENTER
 62
    40
 10
764.819491
 20
96.005733
 30
0.0
 11
635.215091
 21
96.005733
 31
0.0
  0
LINE
  5
1C3
  8
002
  6
CENTER
 62
    40
 10
673.086891
 20
68.005733
 30
0.0
 11
673.086891
 21
54.284133
 31
0.0
  0
LINE
  5
1C4
  8
002
 62
     3
 10
680.997091
 20
241.005733
 30
0.0
 11
680.997091
 21
311.005733
 31
0.0
  0
LINE
  5
1C5
  8
002
 62
     3
 10
680.997091
 20
311.005733
 30
0.0
 11
696.997091
 21
311.005733
 31
0.0
  0
LINE
  5
1C6
  8
002
 62
     3
 10
696.997091
 20
311.005733
 30
0.0
 11
696.997091
 21
241.005733
 31
0.0
  0
LINE
  5
1C7
  8
002
 62
     3
 10
682.997391
 20
311.005733
 30
0.0
 11
682.997391
 21
331.005733
 31
0.0
  0
LINE
  5
1C8
  8
002
 62
     3
 10
682.997391
 20
331.005733
 30
0.0
 11
694.997391
 21
331.005733
 31
0.0
  0
LINE
  5
1C9
  8
002
 62
     3
 10
694.997391
 20
331.005733
 30
0.0
 11
694.997391
 21
311.005733
 31
0.0
  0
LINE
  5
1CA
  8
002
 62
    40
 10
682.227091
 20
311.005733
 30
0.0
 11
682.227091
 21
241.005733
 31
0.0
  0
LINE
  5
1CB
  8
002
 62
    40
 10
695.767091
 20
241.005733
 30
0.0
 11
695.767091
 21
311.005733
 31
0.0
  0
LINE
  5
1CC
  8
002
 62
     3
 10
1611.218781
 20
306.863845
 30
0.0
 11
1611.218781
 21
311.863845
 31
0.0
  0
LINE
  5
1CD
  8
002
 62
     3
 10
1611.218781
 20
311.863845
 30
0.0
 11
1602.718781
 21
311.863845
 31
0.0
  0
LINE
  5
1CE
  8
002
 62
     3
 10
1605.878781
 20
311.863845
 30
0.0
 11
1605.878781
 21
332.863845
 31
0.0
  0
LINE
  5
1CF
  8
002
 62
     3
 10
1605.878781
 20
332.863845
 30
0.0
 11
1639.878781
 21
332.863845
 31
0.0
  0
LINE
  5
1D0
  8
002
 62
     3
 10
1639.878781
 20
332.863845
 30
0.0
 11
1639.878781
 21
311.863845
 31
0.0
  0
LINE
  5
1D1
  8
002
 62
     3
 10
1634.538781
 20
311.863845
 30
0.0
 11
1634.538781
 21
306.863845
 31
0.0
  0
LINE
  5
1D2
  8
002
 62
     3
 10
1634.538781
 20
311.863845
 30
0.0
 11
1643.038781
 21
311.863845
 31
0.0
  0
LINE
  5
1D3
  8
002
 62
     3
 10
1643.038781
 20
311.863845
 30
0.0
 11
1643.038781
 21
306.863845
 31
0.0
  0
LINE
  5
1D4
  8
002
 62
     3
 10
1616.378781
 20
130.863745
 30
0.0
 11
1629.378781
 21
130.863745
 31
0.0
  0
ARC
  5
1D5
  8
002
 62
     3
 10
1629.378781
 20
131.863745
 30
0.0
 40
1.0
 50
270.0
 51
0.0
  0
LINE
  5
1D6
  8
002
 62
     3
 10
1630.378781
 20
131.863745
 30
0.0
 11
1630.378781
 21
159.863745
 31
0.0
  0
ARC
  5
1D7
  8
002
 62
     3
 10
1629.378781
 20
159.863845
 30
0.0
 40
1.0
 50
0.0
 51
90.0
  0
LINE
  5
1D8
  8
002
 62
     3
 10
1629.378781
 20
160.863845
 30
0.0
 11
1616.379781
 21
160.863845
 31
0.0
  0
ARC
  5
1D9
  8
002
 62
     3
 10
1616.379781
 20
159.863845
 30
0.0
 40
1.0
 50
90.0
 51
180.0
  0
LINE
  5
1DA
  8
002
 62
     3
 10
1615.379781
 20
159.863845
 30
0.0
 11
1615.379781
 21
131.863845
 31
0.0
  0
ARC
  5
1DB
  8
002
 62
     3
 10
1616.378781
 20
131.863745
 30
0.0
 40
1.000000000000028
 50
180.0
 51
270.0
  0
CIRCLE
  5
1DC
  8
002
 62
     3
 10
1622.878781
 20
135.863745
 30
0.0
 40
2.749998
  0
LINE
  5
1DD
  8
002
 62
     3
 10
1621.128781
 20
135.463745
 30
0.0
 11
1621.828781
 21
135.463745
 31
0.0
  0
LINE
  5
1DE
  8
002
 62
     3
 10
1621.828781
 20
135.463745
 30
0.0
 11
1622.241781
 21
135.225845
 31
0.0
  0
LINE
  5
1DF
  8
002
 62
     3
 10
1622.241781
 20
135.225845
 30
0.0
 11
1622.478781
 21
134.813745
 31
0.0
  0
LINE
  5
1E0
  8
002
 62
     3
 10
1622.478781
 20
134.813745
 30
0.0
 11
1622.478781
 21
134.113745
 31
0.0
  0
LINE
  5
1E1
  8
002
 62
     3
 10
1622.478781
 20
134.113745
 30
0.0
 11
1623.278781
 21
134.113745
 31
0.0
  0
LINE
  5
1E2
  8
002
 62
     3
 10
1623.278781
 20
134.113745
 30
0.0
 11
1623.278781
 21
134.813745
 31
0.0
  0
LINE
  5
1E3
  8
002
 62
     3
 10
1623.278781
 20
134.813745
 30
0.0
 11
1623.516781
 21
135.225845
 31
0.0
  0
LINE
  5
1E4
  8
002
 62
     3
 10
1623.516781
 20
135.225845
 30
0.0
 11
1623.928781
 21
135.463745
 31
0.0
  0
LINE
  5
1E5
  8
002
 62
     3
 10
1623.928781
 20
135.463745
 30
0.0
 11
1624.628781
 21
135.463745
 31
0.0
  0
LINE
  5
1E6
  8
002
 62
     3
 10
1624.628781
 20
135.463745
 30
0.0
 11
1624.628781
 21
136.263745
 31
0.0
  0
LINE
  5
1E7
  8
002
 62
     3
 10
1624.628781
 20
136.263745
 30
0.0
 11
1623.928781
 21
136.263745
 31
0.0
  0
LINE
  5
1E8
  8
002
 62
     3
 10
1623.928781
 20
136.263745
 30
0.0
 11
1623.516781
 21
136.501645
 31
0.0
  0
LINE
  5
1E9
  8
002
 62
     3
 10
1623.516781
 20
136.501645
 30
0.0
 11
1623.279781
 21
136.913745
 31
0.0
  0
LINE
  5
1EA
  8
002
 62
     3
 10
1623.278781
 20
136.913745
 30
0.0
 11
1623.278781
 21
137.613745
 31
0.0
  0
LINE
  5
1EB
  8
002
 62
     3
 10
1623.278781
 20
137.613745
 30
0.0
 11
1622.478781
 21
137.613745
 31
0.0
  0
LINE
  5
1EC
  8
002
 62
     3
 10
1622.478781
 20
137.613745
 30
0.0
 11
1622.478781
 21
136.913745
 31
0.0
  0
LINE
  5
1ED
  8
002
 62
     3
 10
1622.478781
 20
136.913745
 30
0.0
 11
1622.241781
 21
136.501645
 31
0.0
  0
LINE
  5
1EE
  8
002
 62
     3
 10
1622.241781
 20
136.501645
 30
0.0
 11
1621.828781
 21
136.263745
 31
0.0
  0
LINE
  5
1EF
  8
002
 62
     3
 10
1621.828781
 20
136.263745
 30
0.0
 11
1621.128781
 21
136.263745
 31
0.0
  0
LINE
  5
1F0
  8
002
 62
     3
 10
1621.128781
 20
136.263745
 30
0.0
 11
1621.128781
 21
135.463745
 31
0.0
  0
ARC
  5
1F1
  8
002
 62
     3
 10
1630.368781
 20
136.739745
 30
0.0
 40
2.750373067421928
 50
270.208347
 51
39.377204
  0
LINE
  5
1F2
  8
002
 62
     3
 10
1632.494781
 20
138.484745
 30
0.0
 11
1630.379781
 21
141.061745
 31
0.0
  0
LINE
  5
1F3
  8
002
 62
     3
 10
1630.378781
 20
142.322545
 30
0.0
 11
1615.536781
 21
160.402745
 31
0.0
  0
ARC
  5
1F4
  8
002
 62
     3
 10
1615.389781
 20
154.987745
 30
0.0
 40
2.750309626205728
 50
90.208347
 51
219.375594
  0
LINE
  5
1F5
  8
002
 62
     3
 10
1613.263781
 20
153.242845
 30
0.0
 11
1615.379781
 21
150.665645
 31
0.0
  0
LINE
  5
1F6
  8
002
 62
     3
 10
1615.379781
 20
149.405045
 30
0.0
 11
1630.221781
 21
131.324845
 31
0.0
  0
LINE
  5
1F7
  8
002
 62
     3
 10
1650.378781
 20
306.863845
 30
0.0
 11
1595.378781
 21
306.863845
 31
0.0
  0
LINE
  5
1F8
  8
002
 62
     3
 10
1595.378781
 20
306.863845
 30
0.0
 11
1595.378781
 21
302.863845
 31
0.0
  0
LINE
  5
1F9
  8
002
 62
     3
 10
1602.718781
 20
306.863845
 30
0.0
 11
1602.718781
 21
311.863845
 31
0.0
  0
LINE
  5
1FA
  8
002
 62
     3
 10
1607.878781
 20
128.863845
 30
0.0
 11
1637.878781
 21
128.863845
 31
0.0
  0
LINE
  5
1FB
  8
002
 62
     3
 10
1607.878781
 20
128.863845
 30
0.0
 11
1607.878781
 21
162.863745
 31
0.0
  0
LINE
  5
1FC
  8
002
 62
     3
 10
1637.878781
 20
162.863745
 30
0.0
 11
1637.878781
 21
128.863845
 31
0.0
  0
LINE
  5
1FD
  8
002
 62
     3
 10
1622.479781
 20
154.113845
 30
0.0
 11
1622.479781
 21
154.813745
 31
0.0
  0
LINE
  5
1FE
  8
002
 62
     3
 10
1622.479781
 20
154.813845
 30
0.0
 11
1622.241781
 21
155.225845
 31
0.0
  0
LINE
  5
1FF
  8
002
 62
     3
 10
1622.241781
 20
155.225845
 30
0.0
 11
1621.829781
 21
155.463745
 31
0.0
  0
LINE
  5
200
  8
002
 62
     3
 10
1621.829781
 20
155.463845
 30
0.0
 11
1621.129781
 21
155.463845
 31
0.0
  0
LINE
  5
201
  8
002
 62
     3
 10
1621.129781
 20
155.463845
 30
0.0
 11
1621.129781
 21
156.263745
 31
0.0
  0
LINE
  5
202
  8
002
 62
     3
 10
1621.129781
 20
156.263745
 30
0.0
 11
1621.829781
 21
156.263745
 31
0.0
  0
LINE
  5
203
  8
002
 62
     3
 10
1621.829781
 20
156.263845
 30
0.0
 11
1622.241781
 21
156.501745
 31
0.0
  0
LINE
  5
204
  8
002
 62
     3
 10
1622.241781
 20
156.501745
 30
0.0
 11
1622.479781
 21
156.913845
 31
0.0
  0
LINE
  5
205
  8
002
 62
     3
 10
1622.479781
 20
156.913845
 30
0.0
 11
1622.479781
 21
157.613845
 31
0.0
  0
LINE
  5
206
  8
002
 62
     3
 10
1622.479781
 20
157.613845
 30
0.0
 11
1623.279781
 21
157.613845
 31
0.0
  0
LINE
  5
207
  8
002
 62
     3
 10
1623.279781
 20
157.613845
 30
0.0
 11
1623.279781
 21
156.913845
 31
0.0
  0
LINE
  5
208
  8
002
 62
     3
 10
1623.279781
 20
156.913845
 30
0.0
 11
1623.516781
 21
156.501745
 31
0.0
  0
LINE
  5
209
  8
002
 62
     3
 10
1623.516781
 20
156.501745
 30
0.0
 11
1623.929781
 21
156.263745
 31
0.0
  0
LINE
  5
20A
  8
002
 62
     3
 10
1623.929781
 20
156.263745
 30
0.0
 11
1624.629781
 21
156.263745
 31
0.0
  0
LINE
  5
20B
  8
002
 62
     3
 10
1624.629781
 20
156.263745
 30
0.0
 11
1624.629781
 21
155.463845
 31
0.0
  0
LINE
  5
20C
  8
002
 62
     3
 10
1624.629781
 20
155.463845
 30
0.0
 11
1623.929781
 21
155.463845
 31
0.0
  0
LINE
  5
20D
  8
002
 62
     3
 10
1623.928781
 20
155.463745
 30
0.0
 11
1623.516781
 21
155.225845
 31
0.0
  0
LINE
  5
20E
  8
002
 62
     3
 10
1623.516781
 20
155.225845
 30
0.0
 11
1623.279781
 21
154.813845
 31
0.0
  0
LINE
  5
20F
  8
002
 62
     3
 10
1623.279781
 20
154.813745
 30
0.0
 11
1623.279781
 21
154.113845
 31
0.0
  0
LINE
  5
210
  8
002
 62
     3
 10
1623.279781
 20
154.113845
 30
0.0
 11
1622.479781
 21
154.113845
 31
0.0
  0
CIRCLE
  5
211
  8
002
 62
     3
 10
1622.879781
 20
155.863845
 30
0.0
 40
2.749998
  0
LINE
  5
212
  8
002
 62
     3
 10
1651.878781
 20
162.863745
 30
0.0
 11
1593.878281
 21
162.863745
 31
0.0
  0
LINE
  5
213
  8
002
 62
     3
 10
1593.878281
 20
162.863745
 30
0.0
 11
1593.878281
 21
172.863745
 31
0.0
  0
LINE
  5
214
  8
002
 62
     3
 10
1651.878781
 20
172.863745
 30
0.0
 11
1651.878781
 21
162.863745
 31
0.0
  0
LINE
  5
215
  8
002
 62
     3
 10
1593.878281
 20
172.863745
 30
0.0
 11
1651.878781
 21
172.863745
 31
0.0
  0
LINE
  5
216
  8
002
  6
CENTER
 62
    40
 10
1600.378781
 20
161.472945
 30
0.0
 11
1600.378781
 21
175.512745
 31
0.0
  0
LINE
  5
217
  8
002
  6
PHANTOM
 62
    40
 10
1630.378781
 20
136.727745
 30
0.0
 11
1633.269781
 21
133.206345
 31
0.0
  0
LINE
  5
218
  8
002
  6
CENTER
 62
    40
 10
1638.788781
 20
300.863845
 30
0.0
 11
1638.788781
 21
314.585445
 31
0.0
  0
LINE
  5
219
  8
002
  6
CENTER
 62
    40
 10
1698.701781
 20
272.863845
 30
0.0
 11
1569.096781
 21
272.863845
 31
0.0
  0
LINE
  5
21A
  8
002
  6
PHANTOM
 62
    40
 10
1615.379781
 20
154.999845
 30
0.0
 11
1612.730781
 21
158.226145
 31
0.0
  0
LINE
  5
21B
  8
002
  6
CENTER
 62
    40
 10
1645.378781
 20
161.472945
 30
0.0
 11
1645.378781
 21
175.512745
 31
0.0
  0
LINE
  5
21C
  8
002
  6
CENTER
 62
    40
 10
1606.968781
 20
300.863845
 30
0.0
 11
1606.968781
 21
314.585445
 31
0.0
  0
LINE
  5
21D
  8
002
 62
     3
 10
1630.878781
 20
128.863845
 30
0.0
 11
1630.878781
 21
57.863845
 31
0.0
  0
LINE
  5
21E
  8
002
 62
     3
 10
1630.878781
 20
57.863845
 30
0.0
 11
1614.878781
 21
57.863845
 31
0.0
  0
LINE
  5
21F
  8
002
 62
     3
 10
1614.878781
 20
57.863845
 30
0.0
 11
1614.878781
 21
128.863845
 31
0.0
  0
LINE
  5
220
  8
002
 62
     3
 10
1628.879781
 20
57.863845
 30
0.0
 11
1628.879781
 21
37.863845
 31
0.0
  0
LINE
  5
221
  8
002
 62
     3
 10
1628.879781
 20
37.863845
 30
0.0
 11
1616.879781
 21
37.863845
 31
0.0
  0
LINE
  5
222
  8
002
 62
     3
 10
1616.879781
 20
37.863845
 30
0.0
 11
1616.879781
 21
57.863845
 31
0.0
  0
LINE
  5
223
  8
002
 62
    40
 10
1629.648781
 20
57.863845
 30
0.0
 11
1629.648781
 21
128.863845
 31
0.0
  0
LINE
  5
224
  8
002
 62
    40
 10
1616.108781
 20
128.863845
 30
0.0
 11
1616.108781
 21
57.863845
 31
0.0
  0
POLYLINE
  5
225
  8
002
 62
     3
 66
     1
 10
0.0
 20
0.0
 30
0.0
  0
VERTEX
  5
227
  8
002
 62
     3
 10
231.392691
 20
157.505733
 30
0.0
  0
VERTEX
  5
228
  8
002
 62
     3
 10
233.392691
 20
154.755733
 30
0.0
  0
VERTEX
  5
229
  8
002
 62
     3
 10
235.392691
 20
153.505733
 30
0.0
  0
VERTEX
  5
22A
  8
002
 62
     3
 10
237.392691
 20
154.755733
 30
0.0
  0
VERTEX
  5
22B
  8
002
 62
     3
 10
239.392691
 20
157.505733
 30
0.0
  0
VERTEX
  5
22C
  8
002
 62
     3
 10
241.392691
 20
160.255733
 30
0.0
  0
VERTEX
  5
22D
  8
002
 62
     3
 10
243.392691
 20
161.505733
 30
0.0
  0
VERTEX
  5
22E
  8
002
 62
     3
 10
245.392691
 20
160.255733
 30
0.0
  0
VERTEX
  5
22F
  8
002
 62
     3
 10
247.392691
 20
157.505733
 30
0.0
  0
SEQEND
  5
226
  8
002
 62
     3
  0
POLYLINE
  5
230
  8
002
 62
     3
 66
     1
 10
0.0
 20
0.0
 30
0.0
  0
VERTEX
  5
232
  8
002
 62
     3
 10
231.392691
 20
165.505733
 30
0.0
  0
VERTEX
  5
233
  8
002
 62
     3
 10
233.392691
 20
162.755733
 30
0.0
  0
VERTEX
  5
234
  8
002
 62
     3
 10
235.392691
 20
161.505733
 30
0.0
  0
VERTEX
  5
235
  8
002
 62
     3
 10
237.392691
 20
162.755733
 30
0.0
  0
VERTEX
  5
236
  8
002
 62
     3
 10
239.392691
 20
165.505733
 30
0.0
  0
VERTEX
  5
237
  8
002
 62
     3
 10
241.392691
 20
168.255733
 30
0.0
  0
VERTEX
  5
238
  8
002
 62
     3
 10
243.392691
 20
169.505733
 30
0.0
  0
VERTEX
  5
239
  8
002
 62
     3
 10
245.392691
 20
168.255733
 30
0.0
  0
VERTEX
  5
23A
  8
002
 62
     3
 10
247.392691
 20
165.505733
 30
0.0
  0
SEQEND
  5
231
  8
002
 62
     3
  0
LINE
  5
23B
  8
002
 62
     3
 10
231.392691
 20
126.005733
 30
0.0
 11
231.392691
 21
157.505733
 31
0.0
  0
LINE
  5
23C
  8
002
 62
     3
 10
231.392691
 20
165.505733
 30
0.0
 11
231.392691
 21
197.005733
 31
0.0
  0
LINE
  5
23D
  8
002
 62
     3
 10
247.392691
 20
197.005733
 30
0.0
 11
247.392691
 21
165.505733
 31
0.0
  0
LINE
  5
23E
  8
002
 62
     3
 10
247.392691
 20
157.505733
 30
0.0
 11
247.392691
 21
126.005733
 31
0.0
  0
LINE
  5
23F
  8
002
 62
    40
 10
232.622691
 20
126.005733
 30
0.0
 11
232.622691
 21
155.718885
 31
0.0
  0
LINE
  5
240
  8
002
 62
    40
 10
232.622691
 20
163.718885
 30
0.0
 11
232.622691
 21
197.005733
 31
0.0
  0
LINE
  5
241
  8
002
 62
    40
 10
246.162691
 20
197.005733
 30
0.0
 11
246.162691
 21
167.292581
 31
0.0
  0
LINE
  5
242
  8
002
 62
    40
 10
246.162691
 20
159.292581
 30
0.0
 11
246.162691
 21
126.005733
 31
0.0
  0
POLYLINE
  5
243
  8
002
 62
     3
 66
     1
 10
0.0
 20
0.0
 30
0.0
  0
VERTEX
  5
245
  8
002
 62
     3
 10
680.997091
 20
157.505733
 30
0.0
  0
VERTEX
  5
246
  8
002
 62
     3
 10
682.997091
 20
154.755733
 30
0.0
  0
VERTEX
  5
247
  8
002
 62
     3
 10
684.997091
 20
153.505733
 30
0.0
  0
VERTEX
  5
248
  8
002
 62
     3
 10
686.997091
 20
154.755733
 30
0.0
  0
VERTEX
  5
249
  8
002
 62
     3
 10
688.997091
 20
157.505733
 30
0.0
  0
VERTEX
  5
24A
  8
002
 62
     3
 10
690.997091
 20
160.255733
 30
0.0
  0
VERTEX
  5
24B
  8
002
 62
     3
 10
692.997091
 20
161.505733
 30
0.0
  0
VERTEX
  5
24C
  8
002
 62
     3
 10
694.997091
 20
160.255733
 30
0.0
  0
VERTEX
  5
24D
  8
002
 62
     3
 10
696.997091
 20
157.505733
 30
0.0
  0
SEQEND
  5
244
  8
002
 62
     3
  0
POLYLINE
  5
24E
  8
002
 62
     3
 66
     1
 10
0.0
 20
0.0
 30
0.0
  0
VERTEX
  5
250
  8
002
 62
     3
 10
680.997091
 20
165.505733
 30
0.0
  0
VERTEX
  5
251
  8
002
 62
     3
 10
682.997091
 20
162.755733
 30
0.0
  0
VERTEX
  5
252
  8
002
 62
     3
 10
684.997091
 20
161.505733
 30
0.0
  0
VERTEX
  5
253
  8
002
 62
     3
 10
686.997091
 20
162.755733
 30
0.0
  0
VERTEX
  5
254
  8
002
 62
     3
 10
688.997091
 20
165.505733
 30
0.0
  0
VERTEX
  5
255
  8
002
 62
     3
 10
690.997091
 20
168.255733
 30
0.0
  0
VERTEX
  5
256
  8
002
 62
     3
 10
692.997091
 20
169.505733
 30
0.0
  0
VERTEX
  5
257
  8
002
 62
     3
 10
694.997091
 20
168.255733
 30
0.0
  0
VERTEX
  5
258
  8
002
 62
     3
 10
696.997091
 20
165.505733
 30
0.0
  0
SEQEND
  5
24F
  8
002
 62
     3
  0
LINE
  5
259
  8
002
 62
     3
 10
680.997091
 20
126.005733
 30
0.0
 11
680.997091
 21
157.505733
 31
0.0
  0
LINE
  5
25A
  8
002
 62
     3
 10
680.997091
 20
165.505733
 30
0.0
 11
680.997091
 21
197.005733
 31
0.0
  0
LINE
  5
25B
  8
002
 62
     3
 10
696.997091
 20
197.005733
 30
0.0
 11
696.997091
 21
165.505733
 31
0.0
  0
LINE
  5
25C
  8
002
 62
     3
 10
696.997091
 20
157.505733
 30
0.0
 11
696.997091
 21
126.005733
 31
0.0
  0
LINE
  5
25D
  8
002
 62
    40
 10
682.227091
 20
126.005733
 30
0.0
 11
682.227091
 21
155.718885
 31
0.0
  0
LINE
  5
25E
  8
002
 62
    40
 10
682.227091
 20
163.718885
 30
0.0
 11
682.227091
 21
197.005733
 31
0.0
  0
LINE
  5
25F
  8
002
 62
    40
 10
695.767091
 20
197.005733
 30
0.0
 11
695.767091
 21
167.292581
 31
0.0
  0
LINE
  5
260
  8
002
 62
    40
 10
695.767091
 20
159.292581
 30
0.0
 11
695.767091
 21
126.005733
 31
0.0
  0
POLYLINE
  5
261
  8
002
 62
     3
 66
     1
 10
0.0
 20
0.0
 30
0.0
  0
VERTEX
  5
263
  8
002
 62
     3
 10
1155.273781
 20
203.863795
 30
0.0
  0
VERTEX
  5
264
  8
002
 62
     3
 10
1157.273781
 20
201.113795
 30
0.0
  0
VERTEX
  5
265
  8
002
 62
     3
 10
1159.273781
 20
199.863795
 30
0.0
  0
VERTEX
  5
266
  8
002
 62
     3
 10
1161.273781
 20
201.113795
 30
0.0
  0
VERTEX
  5
267
  8
002
 62
     3
 10
1163.273781
 20
203.863795
 30
0.0
  0
VERTEX
  5
268
  8
002
 62
     3
 10
1165.273781
 20
206.613795
 30
0.0
  0
VERTEX
  5
269
  8
002
 62
     3
 10
1167.273781
 20
207.863795
 30
0.0
  0
VERTEX
  5
26A
  8
002
 62
     3
 10
1169.273781
 20
206.613795
 30
0.0
  0
VERTEX
  5
26B
  8
002
 62
     3
 10
1171.273781
 20
203.863795
 30
0.0
  0
SEQEND
  5
262
  8
002
 62
     3
  0
POLYLINE
  5
26C
  8
002
 62
     3
 66
     1
 10
0.0
 20
0.0
 30
0.0
  0
VERTEX
  5
26E
  8
002
 62
     3
 10
1155.273781
 20
211.863795
 30
0.0
  0
VERTEX
  5
26F
  8
002
 62
     3
 10
1157.273781
 20
209.113795
 30
0.0
  0
VERTEX
  5
270
  8
002
 62
     3
 10
1159.273781
 20
207.863795
 30
0.0
  0
VERTEX
  5
271
  8
002
 62
     3
 10
1161.273781
 20
209.113795
 30
0.0
  0
VERTEX
  5
272
  8
002
 62
     3
 10
1163.273781
 20
211.863795
 30
0.0
  0
VERTEX
  5
273
  8
002
 62
     3
 10
1165.273781
 20
214.613795
 30
0.0
  0
VERTEX
  5
274
  8
002
 62
     3
 10
1167.273781
 20
215.863795
 30
0.0
  0
VERTEX
  5
275
  8
002
 62
     3
 10
1169.273781
 20
214.613795
 30
0.0
  0
VERTEX
  5
276
  8
002
 62
     3
 10
1171.273781
 20
211.863795
 30
0.0
  0
SEQEND
  5
26D
  8
002
 62
     3
  0
LINE
  5
277
  8
002
 62
     3
 10
1155.273781
 20
242.863845
 30
0.0
 11
1155.273781
 21
211.863795
 31
0.0
  0
LINE
  5
278
  8
002
 62
     3
 10
1155.273781
 20
203.863795
 30
0.0
 11
1155.273781
 21
172.863745
 31
0.0
  0
LINE
  5
279
  8
002
 62
     3
 10
1171.273781
 20
172.863745
 30
0.0
 11
1171.273781
 21
203.863795
 31
0.0
  0
LINE
  5
27A
  8
002
 62
     3
 10
1171.273781
 20
211.863795
 30
0.0
 11
1171.273781
 21
242.863845
 31
0.0
  0
LINE
  5
27B
  8
002
 62
    40
 10
1170.043781
 20
172.863745
 30
0.0
 11
1170.043781
 21
205.650643
 31
0.0
  0
LINE
  5
27C
  8
002
 62
    40
 10
1170.043781
 20
213.650643
 30
0.0
 11
1170.043781
 21
242.863845
 31
0.0
  0
LINE
  5
27D
  8
002
 62
    40
 10
1156.503781
 20
242.863845
 30
0.0
 11
1156.503781
 21
210.076947
 31
0.0
  0
LINE
  5
27E
  8
002
 62
    40
 10
1156.503781
 20
202.076947
 30
0.0
 11
1156.503781
 21
172.863745
 31
0.0
  0
POLYLINE
  5
27F
  8
002
 62
     3
 66
     1
 10
0.0
 20
0.0
 30
0.0
  0
VERTEX
  5
281
  8
002
 62
     3
 10
1614.878781
 20
203.863795
 30
0.0
  0
VERTEX
  5
282
  8
002
 62
     3
 10
1616.878781
 20
201.113795
 30
0.0
  0
VERTEX
  5
283
  8
002
 62
     3
 10
1618.878781
 20
199.863795
 30
0.0
  0
VERTEX
  5
284
  8
002
 62
     3
 10
1620.878781
 20
201.113795
 30
0.0
  0
VERTEX
  5
285
  8
002
 62
     3
 10
1622.878781
 20
203.863795
 30
0.0
  0
VERTEX
  5
286
  8
002
 62
     3
 10
1624.878781
 20
206.613795
 30
0.0
  0
VERTEX
  5
287
  8
002
 62
     3
 10
1626.878781
 20
207.863795
 30
0.0
  0
VERTEX
  5
288
  8
002
 62
     3
 10
1628.878781
 20
206.613795
 30
0.0
  0
VERTEX
  5
289
  8
002
 62
     3
 10
1630.878781
 20
203.863795
 30
0.0
  0
SEQEND
  5
280
  8
002
 62
     3
  0
POLYLINE
  5
28A
  8
002
 62
     3
 66
     1
 10
0.0
 20
0.0
 30
0.0
  0
VERTEX
  5
28C
  8
002
 62
     3
 10
1614.878781
 20
211.863795
 30
0.0
  0
VERTEX
  5
28D
  8
002
 62
     3
 10
1616.878781
 20
209.113795
 30
0.0
  0
VERTEX
  5
28E
  8
002
 62
     3
 10
1618.878781
 20
207.863795
 30
0.0
  0
VERTEX
  5
28F
  8
002
 62
     3
 10
1620.878781
 20
209.113795
 30
0.0
  0
VERTEX
  5
290
  8
002
 62
     3
 10
1622.878781
 20
211.863795
 30
0.0
  0
VERTEX
  5
291
  8
002
 62
     3
 10
1624.878781
 20
214.613795
 30
0.0
  0
VERTEX
  5
292
  8
002
 62
     3
 10
1626.878781
 20
215.863795
 30
0.0
  0
VERTEX
  5
293
  8
002
 62
     3
 10
1628.878781
 20
214.613795
 30
0.0
  0
VERTEX
  5
294
  8
002
 62
     3
 10
1630.878781
 20
211.863795
 30
0.0
  0
SEQEND
  5
28B
  8
002
 62
     3
  0
LINE
  5
295
  8
002
 62
     3
 10
1614.878781
 20
242.863845
 30
0.0
 11
1614.878781
 21
211.863795
 31
0.0
  0
LINE
  5
296
  8
002
 62
     3
 10
1614.878781
 20
203.863795
 30
0.0
 11
1614.878781
 21
172.863745
 31
0.0
  0
LINE
  5
297
  8
002
 62
     3
 10
1630.878781
 20
172.863745
 30
0.0
 11
1630.878781
 21
203.863795
 31
0.0
  0
LINE
  5
298
  8
002
 62
     3
 10
1630.878781
 20
211.863795
 30
0.0
 11
1630.878781
 21
242.863845
 31
0.0
  0
LINE
  5
299
  8
002
 62
    40
 10
1629.648781
 20
172.863745
 30
0.0
 11
1629.648781
 21
205.650643
 31
0.0
  0
LINE
  5
29A
  8
002
 62
    40
 10
1629.648781
 20
213.650643
 30
0.0
 11
1629.648781
 21
242.863845
 31
0.0
  0
LINE
  5
29B
  8
002
 62
    40
 10
1616.108781
 20
242.863845
 30
0.0
 11
1616.108781
 21
210.076947
 31
0.0
  0
LINE
  5
29C
  8
002
 62
    40
 10
1616.108781
 20
202.076947
 30
0.0
 11
1616.108781
 21
172.863745
 31
0.0
  0
LINE
  5
29D
  8
002
  6
CENTER
 62
    40
 10
239.392391
 20
29.491249
 30
0.0
 11
239.392391
 21
333.111233
 31
0.0
  0
LINE
  5
29E
  8
002
  6
CENTER
 62
    40
 10
688.996791
 20
29.491249
 30
0.0
 11
688.996791
 21
333.111233
 31
0.0
  0
LINE
  5
29F
  8
002
  6
CENTER
 62
    40
 10
1163.273781
 20
337.908958
 30
0.0
 11
1163.273781
 21
35.572243
 31
0.0
  0
LINE
  5
2A0
  8
002
  6
CENTER
 62
    40
 10
1622.878781
 20
337.908958
 30
0.0
 11
1622.878781
 21
35.572243
 31
0.0
  0
LINE
  5
2A1
  8
003
  6
CENTER
 62
    40
 10
-1.416669
 20
96.005733
 30
0.0
 11
155.610691
 21
96.005733
 31
0.0
  0
LINE
  5
2A2
  8
002
  6
CENTER
 62
    40
 10
345.215091
 20
96.005733
 30
0.0
 11
502.207173
 21
96.005733
 31
0.0
  0
LINE
  5
2A3
  8
002
 62
     3
 10
64.535491
 20
62.005733
 30
0.0
 11
64.535491
 21
57.005733
 31
0.0
  0
LINE
  5
2A4
  8
002
 62
     3
 10
56.035491
 20
57.005733
 30
0.0
 11
56.035491
 21
62.005733
 31
0.0
  0
LINE
  5
2A5
  8
002
 62
     3
 10
56.035491
 20
57.005733
 30
0.0
 11
64.535491
 21
57.005733
 31
0.0
  0
LINE
  5
2A6
  8
002
 62
     3
 10
96.355291
 20
57.005733
 30
0.0
 11
87.855291
 21
57.005733
 31
0.0
  0
LINE
  5
2A7
  8
002
 62
     3
 10
96.355291
 20
57.005733
 30
0.0
 11
96.355291
 21
62.005733
 31
0.0
  0
LINE
  5
2A8
  8
002
 62
     3
 10
87.855291
 20
57.005733
 30
0.0
 11
87.855291
 21
62.005733
 31
0.0
  0
LINE
  5
2A9
  8
002
 62
     3
 10
103.695391
 20
62.005733
 30
0.0
 11
48.695391
 21
62.005733
 31
0.0
  0
LINE
  5
2AA
  8
002
 62
     3
 10
48.695391
 20
62.005733
 30
0.0
 11
48.695391
 21
66.005733
 31
0.0
  0
LINE
  5
2AB
  8
002
  6
CENTER
 62
    40
 10
92.105291
 20
68.005733
 30
0.0
 11
92.105291
 21
54.284133
 31
0.0
  0
LINE
  5
2AC
  8
002
  6
CENTER
 62
    40
 10
60.285491
 20
68.005733
 30
0.0
 11
60.285491
 21
54.284133
 31
0.0
  0
LINE
  5
2AD
  8
002
 62
     3
 10
103.695391
 20
66.005733
 30
0.0
 11
103.695391
 21
62.005733
 31
0.0
  0
LINE
  5
2AE
  8
002
 62
     3
 10
412.708613
 20
62.005733
 30
0.0
 11
412.708613
 21
57.005733
 31
0.0
  0
LINE
  5
2AF
  8
002
 62
     3
 10
404.208613
 20
57.005733
 30
0.0
 11
404.208613
 21
62.005733
 31
0.0
  0
LINE
  5
2B0
  8
002
 62
     3
 10
404.208613
 20
57.005733
 30
0.0
 11
412.708613
 21
57.005733
 31
0.0
  0
LINE
  5
2B1
  8
002
 62
     3
 10
444.528413
 20
57.005733
 30
0.0
 11
436.028413
 21
57.005733
 31
0.0
  0
LINE
  5
2B2
  8
002
 62
     3
 10
444.528413
 20
57.005733
 30
0.0
 11
444.528413
 21
62.005733
 31
0.0
  0
LINE
  5
2B3
  8
002
 62
     3
 10
436.028413
 20
57.005733
 30
0.0
 11
436.028413
 21
62.005733
 31
0.0
  0
LINE
  5
2B4
  8
002
 62
     3
 10
451.868513
 20
62.005733
 30
0.0
 11
396.868513
 21
62.005733
 31
0.0
  0
LINE
  5
2B5
  8
002
 62
     3
 10
396.868513
 20
62.005733
 30
0.0
 11
396.868513
 21
66.005733
 31
0.0
  0
LINE
  5
2B6
  8
002
  6
CENTER
 62
    40
 10
440.278413
 20
68.005733
 30
0.0
 11
440.278413
 21
54.284133
 31
0.0
  0
LINE
  5
2B7
  8
002
  6
CENTER
 62
    40
 10
408.458613
 20
68.005733
 30
0.0
 11
408.458613
 21
54.284133
 31
0.0
  0
LINE
  5
2B8
  8
002
 62
     3
 10
451.868513
 20
66.005733
 30
0.0
 11
451.868513
 21
62.005733
 31
0.0
  0
LINE
  5
2B9
  8
002
 62
     3
 10
59.195391
 20
57.005733
 30
0.0
 11
59.195391
 21
36.005733
 31
0.0
  0
LINE
  5
2BA
  8
002
 62
     3
 10
59.195391
 20
36.005733
 30
0.0
 11
93.195391
 21
36.005733
 31
0.0
  0
LINE
  5
2BB
  8
002
 62
     3
 10
93.195391
 20
36.005733
 30
0.0
 11
93.195391
 21
57.005733
 31
0.0
  0
LINE
  5
2BC
  8
002
 62
     3
 10
69.694991
 20
209.005733
 30
0.0
 11
82.694991
 21
209.005733
 31
0.0
  0
ARC
  5
2BD
  8
002
 62
     3
 10
82.694991
 20
210.005733
 30
0.0
 40
1.0
 50
270.0
 51
0.0
  0
LINE
  5
2BE
  8
002
 62
     3
 10
83.694991
 20
210.005733
 30
0.0
 11
83.694991
 21
238.005633
 31
0.0
  0
ARC
  5
2BF
  8
002
 62
     3
 10
82.694991
 20
238.005733
 30
0.0
 40
1.0
 50
0.0
 51
90.0
  0
LINE
  5
2C0
  8
002
 62
     3
 10
82.694991
 20
239.005733
 30
0.0
 11
69.695091
 21
239.005733
 31
0.0
  0
ARC
  5
2C1
  8
002
 62
     3
 10
69.695091
 20
238.005733
 30
0.0
 40
1.0
 50
90.0
 51
180.0
  0
LINE
  5
2C2
  8
002
 62
     3
 10
68.695091
 20
238.005733
 30
0.0
 11
68.695091
 21
210.005733
 31
0.0
  0
ARC
  5
2C3
  8
002
 62
     3
 10
69.694991
 20
210.005733
 30
0.0
 40
1.0
 50
180.0
 51
270.0
  0
LINE
  5
2C4
  8
002
 62
     3
 10
74.444991
 20
213.605733
 30
0.0
 11
74.444991
 21
214.405733
 31
0.0
  0
LINE
  5
2C5
  8
002
 62
     3
 10
74.444991
 20
214.405733
 30
0.0
 11
75.144991
 21
214.405733
 31
0.0
  0
LINE
  5
2C6
  8
002
 62
     3
 10
75.144991
 20
214.405733
 30
0.0
 11
75.557091
 21
214.643633
 31
0.0
  0
LINE
  5
2C7
  8
002
 62
     3
 10
75.557091
 20
214.643633
 30
0.0
 11
75.794991
 21
215.055733
 31
0.0
  0
LINE
  5
2C8
  8
002
 62
     3
 10
75.794991
 20
215.055733
 30
0.0
 11
75.794991
 21
215.755733
 31
0.0
  0
LINE
  5
2C9
  8
002
 62
     3
 10
75.794991
 20
215.755733
 30
0.0
 11
76.594991
 21
215.755733
 31
0.0
  0
LINE
  5
2CA
  8
002
 62
     3
 10
76.594991
 20
215.755733
 30
0.0
 11
76.594991
 21
215.055733
 31
0.0
  0
LINE
  5
2CB
  8
002
 62
     3
 10
76.594991
 20
215.055733
 30
0.0
 11
76.832891
 21
214.643633
 31
0.0
  0
LINE
  5
2CC
  8
002
 62
     3
 10
76.832891
 20
214.643633
 30
0.0
 11
77.244991
 21
214.405733
 31
0.0
  0
LINE
  5
2CD
  8
002
 62
     3
 10
77.244991
 20
214.405733
 30
0.0
 11
77.944991
 21
214.405733
 31
0.0
  0
LINE
  5
2CE
  8
002
 62
     3
 10
77.944991
 20
214.405733
 30
0.0
 11
77.944991
 21
213.605733
 31
0.0
  0
LINE
  5
2CF
  8
002
 62
     3
 10
77.944991
 20
213.605733
 30
0.0
 11
77.244991
 21
213.605733
 31
0.0
  0
LINE
  5
2D0
  8
002
 62
     3
 10
77.244991
 20
213.605633
 30
0.0
 11
76.832891
 21
213.367733
 31
0.0
  0
LINE
  5
2D1
  8
002
 62
     3
 10
76.832991
 20
213.367733
 30
0.0
 11
76.594991
 21
212.955733
 31
0.0
  0
LINE
  5
2D2
  8
002
 62
     3
 10
76.594991
 20
212.955733
 30
0.0
 11
76.594991
 21
212.255733
 31
0.0
  0
LINE
  5
2D3
  8
002
 62
     3
 10
76.594991
 20
212.255733
 30
0.0
 11
75.794991
 21
212.255733
 31
0.0
  0
LINE
  5
2D4
  8
002
 62
     3
 10
75.794991
 20
212.255733
 30
0.0
 11
75.794991
 21
212.955733
 31
0.0
  0
LINE
  5
2D5
  8
002
 62
     3
 10
75.794991
 20
212.955733
 30
0.0
 11
75.557091
 21
213.367733
 31
0.0
  0
LINE
  5
2D6
  8
002
 62
     3
 10
75.557091
 20
213.367733
 30
0.0
 11
75.144991
 21
213.605733
 31
0.0
  0
LINE
  5
2D7
  8
002
 62
     3
 10
75.144991
 20
213.605733
 30
0.0
 11
74.444991
 21
213.605733
 31
0.0
  0
CIRCLE
  5
2D8
  8
002
 62
     3
 10
76.194991
 20
214.005733
 30
0.0
 40
2.749998
  0
ARC
  5
2D9
  8
002
 62
     3
 10
83.684991
 20
214.881733
 30
0.0
 40
2.750000436363616
 50
270.208347
 51
39.380881
  0
LINE
  5
2DA
  8
002
 62
     3
 10
85.810691
 20
216.626633
 30
0.0
 11
83.694991
 21
219.203833
 31
0.0
  0
LINE
  5
2DB
  8
002
 62
     3
 10
83.694991
 20
220.464433
 30
0.0
 11
68.852691
 21
238.544733
 31
0.0
  0
LINE
  5
2DC
  8
002
 62
     3
 10
91.195691
 20
241.005733
 30
0.0
 11
91.195691
 21
207.005733
 31
0.0
  0
LINE
  5
2DD
  8
002
 62
     3
 10
83.537391
 20
209.466733
 30
0.0
 11
68.695091
 21
227.546933
 31
0.0
  0
LINE
  5
2DE
  8
002
 62
     3
 10
68.694991
 20
228.807733
 30
0.0
 11
66.579391
 21
231.384733
 31
0.0
  0
ARC
  5
2DF
  8
002
 62
     3
 10
68.705091
 20
233.129733
 30
0.0
 40
2.750063884712533
 50
90.208347
 51
219.382492
  0
LINE
  5
2E0
  8
002
 62
     3
 10
74.445091
 20
233.605733
 30
0.0
 11
74.445091
 21
234.405733
 31
0.0
  0
LINE
  5
2E1
  8
002
 62
     3
 10
74.445091
 20
234.405733
 30
0.0
 11
75.145091
 21
234.405733
 31
0.0
  0
LINE
  5
2E2
  8
002
 62
     3
 10
75.144991
 20
234.405733
 30
0.0
 11
75.557091
 21
234.643633
 31
0.0
  0
LINE
  5
2E3
  8
002
 62
     3
 10
75.557091
 20
234.643633
 30
0.0
 11
75.794991
 21
235.055733
 31
0.0
  0
LINE
  5
2E4
  8
002
 62
     3
 10
75.795091
 20
235.055733
 30
0.0
 11
75.795091
 21
235.755733
 31
0.0
  0
LINE
  5
2E5
  8
002
 62
     3
 10
75.795091
 20
235.755733
 30
0.0
 11
76.595091
 21
235.755733
 31
0.0
  0
LINE
  5
2E6
  8
002
 62
     3
 10
76.595091
 20
235.755733
 30
0.0
 11
76.595091
 21
235.055733
 31
0.0
  0
LINE
  5
2E7
  8
002
 62
     3
 10
76.594991
 20
235.055733
 30
0.0
 11
76.832991
 21
234.643633
 31
0.0
  0
LINE
  5
2E8
  8
002
 62
     3
 10
76.832991
 20
234.643633
 30
0.0
 11
77.244991
 21
234.405733
 31
0.0
  0
LINE
  5
2E9
  8
002
 62
     3
 10
77.245091
 20
234.405733
 30
0.0
 11
77.945091
 21
234.405733
 31
0.0
  0
LINE
  5
2EA
  8
002
 62
     3
 10
77.945091
 20
234.405733
 30
0.0
 11
77.945091
 21
233.605733
 31
0.0
  0
LINE
  5
2EB
  8
002
 62
     3
 10
77.945091
 20
233.605733
 30
0.0
 11
77.244991
 21
233.605733
 31
0.0
  0
LINE
  5
2EC
  8
002
 62
     3
 10
77.245091
 20
233.605733
 30
0.0
 11
76.832991
 21
233.367833
 31
0.0
  0
LINE
  5
2ED
  8
002
 62
     3
 10
76.832991
 20
233.367833
 30
0.0
 11
76.595091
 21
232.955733
 31
0.0
  0
LINE
  5
2EE
  8
002
 62
     3
 10
76.595091
 20
232.955733
 30
0.0
 11
76.595091
 21
232.255733
 31
0.0
  0
LINE
  5
2EF
  8
002
 62
     3
 10
76.595091
 20
232.255733
 30
0.0
 11
75.795091
 21
232.255733
 31
0.0
  0
LINE
  5
2F0
  8
002
 62
     3
 10
75.795091
 20
232.255733
 30
0.0
 11
75.795091
 21
232.955733
 31
0.0
  0
LINE
  5
2F1
  8
002
 62
     3
 10
75.794991
 20
232.955733
 30
0.0
 11
75.557091
 21
233.367833
 31
0.0
  0
LINE
  5
2F2
  8
002
 62
     3
 10
75.557191
 20
233.367833
 30
0.0
 11
75.145091
 21
233.605733
 31
0.0
  0
LINE
  5
2F3
  8
002
 62
     3
 10
75.145091
 20
233.605733
 30
0.0
 11
74.445091
 21
233.605733
 31
0.0
  0
CIRCLE
  5
2F4
  8
002
 62
     3
 10
76.195091
 20
234.005733
 30
0.0
 40
2.749998
  0
LINE
  5
2F5
  8
002
 62
     3
 10
91.195691
 20
241.005733
 30
0.0
 11
61.195691
 21
241.005733
 31
0.0
  0
LINE
  5
2F6
  8
002
 62
     3
 10
61.195691
 20
241.005733
 30
0.0
 11
61.195691
 21
207.005733
 31
0.0
  0
LINE
  5
2F7
  8
002
 62
     3
 10
47.195691
 20
207.005733
 30
0.0
 11
105.195691
 21
207.005733
 31
0.0
  0
LINE
  5
2F8
  8
002
 62
     3
 10
105.195691
 20
207.005733
 30
0.0
 11
105.195691
 21
197.005733
 31
0.0
  0
LINE
  5
2F9
  8
002
 62
     3
 10
47.195691
 20
197.005733
 30
0.0
 11
47.195691
 21
207.005733
 31
0.0
  0
LINE
  5
2FA
  8
002
 62
     3
 10
105.195691
 20
197.005733
 30
0.0
 11
47.195691
 21
197.005733
 31
0.0
  0
LINE
  5
2FB
  8
002
  6
PHANTOM
 62
    40
 10
65.804191
 20
236.663133
 30
0.0
 11
68.695091
 21
233.141733
 31
0.0
  0
LINE
  5
2FC
  8
002
  6
PHANTOM
 62
    40
 10
83.694991
 20
214.869733
 30
0.0
 11
86.343591
 21
211.643333
 31
0.0
  0
LINE
  5
2FD
  8
002
  6
CENTER
 62
    40
 10
98.695691
 20
194.356733
 30
0.0
 11
98.695691
 21
208.396633
 31
0.0
  0
LINE
  5
2FE
  8
002
  6
CENTER
 62
    40
 10
53.695691
 20
194.356733
 30
0.0
 11
53.695691
 21
208.396633
 31
0.0
  0
LINE
  5
2FF
  8
002
 62
     3
 10
68.195691
 20
241.005733
 30
0.0
 11
68.195691
 21
311.005733
 31
0.0
  0
LINE
  5
300
  8
002
 62
     3
 10
68.195691
 20
311.005733
 30
0.0
 11
84.195691
 21
311.005733
 31
0.0
  0
LINE
  5
301
  8
002
 62
     3
 10
84.195691
 20
311.005733
 30
0.0
 11
84.195691
 21
241.005733
 31
0.0
  0
LINE
  5
302
  8
002
 62
     3
 10
70.195991
 20
311.005733
 30
0.0
 11
70.195991
 21
331.005733
 31
0.0
  0
LINE
  5
303
  8
002
 62
     3
 10
70.195991
 20
331.005733
 30
0.0
 11
82.195991
 21
331.005733
 31
0.0
  0
LINE
  5
304
  8
002
 62
     3
 10
82.195991
 20
331.005733
 30
0.0
 11
82.195991
 21
311.005733
 31
0.0
  0
LINE
  5
305
  8
002
 62
    40
 10
69.425691
 20
311.005733
 30
0.0
 11
69.425691
 21
241.005733
 31
0.0
  0
LINE
  5
306
  8
002
 62
    40
 10
82.965691
 20
241.005733
 30
0.0
 11
82.965691
 21
311.005733
 31
0.0
  0
POLYLINE
  5
307
  8
002
 62
     3
 66
     1
 10
0.0
 20
0.0
 30
0.0
  0
VERTEX
  5
309
  8
002
 62
     3
 10
68.195691
 20
157.505733
 30
0.0
  0
VERTEX
  5
30A
  8
002
 62
     3
 10
70.195691
 20
154.755733
 30
0.0
  0
VERTEX
  5
30B
  8
002
 62
     3
 10
72.195691
 20
153.505733
 30
0.0
  0
VERTEX
  5
30C
  8
002
 62
     3
 10
74.195691
 20
154.755733
 30
0.0
  0
VERTEX
  5
30D
  8
002
 62
     3
 10
76.195691
 20
157.505733
 30
0.0
  0
VERTEX
  5
30E
  8
002
 62
     3
 10
78.195691
 20
160.255733
 30
0.0
  0
VERTEX
  5
30F
  8
002
 62
     3
 10
80.195691
 20
161.505733
 30
0.0
  0
VERTEX
  5
310
  8
002
 62
     3
 10
82.195691
 20
160.255733
 30
0.0
  0
VERTEX
  5
311
  8
002
 62
     3
 10
84.195691
 20
157.505733
 30
0.0
  0
SEQEND
  5
308
  8
002
 62
     3
  0
POLYLINE
  5
312
  8
002
 62
     3
 66
     1
 10
0.0
 20
0.0
 30
0.0
  0
VERTEX
  5
314
  8
002
 62
     3
 10
68.195691
 20
165.505733
 30
0.0
  0
VERTEX
  5
315
  8
002
 62
     3
 10
70.195691
 20
162.755733
 30
0.0
  0
VERTEX
  5
316
  8
002
 62
     3
 10
72.195691
 20
161.505733
 30
0.0
  0
VERTEX
  5
317
  8
002
 62
     3
 10
74.195691
 20
162.755733
 30
0.0
  0
VERTEX
  5
318
  8
002
 62
     3
 10
76.195691
 20
165.505733
 30
0.0
  0
VERTEX
  5
319
  8
002
 62
     3
 10
78.195691
 20
168.255733
 30
0.0
  0
VERTEX
  5
31A
  8
002
 62
     3
 10
80.195691
 20
169.505733
 30
0.0
  0
VERTEX
  5
31B
  8
002
 62
     3
 10
82.195691
 20
168.255733
 30
0.0
  0
VERTEX
  5
31C
  8
002
 62
     3
 10
84.195691
 20
165.505733
 30
0.0
  0
SEQEND
  5
313
  8
002
 62
     3
  0
LINE
  5
31D
  8
002
 62
     3
 10
68.195691
 20
126.005733
 30
0.0
 11
68.195691
 21
157.505733
 31
0.0
  0
LINE
  5
31E
  8
002
 62
     3
 10
68.195691
 20
165.505733
 30
0.0
 11
68.195691
 21
197.005733
 31
0.0
  0
LINE
  5
31F
  8
002
 62
     3
 10
84.195691
 20
197.005733
 30
0.0
 11
84.195691
 21
165.505733
 31
0.0
  0
LINE
  5
320
  8
002
 62
     3
 10
84.195691
 20
157.505733
 30
0.0
 11
84.195691
 21
126.005733
 31
0.0
  0
LINE
  5
321
  8
002
 62
    40
 10
69.425691
 20
126.005733
 30
0.0
 11
69.425691
 21
155.718885
 31
0.0
  0
LINE
  5
322
  8
002
 62
    40
 10
69.425691
 20
163.718885
 30
0.0
 11
69.425691
 21
197.005733
 31
0.0
  0
LINE
  5
323
  8
002
 62
    40
 10
82.965691
 20
197.005733
 30
0.0
 11
82.965691
 21
167.292581
 31
0.0
  0
LINE
  5
324
  8
002
 62
    40
 10
82.965691
 20
159.292581
 30
0.0
 11
82.965691
 21
126.005733
 31
0.0
  0
LINE
  5
325
  8
002
 62
     3
 10
407.368513
 20
57.005733
 30
0.0
 11
407.368513
 21
36.005733
 31
0.0
  0
LINE
  5
326
  8
002
 62
     3
 10
407.368513
 20
36.005733
 30
0.0
 11
441.368513
 21
36.005733
 31
0.0
  0
LINE
  5
327
  8
002
 62
     3
 10
441.368513
 20
36.005733
 30
0.0
 11
441.368513
 21
57.005733
 31
0.0
  0
LINE
  5
328
  8
002
 62
     3
 10
417.868113
 20
209.005733
 30
0.0
 11
430.868113
 21
209.005733
 31
0.0
  0
ARC
  5
329
  8
002
 62
     3
 10
430.868113
 20
210.005733
 30
0.0
 40
1.0
 50
270.0
 51
0.0
  0
LINE
  5
32A
  8
002
 62
     3
 10
431.868113
 20
210.005733
 30
0.0
 11
431.868113
 21
238.005633
 31
0.0
  0
ARC
  5
32B
  8
002
 62
     3
 10
430.868113
 20
238.005733
 30
0.0
 40
1.0
 50
0.0
 51
90.0
  0
LINE
  5
32C
  8
002
 62
     3
 10
430.868113
 20
239.005733
 30
0.0
 11
417.868213
 21
239.005733
 31
0.0
  0
ARC
  5
32D
  8
002
 62
     3
 10
417.868213
 20
238.005733
 30
0.0
 40
1.0
 50
90.0
 51
180.0
  0
LINE
  5
32E
  8
002
 62
     3
 10
416.868213
 20
238.005733
 30
0.0
 11
416.868213
 21
210.005733
 31
0.0
  0
ARC
  5
32F
  8
002
 62
     3
 10
417.868113
 20
210.005733
 30
0.0
 40
1.0
 50
180.0
 51
270.0
  0
LINE
  5
330
  8
002
 62
     3
 10
422.618113
 20
213.605733
 30
0.0
 11
422.618113
 21
214.405733
 31
0.0
  0
LINE
  5
331
  8
002
 62
     3
 10
422.618113
 20
214.405733
 30
0.0
 11
423.318113
 21
214.405733
 31
0.0
  0
LINE
  5
332
  8
002
 62
     3
 10
423.318113
 20
214.405733
 30
0.0
 11
423.730213
 21
214.643633
 31
0.0
  0
LINE
  5
333
  8
002
 62
     3
 10
423.730213
 20
214.643633
 30
0.0
 11
423.968113
 21
215.055733
 31
0.0
  0
LINE
  5
334
  8
002
 62
     3
 10
423.968113
 20
215.055733
 30
0.0
 11
423.968113
 21
215.755733
 31
0.0
  0
LINE
  5
335
  8
002
 62
     3
 10
423.968113
 20
215.755733
 30
0.0
 11
424.768113
 21
215.755733
 31
0.0
  0
LINE
  5
336
  8
002
 62
     3
 10
424.768113
 20
215.755733
 30
0.0
 11
424.768113
 21
215.055733
 31
0.0
  0
LINE
  5
337
  8
002
 62
     3
 10
424.768113
 20
215.055733
 30
0.0
 11
425.006013
 21
214.643633
 31
0.0
  0
LINE
  5
338
  8
002
 62
     3
 10
425.006013
 20
214.643633
 30
0.0
 11
425.418113
 21
214.405733
 31
0.0
  0
LINE
  5
339
  8
002
 62
     3
 10
425.418113
 20
214.405733
 30
0.0
 11
426.118113
 21
214.405733
 31
0.0
  0
LINE
  5
33A
  8
002
 62
     3
 10
426.118113
 20
214.405733
 30
0.0
 11
426.118113
 21
213.605733
 31
0.0
  0
LINE
  5
33B
  8
002
 62
     3
 10
426.118113
 20
213.605733
 30
0.0
 11
425.418113
 21
213.605733
 31
0.0
  0
LINE
  5
33C
  8
002
 62
     3
 10
425.418113
 20
213.605633
 30
0.0
 11
425.006013
 21
213.367733
 31
0.0
  0
LINE
  5
33D
  8
002
 62
     3
 10
425.006113
 20
213.367733
 30
0.0
 11
424.768113
 21
212.955733
 31
0.0
  0
LINE
  5
33E
  8
002
 62
     3
 10
424.768113
 20
212.955733
 30
0.0
 11
424.768113
 21
212.255733
 31
0.0
  0
LINE
  5
33F
  8
002
 62
     3
 10
424.768113
 20
212.255733
 30
0.0
 11
423.968113
 21
212.255733
 31
0.0
  0
LINE
  5
340
  8
002
 62
     3
 10
423.968113
 20
212.255733
 30
0.0
 11
423.968113
 21
212.955733
 31
0.0
  0
LINE
  5
341
  8
002
 62
     3
 10
423.968113
 20
212.955733
 30
0.0
 11
423.730213
 21
213.367733
 31
0.0
  0
LINE
  5
342
  8
002
 62
     3
 10
423.730213
 20
213.367733
 30
0.0
 11
423.318113
 21
213.605733
 31
0.0
  0
LINE
  5
343
  8
002
 62
     3
 10
423.318113
 20
213.605733
 30
0.0
 11
422.618113
 21
213.605733
 31
0.0
  0
CIRCLE
  5
344
  8
002
 62
     3
 10
424.368113
 20
214.005733
 30
0.0
 40
2.749998
  0
ARC
  5
345
  8
002
 62
     3
 10
431.858113
 20
214.881733
 30
0.0
 40
2.750000436363616
 50
270.208347
 51
39.380881
  0
LINE
  5
346
  8
002
 62
     3
 10
433.983813
 20
216.626633
 30
0.0
 11
431.868113
 21
219.203833
 31
0.0
  0
LINE
  5
347
  8
002
 62
     3
 10
431.868113
 20
220.464433
 30
0.0
 11
417.025813
 21
238.544733
 31
0.0
  0
LINE
  5
348
  8
002
 62
     3
 10
439.368813
 20
241.005733
 30
0.0
 11
439.368813
 21
207.005733
 31
0.0
  0
LINE
  5
349
  8
002
 62
     3
 10
431.710513
 20
209.466733
 30
0.0
 11
416.868213
 21
227.546933
 31
0.0
  0
LINE
  5
34A
  8
002
 62
     3
 10
416.868113
 20
228.807733
 30
0.0
 11
414.752513
 21
231.384733
 31
0.0
  0
ARC
  5
34B
  8
002
 62
     3
 10
416.878213
 20
233.129733
 30
0.0
 40
2.750063884712533
 50
90.208347
 51
219.382492
  0
LINE
  5
34C
  8
002
 62
     3
 10
422.618213
 20
233.605733
 30
0.0
 11
422.618213
 21
234.405733
 31
0.0
  0
LINE
  5
34D
  8
002
 62
     3
 10
422.618213
 20
234.405733
 30
0.0
 11
423.318213
 21
234.405733
 31
0.0
  0
LINE
  5
34E
  8
002
 62
     3
 10
423.318113
 20
234.405733
 30
0.0
 11
423.730213
 21
234.643633
 31
0.0
  0
LINE
  5
34F
  8
002
 62
     3
 10
423.730213
 20
234.643633
 30
0.0
 11
423.968113
 21
235.055733
 31
0.0
  0
LINE
  5
350
  8
002
 62
     3
 10
423.968213
 20
235.055733
 30
0.0
 11
423.968213
 21
235.755733
 31
0.0
  0
LINE
  5
351
  8
002
 62
     3
 10
423.968213
 20
235.755733
 30
0.0
 11
424.768213
 21
235.755733
 31
0.0
  0
LINE
  5
352
  8
002
 62
     3
 10
424.768213
 20
235.755733
 30
0.0
 11
424.768213
 21
235.055733
 31
0.0
  0
LINE
  5
353
  8
002
 62
     3
 10
424.768113
 20
235.055733
 30
0.0
 11
425.006113
 21
234.643633
 31
0.0
  0
LINE
  5
354
  8
002
 62
     3
 10
425.006113
 20
234.643633
 30
0.0
 11
425.418113
 21
234.405733
 31
0.0
  0
LINE
  5
355
  8
002
 62
     3
 10
425.418213
 20
234.405733
 30
0.0
 11
426.118213
 21
234.405733
 31
0.0
  0
LINE
  5
356
  8
002
 62
     3
 10
426.118213
 20
234.405733
 30
0.0
 11
426.118213
 21
233.605733
 31
0.0
  0
LINE
  5
357
  8
002
 62
     3
 10
426.118213
 20
233.605733
 30
0.0
 11
425.418113
 21
233.605733
 31
0.0
  0
LINE
  5
358
  8
002
 62
     3
 10
425.418213
 20
233.605733
 30
0.0
 11
425.006113
 21
233.367833
 31
0.0
  0
LINE
  5
359
  8
002
 62
     3
 10
425.006113
 20
233.367833
 30
0.0
 11
424.768213
 21
232.955733
 31
0.0
  0
LINE
  5
35A
  8
002
 62
     3
 10
424.768213
 20
232.955733
 30
0.0
 11
424.768213
 21
232.255733
 31
0.0
  0
LINE
  5
35B
  8
002
 62
     3
 10
424.768213
 20
232.255733
 30
0.0
 11
423.968213
 21
232.255733
 31
0.0
  0
LINE
  5
35C
  8
002
 62
     3
 10
423.968213
 20
232.255733
 30
0.0
 11
423.968213
 21
232.955733
 31
0.0
  0
LINE
  5
35D
  8
002
 62
     3
 10
423.968113
 20
232.955733
 30
0.0
 11
423.730213
 21
233.367833
 31
0.0
  0
LINE
  5
35E
  8
002
 62
     3
 10
423.730313
 20
233.367833
 30
0.0
 11
423.318213
 21
233.605733
 31
0.0
  0
LINE
  5
35F
  8
002
 62
     3
 10
423.318213
 20
233.605733
 30
0.0
 11
422.618213
 21
233.605733
 31
0.0
  0
CIRCLE
  5
360
  8
002
 62
     3
 10
424.368213
 20
234.005733
 30
0.0
 40
2.749998
  0
LINE
  5
361
  8
002
 62
     3
 10
439.368813
 20
241.005733
 30
0.0
 11
409.368813
 21
241.005733
 31
0.0
  0
LINE
  5
362
  8
002
 62
     3
 10
409.368813
 20
241.005733
 30
0.0
 11
409.368813
 21
207.005733
 31
0.0
  0
LINE
  5
363
  8
002
 62
     3
 10
395.368813
 20
207.005733
 30
0.0
 11
453.368813
 21
207.005733
 31
0.0
  0
LINE
  5
364
  8
002
 62
     3
 10
453.368813
 20
207.005733
 30
0.0
 11
453.368813
 21
197.005733
 31
0.0
  0
LINE
  5
365
  8
002
 62
     3
 10
395.368813
 20
197.005733
 30
0.0
 11
395.368813
 21
207.005733
 31
0.0
  0
LINE
  5
366
  8
002
 62
     3
 10
453.368813
 20
197.005733
 30
0.0
 11
395.368813
 21
197.005733
 31
0.0
  0
LINE
  5
367
  8
002
  6
PHANTOM
 62
    40
 10
413.977313
 20
236.663133
 30
0.0
 11
416.868213
 21
233.141733
 31
0.0
  0
LINE
  5
368
  8
002
  6
PHANTOM
 62
    40
 10
431.868113
 20
214.869733
 30
0.0
 11
434.516713
 21
211.643333
 31
0.0
  0
LINE
  5
369
  8
002
  6
CENTER
 62
    40
 10
446.868813
 20
194.356733
 30
0.0
 11
446.868813
 21
208.396633
 31
0.0
  0
LINE
  5
36A
  8
002
  6
CENTER
 62
    40
 10
401.868813
 20
194.356733
 30
0.0
 11
401.868813
 21
208.396633
 31
0.0
  0
LINE
  5
36B
  8
002
 62
     3
 10
416.368813
 20
241.005733
 30
0.0
 11
416.368813
 21
311.005733
 31
0.0
  0
LINE
  5
36C
  8
002
 62
     3
 10
416.368813
 20
311.005733
 30
0.0
 11
432.368813
 21
311.005733
 31
0.0
  0
LINE
  5
36D
  8
002
 62
     3
 10
432.368813
 20
311.005733
 30
0.0
 11
432.368813
 21
241.005733
 31
0.0
  0
LINE
  5
36E
  8
002
 62
     3
 10
418.369113
 20
311.005733
 30
0.0
 11
418.369113
 21
331.005733
 31
0.0
  0
LINE
  5
36F
  8
002
 62
     3
 10
418.369113
 20
331.005733
 30
0.0
 11
430.369113
 21
331.005733
 31
0.0
  0
LINE
  5
370
  8
002
 62
     3
 10
430.369113
 20
331.005733
 30
0.0
 11
430.369113
 21
311.005733
 31
0.0
  0
LINE
  5
371
  8
002
 62
    40
 10
417.598813
 20
311.005733
 30
0.0
 11
417.598813
 21
241.005733
 31
0.0
  0
LINE
  5
372
  8
002
 62
    40
 10
431.138813
 20
241.005733
 30
0.0
 11
431.138813
 21
311.005733
 31
0.0
  0
POLYLINE
  5
373
  8
002
 62
     3
 66
     1
 10
0.0
 20
0.0
 30
0.0
  0
VERTEX
  5
375
  8
002
 62
     3
 10
416.368813
 20
157.505733
 30
0.0
  0
VERTEX
  5
376
  8
002
 62
     3
 10
418.368813
 20
154.755733
 30
0.0
  0
VERTEX
  5
377
  8
002
 62
     3
 10
420.368813
 20
153.505733
 30
0.0
  0
VERTEX
  5
378
  8
002
 62
     3
 10
422.368813
 20
154.755733
 30
0.0
  0
VERTEX
  5
379
  8
002
 62
     3
 10
424.368813
 20
157.505733
 30
0.0
  0
VERTEX
  5
37A
  8
002
 62
     3
 10
426.368813
 20
160.255733
 30
0.0
  0
VERTEX
  5
37B
  8
002
 62
     3
 10
428.368813
 20
161.505733
 30
0.0
  0
VERTEX
  5
37C
  8
002
 62
     3
 10
430.368813
 20
160.255733
 30
0.0
  0
VERTEX
  5
37D
  8
002
 62
     3
 10
432.368813
 20
157.505733
 30
0.0
  0
SEQEND
  5
374
  8
002
 62
     3
  0
POLYLINE
  5
37E
  8
002
 62
     3
 66
     1
 10
0.0
 20
0.0
 30
0.0
  0
VERTEX
  5
380
  8
002
 62
     3
 10
416.368813
 20
165.505733
 30
0.0
  0
VERTEX
  5
381
  8
002
 62
     3
 10
418.368813
 20
162.755733
 30
0.0
  0
VERTEX
  5
382
  8
002
 62
     3
 10
420.368813
 20
161.505733
 30
0.0
  0
VERTEX
  5
383
  8
002
 62
     3
 10
422.368813
 20
162.755733
 30
0.0
  0
VERTEX
  5
384
  8
002
 62
     3
 10
424.368813
 20
165.505733
 30
0.0
  0
VERTEX
  5
385
  8
002
 62
     3
 10
426.368813
 20
168.255733
 30
0.0
  0
VERTEX
  5
386
  8
002
 62
     3
 10
428.368813
 20
169.505733
 30
0.0
  0
VERTEX
  5
387
  8
002
 62
     3
 10
430.368813
 20
168.255733
 30
0.0
  0
VERTEX
  5
388
  8
002
 62
     3
 10
432.368813
 20
165.505733
 30
0.0
  0
SEQEND
  5
37F
  8
002
 62
     3
  0
LINE
  5
389
  8
002
 62
     3
 10
416.368813
 20
126.005733
 30
0.0
 11
416.368813
 21
157.505733
 31
0.0
  0
LINE
  5
38A
  8
002
 62
     3
 10
416.368813
 20
165.505733
 30
0.0
 11
416.368813
 21
197.005733
 31
0.0
  0
LINE
  5
38B
  8
002
 62
     3
 10
432.368813
 20
197.005733
 30
0.0
 11
432.368813
 21
165.505733
 31
0.0
  0
LINE
  5
38C
  8
002
 62
     3
 10
432.368813
 20
157.505733
 30
0.0
 11
432.368813
 21
126.005733
 31
0.0
  0
LINE
  5
38D
  8
002
 62
    40
 10
417.598813
 20
126.005733
 30
0.0
 11
417.598813
 21
155.718885
 31
0.0
  0
LINE
  5
38E
  8
002
 62
    40
 10
417.598813
 20
163.718885
 30
0.0
 11
417.598813
 21
197.005733
 31
0.0
  0
LINE
  5
38F
  8
002
 62
    40
 10
431.138813
 20
197.005733
 30
0.0
 11
431.138813
 21
167.292581
 31
0.0
  0
LINE
  5
390
  8
002
 62
    40
 10
431.138813
 20
159.292581
 30
0.0
 11
431.138813
 21
126.005733
 31
0.0
  0
LINE
  5
391
  8
003
  6
CENTER
 62
    40
 10
76.195391
 20
29.491249
 30
0.0
 11
76.195391
 21
333.497233
 31
0.0
  0
LINE
  5
392
  8
002
  6
CENTER
 62
    40
 10
424.368513
 20
333.497233
 30
0.0
 11
424.368513
 21
29.491249
 31
0.0
  0
LINE
  5
393
  8
003
  6
CENTER
 62
    40
 10
922.464721
 20
272.863845
 30
0.0
 11
1079.492081
 21
272.863845
 31
0.0
  0
LINE
  5
394
  8
002
  6
CENTER
 62
    40
 10
1269.096481
 20
272.863845
 30
0.0
 11
1426.088563
 21
272.863845
 31
0.0
  0
LINE
  5
395
  8
003
  6
CENTER
 62
    40
 10
1000.076781
 20
35.572243
 30
0.0
 11
1000.076781
 21
337.908958
 31
0.0
  0
LINE
  5
396
  8
002
  6
CENTER
 62
    40
 10
1348.249903
 20
337.908958
 30
0.0
 11
1348.249903
 21
35.572243
 31
0.0
  0
LINE
  5
397
  8
002
 62
     3
 10
988.416781
 20
306.863845
 30
0.0
 11
988.416781
 21
311.863845
 31
0.0
  0
LINE
  5
398
  8
002
 62
     3
 10
988.416781
 20
311.863845
 30
0.0
 11
979.916781
 21
311.863845
 31
0.0
  0
LINE
  5
399
  8
002
 62
     3
 10
983.076781
 20
311.863845
 30
0.0
 11
983.076781
 21
332.863845
 31
0.0
  0
LINE
  5
39A
  8
002
 62
     3
 10
983.076781
 20
332.863845
 30
0.0
 11
1017.076781
 21
332.863845
 31
0.0
  0
LINE
  5
39B
  8
002
 62
     3
 10
1017.076781
 20
332.863845
 30
0.0
 11
1017.076781
 21
311.863845
 31
0.0
  0
LINE
  5
39C
  8
002
 62
     3
 10
1011.736781
 20
311.863845
 30
0.0
 11
1011.736781
 21
306.863845
 31
0.0
  0
LINE
  5
39D
  8
002
 62
     3
 10
1011.736781
 20
311.863845
 30
0.0
 11
1020.236781
 21
311.863845
 31
0.0
  0
LINE
  5
39E
  8
002
 62
     3
 10
1020.236781
 20
311.863845
 30
0.0
 11
1020.236781
 21
306.863845
 31
0.0
  0
LINE
  5
39F
  8
002
 62
     3
 10
1006.576781
 20
170.863845
 30
0.0
 11
993.576781
 21
170.863845
 31
0.0
  0
ARC
  5
3A0
  8
002
 62
     3
 10
993.576781
 20
169.863845
 30
0.0
 40
1.0
 50
90.0
 51
180.0
  0
LINE
  5
3A1
  8
002
 62
     3
 10
992.576781
 20
169.863845
 30
0.0
 11
992.576781
 21
141.863845
 31
0.0
  0
ARC
  5
3A2
  8
002
 62
     3
 10
993.576781
 20
141.863745
 30
0.0
 40
1.0
 50
180.0
 51
270.0
  0
LINE
  5
3A3
  8
002
 62
     3
 10
993.576781
 20
140.863745
 30
0.0
 11
1006.575781
 21
140.863745
 31
0.0
  0
ARC
  5
3A4
  8
002
 62
     3
 10
1006.575781
 20
141.863745
 30
0.0
 40
1.0
 50
270.0
 51
0.0
  0
LINE
  5
3A5
  8
002
 62
     3
 10
1007.575781
 20
141.863745
 30
0.0
 11
1007.575781
 21
169.863745
 31
0.0
  0
ARC
  5
3A6
  8
002
 62
     3
 10
1006.576781
 20
169.863845
 30
0.0
 40
1.000000000000028
 50
0.0
 51
90.0
  0
CIRCLE
  5
3A7
  8
002
 62
     3
 10
1000.076781
 20
165.863845
 30
0.0
 40
2.749998
  0
LINE
  5
3A8
  8
002
 62
     3
 10
1001.826781
 20
166.263845
 30
0.0
 11
1001.126781
 21
166.263845
 31
0.0
  0
LINE
  5
3A9
  8
002
 62
     3
 10
1001.126781
 20
166.263845
 30
0.0
 11
1000.713781
 21
166.501745
 31
0.0
  0
LINE
  5
3AA
  8
002
 62
     3
 10
1000.713781
 20
166.501745
 30
0.0
 11
1000.476781
 21
166.913845
 31
0.0
  0
LINE
  5
3AB
  8
002
 62
     3
 10
1000.476781
 20
166.913845
 30
0.0
 11
1000.476781
 21
167.613845
 31
0.0
  0
LINE
  5
3AC
  8
002
 62
     3
 10
1000.476781
 20
167.613845
 30
0.0
 11
999.676781
 21
167.613845
 31
0.0
  0
LINE
  5
3AD
  8
002
 62
     3
 10
999.676781
 20
167.613845
 30
0.0
 11
999.676781
 21
166.913845
 31
0.0
  0
LINE
  5
3AE
  8
002
 62
     3
 10
999.676781
 20
166.913845
 30
0.0
 11
999.438781
 21
166.501745
 31
0.0
  0
LINE
  5
3AF
  8
002
 62
     3
 10
999.438781
 20
166.501745
 30
0.0
 11
999.026781
 21
166.263845
 31
0.0
  0
LINE
  5
3B0
  8
002
 62
     3
 10
999.026781
 20
166.263845
 30
0.0
 11
998.326781
 21
166.263845
 31
0.0
  0
LINE
  5
3B1
  8
002
 62
     3
 10
998.326781
 20
166.263845
 30
0.0
 11
998.326781
 21
165.463845
 31
0.0
  0
LINE
  5
3B2
  8
002
 62
     3
 10
998.326781
 20
165.463845
 30
0.0
 11
999.026781
 21
165.463845
 31
0.0
  0
LINE
  5
3B3
  8
002
 62
     3
 10
999.026781
 20
165.463845
 30
0.0
 11
999.438781
 21
165.225945
 31
0.0
  0
LINE
  5
3B4
  8
002
 62
     3
 10
999.438781
 20
165.225945
 30
0.0
 11
999.675781
 21
164.813845
 31
0.0
  0
LINE
  5
3B5
  8
002
 62
     3
 10
999.676781
 20
164.813845
 30
0.0
 11
999.676781
 21
164.113845
 31
0.0
  0
LINE
  5
3B6
  8
002
 62
     3
 10
999.676781
 20
164.113845
 30
0.0
 11
1000.476781
 21
164.113845
 31
0.0
  0
LINE
  5
3B7
  8
002
 62
     3
 10
1000.476781
 20
164.113845
 30
0.0
 11
1000.476781
 21
164.813845
 31
0.0
  0
LINE
  5
3B8
  8
002
 62
     3
 10
1000.476781
 20
164.813845
 30
0.0
 11
1000.713781
 21
165.225945
 31
0.0
  0
LINE
  5
3B9
  8
002
 62
     3
 10
1000.713781
 20
165.225945
 30
0.0
 11
1001.126781
 21
165.463845
 31
0.0
  0
LINE
  5
3BA
  8
002
 62
     3
 10
1001.126781
 20
165.463845
 30
0.0
 11
1001.826781
 21
165.463845
 31
0.0
  0
LINE
  5
3BB
  8
002
 62
     3
 10
1001.826781
 20
165.463845
 30
0.0
 11
1001.826781
 21
166.263845
 31
0.0
  0
ARC
  5
3BC
  8
002
 62
     3
 10
992.586781
 20
164.987845
 30
0.0
 40
2.750373067421928
 50
90.208347
 51
219.377204
  0
LINE
  5
3BD
  8
002
 62
     3
 10
990.460781
 20
163.242845
 30
0.0
 11
992.575781
 21
160.665845
 31
0.0
  0
LINE
  5
3BE
  8
002
 62
     3
 10
992.576781
 20
159.405045
 30
0.0
 11
1007.418781
 21
141.324845
 31
0.0
  0
ARC
  5
3BF
  8
002
 62
     3
 10
1007.565781
 20
146.739845
 30
0.0
 40
2.750309626205728
 50
270.208347
 51
39.375594
  0
LINE
  5
3C0
  8
002
 62
     3
 10
1009.691781
 20
148.484745
 30
0.0
 11
1007.575781
 21
151.061945
 31
0.0
  0
LINE
  5
3C1
  8
002
 62
     3
 10
1007.575781
 20
152.322545
 30
0.0
 11
992.733781
 21
170.402745
 31
0.0
  0
LINE
  5
3C2
  8
002
 62
     3
 10
1027.576781
 20
300.863845
 30
0.0
 11
1027.576781
 21
306.863845
 31
0.0
  0
LINE
  5
3C3
  8
002
 62
     3
 10
1027.576781
 20
306.863845
 30
0.0
 11
972.576781
 21
306.863845
 31
0.0
  0
LINE
  5
3C4
  8
002
 62
     3
 10
972.576781
 20
306.863845
 30
0.0
 11
972.576781
 21
302.863845
 31
0.0
  0
LINE
  5
3C5
  8
002
 62
     3
 10
979.916781
 20
306.863845
 30
0.0
 11
979.916781
 21
311.863845
 31
0.0
  0
LINE
  5
3C6
  8
002
 62
     3
 10
1015.076781
 20
172.863745
 30
0.0
 11
985.076781
 21
172.863745
 31
0.0
  0
LINE
  5
3C7
  8
002
 62
     3
 10
1015.076781
 20
172.863745
 30
0.0
 11
1015.076781
 21
138.863845
 31
0.0
  0
LINE
  5
3C8
  8
002
 62
     3
 10
985.076781
 20
138.863845
 30
0.0
 11
985.076781
 21
172.863745
 31
0.0
  0
LINE
  5
3C9
  8
002
 62
     3
 10
1000.475781
 20
147.613745
 30
0.0
 11
1000.475781
 21
146.913845
 31
0.0
  0
LINE
  5
3CA
  8
002
 62
     3
 10
1000.475781
 20
146.913745
 30
0.0
 11
1000.713781
 21
146.501745
 31
0.0
  0
LINE
  5
3CB
  8
002
 62
     3
 10
1000.713781
 20
146.501745
 30
0.0
 11
1001.125781
 21
146.263845
 31
0.0
  0
LINE
  5
3CC
  8
002
 62
     3
 10
1001.125781
 20
146.263745
 30
0.0
 11
1001.825781
 21
146.263745
 31
0.0
  0
LINE
  5
3CD
  8
002
 62
     3
 10
1001.825781
 20
146.263745
 30
0.0
 11
1001.825781
 21
145.463845
 31
0.0
  0
LINE
  5
3CE
  8
002
 62
     3
 10
1001.825781
 20
145.463845
 30
0.0
 11
1001.125781
 21
145.463845
 31
0.0
  0
LINE
  5
3CF
  8
002
 62
     3
 10
1001.125781
 20
145.463745
 30
0.0
 11
1000.713781
 21
145.225845
 31
0.0
  0
LINE
  5
3D0
  8
002
 62
     3
 10
1000.713781
 20
145.225845
 30
0.0
 11
1000.475781
 21
144.813745
 31
0.0
  0
LINE
  5
3D1
  8
002
 62
     3
 10
1000.475781
 20
144.813745
 30
0.0
 11
1000.475781
 21
144.113745
 31
0.0
  0
LINE
  5
3D2
  8
002
 62
     3
 10
1000.475781
 20
144.113745
 30
0.0
 11
999.675781
 21
144.113745
 31
0.0
  0
LINE
  5
3D3
  8
002
 62
     3
 10
999.675781
 20
144.113745
 30
0.0
 11
999.675781
 21
144.813745
 31
0.0
  0
LINE
  5
3D4
  8
002
 62
     3
 10
999.675781
 20
144.813745
 30
0.0
 11
999.438781
 21
145.225845
 31
0.0
  0
LINE
  5
3D5
  8
002
 62
     3
 10
999.438781
 20
145.225845
 30
0.0
 11
999.025781
 21
145.463845
 31
0.0
  0
LINE
  5
3D6
  8
002
 62
     3
 10
999.025781
 20
145.463845
 30
0.0
 11
998.325781
 21
145.463845
 31
0.0
  0
LINE
  5
3D7
  8
002
 62
     3
 10
998.325781
 20
145.463845
 30
0.0
 11
998.325781
 21
146.263745
 31
0.0
  0
LINE
  5
3D8
  8
002
 62
     3
 10
998.325781
 20
146.263745
 30
0.0
 11
999.025781
 21
146.263745
 31
0.0
  0
LINE
  5
3D9
  8
002
 62
     3
 10
999.026781
 20
146.263845
 30
0.0
 11
999.438781
 21
146.501745
 31
0.0
  0
LINE
  5
3DA
  8
002
 62
     3
 10
999.438781
 20
146.501745
 30
0.0
 11
999.675781
 21
146.913745
 31
0.0
  0
LINE
  5
3DB
  8
002
 62
     3
 10
999.675781
 20
146.913845
 30
0.0
 11
999.675781
 21
147.613745
 31
0.0
  0
LINE
  5
3DC
  8
002
 62
     3
 10
999.675781
 20
147.613745
 30
0.0
 11
1000.475781
 21
147.613745
 31
0.0
  0
CIRCLE
  5
3DD
  8
002
 62
     3
 10
1000.075781
 20
145.863745
 30
0.0
 40
2.749998
  0
LINE
  5
3DE
  8
002
 62
     3
 10
971.076781
 20
138.863845
 30
0.0
 11
1029.077281
 21
138.863845
 31
0.0
  0
LINE
  5
3DF
  8
002
 62
     3
 10
1029.077281
 20
138.863845
 30
0.0
 11
1029.077281
 21
128.863845
 31
0.0
  0
LINE
  5
3E0
  8
002
 62
     3
 10
971.076781
 20
128.863845
 30
0.0
 11
971.076781
 21
138.863845
 31
0.0
  0
LINE
  5
3E1
  8
002
 62
     3
 10
1029.077281
 20
128.863845
 30
0.0
 11
971.076781
 21
128.863845
 31
0.0
  0
LINE
  5
3E2
  8
002
  6
CENTER
 62
    40
 10
1022.576781
 20
140.254645
 30
0.0
 11
1022.576781
 21
126.214845
 31
0.0
  0
LINE
  5
3E3
  8
002
  6
PHANTOM
 62
    40
 10
992.576781
 20
164.999845
 30
0.0
 11
989.685781
 21
168.521245
 31
0.0
  0
LINE
  5
3E4
  8
002
  6
CENTER
 62
    40
 10
1015.986781
 20
300.863845
 30
0.0
 11
1015.986781
 21
314.585445
 31
0.0
  0
LINE
  5
3E5
  8
002
  6
PHANTOM
 62
    40
 10
1007.575781
 20
146.727745
 30
0.0
 11
1010.224781
 21
143.501445
 31
0.0
  0
LINE
  5
3E6
  8
002
  6
CENTER
 62
    40
 10
977.576781
 20
140.254645
 30
0.0
 11
977.576781
 21
126.214845
 31
0.0
  0
LINE
  5
3E7
  8
002
  6
CENTER
 62
    40
 10
984.166781
 20
300.863845
 30
0.0
 11
984.166781
 21
314.585445
 31
0.0
  0
LINE
  5
3E8
  8
002
 62
     3
 10
1008.076781
 20
128.863845
 30
0.0
 11
1008.076781
 21
57.863845
 31
0.0
  0
LINE
  5
3E9
  8
002
 62
     3
 10
1008.076781
 20
57.863845
 30
0.0
 11
992.076781
 21
57.863845
 31
0.0
  0
LINE
  5
3EA
  8
002
 62
     3
 10
992.076781
 20
57.863845
 30
0.0
 11
992.076781
 21
128.863845
 31
0.0
  0
LINE
  5
3EB
  8
002
 62
     3
 10
1006.077781
 20
57.863845
 30
0.0
 11
1006.077781
 21
37.863845
 31
0.0
  0
LINE
  5
3EC
  8
002
 62
     3
 10
1006.077781
 20
37.863845
 30
0.0
 11
994.077781
 21
37.863845
 31
0.0
  0
LINE
  5
3ED
  8
002
 62
     3
 10
994.077781
 20
37.863845
 30
0.0
 11
994.077781
 21
57.863845
 31
0.0
  0
LINE
  5
3EE
  8
002
 62
    40
 10
1006.846781
 20
57.863845
 30
0.0
 11
1006.846781
 21
128.863845
 31
0.0
  0
LINE
  5
3EF
  8
002
 62
    40
 10
993.306781
 20
128.863845
 30
0.0
 11
993.306781
 21
57.863845
 31
0.0
  0
POLYLINE
  5
3F0
  8
002
 62
     3
 66
     1
 10
0.0
 20
0.0
 30
0.0
  0
VERTEX
  5
3F2
  8
002
 62
     3
 10
992.076781
 20
203.863795
 30
0.0
  0
VERTEX
  5
3F3
  8
002
 62
     3
 10
994.076781
 20
201.113795
 30
0.0
  0
VERTEX
  5
3F4
  8
002
 62
     3
 10
996.076781
 20
199.863795
 30
0.0
  0
VERTEX
  5
3F5
  8
002
 62
     3
 10
998.076781
 20
201.113795
 30
0.0
  0
VERTEX
  5
3F6
  8
002
 62
     3
 10
1000.076781
 20
203.863795
 30
0.0
  0
VERTEX
  5
3F7
  8
002
 62
     3
 10
1002.076781
 20
206.613795
 30
0.0
  0
VERTEX
  5
3F8
  8
002
 62
     3
 10
1004.076781
 20
207.863795
 30
0.0
  0
VERTEX
  5
3F9
  8
002
 62
     3
 10
1006.076781
 20
206.613795
 30
0.0
  0
VERTEX
  5
3FA
  8
002
 62
     3
 10
1008.076781
 20
203.863795
 30
0.0
  0
SEQEND
  5
3F1
  8
002
 62
     3
  0
POLYLINE
  5
3FB
  8
002
 62
     3
 66
     1
 10
0.0
 20
0.0
 30
0.0
  0
VERTEX
  5
3FD
  8
002
 62
     3
 10
992.076781
 20
211.863795
 30
0.0
  0
VERTEX
  5
3FE
  8
002
 62
     3
 10
994.076781
 20
209.113795
 30
0.0
  0
VERTEX
  5
3FF
  8
002
 62
     3
 10
996.076781
 20
207.863795
 30
0.0
  0
VERTEX
  5
400
  8
002
 62
     3
 10
998.076781
 20
209.113795
 30
0.0
  0
VERTEX
  5
401
  8
002
 62
     3
 10
1000.076781
 20
211.863795
 30
0.0
  0
VERTEX
  5
402
  8
002
 62
     3
 10
1002.076781
 20
214.613795
 30
0.0
  0
VERTEX
  5
403
  8
002
 62
     3
 10
1004.076781
 20
215.863795
 30
0.0
  0
VERTEX
  5
404
  8
002
 62
     3
 10
1006.076781
 20
214.613795
 30
0.0
  0
VERTEX
  5
405
  8
002
 62
     3
 10
1008.076781
 20
211.863795
 30
0.0
  0
SEQEND
  5
3FC
  8
002
 62
     3
  0
LINE
  5
406
  8
002
 62
     3
 10
992.076781
 20
242.863845
 30
0.0
 11
992.076781
 21
211.863795
 31
0.0
  0
LINE
  5
407
  8
002
 62
     3
 10
992.076781
 20
203.863795
 30
0.0
 11
992.076781
 21
172.863745
 31
0.0
  0
LINE
  5
408
  8
002
 62
     3
 10
1008.076781
 20
172.863745
 30
0.0
 11
1008.076781
 21
203.863795
 31
0.0
  0
LINE
  5
409
  8
002
 62
     3
 10
1008.076781
 20
211.863795
 30
0.0
 11
1008.076781
 21
242.863845
 31
0.0
  0
LINE
  5
40A
  8
002
 62
    40
 10
1006.846781
 20
172.863745
 30
0.0
 11
1006.846781
 21
205.650643
 31
0.0
  0
LINE
  5
40B
  8
002
 62
    40
 10
1006.846781
 20
213.650643
 30
0.0
 11
1006.846781
 21
242.863845
 31
0.0
  0
LINE
  5
40C
  8
002
 62
    40
 10
993.306781
 20
242.863845
 30
0.0
 11
993.306781
 21
210.076947
 31
0.0
  0
LINE
  5
40D
  8
002
 62
    40
 10
993.306781
 20
202.076947
 30
0.0
 11
993.306781
 21
172.863745
 31
0.0
  0
LINE
  5
40E
  8
002
 62
     3
 10
1336.589903
 20
306.863845
 30
0.0
 11
1336.589903
 21
311.863845
 31
0.0
  0
LINE
  5
40F
  8
002
 62
     3
 10
1336.589903
 20
311.863845
 30
0.0
 11
1328.089903
 21
311.863845
 31
0.0
  0
LINE
  5
410
  8
002
 62
     3
 10
1331.249903
 20
311.863845
 30
0.0
 11
1331.249903
 21
332.863845
 31
0.0
  0
LINE
  5
411
  8
002
 62
     3
 10
1331.249903
 20
332.863845
 30
0.0
 11
1365.249903
 21
332.863845
 31
0.0
  0
LINE
  5
412
  8
002
 62
     3
 10
1365.249903
 20
332.863845
 30
0.0
 11
1365.249903
 21
311.863845
 31
0.0
  0
LINE
  5
413
  8
002
 62
     3
 10
1359.909903
 20
311.863845
 30
0.0
 11
1359.909903
 21
306.863845
 31
0.0
  0
LINE
  5
414
  8
002
 62
     3
 10
1359.909903
 20
311.863845
 30
0.0
 11
1368.409903
 21
311.863845
 31
0.0
  0
LINE
  5
415
  8
002
 62
     3
 10
1368.409903
 20
311.863845
 30
0.0
 11
1368.409903
 21
306.863845
 31
0.0
  0
LINE
  5
416
  8
002
 62
     3
 10
1354.749903
 20
170.863845
 30
0.0
 11
1341.749903
 21
170.863845
 31
0.0
  0
ARC
  5
417
  8
002
 62
     3
 10
1341.749903
 20
169.863845
 30
0.0
 40
1.0
 50
90.0
 51
180.0
  0
LINE
  5
418
  8
002
 62
     3
 10
1340.749903
 20
169.863845
 30
0.0
 11
1340.749903
 21
141.863845
 31
0.0
  0
ARC
  5
419
  8
002
 62
     3
 10
1341.749903
 20
141.863745
 30
0.0
 40
1.0
 50
180.0
 51
270.0
  0
LINE
  5
41A
  8
002
 62
     3
 10
1341.749903
 20
140.863745
 30
0.0
 11
1354.748903
 21
140.863745
 31
0.0
  0
ARC
  5
41B
  8
002
 62
     3
 10
1354.748903
 20
141.863745
 30
0.0
 40
1.0
 50
270.0
 51
0.0
  0
LINE
  5
41C
  8
002
 62
     3
 10
1355.748903
 20
141.863745
 30
0.0
 11
1355.748903
 21
169.863745
 31
0.0
  0
ARC
  5
41D
  8
002
 62
     3
 10
1354.749903
 20
169.863845
 30
0.0
 40
1.000000000000028
 50
0.0
 51
90.0
  0
CIRCLE
  5
41E
  8
002
 62
     3
 10
1348.249903
 20
165.863845
 30
0.0
 40
2.749998
  0
LINE
  5
41F
  8
002
 62
     3
 10
1349.999903
 20
166.263845
 30
0.0
 11
1349.299903
 21
166.263845
 31
0.0
  0
LINE
  5
420
  8
002
 62
     3
 10
1349.299903
 20
166.263845
 30
0.0
 11
1348.886903
 21
166.501745
 31
0.0
  0
LINE
  5
421
  8
002
 62
     3
 10
1348.886903
 20
166.501745
 30
0.0
 11
1348.649903
 21
166.913845
 31
0.0
  0
LINE
  5
422
  8
002
 62
     3
 10
1348.649903
 20
166.913845
 30
0.0
 11
1348.649903
 21
167.613845
 31
0.0
  0
LINE
  5
423
  8
002
 62
     3
 10
1348.649903
 20
167.613845
 30
0.0
 11
1347.849903
 21
167.613845
 31
0.0
  0
LINE
  5
424
  8
002
 62
     3
 10
1347.849903
 20
167.613845
 30
0.0
 11
1347.849903
 21
166.913845
 31
0.0
  0
LINE
  5
425
  8
002
 62
     3
 10
1347.849903
 20
166.913845
 30
0.0
 11
1347.611903
 21
166.501745
 31
0.0
  0
LINE
  5
426
  8
002
 62
     3
 10
1347.611903
 20
166.501745
 30
0.0
 11
1347.199903
 21
166.263845
 31
0.0
  0
LINE
  5
427
  8
002
 62
     3
 10
1347.199903
 20
166.263845
 30
0.0
 11
1346.499903
 21
166.263845
 31
0.0
  0
LINE
  5
428
  8
002
 62
     3
 10
1346.499903
 20
166.263845
 30
0.0
 11
1346.499903
 21
165.463845
 31
0.0
  0
LINE
  5
429
  8
002
 62
     3
 10
1346.499903
 20
165.463845
 30
0.0
 11
1347.199903
 21
165.463845
 31
0.0
  0
LINE
  5
42A
  8
002
 62
     3
 10
1347.199903
 20
165.463845
 30
0.0
 11
1347.611903
 21
165.225945
 31
0.0
  0
LINE
  5
42B
  8
002
 62
     3
 10
1347.611903
 20
165.225945
 30
0.0
 11
1347.848903
 21
164.813845
 31
0.0
  0
LINE
  5
42C
  8
002
 62
     3
 10
1347.849903
 20
164.813845
 30
0.0
 11
1347.849903
 21
164.113845
 31
0.0
  0
LINE
  5
42D
  8
002
 62
     3
 10
1347.849903
 20
164.113845
 30
0.0
 11
1348.649903
 21
164.113845
 31
0.0
  0
LINE
  5
42E
  8
002
 62
     3
 10
1348.649903
 20
164.113845
 30
0.0
 11
1348.649903
 21
164.813845
 31
0.0
  0
LINE
  5
42F
  8
002
 62
     3
 10
1348.649903
 20
164.813845
 30
0.0
 11
1348.886903
 21
165.225945
 31
0.0
  0
LINE
  5
430
  8
002
 62
     3
 10
1348.886903
 20
165.225945
 30
0.0
 11
1349.299903
 21
165.463845
 31
0.0
  0
LINE
  5
431
  8
002
 62
     3
 10
1349.299903
 20
165.463845
 30
0.0
 11
1349.999903
 21
165.463845
 31
0.0
  0
LINE
  5
432
  8
002
 62
     3
 10
1349.999903
 20
165.463845
 30
0.0
 11
1349.999903
 21
166.263845
 31
0.0
  0
ARC
  5
433
  8
002
 62
     3
 10
1340.759903
 20
164.987845
 30
0.0
 40
2.750373067421928
 50
90.208347
 51
219.377204
  0
LINE
  5
434
  8
002
 62
     3
 10
1338.633903
 20
163.242845
 30
0.0
 11
1340.748903
 21
160.665845
 31
0.0
  0
LINE
  5
435
  8
002
 62
     3
 10
1340.749903
 20
159.405045
 30
0.0
 11
1355.591903
 21
141.324845
 31
0.0
  0
ARC
  5
436
  8
002
 62
     3
 10
1355.738903
 20
146.739845
 30
0.0
 40
2.750309626205728
 50
270.208347
 51
39.375594
  0
LINE
  5
437
  8
002
 62
     3
 10
1357.864903
 20
148.484745
 30
0.0
 11
1355.748903
 21
151.061945
 31
0.0
  0
LINE
  5
438
  8
002
 62
     3
 10
1355.748903
 20
152.322545
 30
0.0
 11
1340.906903
 21
170.402745
 31
0.0
  0
LINE
  5
439
  8
002
 62
     3
 10
1375.749903
 20
306.863845
 30
0.0
 11
1320.749903
 21
306.863845
 31
0.0
  0
LINE
  5
43A
  8
002
 62
     3
 10
1320.749903
 20
306.863845
 30
0.0
 11
1320.749903
 21
302.863845
 31
0.0
  0
LINE
  5
43B
  8
002
 62
     3
 10
1328.089903
 20
306.863845
 30
0.0
 11
1328.089903
 21
311.863845
 31
0.0
  0
LINE
  5
43C
  8
002
 62
     3
 10
1363.249903
 20
172.863745
 30
0.0
 11
1333.249903
 21
172.863745
 31
0.0
  0
LINE
  5
43D
  8
002
 62
     3
 10
1363.249903
 20
172.863745
 30
0.0
 11
1363.249903
 21
138.863845
 31
0.0
  0
LINE
  5
43E
  8
002
 62
     3
 10
1333.249903
 20
138.863845
 30
0.0
 11
1333.249903
 21
172.863745
 31
0.0
  0
LINE
  5
43F
  8
002
 62
     3
 10
1348.648903
 20
147.613745
 30
0.0
 11
1348.648903
 21
146.913845
 31
0.0
  0
LINE
  5
440
  8
002
 62
     3
 10
1348.648903
 20
146.913745
 30
0.0
 11
1348.886903
 21
146.501745
 31
0.0
  0
LINE
  5
441
  8
002
 62
     3
 10
1348.886903
 20
146.501745
 30
0.0
 11
1349.298903
 21
146.263845
 31
0.0
  0
LINE
  5
442
  8
002
 62
     3
 10
1349.298903
 20
146.263745
 30
0.0
 11
1349.998903
 21
146.263745
 31
0.0
  0
LINE
  5
443
  8
002
 62
     3
 10
1349.998903
 20
146.263745
 30
0.0
 11
1349.998903
 21
145.463845
 31
0.0
  0
LINE
  5
444
  8
002
 62
     3
 10
1349.998903
 20
145.463845
 30
0.0
 11
1349.298903
 21
145.463845
 31
0.0
  0
LINE
  5
445
  8
002
 62
     3
 10
1349.298903
 20
145.463745
 30
0.0
 11
1348.886903
 21
145.225845
 31
0.0
  0
LINE
  5
446
  8
002
 62
     3
 10
1348.886903
 20
145.225845
 30
0.0
 11
1348.648903
 21
144.813745
 31
0.0
  0
LINE
  5
447
  8
002
 62
     3
 10
1348.648903
 20
144.813745
 30
0.0
 11
1348.648903
 21
144.113745
 31
0.0
  0
LINE
  5
448
  8
002
 62
     3
 10
1348.648903
 20
144.113745
 30
0.0
 11
1347.848903
 21
144.113745
 31
0.0
  0
LINE
  5
449
  8
002
 62
     3
 10
1347.848903
 20
144.113745
 30
0.0
 11
1347.848903
 21
144.813745
 31
0.0
  0
LINE
  5
44A
  8
002
 62
     3
 10
1347.848903
 20
144.813745
 30
0.0
 11
1347.611903
 21
145.225845
 31
0.0
  0
LINE
  5
44B
  8
002
 62
     3
 10
1347.611903
 20
145.225845
 30
0.0
 11
1347.198903
 21
145.463845
 31
0.0
  0
LINE
  5
44C
  8
002
 62
     3
 10
1347.198903
 20
145.463845
 30
0.0
 11
1346.498903
 21
145.463845
 31
0.0
  0
LINE
  5
44D
  8
002
 62
     3
 10
1346.498903
 20
145.463845
 30
0.0
 11
1346.498903
 21
146.263745
 31
0.0
  0
LINE
  5
44E
  8
002
 62
     3
 10
1346.498903
 20
146.263745
 30
0.0
 11
1347.198903
 21
146.263745
 31
0.0
  0
LINE
  5
44F
  8
002
 62
     3
 10
1347.199903
 20
146.263845
 30
0.0
 11
1347.611903
 21
146.501745
 31
0.0
  0
LINE
  5
450
  8
002
 62
     3
 10
1347.611903
 20
146.501745
 30
0.0
 11
1347.848903
 21
146.913745
 31
0.0
  0
LINE
  5
451
  8
002
 62
     3
 10
1347.848903
 20
146.913845
 30
0.0
 11
1347.848903
 21
147.613745
 31
0.0
  0
LINE
  5
452
  8
002
 62
     3
 10
1347.848903
 20
147.613745
 30
0.0
 11
1348.648903
 21
147.613745
 31
0.0
  0
CIRCLE
  5
453
  8
002
 62
     3
 10
1348.248903
 20
145.863745
 30
0.0
 40
2.749998
  0
LINE
  5
454
  8
002
 62
     3
 10
1319.249903
 20
138.863845
 30
0.0
 11
1377.250403
 21
138.863845
 31
0.0
  0
LINE
  5
455
  8
002
 62
     3
 10
1377.250403
 20
138.863845
 30
0.0
 11
1377.250403
 21
128.863845
 31
0.0
  0
LINE
  5
456
  8
002
 62
     3
 10
1319.249903
 20
128.863845
 30
0.0
 11
1319.249903
 21
138.863845
 31
0.0
  0
LINE
  5
457
  8
002
 62
     3
 10
1377.250403
 20
128.863845
 30
0.0
 11
1319.249903
 21
128.863845
 31
0.0
  0
LINE
  5
458
  8
002
  6
CENTER
 62
    40
 10
1370.749903
 20
140.254645
 30
0.0
 11
1370.749903
 21
126.214845
 31
0.0
  0
LINE
  5
459
  8
002
  6
PHANTOM
 62
    40
 10
1340.749903
 20
164.999845
 30
0.0
 11
1337.858903
 21
168.521245
 31
0.0
  0
LINE
  5
45A
  8
002
  6
CENTER
 62
    40
 10
1364.159903
 20
300.863845
 30
0.0
 11
1364.159903
 21
314.585445
 31
0.0
  0
LINE
  5
45B
  8
002
  6
PHANTOM
 62
    40
 10
1355.748903
 20
146.727745
 30
0.0
 11
1358.397903
 21
143.501445
 31
0.0
  0
LINE
  5
45C
  8
002
  6
CENTER
 62
    40
 10
1325.749903
 20
140.254645
 30
0.0
 11
1325.749903
 21
126.214845
 31
0.0
  0
LINE
  5
45D
  8
002
  6
CENTER
 62
    40
 10
1332.339903
 20
300.863845
 30
0.0
 11
1332.339903
 21
314.585445
 31
0.0
  0
LINE
  5
45E
  8
002
 62
     3
 10
1356.249903
 20
128.863845
 30
0.0
 11
1356.249903
 21
57.863845
 31
0.0
  0
LINE
  5
45F
  8
002
 62
     3
 10
1356.249903
 20
57.863845
 30
0.0
 11
1340.249903
 21
57.863845
 31
0.0
  0
LINE
  5
460
  8
002
 62
     3
 10
1340.249903
 20
57.863845
 30
0.0
 11
1340.249903
 21
128.863845
 31
0.0
  0
LINE
  5
461
  8
002
 62
     3
 10
1354.250903
 20
57.863845
 30
0.0
 11
1354.250903
 21
37.863845
 31
0.0
  0
LINE
  5
462
  8
002
 62
     3
 10
1354.250903
 20
37.863845
 30
0.0
 11
1342.250903
 21
37.863845
 31
0.0
  0
LINE
  5
463
  8
002
 62
     3
 10
1342.250903
 20
37.863845
 30
0.0
 11
1342.250903
 21
57.863845
 31
0.0
  0
LINE
  5
464
  8
002
 62
    40
 10
1355.019903
 20
57.863845
 30
0.0
 11
1355.019903
 21
128.863845
 31
0.0
  0
LINE
  5
465
  8
002
 62
    40
 10
1341.479903
 20
128.863845
 30
0.0
 11
1341.479903
 21
57.863845
 31
0.0
  0
POLYLINE
  5
466
  8
002
 62
     3
 66
     1
 10
0.0
 20
0.0
 30
0.0
  0
VERTEX
  5
468
  8
002
 62
     3
 10
1340.249903
 20
203.863795
 30
0.0
  0
VERTEX
  5
469
  8
002
 62
     3
 10
1342.249903
 20
201.113795
 30
0.0
  0
VERTEX
  5
46A
  8
002
 62
     3
 10
1344.249903
 20
199.863795
 30
0.0
  0
VERTEX
  5
46B
  8
002
 62
     3
 10
1346.249903
 20
201.113795
 30
0.0
  0
VERTEX
  5
46C
  8
002
 62
     3
 10
1348.249903
 20
203.863795
 30
0.0
  0
VERTEX
  5
46D
  8
002
 62
     3
 10
1350.249903
 20
206.613795
 30
0.0
  0
VERTEX
  5
46E
  8
002
 62
     3
 10
1352.249903
 20
207.863795
 30
0.0
  0
VERTEX
  5
46F
  8
002
 62
     3
 10
1354.249903
 20
206.613795
 30
0.0
  0
VERTEX
  5
470
  8
002
 62
     3
 10
1356.249903
 20
203.863795
 30
0.0
  0
SEQEND
  5
467
  8
002
 62
     3
  0
POLYLINE
  5
471
  8
002
 62
     3
 66
     1
 10
0.0
 20
0.0
 30
0.0
  0
VERTEX
  5
473
  8
002
 62
     3
 10
1340.249903
 20
211.863795
 30
0.0
  0
VERTEX
  5
474
  8
002
 62
     3
 10
1342.249903
 20
209.113795
 30
0.0
  0
VERTEX
  5
475
  8
002
 62
     3
 10
1344.249903
 20
207.863795
 30
0.0
  0
VERTEX
  5
476
  8
002
 62
     3
 10
1346.249903
 20
209.113795
 30
0.0
  0
VERTEX
  5
477
  8
002
 62
     3
 10
1348.249903
 20
211.863795
 30
0.0
  0
VERTEX
  5
478
  8
002
 62
     3
 10
1350.249903
 20
214.613795
 30
0.0
  0
VERTEX
  5
479
  8
002
 62
     3
 10
1352.249903
 20
215.863795
 30
0.0
  0
VERTEX
  5
47A
  8
002
 62
     3
 10
1354.249903
 20
214.613795
 30
0.0
  0
VERTEX
  5
47B
  8
002
 62
     3
 10
1356.249903
 20
211.863795
 30
0.0
  0
SEQEND
  5
472
  8
002
 62
     3
  0
LINE
  5
47C
  8
002
 62
     3
 10
1340.249903
 20
242.863845
 30
0.0
 11
1340.249903
 21
211.863795
 31
0.0
  0
LINE
  5
47D
  8
002
 62
     3
 10
1340.249903
 20
203.863795
 30
0.0
 11
1340.249903
 21
172.863745
 31
0.0
  0
LINE
  5
47E
  8
002
 62
     3
 10
1356.249903
 20
172.863745
 30
0.0
 11
1356.249903
 21
203.863795
 31
0.0
  0
LINE
  5
47F
  8
002
 62
     3
 10
1356.249903
 20
211.863795
 30
0.0
 11
1356.249903
 21
242.863845
 31
0.0
  0
LINE
  5
480
  8
002
 62
    40
 10
1355.019903
 20
172.863745
 30
0.0
 11
1355.019903
 21
205.650643
 31
0.0
  0
LINE
  5
481
  8
002
 62
    40
 10
1355.019903
 20
213.650643
 30
0.0
 11
1355.019903
 21
242.863845
 31
0.0
  0
LINE
  5
482
  8
002
 62
    40
 10
1341.479903
 20
242.863845
 30
0.0
 11
1341.479903
 21
210.076947
 31
0.0
  0
LINE
  5
483
  8
002
 62
    40
 10
1341.479903
 20
202.076947
 30
0.0
 11
1341.479903
 21
172.863745
 31
0.0
  0
CIRCLE
  5
484
  8
002
 62
     3
 10
1147.363881
 20
506.953945
 30
0.0
 40
4.25
  0
CIRCLE
  5
485
  8
002
 62
     3
 10
1179.183681
 20
506.953945
 30
0.0
 40
4.25
  0
LINE
  5
486
  8
002
 62
     3
 10
1146.766165
 20
536.543036
 30
0.0
 11
1145.133173
 21
538.176029
 31
0.0
  0
LINE
  5
487
  8
002
 62
     3
 10
1145.133173
 20
538.176029
 30
0.0
 11
1145.730889
 21
540.406739
 31
0.0
  0
LINE
  5
488
  8
002
 62
     3
 10
1145.730889
 20
540.406739
 30
0.0
 11
1147.961598
 21
541.004456
 31
0.0
  0
LINE
  5
489
  8
002
 62
     3
 10
1147.961598
 20
541.004456
 30
0.0
 11
1149.594591
 21
539.371462
 31
0.0
  0
LINE
  5
48A
  8
002
 62
     3
 10
1149.594591
 20
539.371462
 30
0.0
 11
1148.996875
 21
537.140752
 31
0.0
  0
LINE
  5
48B
  8
002
 62
     3
 10
1148.996875
 20
537.140752
 30
0.0
 11
1146.766165
 21
536.543036
 31
0.0
  0
CIRCLE
  5
48C
  8
002
 62
     3
 10
1147.363881
 20
538.773745
 30
0.0
 40
4.25
  0
CIRCLE
  5
48D
  8
002
 62
     3
 10
1163.273781
 20
522.863845
 30
0.0
 40
27.5
  0
CIRCLE
  5
48E
  8
002
 62
     3
 10
1163.273781
 20
522.863845
 30
0.0
 40
17.0
  0
CIRCLE
  5
48F
  8
002
 62
     3
 10
1179.183681
 20
538.773745
 30
0.0
 40
4.25
  0
LINE
  5
490
  8
002
  6
CENTER
 62
    40
 10
1184.290381
 20
501.847245
 30
0.0
 11
1173.520781
 21
512.616845
 31
0.0
  0
LINE
  5
491
  8
002
  6
CENTER
 62
    40
 10
1173.520781
 20
533.110845
 30
0.0
 11
1184.290381
 21
543.880445
 31
0.0
  0
CIRCLE
  5
492
  8
002
  6
CENTER
 62
    40
 10
1163.273781
 20
522.863845
 30
0.0
 40
22.5
  0
LINE
  5
493
  8
002
 62
     3
 10
1149.594591
 20
506.356229
 30
0.0
 11
1147.961597
 21
504.723236
 31
0.0
  0
LINE
  5
494
  8
002
 62
     3
 10
1147.961597
 20
504.723236
 30
0.0
 11
1145.730887
 21
505.320953
 31
0.0
  0
LINE
  5
495
  8
002
 62
     3
 10
1145.730887
 20
505.320953
 30
0.0
 11
1145.133171
 21
507.551662
 31
0.0
  0
LINE
  5
496
  8
002
 62
     3
 10
1145.133171
 20
507.551662
 30
0.0
 11
1146.766164
 21
509.184654
 31
0.0
  0
LINE
  5
497
  8
002
 62
     3
 10
1146.766164
 20
509.184654
 30
0.0
 11
1148.996874
 21
508.586938
 31
0.0
  0
LINE
  5
498
  8
002
 62
     3
 10
1148.996874
 20
508.586938
 30
0.0
 11
1149.594591
 21
506.356229
 31
0.0
  0
LINE
  5
499
  8
002
 62
     3
 10
1179.781397
 20
509.184654
 30
0.0
 11
1181.41439
 21
507.551661
 31
0.0
  0
LINE
  5
49A
  8
002
 62
     3
 10
1181.41439
 20
507.551661
 30
0.0
 11
1180.816673
 21
505.320951
 31
0.0
  0
LINE
  5
49B
  8
002
 62
     3
 10
1180.816673
 20
505.320951
 30
0.0
 11
1178.585964
 21
504.723234
 31
0.0
  0
LINE
  5
49C
  8
002
 62
     3
 10
1178.585964
 20
504.723234
 30
0.0
 11
1176.952972
 21
506.356227
 31
0.0
  0
LINE
  5
49D
  8
002
 62
     3
 10
1176.952972
 20
506.356227
 30
0.0
 11
1177.550688
 21
508.586937
 31
0.0
  0
LINE
  5
49E
  8
002
 62
     3
 10
1177.550688
 20
508.586937
 30
0.0
 11
1179.781397
 21
509.184654
 31
0.0
  0
LINE
  5
49F
  8
002
 62
     3
 10
1176.952972
 20
539.371461
 30
0.0
 11
1178.585965
 21
541.004453
 31
0.0
  0
LINE
  5
4A0
  8
002
 62
     3
 10
1178.585965
 20
541.004453
 30
0.0
 11
1180.816675
 21
540.406737
 31
0.0
  0
LINE
  5
4A1
  8
002
 62
     3
 10
1180.816675
 20
540.406737
 30
0.0
 11
1181.414392
 21
538.176028
 31
0.0
  0
LINE
  5
4A2
  8
002
 62
     3
 10
1181.414392
 20
538.176028
 30
0.0
 11
1179.781399
 21
536.543035
 31
0.0
  0
LINE
  5
4A3
  8
002
 62
     3
 10
1179.781399
 20
536.543035
 30
0.0
 11
1177.550689
 21
537.140752
 31
0.0
  0
LINE
  5
4A4
  8
002
 62
     3
 10
1177.550689
 20
537.140752
 30
0.0
 11
1176.952972
 21
539.371461
 31
0.0
  0
CIRCLE
  5
4A5
  8
002
 62
     3
 10
1143.788181
 20
-10.886655
 30
0.0
 40
3.299997
  0
CIRCLE
  5
4A6
  8
002
 62
     3
 10
1163.273681
 20
-22.135855
 30
0.0
 40
7.999999
  0
CIRCLE
  5
4A7
  8
002
 62
     3
 10
1163.273781
 20
-22.136155
 30
0.0
 40
28.99997
  0
CIRCLE
  5
4A8
  8
002
 62
     3
 10
1182.759281
 20
-10.886655
 30
0.0
 40
3.299997
  0
CIRCLE
  5
4A9
  8
002
 62
     3
 10
1182.759281
 20
-33.386155
 30
0.0
 40
3.299997
  0
CIRCLE
  5
4AA
  8
002
 62
     3
 10
1143.788181
 20
-33.386155
 30
0.0
 40
3.299997
  0
LINE
  5
4AB
  8
002
  6
CENTER
 62
    40
 10
1136.226981
 20
-37.751855
 30
0.0
 11
1148.416581
 21
-30.714255
 31
0.0
  0
LINE
  5
4AC
  8
002
  6
CENTER
 62
    40
 10
1147.765181
 20
-13.182355
 30
0.0
 11
1136.572181
 21
-6.720055
 31
0.0
  0
LINE
  5
4AD
  8
002
  6
CENTER
 62
    40
 10
1188.388581
 20
-7.636355
 30
0.0
 11
1178.583181
 21
-13.297555
 31
0.0
  0
LINE
  5
4AE
  8
002
  6
CENTER
 62
    40
 10
1178.928181
 20
-31.174255
 30
0.0
 11
1188.388481
 21
-36.636155
 31
0.0
  0
ARC
  5
4AF
  8
002
  6
CENTER
 62
    40
 10
1163.273781
 20
-22.136155
 30
0.0
 40
22.50000432222186
 50
130.433445
 51
44.706496
  0
CIRCLE
  5
4B0
  8
002
  6
HIDDEN
 62
    40
 10
1163.273681
 20
-22.135855
 30
0.0
 40
15.0
  0
CIRCLE
  5
4B1
  8
002
  6
HIDDEN
 62
    40
 10
1163.273681
 20
-22.135855
 30
0.0
 40
14.0
  0
ARC
  5
4B2
  8
002
  6
DASHED
 62
    40
 10
1164.513781
 20
-10.735955
 30
0.0
 40
9.0
 50
0.0
 51
45.92827
  0
LINE
  5
4B3
  8
002
  6
DASHED
 62
    40
 10
1173.513781
 20
-10.735955
 30
0.0
 11
1173.513781
 21
-11.174955
 31
0.0
  0
ARC
  5
4B4
  8
002
  6
HIDDEN
 62
    40
 10
1162.033781
 20
-10.735955
 30
0.0
 40
8.999963468814713
 50
134.07173
 51
180.0
  0
LINE
  5
4B5
  8
002
  6
HIDDEN
 62
    40
 10
1153.033781
 20
-10.735955
 30
0.0
 11
1153.033781
 21
-11.174955
 31
0.0
  0
LINE
  5
4B6
  8
002
  6
HIDDEN
 62
    40
 10
1155.773781
 20
-9.145655
 30
0.0
 11
1155.773781
 21
-0.935955
 31
0.0
  0
ARC
  5
4B7
  8
002
  6
HIDDEN
 62
    40
 10
1163.273681
 20
-22.135855
 30
0.0
 40
15.79993547328593
 50
61.661126
 51
118.338874
  0
LINE
  5
4B8
  8
002
  6
DASHED
 62
    40
 10
1166.223681
 20
-6.336055
 30
0.0
 11
1166.223681
 21
-5.636055
 31
0.0
  0
LINE
  5
4B9
  8
002
  6
DASHED
 62
    40
 10
1163.273681
 20
-6.336055
 30
0.0
 11
1166.223681
 21
-6.336055
 31
0.0
  0
LINE
  5
4BA
  8
002
  6
HIDDEN
 62
    40
 10
1166.223681
 20
-5.636055
 30
0.0
 11
1160.323781
 21
-5.636055
 31
0.0
  0
LINE
  5
4BB
  8
002
  6
HIDDEN
 62
    40
 10
1160.323781
 20
-5.636055
 30
0.0
 11
1160.323781
 21
-6.336055
 31
0.0
  0
LINE
  5
4BC
  8
002
  6
HIDDEN
 62
    40
 10
1160.323781
 20
-6.336055
 30
0.0
 11
1162.869581
 21
-6.336055
 31
0.0
  0
ARC
  5
4BD
  8
002
  6
HIDDEN
 62
    40
 10
1161.594081
 20
-4.875855
 30
0.0
 40
0.9999720046081633
 50
106.254704
 51
174.991793
  0
LINE
  5
4BE
  8
002
  6
HIDDEN
 62
    40
 10
1160.597881
 20
-4.788655
 30
0.0
 11
1160.523781
 21
-5.635955
 31
0.0
  0
ARC
  5
4BF
  8
002
  6
HIDDEN
 62
    40
 10
1163.273681
 20
-10.635855
 30
0.0
 40
6.99972719254114
 50
95.228741
 51
106.256505
  0
LINE
  5
4C0
  8
002
  6
DASHED
 62
    40
 10
1162.873781
 20
-3.858255
 30
0.0
 11
1162.873781
 21
-3.714955
 31
0.0
  0
LINE
  5
4C1
  8
002
  6
DASHED
 62
    40
 10
1162.869581
 20
-6.336055
 30
0.0
 11
1163.273681
 21
-5.636055
 31
0.0
  0
LINE
  5
4C2
  8
002
  6
DASHED
 62
    40
 10
1163.677881
 20
-5.636055
 30
0.0
 11
1163.273681
 21
-6.336055
 31
0.0
  0
LINE
  5
4C3
  8
002
  6
DASHED
 62
    40
 10
1162.873781
 20
-3.715155
 30
0.0
 11
1162.635881
 21
-3.665055
 31
0.0
  0
LINE
  5
4C4
  8
002
  6
DASHED
 62
    40
 10
1163.673681
 20
-3.858255
 30
0.0
 11
1162.873781
 21
-3.858255
 31
0.0
  0
LINE
  5
4C5
  8
002
  6
DASHED
 62
    40
 10
1163.673681
 20
-3.714955
 30
0.0
 11
1163.673681
 21
-3.858255
 31
0.0
  0
LINE
  5
4C6
  8
002
  6
DASHED
 62
    40
 10
1163.911581
 20
-3.665055
 30
0.0
 11
1163.673681
 21
-3.715055
 31
0.0
  0
ARC
  5
4C7
  8
002
  6
DASHED
 62
    40
 10
1163.273681
 20
-10.635855
 30
0.0
 40
6.99979200905278
 50
73.742709
 51
84.770444
  0
ARC
  5
4C8
  8
002
  6
DASHED
 62
    40
 10
1164.953381
 20
-4.875855
 30
0.0
 40
1.000017864840442
 50
5.008207
 51
73.745296
  0
LINE
  5
4C9
  8
002
  6
DASHED
 62
    40
 10
1166.023681
 20
-5.635955
 30
0.0
 11
1165.949581
 21
-4.788555
 31
0.0
  0
LINE
  5
4CA
  8
002
  6
HIDDEN
 62
    40
 10
1155.773781
 20
-0.935955
 30
0.0
 11
1170.773681
 21
-0.935955
 31
0.0
  0
CIRCLE
  5
4CB
  8
002
 62
     3
 10
1163.273781
 20
-22.136155
 30
0.0
 40
6.0
  0
LINE
  5
4CC
  8
002
  6
HIDDEN
 62
    40
 10
1170.773681
 20
-0.935955
 30
0.0
 11
1170.773681
 21
-9.145655
 31
0.0
  0
CIRCLE
  5
4CD
  8
002
 62
    40
 10
1163.273781
 20
-22.136155
 30
0.0
 40
6.769999999999982
  0
LINE
  5
4CE
  8
002
  6
PHANTOM
 62
    40
 10
1151.773781
 20
-1.136155
 30
0.0
 11
1151.773781
 21
-12.505155
 31
0.0
  0
ARC
  5
4CF
  8
002
  6
PHANTOM
 62
    40
 10
1154.773781
 20
-1.136155
 30
0.0
 40
3.0
 50
90.0
 51
180.0
  0
LINE
  5
4D0
  8
002
  6
PHANTOM
 62
    40
 10
1171.773781
 20
1.863845
 30
0.0
 11
1154.773781
 21
1.863845
 31
0.0
  0
ARC
  5
4D1
  8
002
  6
PHANTOM
 62
    40
 10
1171.773781
 20
-1.136155
 30
0.0
 40
3.0
 50
0.0
 51
90.0
  0
LINE
  5
4D2
  8
002
  6
PHANTOM
 62
    40
 10
1174.773781
 20
-12.505255
 30
0.0
 11
1174.773781
 21
-1.136155
 31
0.0
  0
LINE
  5
4D3
  8
002
  6
CENTER
 62
    40
 10
1130.773781
 20
-22.136155
 30
0.0
 11
1195.773781
 21
-22.136155
 31
0.0
  0
LINE
  5
4D4
  8
002
  6
CENTER
 62
    40
 10
1163.273781
 20
-54.636155
 30
0.0
 11
1163.273781
 21
10.363845
 31
0.0
  0
LINE
  5
4D5
  8
002
 62
     3
 10
1197.773781
 20
403.658345
 30
0.0
 11
1197.523781
 21
403.908345
 31
0.0
  0
LINE
  5
4D6
  8
002
 62
     3
 10
1197.523781
 20
403.908345
 30
0.0
 11
1193.023781
 21
403.908345
 31
0.0
  0
LINE
  5
4D7
  8
002
 62
     3
 10
1193.023781
 20
403.908345
 30
0.0
 11
1192.773781
 21
403.658345
 31
0.0
  0
LINE
  5
4D8
  8
002
 62
     3
 10
1192.773781
 20
403.658345
 30
0.0
 11
1192.773781
 21
399.158345
 31
0.0
  0
LINE
  5
4D9
  8
002
 62
     3
 10
1192.773781
 20
399.158345
 30
0.0
 11
1193.023781
 21
398.908345
 31
0.0
  0
LINE
  5
4DA
  8
002
 62
     3
 10
1193.023781
 20
398.908345
 30
0.0
 11
1197.523781
 21
398.908345
 31
0.0
  0
LINE
  5
4DB
  8
002
 62
     3
 10
1197.523781
 20
398.908345
 30
0.0
 11
1197.773781
 21
399.158345
 31
0.0
  0
LINE
  5
4DC
  8
002
 62
     3
 10
1197.773781
 20
399.158345
 30
0.0
 11
1197.773781
 21
403.658345
 31
0.0
  0
ARC
  5
4DD
  8
002
 62
     3
 10
1197.573781
 20
399.108345
 30
0.0
 40
0.1999999999999318
 50
270.0
 51
0.0
  0
ARC
  5
4DE
  8
002
 62
     3
 10
1192.973781
 20
399.108345
 30
0.0
 40
0.1999999999999318
 50
180.0
 51
270.0
  0
ARC
  5
4DF
  8
002
 62
     3
 10
1195.273781
 20
394.408345
 30
0.0
 40
7.500030347271937
 50
109.471139
 51
70.528861
  0
LINE
  5
4E0
  8
002
  6
CENTER
 62
    40
 10
1195.273781
 20
384.285045
 30
0.0
 11
1195.273781
 21
406.220045
 31
0.0
  0
LINE
  5
4E1
  8
002
  6
CENTER
 62
    40
 10
1184.474881
 20
394.408345
 30
0.0
 11
1207.008181
 21
394.408345
 31
0.0
  0
CIRCLE
  5
4E2
  8
002
 62
     3
 10
299.392391
 20
581.921233
 30
0.0
 40
8.0
  0
CIRCLE
  5
4E3
  8
002
 62
     3
 10
299.392391
 20
651.921233
 30
0.0
 40
8.0
  0
CIRCLE
  5
4E4
  8
002
 62
     3
 10
204.392391
 20
651.921233
 30
0.0
 40
8.0
  0
CIRCLE
  5
4E5
  8
002
 62
     3
 10
204.392391
 20
581.921233
 30
0.0
 40
8.0
  0
LINE
  5
4E6
  8
002
 62
     3
 10
295.392391
 20
589.921233
 30
0.0
 11
299.392391
 21
589.921233
 31
0.0
  0
LINE
  5
4E7
  8
002
 62
     3
 10
295.392391
 20
573.921233
 30
0.0
 11
299.392391
 21
573.921233
 31
0.0
  0
LINE
  5
4E8
  8
002
 62
     3
 10
295.392391
 20
659.921233
 30
0.0
 11
299.392391
 21
659.921233
 31
0.0
  0
LINE
  5
4E9
  8
002
 62
     3
 10
295.392391
 20
643.921233
 30
0.0
 11
299.392391
 21
643.921233
 31
0.0
  0
LINE
  5
4EA
  8
002
 62
     3
 10
293.392391
 20
641.921233
 30
0.0
 11
293.392391
 21
591.921233
 31
0.0
  0
ARC
  5
4EB
  8
002
 62
     3
 10
239.392391
 20
616.921233
 30
0.0
 40
36.00000000000006
 50
270.0
 51
90.0
  0
ARC
  5
4EC
  8
002
 62
     3
 10
239.392391
 20
662.921233
 30
0.0
 40
10.0
 50
270.0
 51
0.0
  0
ARC
  5
4ED
  8
002
 62
     3
 10
239.392391
 20
570.921233
 30
0.0
 40
10.0
 50
360.0
 51
90.0
  0
ARC
  5
4EE
  8
002
 62
     3
 10
239.392391
 20
616.921233
 30
0.0
 40
36.00000000000006
 50
90.0
 51
102.306598
  0
ARC
  5
4EF
  8
002
 62
     3
 10
179.794108
 20
629.92295
 30
0.0
 40
25.0
 50
347.693402
 51
41.806316
  0
ARC
  5
4F0
  8
002
 62
     3
 10
226.390674
 20
676.519516
 30
0.0
 40
25.0
 50
228.193684
 51
282.306598
  0
ARC
  5
4F1
  8
002
 62
     3
 10
179.794108
 20
603.919516
 30
0.0
 40
25.0
 50
318.193684
 51
12.306598
  0
ARC
  5
4F2
  8
002
 62
     3
 10
226.390674
 20
557.32295
 30
0.0
 40
25.0
 50
77.693402
 51
131.806316
  0
ARC
  5
4F3
  8
002
 62
     3
 10
239.392391
 20
616.921233
 30
0.0
 40
36.00000000000006
 50
167.693402
 51
192.306598
  0
ARC
  5
4F4
  8
002
 62
     3
 10
239.392391
 20
616.921233
 30
0.0
 40
36.00000000000006
 50
257.693402
 51
270.0
  0
LINE
  5
4F5
  8
002
  6
CENTER
 62
    40
 10
299.392391
 20
641.921233
 30
0.0
 11
299.392391
 21
661.921233
 31
0.0
  0
LINE
  5
4F6
  8
002
  6
CENTER
 62
    40
 10
309.392391
 20
651.921233
 30
0.0
 11
289.392391
 21
651.921233
 31
0.0
  0
LINE
  5
4F7
  8
002
  6
CENTER
 62
    40
 10
299.392391
 20
571.921233
 30
0.0
 11
299.392391
 21
591.921233
 31
0.0
  0
LINE
  5
4F8
  8
002
  6
CENTER
 62
    40
 10
309.392391
 20
581.921233
 30
0.0
 11
289.392391
 21
581.921233
 31
0.0
  0
LINE
  5
4F9
  8
002
  6
CENTER
 62
    40
 10
204.392391
 20
571.921233
 30
0.0
 11
204.392391
 21
591.921233
 31
0.0
  0
LINE
  5
4FA
  8
002
  6
CENTER
 62
    40
 10
214.392391
 20
581.921233
 30
0.0
 11
194.392391
 21
581.921233
 31
0.0
  0
LINE
  5
4FB
  8
002
  6
CENTER
 62
    40
 10
204.392391
 20
641.921233
 30
0.0
 11
204.392391
 21
661.921233
 31
0.0
  0
LINE
  5
4FC
  8
002
  6
CENTER
 62
    40
 10
214.392391
 20
651.921233
 30
0.0
 11
194.392391
 21
651.921233
 31
0.0
  0
LINE
  5
4FD
  8
002
  6
CENTER
 62
    40
 10
200.547855
 20
616.921233
 30
0.0
 11
300.206441
 21
616.921233
 31
0.0
  0
ARC
  5
4FE
  8
002
 62
     3
 10
295.392391
 20
591.921233
 30
0.0
 40
2.0
 50
180.0
 51
270.0
  0
ARC
  5
4FF
  8
002
 62
     3
 10
295.392391
 20
571.921233
 30
0.0
 40
2.0
 50
90.0
 51
180.0
  0
ARC
  5
500
  8
002
 62
     3
 10
295.392391
 20
641.921233
 30
0.0
 40
2.0
 50
90.0
 51
180.0
  0
ARC
  5
501
  8
002
 62
     3
 10
295.392391
 20
661.921233
 30
0.0
 40
2.0
 50
180.0
 51
270.0
  0
CIRCLE
  5
502
  8
002
 62
    40
 10
239.392391
 20
616.921233
 30
0.0
 40
31.0
  0
CIRCLE
  5
503
  8
002
 62
    40
 10
239.392391
 20
616.921233
 30
0.0
 40
29.9175
  0
LINE
  5
504
  8
002
 62
     3
 10
249.392391
 20
663.921233
 30
0.0
 11
293.392391
 21
663.921233
 31
0.0
  0
LINE
  5
505
  8
002
 62
     3
 10
249.342266
 20
569.921233
 30
0.0
 11
293.392391
 21
569.921233
 31
0.0
  0
LINE
  5
506
  8
002
 62
     3
 10
249.392391
 20
662.921233
 30
0.0
 11
249.392391
 21
663.921233
 31
0.0
  0
LINE
  5
507
  8
002
 62
     3
 10
293.392391
 20
661.921233
 30
0.0
 11
293.392391
 21
663.921233
 31
0.0
  0
LINE
  5
508
  8
002
 62
     3
 10
293.392391
 20
571.921233
 30
0.0
 11
293.392391
 21
569.921233
 31
0.0
  0
LINE
  5
509
  8
002
 62
     3
 10
249.392391
 20
570.921233
 30
0.0
 11
249.392391
 21
569.921233
 31
0.0
  0
LINE
  5
50A
  8
002
 62
     3
 10
263.892391
 20
663.921233
 30
0.0
 11
263.892391
 21
690.921233
 31
0.0
  0
LINE
  5
50B
  8
002
 62
     3
 10
263.892391
 20
690.921233
 30
0.0
 11
264.892391
 21
691.921233
 31
0.0
  0
LINE
  5
50C
  8
002
 62
     3
 10
264.892391
 20
691.921233
 30
0.0
 11
277.892391
 21
691.921233
 31
0.0
  0
LINE
  5
50D
  8
002
 62
     3
 10
277.892391
 20
691.921233
 30
0.0
 11
278.892391
 21
690.921233
 31
0.0
  0
LINE
  5
50E
  8
002
 62
     3
 10
278.892391
 20
690.921233
 30
0.0
 11
273.892391
 21
690.921233
 31
0.0
  0
LINE
  5
50F
  8
002
 62
     3
 10
273.892391
 20
691.921233
 30
0.0
 11
273.892391
 21
669.921233
 31
0.0
  0
LINE
  5
510
  8
002
 62
     3
 10
273.892391
 20
669.921233
 30
0.0
 11
268.892391
 21
669.921233
 31
0.0
  0
LINE
  5
511
  8
002
 62
     3
 10
268.892391
 20
669.921233
 30
0.0
 11
268.892391
 21
691.921233
 31
0.0
  0
LINE
  5
512
  8
002
 62
     3
 10
268.892391
 20
690.921233
 30
0.0
 11
263.892391
 21
690.921233
 31
0.0
  0
LINE
  5
513
  8
002
 62
     3
 10
278.892391
 20
690.921233
 30
0.0
 11
278.892391
 21
663.921233
 31
0.0
  0
ARC
  5
514
  8
002
 62
     3
 10
271.392391
 20
669.921233
 30
0.0
 40
2.5
 50
180.0
 51
0.0
  0
LINE
  5
515
  8
002
 62
     3
 10
278.892391
 20
569.921233
 30
0.0
 11
278.892391
 21
542.921233
 31
0.0
  0
LINE
  5
516
  8
002
 62
     3
 10
278.892391
 20
542.921233
 30
0.0
 11
277.892391
 21
541.921233
 31
0.0
  0
LINE
  5
517
  8
002
 62
     3
 10
277.892391
 20
541.921233
 30
0.0
 11
264.892391
 21
541.921233
 31
0.0
  0
LINE
  5
518
  8
002
 62
     3
 10
264.892391
 20
541.921233
 30
0.0
 11
263.892391
 21
542.921233
 31
0.0
  0
LINE
  5
519
  8
002
 62
     3
 10
263.892391
 20
542.921233
 30
0.0
 11
263.892391
 21
569.921233
 31
0.0
  0
LINE
  5
51A
  8
002
 62
     3
 10
268.892391
 20
563.921233
 30
0.0
 11
273.892391
 21
563.921233
 31
0.0
  0
LINE
  5
51B
  8
002
 62
     3
 10
273.892391
 20
563.921233
 30
0.0
 11
273.892391
 21
541.921233
 31
0.0
  0
LINE
  5
51C
  8
002
 62
     3
 10
273.892391
 20
542.921233
 30
0.0
 11
278.892391
 21
542.921233
 31
0.0
  0
LINE
  5
51D
  8
002
 62
     3
 10
268.892391
 20
542.921233
 30
0.0
 11
263.892391
 21
542.921233
 31
0.0
  0
LINE
  5
51E
  8
002
 62
     3
 10
268.892391
 20
541.921233
 30
0.0
 11
268.892391
 21
563.921233
 31
0.0
  0
ARC
  5
51F
  8
002
 62
     3
 10
271.392391
 20
563.921233
 30
0.0
 40
2.5
 50
0.0
 51
180.0
  0
LINE
  5
520
  8
002
  6
CENTER
 62
    40
 10
239.392391
 20
657.291017
 30
0.0
 11
239.392391
 21
573.44618
 31
0.0
  0
LINE
  5
521
  8
002
  6
CENTER
 62
    40
 10
271.392391
 20
695.304174
 30
0.0
 11
271.392391
 21
537.45874
 31
0.0
  0
CIRCLE
  5
522
  8
002
 62
     3
 10
239.392391
 20
616.921233
 30
0.0
 40
10.0
  0
LINE
  5
523
  8
002
 62
     3
 10
266.892391
 20
66.005733
 30
0.0
 11
266.892391
 21
62.005733
 31
0.0
  0
LINE
  5
524
  8
002
 62
     3
 10
119.195391
 20
126.005733
 30
0.0
 11
33.195391
 21
126.005733
 31
0.0
  0
LINE
  5
525
  8
002
 62
     3
 10
29.195391
 20
118.005733
 30
0.0
 11
32.285399
 21
118.005733
 31
0.0
  0
LINE
  5
526
  8
002
 62
     3
 10
29.195391
 20
74.005733
 30
0.0
 11
32.285399
 21
74.005733
 31
0.0
  0
LINE
  5
527
  8
002
 62
     3
 10
123.195391
 20
74.005733
 30
0.0
 11
120.105383
 21
74.005733
 31
0.0
  0
LINE
  5
528
  8
002
 62
     3
 10
123.195391
 20
118.005733
 30
0.0
 11
120.105383
 21
118.005733
 31
0.0
  0
LINE
  5
529
  8
002
 62
     3
 10
29.195391
 20
88.505733
 30
0.0
 11
2.195351
 21
88.505733
 31
0.0
  0
LINE
  5
52A
  8
002
 62
     3
 10
2.195351
 20
88.505733
 30
0.0
 11
1.195351
 21
89.505733
 31
0.0
  0
LINE
  5
52B
  8
002
 62
     3
 10
1.195351
 20
89.505733
 30
0.0
 11
1.195351
 21
105.505733
 31
0.0
  0
LINE
  5
52C
  8
002
 62
     3
 10
1.195351
 20
105.505733
 30
0.0
 11
23.195391
 21
105.505733
 31
0.0
  0
LINE
  5
52D
  8
002
 62
     3
 10
23.195391
 20
105.505733
 30
0.0
 11
23.195391
 21
103.076833
 31
0.0
  0
LINE
  5
52E
  8
002
 62
     3
 10
23.195391
 20
103.076833
 30
0.0
 11
25.695391
 21
103.505733
 31
0.0
  0
LINE
  5
52F
  8
002
 62
     3
 10
25.695391
 20
103.505733
 30
0.0
 11
29.195391
 21
103.505733
 31
0.0
  0
LINE
  5
530
  8
002
 62
     3
 10
123.195391
 20
103.505733
 30
0.0
 11
126.695391
 21
103.505733
 31
0.0
  0
LINE
  5
531
  8
002
 62
     3
 10
126.695391
 20
103.505733
 30
0.0
 11
129.195391
 21
103.076833
 31
0.0
  0
LINE
  5
532
  8
002
 62
     3
 10
129.195391
 20
103.076833
 30
0.0
 11
129.195391
 21
105.505733
 31
0.0
  0
LINE
  5
533
  8
002
 62
     3
 10
129.195391
 20
105.505733
 30
0.0
 11
151.195391
 21
105.505733
 31
0.0
  0
LINE
  5
534
  8
002
 62
     3
 10
151.195391
 20
105.505733
 30
0.0
 11
151.195391
 21
89.505733
 31
0.0
  0
LINE
  5
535
  8
002
 62
     3
 10
151.195391
 20
89.505733
 30
0.0
 11
150.195391
 21
88.505733
 31
0.0
  0
LINE
  5
536
  8
002
 62
     3
 10
150.195391
 20
88.505733
 30
0.0
 11
123.195391
 21
88.505733
 31
0.0
  0
LINE
  5
537
  8
002
 62
     3
 10
23.195391
 20
103.076833
 30
0.0
 11
1.766421
 21
103.076833
 31
0.0
  0
LINE
  5
538
  8
002
 62
     3
 10
1.766421
 20
103.076833
 30
0.0
 11
1.195351
 21
102.505733
 31
0.0
  0
LINE
  5
539
  8
002
 62
     3
 10
2.195351
 20
103.076833
 30
0.0
 11
2.195351
 21
88.505733
 31
0.0
  0
LINE
  5
53A
  8
002
 62
     3
 10
129.195391
 20
103.076833
 30
0.0
 11
150.624291
 21
103.076833
 31
0.0
  0
LINE
  5
53B
  8
002
 62
     3
 10
150.624291
 20
103.076833
 30
0.0
 11
151.195391
 21
102.505733
 31
0.0
  0
LINE
  5
53C
  8
002
 62
     3
 10
150.195391
 20
103.076833
 30
0.0
 11
150.195391
 21
88.505733
 31
0.0
  0
LINE
  5
53D
  8
002
 62
     3
 10
119.195391
 20
66.005733
 30
0.0
 11
119.195391
 21
126.005733
 31
0.0
  0
LINE
  5
53E
  8
002
 62
     3
 10
103.195391
 20
72.005733
 30
0.0
 11
103.195391
 21
66.005733
 31
0.0
  0
LINE
  5
53F
  8
002
 62
     3
 10
105.862474
 20
72.005733
 30
0.0
 11
105.862474
 21
126.005733
 31
0.0
  0
LINE
  5
540
  8
002
 62
     3
 10
49.195391
 20
66.005733
 30
0.0
 11
49.195391
 21
72.005733
 31
0.0
  0
LINE
  5
541
  8
002
 62
     3
 10
33.195391
 20
126.005733
 30
0.0
 11
33.195391
 21
66.005733
 31
0.0
  0
LINE
  5
542
  8
002
 62
     3
 10
46.528308
 20
72.005733
 30
0.0
 11
46.528308
 21
126.005733
 31
0.0
  0
POLYLINE
  5
543
  8
002
 62
     3
 66
     1
 10
0.0
 20
0.0
 30
0.0
  0
VERTEX
  5
545
  8
002
 62
     3
 10
105.862474
 20
126.005733
 30
0.0
  0
VERTEX
  5
546
  8
002
 62
     3
 10
105.857441
 20
126.001855
 30
0.0
  0
VERTEX
  5
547
  8
002
 62
     3
 10
105.852408
 20
125.997977
 30
0.0
  0
VERTEX
  5
548
  8
002
 62
     3
 10
105.529458
 20
125.751662
 30
0.0
  0
VERTEX
  5
549
  8
002
 62
     3
 10
105.203022
 20
125.509999
 30
0.0
  0
VERTEX
  5
54A
  8
002
 62
     3
 10
104.867381
 20
125.272442
 30
0.0
  0
VERTEX
  5
54B
  8
002
 62
     3
 10
104.525195
 20
125.044312
 30
0.0
  0
VERTEX
  5
54C
  8
002
 62
     3
 10
104.167391
 20
124.823622
 30
0.0
  0
VERTEX
  5
54D
  8
002
 62
     3
 10
103.799987
 20
124.619644
 30
0.0
  0
VERTEX
  5
54E
  8
002
 62
     3
 10
103.419872
 20
124.435708
 30
0.0
  0
VERTEX
  5
54F
  8
002
 62
     3
 10
103.028523
 20
124.275826
 30
0.0
  0
VERTEX
  5
550
  8
002
 62
     3
 10
102.693284
 20
124.164199
 30
0.0
  0
VERTEX
  5
551
  8
002
 62
     3
 10
102.350749
 20
124.081786
 30
0.0
  0
VERTEX
  5
552
  8
002
 62
     3
 10
101.990861
 20
124.033158
 30
0.0
  0
VERTEX
  5
553
  8
002
 62
     3
 10
101.62742
 20
124.005733
 30
0.0
  0
SEQEND
  5
544
  8
002
 62
     3
  0
POLYLINE
  5
554
  8
002
 62
     3
 66
     1
 10
0.0
 20
0.0
 30
0.0
  0
VERTEX
  5
556
  8
002
 62
     3
 10
101.62742
 20
74.005733
 30
0.0
  0
VERTEX
  5
557
  8
002
 62
     3
 10
101.982736
 20
73.979455
 30
0.0
  0
VERTEX
  5
558
  8
002
 62
     3
 10
102.334719
 20
73.932912
 30
0.0
  0
VERTEX
  5
559
  8
002
 62
     3
 10
102.685416
 20
73.849565
 30
0.0
  0
VERTEX
  5
55A
  8
002
 62
     3
 10
103.028523
 20
73.73564
 30
0.0
  0
VERTEX
  5
55B
  8
002
 62
     3
 10
103.413498
 20
73.578624
 30
0.0
  0
VERTEX
  5
55C
  8
002
 62
     3
 10
103.78758
 20
73.398271
 30
0.0
  0
VERTEX
  5
55D
  8
002
 62
     3
 10
104.149346
 20
73.198394
 30
0.0
  0
VERTEX
  5
55E
  8
002
 62
     3
 10
104.501779
 20
72.982173
 30
0.0
  0
VERTEX
  5
55F
  8
002
 62
     3
 10
104.85025
 20
72.750817
 30
0.0
  0
VERTEX
  5
560
  8
002
 62
     3
 10
105.191874
 20
72.509563
 30
0.0
  0
VERTEX
  5
561
  8
002
 62
     3
 10
105.523957
 20
72.26395
 30
0.0
  0
VERTEX
  5
562
  8
002
 62
     3
 10
105.852408
 20
72.013489
 30
0.0
  0
VERTEX
  5
563
  8
002
 62
     3
 10
105.857441
 20
72.009611
 30
0.0
  0
VERTEX
  5
564
  8
002
 62
     3
 10
105.862474
 20
72.005733
 30
0.0
  0
SEQEND
  5
555
  8
002
 62
     3
  0
ARC
  5
565
  8
002
 62
     3
 10
101.195391
 20
72.005733
 30
0.0
 40
2.0
 50
0.0
 51
90.0
  0
ARC
  5
566
  8
002
 62
     3
 10
101.195391
 20
126.005733
 30
0.0
 40
2.0
 50
270.0
 51
360.0
  0
ARC
  5
567
  8
002
 62
     3
 10
51.195391
 20
126.005733
 30
0.0
 40
2.0
 50
180.0
 51
270.0
  0
POLYLINE
  5
568
  8
002
 62
     3
 66
     1
 10
0.0
 20
0.0
 30
0.0
  0
VERTEX
  5
56A
  8
002
 62
     3
 10
50.763363
 20
124.005733
 30
0.0
  0
VERTEX
  5
56B
  8
002
 62
     3
 10
50.408047
 20
124.032011
 30
0.0
  0
VERTEX
  5
56C
  8
002
 62
     3
 10
50.056063
 20
124.078555
 30
0.0
  0
VERTEX
  5
56D
  8
002
 62
     3
 10
49.705366
 20
124.161901
 30
0.0
  0
VERTEX
  5
56E
  8
002
 62
     3
 10
49.36226
 20
124.275826
 30
0.0
  0
VERTEX
  5
56F
  8
002
 62
     3
 10
48.977284
 20
124.432842
 30
0.0
  0
VERTEX
  5
570
  8
002
 62
     3
 10
48.603203
 20
124.613195
 30
0.0
  0
VERTEX
  5
571
  8
002
 62
     3
 10
48.241436
 20
124.813072
 30
0.0
  0
VERTEX
  5
572
  8
002
 62
     3
 10
47.889004
 20
125.029293
 30
0.0
  0
VERTEX
  5
573
  8
002
 62
     3
 10
47.540533
 20
125.260649
 30
0.0
  0
VERTEX
  5
574
  8
002
 62
     3
 10
47.198908
 20
125.501904
 30
0.0
  0
VERTEX
  5
575
  8
002
 62
     3
 10
46.866825
 20
125.747516
 30
0.0
  0
VERTEX
  5
576
  8
002
 62
     3
 10
46.538374
 20
125.997977
 30
0.0
  0
VERTEX
  5
577
  8
002
 62
     3
 10
46.533341
 20
126.001855
 30
0.0
  0
VERTEX
  5
578
  8
002
 62
     3
 10
46.528308
 20
126.005733
 30
0.0
  0
SEQEND
  5
569
  8
002
 62
     3
  0
ARC
  5
579
  8
002
 62
     3
 10
51.195391
 20
72.005733
 30
0.0
 40
2.0
 50
90.0
 51
180.0
  0
POLYLINE
  5
57A
  8
002
 62
     3
 66
     1
 10
0.0
 20
0.0
 30
0.0
  0
VERTEX
  5
57C
  8
002
 62
     3
 10
46.528308
 20
72.005733
 30
0.0
  0
VERTEX
  5
57D
  8
002
 62
     3
 10
46.533341
 20
72.009611
 30
0.0
  0
VERTEX
  5
57E
  8
002
 62
     3
 10
46.538374
 20
72.013489
 30
0.0
  0
VERTEX
  5
57F
  8
002
 62
     3
 10
46.861324
 20
72.259804
 30
0.0
  0
VERTEX
  5
580
  8
002
 62
     3
 10
47.187761
 20
72.501467
 30
0.0
  0
VERTEX
  5
581
  8
002
 62
     3
 10
47.523401
 20
72.739024
 30
0.0
  0
VERTEX
  5
582
  8
002
 62
     3
 10
47.865587
 20
72.967154
 30
0.0
  0
VERTEX
  5
583
  8
002
 62
     3
 10
48.223392
 20
73.187845
 30
0.0
  0
VERTEX
  5
584
  8
002
 62
     3
 10
48.590796
 20
73.391822
 30
0.0
  0
VERTEX
  5
585
  8
002
 62
     3
 10
48.97091
 20
73.575758
 30
0.0
  0
VERTEX
  5
586
  8
002
 62
     3
 10
49.36226
 20
73.73564
 30
0.0
  0
VERTEX
  5
587
  8
002
 62
     3
 10
49.697499
 20
73.847267
 30
0.0
  0
VERTEX
  5
588
  8
002
 62
     3
 10
50.040034
 20
73.929681
 30
0.0
  0
VERTEX
  5
589
  8
002
 62
     3
 10
50.399921
 20
73.978309
 30
0.0
  0
VERTEX
  5
58A
  8
002
 62
     3
 10
50.763363
 20
74.005733
 30
0.0
  0
SEQEND
  5
57B
  8
002
 62
     3
  0
LINE
  5
58B
  8
002
 62
     3
 10
101.62742
 20
74.005733
 30
0.0
 11
50.763363
 21
74.005733
 31
0.0
  0
LINE
  5
58C
  8
002
 62
     3
 10
101.62742
 20
124.005733
 30
0.0
 11
50.763363
 21
124.005733
 31
0.0
  0
LINE
  5
58D
  8
002
 62
     3
 10
119.195391
 20
66.005733
 30
0.0
 11
33.195391
 21
66.005733
 31
0.0
  0
LINE
  5
58E
  8
002
 62
     3
 10
123.195391
 20
118.005733
 30
0.0
 11
123.195391
 21
74.005733
 31
0.0
  0
LINE
  5
58F
  8
002
 62
     3
 10
29.195391
 20
118.005733
 30
0.0
 11
29.195391
 21
74.005733
 31
0.0
  0
POLYLINE
  5
590
  8
002
 62
     3
 66
     1
 10
0.0
 20
0.0
 30
0.0
  0
VERTEX
  5
592
  8
002
 62
     3
 10
120.105383
 20
74.005733
 30
0.0
  0
VERTEX
  5
593
  8
002
 62
     3
 10
119.983394
 20
73.994806
 30
0.0
  0
VERTEX
  5
594
  8
002
 62
     3
 10
119.863872
 20
73.972773
 30
0.0
  0
VERTEX
  5
595
  8
002
 62
     3
 10
119.755923
 20
73.934029
 30
0.0
  0
VERTEX
  5
596
  8
002
 62
     3
 10
119.654681
 20
73.87877
 30
0.0
  0
VERTEX
  5
597
  8
002
 62
     3
 10
119.539314
 20
73.789603
 30
0.0
  0
VERTEX
  5
598
  8
002
 62
     3
 10
119.440406
 20
73.682824
 30
0.0
  0
VERTEX
  5
599
  8
002
 62
     3
 10
119.3585
 20
73.560934
 30
0.0
  0
VERTEX
  5
59A
  8
002
 62
     3
 10
119.293369
 20
73.428931
 30
0.0
  0
VERTEX
  5
59B
  8
002
 62
     3
 10
119.250606
 20
73.312544
 30
0.0
  0
VERTEX
  5
59C
  8
002
 62
     3
 10
119.22058
 20
73.192702
 30
0.0
  0
VERTEX
  5
59D
  8
002
 62
     3
 10
119.204822
 20
73.080439
 30
0.0
  0
VERTEX
  5
59E
  8
002
 62
     3
 10
119.195391
 20
72.967099
 30
0.0
  0
SEQEND
  5
591
  8
002
 62
     3
  0
POLYLINE
  5
59F
  8
002
 62
     3
 66
     1
 10
0.0
 20
0.0
 30
0.0
  0
VERTEX
  5
5A1
  8
002
 62
     3
 10
119.195391
 20
119.044367
 30
0.0
  0
VERTEX
  5
5A2
  8
002
 62
     3
 10
119.216806
 20
118.86677
 30
0.0
  0
VERTEX
  5
5A3
  8
002
 62
     3
 10
119.253383
 20
118.692501
 30
0.0
  0
VERTEX
  5
5A4
  8
002
 62
     3
 10
119.32615
 20
118.507406
 30
0.0
  0
VERTEX
  5
5A5
  8
002
 62
     3
 10
119.432444
 20
118.338915
 30
0.0
  0
VERTEX
  5
5A6
  8
002
 62
     3
 10
119.50738
 20
118.252822
 30
0.0
  0
VERTEX
  5
5A7
  8
002
 62
     3
 10
119.592378
 20
118.176597
 30
0.0
  0
VERTEX
  5
5A8
  8
002
 62
     3
 10
119.693507
 20
118.108703
 30
0.0
  0
VERTEX
  5
5A9
  8
002
 62
     3
 10
119.803675
 20
118.058501
 30
0.0
  0
VERTEX
  5
5AA
  8
002
 62
     3
 10
119.951963
 20
118.023138
 30
0.0
  0
VERTEX
  5
5AB
  8
002
 62
     3
 10
120.105383
 20
118.005733
 30
0.0
  0
SEQEND
  5
5A0
  8
002
 62
     3
  0
POLYLINE
  5
5AC
  8
002
 62
     3
 66
     1
 10
0.0
 20
0.0
 30
0.0
  0
VERTEX
  5
5AE
  8
002
 62
     3
 10
32.285399
 20
118.005733
 30
0.0
  0
VERTEX
  5
5AF
  8
002
 62
     3
 10
32.407388
 20
118.01666
 30
0.0
  0
VERTEX
  5
5B0
  8
002
 62
     3
 10
32.526911
 20
118.038693
 30
0.0
  0
VERTEX
  5
5B1
  8
002
 62
     3
 10
32.63486
 20
118.077437
 30
0.0
  0
VERTEX
  5
5B2
  8
002
 62
     3
 10
32.736101
 20
118.132696
 30
0.0
  0
VERTEX
  5
5B3
  8
002
 62
     3
 10
32.851468
 20
118.221863
 30
0.0
  0
VERTEX
  5
5B4
  8
002
 62
     3
 10
32.950376
 20
118.328642
 30
0.0
  0
VERTEX
  5
5B5
  8
002
 62
     3
 10
33.032282
 20
118.450532
 30
0.0
  0
VERTEX
  5
5B6
  8
002
 62
     3
 10
33.097413
 20
118.582535
 30
0.0
  0
VERTEX
  5
5B7
  8
002
 62
     3
 10
33.140177
 20
118.698922
 30
0.0
  0
VERTEX
  5
5B8
  8
002
 62
     3
 10
33.170203
 20
118.818764
 30
0.0
  0
VERTEX
  5
5B9
  8
002
 62
     3
 10
33.185961
 20
118.931028
 30
0.0
  0
VERTEX
  5
5BA
  8
002
 62
     3
 10
33.195391
 20
119.044367
 30
0.0
  0
SEQEND
  5
5AD
  8
002
 62
     3
  0
POLYLINE
  5
5BB
  8
002
 62
     3
 66
     1
 10
0.0
 20
0.0
 30
0.0
  0
VERTEX
  5
5BD
  8
002
 62
     3
 10
33.195391
 20
72.967099
 30
0.0
  0
VERTEX
  5
5BE
  8
002
 62
     3
 10
33.173976
 20
73.144696
 30
0.0
  0
VERTEX
  5
5BF
  8
002
 62
     3
 10
33.137399
 20
73.318965
 30
0.0
  0
VERTEX
  5
5C0
  8
002
 62
     3
 10
33.064633
 20
73.504061
 30
0.0
  0
VERTEX
  5
5C1
  8
002
 62
     3
 10
32.958339
 20
73.672551
 30
0.0
  0
VERTEX
  5
5C2
  8
002
 62
     3
 10
32.883403
 20
73.758645
 30
0.0
  0
VERTEX
  5
5C3
  8
002
 62
     3
 10
32.798405
 20
73.834869
 30
0.0
  0
VERTEX
  5
5C4
  8
002
 62
     3
 10
32.697276
 20
73.902763
 30
0.0
  0
VERTEX
  5
5C5
  8
002
 62
     3
 10
32.587107
 20
73.952965
 30
0.0
  0
VERTEX
  5
5C6
  8
002
 62
     3
 10
32.43882
 20
73.988329
 30
0.0
  0
VERTEX
  5
5C7
  8
002
 62
     3
 10
32.285399
 20
74.005733
 30
0.0
  0
SEQEND
  5
5BC
  8
002
 62
     3
  0
LINE
  5
5C8
  8
002
 62
     3
 10
196.392391
 20
126.005733
 30
0.0
 11
196.392391
 21
66.005733
 31
0.0
  0
LINE
  5
5C9
  8
002
 62
     3
 10
307.392391
 20
126.005733
 30
0.0
 11
307.392391
 21
66.005733
 31
0.0
  0
LINE
  5
5CA
  8
002
 62
     3
 10
212.392391
 20
126.005733
 30
0.0
 11
212.392391
 21
66.005733
 31
0.0
  0
LINE
  5
5CB
  8
002
 62
     3
 10
307.392391
 20
126.005733
 30
0.0
 11
291.392391
 21
126.005733
 31
0.0
  0
LINE
  5
5CC
  8
002
 62
     3
 10
291.392391
 20
66.005733
 30
0.0
 11
307.392391
 21
66.005733
 31
0.0
  0
LINE
  5
5CD
  8
002
 62
     3
 10
275.392391
 20
120.005733
 30
0.0
 11
275.392391
 21
124.005733
 31
0.0
  0
LINE
  5
5CE
  8
002
 62
     3
 10
291.392391
 20
72.005733
 30
0.0
 11
291.392391
 21
66.005733
 31
0.0
  0
LINE
  5
5CF
  8
002
 62
     3
 10
291.392391
 20
120.005733
 30
0.0
 11
291.392391
 21
126.005733
 31
0.0
  0
ARC
  5
5D0
  8
002
 62
     3
 10
268.892391
 20
72.005733
 30
0.0
 40
2.0
 50
90.0
 51
180.0
  0
LINE
  5
5D1
  8
002
 62
     3
 10
266.892391
 20
72.005733
 30
0.0
 11
266.892391
 21
66.005733
 31
0.0
  0
LINE
  5
5D2
  8
002
 62
     3
 10
214.392391
 20
124.005733
 30
0.0
 11
275.392391
 21
124.005733
 31
0.0
  0
ARC
  5
5D3
  8
002
 62
     3
 10
214.392391
 20
126.005733
 30
0.0
 40
2.0
 50
180.0
 51
270.0
  0
ARC
  5
5D4
  8
002
 62
     3
 10
289.392391
 20
120.005733
 30
0.0
 40
2.0
 50
270.0
 51
0.0
  0
ARC
  5
5D5
  8
002
 62
     3
 10
277.392391
 20
120.005733
 30
0.0
 40
2.0
 50
180.0
 51
270.0
  0
ARC
  5
5D6
  8
002
 62
     3
 10
289.392391
 20
72.005733
 30
0.0
 40
2.0
 50
0.0
 51
90.0
  0
LINE
  5
5D7
  8
002
 62
     3
 10
249.392391
 20
116.005733
 30
0.0
 11
249.392391
 21
76.005733
 31
0.0
  0
LINE
  5
5D8
  8
002
 62
     3
 10
291.392391
 20
118.005733
 30
0.0
 11
251.392391
 21
118.005733
 31
0.0
  0
LINE
  5
5D9
  8
002
 62
     3
 10
293.392391
 20
76.005733
 30
0.0
 11
293.392391
 21
116.005733
 31
0.0
  0
LINE
  5
5DA
  8
002
 62
     3
 10
291.392391
 20
74.005733
 30
0.0
 11
251.392391
 21
74.005733
 31
0.0
  0
ARC
  5
5DB
  8
002
 62
     3
 10
251.392391
 20
76.005733
 30
0.0
 40
2.0
 50
180.0
 51
270.0
  0
ARC
  5
5DC
  8
002
 62
     3
 10
251.392391
 20
116.005733
 30
0.0
 40
2.0
 50
90.0
 51
180.0
  0
ARC
  5
5DD
  8
002
 62
     3
 10
291.392391
 20
116.005733
 30
0.0
 40
2.0
 50
0.0
 51
90.0
  0
ARC
  5
5DE
  8
002
 62
     3
 10
291.392391
 20
76.005733
 30
0.0
 40
2.0
 50
270.0
 51
0.0
  0
LINE
  5
5DF
  8
002
 62
     3
 10
270.392391
 20
124.005733
 30
0.0
 11
270.392391
 21
126.005733
 31
0.0
  0
LINE
  5
5E0
  8
002
 62
    40
 10
269.309891
 20
126.005733
 30
0.0
 11
269.309891
 21
124.005733
 31
0.0
  0
LINE
  5
5E1
  8
002
 62
     3
 10
270.392391
 20
126.005733
 30
0.0
 11
196.392391
 21
126.005733
 31
0.0
  0
LINE
  5
5E2
  8
002
 62
     3
 10
266.892391
 20
66.005733
 30
0.0
 11
196.392391
 21
66.005733
 31
0.0
  0
LINE
  5
5E3
  8
002
 62
     3
 10
269.678191
 20
80.123133
 30
0.0
 11
269.678191
 21
82.177133
 31
0.0
  0
CIRCLE
  5
5E4
  8
002
 62
     3
 10
267.392391
 20
82.177133
 30
0.0
 40
1.0
  0
ARC
  5
5E5
  8
002
 62
     3
 10
267.392391
 20
82.177133
 30
0.0
 40
2.285799999999995
 50
0.0
 51
134.849339
  0
LINE
  5
5E6
  8
002
 62
     3
 10
273.106691
 20
82.177133
 30
0.0
 11
273.106691
 21
80.123133
 31
0.0
  0
ARC
  5
5E7
  8
002
 62
     3
 10
275.392391
 20
82.177133
 30
0.0
 40
2.285730572486588
 50
45.150661
 51
180.0
  0
ARC
  5
5E8
  8
002
 62
     3
 10
278.616391
 20
85.418133
 30
0.0
 40
2.285730572486588
 50
225.150661
 51
306.868895
  0
CIRCLE
  5
5E9
  8
002
 62
     3
 10
275.392391
 20
82.177133
 30
0.0
 40
1.0
  0
ARC
  5
5EA
  8
002
 62
     3
 10
264.168491
 20
85.418133
 30
0.0
 40
2.28572000035006
 50
233.131105
 51
314.847561
  0
ARC
  5
5EB
  8
002
 62
     3
 10
271.392391
 20
95.050833
 30
0.0
 40
14.32628000738505
 50
306.868058
 51
233.132262
  0
LINE
  5
5EC
  8
002
 62
     3
 10
273.642391
 20
100.505733
 30
0.0
 11
269.142391
 21
100.505733
 31
0.0
  0
LINE
  5
5ED
  8
002
 62
     3
 10
269.142391
 20
100.505733
 30
0.0
 11
268.892391
 21
100.755733
 31
0.0
  0
LINE
  5
5EE
  8
002
 62
     3
 10
268.892391
 20
100.755733
 30
0.0
 11
268.892391
 21
105.255733
 31
0.0
  0
LINE
  5
5EF
  8
002
 62
     3
 10
268.892391
 20
105.255733
 30
0.0
 11
269.142391
 21
105.505733
 31
0.0
  0
LINE
  5
5F0
  8
002
 62
     3
 10
269.142391
 20
105.505733
 30
0.0
 11
273.642391
 21
105.505733
 31
0.0
  0
LINE
  5
5F1
  8
002
 62
     3
 10
273.642391
 20
105.505733
 30
0.0
 11
273.892391
 21
105.255733
 31
0.0
  0
LINE
  5
5F2
  8
002
 62
     3
 10
273.892391
 20
105.255733
 30
0.0
 11
273.892391
 21
100.755733
 31
0.0
  0
LINE
  5
5F3
  8
002
 62
     3
 10
273.892391
 20
100.755733
 30
0.0
 11
273.642391
 21
100.505733
 31
0.0
  0
ARC
  5
5F4
  8
002
 62
     3
 10
273.692391
 20
100.705733
 30
0.0
 40
0.1999999999999886
 50
270.0
 51
0.0
  0
ARC
  5
5F5
  8
002
 62
     3
 10
271.392391
 20
96.005733
 30
0.0
 40
7.499936066394191
 50
109.471393
 51
70.528607
  0
ARC
  5
5F6
  8
002
 62
     3
 10
269.092391
 20
100.705733
 30
0.0
 40
0.2000000000000455
 50
180.0
 51
270.0
  0
CIRCLE
  5
5F7
  8
002
 62
     3
 10
271.392391
 20
96.005733
 30
0.0
 40
16.0
  0
LINE
  5
5F8
  8
002
  6
CENTER
 62
    40
 10
204.392391
 20
61.593533
 30
0.0
 11
204.392391
 21
130.900433
 31
0.0
  0
LINE
  5
5F9
  8
002
  6
CENTER
 62
    40
 10
299.392491
 20
61.593533
 30
0.0
 11
299.392491
 21
130.900433
 31
0.0
  0
LINE
  5
5FA
  8
002
  6
CENTER
 62
    40
 10
271.392391
 20
126.005733
 30
0.0
 11
271.392391
 21
64.554279
 31
0.0
  0
LINE
  5
5FB
  8
002
 62
     3
 10
451.368513
 20
66.005733
 30
0.0
 11
451.368513
 21
126.005733
 31
0.0
  0
LINE
  5
5FC
  8
002
 62
     3
 10
467.368513
 20
126.005733
 30
0.0
 11
467.368513
 21
66.005733
 31
0.0
  0
LINE
  5
5FD
  8
002
 62
     3
 10
381.368513
 20
66.005733
 30
0.0
 11
381.368513
 21
126.005733
 31
0.0
  0
LINE
  5
5FE
  8
002
 62
     3
 10
397.368513
 20
126.005733
 30
0.0
 11
397.368513
 21
66.005733
 31
0.0
  0
POLYLINE
  5
5FF
  8
002
 62
     3
 66
     1
 10
0.0
 20
0.0
 30
0.0
  0
VERTEX
  5
601
  8
002
 62
     3
 10
451.368513
 20
119.044367
 30
0.0
  0
VERTEX
  5
602
  8
002
 62
     3
 10
451.347098
 20
118.86677
 30
0.0
  0
VERTEX
  5
603
  8
002
 62
     3
 10
451.310521
 20
118.692501
 30
0.0
  0
VERTEX
  5
604
  8
002
 62
     3
 10
451.237754
 20
118.507406
 30
0.0
  0
VERTEX
  5
605
  8
002
 62
     3
 10
451.13146
 20
118.338915
 30
0.0
  0
VERTEX
  5
606
  8
002
 62
     3
 10
451.056524
 20
118.252822
 30
0.0
  0
VERTEX
  5
607
  8
002
 62
     3
 10
450.971526
 20
118.176597
 30
0.0
  0
VERTEX
  5
608
  8
002
 62
     3
 10
450.870397
 20
118.108703
 30
0.0
  0
VERTEX
  5
609
  8
002
 62
     3
 10
450.760229
 20
118.058501
 30
0.0
  0
VERTEX
  5
60A
  8
002
 62
     3
 10
450.611941
 20
118.023138
 30
0.0
  0
VERTEX
  5
60B
  8
002
 62
     3
 10
450.458521
 20
118.005733
 30
0.0
  0
SEQEND
  5
600
  8
002
 62
     3
  0
POLYLINE
  5
60C
  8
002
 62
     3
 66
     1
 10
0.0
 20
0.0
 30
0.0
  0
VERTEX
  5
60E
  8
002
 62
     3
 10
468.278504
 20
118.005733
 30
0.0
  0
VERTEX
  5
60F
  8
002
 62
     3
 10
468.156516
 20
118.01666
 30
0.0
  0
VERTEX
  5
610
  8
002
 62
     3
 10
468.036993
 20
118.038693
 30
0.0
  0
VERTEX
  5
611
  8
002
 62
     3
 10
467.929044
 20
118.077437
 30
0.0
  0
VERTEX
  5
612
  8
002
 62
     3
 10
467.827802
 20
118.132696
 30
0.0
  0
VERTEX
  5
613
  8
002
 62
     3
 10
467.712436
 20
118.221863
 30
0.0
  0
VERTEX
  5
614
  8
002
 62
     3
 10
467.613528
 20
118.328642
 30
0.0
  0
VERTEX
  5
615
  8
002
 62
     3
 10
467.531622
 20
118.450532
 30
0.0
  0
VERTEX
  5
616
  8
002
 62
     3
 10
467.466491
 20
118.582535
 30
0.0
  0
VERTEX
  5
617
  8
002
 62
     3
 10
467.423727
 20
118.698922
 30
0.0
  0
VERTEX
  5
618
  8
002
 62
     3
 10
467.393701
 20
118.818764
 30
0.0
  0
VERTEX
  5
619
  8
002
 62
     3
 10
467.377943
 20
118.931028
 30
0.0
  0
VERTEX
  5
61A
  8
002
 62
     3
 10
467.368513
 20
119.044367
 30
0.0
  0
SEQEND
  5
60D
  8
002
 62
     3
  0
POLYLINE
  5
61B
  8
002
 62
     3
 66
     1
 10
0.0
 20
0.0
 30
0.0
  0
VERTEX
  5
61D
  8
002
 62
     3
 10
467.368513
 20
72.967099
 30
0.0
  0
VERTEX
  5
61E
  8
002
 62
     3
 10
467.389928
 20
73.144696
 30
0.0
  0
VERTEX
  5
61F
  8
002
 62
     3
 10
467.426505
 20
73.318965
 30
0.0
  0
VERTEX
  5
620
  8
002
 62
     3
 10
467.499271
 20
73.504061
 30
0.0
  0
VERTEX
  5
621
  8
002
 62
     3
 10
467.605565
 20
73.672551
 30
0.0
  0
VERTEX
  5
622
  8
002
 62
     3
 10
467.680501
 20
73.758645
 30
0.0
  0
VERTEX
  5
623
  8
002
 62
     3
 10
467.765499
 20
73.834869
 30
0.0
  0
VERTEX
  5
624
  8
002
 62
     3
 10
467.866628
 20
73.902763
 30
0.0
  0
VERTEX
  5
625
  8
002
 62
     3
 10
467.976796
 20
73.952965
 30
0.0
  0
VERTEX
  5
626
  8
002
 62
     3
 10
468.125084
 20
73.988329
 30
0.0
  0
VERTEX
  5
627
  8
002
 62
     3
 10
468.278504
 20
74.005733
 30
0.0
  0
SEQEND
  5
61C
  8
002
 62
     3
  0
POLYLINE
  5
628
  8
002
 62
     3
 66
     1
 10
0.0
 20
0.0
 30
0.0
  0
VERTEX
  5
62A
  8
002
 62
     3
 10
450.458521
 20
74.005733
 30
0.0
  0
VERTEX
  5
62B
  8
002
 62
     3
 10
450.58051
 20
73.994806
 30
0.0
  0
VERTEX
  5
62C
  8
002
 62
     3
 10
450.700032
 20
73.972773
 30
0.0
  0
VERTEX
  5
62D
  8
002
 62
     3
 10
450.807981
 20
73.934029
 30
0.0
  0
VERTEX
  5
62E
  8
002
 62
     3
 10
450.909223
 20
73.87877
 30
0.0
  0
VERTEX
  5
62F
  8
002
 62
     3
 10
451.024589
 20
73.789603
 30
0.0
  0
VERTEX
  5
630
  8
002
 62
     3
 10
451.123498
 20
73.682824
 30
0.0
  0
VERTEX
  5
631
  8
002
 62
     3
 10
451.205404
 20
73.560934
 30
0.0
  0
VERTEX
  5
632
  8
002
 62
     3
 10
451.270535
 20
73.428931
 30
0.0
  0
VERTEX
  5
633
  8
002
 62
     3
 10
451.313298
 20
73.312544
 30
0.0
  0
VERTEX
  5
634
  8
002
 62
     3
 10
451.343324
 20
73.192702
 30
0.0
  0
VERTEX
  5
635
  8
002
 62
     3
 10
451.359082
 20
73.080439
 30
0.0
  0
VERTEX
  5
636
  8
002
 62
     3
 10
451.368513
 20
72.967099
 30
0.0
  0
SEQEND
  5
629
  8
002
 62
     3
  0
POLYLINE
  5
637
  8
002
 62
     3
 66
     1
 10
0.0
 20
0.0
 30
0.0
  0
VERTEX
  5
639
  8
002
 62
     3
 10
397.368513
 20
72.967099
 30
0.0
  0
VERTEX
  5
63A
  8
002
 62
     3
 10
397.389928
 20
73.144696
 30
0.0
  0
VERTEX
  5
63B
  8
002
 62
     3
 10
397.426505
 20
73.318965
 30
0.0
  0
VERTEX
  5
63C
  8
002
 62
     3
 10
397.499271
 20
73.504061
 30
0.0
  0
VERTEX
  5
63D
  8
002
 62
     3
 10
397.605565
 20
73.672551
 30
0.0
  0
VERTEX
  5
63E
  8
002
 62
     3
 10
397.680501
 20
73.758645
 30
0.0
  0
VERTEX
  5
63F
  8
002
 62
     3
 10
397.765499
 20
73.834869
 30
0.0
  0
VERTEX
  5
640
  8
002
 62
     3
 10
397.866628
 20
73.902763
 30
0.0
  0
VERTEX
  5
641
  8
002
 62
     3
 10
397.976796
 20
73.952965
 30
0.0
  0
VERTEX
  5
642
  8
002
 62
     3
 10
398.125084
 20
73.988329
 30
0.0
  0
VERTEX
  5
643
  8
002
 62
     3
 10
398.278504
 20
74.005733
 30
0.0
  0
SEQEND
  5
638
  8
002
 62
     3
  0
POLYLINE
  5
644
  8
002
 62
     3
 66
     1
 10
0.0
 20
0.0
 30
0.0
  0
VERTEX
  5
646
  8
002
 62
     3
 10
380.458521
 20
74.005733
 30
0.0
  0
VERTEX
  5
647
  8
002
 62
     3
 10
380.58051
 20
73.994806
 30
0.0
  0
VERTEX
  5
648
  8
002
 62
     3
 10
380.700032
 20
73.972773
 30
0.0
  0
VERTEX
  5
649
  8
002
 62
     3
 10
380.807981
 20
73.934029
 30
0.0
  0
VERTEX
  5
64A
  8
002
 62
     3
 10
380.909223
 20
73.87877
 30
0.0
  0
VERTEX
  5
64B
  8
002
 62
     3
 10
381.024589
 20
73.789603
 30
0.0
  0
VERTEX
  5
64C
  8
002
 62
     3
 10
381.123498
 20
73.682824
 30
0.0
  0
VERTEX
  5
64D
  8
002
 62
     3
 10
381.205404
 20
73.560934
 30
0.0
  0
VERTEX
  5
64E
  8
002
 62
     3
 10
381.270535
 20
73.428931
 30
0.0
  0
VERTEX
  5
64F
  8
002
 62
     3
 10
381.313298
 20
73.312544
 30
0.0
  0
VERTEX
  5
650
  8
002
 62
     3
 10
381.343324
 20
73.192702
 30
0.0
  0
VERTEX
  5
651
  8
002
 62
     3
 10
381.359082
 20
73.080439
 30
0.0
  0
VERTEX
  5
652
  8
002
 62
     3
 10
381.368513
 20
72.967099
 30
0.0
  0
SEQEND
  5
645
  8
002
 62
     3
  0
POLYLINE
  5
653
  8
002
 62
     3
 66
     1
 10
0.0
 20
0.0
 30
0.0
  0
VERTEX
  5
655
  8
002
 62
     3
 10
381.368513
 20
119.044367
 30
0.0
  0
VERTEX
  5
656
  8
002
 62
     3
 10
381.347098
 20
118.86677
 30
0.0
  0
VERTEX
  5
657
  8
002
 62
     3
 10
381.310521
 20
118.692501
 30
0.0
  0
VERTEX
  5
658
  8
002
 62
     3
 10
381.237754
 20
118.507406
 30
0.0
  0
VERTEX
  5
659
  8
002
 62
     3
 10
381.13146
 20
118.338915
 30
0.0
  0
VERTEX
  5
65A
  8
002
 62
     3
 10
381.056524
 20
118.252822
 30
0.0
  0
VERTEX
  5
65B
  8
002
 62
     3
 10
380.971526
 20
118.176597
 30
0.0
  0
VERTEX
  5
65C
  8
002
 62
     3
 10
380.870397
 20
118.108703
 30
0.0
  0
VERTEX
  5
65D
  8
002
 62
     3
 10
380.760229
 20
118.058501
 30
0.0
  0
VERTEX
  5
65E
  8
002
 62
     3
 10
380.611941
 20
118.023138
 30
0.0
  0
VERTEX
  5
65F
  8
002
 62
     3
 10
380.458521
 20
118.005733
 30
0.0
  0
SEQEND
  5
654
  8
002
 62
     3
  0
POLYLINE
  5
660
  8
002
 62
     3
 66
     1
 10
0.0
 20
0.0
 30
0.0
  0
VERTEX
  5
662
  8
002
 62
     3
 10
398.278504
 20
118.005733
 30
0.0
  0
VERTEX
  5
663
  8
002
 62
     3
 10
398.156516
 20
118.01666
 30
0.0
  0
VERTEX
  5
664
  8
002
 62
     3
 10
398.036993
 20
118.038693
 30
0.0
  0
VERTEX
  5
665
  8
002
 62
     3
 10
397.929044
 20
118.077437
 30
0.0
  0
VERTEX
  5
666
  8
002
 62
     3
 10
397.827802
 20
118.132696
 30
0.0
  0
VERTEX
  5
667
  8
002
 62
     3
 10
397.712436
 20
118.221863
 30
0.0
  0
VERTEX
  5
668
  8
002
 62
     3
 10
397.613528
 20
118.328642
 30
0.0
  0
VERTEX
  5
669
  8
002
 62
     3
 10
397.531622
 20
118.450532
 30
0.0
  0
VERTEX
  5
66A
  8
002
 62
     3
 10
397.466491
 20
118.582535
 30
0.0
  0
VERTEX
  5
66B
  8
002
 62
     3
 10
397.423727
 20
118.698922
 30
0.0
  0
VERTEX
  5
66C
  8
002
 62
     3
 10
397.393701
 20
118.818764
 30
0.0
  0
VERTEX
  5
66D
  8
002
 62
     3
 10
397.377943
 20
118.931028
 30
0.0
  0
VERTEX
  5
66E
  8
002
 62
     3
 10
397.368513
 20
119.044367
 30
0.0
  0
SEQEND
  5
661
  8
002
 62
     3
  0
LINE
  5
66F
  8
002
 62
     3
 10
471.368513
 20
74.005733
 30
0.0
 11
471.368513
 21
118.005733
 31
0.0
  0
LINE
  5
670
  8
002
 62
     3
 10
377.368513
 20
74.005733
 30
0.0
 11
377.368513
 21
118.005733
 31
0.0
  0
LINE
  5
671
  8
002
 62
     3
 10
450.458521
 20
74.005733
 30
0.0
 11
398.278504
 21
74.005733
 31
0.0
  0
LINE
  5
672
  8
002
 62
     3
 10
450.458521
 20
118.005733
 30
0.0
 11
398.278504
 21
118.005733
 31
0.0
  0
LINE
  5
673
  8
002
 62
     3
 10
451.368513
 20
124.005733
 30
0.0
 11
397.368513
 21
124.005733
 31
0.0
  0
LINE
  5
674
  8
002
 62
     3
 10
467.368513
 20
66.005733
 30
0.0
 11
381.368513
 21
66.005733
 31
0.0
  0
ARC
  5
675
  8
002
 62
     3
 10
449.368513
 20
126.005733
 30
0.0
 40
2.0
 50
270.0
 51
360.0
  0
ARC
  5
676
  8
002
 62
     3
 10
399.368513
 20
126.005733
 30
0.0
 40
2.0
 50
180.0
 51
270.0
  0
LINE
  5
677
  8
002
 62
     3
 10
377.368513
 20
118.005733
 30
0.0
 11
380.458521
 21
118.005733
 31
0.0
  0
LINE
  5
678
  8
002
 62
     3
 10
377.368513
 20
74.005733
 30
0.0
 11
380.458521
 21
74.005733
 31
0.0
  0
LINE
  5
679
  8
002
 62
     3
 10
471.368513
 20
74.005733
 30
0.0
 11
468.278504
 21
74.005733
 31
0.0
  0
LINE
  5
67A
  8
002
 62
     3
 10
471.368513
 20
118.005733
 30
0.0
 11
468.278504
 21
118.005733
 31
0.0
  0
LINE
  5
67B
  8
002
 62
     3
 10
467.368513
 20
126.005733
 30
0.0
 11
381.368513
 21
126.005733
 31
0.0
  0
LINE
  5
67C
  8
002
 62
     3
 10
377.368513
 20
88.505733
 30
0.0
 11
350.368473
 21
88.505733
 31
0.0
  0
LINE
  5
67D
  8
002
 62
     3
 10
350.368473
 20
88.505733
 30
0.0
 11
349.368473
 21
89.505733
 31
0.0
  0
LINE
  5
67E
  8
002
 62
     3
 10
349.368473
 20
89.505733
 30
0.0
 11
349.368473
 21
105.505733
 31
0.0
  0
LINE
  5
67F
  8
002
 62
     3
 10
349.368473
 20
105.505733
 30
0.0
 11
371.368513
 21
105.505733
 31
0.0
  0
LINE
  5
680
  8
002
 62
     3
 10
371.368513
 20
105.505733
 30
0.0
 11
371.368513
 21
103.076833
 31
0.0
  0
LINE
  5
681
  8
002
 62
     3
 10
371.368513
 20
103.076833
 30
0.0
 11
373.868513
 21
103.505733
 31
0.0
  0
LINE
  5
682
  8
002
 62
     3
 10
373.868513
 20
103.505733
 30
0.0
 11
377.368513
 21
103.505733
 31
0.0
  0
LINE
  5
683
  8
002
 62
     3
 10
471.368513
 20
103.505733
 30
0.0
 11
474.868513
 21
103.505733
 31
0.0
  0
LINE
  5
684
  8
002
 62
     3
 10
474.868513
 20
103.505733
 30
0.0
 11
477.368513
 21
103.076833
 31
0.0
  0
LINE
  5
685
  8
002
 62
     3
 10
477.368513
 20
103.076833
 30
0.0
 11
477.368513
 21
105.505733
 31
0.0
  0
LINE
  5
686
  8
002
 62
     3
 10
477.368513
 20
105.505733
 30
0.0
 11
499.368513
 21
105.505733
 31
0.0
  0
LINE
  5
687
  8
002
 62
     3
 10
499.368513
 20
105.505733
 30
0.0
 11
499.368513
 21
89.505733
 31
0.0
  0
LINE
  5
688
  8
002
 62
     3
 10
499.368513
 20
89.505733
 30
0.0
 11
498.368513
 21
88.505733
 31
0.0
  0
LINE
  5
689
  8
002
 62
     3
 10
498.368513
 20
88.505733
 30
0.0
 11
471.368513
 21
88.505733
 31
0.0
  0
LINE
  5
68A
  8
002
 62
     3
 10
371.368513
 20
103.076833
 30
0.0
 11
349.939543
 21
103.076833
 31
0.0
  0
LINE
  5
68B
  8
002
 62
     3
 10
349.939543
 20
103.076833
 30
0.0
 11
349.368473
 21
102.505733
 31
0.0
  0
LINE
  5
68C
  8
002
 62
     3
 10
350.368473
 20
103.076833
 30
0.0
 11
350.368473
 21
88.505733
 31
0.0
  0
LINE
  5
68D
  8
002
 62
     3
 10
477.368513
 20
103.076833
 30
0.0
 11
498.797413
 21
103.076833
 31
0.0
  0
LINE
  5
68E
  8
002
 62
     3
 10
498.797413
 20
103.076833
 30
0.0
 11
499.368513
 21
102.505733
 31
0.0
  0
LINE
  5
68F
  8
002
 62
     3
 10
498.368513
 20
103.076833
 30
0.0
 11
498.368513
 21
88.505733
 31
0.0
  0
LINE
  5
690
  8
002
 62
     3
 10
716.496791
 20
66.005733
 30
0.0
 11
716.496791
 21
62.005733
 31
0.0
  0
LINE
  5
691
  8
002
 62
     3
 10
645.996791
 20
126.005733
 30
0.0
 11
645.996791
 21
66.005733
 31
0.0
  0
LINE
  5
692
  8
002
 62
     3
 10
756.996791
 20
126.005733
 30
0.0
 11
756.996791
 21
66.005733
 31
0.0
  0
LINE
  5
693
  8
002
 62
     3
 10
661.996791
 20
126.005733
 30
0.0
 11
661.996791
 21
66.005733
 31
0.0
  0
LINE
  5
694
  8
002
 62
     3
 10
756.996791
 20
126.005733
 30
0.0
 11
740.996791
 21
126.005733
 31
0.0
  0
LINE
  5
695
  8
002
 62
     3
 10
740.996791
 20
66.005733
 30
0.0
 11
756.996791
 21
66.005733
 31
0.0
  0
LINE
  5
696
  8
002
 62
     3
 10
724.996791
 20
120.005733
 30
0.0
 11
724.996791
 21
124.005733
 31
0.0
  0
LINE
  5
697
  8
002
 62
     3
 10
740.996791
 20
72.005733
 30
0.0
 11
740.996791
 21
66.005733
 31
0.0
  0
LINE
  5
698
  8
002
 62
     3
 10
740.996791
 20
120.005733
 30
0.0
 11
740.996791
 21
126.005733
 31
0.0
  0
ARC
  5
699
  8
002
 62
     3
 10
718.496791
 20
72.005733
 30
0.0
 40
2.0
 50
90.0
 51
180.0
  0
LINE
  5
69A
  8
002
 62
     3
 10
716.496791
 20
72.005733
 30
0.0
 11
716.496791
 21
66.005733
 31
0.0
  0
LINE
  5
69B
  8
002
 62
     3
 10
663.996791
 20
124.005733
 30
0.0
 11
724.996791
 21
124.005733
 31
0.0
  0
ARC
  5
69C
  8
002
 62
     3
 10
663.996791
 20
126.005733
 30
0.0
 40
2.0
 50
180.0
 51
270.0
  0
ARC
  5
69D
  8
002
 62
     3
 10
738.996791
 20
120.005733
 30
0.0
 40
2.0
 50
270.0
 51
0.0
  0
ARC
  5
69E
  8
002
 62
     3
 10
726.996791
 20
120.005733
 30
0.0
 40
2.0
 50
180.0
 51
270.0
  0
ARC
  5
69F
  8
002
 62
     3
 10
738.996791
 20
72.005733
 30
0.0
 40
2.0
 50
0.0
 51
90.0
  0
LINE
  5
6A0
  8
002
 62
     3
 10
698.996791
 20
116.005733
 30
0.0
 11
698.996791
 21
76.005733
 31
0.0
  0
LINE
  5
6A1
  8
002
 62
     3
 10
740.996791
 20
118.005733
 30
0.0
 11
700.996791
 21
118.005733
 31
0.0
  0
LINE
  5
6A2
  8
002
 62
     3
 10
742.996791
 20
76.005733
 30
0.0
 11
742.996791
 21
116.005733
 31
0.0
  0
LINE
  5
6A3
  8
002
 62
     3
 10
740.996791
 20
74.005733
 30
0.0
 11
700.996791
 21
74.005733
 31
0.0
  0
ARC
  5
6A4
  8
002
 62
     3
 10
700.996791
 20
76.005733
 30
0.0
 40
2.0
 50
180.0
 51
270.0
  0
ARC
  5
6A5
  8
002
 62
     3
 10
700.996791
 20
116.005733
 30
0.0
 40
2.0
 50
90.0
 51
180.0
  0
ARC
  5
6A6
  8
002
 62
     3
 10
740.996791
 20
116.005733
 30
0.0
 40
2.0
 50
0.0
 51
90.0
  0
ARC
  5
6A7
  8
002
 62
     3
 10
740.996791
 20
76.005733
 30
0.0
 40
2.0
 50
270.0
 51
0.0
  0
LINE
  5
6A8
  8
002
 62
     3
 10
719.996791
 20
124.005733
 30
0.0
 11
719.996791
 21
126.005733
 31
0.0
  0
LINE
  5
6A9
  8
002
 62
    40
 10
718.914291
 20
126.005733
 30
0.0
 11
718.914291
 21
124.005733
 31
0.0
  0
LINE
  5
6AA
  8
002
 62
     3
 10
719.996791
 20
126.005733
 30
0.0
 11
645.996791
 21
126.005733
 31
0.0
  0
LINE
  5
6AB
  8
002
 62
     3
 10
716.496791
 20
66.005733
 30
0.0
 11
645.996791
 21
66.005733
 31
0.0
  0
LINE
  5
6AC
  8
002
 62
     3
 10
719.282591
 20
80.123133
 30
0.0
 11
719.282591
 21
82.177133
 31
0.0
  0
CIRCLE
  5
6AD
  8
002
 62
     3
 10
716.996791
 20
82.177133
 30
0.0
 40
1.0
  0
ARC
  5
6AE
  8
002
 62
     3
 10
716.996791
 20
82.177133
 30
0.0
 40
2.285799999999995
 50
0.0
 51
134.849339
  0
LINE
  5
6AF
  8
002
 62
     3
 10
722.711091
 20
82.177133
 30
0.0
 11
722.711091
 21
80.123133
 31
0.0
  0
ARC
  5
6B0
  8
002
 62
     3
 10
724.996791
 20
82.177133
 30
0.0
 40
2.285730572486588
 50
45.150661
 51
180.0
  0
ARC
  5
6B1
  8
002
 62
     3
 10
728.220791
 20
85.418133
 30
0.0
 40
2.285730572486588
 50
225.150661
 51
306.868895
  0
CIRCLE
  5
6B2
  8
002
 62
     3
 10
724.996791
 20
82.177133
 30
0.0
 40
1.0
  0
ARC
  5
6B3
  8
002
 62
     3
 10
713.772891
 20
85.418133
 30
0.0
 40
2.28572000035006
 50
233.131105
 51
314.847561
  0
ARC
  5
6B4
  8
002
 62
     3
 10
720.996791
 20
95.050833
 30
0.0
 40
14.32628000738505
 50
306.868058
 51
233.132262
  0
LINE
  5
6B5
  8
002
 62
     3
 10
723.246791
 20
100.505733
 30
0.0
 11
718.746791
 21
100.505733
 31
0.0
  0
LINE
  5
6B6
  8
002
 62
     3
 10
718.746791
 20
100.505733
 30
0.0
 11
718.496791
 21
100.755733
 31
0.0
  0
LINE
  5
6B7
  8
002
 62
     3
 10
718.496791
 20
100.755733
 30
0.0
 11
718.496791
 21
105.255733
 31
0.0
  0
LINE
  5
6B8
  8
002
 62
     3
 10
718.496791
 20
105.255733
 30
0.0
 11
718.746791
 21
105.505733
 31
0.0
  0
LINE
  5
6B9
  8
002
 62
     3
 10
718.746791
 20
105.505733
 30
0.0
 11
723.246791
 21
105.505733
 31
0.0
  0
LINE
  5
6BA
  8
002
 62
     3
 10
723.246791
 20
105.505733
 30
0.0
 11
723.496791
 21
105.255733
 31
0.0
  0
LINE
  5
6BB
  8
002
 62
     3
 10
723.496791
 20
105.255733
 30
0.0
 11
723.496791
 21
100.755733
 31
0.0
  0
LINE
  5
6BC
  8
002
 62
     3
 10
723.496791
 20
100.755733
 30
0.0
 11
723.246791
 21
100.505733
 31
0.0
  0
ARC
  5
6BD
  8
002
 62
     3
 10
723.296791
 20
100.705733
 30
0.0
 40
0.1999999999999886
 50
270.0
 51
0.0
  0
ARC
  5
6BE
  8
002
 62
     3
 10
720.996791
 20
96.005733
 30
0.0
 40
7.499936066394191
 50
109.471393
 51
70.528607
  0
ARC
  5
6BF
  8
002
 62
     3
 10
718.696791
 20
100.705733
 30
0.0
 40
0.2000000000000455
 50
180.0
 51
270.0
  0
CIRCLE
  5
6C0
  8
002
 62
     3
 10
720.996791
 20
96.005733
 30
0.0
 40
16.0
  0
LINE
  5
6C1
  8
002
  6
CENTER
 62
    40
 10
653.996791
 20
61.593533
 30
0.0
 11
653.996791
 21
130.900433
 31
0.0
  0
LINE
  5
6C2
  8
002
  6
CENTER
 62
    40
 10
748.996891
 20
61.593533
 30
0.0
 11
748.996891
 21
130.900433
 31
0.0
  0
LINE
  5
6C3
  8
002
  6
CENTER
 62
    40
 10
720.996791
 20
126.005733
 30
0.0
 11
720.996791
 21
64.554279
 31
0.0
  0
LINE
  5
6C4
  8
002
 62
     3
 10
1173.273781
 20
476.863845
 30
0.0
 11
1173.273781
 21
475.863845
 31
0.0
  0
LINE
  5
6C5
  8
002
 62
     3
 10
1173.273781
 20
568.863845
 30
0.0
 11
1173.273781
 21
569.863845
 31
0.0
  0
LINE
  5
6C6
  8
002
 62
     3
 10
1187.773781
 20
448.863845
 30
0.0
 11
1187.773781
 21
475.863845
 31
0.0
  0
LINE
  5
6C7
  8
002
 62
     3
 10
1202.773781
 20
475.863845
 30
0.0
 11
1202.773781
 21
448.863845
 31
0.0
  0
LINE
  5
6C8
  8
002
 62
     3
 10
1202.773781
 20
596.863845
 30
0.0
 11
1202.773781
 21
569.863845
 31
0.0
  0
LINE
  5
6C9
  8
002
 62
     3
 10
1187.773781
 20
569.863845
 30
0.0
 11
1187.773781
 21
596.863845
 31
0.0
  0
LINE
  5
6CA
  8
002
  6
CENTER
 62
    40
 10
1163.273781
 20
477.390338
 30
0.0
 11
1163.273781
 21
568.838545
 31
0.0
  0
CIRCLE
  5
6CB
  8
002
 62
     3
 10
1223.273781
 20
557.863845
 30
0.0
 40
8.0
  0
CIRCLE
  5
6CC
  8
002
 62
     3
 10
1223.273781
 20
487.863845
 30
0.0
 40
8.0
  0
LINE
  5
6CD
  8
002
 62
     3
 10
1217.273781
 20
475.863845
 30
0.0
 11
1173.273781
 21
475.863845
 31
0.0
  0
LINE
  5
6CE
  8
002
 62
     3
 10
1217.273781
 20
569.863845
 30
0.0
 11
1173.273781
 21
569.863845
 31
0.0
  0
CIRCLE
  5
6CF
  8
002
 62
     3
 10
1128.273781
 20
487.863845
 30
0.0
 40
8.0
  0
CIRCLE
  5
6D0
  8
002
 62
     3
 10
1128.273781
 20
557.863845
 30
0.0
 40
8.0
  0
LINE
  5
6D1
  8
002
 62
     3
 10
1221.273781
 20
549.863845
 30
0.0
 11
1223.273781
 21
549.863845
 31
0.0
  0
LINE
  5
6D2
  8
002
 62
     3
 10
1221.273781
 20
565.863845
 30
0.0
 11
1223.273781
 21
565.863845
 31
0.0
  0
LINE
  5
6D3
  8
002
 62
     3
 10
1221.273781
 20
479.863845
 30
0.0
 11
1223.273781
 21
479.863845
 31
0.0
  0
LINE
  5
6D4
  8
002
 62
     3
 10
1221.273781
 20
495.863845
 30
0.0
 11
1223.273781
 21
495.863845
 31
0.0
  0
LINE
  5
6D5
  8
002
 62
     3
 10
1217.273781
 20
499.863845
 30
0.0
 11
1217.273781
 21
545.863845
 31
0.0
  0
LINE
  5
6D6
  8
002
  6
CENTER
 62
    40
 10
1121.543643
 20
522.863845
 30
0.0
 11
1224.087831
 21
522.863845
 31
0.0
  0
ARC
  5
6D7
  8
002
 62
     3
 10
1163.273781
 20
476.863845
 30
0.0
 40
10.0
 50
360.0
 51
90.0
  0
ARC
  5
6D8
  8
002
 62
     3
 10
1163.273781
 20
568.863845
 30
0.0
 40
10.0
 50
270.0
 51
0.0
  0
ARC
  5
6D9
  8
002
 62
     3
 10
1163.273781
 20
522.863845
 30
0.0
 40
36.00000000000006
 50
257.693402
 51
270.0
  0
ARC
  5
6DA
  8
002
 62
     3
 10
1103.675498
 20
509.862128
 30
0.0
 40
25.0
 50
318.193684
 51
12.306598
  0
ARC
  5
6DB
  8
002
 62
     3
 10
1150.272065
 20
463.265562
 30
0.0
 40
25.0
 50
77.693402
 51
131.806316
  0
ARC
  5
6DC
  8
002
 62
     3
 10
1103.675498
 20
535.865562
 30
0.0
 40
25.0
 50
347.693402
 51
41.806316
  0
ARC
  5
6DD
  8
002
 62
     3
 10
1150.272065
 20
582.462128
 30
0.0
 40
25.0
 50
228.193684
 51
282.306598
  0
ARC
  5
6DE
  8
002
 62
     3
 10
1163.273781
 20
522.863845
 30
0.0
 40
36.00000000000006
 50
167.693402
 51
192.306598
  0
ARC
  5
6DF
  8
002
 62
     3
 10
1163.273781
 20
522.863845
 30
0.0
 40
36.00000000000006
 50
90.0
 51
102.306598
  0
ARC
  5
6E0
  8
002
 62
     3
 10
1221.273781
 20
475.863845
 30
0.0
 40
4.0
 50
90.0
 51
180.0
  0
ARC
  5
6E1
  8
002
 62
     3
 10
1221.273781
 20
569.863845
 30
0.0
 40
4.0
 50
180.0
 51
270.0
  0
ARC
  5
6E2
  8
002
 62
     3
 10
1221.273781
 20
545.863845
 30
0.0
 40
4.0
 50
90.0
 51
180.0
  0
ARC
  5
6E3
  8
002
 62
     3
 10
1221.273781
 20
499.863845
 30
0.0
 40
4.0
 50
180.0
 51
270.0
  0
LINE
  5
6E4
  8
002
  6
CENTER
 62
    40
 10
1223.273781
 20
497.863845
 30
0.0
 11
1223.273781
 21
477.863845
 31
0.0
  0
LINE
  5
6E5
  8
002
  6
CENTER
 62
    40
 10
1233.273781
 20
487.863845
 30
0.0
 11
1213.273781
 21
487.863845
 31
0.0
  0
LINE
  5
6E6
  8
002
  6
CENTER
 62
    40
 10
1223.273781
 20
567.863845
 30
0.0
 11
1223.273781
 21
547.863845
 31
0.0
  0
LINE
  5
6E7
  8
002
  6
CENTER
 62
    40
 10
1233.273781
 20
557.863845
 30
0.0
 11
1213.273781
 21
557.863845
 31
0.0
  0
LINE
  5
6E8
  8
002
  6
CENTER
 62
    40
 10
1128.273781
 20
567.863845
 30
0.0
 11
1128.273781
 21
547.863845
 31
0.0
  0
LINE
  5
6E9
  8
002
  6
CENTER
 62
    40
 10
1138.273781
 20
557.863845
 30
0.0
 11
1118.273781
 21
557.863845
 31
0.0
  0
LINE
  5
6EA
  8
002
  6
CENTER
 62
    40
 10
1128.273781
 20
497.863845
 30
0.0
 11
1128.273781
 21
477.863845
 31
0.0
  0
LINE
  5
6EB
  8
002
  6
CENTER
 62
    40
 10
1138.273781
 20
487.863845
 30
0.0
 11
1118.273781
 21
487.863845
 31
0.0
  0
LINE
  5
6EC
  8
002
 62
     3
 10
1187.773781
 20
596.863845
 30
0.0
 11
1188.773781
 21
597.863845
 31
0.0
  0
LINE
  5
6ED
  8
002
 62
     3
 10
1188.773781
 20
597.863845
 30
0.0
 11
1201.773781
 21
597.863845
 31
0.0
  0
LINE
  5
6EE
  8
002
 62
     3
 10
1201.773781
 20
597.863845
 30
0.0
 11
1202.773781
 21
596.863845
 31
0.0
  0
LINE
  5
6EF
  8
002
 62
     3
 10
1202.773781
 20
596.863845
 30
0.0
 11
1197.773781
 21
596.863845
 31
0.0
  0
LINE
  5
6F0
  8
002
 62
     3
 10
1197.773781
 20
597.863845
 30
0.0
 11
1197.773781
 21
575.863845
 31
0.0
  0
LINE
  5
6F1
  8
002
 62
     3
 10
1197.773781
 20
575.863845
 30
0.0
 11
1192.773781
 21
575.863845
 31
0.0
  0
LINE
  5
6F2
  8
002
 62
     3
 10
1192.773781
 20
575.863845
 30
0.0
 11
1192.773781
 21
597.863845
 31
0.0
  0
LINE
  5
6F3
  8
002
 62
     3
 10
1192.773781
 20
596.863845
 30
0.0
 11
1187.773781
 21
596.863845
 31
0.0
  0
ARC
  5
6F4
  8
002
 62
     3
 10
1195.273781
 20
575.863845
 30
0.0
 40
2.5
 50
180.0
 51
0.0
  0
LINE
  5
6F5
  8
002
 62
     3
 10
1202.773781
 20
448.863845
 30
0.0
 11
1201.773781
 21
447.863845
 31
0.0
  0
LINE
  5
6F6
  8
002
 62
     3
 10
1201.773781
 20
447.863845
 30
0.0
 11
1188.773781
 21
447.863845
 31
0.0
  0
LINE
  5
6F7
  8
002
 62
     3
 10
1188.773781
 20
447.863845
 30
0.0
 11
1187.773781
 21
448.863845
 31
0.0
  0
LINE
  5
6F8
  8
002
 62
     3
 10
1192.773781
 20
469.863845
 30
0.0
 11
1197.773781
 21
469.863845
 31
0.0
  0
LINE
  5
6F9
  8
002
 62
     3
 10
1197.773781
 20
469.863845
 30
0.0
 11
1197.773781
 21
447.863845
 31
0.0
  0
LINE
  5
6FA
  8
002
 62
     3
 10
1197.773781
 20
448.863845
 30
0.0
 11
1202.773781
 21
448.863845
 31
0.0
  0
LINE
  5
6FB
  8
002
 62
     3
 10
1192.773781
 20
448.863845
 30
0.0
 11
1187.773781
 21
448.863845
 31
0.0
  0
LINE
  5
6FC
  8
002
 62
     3
 10
1192.773781
 20
447.863845
 30
0.0
 11
1192.773781
 21
469.863845
 31
0.0
  0
ARC
  5
6FD
  8
002
 62
     3
 10
1195.273781
 20
469.863845
 30
0.0
 40
2.5
 50
0.0
 51
180.0
  0
LINE
  5
6FE
  8
002
  6
CENTER
 62
    40
 10
1195.273781
 20
445.166486
 30
0.0
 11
1195.273781
 21
601.54511
 31
0.0
  0
LINE
  5
6FF
  8
001
 62
     3
 10
1206.160531
 20
522.863845
 30
0.0
 11
1204.717156
 21
520.363845
 31
0.0
  0
LINE
  5
700
  8
001
 62
     3
 10
1204.717156
 20
525.363845
 30
0.0
 11
1201.830407
 21
525.363845
 31
0.0
  0
LINE
  5
701
  8
001
 62
     3
 10
1200.387031
 20
522.863845
 30
0.0
 11
1201.830407
 21
525.363845
 31
0.0
  0
LINE
  5
702
  8
001
 62
     3
 10
1201.830407
 20
520.363845
 30
0.0
 11
1200.387031
 21
522.863845
 31
0.0
  0
LINE
  5
703
  8
001
 62
     3
 10
1204.717156
 20
520.363845
 30
0.0
 11
1201.830407
 21
520.363845
 31
0.0
  0
CIRCLE
  5
704
  8
001
 62
    40
 10
1203.273781
 20
522.863845
 30
0.0
 40
4.573499999999999
  0
CIRCLE
  5
705
  8
001
 62
     3
 10
1203.273781
 20
522.863845
 30
0.0
 40
4.863999999999999
  0
LINE
  5
706
  8
001
 62
     3
 10
1206.160036
 20
522.864702
 30
0.0
 11
1204.717156
 21
525.363845
 31
0.0
  0
LINE
  5
707
  8
002
 62
     3
 10
1190.773781
 20
302.863845
 30
0.0
 11
1190.773781
 21
306.863845
 31
0.0
  0
LINE
  5
708
  8
002
 62
     3
 10
1375.749903
 20
302.863845
 30
0.0
 11
1375.749903
 21
306.863845
 31
0.0
  0
LINE
  5
709
  8
002
 62
     3
 10
1650.378781
 20
302.863845
 30
0.0
 11
1650.378781
 21
306.863845
 31
0.0
  0
LINE
  5
70A
  8
002
 62
     3
 10
1043.076781
 20
242.863845
 30
0.0
 11
957.076781
 21
242.863845
 31
0.0
  0
LINE
  5
70B
  8
002
 62
     3
 10
953.076781
 20
250.863845
 30
0.0
 11
956.16679
 21
250.863845
 31
0.0
  0
LINE
  5
70C
  8
002
 62
     3
 10
953.076781
 20
294.863845
 30
0.0
 11
956.16679
 21
294.863845
 31
0.0
  0
LINE
  5
70D
  8
002
 62
     3
 10
1047.076781
 20
294.863845
 30
0.0
 11
1043.986773
 21
294.863845
 31
0.0
  0
LINE
  5
70E
  8
002
 62
     3
 10
1047.076781
 20
250.863845
 30
0.0
 11
1043.986773
 21
250.863845
 31
0.0
  0
LINE
  5
70F
  8
002
 62
     3
 10
953.076781
 20
265.363845
 30
0.0
 11
926.076741
 21
265.363845
 31
0.0
  0
LINE
  5
710
  8
002
 62
     3
 10
926.076741
 20
265.363845
 30
0.0
 11
925.076741
 21
266.363845
 31
0.0
  0
LINE
  5
711
  8
002
 62
     3
 10
925.076741
 20
266.363845
 30
0.0
 11
925.076741
 21
282.363845
 31
0.0
  0
LINE
  5
712
  8
002
 62
     3
 10
925.076741
 20
282.363845
 30
0.0
 11
947.076781
 21
282.363845
 31
0.0
  0
LINE
  5
713
  8
002
 62
     3
 10
947.076781
 20
282.363845
 30
0.0
 11
947.076781
 21
279.934945
 31
0.0
  0
LINE
  5
714
  8
002
 62
     3
 10
947.076781
 20
279.934945
 30
0.0
 11
949.576781
 21
280.363845
 31
0.0
  0
LINE
  5
715
  8
002
 62
     3
 10
949.576781
 20
280.363845
 30
0.0
 11
953.076781
 21
280.363845
 31
0.0
  0
LINE
  5
716
  8
002
 62
     3
 10
1047.076781
 20
280.363845
 30
0.0
 11
1050.576781
 21
280.363845
 31
0.0
  0
LINE
  5
717
  8
002
 62
     3
 10
1050.576781
 20
280.363845
 30
0.0
 11
1053.076781
 21
279.934945
 31
0.0
  0
LINE
  5
718
  8
002
 62
     3
 10
1053.076781
 20
279.934945
 30
0.0
 11
1053.076781
 21
282.363845
 31
0.0
  0
LINE
  5
719
  8
002
 62
     3
 10
1053.076781
 20
282.363845
 30
0.0
 11
1075.076781
 21
282.363845
 31
0.0
  0
LINE
  5
71A
  8
002
 62
     3
 10
1075.076781
 20
282.363845
 30
0.0
 11
1075.076781
 21
266.363845
 31
0.0
  0
LINE
  5
71B
  8
002
 62
     3
 10
1075.076781
 20
266.363845
 30
0.0
 11
1074.076781
 21
265.363845
 31
0.0
  0
LINE
  5
71C
  8
002
 62
     3
 10
1074.076781
 20
265.363845
 30
0.0
 11
1047.076781
 21
265.363845
 31
0.0
  0
LINE
  5
71D
  8
002
 62
     3
 10
947.076781
 20
279.934945
 30
0.0
 11
925.647811
 21
279.934945
 31
0.0
  0
LINE
  5
71E
  8
002
 62
     3
 10
925.647811
 20
279.934945
 30
0.0
 11
925.076741
 21
279.363845
 31
0.0
  0
LINE
  5
71F
  8
002
 62
     3
 10
926.076741
 20
279.934945
 30
0.0
 11
926.076741
 21
265.363845
 31
0.0
  0
LINE
  5
720
  8
002
 62
     3
 10
1053.076781
 20
279.934945
 30
0.0
 11
1074.505681
 21
279.934945
 31
0.0
  0
LINE
  5
721
  8
002
 62
     3
 10
1074.505681
 20
279.934945
 30
0.0
 11
1075.076781
 21
279.363845
 31
0.0
  0
LINE
  5
722
  8
002
 62
     3
 10
1074.076781
 20
279.934945
 30
0.0
 11
1074.076781
 21
265.363845
 31
0.0
  0
LINE
  5
723
  8
002
 62
     3
 10
1043.076781
 20
302.863845
 30
0.0
 11
1043.076781
 21
242.863845
 31
0.0
  0
LINE
  5
724
  8
002
 62
     3
 10
1027.076781
 20
296.863845
 30
0.0
 11
1027.076781
 21
302.863845
 31
0.0
  0
LINE
  5
725
  8
002
 62
     3
 10
1029.743864
 20
296.863845
 30
0.0
 11
1029.743864
 21
242.863845
 31
0.0
  0
LINE
  5
726
  8
002
 62
     3
 10
973.076781
 20
302.863845
 30
0.0
 11
973.076781
 21
296.863845
 31
0.0
  0
LINE
  5
727
  8
002
 62
     3
 10
957.076781
 20
242.863845
 30
0.0
 11
957.076781
 21
302.863845
 31
0.0
  0
LINE
  5
728
  8
002
 62
     3
 10
970.409698
 20
296.863845
 30
0.0
 11
970.409698
 21
242.863845
 31
0.0
  0
POLYLINE
  5
729
  8
002
 62
     3
 66
     1
 10
0.0
 20
0.0
 30
0.0
  0
VERTEX
  5
72B
  8
002
 62
     3
 10
1029.743864
 20
242.863845
 30
0.0
  0
VERTEX
  5
72C
  8
002
 62
     3
 10
1029.738831
 20
242.867723
 30
0.0
  0
VERTEX
  5
72D
  8
002
 62
     3
 10
1029.733798
 20
242.8716
 30
0.0
  0
VERTEX
  5
72E
  8
002
 62
     3
 10
1029.410848
 20
243.117916
 30
0.0
  0
VERTEX
  5
72F
  8
002
 62
     3
 10
1029.084412
 20
243.359579
 30
0.0
  0
VERTEX
  5
730
  8
002
 62
     3
 10
1028.748771
 20
243.597136
 30
0.0
  0
VERTEX
  5
731
  8
002
 62
     3
 10
1028.406586
 20
243.825266
 30
0.0
  0
VERTEX
  5
732
  8
002
 62
     3
 10
1028.048781
 20
244.045956
 30
0.0
  0
VERTEX
  5
733
  8
002
 62
     3
 10
1027.681377
 20
244.249934
 30
0.0
  0
VERTEX
  5
734
  8
002
 62
     3
 10
1027.301262
 20
244.43387
 30
0.0
  0
VERTEX
  5
735
  8
002
 62
     3
 10
1026.909913
 20
244.593752
 30
0.0
  0
VERTEX
  5
736
  8
002
 62
     3
 10
1026.574674
 20
244.705379
 30
0.0
  0
VERTEX
  5
737
  8
002
 62
     3
 10
1026.232139
 20
244.787792
 30
0.0
  0
VERTEX
  5
738
  8
002
 62
     3
 10
1025.872251
 20
244.83642
 30
0.0
  0
VERTEX
  5
739
  8
002
 62
     3
 10
1025.50881
 20
244.863845
 30
0.0
  0
SEQEND
  5
72A
  8
002
 62
     3
  0
POLYLINE
  5
73A
  8
002
 62
     3
 66
     1
 10
0.0
 20
0.0
 30
0.0
  0
VERTEX
  5
73C
  8
002
 62
     3
 10
1025.50881
 20
294.863845
 30
0.0
  0
VERTEX
  5
73D
  8
002
 62
     3
 10
1025.864126
 20
294.890123
 30
0.0
  0
VERTEX
  5
73E
  8
002
 62
     3
 10
1026.216109
 20
294.936666
 30
0.0
  0
VERTEX
  5
73F
  8
002
 62
     3
 10
1026.566806
 20
295.020013
 30
0.0
  0
VERTEX
  5
740
  8
002
 62
     3
 10
1026.909913
 20
295.133937
 30
0.0
  0
VERTEX
  5
741
  8
002
 62
     3
 10
1027.294888
 20
295.290954
 30
0.0
  0
VERTEX
  5
742
  8
002
 62
     3
 10
1027.66897
 20
295.471307
 30
0.0
  0
VERTEX
  5
743
  8
002
 62
     3
 10
1028.030736
 20
295.671184
 30
0.0
  0
VERTEX
  5
744
  8
002
 62
     3
 10
1028.383169
 20
295.887405
 30
0.0
  0
VERTEX
  5
745
  8
002
 62
     3
 10
1028.73164
 20
296.118761
 30
0.0
  0
VERTEX
  5
746
  8
002
 62
     3
 10
1029.073264
 20
296.360015
 30
0.0
  0
VERTEX
  5
747
  8
002
 62
     3
 10
1029.405348
 20
296.605628
 30
0.0
  0
VERTEX
  5
748
  8
002
 62
     3
 10
1029.733798
 20
296.856089
 30
0.0
  0
VERTEX
  5
749
  8
002
 62
     3
 10
1029.738831
 20
296.859967
 30
0.0
  0
VERTEX
  5
74A
  8
002
 62
     3
 10
1029.743864
 20
296.863845
 30
0.0
  0
SEQEND
  5
73B
  8
002
 62
     3
  0
ARC
  5
74B
  8
002
 62
     3
 10
1025.076781
 20
296.863845
 30
0.0
 40
2.0
 50
270.0
 51
0.0
  0
ARC
  5
74C
  8
002
 62
     3
 10
1025.076781
 20
242.863845
 30
0.0
 40
2.0
 50
0.0
 51
90.0
  0
ARC
  5
74D
  8
002
 62
     3
 10
975.076781
 20
242.863845
 30
0.0
 40
2.0
 50
90.0
 51
180.0
  0
POLYLINE
  5
74E
  8
002
 62
     3
 66
     1
 10
0.0
 20
0.0
 30
0.0
  0
VERTEX
  5
750
  8
002
 62
     3
 10
974.644753
 20
244.863845
 30
0.0
  0
VERTEX
  5
751
  8
002
 62
     3
 10
974.289437
 20
244.837567
 30
0.0
  0
VERTEX
  5
752
  8
002
 62
     3
 10
973.937453
 20
244.791023
 30
0.0
  0
VERTEX
  5
753
  8
002
 62
     3
 10
973.586756
 20
244.707677
 30
0.0
  0
VERTEX
  5
754
  8
002
 62
     3
 10
973.24365
 20
244.593752
 30
0.0
  0
VERTEX
  5
755
  8
002
 62
     3
 10
972.858675
 20
244.436735
 30
0.0
  0
VERTEX
  5
756
  8
002
 62
     3
 10
972.484593
 20
244.256383
 30
0.0
  0
VERTEX
  5
757
  8
002
 62
     3
 10
972.122827
 20
244.056506
 30
0.0
  0
VERTEX
  5
758
  8
002
 62
     3
 10
971.770394
 20
243.840285
 30
0.0
  0
VERTEX
  5
759
  8
002
 62
     3
 10
971.421923
 20
243.608929
 30
0.0
  0
VERTEX
  5
75A
  8
002
 62
     3
 10
971.080298
 20
243.367674
 30
0.0
  0
VERTEX
  5
75B
  8
002
 62
     3
 10
970.748215
 20
243.122062
 30
0.0
  0
VERTEX
  5
75C
  8
002
 62
     3
 10
970.419765
 20
242.8716
 30
0.0
  0
VERTEX
  5
75D
  8
002
 62
     3
 10
970.414731
 20
242.867723
 30
0.0
  0
VERTEX
  5
75E
  8
002
 62
     3
 10
970.409698
 20
242.863845
 30
0.0
  0
SEQEND
  5
74F
  8
002
 62
     3
  0
ARC
  5
75F
  8
002
 62
     3
 10
975.076781
 20
296.863845
 30
0.0
 40
2.0
 50
180.0
 51
270.0
  0
POLYLINE
  5
760
  8
002
 62
     3
 66
     1
 10
0.0
 20
0.0
 30
0.0
  0
VERTEX
  5
762
  8
002
 62
     3
 10
970.409698
 20
296.863845
 30
0.0
  0
VERTEX
  5
763
  8
002
 62
     3
 10
970.414731
 20
296.859967
 30
0.0
  0
VERTEX
  5
764
  8
002
 62
     3
 10
970.419765
 20
296.856089
 30
0.0
  0
VERTEX
  5
765
  8
002
 62
     3
 10
970.742714
 20
296.609774
 30
0.0
  0
VERTEX
  5
766
  8
002
 62
     3
 10
971.069151
 20
296.368111
 30
0.0
  0
VERTEX
  5
767
  8
002
 62
     3
 10
971.404791
 20
296.130554
 30
0.0
  0
VERTEX
  5
768
  8
002
 62
     3
 10
971.746977
 20
295.902424
 30
0.0
  0
VERTEX
  5
769
  8
002
 62
     3
 10
972.104782
 20
295.681733
 30
0.0
  0
VERTEX
  5
76A
  8
002
 62
     3
 10
972.472186
 20
295.477756
 30
0.0
  0
VERTEX
  5
76B
  8
002
 62
     3
 10
972.8523
 20
295.29382
 30
0.0
  0
VERTEX
  5
76C
  8
002
 62
     3
 10
973.24365
 20
295.133937
 30
0.0
  0
VERTEX
  5
76D
  8
002
 62
     3
 10
973.578889
 20
295.022311
 30
0.0
  0
VERTEX
  5
76E
  8
002
 62
     3
 10
973.921424
 20
294.939897
 30
0.0
  0
VERTEX
  5
76F
  8
002
 62
     3
 10
974.281312
 20
294.891269
 30
0.0
  0
VERTEX
  5
770
  8
002
 62
     3
 10
974.644753
 20
294.863845
 30
0.0
  0
SEQEND
  5
761
  8
002
 62
     3
  0
LINE
  5
771
  8
002
 62
     3
 10
1025.50881
 20
294.863845
 30
0.0
 11
974.644753
 21
294.863845
 31
0.0
  0
LINE
  5
772
  8
002
 62
     3
 10
1025.50881
 20
244.863845
 30
0.0
 11
974.644753
 21
244.863845
 31
0.0
  0
LINE
  5
773
  8
002
 62
     3
 10
1043.076781
 20
302.863845
 30
0.0
 11
957.076781
 21
302.863845
 31
0.0
  0
LINE
  5
774
  8
002
 62
     3
 10
1047.076781
 20
250.863845
 30
0.0
 11
1047.076781
 21
294.863845
 31
0.0
  0
LINE
  5
775
  8
002
 62
     3
 10
953.076781
 20
250.863845
 30
0.0
 11
953.076781
 21
294.863845
 31
0.0
  0
POLYLINE
  5
776
  8
002
 62
     3
 66
     1
 10
0.0
 20
0.0
 30
0.0
  0
VERTEX
  5
778
  8
002
 62
     3
 10
1043.986773
 20
294.863845
 30
0.0
  0
VERTEX
  5
779
  8
002
 62
     3
 10
1043.864784
 20
294.874772
 30
0.0
  0
VERTEX
  5
77A
  8
002
 62
     3
 10
1043.745262
 20
294.896805
 30
0.0
  0
VERTEX
  5
77B
  8
002
 62
     3
 10
1043.637313
 20
294.935548
 30
0.0
  0
VERTEX
  5
77C
  8
002
 62
     3
 10
1043.536071
 20
294.990808
 30
0.0
  0
VERTEX
  5
77D
  8
002
 62
     3
 10
1043.420705
 20
295.079974
 30
0.0
  0
VERTEX
  5
77E
  8
002
 62
     3
 10
1043.321796
 20
295.186754
 30
0.0
  0
VERTEX
  5
77F
  8
002
 62
     3
 10
1043.23989
 20
295.308644
 30
0.0
  0
VERTEX
  5
780
  8
002
 62
     3
 10
1043.174759
 20
295.440647
 30
0.0
  0
VERTEX
  5
781
  8
002
 62
     3
 10
1043.131996
 20
295.557034
 30
0.0
  0
VERTEX
  5
782
  8
002
 62
     3
 10
1043.10197
 20
295.676876
 30
0.0
  0
VERTEX
  5
783
  8
002
 62
     3
 10
1043.086212
 20
295.789139
 30
0.0
  0
VERTEX
  5
784
  8
002
 62
     3
 10
1043.076781
 20
295.902479
 30
0.0
  0
SEQEND
  5
777
  8
002
 62
     3
  0
POLYLINE
  5
785
  8
002
 62
     3
 66
     1
 10
0.0
 20
0.0
 30
0.0
  0
VERTEX
  5
787
  8
002
 62
     3
 10
1043.076781
 20
249.825211
 30
0.0
  0
VERTEX
  5
788
  8
002
 62
     3
 10
1043.098196
 20
250.002807
 30
0.0
  0
VERTEX
  5
789
  8
002
 62
     3
 10
1043.134773
 20
250.177077
 30
0.0
  0
VERTEX
  5
78A
  8
002
 62
     3
 10
1043.20754
 20
250.362172
 30
0.0
  0
VERTEX
  5
78B
  8
002
 62
     3
 10
1043.313834
 20
250.530663
 30
0.0
  0
VERTEX
  5
78C
  8
002
 62
     3
 10
1043.38877
 20
250.616756
 30
0.0
  0
VERTEX
  5
78D
  8
002
 62
     3
 10
1043.473768
 20
250.692981
 30
0.0
  0
VERTEX
  5
78E
  8
002
 62
     3
 10
1043.574897
 20
250.760875
 30
0.0
  0
VERTEX
  5
78F
  8
002
 62
     3
 10
1043.685065
 20
250.811077
 30
0.0
  0
VERTEX
  5
790
  8
002
 62
     3
 10
1043.833353
 20
250.84644
 30
0.0
  0
VERTEX
  5
791
  8
002
 62
     3
 10
1043.986773
 20
250.863845
 30
0.0
  0
SEQEND
  5
786
  8
002
 62
     3
  0
POLYLINE
  5
792
  8
002
 62
     3
 66
     1
 10
0.0
 20
0.0
 30
0.0
  0
VERTEX
  5
794
  8
002
 62
     3
 10
956.16679
 20
250.863845
 30
0.0
  0
VERTEX
  5
795
  8
002
 62
     3
 10
956.288778
 20
250.852917
 30
0.0
  0
VERTEX
  5
796
  8
002
 62
     3
 10
956.408301
 20
250.830885
 30
0.0
  0
VERTEX
  5
797
  8
002
 62
     3
 10
956.51625
 20
250.792141
 30
0.0
  0
VERTEX
  5
798
  8
002
 62
     3
 10
956.617492
 20
250.736882
 30
0.0
  0
VERTEX
  5
799
  8
002
 62
     3
 10
956.732858
 20
250.647715
 30
0.0
  0
VERTEX
  5
79A
  8
002
 62
     3
 10
956.831766
 20
250.540936
 30
0.0
  0
VERTEX
  5
79B
  8
002
 62
     3
 10
956.913672
 20
250.419046
 30
0.0
  0
VERTEX
  5
79C
  8
002
 62
     3
 10
956.978803
 20
250.287043
 30
0.0
  0
VERTEX
  5
79D
  8
002
 62
     3
 10
957.021567
 20
250.170656
 30
0.0
  0
VERTEX
  5
79E
  8
002
 62
     3
 10
957.051593
 20
250.050814
 30
0.0
  0
VERTEX
  5
79F
  8
002
 62
     3
 10
957.067351
 20
249.93855
 30
0.0
  0
VERTEX
  5
7A0
  8
002
 62
     3
 10
957.076781
 20
249.825211
 30
0.0
  0
SEQEND
  5
793
  8
002
 62
     3
  0
POLYLINE
  5
7A1
  8
002
 62
     3
 66
     1
 10
0.0
 20
0.0
 30
0.0
  0
VERTEX
  5
7A3
  8
002
 62
     3
 10
957.076781
 20
295.902479
 30
0.0
  0
VERTEX
  5
7A4
  8
002
 62
     3
 10
957.055366
 20
295.724882
 30
0.0
  0
VERTEX
  5
7A5
  8
002
 62
     3
 10
957.018789
 20
295.550612
 30
0.0
  0
VERTEX
  5
7A6
  8
002
 62
     3
 10
956.946023
 20
295.365517
 30
0.0
  0
VERTEX
  5
7A7
  8
002
 62
     3
 10
956.839729
 20
295.197027
 30
0.0
  0
VERTEX
  5
7A8
  8
002
 62
     3
 10
956.764793
 20
295.110933
 30
0.0
  0
VERTEX
  5
7A9
  8
002
 62
     3
 10
956.679795
 20
295.034709
 30
0.0
  0
VERTEX
  5
7AA
  8
002
 62
     3
 10
956.578666
 20
294.966815
 30
0.0
  0
VERTEX
  5
7AB
  8
002
 62
     3
 10
956.468498
 20
294.916613
 30
0.0
  0
VERTEX
  5
7AC
  8
002
 62
     3
 10
956.32021
 20
294.881249
 30
0.0
  0
VERTEX
  5
7AD
  8
002
 62
     3
 10
956.16679
 20
294.863845
 30
0.0
  0
SEQEND
  5
7A2
  8
002
 62
     3
  0
LINE
  5
7AE
  8
002
 62
     3
 10
1120.273781
 20
242.863845
 30
0.0
 11
1120.273781
 21
302.863845
 31
0.0
  0
LINE
  5
7AF
  8
002
 62
     3
 10
1231.273781
 20
242.863845
 30
0.0
 11
1231.273781
 21
302.863845
 31
0.0
  0
LINE
  5
7B0
  8
002
 62
     3
 10
1136.273781
 20
242.863845
 30
0.0
 11
1136.273781
 21
302.863845
 31
0.0
  0
LINE
  5
7B1
  8
002
 62
     3
 10
1231.273781
 20
242.863845
 30
0.0
 11
1215.273781
 21
242.863845
 31
0.0
  0
LINE
  5
7B2
  8
002
 62
     3
 10
1215.273781
 20
302.863845
 30
0.0
 11
1231.273781
 21
302.863845
 31
0.0
  0
LINE
  5
7B3
  8
002
 62
     3
 10
1199.273781
 20
248.863845
 30
0.0
 11
1199.273781
 21
244.863845
 31
0.0
  0
LINE
  5
7B4
  8
002
 62
     3
 10
1215.273781
 20
296.863845
 30
0.0
 11
1215.273781
 21
302.863845
 31
0.0
  0
LINE
  5
7B5
  8
002
 62
     3
 10
1215.273781
 20
248.863845
 30
0.0
 11
1215.273781
 21
242.863845
 31
0.0
  0
ARC
  5
7B6
  8
002
 62
     3
 10
1192.773781
 20
296.863845
 30
0.0
 40
2.0
 50
180.0
 51
270.0
  0
LINE
  5
7B7
  8
002
 62
     3
 10
1190.773781
 20
296.863845
 30
0.0
 11
1190.773781
 21
302.863845
 31
0.0
  0
LINE
  5
7B8
  8
002
 62
     3
 10
1138.273781
 20
244.863845
 30
0.0
 11
1199.273781
 21
244.863845
 31
0.0
  0
ARC
  5
7B9
  8
002
 62
     3
 10
1138.273781
 20
242.863845
 30
0.0
 40
2.0
 50
90.0
 51
180.0
  0
ARC
  5
7BA
  8
002
 62
     3
 10
1213.273781
 20
248.863845
 30
0.0
 40
2.0
 50
360.0
 51
90.0
  0
ARC
  5
7BB
  8
002
 62
     3
 10
1201.273781
 20
248.863845
 30
0.0
 40
2.0
 50
90.0
 51
180.0
  0
ARC
  5
7BC
  8
002
 62
     3
 10
1213.273781
 20
296.863845
 30
0.0
 40
2.0
 50
270.0
 51
0.0
  0
LINE
  5
7BD
  8
002
 62
     3
 10
1173.273781
 20
252.863845
 30
0.0
 11
1173.273781
 21
292.863845
 31
0.0
  0
LINE
  5
7BE
  8
002
 62
     3
 10
1215.273781
 20
250.863845
 30
0.0
 11
1175.273781
 21
250.863845
 31
0.0
  0
LINE
  5
7BF
  8
002
 62
     3
 10
1217.273781
 20
292.863845
 30
0.0
 11
1217.273781
 21
252.863845
 31
0.0
  0
LINE
  5
7C0
  8
002
 62
     3
 10
1215.273781
 20
294.863845
 30
0.0
 11
1175.273781
 21
294.863845
 31
0.0
  0
ARC
  5
7C1
  8
002
 62
     3
 10
1175.273781
 20
292.863845
 30
0.0
 40
2.0
 50
90.0
 51
180.0
  0
ARC
  5
7C2
  8
002
 62
     3
 10
1175.273781
 20
252.863845
 30
0.0
 40
2.0
 50
180.0
 51
270.0
  0
ARC
  5
7C3
  8
002
 62
     3
 10
1215.273781
 20
252.863845
 30
0.0
 40
2.0
 50
270.0
 51
0.0
  0
ARC
  5
7C4
  8
002
 62
     3
 10
1215.273781
 20
292.863845
 30
0.0
 40
2.0
 50
360.0
 51
90.0
  0
LINE
  5
7C5
  8
002
 62
     3
 10
1194.273781
 20
244.863845
 30
0.0
 11
1194.273781
 21
242.863845
 31
0.0
  0
LINE
  5
7C6
  8
002
 62
    40
 10
1193.191281
 20
242.863845
 30
0.0
 11
1193.191281
 21
244.863845
 31
0.0
  0
LINE
  5
7C7
  8
002
 62
     3
 10
1194.273781
 20
242.863845
 30
0.0
 11
1120.273781
 21
242.863845
 31
0.0
  0
LINE
  5
7C8
  8
002
 62
     3
 10
1190.773781
 20
302.863845
 30
0.0
 11
1120.273781
 21
302.863845
 31
0.0
  0
LINE
  5
7C9
  8
002
 62
     3
 10
1193.559581
 20
256.981245
 30
0.0
 11
1193.559581
 21
259.035245
 31
0.0
  0
CIRCLE
  5
7CA
  8
002
 62
     3
 10
1191.273781
 20
259.035245
 30
0.0
 40
1.0
  0
ARC
  5
7CB
  8
002
 62
     3
 10
1191.273781
 20
259.035245
 30
0.0
 40
2.285799999999995
 50
0.0
 51
134.849339
  0
LINE
  5
7CC
  8
002
 62
     3
 10
1196.988081
 20
259.035245
 30
0.0
 11
1196.988081
 21
256.981245
 31
0.0
  0
ARC
  5
7CD
  8
002
 62
     3
 10
1199.273781
 20
259.035245
 30
0.0
 40
2.285730572486588
 50
45.150661
 51
180.0
  0
ARC
  5
7CE
  8
002
 62
     3
 10
1202.497781
 20
262.276245
 30
0.0
 40
2.285730572486588
 50
225.150661
 51
306.868895
  0
CIRCLE
  5
7CF
  8
002
 62
     3
 10
1199.273781
 20
259.035245
 30
0.0
 40
1.0
  0
ARC
  5
7D0
  8
002
 62
     3
 10
1188.049881
 20
262.276245
 30
0.0
 40
2.28572000035006
 50
233.131105
 51
314.847561
  0
ARC
  5
7D1
  8
002
 62
     3
 10
1195.273781
 20
271.908945
 30
0.0
 40
14.32628000738505
 50
306.868058
 51
233.132262
  0
LINE
  5
7D2
  8
002
 62
     3
 10
1197.523781
 20
277.363845
 30
0.0
 11
1193.023781
 21
277.363845
 31
0.0
  0
LINE
  5
7D3
  8
002
 62
     3
 10
1193.023781
 20
277.363845
 30
0.0
 11
1192.773781
 21
277.613845
 31
0.0
  0
LINE
  5
7D4
  8
002
 62
     3
 10
1192.773781
 20
277.613845
 30
0.0
 11
1192.773781
 21
282.113845
 31
0.0
  0
LINE
  5
7D5
  8
002
 62
     3
 10
1192.773781
 20
282.113845
 30
0.0
 11
1193.023781
 21
282.363845
 31
0.0
  0
LINE
  5
7D6
  8
002
 62
     3
 10
1193.023781
 20
282.363845
 30
0.0
 11
1197.523781
 21
282.363845
 31
0.0
  0
LINE
  5
7D7
  8
002
 62
     3
 10
1197.523781
 20
282.363845
 30
0.0
 11
1197.773781
 21
282.113845
 31
0.0
  0
LINE
  5
7D8
  8
002
 62
     3
 10
1197.773781
 20
282.113845
 30
0.0
 11
1197.773781
 21
277.613845
 31
0.0
  0
LINE
  5
7D9
  8
002
 62
     3
 10
1197.773781
 20
277.613845
 30
0.0
 11
1197.523781
 21
277.363845
 31
0.0
  0
ARC
  5
7DA
  8
002
 62
     3
 10
1197.573781
 20
277.563845
 30
0.0
 40
0.1999999999999886
 50
270.0
 51
0.0
  0
ARC
  5
7DB
  8
002
 62
     3
 10
1195.273781
 20
272.863845
 30
0.0
 40
7.499936066394191
 50
109.471393
 51
70.528607
  0
ARC
  5
7DC
  8
002
 62
     3
 10
1192.973781
 20
277.563845
 30
0.0
 40
0.2000000000000455
 50
180.0
 51
270.0
  0
CIRCLE
  5
7DD
  8
002
 62
     3
 10
1195.273781
 20
272.863845
 30
0.0
 40
16.0
  0
LINE
  5
7DE
  8
002
  6
CENTER
 62
    40
 10
1128.273781
 20
307.276045
 30
0.0
 11
1128.273781
 21
237.969145
 31
0.0
  0
LINE
  5
7DF
  8
002
  6
CENTER
 62
    40
 10
1223.273881
 20
307.276045
 30
0.0
 11
1223.273881
 21
237.969145
 31
0.0
  0
LINE
  5
7E0
  8
002
  6
CENTER
 62
    40
 10
1195.273781
 20
242.863845
 30
0.0
 11
1195.273781
 21
304.315299
 31
0.0
  0
LINE
  5
7E1
  8
002
 62
     3
 10
1375.249903
 20
302.863845
 30
0.0
 11
1375.249903
 21
242.863845
 31
0.0
  0
LINE
  5
7E2
  8
002
 62
     3
 10
1391.249903
 20
242.863845
 30
0.0
 11
1391.249903
 21
302.863845
 31
0.0
  0
LINE
  5
7E3
  8
002
 62
     3
 10
1305.249903
 20
302.863845
 30
0.0
 11
1305.249903
 21
242.863845
 31
0.0
  0
LINE
  5
7E4
  8
002
 62
     3
 10
1321.249903
 20
242.863845
 30
0.0
 11
1321.249903
 21
302.863845
 31
0.0
  0
POLYLINE
  5
7E5
  8
002
 62
     3
 66
     1
 10
0.0
 20
0.0
 30
0.0
  0
VERTEX
  5
7E7
  8
002
 62
     3
 10
1375.249903
 20
249.825211
 30
0.0
  0
VERTEX
  5
7E8
  8
002
 62
     3
 10
1375.228488
 20
250.002807
 30
0.0
  0
VERTEX
  5
7E9
  8
002
 62
     3
 10
1375.191911
 20
250.177077
 30
0.0
  0
VERTEX
  5
7EA
  8
002
 62
     3
 10
1375.119144
 20
250.362172
 30
0.0
  0
VERTEX
  5
7EB
  8
002
 62
     3
 10
1375.01285
 20
250.530663
 30
0.0
  0
VERTEX
  5
7EC
  8
002
 62
     3
 10
1374.937914
 20
250.616756
 30
0.0
  0
VERTEX
  5
7ED
  8
002
 62
     3
 10
1374.852916
 20
250.692981
 30
0.0
  0
VERTEX
  5
7EE
  8
002
 62
     3
 10
1374.751787
 20
250.760875
 30
0.0
  0
VERTEX
  5
7EF
  8
002
 62
     3
 10
1374.641619
 20
250.811077
 30
0.0
  0
VERTEX
  5
7F0
  8
002
 62
     3
 10
1374.493331
 20
250.84644
 30
0.0
  0
VERTEX
  5
7F1
  8
002
 62
     3
 10
1374.339911
 20
250.863845
 30
0.0
  0
SEQEND
  5
7E6
  8
002
 62
     3
  0
POLYLINE
  5
7F2
  8
002
 62
     3
 66
     1
 10
0.0
 20
0.0
 30
0.0
  0
VERTEX
  5
7F4
  8
002
 62
     3
 10
1392.159895
 20
250.863845
 30
0.0
  0
VERTEX
  5
7F5
  8
002
 62
     3
 10
1392.037906
 20
250.852917
 30
0.0
  0
VERTEX
  5
7F6
  8
002
 62
     3
 10
1391.918383
 20
250.830885
 30
0.0
  0
VERTEX
  5
7F7
  8
002
 62
     3
 10
1391.810434
 20
250.792141
 30
0.0
  0
VERTEX
  5
7F8
  8
002
 62
     3
 10
1391.709192
 20
250.736882
 30
0.0
  0
VERTEX
  5
7F9
  8
002
 62
     3
 10
1391.593826
 20
250.647715
 30
0.0
  0
VERTEX
  5
7FA
  8
002
 62
     3
 10
1391.494918
 20
250.540936
 30
0.0
  0
VERTEX
  5
7FB
  8
002
 62
     3
 10
1391.413012
 20
250.419046
 30
0.0
  0
VERTEX
  5
7FC
  8
002
 62
     3
 10
1391.347881
 20
250.287043
 30
0.0
  0
VERTEX
  5
7FD
  8
002
 62
     3
 10
1391.305117
 20
250.170656
 30
0.0
  0
VERTEX
  5
7FE
  8
002
 62
     3
 10
1391.275091
 20
250.050814
 30
0.0
  0
VERTEX
  5
7FF
  8
002
 62
     3
 10
1391.259333
 20
249.93855
 30
0.0
  0
VERTEX
  5
800
  8
002
 62
     3
 10
1391.249903
 20
249.825211
 30
0.0
  0
SEQEND
  5
7F3
  8
002
 62
     3
  0
POLYLINE
  5
801
  8
002
 62
     3
 66
     1
 10
0.0
 20
0.0
 30
0.0
  0
VERTEX
  5
803
  8
002
 62
     3
 10
1391.249903
 20
295.902479
 30
0.0
  0
VERTEX
  5
804
  8
002
 62
     3
 10
1391.271318
 20
295.724882
 30
0.0
  0
VERTEX
  5
805
  8
002
 62
     3
 10
1391.307895
 20
295.550612
 30
0.0
  0
VERTEX
  5
806
  8
002
 62
     3
 10
1391.380661
 20
295.365517
 30
0.0
  0
VERTEX
  5
807
  8
002
 62
     3
 10
1391.486955
 20
295.197027
 30
0.0
  0
VERTEX
  5
808
  8
002
 62
     3
 10
1391.561891
 20
295.110933
 30
0.0
  0
VERTEX
  5
809
  8
002
 62
     3
 10
1391.646889
 20
295.034709
 30
0.0
  0
VERTEX
  5
80A
  8
002
 62
     3
 10
1391.748018
 20
294.966815
 30
0.0
  0
VERTEX
  5
80B
  8
002
 62
     3
 10
1391.858187
 20
294.916613
 30
0.0
  0
VERTEX
  5
80C
  8
002
 62
     3
 10
1392.006474
 20
294.881249
 30
0.0
  0
VERTEX
  5
80D
  8
002
 62
     3
 10
1392.159895
 20
294.863845
 30
0.0
  0
SEQEND
  5
802
  8
002
 62
     3
  0
POLYLINE
  5
80E
  8
002
 62
     3
 66
     1
 10
0.0
 20
0.0
 30
0.0
  0
VERTEX
  5
810
  8
002
 62
     3
 10
1374.339911
 20
294.863845
 30
0.0
  0
VERTEX
  5
811
  8
002
 62
     3
 10
1374.4619
 20
294.874772
 30
0.0
  0
VERTEX
  5
812
  8
002
 62
     3
 10
1374.581422
 20
294.896805
 30
0.0
  0
VERTEX
  5
813
  8
002
 62
     3
 10
1374.689371
 20
294.935548
 30
0.0
  0
VERTEX
  5
814
  8
002
 62
     3
 10
1374.790613
 20
294.990808
 30
0.0
  0
VERTEX
  5
815
  8
002
 62
     3
 10
1374.90598
 20
295.079974
 30
0.0
  0
VERTEX
  5
816
  8
002
 62
     3
 10
1375.004888
 20
295.186754
 30
0.0
  0
VERTEX
  5
817
  8
002
 62
     3
 10
1375.086794
 20
295.308644
 30
0.0
  0
VERTEX
  5
818
  8
002
 62
     3
 10
1375.151925
 20
295.440647
 30
0.0
  0
VERTEX
  5
819
  8
002
 62
     3
 10
1375.194688
 20
295.557034
 30
0.0
  0
VERTEX
  5
81A
  8
002
 62
     3
 10
1375.224714
 20
295.676876
 30
0.0
  0
VERTEX
  5
81B
  8
002
 62
     3
 10
1375.240472
 20
295.789139
 30
0.0
  0
VERTEX
  5
81C
  8
002
 62
     3
 10
1375.249903
 20
295.902479
 30
0.0
  0
SEQEND
  5
80F
  8
002
 62
     3
  0
POLYLINE
  5
81D
  8
002
 62
     3
 66
     1
 10
0.0
 20
0.0
 30
0.0
  0
VERTEX
  5
81F
  8
002
 62
     3
 10
1321.249903
 20
295.902479
 30
0.0
  0
VERTEX
  5
820
  8
002
 62
     3
 10
1321.271318
 20
295.724882
 30
0.0
  0
VERTEX
  5
821
  8
002
 62
     3
 10
1321.307895
 20
295.550612
 30
0.0
  0
VERTEX
  5
822
  8
002
 62
     3
 10
1321.380661
 20
295.365517
 30
0.0
  0
VERTEX
  5
823
  8
002
 62
     3
 10
1321.486955
 20
295.197027
 30
0.0
  0
VERTEX
  5
824
  8
002
 62
     3
 10
1321.561891
 20
295.110933
 30
0.0
  0
VERTEX
  5
825
  8
002
 62
     3
 10
1321.646889
 20
295.034709
 30
0.0
  0
VERTEX
  5
826
  8
002
 62
     3
 10
1321.748018
 20
294.966815
 30
0.0
  0
VERTEX
  5
827
  8
002
 62
     3
 10
1321.858187
 20
294.916613
 30
0.0
  0
VERTEX
  5
828
  8
002
 62
     3
 10
1322.006474
 20
294.881249
 30
0.0
  0
VERTEX
  5
829
  8
002
 62
     3
 10
1322.159895
 20
294.863845
 30
0.0
  0
SEQEND
  5
81E
  8
002
 62
     3
  0
POLYLINE
  5
82A
  8
002
 62
     3
 66
     1
 10
0.0
 20
0.0
 30
0.0
  0
VERTEX
  5
82C
  8
002
 62
     3
 10
1304.339911
 20
294.863845
 30
0.0
  0
VERTEX
  5
82D
  8
002
 62
     3
 10
1304.4619
 20
294.874772
 30
0.0
  0
VERTEX
  5
82E
  8
002
 62
     3
 10
1304.581422
 20
294.896805
 30
0.0
  0
VERTEX
  5
82F
  8
002
 62
     3
 10
1304.689371
 20
294.935548
 30
0.0
  0
VERTEX
  5
830
  8
002
 62
     3
 10
1304.790613
 20
294.990808
 30
0.0
  0
VERTEX
  5
831
  8
002
 62
     3
 10
1304.90598
 20
295.079974
 30
0.0
  0
VERTEX
  5
832
  8
002
 62
     3
 10
1305.004888
 20
295.186754
 30
0.0
  0
VERTEX
  5
833
  8
002
 62
     3
 10
1305.086794
 20
295.308644
 30
0.0
  0
VERTEX
  5
834
  8
002
 62
     3
 10
1305.151925
 20
295.440647
 30
0.0
  0
VERTEX
  5
835
  8
002
 62
     3
 10
1305.194688
 20
295.557034
 30
0.0
  0
VERTEX
  5
836
  8
002
 62
     3
 10
1305.224714
 20
295.676876
 30
0.0
  0
VERTEX
  5
837
  8
002
 62
     3
 10
1305.240472
 20
295.789139
 30
0.0
  0
VERTEX
  5
838
  8
002
 62
     3
 10
1305.249903
 20
295.902479
 30
0.0
  0
SEQEND
  5
82B
  8
002
 62
     3
  0
POLYLINE
  5
839
  8
002
 62
     3
 66
     1
 10
0.0
 20
0.0
 30
0.0
  0
VERTEX
  5
83B
  8
002
 62
     3
 10
1305.249903
 20
249.825211
 30
0.0
  0
VERTEX
  5
83C
  8
002
 62
     3
 10
1305.228488
 20
250.002807
 30
0.0
  0
VERTEX
  5
83D
  8
002
 62
     3
 10
1305.191911
 20
250.177077
 30
0.0
  0
VERTEX
  5
83E
  8
002
 62
     3
 10
1305.119144
 20
250.362172
 30
0.0
  0
VERTEX
  5
83F
  8
002
 62
     3
 10
1305.01285
 20
250.530663
 30
0.0
  0
VERTEX
  5
840
  8
002
 62
     3
 10
1304.937914
 20
250.616756
 30
0.0
  0
VERTEX
  5
841
  8
002
 62
     3
 10
1304.852916
 20
250.692981
 30
0.0
  0
VERTEX
  5
842
  8
002
 62
     3
 10
1304.751787
 20
250.760875
 30
0.0
  0
VERTEX
  5
843
  8
002
 62
     3
 10
1304.641619
 20
250.811077
 30
0.0
  0
VERTEX
  5
844
  8
002
 62
     3
 10
1304.493331
 20
250.84644
 30
0.0
  0
VERTEX
  5
845
  8
002
 62
     3
 10
1304.339911
 20
250.863845
 30
0.0
  0
SEQEND
  5
83A
  8
002
 62
     3
  0
POLYLINE
  5
846
  8
002
 62
     3
 66
     1
 10
0.0
 20
0.0
 30
0.0
  0
VERTEX
  5
848
  8
002
 62
     3
 10
1322.159895
 20
250.863845
 30
0.0
  0
VERTEX
  5
849
  8
002
 62
     3
 10
1322.037906
 20
250.852917
 30
0.0
  0
VERTEX
  5
84A
  8
002
 62
     3
 10
1321.918383
 20
250.830885
 30
0.0
  0
VERTEX
  5
84B
  8
002
 62
     3
 10
1321.810434
 20
250.792141
 30
0.0
  0
VERTEX
  5
84C
  8
002
 62
     3
 10
1321.709192
 20
250.736882
 30
0.0
  0
VERTEX
  5
84D
  8
002
 62
     3
 10
1321.593826
 20
250.647715
 30
0.0
  0
VERTEX
  5
84E
  8
002
 62
     3
 10
1321.494918
 20
250.540936
 30
0.0
  0
VERTEX
  5
84F
  8
002
 62
     3
 10
1321.413012
 20
250.419046
 30
0.0
  0
VERTEX
  5
850
  8
002
 62
     3
 10
1321.347881
 20
250.287043
 30
0.0
  0
VERTEX
  5
851
  8
002
 62
     3
 10
1321.305117
 20
250.170656
 30
0.0
  0
VERTEX
  5
852
  8
002
 62
     3
 10
1321.275091
 20
250.050814
 30
0.0
  0
VERTEX
  5
853
  8
002
 62
     3
 10
1321.259333
 20
249.93855
 30
0.0
  0
VERTEX
  5
854
  8
002
 62
     3
 10
1321.249903
 20
249.825211
 30
0.0
  0
SEQEND
  5
847
  8
002
 62
     3
  0
LINE
  5
855
  8
002
 62
     3
 10
1395.249903
 20
294.863845
 30
0.0
 11
1395.249903
 21
250.863845
 31
0.0
  0
LINE
  5
856
  8
002
 62
     3
 10
1301.249903
 20
294.863845
 30
0.0
 11
1301.249903
 21
250.863845
 31
0.0
  0
LINE
  5
857
  8
002
 62
     3
 10
1374.339911
 20
294.863845
 30
0.0
 11
1322.159895
 21
294.863845
 31
0.0
  0
LINE
  5
858
  8
002
 62
     3
 10
1374.339911
 20
250.863845
 30
0.0
 11
1322.159895
 21
250.863845
 31
0.0
  0
LINE
  5
859
  8
002
 62
     3
 10
1375.249903
 20
244.863845
 30
0.0
 11
1321.249903
 21
244.863845
 31
0.0
  0
LINE
  5
85A
  8
002
 62
     3
 10
1391.249903
 20
302.863845
 30
0.0
 11
1305.249903
 21
302.863845
 31
0.0
  0
ARC
  5
85B
  8
002
 62
     3
 10
1373.249903
 20
242.863845
 30
0.0
 40
2.0
 50
0.0
 51
90.0
  0
ARC
  5
85C
  8
002
 62
     3
 10
1323.249903
 20
242.863845
 30
0.0
 40
2.0
 50
90.0
 51
180.0
  0
LINE
  5
85D
  8
002
 62
     3
 10
1301.249903
 20
250.863845
 30
0.0
 11
1304.339911
 21
250.863845
 31
0.0
  0
LINE
  5
85E
  8
002
 62
     3
 10
1301.249903
 20
294.863845
 30
0.0
 11
1304.339911
 21
294.863845
 31
0.0
  0
LINE
  5
85F
  8
002
 62
     3
 10
1395.249903
 20
294.863845
 30
0.0
 11
1392.159895
 21
294.863845
 31
0.0
  0
LINE
  5
860
  8
002
 62
     3
 10
1395.249903
 20
250.863845
 30
0.0
 11
1392.159895
 21
250.863845
 31
0.0
  0
LINE
  5
861
  8
002
 62
     3
 10
1391.249903
 20
242.863845
 30
0.0
 11
1305.249903
 21
242.863845
 31
0.0
  0
LINE
  5
862
  8
002
 62
     3
 10
1301.249903
 20
265.363845
 30
0.0
 11
1274.249863
 21
265.363845
 31
0.0
  0
LINE
  5
863
  8
002
 62
     3
 10
1274.249863
 20
265.363845
 30
0.0
 11
1273.249863
 21
266.363845
 31
0.0
  0
LINE
  5
864
  8
002
 62
     3
 10
1273.249863
 20
266.363845
 30
0.0
 11
1273.249863
 21
282.363845
 31
0.0
  0
LINE
  5
865
  8
002
 62
     3
 10
1273.249863
 20
282.363845
 30
0.0
 11
1295.249903
 21
282.363845
 31
0.0
  0
LINE
  5
866
  8
002
 62
     3
 10
1295.249903
 20
282.363845
 30
0.0
 11
1295.249903
 21
279.934945
 31
0.0
  0
LINE
  5
867
  8
002
 62
     3
 10
1295.249903
 20
279.934945
 30
0.0
 11
1297.749903
 21
280.363845
 31
0.0
  0
LINE
  5
868
  8
002
 62
     3
 10
1297.749903
 20
280.363845
 30
0.0
 11
1301.249903
 21
280.363845
 31
0.0
  0
LINE
  5
869
  8
002
 62
     3
 10
1395.249903
 20
280.363845
 30
0.0
 11
1398.749903
 21
280.363845
 31
0.0
  0
LINE
  5
86A
  8
002
 62
     3
 10
1398.749903
 20
280.363845
 30
0.0
 11
1401.249903
 21
279.934945
 31
0.0
  0
LINE
  5
86B
  8
002
 62
     3
 10
1401.249903
 20
279.934945
 30
0.0
 11
1401.249903
 21
282.363845
 31
0.0
  0
LINE
  5
86C
  8
002
 62
     3
 10
1401.249903
 20
282.363845
 30
0.0
 11
1423.249903
 21
282.363845
 31
0.0
  0
LINE
  5
86D
  8
002
 62
     3
 10
1423.249903
 20
282.363845
 30
0.0
 11
1423.249903
 21
266.363845
 31
0.0
  0
LINE
  5
86E
  8
002
 62
     3
 10
1423.249903
 20
266.363845
 30
0.0
 11
1422.249903
 21
265.363845
 31
0.0
  0
LINE
  5
86F
  8
002
 62
     3
 10
1422.249903
 20
265.363845
 30
0.0
 11
1395.249903
 21
265.363845
 31
0.0
  0
LINE
  5
870
  8
002
 62
     3
 10
1295.249903
 20
279.934945
 30
0.0
 11
1273.820933
 21
279.934945
 31
0.0
  0
LINE
  5
871
  8
002
 62
     3
 10
1273.820933
 20
279.934945
 30
0.0
 11
1273.249863
 21
279.363845
 31
0.0
  0
LINE
  5
872
  8
002
 62
     3
 10
1274.249863
 20
279.934945
 30
0.0
 11
1274.249863
 21
265.363845
 31
0.0
  0
LINE
  5
873
  8
002
 62
     3
 10
1401.249903
 20
279.934945
 30
0.0
 11
1422.678803
 21
279.934945
 31
0.0
  0
LINE
  5
874
  8
002
 62
     3
 10
1422.678803
 20
279.934945
 30
0.0
 11
1423.249903
 21
279.363845
 31
0.0
  0
LINE
  5
875
  8
002
 62
     3
 10
1422.249903
 20
279.934945
 30
0.0
 11
1422.249903
 21
265.363845
 31
0.0
  0
LINE
  5
876
  8
002
 62
     3
 10
1579.878781
 20
242.863845
 30
0.0
 11
1579.878781
 21
302.863845
 31
0.0
  0
LINE
  5
877
  8
002
 62
     3
 10
1690.878781
 20
242.863845
 30
0.0
 11
1690.878781
 21
302.863845
 31
0.0
  0
LINE
  5
878
  8
002
 62
     3
 10
1595.878781
 20
242.863845
 30
0.0
 11
1595.878781
 21
302.863845
 31
0.0
  0
LINE
  5
879
  8
002
 62
     3
 10
1690.878781
 20
242.863845
 30
0.0
 11
1674.878781
 21
242.863845
 31
0.0
  0
LINE
  5
87A
  8
002
 62
     3
 10
1674.878781
 20
302.863845
 30
0.0
 11
1690.878781
 21
302.863845
 31
0.0
  0
LINE
  5
87B
  8
002
 62
     3
 10
1658.878781
 20
248.863845
 30
0.0
 11
1658.878781
 21
244.863845
 31
0.0
  0
LINE
  5
87C
  8
002
 62
     3
 10
1674.878781
 20
296.863845
 30
0.0
 11
1674.878781
 21
302.863845
 31
0.0
  0
LINE
  5
87D
  8
002
 62
     3
 10
1674.878781
 20
248.863845
 30
0.0
 11
1674.878781
 21
242.863845
 31
0.0
  0
ARC
  5
87E
  8
002
 62
     3
 10
1652.378781
 20
296.863845
 30
0.0
 40
2.0
 50
180.0
 51
270.0
  0
LINE
  5
87F
  8
002
 62
     3
 10
1650.378781
 20
296.863845
 30
0.0
 11
1650.378781
 21
302.863845
 31
0.0
  0
LINE
  5
880
  8
002
 62
     3
 10
1597.878781
 20
244.863845
 30
0.0
 11
1658.878781
 21
244.863845
 31
0.0
  0
ARC
  5
881
  8
002
 62
     3
 10
1597.878781
 20
242.863845
 30
0.0
 40
2.0
 50
90.0
 51
180.0
  0
ARC
  5
882
  8
002
 62
     3
 10
1672.878781
 20
248.863845
 30
0.0
 40
2.0
 50
360.0
 51
90.0
  0
ARC
  5
883
  8
002
 62
     3
 10
1660.878781
 20
248.863845
 30
0.0
 40
2.0
 50
90.0
 51
180.0
  0
ARC
  5
884
  8
002
 62
     3
 10
1672.878781
 20
296.863845
 30
0.0
 40
2.0
 50
270.0
 51
0.0
  0
LINE
  5
885
  8
002
 62
     3
 10
1632.878781
 20
252.863845
 30
0.0
 11
1632.878781
 21
292.863845
 31
0.0
  0
LINE
  5
886
  8
002
 62
     3
 10
1674.878781
 20
250.863845
 30
0.0
 11
1634.878781
 21
250.863845
 31
0.0
  0
LINE
  5
887
  8
002
 62
     3
 10
1676.878781
 20
292.863845
 30
0.0
 11
1676.878781
 21
252.863845
 31
0.0
  0
LINE
  5
888
  8
002
 62
     3
 10
1674.878781
 20
294.863845
 30
0.0
 11
1634.878781
 21
294.863845
 31
0.0
  0
ARC
  5
889
  8
002
 62
     3
 10
1634.878781
 20
292.863845
 30
0.0
 40
2.0
 50
90.0
 51
180.0
  0
ARC
  5
88A
  8
002
 62
     3
 10
1634.878781
 20
252.863845
 30
0.0
 40
2.0
 50
180.0
 51
270.0
  0
ARC
  5
88B
  8
002
 62
     3
 10
1674.878781
 20
252.863845
 30
0.0
 40
2.0
 50
270.0
 51
0.0
  0
ARC
  5
88C
  8
002
 62
     3
 10
1674.878781
 20
292.863845
 30
0.0
 40
2.0
 50
360.0
 51
90.0
  0
LINE
  5
88D
  8
002
 62
     3
 10
1653.878781
 20
244.863845
 30
0.0
 11
1653.878781
 21
242.863845
 31
0.0
  0
LINE
  5
88E
  8
002
 62
    40
 10
1652.796281
 20
242.863845
 30
0.0
 11
1652.796281
 21
244.863845
 31
0.0
  0
LINE
  5
88F
  8
002
 62
     3
 10
1653.878781
 20
242.863845
 30
0.0
 11
1579.878781
 21
242.863845
 31
0.0
  0
LINE
  5
890
  8
002
 62
     3
 10
1650.378781
 20
302.863845
 30
0.0
 11
1579.878781
 21
302.863845
 31
0.0
  0
LINE
  5
891
  8
002
 62
     3
 10
1653.164581
 20
256.981245
 30
0.0
 11
1653.164581
 21
259.035245
 31
0.0
  0
CIRCLE
  5
892
  8
002
 62
     3
 10
1650.878781
 20
259.035245
 30
0.0
 40
1.0
  0
ARC
  5
893
  8
002
 62
     3
 10
1650.878781
 20
259.035245
 30
0.0
 40
2.285799999999995
 50
0.0
 51
134.849339
  0
LINE
  5
894
  8
002
 62
     3
 10
1656.593081
 20
259.035245
 30
0.0
 11
1656.593081
 21
256.981245
 31
0.0
  0
ARC
  5
895
  8
002
 62
     3
 10
1658.878781
 20
259.035245
 30
0.0
 40
2.285730572486588
 50
45.150661
 51
180.0
  0
ARC
  5
896
  8
002
 62
     3
 10
1662.102781
 20
262.276245
 30
0.0
 40
2.285730572486588
 50
225.150661
 51
306.868895
  0
CIRCLE
  5
897
  8
002
 62
     3
 10
1658.878781
 20
259.035245
 30
0.0
 40
1.0
  0
ARC
  5
898
  8
002
 62
     3
 10
1647.654881
 20
262.276245
 30
0.0
 40
2.28572000035006
 50
233.131105
 51
314.847561
  0
ARC
  5
899
  8
002
 62
     3
 10
1654.878781
 20
271.908945
 30
0.0
 40
14.32628000738505
 50
306.868058
 51
233.132262
  0
LINE
  5
89A
  8
002
 62
     3
 10
1657.128781
 20
277.363845
 30
0.0
 11
1652.628781
 21
277.363845
 31
0.0
  0
LINE
  5
89B
  8
002
 62
     3
 10
1652.628781
 20
277.363845
 30
0.0
 11
1652.378781
 21
277.613845
 31
0.0
  0
LINE
  5
89C
  8
002
 62
     3
 10
1652.378781
 20
277.613845
 30
0.0
 11
1652.378781
 21
282.113845
 31
0.0
  0
LINE
  5
89D
  8
002
 62
     3
 10
1652.378781
 20
282.113845
 30
0.0
 11
1652.628781
 21
282.363845
 31
0.0
  0
LINE
  5
89E
  8
002
 62
     3
 10
1652.628781
 20
282.363845
 30
0.0
 11
1657.128781
 21
282.363845
 31
0.0
  0
LINE
  5
89F
  8
002
 62
     3
 10
1657.128781
 20
282.363845
 30
0.0
 11
1657.378781
 21
282.113845
 31
0.0
  0
LINE
  5
8A0
  8
002
 62
     3
 10
1657.378781
 20
282.113845
 30
0.0
 11
1657.378781
 21
277.613845
 31
0.0
  0
LINE
  5
8A1
  8
002
 62
     3
 10
1657.378781
 20
277.613845
 30
0.0
 11
1657.128781
 21
277.363845
 31
0.0
  0
ARC
  5
8A2
  8
002
 62
     3
 10
1657.178781
 20
277.563845
 30
0.0
 40
0.1999999999999886
 50
270.0
 51
0.0
  0
ARC
  5
8A3
  8
002
 62
     3
 10
1654.878781
 20
272.863845
 30
0.0
 40
7.499936066394191
 50
109.471393
 51
70.528607
  0
ARC
  5
8A4
  8
002
 62
     3
 10
1652.578781
 20
277.563845
 30
0.0
 40
0.2000000000000455
 50
180.0
 51
270.0
  0
CIRCLE
  5
8A5
  8
002
 62
     3
 10
1654.878781
 20
272.863845
 30
0.0
 40
16.0
  0
LINE
  5
8A6
  8
002
  6
CENTER
 62
    40
 10
1587.878781
 20
307.276045
 30
0.0
 11
1587.878781
 21
237.969145
 31
0.0
  0
LINE
  5
8A7
  8
002
  6
CENTER
 62
    40
 10
1682.878881
 20
307.276045
 30
0.0
 11
1682.878881
 21
237.969145
 31
0.0
  0
LINE
  5
8A8
  8
002
  6
CENTER
 62
    40
 10
1654.878781
 20
242.863845
 30
0.0
 11
1654.878781
 21
304.315299
 31
0.0
  0
CIRCLE
  5
8A9
  8
002
 62
     3
 10
239.392391
 20
616.921233
 30
0.0
 40
5.999399999999895
  0
CIRCLE
  5
8AA
  8
002
 62
    40
 10
239.392391
 20
616.921233
 30
0.0
 40
6.769700000000029
  0
ENDSEC
  0
EOF
