  0
SECTION
  2
HEADER
  9
$ACADVER
  1
AC1015
  9
$ACADMAINTVER
 70
     6
  9
$DWGCODEPAGE
  3
ANSI_932
  9
$INSBASE
 10
0.0
 20
0.0
 30
0.0
  9
$EXTMIN
 10
39.269775
 20
32.910645
 30
0.0
  9
$EXTMAX
 10
898.682556
 20
829.505615
 30
0.0
  9
$LIMMIN
 10
0.0
 20
0.0
  9
$LIMMAX
 10
12.0
 20
9.0
  9
$ORTHOMODE
 70
     0
  9
$REGENMODE
 70
     1
  9
$FILLMODE
 70
     1
  9
$QTEXTMODE
 70
     0
  9
$MIRRTEXT
 70
     1
  9
$LTSCALE
 40
11.718165
  9
$ATTMODE
 70
     1
  9
$TEXTSIZE
 40
3.2
  9
$TRACEWID
 40
1.0
  9
$TEXTSTYLE
  7
Standard
  9
$CLAYER
  8
0
  9
$CELTYPE
  6
ByLayer
  9
$CECOLOR
 62
   256
  9
$CELTSCALE
 40
1.0
  9
$DISPSILH
 70
     0
  9
$DIMSCALE
 40
1.0
  9
$DIMASZ
 40
2.5
  9
$DIMEXO
 40
0.625
  9
$DIMDLI
 40
3.75
  9
$DIMRND
 40
0.0
  9
$DIMDLE
 40
0.0
  9
$DIMEXE
 40
1.25
  9
$DIMTP
 40
0.0
  9
$DIMTM
 40
0.0
  9
$DIMTXT
 40
2.5
  9
$DIMCEN
 40
0.09
  9
$DIMTSZ
 40
0.0
  9
$DIMTOL
 70
     0
  9
$DIMLIM
 70
     0
  9
$DIMTIH
 70
     0
  9
$DIMTOH
 70
     0
  9
$DIMSE1
 70
     0
  9
$DIMSE2
 70
     0
  9
$DIMTAD
 70
     0
  9
$DIMZIN
 70
     8
  9
$DIMBLK
  1

  9
$DIMASO
 70
     1
  9
$DIMSHO
 70
     0
  9
$DIMPOST
  1

  9
$DIMAPOST
  1

  9
$DIMALT
 70
     0
  9
$DIMALTD
 70
     3
  9
$DIMALTF
 40
0.03937
  9
$DIMLFAC
 40
1.0
  9
$DIMTOFL
 70
     1
  9
$DIMTVP
 40
0.0
  9
$DIMTIX
 70
     0
  9
$DIMSOXD
 70
     0
  9
$DIMSAH
 70
     0
  9
$DIMBLK1
  1

  9
$DIMBLK2
  1

  9
$DIMSTYLE
  2
ISO-25
  9
$DIMCLRD
 70
     0
  9
$DIMCLRE
 70
     0
  9
$DIMCLRT
 70
     0
  9
$DIMTFAC
 40
1.0
  9
$DIMGAP
 40
0.625
  9
$DIMJUST
 70
     0
  9
$DIMSD1
 70
     0
  9
$DIMSD2
 70
     0
  9
$DIMTOLJ
 70
     0
  9
$DIMTZIN
 70
     8
  9
$DIMALTZ
 70
     0
  9
$DIMALTTZ
 70
     0
  9
$DIMUPT
 70
     0
  9
$DIMDEC
 70
     2
  9
$DIMTDEC
 70
     2
  9
$DIMALTU
 70
     2
  9
$DIMALTTD
 70
     3
  9
$DIMTXSTY
  7
Standard
  9
$DIMAUNIT
 70
     0
  9
$DIMADEC
 70
     0
  9
$DIMALTRND
 40
0.0
  9
$DIMAZIN
 70
     0
  9
$DIMDSEP
 70
    44
  9
$DIMATFIT
 70
     3
  9
$DIMFRAC
 70
     0
  9
$DIMLDRBLK
  1

  9
$DIMLUNIT
 70
     2
  9
$DIMLWD
 70
    -2
  9
$DIMLWE
 70
    -2
  9
$DIMTMOVE
 70
     0
  9
$LUNITS
 70
     2
  9
$LUPREC
 70
     4
  9
$SKETCHINC
 40
1.0
  9
$FILLETRAD
 40
0.0
  9
$AUNITS
 70
     0
  9
$AUPREC
 70
     0
  9
$MENU
  1
.
  9
$ELEVATION
 40
0.0
  9
$PELEVATION
 40
0.0
  9
$THICKNESS
 40
0.0
  9
$LIMCHECK
 70
     0
  9
$CHAMFERA
 40
10.0
  9
$CHAMFERB
 40
10.0
  9
$CHAMFERC
 40
20.0
  9
$CHAMFERD
 40
0.0
  9
$SKPOLY
 70
     0
  9
$TDCREATE
 40
2455649.657120035
  9
$TDUCREATE
 40
2455649.282120035
  9
$TDUPDATE
 40
2455649.657120046
  9
$TDUUPDATE
 40
2455649.282120046
  9
$TDINDWG
 40
0.0000000116
  9
$TDUSRTIMER
 40
0.0000000116
  9
$USRTIMER
 70
     1
  9
$ANGBASE
 50
0.0
  9
$ANGDIR
 70
     0
  9
$PDMODE
 70
     0
  9
$PDSIZE
 40
0.0
  9
$PLINEWID
 40
0.0
  9
$SPLFRAME
 70
     0
  9
$SPLINETYPE
 70
     6
  9
$SPLINESEGS
 70
     8
  9
$HANDSEED
  5
6FB
  9
$SURFTAB1
 70
     6
  9
$SURFTAB2
 70
     6
  9
$SURFTYPE
 70
     6
  9
$SURFU
 70
     6
  9
$SURFV
 70
     6
  9
$UCSBASE
  2

  9
$UCSNAME
  2

  9
$UCSORG
 10
0.0
 20
0.0
 30
0.0
  9
$UCSXDIR
 10
1.0
 20
0.0
 30
0.0
  9
$UCSYDIR
 10
0.0
 20
1.0
 30
0.0
  9
$UCSORTHOREF
  2

  9
$UCSORTHOVIEW
 70
     0
  9
$UCSORGTOP
 10
0.0
 20
0.0
 30
0.0
  9
$UCSORGBOTTOM
 10
0.0
 20
0.0
 30
0.0
  9
$UCSORGLEFT
 10
0.0
 20
0.0
 30
0.0
  9
$UCSORGRIGHT
 10
0.0
 20
0.0
 30
0.0
  9
$UCSORGFRONT
 10
0.0
 20
0.0
 30
0.0
  9
$UCSORGBACK
 10
0.0
 20
0.0
 30
0.0
  9
$PUCSBASE
  2

  9
$PUCSNAME
  2

  9
$PUCSORG
 10
0.0
 20
0.0
 30
0.0
  9
$PUCSXDIR
 10
1.0
 20
0.0
 30
0.0
  9
$PUCSYDIR
 10
0.0
 20
1.0
 30
0.0
  9
$PUCSORTHOREF
  2

  9
$PUCSORTHOVIEW
 70
     0
  9
$PUCSORGTOP
 10
0.0
 20
0.0
 30
0.0
  9
$PUCSORGBOTTOM
 10
0.0
 20
0.0
 30
0.0
  9
$PUCSORGLEFT
 10
0.0
 20
0.0
 30
0.0
  9
$PUCSORGRIGHT
 10
0.0
 20
0.0
 30
0.0
  9
$PUCSORGFRONT
 10
0.0
 20
0.0
 30
0.0
  9
$PUCSORGBACK
 10
0.0
 20
0.0
 30
0.0
  9
$USERI1
 70
     0
  9
$USERI2
 70
     0
  9
$USERI3
 70
     0
  9
$USERI4
 70
     0
  9
$USERI5
 70
     0
  9
$USERR1
 40
0.0
  9
$USERR2
 40
0.0
  9
$USERR3
 40
0.0
  9
$USERR4
 40
0.0
  9
$USERR5
 40
0.0
  9
$WORLDVIEW
 70
     1
  9
$SHADEDGE
 70
     3
  9
$SHADEDIF
 70
    70
  9
$TILEMODE
 70
     1
  9
$MAXACTVP
 70
    64
  9
$PINSBASE
 10
0.0
 20
0.0
 30
0.0
  9
$PLIMCHECK
 70
     0
  9
$PEXTMIN
 10
1.000000E+20
 20
1.000000E+20
 30
0.0
  9
$PEXTMAX
 10
-1.000000E+20
 20
-1.000000E+20
 30
0.0
  9
$PLIMMIN
 10
0.0
 20
0.0
  9
$PLIMMAX
 10
12.0
 20
9.0
  9
$UNITMODE
 70
     0
  9
$VISRETAIN
 70
     1
  9
$PLINEGEN
 70
     0
  9
$PSLTSCALE
 70
     1
  9
$TREEDEPTH
 70
  3020
  9
$CMLSTYLE
  2
Standard
  9
$CMLJUST
 70
     0
  9
$CMLSCALE
 40
20.0
  9
$PROXYGRAPHICS
 70
     1
  9
$MEASUREMENT
 70
     1
  9
$CELWEIGHT
370
    -1
  9
$ENDCAPS
280
     0
  9
$JOINSTYLE
280
     0
  9
$LWDISPLAY
290
     0
  9
$INSUNITS
 70
     4
  9
$HYPERLINKBASE
  1

  9
$STYLESHEET
  1

  9
$XEDIT
290
     1
  9
$CEPSNTYPE
380
     0
  9
$PSTYLEMODE
290
     1
  9
$FINGERPRINTGUID
  2
{B8236A19-40ED-4AFC-B94C-1CF925235D43}
  9
$VERSIONGUID
  2
{FAEB1C32-E019-11D5-929B-00C0DF256EC4}
  9
$EXTNAMES
290
     1
  9
$PSVPSCALE
 40
0.0
  9
$OLESTARTUP
290
     0
  0
ENDSEC
  0
SECTION
  2
CLASSES
  0
CLASS
  1
ACDBDICTIONARYWDFLT
  2
AcDbDictionaryWithDefault
  3
ObjectDBX Classes
 90
        0
280
     0
281
     0
  0
CLASS
  1
VISUALSTYLE
  2
AcDbVisualStyle
  3
ObjectDBX Classes
 90
     4095
280
     0
281
     0
  0
CLASS
  1
DICTIONARYVAR
  2
AcDbDictionaryVar
  3
ObjectDBX Classes
 90
        0
280
     0
281
     0
  0
CLASS
  1
ACDBPLACEHOLDER
  2
AcDbPlaceHolder
  3
ObjectDBX Classes
 90
        0
280
     0
281
     0
  0
CLASS
  1
LAYOUT
  2
AcDbLayout
  3
ObjectDBX Classes
 90
        0
280
     0
281
     0
  0
ENDSEC
  0
SECTION
  2
TABLES
  0
TABLE
  2
VPORT
  5
8
330
0
100
AcDbSymbolTable
 70
     1
  0
VPORT
  5
29
330
8
100
AcDbSymbolTableRecord
100
AcDbViewportTableRecord
  2
*Active
 70
     0
 10
0.0
 20
0.0
 11
1.0
 21
1.0
 12
468.976166
 22
431.20813
 13
0.0
 23
0.0
 14
1.0
 24
1.0
 15
0.0
 25
0.0
 16
0.0
 26
0.0
 36
1.0
 17
0.0
 27
0.0
 37
0.0
 40
804.56092
 41
1.691288
 42
50.0
 43
0.0
 44
0.0
 50
0.0
 51
0.0
 71
     0
 72
   100
 73
     1
 74
     3
 75
     0
 76
     0
 77
     0
 78
     0
281
     0
 65
     1
110
0.0
120
0.0
130
0.0
111
1.0
121
0.0
131
0.0
112
0.0
122
1.0
132
0.0
 79
     0
146
0.0
  0
ENDTAB
  0
TABLE
  2
LTYPE
  5
5
330
0
100
AcDbSymbolTable
 70
     5
  0
LTYPE
  5
14
330
5
100
AcDbSymbolTableRecord
100
AcDbLinetypeTableRecord
  2
ByBlock
 70
     0
  3

 72
    65
 73
     0
 40
0.0
  0
LTYPE
  5
15
330
5
100
AcDbSymbolTableRecord
100
AcDbLinetypeTableRecord
  2
ByLayer
 70
     0
  3

 72
    65
 73
     0
 40
0.0
  0
LTYPE
  5
16
330
5
100
AcDbSymbolTableRecord
100
AcDbLinetypeTableRecord
  2
Continuous
 70
     0
  3
Solid line
 72
    65
 73
     0
 40
0.0
  0
LTYPE
  5
3B
330
5
100
AcDbSymbolTableRecord
100
AcDbLinetypeTableRecord
  2
DASHED
 70
     0
  3
DASHED
 72
    83
 73
     2
 40
0.75
 49
0.5
 74
     0
 49
-0.25
 74
     0
  0
LTYPE
  5
3C
330
5
100
AcDbSymbolTableRecord
100
AcDbLinetypeTableRecord
  2
HIDDEN
 70
     0
  3
HIDDEN
 72
    83
 73
     2
 40
0.375
 49
0.25
 74
     0
 49
-0.125
 74
     0
  0
LTYPE
  5
3D
330
5
100
AcDbSymbolTableRecord
100
AcDbLinetypeTableRecord
  2
CENTER
 70
     0
  3
CENTER
 72
    83
 73
     4
 40
2.0
 49
1.25
 74
     0
 49
-0.25
 74
     0
 49
0.25
 74
     0
 49
-0.25
 74
     0
  0
LTYPE
  5
3E
330
5
100
AcDbSymbolTableRecord
100
AcDbLinetypeTableRecord
  2
PHANTOM
 70
     0
  3
PHANTOM
 72
    83
 73
     6
 40
2.5
 49
1.25
 74
     0
 49
-0.25
 74
     0
 49
0.25
 74
     0
 49
-0.25
 74
     0
 49
0.25
 74
     0
 49
-0.25
 74
     0
  0
ENDTAB
  0
TABLE
  2
LAYER
  5
2
330
0
100
AcDbSymbolTable
 70
     3
  0
LAYER
  5
10
330
2
100
AcDbSymbolTableRecord
100
AcDbLayerTableRecord
  2
0
 70
     0
 62
     7
  6
Continuous
370
    -3
390
F
  0
LAYER
  5
3F
330
2
100
AcDbSymbolTableRecord
100
AcDbLayerTableRecord
  2
002
 70
     0
 62
     7
  6
Continuous
370
    -3
390
F
  0
LAYER
  5
40
330
2
100
AcDbSymbolTableRecord
100
AcDbLayerTableRecord
  2
003
 70
     0
 62
     7
  6
Continuous
370
    -3
390
F
  0
ENDTAB
  0
TABLE
  2
STYLE
  5
3
330
0
100
AcDbSymbolTable
 70
     2
  0
STYLE
  5
11
330
3
100
AcDbSymbolTableRecord
100
AcDbTextStyleTableRecord
  2
Standard
 70
     0
 40
0.0
 41
1.0
 50
0.0
 71
     0
 42
0.2
  3
TXT
  4
BIGFONT
  0
STYLE
  5
41
330
3
100
AcDbSymbolTableRecord
100
AcDbTextStyleTableRecord
  2
TATEGAKI
 70
     4
 40
1.0
 41
1.0
 50
0.0
 71
     0
 42
0.2
  3
TXT
  4
BIGFONT
  0
ENDTAB
  0
TABLE
  2
VIEW
  5
6
330
0
100
AcDbSymbolTable
 70
     0
  0
ENDTAB
  0
TABLE
  2
UCS
  5
7
330
0
100
AcDbSymbolTable
 70
     0
  0
ENDTAB
  0
TABLE
  2
APPID
  5
9
330
0
100
AcDbSymbolTable
 70
     1
  0
APPID
  5
12
330
9
100
AcDbSymbolTableRecord
100
AcDbRegAppTableRecord
  2
ACAD
 70
     0
  0
ENDTAB
  0
TABLE
  2
DIMSTYLE
  5
A
330
0
100
AcDbSymbolTable
 70
     2
100
AcDbDimStyleTable
  0
DIMSTYLE
105
27
330
A
100
AcDbSymbolTableRecord
100
AcDbDimStyleTableRecord
  2
ISO-25
 70
     0
 41
2.5
 42
0.625
 43
3.75
 44
1.25
 73
     0
 74
     0
 77
     1
 78
     8
140
2.5
141
2.5
143
0.03937
147
0.625
171
     3
172
     1
271
     2
272
     2
274
     3
278
    44
283
     0
284
     8
340
11
  0
DIMSTYLE
105
42
330
A
100
AcDbSymbolTableRecord
100
AcDbDimStyleTableRecord
  2
Standard
 70
     0
 41
3.0
 42
0.5
 44
0.7
 73
     0
 74
     0
 77
     1
 78
     8
 79
     2
140
4.0
146
0.65
147
1.0
172
     1
179
     3
271
     3
283
     2
340
11
  0
ENDTAB
  0
TABLE
  2
BLOCK_RECORD
  5
1
330
0
100
AcDbSymbolTable
 70
     1
  0
BLOCK_RECORD
  5
1F
330
1
100
AcDbSymbolTableRecord
100
AcDbBlockTableRecord
  2
*Model_Space
340
22
  0
BLOCK_RECORD
  5
1B
330
1
100
AcDbSymbolTableRecord
100
AcDbBlockTableRecord
  2
*Paper_Space
340
1E
  0
BLOCK_RECORD
  5
23
330
1
100
AcDbSymbolTableRecord
100
AcDbBlockTableRecord
  2
*Paper_Space0
340
26
  0
ENDTAB
  0
ENDSEC
  0
SECTION
  2
BLOCKS
  0
BLOCK
  5
20
330
1F
100
AcDbEntity
  8
0
100
AcDbBlockBegin
  2
*Model_Space
 70
     0
 10
0.0
 20
0.0
 30
0.0
  3
*Model_Space
  1

  0
ENDBLK
  5
21
330
1F
100
AcDbEntity
  8
0
100
AcDbBlockEnd
  0
BLOCK
  5
1C
330
1B
100
AcDbEntity
 67
     1
  8
0
100
AcDbBlockBegin
  2
*Paper_Space
 70
     0
 10
0.0
 20
0.0
 30
0.0
  3
*Paper_Space
  1

  0
ENDBLK
  5
1D
330
1B
100
AcDbEntity
 67
     1
  8
0
100
AcDbBlockEnd
  0
BLOCK
  5
24
330
23
100
AcDbEntity
  8
0
100
AcDbBlockBegin
  2
*Paper_Space0
 70
     0
 10
0.0
 20
0.0
 30
0.0
  3
*Paper_Space0
  1

  0
ENDBLK
  5
25
330
23
100
AcDbEntity
  8
0
100
AcDbBlockEnd
  0
ENDSEC
  0
SECTION
  2
ENTITIES
  0
LINE
  5
43
330
1F
100
AcDbEntity
  8
002
 62
     3
370
    30
100
AcDbLine
 10
122.543846
 20
537.754434
 30
0.0
 11
118.043846
 21
537.754434
 31
0.0
  0
LINE
  5
44
330
1F
100
AcDbEntity
  8
002
 62
     3
370
    30
100
AcDbLine
 10
118.043846
 20
537.754434
 30
0.0
 11
117.793846
 21
537.504434
 31
0.0
  0
LINE
  5
45
330
1F
100
AcDbEntity
  8
002
 62
     3
370
    30
100
AcDbLine
 10
117.793846
 20
537.504434
 30
0.0
 11
117.793846
 21
533.004434
 31
0.0
  0
LINE
  5
46
330
1F
100
AcDbEntity
  8
002
 62
     3
370
    30
100
AcDbLine
 10
117.793846
 20
533.004434
 30
0.0
 11
118.043846
 21
532.754434
 31
0.0
  0
LINE
  5
47
330
1F
100
AcDbEntity
  8
002
 62
     3
370
    30
100
AcDbLine
 10
118.043846
 20
532.754434
 30
0.0
 11
122.543846
 21
532.754434
 31
0.0
  0
LINE
  5
48
330
1F
100
AcDbEntity
  8
002
 62
     3
370
    30
100
AcDbLine
 10
122.543846
 20
532.754434
 30
0.0
 11
122.793846
 21
533.004434
 31
0.0
  0
LINE
  5
49
330
1F
100
AcDbEntity
  8
002
 62
     3
370
    30
100
AcDbLine
 10
122.793846
 20
533.004434
 30
0.0
 11
122.793846
 21
537.504434
 31
0.0
  0
LINE
  5
4A
330
1F
100
AcDbEntity
  8
002
 62
     3
370
    30
100
AcDbLine
 10
122.793846
 20
537.504434
 30
0.0
 11
122.543846
 21
537.754434
 31
0.0
  0
ARC
  5
4B
330
1F
100
AcDbEntity
  8
002
 62
     3
370
    30
100
AcDbCircle
 10
122.593846
 20
532.954434
 30
0.0
 40
0.1999999999999318
100
AcDbArc
 50
270.0
 51
0.0
  0
ARC
  5
4C
330
1F
100
AcDbEntity
  8
002
 62
     3
370
    30
100
AcDbCircle
 10
117.993846
 20
532.954434
 30
0.0
 40
0.1999999999998181
100
AcDbArc
 50
180.0
 51
270.0
  0
ARC
  5
4D
330
1F
100
AcDbEntity
  8
002
 62
     3
370
    30
100
AcDbCircle
 10
120.293846
 20
528.254434
 30
0.0
 40
7.499936066394084
100
AcDbArc
 50
109.471393
 51
70.528607
  0
LINE
  5
4E
330
1F
100
AcDbEntity
  8
002
  6
CENTER
 62
    40
370
     9
100
AcDbLine
 10
109.494946
 20
528.254434
 30
0.0
 11
132.028146
 21
528.254434
 31
0.0
  0
LINE
  5
4F
330
1F
100
AcDbEntity
  8
002
  6
CENTER
 62
    40
370
     9
100
AcDbLine
 10
120.293846
 20
540.066434
 30
0.0
 11
120.293846
 21
518.131434
 31
0.0
  0
LINE
  5
50
330
1F
100
AcDbEntity
  8
002
 62
     3
370
    30
100
AcDbLine
 10
300.721312
 20
571.343342
 30
0.0
 11
280.721312
 21
571.343342
 31
0.0
  0
LINE
  5
51
330
1F
100
AcDbEntity
  8
002
 62
     3
370
    30
100
AcDbLine
 10
276.721312
 20
581.343342
 30
0.0
 11
274.721312
 21
583.343342
 31
0.0
  0
LINE
  5
52
330
1F
100
AcDbEntity
  8
002
 62
     3
370
    30
100
AcDbLine
 10
274.721312
 20
583.343342
 30
0.0
 11
274.721312
 21
638.343342
 31
0.0
  0
LINE
  5
53
330
1F
100
AcDbEntity
  8
002
 62
     3
370
    30
100
AcDbLine
 10
274.721312
 20
638.343342
 30
0.0
 11
277.721312
 21
641.343342
 31
0.0
  0
LINE
  5
54
330
1F
100
AcDbEntity
  8
002
 62
     3
370
    30
100
AcDbLine
 10
277.721312
 20
641.343342
 30
0.0
 11
303.721312
 21
641.343342
 31
0.0
  0
LINE
  5
55
330
1F
100
AcDbEntity
  8
002
 62
     3
370
    30
100
AcDbLine
 10
303.721312
 20
641.343342
 30
0.0
 11
306.721312
 21
638.343342
 31
0.0
  0
LINE
  5
56
330
1F
100
AcDbEntity
  8
002
 62
     3
370
    30
100
AcDbLine
 10
306.721312
 20
638.343342
 30
0.0
 11
306.721312
 21
583.343342
 31
0.0
  0
LINE
  5
57
330
1F
100
AcDbEntity
  8
002
 62
     3
370
    30
100
AcDbLine
 10
306.721312
 20
583.343342
 30
0.0
 11
304.721312
 21
581.343342
 31
0.0
  0
LINE
  5
58
330
1F
100
AcDbEntity
  8
002
 62
     3
370
    30
100
AcDbLine
 10
274.721312
 20
583.343342
 30
0.0
 11
306.721312
 21
583.343342
 31
0.0
  0
LINE
  5
59
330
1F
100
AcDbEntity
  8
002
 62
     3
370
    30
100
AcDbLine
 10
298.721312
 20
608.343342
 30
0.0
 11
282.721312
 21
608.343342
 31
0.0
  0
ARC
  5
5A
330
1F
100
AcDbEntity
  8
002
 62
     3
370
    30
100
AcDbCircle
 10
283.728212
 20
613.240842
 30
0.0
 40
4.999945705705185
100
AcDbArc
 50
202.30297
 51
258.382178
  0
LINE
  5
5B
330
1F
100
AcDbEntity
  8
002
 62
     3
370
    30
100
AcDbLine
 10
279.102312
 20
611.343342
 30
0.0
 11
279.102312
 21
638.343342
 31
0.0
  0
LINE
  5
5C
330
1F
100
AcDbEntity
  8
002
 62
     3
370
    30
100
AcDbLine
 10
279.102312
 20
638.343342
 30
0.0
 11
282.975312
 21
641.343342
 31
0.0
  0
LINE
  5
5D
330
1F
100
AcDbEntity
  8
002
 62
     3
370
    30
100
AcDbLine
 10
279.102312
 20
638.343342
 30
0.0
 11
274.721312
 21
638.343342
 31
0.0
  0
CIRCLE
  5
5E
330
1F
100
AcDbEntity
  8
002
 62
     3
370
    30
100
AcDbCircle
 10
290.721312
 20
626.343342
 30
0.0
 40
7.5
  0
LINE
  5
5F
330
1F
100
AcDbEntity
  8
002
 62
     3
370
    30
100
AcDbLine
 10
279.102312
 20
611.343342
 30
0.0
 11
302.340212
 21
611.343342
 31
0.0
  0
ARC
  5
60
330
1F
100
AcDbEntity
  8
002
 62
     3
370
    30
100
AcDbCircle
 10
297.714312
 20
613.240842
 30
0.0
 40
4.999955524802121
100
AcDbArc
 50
281.618944
 51
337.69703
  0
LINE
  5
61
330
1F
100
AcDbEntity
  8
002
 62
     3
370
    30
100
AcDbLine
 10
302.340212
 20
611.343342
 30
0.0
 11
302.340212
 21
638.343342
 31
0.0
  0
LINE
  5
62
330
1F
100
AcDbEntity
  8
002
 62
     3
370
    30
100
AcDbLine
 10
302.340212
 20
638.343342
 30
0.0
 11
306.721312
 21
638.343342
 31
0.0
  0
LINE
  5
63
330
1F
100
AcDbEntity
  8
002
 62
     3
370
    30
100
AcDbLine
 10
302.340212
 20
638.343342
 30
0.0
 11
298.467212
 21
641.343342
 31
0.0
  0
LINE
  5
64
330
1F
100
AcDbEntity
  8
002
  6
CENTER
 62
    40
370
     9
100
AcDbLine
 10
303.550912
 20
626.343342
 30
0.0
 11
278.405012
 21
626.343342
 31
0.0
  0
CIRCLE
  5
65
330
1F
100
AcDbEntity
  8
002
 62
     3
370
    30
100
AcDbCircle
 10
290.721312
 20
716.343342
 30
0.0
 40
16.0
  0
ARC
  5
66
330
1F
100
AcDbEntity
  8
002
 62
     3
370
    30
100
AcDbCircle
 10
290.721312
 20
716.343342
 30
0.0
 40
12.99999827846152
100
AcDbArc
 50
302.204215
 51
57.795785
  0
LINE
  5
67
330
1F
100
AcDbEntity
  8
002
 62
     3
370
    30
100
AcDbLine
 10
279.102312
 20
727.343342
 30
0.0
 11
302.340212
 21
727.343342
 31
0.0
  0
ARC
  5
68
330
1F
100
AcDbEntity
  8
002
 62
     3
370
    30
100
AcDbCircle
 10
290.721312
 20
716.343342
 30
0.0
 40
13.00005157259
100
AcDbArc
 50
122.204588
 51
237.795412
  0
LINE
  5
69
330
1F
100
AcDbEntity
  8
002
 62
     3
370
    30
100
AcDbLine
 10
302.340212
 20
705.343342
 30
0.0
 11
279.102312
 21
705.343342
 31
0.0
  0
LINE
  5
6A
330
1F
100
AcDbEntity
  8
002
 62
     3
370
    30
100
AcDbLine
 10
304.721312
 20
581.343342
 30
0.0
 11
276.721312
 21
581.343342
 31
0.0
  0
LINE
  5
6B
330
1F
100
AcDbEntity
  8
002
  6
HIDDEN
 62
    40
370
     9
100
AcDbLine
 10
298.221312
 20
727.343342
 30
0.0
 11
298.221312
 21
705.343342
 31
0.0
  0
LINE
  5
6C
330
1F
100
AcDbEntity
  8
002
  6
HIDDEN
 62
    40
370
     9
100
AcDbLine
 10
283.221312
 20
727.343342
 30
0.0
 11
283.221312
 21
705.343342
 31
0.0
  0
LINE
  5
6D
330
1F
100
AcDbEntity
  8
002
  6
CENTER
 62
    40
370
     9
100
AcDbLine
 10
290.721312
 20
742.343342
 30
0.0
 11
290.721312
 21
690.343342
 31
0.0
  0
LINE
  5
6E
330
1F
100
AcDbEntity
  8
002
  6
CENTER
 62
    40
370
     9
100
AcDbLine
 10
316.721312
 20
716.343342
 30
0.0
 11
264.721312
 21
716.343342
 31
0.0
  0
CIRCLE
  5
6F
330
1F
100
AcDbEntity
  8
002
 62
     3
370
    30
100
AcDbCircle
 10
459.123443
 20
716.343342
 30
0.0
 40
50.0
  0
CIRCLE
  5
70
330
1F
100
AcDbEntity
  8
002
 62
     3
370
    30
100
AcDbCircle
 10
459.123443
 20
683.843342
 30
0.0
 40
4.5
  0
CIRCLE
  5
71
330
1F
100
AcDbEntity
  8
002
 62
     3
370
    30
100
AcDbCircle
 10
491.623443
 20
716.343342
 30
0.0
 40
4.5
  0
CIRCLE
  5
72
330
1F
100
AcDbEntity
  8
002
 62
     3
370
    30
100
AcDbCircle
 10
459.123443
 20
716.343342
 30
0.0
 40
6.188
  0
CIRCLE
  5
73
330
1F
100
AcDbEntity
  8
002
 62
     3
370
    30
100
AcDbCircle
 10
426.623443
 20
716.343342
 30
0.0
 40
4.5
  0
CIRCLE
  5
74
330
1F
100
AcDbEntity
  8
002
 62
     3
370
    30
100
AcDbCircle
 10
459.123443
 20
748.843242
 30
0.0
 40
4.5
  0
CIRCLE
  5
75
330
1F
100
AcDbEntity
  8
002
 62
    40
370
     9
100
AcDbCircle
 10
459.123443
 20
716.343342
 30
0.0
 40
7.0
  0
CIRCLE
  5
76
330
1F
100
AcDbEntity
  8
002
  6
CENTER
 62
    40
370
     9
100
AcDbCircle
 10
459.123443
 20
716.343342
 30
0.0
 40
32.5
  0
LINE
  5
77
330
1F
100
AcDbEntity
  8
002
 62
     3
370
    30
100
AcDbLine
 10
443.123443
 20
595.03741
 30
0.0
 11
443.123443
 21
585.03741
 31
0.0
  0
LINE
  5
78
330
1F
100
AcDbEntity
  8
002
 62
     3
370
    30
100
AcDbLine
 10
443.123443
 20
585.03741
 30
0.0
 11
444.123443
 21
584.03741
 31
0.0
  0
ARC
  5
79
330
1F
100
AcDbEntity
  8
002
 62
     3
370
    30
100
AcDbCircle
 10
442.123443
 20
595.03741
 30
0.0
 40
1.0
100
AcDbArc
 50
0.0
 51
90.0
  0
LINE
  5
7A
330
1F
100
AcDbEntity
  8
002
 62
     3
370
    30
100
AcDbLine
 10
444.123443
 20
584.03741
 30
0.0
 11
474.083143
 21
584.03741
 31
0.0
  0
LINE
  5
7B
330
1F
100
AcDbEntity
  8
002
 62
     3
370
    30
100
AcDbLine
 10
409.123443
 20
605.03741
 30
0.0
 11
410.123443
 21
606.03741
 31
0.0
  0
LINE
  5
7C
330
1F
100
AcDbEntity
  8
002
 62
     3
370
    30
100
AcDbLine
 10
410.123443
 20
596.03741
 30
0.0
 11
409.123443
 21
597.03741
 31
0.0
  0
LINE
  5
7D
330
1F
100
AcDbEntity
  8
002
 62
     3
370
    30
100
AcDbLine
 10
410.123443
 20
606.03741
 30
0.0
 11
508.123443
 21
606.03741
 31
0.0
  0
LINE
  5
7E
330
1F
100
AcDbEntity
  8
002
 62
     3
370
    30
100
AcDbLine
 10
508.123443
 20
596.03741
 30
0.0
 11
410.123443
 21
596.03741
 31
0.0
  0
LINE
  5
7F
330
1F
100
AcDbEntity
  8
002
 62
     3
370
    30
100
AcDbLine
 10
409.123443
 20
597.03741
 30
0.0
 11
409.123443
 21
605.03741
 31
0.0
  0
LINE
  5
80
330
1F
100
AcDbEntity
  8
002
 62
     3
370
    30
100
AcDbLine
 10
474.123443
 20
584.03741
 30
0.0
 11
475.123443
 21
585.03741
 31
0.0
  0
LINE
  5
81
330
1F
100
AcDbEntity
  8
002
 62
     3
370
    30
100
AcDbLine
 10
475.123443
 20
585.03741
 30
0.0
 11
475.123443
 21
595.03741
 31
0.0
  0
ARC
  5
82
330
1F
100
AcDbEntity
  8
002
 62
     3
370
    30
100
AcDbCircle
 10
476.123443
 20
595.03741
 30
0.0
 40
1.0
100
AcDbArc
 50
90.0
 51
180.0
  0
LINE
  5
83
330
1F
100
AcDbEntity
  8
002
 62
     3
370
    30
100
AcDbLine
 10
508.123443
 20
606.03741
 30
0.0
 11
509.123443
 21
605.03741
 31
0.0
  0
LINE
  5
84
330
1F
100
AcDbEntity
  8
002
 62
     3
370
    30
100
AcDbLine
 10
509.123443
 20
605.03741
 30
0.0
 11
509.123443
 21
597.03741
 31
0.0
  0
LINE
  5
85
330
1F
100
AcDbEntity
  8
002
 62
     3
370
    30
100
AcDbLine
 10
509.123443
 20
597.03741
 30
0.0
 11
508.123443
 21
596.03741
 31
0.0
  0
LINE
  5
86
330
1F
100
AcDbEntity
  8
002
  6
CENTER
 62
    40
370
     9
100
AcDbLine
 10
426.623443
 20
611.03741
 30
0.0
 11
426.623443
 21
591.03741
 31
0.0
  0
LINE
  5
87
330
1F
100
AcDbEntity
  8
002
  6
CENTER
 62
    40
370
     9
100
AcDbLine
 10
491.623443
 20
591.03741
 30
0.0
 11
491.623443
 21
611.03741
 31
0.0
  0
LINE
  5
88
330
1F
100
AcDbEntity
  8
002
  6
CENTER
 62
    40
370
     9
100
AcDbLine
 10
404.123443
 20
716.343342
 30
0.0
 11
514.123443
 21
716.343342
 31
0.0
  0
LINE
  5
89
330
1F
100
AcDbEntity
  8
002
  6
CENTER
 62
    40
370
     9
100
AcDbLine
 10
459.123443
 20
661.343342
 30
0.0
 11
459.123443
 21
771.343342
 31
0.0
  0
LINE
  5
8A
330
1F
100
AcDbEntity
  8
002
 62
     3
370
    30
100
AcDbLine
 10
300.721312
 20
557.031379
 30
0.0
 11
300.721312
 21
581.343342
 31
0.0
  0
LINE
  5
8B
330
1F
100
AcDbEntity
  8
002
 62
     3
370
    30
100
AcDbLine
 10
280.721312
 20
581.343342
 30
0.0
 11
280.721312
 21
557.031379
 31
0.0
  0
LINE
  5
8C
330
1F
100
AcDbEntity
  8
002
 62
    40
370
     9
100
AcDbLine
 10
298.721312
 20
557.031379
 30
0.0
 11
298.721312
 21
571.343342
 31
0.0
  0
LINE
  5
8D
330
1F
100
AcDbEntity
  8
002
 62
    40
370
     9
100
AcDbLine
 10
282.721312
 20
571.343342
 30
0.0
 11
282.721312
 21
557.031379
 31
0.0
  0
LINE
  5
8E
330
1F
100
AcDbEntity
  8
002
  6
CENTER
 62
    40
370
     9
100
AcDbLine
 10
290.721312
 20
651.343342
 30
0.0
 11
290.721312
 21
557.031379
 31
0.0
  0
LINE
  5
8F
330
1F
100
AcDbEntity
  8
002
  6
HIDDEN
 62
    40
370
     9
100
AcDbLine
 10
297.721312
 20
601.343342
 30
0.0
 11
297.721312
 21
581.343342
 31
0.0
  0
LINE
  5
90
330
1F
100
AcDbEntity
  8
002
  6
HIDDEN
 62
    40
370
     9
100
AcDbLine
 10
283.721312
 20
601.343342
 30
0.0
 11
297.721312
 21
601.343342
 31
0.0
  0
LINE
  5
91
330
1F
100
AcDbEntity
  8
002
  6
HIDDEN
 62
    40
370
     9
100
AcDbLine
 10
283.721312
 20
601.343342
 30
0.0
 11
283.721312
 21
581.343342
 31
0.0
  0
LINE
  5
92
330
1F
100
AcDbEntity
  8
002
  6
HIDDEN
 62
    40
370
     9
100
AcDbLine
 10
284.533312
 20
581.343342
 30
0.0
 11
284.533312
 21
601.343342
 31
0.0
  0
LINE
  5
93
330
1F
100
AcDbEntity
  8
002
  6
HIDDEN
 62
    40
370
     9
100
AcDbLine
 10
296.909312
 20
601.343342
 30
0.0
 11
296.909312
 21
581.343342
 31
0.0
  0
LINE
  5
94
330
1F
100
AcDbEntity
  8
002
 62
     3
370
    30
100
AcDbLine
 10
469.123443
 20
574.03741
 30
0.0
 11
449.123443
 21
574.03741
 31
0.0
  0
LINE
  5
95
330
1F
100
AcDbEntity
  8
002
  6
HIDDEN
 62
    40
370
     9
100
AcDbLine
 10
466.123443
 20
604.03741
 30
0.0
 11
466.123443
 21
584.03741
 31
0.0
  0
LINE
  5
96
330
1F
100
AcDbEntity
  8
002
  6
HIDDEN
 62
    40
370
     9
100
AcDbLine
 10
452.123443
 20
604.03741
 30
0.0
 11
466.123443
 21
604.03741
 31
0.0
  0
LINE
  5
97
330
1F
100
AcDbEntity
  8
002
  6
HIDDEN
 62
    40
370
     9
100
AcDbLine
 10
452.123443
 20
604.03741
 30
0.0
 11
452.123443
 21
584.03741
 31
0.0
  0
LINE
  5
98
330
1F
100
AcDbEntity
  8
002
  6
HIDDEN
 62
    40
370
     9
100
AcDbLine
 10
452.935443
 20
584.03741
 30
0.0
 11
452.935443
 21
604.03741
 31
0.0
  0
LINE
  5
99
330
1F
100
AcDbEntity
  8
002
  6
HIDDEN
 62
    40
370
     9
100
AcDbLine
 10
465.311443
 20
604.03741
 30
0.0
 11
465.311443
 21
584.03741
 31
0.0
  0
LINE
  5
9A
330
1F
100
AcDbEntity
  8
002
 62
     3
370
    30
100
AcDbLine
 10
469.123443
 20
557.031379
 30
0.0
 11
469.123443
 21
584.03741
 31
0.0
  0
LINE
  5
9B
330
1F
100
AcDbEntity
  8
002
 62
     3
370
    30
100
AcDbLine
 10
449.123443
 20
584.03741
 30
0.0
 11
449.123443
 21
557.031379
 31
0.0
  0
LINE
  5
9C
330
1F
100
AcDbEntity
  8
002
 62
    40
370
     9
100
AcDbLine
 10
467.123443
 20
557.031379
 30
0.0
 11
467.123443
 21
574.03741
 31
0.0
  0
LINE
  5
9D
330
1F
100
AcDbEntity
  8
002
 62
    40
370
     9
100
AcDbLine
 10
451.123443
 20
574.03741
 30
0.0
 11
451.123443
 21
557.031379
 31
0.0
  0
LINE
  5
9E
330
1F
100
AcDbEntity
  8
002
  6
CENTER
 62
    40
370
     9
100
AcDbLine
 10
459.123443
 20
616.03741
 30
0.0
 11
459.123443
 21
557.031379
 31
0.0
  0
LINE
  5
9F
330
1F
100
AcDbEntity
  8
002
 62
     3
370
    30
100
AcDbLine
 10
85.025353
 20
311.645754
 30
0.0
 11
90.798853
 21
311.645754
 31
0.0
  0
LINE
  5
A0
330
1F
100
AcDbEntity
  8
002
 62
     3
370
    30
100
AcDbLine
 10
90.798853
 20
311.645754
 30
0.0
 11
93.685653
 21
306.645754
 31
0.0
  0
LINE
  5
A1
330
1F
100
AcDbEntity
  8
002
 62
     3
370
    30
100
AcDbLine
 10
93.685653
 20
306.645754
 30
0.0
 11
90.798853
 21
301.645754
 31
0.0
  0
LINE
  5
A2
330
1F
100
AcDbEntity
  8
002
 62
     3
370
    30
100
AcDbLine
 10
90.798853
 20
301.645754
 30
0.0
 11
85.025353
 21
301.645754
 31
0.0
  0
LINE
  5
A3
330
1F
100
AcDbEntity
  8
002
 62
     3
370
    30
100
AcDbLine
 10
85.025353
 20
301.645754
 30
0.0
 11
82.138653
 21
306.645754
 31
0.0
  0
LINE
  5
A4
330
1F
100
AcDbEntity
  8
002
 62
     3
370
    30
100
AcDbLine
 10
82.138653
 20
306.645754
 30
0.0
 11
85.025353
 21
311.645754
 31
0.0
  0
CIRCLE
  5
A5
330
1F
100
AcDbEntity
  8
002
 62
     3
370
    30
100
AcDbCircle
 10
87.912153
 20
306.645754
 30
0.0
 40
0.75
  0
CIRCLE
  5
A6
330
1F
100
AcDbEntity
  8
002
 62
     3
370
    30
100
AcDbCircle
 10
87.912153
 20
306.645754
 30
0.0
 40
2.5
  0
CIRCLE
  5
A7
330
1F
100
AcDbEntity
  8
002
 62
     3
370
    30
100
AcDbCircle
 10
87.912153
 20
306.645754
 30
0.0
 40
3.25
  0
CIRCLE
  5
A8
330
1F
100
AcDbEntity
  8
002
 62
     3
370
    30
100
AcDbCircle
 10
87.912153
 20
306.645754
 30
0.0
 40
5.0
  0
LINE
  5
A9
330
1F
100
AcDbEntity
  8
002
 62
     3
370
    30
100
AcDbLine
 10
58.912153
 20
326.145754
 30
0.0
 11
116.912153
 21
326.145754
 31
0.0
  0
LINE
  5
AA
330
1F
100
AcDbEntity
  8
002
 62
     3
370
    30
100
AcDbLine
 10
117.660853
 20
262.145754
 30
0.0
 11
107.660853
 21
262.145754
 31
0.0
  0
LINE
  5
AB
330
1F
100
AcDbEntity
  8
002
 62
     3
370
    30
100
AcDbLine
 10
117.660853
 20
262.145754
 30
0.0
 11
117.660853
 21
256.145754
 31
0.0
  0
LINE
  5
AC
330
1F
100
AcDbEntity
  8
002
 62
     3
370
    30
100
AcDbLine
 10
107.660853
 20
262.145754
 30
0.0
 11
107.660853
 21
256.145754
 31
0.0
  0
ARC
  5
AD
330
1F
100
AcDbEntity
  8
002
 62
     3
370
    30
100
AcDbCircle
 10
104.735553
 20
231.322254
 30
0.0
 40
7.999953736116232
100
AcDbArc
 50
93.652192
 51
176.347047
  0
LINE
  5
AE
330
1F
100
AcDbEntity
  8
002
 62
     3
370
    30
100
AcDbLine
 10
96.751853
 20
231.831954
 30
0.0
 11
95.747153
 21
216.092454
 31
0.0
  0
LINE
  5
AF
330
1F
100
AcDbEntity
  8
002
 62
     3
370
    30
100
AcDbLine
 10
95.747153
 20
216.199054
 30
0.0
 11
97.134453
 21
194.464254
 31
0.0
  0
LINE
  5
B0
330
1F
100
AcDbEntity
  8
002
 62
     3
370
    30
100
AcDbLine
 10
98.004153
 20
191.252754
 30
0.0
 11
96.409053
 21
216.241254
 31
0.0
  0
LINE
  5
B1
330
1F
100
AcDbEntity
  8
002
 62
     3
370
    30
100
AcDbLine
 10
96.409053
 20
216.050154
 30
0.0
 11
97.264453
 21
229.450754
 31
0.0
  0
LINE
  5
B2
330
1F
100
AcDbEntity
  8
002
 62
     3
370
    30
100
AcDbLine
 10
96.708053
 20
231.145754
 30
0.0
 11
53.412153
 21
231.145754
 31
0.0
  0
LINE
  5
B3
330
1F
100
AcDbEntity
  8
002
 62
     3
370
    30
100
AcDbLine
 10
52.044353
 20
231.475654
 30
0.0
 11
60.174453
 21
227.310954
 31
0.0
  0
ARC
  5
B4
330
1F
100
AcDbEntity
  8
002
 62
     3
370
    30
100
AcDbCircle
 10
63.163353
 20
233.145754
 30
0.0
 40
6.555860615510466
100
AcDbArc
 50
242.876021
 51
280.689287
  0
LINE
  5
B5
330
1F
100
AcDbEntity
  8
002
 62
     3
370
    30
100
AcDbLine
 10
64.379353
 20
226.703654
 30
0.0
 11
86.073553
 21
230.798654
 31
0.0
  0
ARC
  5
B6
330
1F
100
AcDbEntity
  8
002
 62
     3
370
    30
100
AcDbCircle
 10
89.783253
 20
211.145754
 30
0.0
 40
19.99995881245752
100
AcDbArc
 50
90.0
 51
100.689433
  0
LINE
  5
B7
330
1F
100
AcDbEntity
  8
002
 62
     3
370
    30
100
AcDbLine
 10
106.607153
 20
238.793454
 30
0.0
 11
120.007653
 21
239.648754
 31
0.0
  0
LINE
  5
B8
330
1F
100
AcDbEntity
  8
002
 62
     3
370
    30
100
AcDbLine
 10
119.816553
 20
239.648754
 30
0.0
 11
133.217153
 21
238.793454
 31
0.0
  0
LINE
  5
B9
330
1F
100
AcDbEntity
  8
002
 62
     3
370
    30
100
AcDbLine
 10
136.386453
 20
240.094154
 30
0.0
 11
126.978553
 21
240.593554
 31
0.0
  0
ARC
  5
BA
330
1F
100
AcDbEntity
  8
002
 62
     3
370
    30
100
AcDbCircle
 10
127.137553
 20
243.589354
 30
0.0
 40
3.000016439954985
100
AcDbArc
 50
194.957129
 51
266.961917
  0
LINE
  5
BB
330
1F
100
AcDbEntity
  8
002
 62
     3
370
    30
100
AcDbLine
 10
126.137553
 20
244.145754
 30
0.0
 11
143.912153
 21
244.145754
 31
0.0
  0
LINE
  5
BC
330
1F
100
AcDbEntity
  8
002
 62
     3
370
    30
100
AcDbLine
 10
143.912153
 20
244.145754
 30
0.0
 11
143.912153
 21
236.473754
 31
0.0
  0
ARC
  5
BD
330
1F
100
AcDbEntity
  8
002
 62
     3
370
    30
100
AcDbCircle
 10
146.912153
 20
236.473754
 30
0.0
 40
3.000030948173682
100
AcDbArc
 50
180.0
 51
250.502652
  0
LINE
  5
BE
330
1F
100
AcDbEntity
  8
002
 62
     3
370
    30
100
AcDbLine
 10
145.910853
 20
233.645754
 30
0.0
 11
145.910853
 21
198.645754
 31
0.0
  0
LINE
  5
BF
330
1F
100
AcDbEntity
  8
002
 62
     3
370
    30
100
AcDbLine
 10
145.910853
 20
198.645754
 30
0.0
 11
145.885853
 21
198.645754
 31
0.0
  0
ARC
  5
C0
330
1F
100
AcDbEntity
  8
002
 62
     3
370
    30
100
AcDbCircle
 10
145.898353
 20
195.645754
 30
0.0
 40
2.999959536393812
100
AcDbArc
 50
89.761269
 51
155.650251
  0
LINE
  5
C1
330
1F
100
AcDbEntity
  8
002
 62
     3
370
    30
100
AcDbLine
 10
143.860553
 20
199.671454
 30
0.0
 11
144.912153
 21
216.145754
 31
0.0
  0
LINE
  5
C2
330
1F
100
AcDbEntity
  8
002
 62
     3
370
    30
100
AcDbLine
 10
144.912153
 20
216.145754
 30
0.0
 11
143.860553
 21
232.620054
 31
0.0
  0
ARC
  5
C3
330
1F
100
AcDbEntity
  8
002
 62
     3
370
    30
100
AcDbCircle
 10
135.876853
 20
232.110454
 30
0.0
 40
7.999947365451848
100
AcDbArc
 50
3.652238
 51
86.347762
  0
LINE
  5
C4
330
1F
100
AcDbEntity
  8
002
 62
     3
370
    30
100
AcDbLine
 10
137.773653
 20
244.145754
 30
0.0
 11
137.773653
 21
245.145754
 31
0.0
  0
LINE
  5
C5
330
1F
100
AcDbEntity
  8
002
 62
     3
370
    30
100
AcDbLine
 10
137.912153
 20
245.145754
 30
0.0
 11
138.912153
 21
246.145754
 31
0.0
  0
LINE
  5
C6
330
1F
100
AcDbEntity
  8
002
 62
     3
370
    30
100
AcDbLine
 10
138.912153
 20
246.145754
 30
0.0
 11
138.912153
 21
249.145754
 31
0.0
  0
LINE
  5
C7
330
1F
100
AcDbEntity
  8
002
 62
     3
370
    30
100
AcDbLine
 10
138.912153
 20
249.145754
 30
0.0
 11
136.772153
 21
252.059254
 31
0.0
  0
LINE
  5
C8
330
1F
100
AcDbEntity
  8
002
 62
     3
370
    30
100
AcDbLine
 10
136.209653
 20
252.621754
 30
0.0
 11
131.614653
 21
252.621754
 31
0.0
  0
LINE
  5
C9
330
1F
100
AcDbEntity
  8
002
 62
     3
370
    30
100
AcDbLine
 10
131.193053
 20
253.296354
 30
0.0
 11
130.662153
 21
254.145754
 31
0.0
  0
LINE
  5
CA
330
1F
100
AcDbEntity
  8
002
 62
     3
370
    30
100
AcDbLine
 10
130.662153
 20
254.145754
 30
0.0
 11
131.412153
 21
257.145754
 31
0.0
  0
LINE
  5
CB
330
1F
100
AcDbEntity
  8
002
 62
     3
370
    30
100
AcDbLine
 10
131.412153
 20
257.145754
 30
0.0
 11
136.412153
 21
257.145754
 31
0.0
  0
LINE
  5
CC
330
1F
100
AcDbEntity
  8
002
 62
     3
370
    30
100
AcDbLine
 10
136.412153
 20
257.145754
 30
0.0
 11
137.162153
 21
254.145754
 31
0.0
  0
LINE
  5
CD
330
1F
100
AcDbEntity
  8
002
 62
     3
370
    30
100
AcDbLine
 10
137.162153
 20
254.145754
 30
0.0
 11
136.631253
 21
253.296354
 31
0.0
  0
ARC
  5
CE
330
1F
100
AcDbEntity
  8
002
 62
     3
370
    30
100
AcDbCircle
 10
137.479253
 20
252.766354
 30
0.0
 40
0.9999904099540514
100
AcDbArc
 50
147.994617
 51
225.0
  0
LINE
  5
CF
330
1F
100
AcDbEntity
  8
002
 62
     3
370
    30
100
AcDbLine
 10
136.412153
 20
254.145754
 30
0.0
 11
131.412153
 21
254.145754
 31
0.0
  0
ARC
  5
D0
330
1F
100
AcDbEntity
  8
002
 62
     3
370
    30
100
AcDbCircle
 10
130.345053
 20
252.766354
 30
0.0
 40
1.000001999998045
100
AcDbArc
 50
315.0
 51
32.005383
  0
LINE
  5
D1
330
1F
100
AcDbEntity
  8
002
 62
     3
370
    30
100
AcDbLine
 10
131.052153
 20
252.059254
 30
0.0
 11
128.912153
 21
249.145754
 31
0.0
  0
LINE
  5
D2
330
1F
100
AcDbEntity
  8
002
 62
     3
370
    30
100
AcDbLine
 10
128.912153
 20
249.145754
 30
0.0
 11
128.912153
 21
246.145754
 31
0.0
  0
LINE
  5
D3
330
1F
100
AcDbEntity
  8
002
 62
     3
370
    30
100
AcDbLine
 10
128.912153
 20
246.145754
 30
0.0
 11
129.912153
 21
245.145754
 31
0.0
  0
LINE
  5
D4
330
1F
100
AcDbEntity
  8
002
 62
     3
370
    30
100
AcDbLine
 10
129.912153
 20
245.145754
 30
0.0
 11
137.912153
 21
245.145754
 31
0.0
  0
ARC
  5
D5
330
1F
100
AcDbEntity
  8
002
 62
     3
370
    30
100
AcDbCircle
 10
136.412153
 20
246.520754
 30
0.0
 40
3.625
100
AcDbArc
 50
46.397181
 51
133.602819
  0
LINE
  5
D6
330
1F
100
AcDbEntity
  8
002
 62
     3
370
    30
100
AcDbLine
 10
133.912153
 20
249.145754
 30
0.0
 11
133.912153
 21
246.145754
 31
0.0
  0
ARC
  5
D7
330
1F
100
AcDbEntity
  8
002
 62
     3
370
    30
100
AcDbCircle
 10
136.412153
 20
248.770754
 30
0.0
 40
3.625
100
AcDbArc
 50
226.397181
 51
313.602819
  0
ARC
  5
D8
330
1F
100
AcDbEntity
  8
002
 62
     3
370
    30
100
AcDbCircle
 10
131.412153
 20
246.520754
 30
0.0
 40
3.625
100
AcDbArc
 50
46.397181
 51
133.602819
  0
ARC
  5
D9
330
1F
100
AcDbEntity
  8
002
 62
     3
370
    30
100
AcDbCircle
 10
131.412153
 20
248.770754
 30
0.0
 40
3.625
100
AcDbArc
 50
226.397181
 51
313.602819
  0
LINE
  5
DA
330
1F
100
AcDbEntity
  8
002
 62
     3
370
    30
100
AcDbLine
 10
130.050653
 20
245.145754
 30
0.0
 11
130.050653
 21
244.145754
 31
0.0
  0
LINE
  5
DB
330
1F
100
AcDbEntity
  8
002
 62
     3
370
    30
100
AcDbLine
 10
125.412153
 20
244.281954
 30
0.0
 11
125.412153
 21
256.145754
 31
0.0
  0
LINE
  5
DC
330
1F
100
AcDbEntity
  8
002
 62
     3
370
    30
100
AcDbLine
 10
125.412153
 20
256.145754
 30
0.0
 11
50.412153
 21
256.145754
 31
0.0
  0
LINE
  5
DD
330
1F
100
AcDbEntity
  8
002
 62
     3
370
    30
100
AcDbLine
 10
50.412153
 20
256.145754
 30
0.0
 11
50.412153
 21
234.145754
 31
0.0
  0
ARC
  5
DE
330
1F
100
AcDbEntity
  8
002
 62
     3
370
    30
100
AcDbCircle
 10
53.412153
 20
234.145754
 30
0.0
 40
3.0
100
AcDbArc
 50
180.0
 51
270.0
  0
LINE
  5
DF
330
1F
100
AcDbEntity
  8
002
 62
     3
370
    30
100
AcDbLine
 10
51.912153
 20
230.177054
 30
0.0
 11
51.912153
 21
190.114354
 31
0.0
  0
LINE
  5
E0
330
1F
100
AcDbEntity
  8
002
 62
     3
370
    30
100
AcDbLine
 10
53.412153
 20
189.145754
 30
0.0
 11
92.144653
 21
189.145754
 31
0.0
  0
ARC
  5
E1
330
1F
100
AcDbEntity
  8
002
 62
     3
370
    30
100
AcDbCircle
 10
92.144653
 20
194.145754
 30
0.0
 40
4.999954628794093
100
AcDbArc
 50
270.0
 51
3.652247
  0
ARC
  5
E2
330
1F
100
AcDbEntity
  8
002
 62
     3
370
    30
100
AcDbCircle
 10
95.010153
 20
191.061654
 30
0.0
 40
3.000092533572952
100
AcDbArc
 50
270.0
 51
3.652101
  0
LINE
  5
E3
330
1F
100
AcDbEntity
  8
002
 62
     3
370
    30
100
AcDbLine
 10
97.912153
 20
187.145754
 30
0.0
 11
94.545353
 21
187.145754
 31
0.0
  0
LINE
  5
E4
330
1F
100
AcDbEntity
  8
002
 62
     3
370
    30
100
AcDbLine
 10
94.545353
 20
187.145754
 30
0.0
 11
94.545353
 21
186.145754
 31
0.0
  0
LINE
  5
E5
330
1F
100
AcDbEntity
  8
002
 62
     3
370
    30
100
AcDbLine
 10
94.545353
 20
186.145754
 30
0.0
 11
81.278853
 21
186.145754
 31
0.0
  0
LINE
  5
E6
330
1F
100
AcDbEntity
  8
002
 62
     3
370
    30
100
AcDbLine
 10
81.278853
 20
186.145754
 30
0.0
 11
81.278853
 21
187.145754
 31
0.0
  0
LINE
  5
E7
330
1F
100
AcDbEntity
  8
002
 62
     3
370
    30
100
AcDbLine
 10
81.278853
 20
187.145754
 30
0.0
 11
77.912153
 21
187.145754
 31
0.0
  0
ARC
  5
E8
330
1F
100
AcDbEntity
  8
002
 62
     3
370
    30
100
AcDbCircle
 10
77.912153
 20
183.145754
 30
0.0
 40
4.0
100
AcDbArc
 50
90.0
 51
180.0
  0
LINE
  5
E9
330
1F
100
AcDbEntity
  8
002
 62
     3
370
    30
100
AcDbLine
 10
73.912153
 20
183.145754
 30
0.0
 11
73.912153
 21
176.145754
 31
0.0
  0
LINE
  5
EA
330
1F
100
AcDbEntity
  8
002
 62
     3
370
    30
100
AcDbLine
 10
76.252253
 20
172.145754
 30
0.0
 11
76.252253
 21
167.145754
 31
0.0
  0
LINE
  5
EB
330
1F
100
AcDbEntity
  8
002
 62
     3
370
    30
100
AcDbLine
 10
67.752253
 20
167.145754
 30
0.0
 11
67.752253
 21
172.145754
 31
0.0
  0
LINE
  5
EC
330
1F
100
AcDbEntity
  8
002
 62
     3
370
    30
100
AcDbLine
 10
67.358753
 20
169.189354
 30
0.0
 11
67.912153
 21
131.145754
 31
0.0
  0
LINE
  5
ED
330
1F
100
AcDbEntity
  8
002
 62
     3
370
    30
100
AcDbLine
 10
67.912153
 20
131.145754
 30
0.0
 11
107.912153
 21
131.145754
 31
0.0
  0
LINE
  5
EE
330
1F
100
AcDbEntity
  8
002
 62
     3
370
    30
100
AcDbLine
 10
107.912153
 20
131.145754
 30
0.0
 11
108.465453
 21
169.189354
 31
0.0
  0
LINE
  5
EF
330
1F
100
AcDbEntity
  8
002
 62
     3
370
    30
100
AcDbLine
 10
99.572053
 20
167.145754
 30
0.0
 11
99.572053
 21
172.145754
 31
0.0
  0
LINE
  5
F0
330
1F
100
AcDbEntity
  8
002
 62
     3
370
    30
100
AcDbLine
 10
101.912153
 20
176.145754
 30
0.0
 11
101.912153
 21
183.145754
 31
0.0
  0
ARC
  5
F1
330
1F
100
AcDbEntity
  8
002
 62
     3
370
    30
100
AcDbCircle
 10
97.912153
 20
183.145754
 30
0.0
 40
4.0
100
AcDbArc
 50
0.0
 51
90.0
  0
ARC
  5
F2
330
1F
100
AcDbEntity
  8
002
 62
     3
370
    30
100
AcDbCircle
 10
87.912153
 20
125.361354
 30
0.0
 40
62.4129787041125
100
AcDbArc
 50
81.861576
 51
98.138515
  0
LINE
  5
F3
330
1F
100
AcDbEntity
  8
002
 62
     3
370
    30
100
AcDbLine
 10
73.912153
 20
187.145754
 30
0.0
 11
62.912153
 21
189.145754
 31
0.0
  0
LINE
  5
F4
330
1F
100
AcDbEntity
  8
002
 62
     3
370
    30
100
AcDbLine
 10
62.912153
 20
187.145754
 30
0.0
 11
62.912153
 21
176.145754
 31
0.0
  0
LINE
  5
F5
330
1F
100
AcDbEntity
  8
002
 62
     3
370
    30
100
AcDbLine
 10
60.412153
 20
176.145754
 30
0.0
 11
60.412153
 21
172.145754
 31
0.0
  0
LINE
  5
F6
330
1F
100
AcDbEntity
  8
002
 62
     3
370
    30
100
AcDbLine
 10
60.412153
 20
172.145754
 30
0.0
 11
115.412153
 21
172.145754
 31
0.0
  0
LINE
  5
F7
330
1F
100
AcDbEntity
  8
002
 62
     3
370
    30
100
AcDbLine
 10
115.412153
 20
172.145754
 30
0.0
 11
115.412153
 21
176.145754
 31
0.0
  0
LINE
  5
F8
330
1F
100
AcDbEntity
  8
002
 62
     3
370
    30
100
AcDbLine
 10
112.912153
 20
176.145754
 30
0.0
 11
112.912153
 21
187.145754
 31
0.0
  0
LINE
  5
F9
330
1F
100
AcDbEntity
  8
002
 62
     3
370
    30
100
AcDbLine
 10
107.144153
 20
190.600754
 30
0.0
 11
107.144153
 21
190.852754
 31
0.0
  0
LINE
  5
FA
330
1F
100
AcDbEntity
  8
002
 62
     3
370
    30
100
AcDbLine
 10
106.607153
 20
193.498054
 30
0.0
 11
120.007653
 21
192.642654
 31
0.0
  0
LINE
  5
FB
330
1F
100
AcDbEntity
  8
002
 62
     3
370
    30
100
AcDbLine
 10
119.816553
 20
192.642654
 30
0.0
 11
133.217153
 21
193.498054
 31
0.0
  0
ARC
  5
FC
330
1F
100
AcDbEntity
  8
002
 62
     3
370
    30
100
AcDbCircle
 10
132.580153
 20
203.477754
 30
0.0
 40
10.00000905449588
100
AcDbArc
 50
273.652211
 51
356.347789
  0
LINE
  5
FD
330
1F
100
AcDbEntity
  8
002
 62
     3
370
    30
100
AcDbLine
 10
142.559853
 20
202.840754
 30
0.0
 11
143.415153
 21
216.241254
 31
0.0
  0
LINE
  5
FE
330
1F
100
AcDbEntity
  8
002
 62
     3
370
    30
100
AcDbLine
 10
143.415153
 20
216.050154
 30
0.0
 11
142.559853
 21
229.450754
 31
0.0
  0
ARC
  5
FF
330
1F
100
AcDbEntity
  8
002
 62
     3
370
    30
100
AcDbCircle
 10
132.580153
 20
228.813754
 30
0.0
 40
10.00000905449599
100
AcDbArc
 50
3.652211
 51
86.347789
  0
CIRCLE
  5
100
330
1F
100
AcDbEntity
  8
002
 62
     3
370
    30
100
AcDbCircle
 10
119.912153
 20
216.145754
 30
0.0
 40
17.5
  0
LINE
  5
101
330
1F
100
AcDbEntity
  8
002
 62
     3
370
    30
100
AcDbLine
 10
122.412153
 20
220.895754
 30
0.0
 11
122.162153
 21
220.645754
 31
0.0
  0
LINE
  5
102
330
1F
100
AcDbEntity
  8
002
 62
     3
370
    30
100
AcDbLine
 10
122.162153
 20
220.645754
 30
0.0
 11
117.662153
 21
220.645754
 31
0.0
  0
LINE
  5
103
330
1F
100
AcDbEntity
  8
002
 62
     3
370
    30
100
AcDbLine
 10
117.662153
 20
220.645754
 30
0.0
 11
117.412153
 21
220.895754
 31
0.0
  0
LINE
  5
104
330
1F
100
AcDbEntity
  8
002
 62
     3
370
    30
100
AcDbLine
 10
117.412153
 20
220.895754
 30
0.0
 11
117.412153
 21
225.395754
 31
0.0
  0
LINE
  5
105
330
1F
100
AcDbEntity
  8
002
 62
     3
370
    30
100
AcDbLine
 10
117.412153
 20
225.395754
 30
0.0
 11
117.662153
 21
225.645754
 31
0.0
  0
LINE
  5
106
330
1F
100
AcDbEntity
  8
002
 62
     3
370
    30
100
AcDbLine
 10
117.662153
 20
225.645754
 30
0.0
 11
122.162153
 21
225.645754
 31
0.0
  0
LINE
  5
107
330
1F
100
AcDbEntity
  8
002
 62
     3
370
    30
100
AcDbLine
 10
122.162153
 20
225.645754
 30
0.0
 11
122.412153
 21
225.395754
 31
0.0
  0
LINE
  5
108
330
1F
100
AcDbEntity
  8
002
 62
     3
370
    30
100
AcDbLine
 10
122.412153
 20
225.395754
 30
0.0
 11
122.412153
 21
220.895754
 31
0.0
  0
ARC
  5
109
330
1F
100
AcDbEntity
  8
002
 62
     3
370
    30
100
AcDbCircle
 10
122.212153
 20
220.845754
 30
0.0
 40
0.2000000000000455
100
AcDbArc
 50
270.0
 51
0.0
  0
ARC
  5
10A
330
1F
100
AcDbEntity
  8
002
 62
     3
370
    30
100
AcDbCircle
 10
117.612153
 20
220.845754
 30
0.0
 40
0.1999999999999318
100
AcDbArc
 50
180.0
 51
270.0
  0
ARC
  5
10B
330
1F
100
AcDbEntity
  8
002
 62
     3
370
    30
100
AcDbCircle
 10
119.912153
 20
216.145754
 30
0.0
 40
7.499936066394084
100
AcDbArc
 50
109.471393
 51
70.528607
  0
ARC
  5
10C
330
1F
100
AcDbEntity
  8
002
 62
     3
370
    30
100
AcDbCircle
 10
119.912153
 20
216.145754
 30
0.0
 40
8.499963294038306
100
AcDbArc
 50
107.104711
 51
72.895289
  0
LINE
  5
10D
330
1F
100
AcDbEntity
  8
002
 62
     3
370
    30
100
AcDbLine
 10
121.424753
 20
240.483454
 30
0.0
 11
119.642953
 21
240.312054
 31
0.0
  0
LINE
  5
10E
330
1F
100
AcDbEntity
  8
002
 62
     3
370
    30
100
AcDbLine
 10
119.642953
 20
240.312054
 30
0.0
 11
104.225953
 21
239.306054
 31
0.0
  0
ARC
  5
10F
330
1F
100
AcDbEntity
  8
002
 62
     3
370
    30
100
AcDbCircle
 10
107.244153
 20
228.813754
 30
0.0
 40
10.000009054496
100
AcDbArc
 50
93.652211
 51
176.347789
  0
ARC
  5
110
330
1F
100
AcDbEntity
  8
002
 62
     3
370
    30
100
AcDbCircle
 10
121.137553
 20
243.469654
 30
0.0
 40
2.999998641666374
100
AcDbArc
 50
275.493568
 51
347.987011
  0
ARC
  5
111
330
1F
100
AcDbEntity
  8
002
 62
     3
370
    30
100
AcDbCircle
 10
126.137553
 20
246.145754
 30
0.0
 40
2.0
100
AcDbArc
 50
180.0
 51
270.0
  0
LINE
  5
112
330
1F
100
AcDbEntity
  8
002
 62
     3
370
    30
100
AcDbLine
 10
125.412153
 20
246.145754
 30
0.0
 11
50.412153
 21
246.145754
 31
0.0
  0
LINE
  5
113
330
1F
100
AcDbEntity
  8
002
 62
     3
370
    30
100
AcDbLine
 10
58.163353
 20
256.145754
 30
0.0
 11
58.163353
 21
262.145754
 31
0.0
  0
LINE
  5
114
330
1F
100
AcDbEntity
  8
002
 62
     3
370
    30
100
AcDbLine
 10
58.163353
 20
262.145754
 30
0.0
 11
68.163353
 21
262.145754
 31
0.0
  0
LINE
  5
115
330
1F
100
AcDbEntity
  8
002
 62
     3
370
    30
100
AcDbLine
 10
68.163353
 20
262.145754
 30
0.0
 11
68.163353
 21
256.145754
 31
0.0
  0
ARC
  5
116
330
1F
100
AcDbEntity
  8
002
 62
     3
370
    30
100
AcDbCircle
 10
48.912153
 20
230.177054
 30
0.0
 40
3.00005722612082
100
AcDbArc
 50
0.0
 51
41.410861
  0
ARC
  5
117
330
1F
100
AcDbEntity
  8
002
 62
     3
370
    30
100
AcDbCircle
 10
53.412153
 20
186.145754
 30
0.0
 40
3.0
100
AcDbArc
 50
90.0
 51
180.0
  0
LINE
  5
118
330
1F
100
AcDbEntity
  8
002
 62
     3
370
    30
100
AcDbLine
 10
50.412153
 20
186.145754
 30
0.0
 11
50.412153
 21
176.145754
 31
0.0
  0
LINE
  5
119
330
1F
100
AcDbEntity
  8
002
 62
     3
370
    30
100
AcDbLine
 10
50.412153
 20
176.145754
 30
0.0
 11
125.412153
 21
176.145754
 31
0.0
  0
LINE
  5
11A
330
1F
100
AcDbEntity
  8
002
 62
     3
370
    30
100
AcDbLine
 10
125.412153
 20
176.145754
 30
0.0
 11
125.412153
 21
186.805754
 31
0.0
  0
LINE
  5
11B
330
1F
100
AcDbEntity
  8
002
 62
     3
370
    30
100
AcDbLine
 10
130.093653
 20
191.795654
 30
0.0
 11
136.386453
 21
192.197254
 31
0.0
  0
ARC
  5
11C
330
1F
100
AcDbEntity
  8
002
 62
     3
370
    30
100
AcDbCircle
 10
135.876853
 20
200.181054
 30
0.0
 40
7.999947365451848
100
AcDbArc
 50
273.652192
 51
356.347762
  0
ARC
  5
11D
330
1F
100
AcDbEntity
  8
002
 62
     3
370
    30
100
AcDbCircle
 10
119.912153
 20
215.101354
 30
0.0
 40
15.66944001073435
100
AcDbArc
 50
306.867484
 51
233.132223
  0
ARC
  5
11E
330
1F
100
AcDbEntity
  8
002
 62
     3
370
    30
100
AcDbCircle
 10
112.010953
 20
204.565554
 30
0.0
 40
2.499984673952992
100
AcDbArc
 50
233.131477
 51
314.849286
  0
CIRCLE
  5
11F
330
1F
100
AcDbEntity
  8
002
 62
     3
370
    30
100
AcDbCircle
 10
115.537153
 20
201.020754
 30
0.0
 40
1.09375
  0
ARC
  5
120
330
1F
100
AcDbEntity
  8
002
 62
     3
370
    30
100
AcDbCircle
 10
115.537153
 20
201.020754
 30
0.0
 40
2.499984673953032
100
AcDbArc
 50
0.0
 51
134.849286
  0
LINE
  5
121
330
1F
100
AcDbEntity
  8
002
 62
     3
370
    30
100
AcDbLine
 10
118.037153
 20
201.020754
 30
0.0
 11
118.037153
 21
198.774154
 31
0.0
  0
LINE
  5
122
330
1F
100
AcDbEntity
  8
002
 62
     3
370
    30
100
AcDbLine
 10
121.787153
 20
198.774154
 30
0.0
 11
121.787153
 21
201.020754
 31
0.0
  0
CIRCLE
  5
123
330
1F
100
AcDbEntity
  8
002
 62
     3
370
    30
100
AcDbCircle
 10
124.287153
 20
201.020754
 30
0.0
 40
1.09375
  0
ARC
  5
124
330
1F
100
AcDbEntity
  8
002
 62
     3
370
    30
100
AcDbCircle
 10
127.813353
 20
204.565554
 30
0.0
 40
2.500020003919964
100
AcDbArc
 50
225.150714
 51
306.866689
  0
ARC
  5
125
330
1F
100
AcDbEntity
  8
002
 62
     3
370
    30
100
AcDbCircle
 10
124.287153
 20
201.020754
 30
0.0
 40
2.5
100
AcDbArc
 50
45.150714
 51
180.0
  0
ARC
  5
126
330
1F
100
AcDbEntity
  8
002
 62
     3
370
    30
100
AcDbCircle
 10
130.412153
 20
186.805754
 30
0.0
 40
5.0
100
AcDbArc
 50
93.652174
 51
180.0
  0
ARC
  5
127
330
1F
100
AcDbEntity
  8
002
 62
     3
370
    30
100
AcDbCircle
 10
111.465153
 20
169.145754
 30
0.0
 40
3.000016841619469
100
AcDbArc
 50
90.0
 51
179.167277
  0
LINE
  5
128
330
1F
100
AcDbEntity
  8
002
 62
     3
370
    30
100
AcDbLine
 10
108.072053
 20
167.145754
 30
0.0
 11
108.072053
 21
172.145754
 31
0.0
  0
LINE
  5
129
330
1F
100
AcDbEntity
  8
002
 62
     3
370
    30
100
AcDbLine
 10
108.072053
 20
167.145754
 30
0.0
 11
99.572053
 21
167.145754
 31
0.0
  0
LINE
  5
12A
330
1F
100
AcDbEntity
  8
002
 62
     3
370
    30
100
AcDbLine
 10
101.912153
 20
187.145754
 30
0.0
 11
104.680753
 21
187.649154
 31
0.0
  0
ARC
  5
12B
330
1F
100
AcDbEntity
  8
002
 62
     3
370
    30
100
AcDbCircle
 10
104.144153
 20
190.600754
 30
0.0
 40
3.0
100
AcDbArc
 50
280.303822
 51
0.0
  0
ARC
  5
12C
330
1F
100
AcDbEntity
  8
002
 62
     3
370
    30
100
AcDbCircle
 10
107.244153
 20
203.477754
 30
0.0
 40
10.00000905449594
100
AcDbArc
 50
183.652211
 51
266.347789
  0
LINE
  5
12D
330
1F
100
AcDbEntity
  8
002
 62
     3
370
    30
100
AcDbLine
 10
76.252253
 20
167.145754
 30
0.0
 11
67.752253
 21
167.145754
 31
0.0
  0
ARC
  5
12E
330
1F
100
AcDbEntity
  8
002
 62
     3
370
    30
100
AcDbCircle
 10
64.359053
 20
169.145754
 30
0.0
 40
3.0
100
AcDbArc
 50
0.832723
 51
90.0
  0
ARC
  5
12F
330
1F
100
AcDbEntity
  8
002
 62
     3
370
    30
100
AcDbCircle
 10
48.912153
 20
190.114354
 30
0.0
 40
3.0
100
AcDbArc
 50
318.590571
 51
0.0
  0
ARC
  5
130
330
1F
100
AcDbEntity
  8
002
 62
     3
370
    30
100
AcDbCircle
 10
133.912153
 20
256.484254
 30
0.0
 40
1.000041124154433
100
AcDbArc
 50
41.412294
 51
138.587706
  0
LINE
  5
131
330
1F
100
AcDbEntity
  8
002
  6
DASHED
370
     9
100
AcDbLine
 10
99.912153
 20
186.145754
 30
0.0
 11
99.912153
 21
186.609854
 31
0.0
  0
LINE
  5
132
330
1F
100
AcDbEntity
  8
002
  6
CENTER
 62
    40
370
     9
100
AcDbLine
 10
72.002253
 20
178.145754
 30
0.0
 11
72.002253
 21
164.424154
 31
0.0
  0
LINE
  5
133
330
1F
100
AcDbEntity
  8
002
  6
CENTER
 62
    40
370
     9
100
AcDbLine
 10
103.822053
 20
164.424154
 30
0.0
 11
103.822053
 21
178.145754
 31
0.0
  0
LINE
  5
134
330
1F
100
AcDbEntity
  8
002
  6
DASHED
 62
    40
370
     9
100
AcDbLine
 10
75.912153
 20
186.145754
 30
0.0
 11
75.912153
 21
186.609854
 31
0.0
  0
LINE
  5
135
330
1F
100
AcDbEntity
  8
002
  6
CENTER
 62
    40
370
     9
100
AcDbLine
 10
119.912153
 20
264.706254
 30
0.0
 11
119.912153
 21
168.102554
 31
0.0
  0
LINE
  5
136
330
1F
100
AcDbEntity
  8
002
  6
CENTER
 62
    40
370
     9
100
AcDbLine
 10
63.163353
 20
266.645754
 30
0.0
 11
63.163353
 21
240.312054
 31
0.0
  0
LINE
  5
137
330
1F
100
AcDbEntity
  8
002
  6
CENTER
 62
    40
370
     9
100
AcDbLine
 10
112.660853
 20
240.312054
 30
0.0
 11
112.660853
 21
266.645754
 31
0.0
  0
LINE
  5
138
330
1F
100
AcDbEntity
  8
002
  6
CENTER
 62
    40
370
     9
100
AcDbLine
 10
42.796753
 20
216.145754
 30
0.0
 11
154.843953
 21
216.145754
 31
0.0
  0
LINE
  5
139
330
1F
100
AcDbEntity
  8
002
  6
CENTER
 62
    40
370
     9
100
AcDbLine
 10
133.912153
 20
241.404054
 30
0.0
 11
133.912153
 21
259.749754
 31
0.0
  0
LINE
  5
13A
330
1F
100
AcDbEntity
  8
002
  6
CENTER
 62
    40
370
     9
100
AcDbLine
 10
96.685153
 20
306.645754
 30
0.0
 11
79.511853
 21
306.645754
 31
0.0
  0
LINE
  5
13B
330
1F
100
AcDbEntity
  8
002
  6
HIDDEN
 62
    40
370
     9
100
AcDbLine
 10
93.412153
 20
186.145754
 30
0.0
 11
93.412153
 21
176.145754
 31
0.0
  0
LINE
  5
13C
330
1F
100
AcDbEntity
  8
002
  6
HIDDEN
 62
    40
370
     9
100
AcDbLine
 10
99.912153
 20
186.145754
 30
0.0
 11
94.545353
 21
186.145754
 31
0.0
  0
LINE
  5
13D
330
1F
100
AcDbEntity
  8
002
  6
HIDDEN
 62
    40
370
     9
100
AcDbLine
 10
82.412153
 20
176.145754
 30
0.0
 11
82.412153
 21
186.145754
 31
0.0
  0
LINE
  5
13E
330
1F
100
AcDbEntity
  8
002
  6
HIDDEN
 62
    40
370
     9
100
AcDbLine
 10
81.278853
 20
186.145754
 30
0.0
 11
75.912153
 21
186.145754
 31
0.0
  0
LINE
  5
13F
330
1F
100
AcDbEntity
  8
002
 62
     3
370
    30
100
AcDbLine
 10
94.912153
 20
439.445754
 30
0.0
 11
94.912153
 21
422.445754
 31
0.0
  0
LINE
  5
140
330
1F
100
AcDbEntity
  8
002
 62
     3
370
    30
100
AcDbLine
 10
94.912153
 20
422.445754
 30
0.0
 11
80.912153
 21
422.445754
 31
0.0
  0
LINE
  5
141
330
1F
100
AcDbEntity
  8
002
 62
     3
370
    30
100
AcDbLine
 10
80.912153
 20
439.445754
 30
0.0
 11
80.912153
 21
422.445754
 31
0.0
  0
LINE
  5
142
330
1F
100
AcDbEntity
  8
002
 62
     3
370
    30
100
AcDbLine
 10
94.912153
 20
439.445754
 30
0.0
 11
80.912153
 21
439.445754
 31
0.0
  0
LINE
  5
143
330
1F
100
AcDbEntity
  8
002
 62
     3
370
    30
100
AcDbLine
 10
93.762153
 20
422.445754
 30
0.0
 11
93.762153
 21
419.445754
 31
0.0
  0
LINE
  5
144
330
1F
100
AcDbEntity
  8
002
 62
     3
370
    30
100
AcDbLine
 10
77.912453
 20
419.445754
 30
0.0
 11
97.912453
 21
419.445754
 31
0.0
  0
LINE
  5
145
330
1F
100
AcDbEntity
  8
002
 62
     3
370
    30
100
AcDbLine
 10
82.062153
 20
419.445754
 30
0.0
 11
82.062153
 21
422.445754
 31
0.0
  0
LINE
  5
146
330
1F
100
AcDbEntity
  8
002
 62
    40
370
     9
100
AcDbLine
 10
81.962153
 20
439.445754
 30
0.0
 11
81.962153
 21
422.445754
 31
0.0
  0
LINE
  5
147
330
1F
100
AcDbEntity
  8
002
 62
    40
370
     9
100
AcDbLine
 10
93.862153
 20
422.445754
 30
0.0
 11
93.862153
 21
439.445754
 31
0.0
  0
LINE
  5
148
330
1F
100
AcDbEntity
  8
002
 62
     3
370
    30
100
AcDbLine
 10
69.912153
 20
76.145754
 30
0.0
 11
105.912153
 21
76.145754
 31
0.0
  0
LINE
  5
149
330
1F
100
AcDbEntity
  8
002
 62
     3
370
    30
100
AcDbLine
 10
105.912153
 20
76.145754
 30
0.0
 11
105.912153
 21
59.145754
 31
0.0
  0
LINE
  5
14A
330
1F
100
AcDbEntity
  8
002
 62
     3
370
    30
100
AcDbLine
 10
102.912153
 20
56.145754
 30
0.0
 11
72.912153
 21
56.145754
 31
0.0
  0
LINE
  5
14B
330
1F
100
AcDbEntity
  8
002
 62
     3
370
    30
100
AcDbLine
 10
69.912153
 20
59.145754
 30
0.0
 11
69.912153
 21
76.145754
 31
0.0
  0
ARC
  5
14C
330
1F
100
AcDbEntity
  8
002
 62
     3
370
    30
100
AcDbCircle
 10
72.912153
 20
59.145754
 30
0.0
 40
3.0
100
AcDbArc
 50
180.0
 51
270.0
  0
ARC
  5
14D
330
1F
100
AcDbEntity
  8
002
 62
     3
370
    30
100
AcDbCircle
 10
102.912153
 20
59.145754
 30
0.0
 40
3.0
100
AcDbArc
 50
270.0
 51
0.0
  0
LINE
  5
14E
330
1F
100
AcDbEntity
  8
002
 62
     3
370
    30
100
AcDbLine
 10
113.412153
 20
647.829919
 30
0.0
 11
126.412153
 21
647.829919
 31
0.0
  0
LINE
  5
14F
330
1F
100
AcDbEntity
  8
002
 62
     3
370
    30
100
AcDbLine
 10
126.412153
 20
647.829919
 30
0.0
 11
127.412153
 21
648.829919
 31
0.0
  0
LINE
  5
150
330
1F
100
AcDbEntity
  8
002
 62
     3
370
    30
100
AcDbLine
 10
127.412153
 20
648.829919
 30
0.0
 11
127.412153
 21
680.829919
 31
0.0
  0
LINE
  5
151
330
1F
100
AcDbEntity
  8
002
 62
     3
370
    30
100
AcDbLine
 10
111.412153
 20
680.829919
 30
0.0
 11
128.412153
 21
680.829919
 31
0.0
  0
LINE
  5
152
330
1F
100
AcDbEntity
  8
002
 62
     3
370
    30
100
AcDbLine
 10
112.412153
 20
680.829919
 30
0.0
 11
112.412153
 21
648.829919
 31
0.0
  0
LINE
  5
153
330
1F
100
AcDbEntity
  8
002
 62
     3
370
    30
100
AcDbLine
 10
112.412153
 20
648.829919
 30
0.0
 11
113.412153
 21
647.829919
 31
0.0
  0
LINE
  5
154
330
1F
100
AcDbEntity
  8
002
 62
     3
370
    30
100
AcDbLine
 10
112.412153
 20
648.829919
 30
0.0
 11
117.412153
 21
648.829919
 31
0.0
  0
LINE
  5
155
330
1F
100
AcDbEntity
  8
002
 62
     3
370
    30
100
AcDbLine
 10
117.412153
 20
647.829919
 30
0.0
 11
117.412153
 21
675.329919
 31
0.0
  0
LINE
  5
156
330
1F
100
AcDbEntity
  8
002
 62
     3
370
    30
100
AcDbLine
 10
122.412153
 20
675.329919
 30
0.0
 11
122.412153
 21
647.829919
 31
0.0
  0
LINE
  5
157
330
1F
100
AcDbEntity
  8
002
 62
     3
370
    30
100
AcDbLine
 10
122.412153
 20
648.829919
 30
0.0
 11
127.412153
 21
648.829919
 31
0.0
  0
LINE
  5
158
330
1F
100
AcDbEntity
  8
002
 62
     3
370
    30
100
AcDbLine
 10
122.412153
 20
669.829919
 30
0.0
 11
117.412153
 21
669.829919
 31
0.0
  0
ARC
  5
159
330
1F
100
AcDbEntity
  8
002
 62
     3
370
    30
100
AcDbCircle
 10
119.912153
 20
675.329919
 30
0.0
 40
2.5
100
AcDbArc
 50
0.0
 51
180.0
  0
LINE
  5
15A
330
1F
100
AcDbEntity
  8
002
 62
     3
370
    30
100
AcDbLine
 10
111.412153
 20
680.829919
 30
0.0
 11
111.412153
 21
682.829919
 31
0.0
  0
LINE
  5
15B
330
1F
100
AcDbEntity
  8
002
 62
     3
370
    30
100
AcDbLine
 10
128.412153
 20
680.829919
 30
0.0
 11
128.412153
 21
682.829919
 31
0.0
  0
LINE
  5
15C
330
1F
100
AcDbEntity
  8
002
 62
     3
370
    30
100
AcDbLine
 10
143.412153
 20
682.829919
 30
0.0
 11
144.912153
 21
732.829619
 31
0.0
  0
LINE
  5
15D
330
1F
100
AcDbEntity
  8
002
 62
     3
370
    30
100
AcDbLine
 10
144.912153
 20
732.829619
 30
0.0
 11
143.412153
 21
782.829619
 31
0.0
  0
LINE
  5
15E
330
1F
100
AcDbEntity
  8
002
 62
     3
370
    30
100
AcDbLine
 10
143.412153
 20
782.829619
 30
0.0
 11
96.412153
 21
782.829619
 31
0.0
  0
LINE
  5
15F
330
1F
100
AcDbEntity
  8
002
 62
     3
370
    30
100
AcDbLine
 10
96.412153
 20
782.829619
 30
0.0
 11
96.018953
 21
774.965619
 31
0.0
  0
CIRCLE
  5
160
330
1F
100
AcDbEntity
  8
002
 62
     3
370
    30
100
AcDbCircle
 10
112.660953
 20
757.578619
 30
0.0
 40
5.0
  0
LINE
  5
161
330
1F
100
AcDbEntity
  8
002
 62
     3
370
    30
100
AcDbLine
 10
114.104253
 20
760.078619
 30
0.0
 11
115.547653
 21
757.578619
 31
0.0
  0
LINE
  5
162
330
1F
100
AcDbEntity
  8
002
 62
     3
370
    30
100
AcDbLine
 10
115.547653
 20
757.578619
 30
0.0
 11
114.104253
 21
755.078619
 31
0.0
  0
LINE
  5
163
330
1F
100
AcDbEntity
  8
002
 62
     3
370
    30
100
AcDbLine
 10
114.104253
 20
755.078619
 30
0.0
 11
111.217553
 21
755.078619
 31
0.0
  0
LINE
  5
164
330
1F
100
AcDbEntity
  8
002
 62
     3
370
    30
100
AcDbLine
 10
111.217553
 20
755.078619
 30
0.0
 11
109.774153
 21
757.578619
 31
0.0
  0
LINE
  5
165
330
1F
100
AcDbEntity
  8
002
 62
     3
370
    30
100
AcDbLine
 10
109.774153
 20
757.578619
 30
0.0
 11
111.217553
 21
760.078619
 31
0.0
  0
LINE
  5
166
330
1F
100
AcDbEntity
  8
002
 62
     3
370
    30
100
AcDbLine
 10
111.217553
 20
760.078619
 30
0.0
 11
114.104253
 21
760.078619
 31
0.0
  0
LINE
  5
167
330
1F
100
AcDbEntity
  8
002
 62
     3
370
    30
100
AcDbLine
 10
120.308553
 20
761.342619
 30
0.0
 11
124.634953
 21
740.425619
 31
0.0
  0
LINE
  5
168
330
1F
100
AcDbEntity
  8
002
 62
     3
370
    30
100
AcDbLine
 10
128.209253
 20
742.829619
 30
0.0
 11
133.912153
 21
742.829619
 31
0.0
  0
LINE
  5
169
330
1F
100
AcDbEntity
  8
002
 62
     3
370
    30
100
AcDbLine
 10
133.912153
 20
738.603619
 30
0.0
 11
138.912153
 21
735.716619
 31
0.0
  0
LINE
  5
16A
330
1F
100
AcDbEntity
  8
002
 62
     3
370
    30
100
AcDbLine
 10
138.912153
 20
735.716619
 30
0.0
 11
138.912153
 21
729.943119
 31
0.0
  0
LINE
  5
16B
330
1F
100
AcDbEntity
  8
002
 62
     3
370
    30
100
AcDbLine
 10
138.912153
 20
729.943119
 30
0.0
 11
133.912153
 21
727.056419
 31
0.0
  0
LINE
  5
16C
330
1F
100
AcDbEntity
  8
002
 62
     3
370
    30
100
AcDbLine
 10
133.912153
 20
727.056419
 30
0.0
 11
128.912153
 21
729.943119
 31
0.0
  0
LINE
  5
16D
330
1F
100
AcDbEntity
  8
002
 62
     3
370
    30
100
AcDbLine
 10
128.912153
 20
729.943119
 30
0.0
 11
128.912153
 21
735.716619
 31
0.0
  0
LINE
  5
16E
330
1F
100
AcDbEntity
  8
002
 62
     3
370
    30
100
AcDbLine
 10
128.912153
 20
735.716619
 30
0.0
 11
133.912153
 21
738.603619
 31
0.0
  0
CIRCLE
  5
16F
330
1F
100
AcDbEntity
  8
002
 62
     3
370
    30
100
AcDbCircle
 10
133.912153
 20
732.829619
 30
0.0
 40
5.0
  0
CIRCLE
  5
170
330
1F
100
AcDbEntity
  8
002
 62
     3
370
    30
100
AcDbCircle
 10
133.912153
 20
732.829619
 30
0.0
 40
3.25
  0
CIRCLE
  5
171
330
1F
100
AcDbEntity
  8
002
 62
     3
370
    30
100
AcDbCircle
 10
133.912153
 20
732.829619
 30
0.0
 40
2.5
  0
CIRCLE
  5
172
330
1F
100
AcDbEntity
  8
002
 62
     3
370
    30
100
AcDbCircle
 10
133.912153
 20
732.829619
 30
0.0
 40
0.75
  0
ARC
  5
173
330
1F
100
AcDbEntity
  8
002
 62
     3
370
    30
100
AcDbCircle
 10
133.912153
 20
732.829619
 30
0.0
 40
10.0
100
AcDbArc
 50
270.0
 51
90.0
  0
ARC
  5
174
330
1F
100
AcDbEntity
  8
002
 62
     3
370
    30
100
AcDbCircle
 10
128.209253
 20
747.829619
 30
0.0
 40
5.0
100
AcDbArc
 50
191.677606
 51
270.0
  0
LINE
  5
175
330
1F
100
AcDbEntity
  8
002
 62
     3
370
    30
100
AcDbLine
 10
124.634953
 20
725.234419
 30
0.0
 11
120.308553
 21
704.317119
 31
0.0
  0
LINE
  5
176
330
1F
100
AcDbEntity
  8
002
 62
     3
370
    30
100
AcDbLine
 10
116.424953
 20
700.433519
 30
0.0
 11
95.507653
 21
696.107119
 31
0.0
  0
ARC
  5
177
330
1F
100
AcDbEntity
  8
002
 62
     3
370
    30
100
AcDbCircle
 10
91.025253
 20
690.444019
 30
0.0
 40
5.000035524873859
100
AcDbArc
 50
2.862577
 51
94.201223
  0
LINE
  5
178
330
1F
100
AcDbEntity
  8
002
 62
     3
370
    30
100
AcDbLine
 10
96.018953
 20
690.693719
 30
0.0
 11
96.412153
 21
682.829919
 31
0.0
  0
LINE
  5
179
330
1F
100
AcDbEntity
  8
002
 62
     3
370
    30
100
AcDbLine
 10
96.412153
 20
682.829919
 30
0.0
 11
143.412153
 21
682.829919
 31
0.0
  0
LINE
  5
17A
330
1F
100
AcDbEntity
  8
002
 62
     3
370
    30
100
AcDbLine
 10
144.088053
 20
705.359819
 30
0.0
 11
145.087653
 21
705.329919
 31
0.0
  0
LINE
  5
17B
330
1F
100
AcDbEntity
  8
002
 62
     3
370
    30
100
AcDbLine
 10
145.087653
 20
705.329919
 30
0.0
 11
145.911753
 21
732.799619
 31
0.0
  0
LINE
  5
17C
330
1F
100
AcDbEntity
  8
002
 62
     3
370
    30
100
AcDbLine
 10
145.911753
 20
732.859619
 30
0.0
 11
145.087653
 21
760.329619
 31
0.0
  0
LINE
  5
17D
330
1F
100
AcDbEntity
  8
002
 62
     3
370
    30
100
AcDbLine
 10
145.087653
 20
760.329619
 30
0.0
 11
144.088053
 21
760.299619
 31
0.0
  0
ARC
  5
17E
330
1F
100
AcDbEntity
  8
002
 62
     3
370
    30
100
AcDbCircle
 10
115.412153
 20
760.329619
 30
0.0
 40
5.000637243392016
100
AcDbArc
 50
11.688827
 51
78.314809
  0
LINE
  5
17F
330
1F
100
AcDbEntity
  8
002
 62
     3
370
    30
100
AcDbLine
 10
65.663753
 20
756.135619
 30
0.0
 11
65.663753
 21
759.021619
 31
0.0
  0
LINE
  5
180
330
1F
100
AcDbEntity
  8
002
 62
     3
370
    30
100
AcDbLine
 10
65.663753
 20
759.021619
 30
0.0
 11
63.163753
 21
760.465619
 31
0.0
  0
LINE
  5
181
330
1F
100
AcDbEntity
  8
002
 62
     3
370
    30
100
AcDbLine
 10
63.163753
 20
760.465619
 30
0.0
 11
60.663753
 21
759.021619
 31
0.0
  0
LINE
  5
182
330
1F
100
AcDbEntity
  8
002
 62
     3
370
    30
100
AcDbLine
 10
60.663753
 20
759.021619
 30
0.0
 11
60.663753
 21
756.135619
 31
0.0
  0
LINE
  5
183
330
1F
100
AcDbEntity
  8
002
 62
     3
370
    30
100
AcDbLine
 10
60.663753
 20
756.135619
 30
0.0
 11
63.163753
 21
754.691619
 31
0.0
  0
LINE
  5
184
330
1F
100
AcDbEntity
  8
002
 62
     3
370
    30
100
AcDbLine
 10
63.163753
 20
754.691619
 30
0.0
 11
65.663753
 21
756.135619
 31
0.0
  0
CIRCLE
  5
185
330
1F
100
AcDbEntity
  8
002
 62
     3
370
    30
100
AcDbCircle
 10
63.163753
 20
757.578619
 30
0.0
 40
5.0
  0
LINE
  5
186
330
1F
100
AcDbEntity
  8
002
 62
     3
370
    30
100
AcDbLine
 10
64.342753
 20
766.248619
 30
0.0
 11
72.349053
 21
796.854619
 31
0.0
  0
ARC
  5
187
330
1F
100
AcDbEntity
  8
002
 62
     3
370
    30
100
AcDbCircle
 10
80.088653
 20
794.829619
 30
0.0
 40
8.000127071490821
100
AcDbArc
 50
90.0
 51
165.337727
  0
LINE
  5
188
330
1F
100
AcDbEntity
  8
002
 62
     3
370
    30
100
AcDbLine
 10
80.088653
 20
802.829619
 30
0.0
 11
95.735753
 21
802.829619
 31
0.0
  0
CIRCLE
  5
189
330
1F
100
AcDbEntity
  8
002
 62
     3
370
    30
100
AcDbCircle
 10
87.912153
 20
792.829619
 30
0.0
 40
5.5
  0
ARC
  5
18A
330
1F
100
AcDbEntity
  8
002
 62
     3
370
    30
100
AcDbCircle
 10
87.912153
 20
792.829619
 30
0.0
 40
12.00002787038428
100
AcDbArc
 50
123.557112
 51
56.44249
  0
ARC
  5
18B
330
1F
100
AcDbEntity
  8
002
 62
     3
370
    30
100
AcDbCircle
 10
95.735753
 20
794.829619
 30
0.0
 40
8.0
100
AcDbArc
 50
14.662273
 51
90.0
  0
LINE
  5
18C
330
1F
100
AcDbEntity
  8
002
 62
     3
370
    30
100
AcDbLine
 10
103.475353
 20
796.854619
 30
0.0
 11
107.144153
 21
782.829619
 31
0.0
  0
LINE
  5
18D
330
1F
100
AcDbEntity
  8
002
 62
     3
370
    30
100
AcDbLine
 10
111.412153
 20
784.829619
 30
0.0
 11
111.412153
 21
782.829619
 31
0.0
  0
LINE
  5
18E
330
1F
100
AcDbEntity
  8
002
 62
     3
370
    30
100
AcDbLine
 10
128.412153
 20
784.829619
 30
0.0
 11
128.412153
 21
782.829619
 31
0.0
  0
LINE
  5
18F
330
1F
100
AcDbEntity
  8
002
 62
     3
370
    30
100
AcDbLine
 10
111.412153
 20
784.829619
 30
0.0
 11
128.412153
 21
784.829619
 31
0.0
  0
LINE
  5
190
330
1F
100
AcDbEntity
  8
002
 62
     3
370
    30
100
AcDbLine
 10
112.412153
 20
784.829619
 30
0.0
 11
112.412153
 21
816.829619
 31
0.0
  0
LINE
  5
191
330
1F
100
AcDbEntity
  8
002
 62
     3
370
    30
100
AcDbLine
 10
112.412153
 20
816.829619
 30
0.0
 11
113.412153
 21
817.829619
 31
0.0
  0
LINE
  5
192
330
1F
100
AcDbEntity
  8
002
 62
     3
370
    30
100
AcDbLine
 10
113.412153
 20
817.829619
 30
0.0
 11
126.412153
 21
817.829619
 31
0.0
  0
LINE
  5
193
330
1F
100
AcDbEntity
  8
002
 62
     3
370
    30
100
AcDbLine
 10
126.412153
 20
817.829619
 30
0.0
 11
127.412153
 21
816.829619
 31
0.0
  0
LINE
  5
194
330
1F
100
AcDbEntity
  8
002
 62
     3
370
    30
100
AcDbLine
 10
127.412153
 20
816.829619
 30
0.0
 11
127.412153
 21
784.829619
 31
0.0
  0
LINE
  5
195
330
1F
100
AcDbEntity
  8
002
 62
     3
370
    30
100
AcDbLine
 10
122.412153
 20
790.329619
 30
0.0
 11
122.412153
 21
817.829619
 31
0.0
  0
LINE
  5
196
330
1F
100
AcDbEntity
  8
002
 62
     3
370
    30
100
AcDbLine
 10
122.412153
 20
816.829619
 30
0.0
 11
127.412153
 21
816.829619
 31
0.0
  0
LINE
  5
197
330
1F
100
AcDbEntity
  8
002
 62
     3
370
    30
100
AcDbLine
 10
117.412153
 20
816.829619
 30
0.0
 11
112.412153
 21
816.829619
 31
0.0
  0
LINE
  5
198
330
1F
100
AcDbEntity
  8
002
 62
     3
370
    30
100
AcDbLine
 10
117.412153
 20
817.829619
 30
0.0
 11
117.412153
 21
790.329619
 31
0.0
  0
ARC
  5
199
330
1F
100
AcDbEntity
  8
002
 62
     3
370
    30
100
AcDbCircle
 10
119.912153
 20
790.329619
 30
0.0
 40
2.5
100
AcDbArc
 50
180.0
 51
0.0
  0
LINE
  5
19A
330
1F
100
AcDbEntity
  8
002
 62
     3
370
    30
100
AcDbLine
 10
122.412153
 20
795.829619
 30
0.0
 11
117.412153
 21
795.829619
 31
0.0
  0
ARC
  5
19B
330
1F
100
AcDbEntity
  8
002
 62
     3
370
    30
100
AcDbCircle
 10
60.411753
 20
760.329619
 30
0.0
 40
5.0
100
AcDbArc
 50
90.0
 51
180.0
  0
LINE
  5
19C
330
1F
100
AcDbEntity
  8
002
 62
     3
370
    30
100
AcDbLine
 10
55.515753
 20
761.342619
 30
0.0
 11
51.189753
 21
740.425619
 31
0.0
  0
ARC
  5
19D
330
1F
100
AcDbEntity
  8
002
 62
     3
370
    30
100
AcDbCircle
 10
87.912153
 20
732.829619
 30
0.0
 40
37.49962299543822
100
AcDbArc
 50
164.766885
 51
191.685572
  0
LINE
  5
19E
330
1F
100
AcDbEntity
  8
002
 62
     3
370
    30
100
AcDbLine
 10
51.189753
 20
725.234419
 30
0.0
 11
55.515753
 21
704.317119
 31
0.0
  0
ARC
  5
19F
330
1F
100
AcDbEntity
  8
002
 62
     3
370
    30
100
AcDbCircle
 10
60.411753
 20
705.329919
 30
0.0
 40
4.999887694738848
100
AcDbArc
 50
191.687512
 51
258.322394
  0
LINE
  5
1A0
330
1F
100
AcDbEntity
  8
002
 62
     3
370
    30
100
AcDbLine
 10
59.399753
 20
700.433519
 30
0.0
 11
80.316753
 21
696.107119
 31
0.0
  0
CIRCLE
  5
1A1
330
1F
100
AcDbEntity
  8
002
 62
     3
370
    30
100
AcDbCircle
 10
112.660953
 20
708.081119
 30
0.0
 40
5.0
  0
LINE
  5
1A2
330
1F
100
AcDbEntity
  8
002
 62
     3
370
    30
100
AcDbLine
 10
112.660953
 20
710.967919
 30
0.0
 11
110.160953
 21
709.524519
 31
0.0
  0
LINE
  5
1A3
330
1F
100
AcDbEntity
  8
002
 62
     3
370
    30
100
AcDbLine
 10
110.160953
 20
709.524519
 30
0.0
 11
110.160953
 21
706.637819
 31
0.0
  0
LINE
  5
1A4
330
1F
100
AcDbEntity
  8
002
 62
     3
370
    30
100
AcDbLine
 10
110.160953
 20
706.637819
 30
0.0
 11
112.660953
 21
705.194419
 31
0.0
  0
LINE
  5
1A5
330
1F
100
AcDbEntity
  8
002
 62
     3
370
    30
100
AcDbLine
 10
112.660953
 20
705.194419
 30
0.0
 11
115.160953
 21
706.637819
 31
0.0
  0
LINE
  5
1A6
330
1F
100
AcDbEntity
  8
002
 62
     3
370
    30
100
AcDbLine
 10
115.160953
 20
706.637819
 30
0.0
 11
115.160953
 21
709.524519
 31
0.0
  0
LINE
  5
1A7
330
1F
100
AcDbEntity
  8
002
 62
     3
370
    30
100
AcDbLine
 10
115.160953
 20
709.524519
 30
0.0
 11
112.660953
 21
710.967919
 31
0.0
  0
ARC
  5
1A8
330
1F
100
AcDbEntity
  8
002
 62
     3
370
    30
100
AcDbCircle
 10
115.412153
 20
705.329919
 30
0.0
 40
5.000049679753181
100
AcDbArc
 50
281.686583
 51
348.313417
  0
LINE
  5
1A9
330
1F
100
AcDbEntity
  8
002
 62
     3
370
    30
100
AcDbLine
 10
128.209253
 20
722.829919
 30
0.0
 11
133.912153
 21
722.829919
 31
0.0
  0
ARC
  5
1AA
330
1F
100
AcDbEntity
  8
002
 62
     3
370
    30
100
AcDbCircle
 10
128.209253
 20
717.829919
 30
0.0
 40
5.000029424913389
100
AcDbArc
 50
90.0
 51
168.314539
  0
ARC
  5
1AB
330
1F
100
AcDbEntity
  8
002
 62
     3
370
    30
100
AcDbCircle
 10
87.912153
 20
732.829619
 30
0.0
 40
37.50017674411683
100
AcDbArc
 50
348.314552
 51
11.686645
  0
ARC
  5
1AC
330
1F
100
AcDbEntity
  8
002
 62
     3
370
    30
100
AcDbCircle
 10
91.025253
 20
775.215619
 30
0.0
 40
4.999953968788216
100
AcDbArc
 50
265.798274
 51
357.13399
  0
LINE
  5
1AD
330
1F
100
AcDbEntity
  8
002
 62
     3
370
    30
100
AcDbLine
 10
64.606753
 20
710.581119
 30
0.0
 11
66.049753
 21
708.081119
 31
0.0
  0
LINE
  5
1AE
330
1F
100
AcDbEntity
  8
002
 62
     3
370
    30
100
AcDbLine
 10
66.049753
 20
708.081119
 30
0.0
 11
64.606753
 21
705.581119
 31
0.0
  0
LINE
  5
1AF
330
1F
100
AcDbEntity
  8
002
 62
     3
370
    30
100
AcDbLine
 10
64.606753
 20
705.581119
 30
0.0
 11
61.719753
 21
705.581119
 31
0.0
  0
LINE
  5
1B0
330
1F
100
AcDbEntity
  8
002
 62
     3
370
    30
100
AcDbLine
 10
61.719753
 20
705.581119
 30
0.0
 11
60.276753
 21
708.081119
 31
0.0
  0
LINE
  5
1B1
330
1F
100
AcDbEntity
  8
002
 62
     3
370
    30
100
AcDbLine
 10
60.276753
 20
708.081119
 30
0.0
 11
61.719753
 21
710.581119
 31
0.0
  0
LINE
  5
1B2
330
1F
100
AcDbEntity
  8
002
 62
     3
370
    30
100
AcDbLine
 10
61.719753
 20
710.581119
 30
0.0
 11
64.606753
 21
710.581119
 31
0.0
  0
CIRCLE
  5
1B3
330
1F
100
AcDbEntity
  8
002
 62
     3
370
    30
100
AcDbCircle
 10
63.163753
 20
708.081119
 30
0.0
 40
5.0
  0
LINE
  5
1B4
330
1F
100
AcDbEntity
  8
002
 62
     3
370
    30
100
AcDbLine
 10
64.342753
 20
699.411119
 30
0.0
 11
72.349053
 21
668.805219
 31
0.0
  0
ARC
  5
1B5
330
1F
100
AcDbEntity
  8
002
 62
     3
370
    30
100
AcDbCircle
 10
80.088653
 20
670.829919
 30
0.0
 40
8.0
100
AcDbArc
 50
194.660194
 51
270.0
  0
LINE
  5
1B6
330
1F
100
AcDbEntity
  8
002
 62
     3
370
    30
100
AcDbLine
 10
80.088653
 20
662.829919
 30
0.0
 11
95.735753
 21
662.829919
 31
0.0
  0
ARC
  5
1B7
330
1F
100
AcDbEntity
  8
002
 62
     3
370
    30
100
AcDbCircle
 10
95.735753
 20
670.829919
 30
0.0
 40
8.00005114046155
100
AcDbArc
 50
270.0
 51
345.339806
  0
LINE
  5
1B8
330
1F
100
AcDbEntity
  8
002
 62
     3
370
    30
100
AcDbLine
 10
103.475353
 20
668.805219
 30
0.0
 11
107.144153
 21
682.829919
 31
0.0
  0
CIRCLE
  5
1B9
330
1F
100
AcDbEntity
  8
002
 62
     3
370
    30
100
AcDbCircle
 10
87.912153
 20
672.829919
 30
0.0
 40
5.5
  0
ARC
  5
1BA
330
1F
100
AcDbEntity
  8
002
 62
     3
370
    30
100
AcDbCircle
 10
87.912153
 20
672.829919
 30
0.0
 40
11.99997259330203
100
AcDbArc
 50
303.55751
 51
236.442888
  0
LINE
  5
1BB
330
1F
100
AcDbEntity
  8
002
  6
CENTER
 62
    40
370
     9
100
AcDbLine
 10
119.912153
 20
829.505619
 30
0.0
 11
119.912153
 21
640.564419
 31
0.0
  0
LINE
  5
1BC
330
1F
100
AcDbEntity
  8
002
  6
CENTER
 62
    40
370
     9
100
AcDbLine
 10
39.269753
 20
732.829619
 30
0.0
 11
153.026753
 21
732.829619
 31
0.0
  0
LINE
  5
1BD
330
1F
100
AcDbEntity
  8
002
  6
CENTER
 62
    40
370
     9
100
AcDbLine
 10
105.661553
 20
792.829619
 30
0.0
 11
69.631653
 21
792.829619
 31
0.0
  0
LINE
  5
1BE
330
1F
100
AcDbEntity
  8
002
  6
CENTER
 62
    40
370
     9
100
AcDbLine
 10
87.912153
 20
653.541619
 30
0.0
 11
87.912153
 21
813.854619
 31
0.0
  0
CIRCLE
  5
1BF
330
1F
100
AcDbEntity
  8
002
  6
CENTER
 62
    40
370
     9
100
AcDbCircle
 10
87.912153
 20
732.829619
 30
0.0
 40
35.0
  0
LINE
  5
1C0
330
1F
100
AcDbEntity
  8
002
  6
CENTER
 62
    40
370
     9
100
AcDbLine
 10
109.469753
 20
754.387619
 30
0.0
 11
115.580253
 21
760.497619
 31
0.0
  0
LINE
  5
1C1
330
1F
100
AcDbEntity
  8
002
  6
CENTER
 62
    40
370
     9
100
AcDbLine
 10
66.354753
 20
754.387619
 30
0.0
 11
60.243753
 21
760.497619
 31
0.0
  0
LINE
  5
1C2
330
1F
100
AcDbEntity
  8
002
  6
CENTER
 62
    40
370
     9
100
AcDbLine
 10
60.243753
 20
705.161819
 30
0.0
 11
66.354753
 21
711.272319
 31
0.0
  0
LINE
  5
1C3
330
1F
100
AcDbEntity
  8
002
  6
CENTER
 62
    40
370
     9
100
AcDbLine
 10
109.469753
 20
711.272319
 30
0.0
 11
115.580253
 21
705.161819
 31
0.0
  0
LINE
  5
1C4
330
1F
100
AcDbEntity
  8
002
  6
CENTER
 62
    40
370
     9
100
AcDbLine
 10
133.912153
 20
724.429619
 30
0.0
 11
133.912153
 21
741.602619
 31
0.0
  0
LINE
  5
1C5
330
1F
100
AcDbEntity
  8
002
  6
CENTER
 62
    40
370
     9
100
AcDbLine
 10
105.661553
 20
672.829919
 30
0.0
 11
69.631653
 21
672.829919
 31
0.0
  0
LINE
  5
1C6
330
1F
100
AcDbEntity
  8
002
  6
HIDDEN
 62
    40
370
     9
100
AcDbLine
 10
111.481753
 20
766.248619
 30
0.0
 11
107.144153
 21
782.829619
 31
0.0
  0
LINE
  5
1C7
330
1F
100
AcDbEntity
  8
002
  6
HIDDEN
 62
    40
370
     9
100
AcDbLine
 10
111.481753
 20
699.411119
 30
0.0
 11
107.144153
 21
682.829919
 31
0.0
  0
LINE
  5
1C8
330
1F
100
AcDbEntity
  8
002
 62
     3
370
    30
100
AcDbLine
 10
116.424953
 20
765.225719
 30
0.0
 11
95.507653
 21
769.552119
 31
0.0
  0
LINE
  5
1C9
330
1F
100
AcDbEntity
  8
002
 62
     3
370
    30
100
AcDbLine
 10
59.399753
 20
765.225719
 30
0.0
 11
80.316753
 21
769.552119
 31
0.0
  0
CIRCLE
  5
1CA
330
1F
100
AcDbEntity
  8
002
 62
     3
370
    30
100
AcDbCircle
 10
87.912153
 20
732.829619
 30
0.0
 40
29.0
  0
CIRCLE
  5
1CB
330
1F
100
AcDbEntity
  8
002
 62
     3
370
    30
100
AcDbCircle
 10
87.912153
 20
732.829619
 30
0.0
 40
10.0
  0
CIRCLE
  5
1CC
330
1F
100
AcDbEntity
  8
002
 62
     3
370
    30
100
AcDbCircle
 10
87.912153
 20
732.829619
 30
0.0
 40
7.0
  0
CIRCLE
  5
1CD
330
1F
100
AcDbEntity
  8
002
 62
    40
370
     9
100
AcDbCircle
 10
87.912153
 20
732.829619
 30
0.0
 40
6.25
  0
LINE
  5
1CE
330
1F
100
AcDbEntity
  8
002
 62
     3
370
    30
100
AcDbLine
 10
85.412153
 20
774.829619
 30
0.0
 11
90.412153
 21
774.829619
 31
0.0
  0
ARC
  5
1CF
330
1F
100
AcDbEntity
  8
002
 62
     3
370
    30
100
AcDbCircle
 10
87.912153
 20
774.168119
 30
0.0
 40
1.000041124154433
100
AcDbArc
 50
41.412294
 51
138.587706
  0
LINE
  5
1D0
330
1F
100
AcDbEntity
  8
002
 62
     3
370
    30
100
AcDbLine
 10
84.662153
 20
771.829619
 30
0.0
 11
85.412153
 21
774.829619
 31
0.0
  0
LINE
  5
1D1
330
1F
100
AcDbEntity
  8
002
 62
     3
370
    30
100
AcDbLine
 10
85.193053
 20
770.980219
 30
0.0
 11
84.662153
 21
771.829619
 31
0.0
  0
LINE
  5
1D2
330
1F
100
AcDbEntity
  8
002
 62
     3
370
    30
100
AcDbLine
 10
90.412153
 20
771.829619
 30
0.0
 11
85.412153
 21
771.829619
 31
0.0
  0
LINE
  5
1D3
330
1F
100
AcDbEntity
  8
002
 62
     3
370
    30
100
AcDbLine
 10
90.209653
 20
770.305619
 30
0.0
 11
85.614653
 21
770.305619
 31
0.0
  0
ARC
  5
1D4
330
1F
100
AcDbEntity
  8
002
 62
     3
370
    30
100
AcDbCircle
 10
84.345053
 20
770.450219
 30
0.0
 40
1.000001999998045
100
AcDbArc
 50
315.0
 51
32.005383
  0
LINE
  5
1D5
330
1F
100
AcDbEntity
  8
002
 62
     3
370
    30
100
AcDbLine
 10
85.052153
 20
769.743119
 30
0.0
 11
82.912153
 21
766.829619
 31
0.0
  0
ARC
  5
1D6
330
1F
100
AcDbEntity
  8
002
 62
     3
370
    30
100
AcDbCircle
 10
85.412153
 20
764.204619
 30
0.0
 40
3.625
100
AcDbArc
 50
46.397181
 51
133.602819
  0
ARC
  5
1D7
330
1F
100
AcDbEntity
  8
002
 62
     3
370
    30
100
AcDbCircle
 10
87.912153
 20
732.829619
 30
0.0
 40
37.50017005294772
100
AcDbArc
 50
93.959418
 51
101.685087
  0
LINE
  5
1D8
330
1F
100
AcDbEntity
  8
002
 62
     3
370
    30
100
AcDbLine
 10
82.912153
 20
766.829619
 30
0.0
 11
82.912153
 21
763.829619
 31
0.0
  0
ARC
  5
1D9
330
1F
100
AcDbEntity
  8
002
 62
     3
370
    30
100
AcDbCircle
 10
87.912153
 20
732.829619
 30
0.0
 40
37.50017005294772
100
AcDbArc
 50
78.313417
 51
86.040564
  0
LINE
  5
1DA
330
1F
100
AcDbEntity
  8
002
 62
     3
370
    30
100
AcDbLine
 10
90.412153
 20
774.829619
 30
0.0
 11
91.162153
 21
771.829619
 31
0.0
  0
LINE
  5
1DB
330
1F
100
AcDbEntity
  8
002
 62
     3
370
    30
100
AcDbLine
 10
91.162153
 20
771.829619
 30
0.0
 11
90.631253
 21
770.980219
 31
0.0
  0
ARC
  5
1DC
330
1F
100
AcDbEntity
  8
002
 62
     3
370
    30
100
AcDbCircle
 10
91.479253
 20
770.450219
 30
0.0
 40
0.9999904099540514
100
AcDbArc
 50
147.994617
 51
225.0
  0
LINE
  5
1DD
330
1F
100
AcDbEntity
  8
002
 62
     3
370
    30
100
AcDbLine
 10
92.912153
 20
766.829619
 30
0.0
 11
90.772153
 21
769.743119
 31
0.0
  0
ARC
  5
1DE
330
1F
100
AcDbEntity
  8
002
 62
     3
370
    30
100
AcDbCircle
 10
90.412153
 20
764.204619
 30
0.0
 40
3.625
100
AcDbArc
 50
46.397181
 51
133.602819
  0
ARC
  5
1DF
330
1F
100
AcDbEntity
  8
002
 62
     3
370
    30
100
AcDbCircle
 10
90.412153
 20
766.454619
 30
0.0
 40
3.625
100
AcDbArc
 50
226.397181
 51
313.602819
  0
ARC
  5
1E0
330
1F
100
AcDbEntity
  8
002
 62
     3
370
    30
100
AcDbCircle
 10
85.412153
 20
766.454619
 30
0.0
 40
3.625
100
AcDbArc
 50
226.397181
 51
313.602819
  0
LINE
  5
1E1
330
1F
100
AcDbEntity
  8
002
 62
     3
370
    30
100
AcDbLine
 10
83.912153
 20
762.829619
 30
0.0
 11
91.912153
 21
762.829619
 31
0.0
  0
LINE
  5
1E2
330
1F
100
AcDbEntity
  8
002
 62
     3
370
    30
100
AcDbLine
 10
82.912153
 20
763.829619
 30
0.0
 11
83.912153
 21
762.829619
 31
0.0
  0
LINE
  5
1E3
330
1F
100
AcDbEntity
  8
002
 62
     3
370
    30
100
AcDbLine
 10
84.050653
 20
762.829619
 30
0.0
 11
84.050653
 21
761.57138
 31
0.0
  0
LINE
  5
1E4
330
1F
100
AcDbEntity
  8
002
 62
     3
370
    30
100
AcDbLine
 10
91.773653
 20
761.57138
 30
0.0
 11
91.773653
 21
762.829619
 31
0.0
  0
LINE
  5
1E5
330
1F
100
AcDbEntity
  8
002
 62
     3
370
    30
100
AcDbLine
 10
91.912153
 20
762.829619
 30
0.0
 11
92.912153
 21
763.829619
 31
0.0
  0
LINE
  5
1E6
330
1F
100
AcDbEntity
  8
002
 62
     3
370
    30
100
AcDbLine
 10
92.912153
 20
763.829619
 30
0.0
 11
92.912153
 21
766.829619
 31
0.0
  0
LINE
  5
1E7
330
1F
100
AcDbEntity
  8
002
 62
     3
370
    30
100
AcDbLine
 10
87.912153
 20
766.829619
 30
0.0
 11
87.912153
 21
763.829619
 31
0.0
  0
ARC
  5
1E8
330
1F
100
AcDbEntity
  8
002
 62
     3
370
    30
100
AcDbCircle
 10
87.912153
 20
691.491119
 30
0.0
 40
1.000041124154433
100
AcDbArc
 50
221.412294
 51
318.587706
  0
LINE
  5
1E9
330
1F
100
AcDbEntity
  8
002
 62
     3
370
    30
100
AcDbLine
 10
85.412153
 20
690.829619
 30
0.0
 11
90.412153
 21
690.829619
 31
0.0
  0
LINE
  5
1EA
330
1F
100
AcDbEntity
  8
002
 62
     3
370
    30
100
AcDbLine
 10
90.412153
 20
690.829619
 30
0.0
 11
91.162153
 21
693.829619
 31
0.0
  0
LINE
  5
1EB
330
1F
100
AcDbEntity
  8
002
 62
     3
370
    30
100
AcDbLine
 10
84.662153
 20
693.829619
 30
0.0
 11
85.412153
 21
690.829619
 31
0.0
  0
LINE
  5
1EC
330
1F
100
AcDbEntity
  8
002
 62
     3
370
    30
100
AcDbLine
 10
85.193053
 20
694.679019
 30
0.0
 11
84.662153
 21
693.829619
 31
0.0
  0
LINE
  5
1ED
330
1F
100
AcDbEntity
  8
002
 62
     3
370
    30
100
AcDbLine
 10
90.412153
 20
693.829619
 30
0.0
 11
85.412153
 21
693.829619
 31
0.0
  0
ARC
  5
1EE
330
1F
100
AcDbEntity
  8
002
 62
     3
370
    30
100
AcDbCircle
 10
84.345053
 20
695.209019
 30
0.0
 40
1.000001999998045
100
AcDbArc
 50
327.994617
 51
45.0
  0
ARC
  5
1EF
330
1F
100
AcDbEntity
  8
002
 62
     3
370
    30
100
AcDbCircle
 10
87.912153
 20
732.829619
 30
0.0
 40
37.5003725981489
100
AcDbArc
 50
258.314913
 51
266.040671
  0
LINE
  5
1F0
330
1F
100
AcDbEntity
  8
002
 62
     3
370
    30
100
AcDbLine
 10
90.209653
 20
695.353619
 30
0.0
 11
85.614653
 21
695.353619
 31
0.0
  0
LINE
  5
1F1
330
1F
100
AcDbEntity
  8
002
 62
     3
370
    30
100
AcDbLine
 10
85.052153
 20
695.916119
 30
0.0
 11
82.912153
 21
698.829619
 31
0.0
  0
LINE
  5
1F2
330
1F
100
AcDbEntity
  8
002
 62
     3
370
    30
100
AcDbLine
 10
91.162153
 20
693.829619
 30
0.0
 11
90.631253
 21
694.679019
 31
0.0
  0
ARC
  5
1F3
330
1F
100
AcDbEntity
  8
002
 62
     3
370
    30
100
AcDbCircle
 10
87.912153
 20
732.829619
 30
0.0
 40
37.5003725981489
100
AcDbArc
 50
273.959347
 51
281.686583
  0
LINE
  5
1F4
330
1F
100
AcDbEntity
  8
002
 62
     3
370
    30
100
AcDbLine
 10
92.912153
 20
698.829619
 30
0.0
 11
90.772153
 21
695.916119
 31
0.0
  0
ARC
  5
1F5
330
1F
100
AcDbEntity
  8
002
 62
     3
370
    30
100
AcDbCircle
 10
91.479253
 20
695.209019
 30
0.0
 40
0.9999904099540514
100
AcDbArc
 50
135.0
 51
212.005383
  0
ARC
  5
1F6
330
1F
100
AcDbEntity
  8
002
 62
     3
370
    30
100
AcDbCircle
 10
90.412153
 20
701.454619
 30
0.0
 40
3.625
100
AcDbArc
 50
226.397181
 51
313.602819
  0
ARC
  5
1F7
330
1F
100
AcDbEntity
  8
002
 62
     3
370
    30
100
AcDbCircle
 10
85.412153
 20
701.454619
 30
0.0
 40
3.625
100
AcDbArc
 50
226.397181
 51
313.602819
  0
LINE
  5
1F8
330
1F
100
AcDbEntity
  8
002
 62
     3
370
    30
100
AcDbLine
 10
82.912153
 20
698.829619
 30
0.0
 11
82.912153
 21
701.829619
 31
0.0
  0
ARC
  5
1F9
330
1F
100
AcDbEntity
  8
002
 62
     3
370
    30
100
AcDbCircle
 10
85.412153
 20
699.204619
 30
0.0
 40
3.625
100
AcDbArc
 50
46.397181
 51
133.602819
  0
LINE
  5
1FA
330
1F
100
AcDbEntity
  8
002
 62
     3
370
    30
100
AcDbLine
 10
82.912153
 20
701.829619
 30
0.0
 11
83.912153
 21
702.829619
 31
0.0
  0
LINE
  5
1FB
330
1F
100
AcDbEntity
  8
002
 62
     3
370
    30
100
AcDbLine
 10
83.912153
 20
702.829619
 30
0.0
 11
91.912153
 21
702.829619
 31
0.0
  0
LINE
  5
1FC
330
1F
100
AcDbEntity
  8
002
 62
     3
370
    30
100
AcDbLine
 10
84.050653
 20
702.829619
 30
0.0
 11
84.050653
 21
704.087858
 31
0.0
  0
ARC
  5
1FD
330
1F
100
AcDbEntity
  8
002
 62
     3
370
    30
100
AcDbCircle
 10
90.412153
 20
699.204619
 30
0.0
 40
3.625
100
AcDbArc
 50
46.397181
 51
133.602819
  0
LINE
  5
1FE
330
1F
100
AcDbEntity
  8
002
 62
     3
370
    30
100
AcDbLine
 10
91.912153
 20
702.829619
 30
0.0
 11
92.912153
 21
701.829619
 31
0.0
  0
LINE
  5
1FF
330
1F
100
AcDbEntity
  8
002
 62
     3
370
    30
100
AcDbLine
 10
91.773653
 20
704.087858
 30
0.0
 11
91.773653
 21
702.829619
 31
0.0
  0
LINE
  5
200
330
1F
100
AcDbEntity
  8
002
 62
     3
370
    30
100
AcDbLine
 10
92.912153
 20
701.829619
 30
0.0
 11
92.912153
 21
698.829619
 31
0.0
  0
LINE
  5
201
330
1F
100
AcDbEntity
  8
002
 62
     3
370
    30
100
AcDbLine
 10
87.912153
 20
698.829619
 30
0.0
 11
87.912153
 21
701.829619
 31
0.0
  0
LINE
  5
202
330
1F
100
AcDbEntity
  8
002
  6
CENTER
 62
    40
370
     9
100
AcDbLine
 10
513.993984
 20
216.145754
 30
0.0
 11
626.041184
 21
216.145754
 31
0.0
  0
LINE
  5
203
330
1F
100
AcDbEntity
  8
002
 62
     3
370
    30
100
AcDbLine
 10
556.222584
 20
311.645754
 30
0.0
 11
561.996084
 21
311.645754
 31
0.0
  0
LINE
  5
204
330
1F
100
AcDbEntity
  8
002
 62
     3
370
    30
100
AcDbLine
 10
561.996084
 20
311.645754
 30
0.0
 11
564.882884
 21
306.645754
 31
0.0
  0
LINE
  5
205
330
1F
100
AcDbEntity
  8
002
 62
     3
370
    30
100
AcDbLine
 10
564.882884
 20
306.645754
 30
0.0
 11
561.996084
 21
301.645754
 31
0.0
  0
LINE
  5
206
330
1F
100
AcDbEntity
  8
002
 62
     3
370
    30
100
AcDbLine
 10
561.996084
 20
301.645754
 30
0.0
 11
556.222584
 21
301.645754
 31
0.0
  0
LINE
  5
207
330
1F
100
AcDbEntity
  8
002
 62
     3
370
    30
100
AcDbLine
 10
556.222584
 20
301.645754
 30
0.0
 11
553.335884
 21
306.645754
 31
0.0
  0
LINE
  5
208
330
1F
100
AcDbEntity
  8
002
 62
     3
370
    30
100
AcDbLine
 10
553.335884
 20
306.645754
 30
0.0
 11
556.222584
 21
311.645754
 31
0.0
  0
CIRCLE
  5
209
330
1F
100
AcDbEntity
  8
002
 62
     3
370
    30
100
AcDbCircle
 10
559.109384
 20
306.645754
 30
0.0
 40
0.75
  0
CIRCLE
  5
20A
330
1F
100
AcDbEntity
  8
002
 62
     3
370
    30
100
AcDbCircle
 10
559.109384
 20
306.645754
 30
0.0
 40
2.5
  0
CIRCLE
  5
20B
330
1F
100
AcDbEntity
  8
002
 62
     3
370
    30
100
AcDbCircle
 10
559.109384
 20
306.645754
 30
0.0
 40
3.25
  0
CIRCLE
  5
20C
330
1F
100
AcDbEntity
  8
002
 62
     3
370
    30
100
AcDbCircle
 10
559.109384
 20
306.645754
 30
0.0
 40
5.0
  0
LINE
  5
20D
330
1F
100
AcDbEntity
  8
002
 62
     3
370
    30
100
AcDbLine
 10
530.109384
 20
326.145754
 30
0.0
 11
588.109384
 21
326.145754
 31
0.0
  0
LINE
  5
20E
330
1F
100
AcDbEntity
  8
002
 62
     3
370
    30
100
AcDbLine
 10
588.858084
 20
262.145754
 30
0.0
 11
578.858084
 21
262.145754
 31
0.0
  0
LINE
  5
20F
330
1F
100
AcDbEntity
  8
002
 62
     3
370
    30
100
AcDbLine
 10
588.858084
 20
262.145754
 30
0.0
 11
588.858084
 21
256.145754
 31
0.0
  0
LINE
  5
210
330
1F
100
AcDbEntity
  8
002
 62
     3
370
    30
100
AcDbLine
 10
578.858084
 20
262.145754
 30
0.0
 11
578.858084
 21
256.145754
 31
0.0
  0
ARC
  5
211
330
1F
100
AcDbEntity
  8
002
 62
     3
370
    30
100
AcDbCircle
 10
575.932784
 20
231.322254
 30
0.0
 40
7.999953736116232
100
AcDbArc
 50
93.652192
 51
176.347047
  0
LINE
  5
212
330
1F
100
AcDbEntity
  8
002
 62
     3
370
    30
100
AcDbLine
 10
567.949084
 20
231.831954
 30
0.0
 11
566.944384
 21
216.092454
 31
0.0
  0
LINE
  5
213
330
1F
100
AcDbEntity
  8
002
 62
     3
370
    30
100
AcDbLine
 10
566.944384
 20
216.199054
 30
0.0
 11
568.331684
 21
194.464254
 31
0.0
  0
LINE
  5
214
330
1F
100
AcDbEntity
  8
002
 62
     3
370
    30
100
AcDbLine
 10
569.201384
 20
191.252754
 30
0.0
 11
567.606284
 21
216.241254
 31
0.0
  0
LINE
  5
215
330
1F
100
AcDbEntity
  8
002
 62
     3
370
    30
100
AcDbLine
 10
567.606284
 20
216.050154
 30
0.0
 11
568.461684
 21
229.450754
 31
0.0
  0
LINE
  5
216
330
1F
100
AcDbEntity
  8
002
 62
     3
370
    30
100
AcDbLine
 10
567.905284
 20
231.145754
 30
0.0
 11
524.609384
 21
231.145754
 31
0.0
  0
LINE
  5
217
330
1F
100
AcDbEntity
  8
002
 62
     3
370
    30
100
AcDbLine
 10
523.241584
 20
231.475654
 30
0.0
 11
531.371684
 21
227.310954
 31
0.0
  0
ARC
  5
218
330
1F
100
AcDbEntity
  8
002
 62
     3
370
    30
100
AcDbCircle
 10
534.360584
 20
233.145754
 30
0.0
 40
6.555860615510466
100
AcDbArc
 50
242.876021
 51
280.689287
  0
LINE
  5
219
330
1F
100
AcDbEntity
  8
002
 62
     3
370
    30
100
AcDbLine
 10
535.576584
 20
226.703654
 30
0.0
 11
557.270784
 21
230.798654
 31
0.0
  0
ARC
  5
21A
330
1F
100
AcDbEntity
  8
002
 62
     3
370
    30
100
AcDbCircle
 10
560.980484
 20
211.145754
 30
0.0
 40
19.99995881245752
100
AcDbArc
 50
90.0
 51
100.689433
  0
LINE
  5
21B
330
1F
100
AcDbEntity
  8
002
 62
     3
370
    30
100
AcDbLine
 10
577.804384
 20
238.793454
 30
0.0
 11
591.204884
 21
239.648754
 31
0.0
  0
LINE
  5
21C
330
1F
100
AcDbEntity
  8
002
 62
     3
370
    30
100
AcDbLine
 10
591.013784
 20
239.648754
 30
0.0
 11
604.414384
 21
238.793454
 31
0.0
  0
LINE
  5
21D
330
1F
100
AcDbEntity
  8
002
 62
     3
370
    30
100
AcDbLine
 10
607.583684
 20
240.094154
 30
0.0
 11
598.175784
 21
240.593554
 31
0.0
  0
ARC
  5
21E
330
1F
100
AcDbEntity
  8
002
 62
     3
370
    30
100
AcDbCircle
 10
598.334784
 20
243.589354
 30
0.0
 40
3.000016439954985
100
AcDbArc
 50
194.957129
 51
266.961917
  0
LINE
  5
21F
330
1F
100
AcDbEntity
  8
002
 62
     3
370
    30
100
AcDbLine
 10
597.334784
 20
244.145754
 30
0.0
 11
615.109384
 21
244.145754
 31
0.0
  0
LINE
  5
220
330
1F
100
AcDbEntity
  8
002
 62
     3
370
    30
100
AcDbLine
 10
615.109384
 20
244.145754
 30
0.0
 11
615.109384
 21
236.473754
 31
0.0
  0
ARC
  5
221
330
1F
100
AcDbEntity
  8
002
 62
     3
370
    30
100
AcDbCircle
 10
618.109384
 20
236.473754
 30
0.0
 40
3.000030948173682
100
AcDbArc
 50
180.0
 51
250.502652
  0
LINE
  5
222
330
1F
100
AcDbEntity
  8
002
 62
     3
370
    30
100
AcDbLine
 10
617.108084
 20
233.645754
 30
0.0
 11
617.108084
 21
198.645754
 31
0.0
  0
LINE
  5
223
330
1F
100
AcDbEntity
  8
002
 62
     3
370
    30
100
AcDbLine
 10
617.108084
 20
198.645754
 30
0.0
 11
617.083084
 21
198.645754
 31
0.0
  0
ARC
  5
224
330
1F
100
AcDbEntity
  8
002
 62
     3
370
    30
100
AcDbCircle
 10
617.095584
 20
195.645754
 30
0.0
 40
2.999959536393812
100
AcDbArc
 50
89.761269
 51
155.650251
  0
LINE
  5
225
330
1F
100
AcDbEntity
  8
002
 62
     3
370
    30
100
AcDbLine
 10
615.057784
 20
199.671454
 30
0.0
 11
616.109384
 21
216.145754
 31
0.0
  0
LINE
  5
226
330
1F
100
AcDbEntity
  8
002
 62
     3
370
    30
100
AcDbLine
 10
616.109384
 20
216.145754
 30
0.0
 11
615.057784
 21
232.620054
 31
0.0
  0
ARC
  5
227
330
1F
100
AcDbEntity
  8
002
 62
     3
370
    30
100
AcDbCircle
 10
607.074084
 20
232.110454
 30
0.0
 40
7.999947365451848
100
AcDbArc
 50
3.652238
 51
86.347762
  0
LINE
  5
228
330
1F
100
AcDbEntity
  8
002
 62
     3
370
    30
100
AcDbLine
 10
608.970884
 20
244.145754
 30
0.0
 11
608.970884
 21
245.145754
 31
0.0
  0
LINE
  5
229
330
1F
100
AcDbEntity
  8
002
 62
     3
370
    30
100
AcDbLine
 10
609.109384
 20
245.145754
 30
0.0
 11
610.109384
 21
246.145754
 31
0.0
  0
LINE
  5
22A
330
1F
100
AcDbEntity
  8
002
 62
     3
370
    30
100
AcDbLine
 10
610.109384
 20
246.145754
 30
0.0
 11
610.109384
 21
249.145754
 31
0.0
  0
LINE
  5
22B
330
1F
100
AcDbEntity
  8
002
 62
     3
370
    30
100
AcDbLine
 10
610.109384
 20
249.145754
 30
0.0
 11
607.969384
 21
252.059254
 31
0.0
  0
LINE
  5
22C
330
1F
100
AcDbEntity
  8
002
 62
     3
370
    30
100
AcDbLine
 10
607.406884
 20
252.621754
 30
0.0
 11
602.811884
 21
252.621754
 31
0.0
  0
LINE
  5
22D
330
1F
100
AcDbEntity
  8
002
 62
     3
370
    30
100
AcDbLine
 10
602.390284
 20
253.296354
 30
0.0
 11
601.859384
 21
254.145754
 31
0.0
  0
LINE
  5
22E
330
1F
100
AcDbEntity
  8
002
 62
     3
370
    30
100
AcDbLine
 10
601.859384
 20
254.145754
 30
0.0
 11
602.609384
 21
257.145754
 31
0.0
  0
LINE
  5
22F
330
1F
100
AcDbEntity
  8
002
 62
     3
370
    30
100
AcDbLine
 10
602.609384
 20
257.145754
 30
0.0
 11
607.609384
 21
257.145754
 31
0.0
  0
LINE
  5
230
330
1F
100
AcDbEntity
  8
002
 62
     3
370
    30
100
AcDbLine
 10
607.609384
 20
257.145754
 30
0.0
 11
608.359384
 21
254.145754
 31
0.0
  0
LINE
  5
231
330
1F
100
AcDbEntity
  8
002
 62
     3
370
    30
100
AcDbLine
 10
608.359384
 20
254.145754
 30
0.0
 11
607.828484
 21
253.296354
 31
0.0
  0
ARC
  5
232
330
1F
100
AcDbEntity
  8
002
 62
     3
370
    30
100
AcDbCircle
 10
608.676484
 20
252.766354
 30
0.0
 40
0.9999904099540514
100
AcDbArc
 50
147.994617
 51
225.0
  0
LINE
  5
233
330
1F
100
AcDbEntity
  8
002
 62
     3
370
    30
100
AcDbLine
 10
607.609384
 20
254.145754
 30
0.0
 11
602.609384
 21
254.145754
 31
0.0
  0
ARC
  5
234
330
1F
100
AcDbEntity
  8
002
 62
     3
370
    30
100
AcDbCircle
 10
601.542284
 20
252.766354
 30
0.0
 40
1.000001999998045
100
AcDbArc
 50
315.0
 51
32.005383
  0
LINE
  5
235
330
1F
100
AcDbEntity
  8
002
 62
     3
370
    30
100
AcDbLine
 10
602.249384
 20
252.059254
 30
0.0
 11
600.109384
 21
249.145754
 31
0.0
  0
LINE
  5
236
330
1F
100
AcDbEntity
  8
002
 62
     3
370
    30
100
AcDbLine
 10
600.109384
 20
249.145754
 30
0.0
 11
600.109384
 21
246.145754
 31
0.0
  0
LINE
  5
237
330
1F
100
AcDbEntity
  8
002
 62
     3
370
    30
100
AcDbLine
 10
600.109384
 20
246.145754
 30
0.0
 11
601.109384
 21
245.145754
 31
0.0
  0
LINE
  5
238
330
1F
100
AcDbEntity
  8
002
 62
     3
370
    30
100
AcDbLine
 10
601.109384
 20
245.145754
 30
0.0
 11
609.109384
 21
245.145754
 31
0.0
  0
ARC
  5
239
330
1F
100
AcDbEntity
  8
002
 62
     3
370
    30
100
AcDbCircle
 10
607.609384
 20
246.520754
 30
0.0
 40
3.625
100
AcDbArc
 50
46.397181
 51
133.602819
  0
LINE
  5
23A
330
1F
100
AcDbEntity
  8
002
 62
     3
370
    30
100
AcDbLine
 10
605.109384
 20
249.145754
 30
0.0
 11
605.109384
 21
246.145754
 31
0.0
  0
ARC
  5
23B
330
1F
100
AcDbEntity
  8
002
 62
     3
370
    30
100
AcDbCircle
 10
607.609384
 20
248.770754
 30
0.0
 40
3.625
100
AcDbArc
 50
226.397181
 51
313.602819
  0
ARC
  5
23C
330
1F
100
AcDbEntity
  8
002
 62
     3
370
    30
100
AcDbCircle
 10
602.609384
 20
246.520754
 30
0.0
 40
3.625
100
AcDbArc
 50
46.397181
 51
133.602819
  0
ARC
  5
23D
330
1F
100
AcDbEntity
  8
002
 62
     3
370
    30
100
AcDbCircle
 10
602.609384
 20
248.770754
 30
0.0
 40
3.625
100
AcDbArc
 50
226.397181
 51
313.602819
  0
LINE
  5
23E
330
1F
100
AcDbEntity
  8
002
 62
     3
370
    30
100
AcDbLine
 10
601.247884
 20
245.145754
 30
0.0
 11
601.247884
 21
244.145754
 31
0.0
  0
LINE
  5
23F
330
1F
100
AcDbEntity
  8
002
 62
     3
370
    30
100
AcDbLine
 10
596.609384
 20
244.281954
 30
0.0
 11
596.609384
 21
256.145754
 31
0.0
  0
LINE
  5
240
330
1F
100
AcDbEntity
  8
002
 62
     3
370
    30
100
AcDbLine
 10
596.609384
 20
256.145754
 30
0.0
 11
521.609384
 21
256.145754
 31
0.0
  0
LINE
  5
241
330
1F
100
AcDbEntity
  8
002
 62
     3
370
    30
100
AcDbLine
 10
521.609384
 20
256.145754
 30
0.0
 11
521.609384
 21
234.145754
 31
0.0
  0
ARC
  5
242
330
1F
100
AcDbEntity
  8
002
 62
     3
370
    30
100
AcDbCircle
 10
524.609384
 20
234.145754
 30
0.0
 40
3.0
100
AcDbArc
 50
180.0
 51
270.0
  0
LINE
  5
243
330
1F
100
AcDbEntity
  8
002
 62
     3
370
    30
100
AcDbLine
 10
523.109384
 20
230.177054
 30
0.0
 11
523.109384
 21
190.114354
 31
0.0
  0
LINE
  5
244
330
1F
100
AcDbEntity
  8
002
 62
     3
370
    30
100
AcDbLine
 10
524.609384
 20
189.145754
 30
0.0
 11
563.341884
 21
189.145754
 31
0.0
  0
ARC
  5
245
330
1F
100
AcDbEntity
  8
002
 62
     3
370
    30
100
AcDbCircle
 10
563.341884
 20
194.145754
 30
0.0
 40
4.999954628794093
100
AcDbArc
 50
270.0
 51
3.652247
  0
ARC
  5
246
330
1F
100
AcDbEntity
  8
002
 62
     3
370
    30
100
AcDbCircle
 10
566.207384
 20
191.061654
 30
0.0
 40
3.000092533572952
100
AcDbArc
 50
270.0
 51
3.652101
  0
LINE
  5
247
330
1F
100
AcDbEntity
  8
002
 62
     3
370
    30
100
AcDbLine
 10
569.109384
 20
187.145754
 30
0.0
 11
565.742584
 21
187.145754
 31
0.0
  0
LINE
  5
248
330
1F
100
AcDbEntity
  8
002
 62
     3
370
    30
100
AcDbLine
 10
565.742584
 20
187.145754
 30
0.0
 11
565.742584
 21
186.145754
 31
0.0
  0
LINE
  5
249
330
1F
100
AcDbEntity
  8
002
 62
     3
370
    30
100
AcDbLine
 10
565.742584
 20
186.145754
 30
0.0
 11
552.476084
 21
186.145754
 31
0.0
  0
LINE
  5
24A
330
1F
100
AcDbEntity
  8
002
 62
     3
370
    30
100
AcDbLine
 10
552.476084
 20
186.145754
 30
0.0
 11
552.476084
 21
187.145754
 31
0.0
  0
LINE
  5
24B
330
1F
100
AcDbEntity
  8
002
 62
     3
370
    30
100
AcDbLine
 10
552.476084
 20
187.145754
 30
0.0
 11
549.109384
 21
187.145754
 31
0.0
  0
ARC
  5
24C
330
1F
100
AcDbEntity
  8
002
 62
     3
370
    30
100
AcDbCircle
 10
549.109384
 20
183.145754
 30
0.0
 40
4.0
100
AcDbArc
 50
90.0
 51
180.0
  0
LINE
  5
24D
330
1F
100
AcDbEntity
  8
002
 62
     3
370
    30
100
AcDbLine
 10
545.109384
 20
183.145754
 30
0.0
 11
545.109384
 21
176.145754
 31
0.0
  0
LINE
  5
24E
330
1F
100
AcDbEntity
  8
002
 62
     3
370
    30
100
AcDbLine
 10
547.449484
 20
172.145754
 30
0.0
 11
547.449484
 21
167.145754
 31
0.0
  0
LINE
  5
24F
330
1F
100
AcDbEntity
  8
002
 62
     3
370
    30
100
AcDbLine
 10
538.949484
 20
167.145754
 30
0.0
 11
538.949484
 21
172.145754
 31
0.0
  0
LINE
  5
250
330
1F
100
AcDbEntity
  8
002
 62
     3
370
    30
100
AcDbLine
 10
538.555984
 20
169.189354
 30
0.0
 11
539.109384
 21
131.145754
 31
0.0
  0
LINE
  5
251
330
1F
100
AcDbEntity
  8
002
 62
     3
370
    30
100
AcDbLine
 10
539.109384
 20
131.145754
 30
0.0
 11
579.109384
 21
131.145754
 31
0.0
  0
LINE
  5
252
330
1F
100
AcDbEntity
  8
002
 62
     3
370
    30
100
AcDbLine
 10
579.109384
 20
131.145754
 30
0.0
 11
579.662684
 21
169.189354
 31
0.0
  0
LINE
  5
253
330
1F
100
AcDbEntity
  8
002
 62
     3
370
    30
100
AcDbLine
 10
570.769284
 20
167.145754
 30
0.0
 11
570.769284
 21
172.145754
 31
0.0
  0
LINE
  5
254
330
1F
100
AcDbEntity
  8
002
 62
     3
370
    30
100
AcDbLine
 10
573.109384
 20
176.145754
 30
0.0
 11
573.109384
 21
183.145754
 31
0.0
  0
ARC
  5
255
330
1F
100
AcDbEntity
  8
002
 62
     3
370
    30
100
AcDbCircle
 10
569.109384
 20
183.145754
 30
0.0
 40
4.0
100
AcDbArc
 50
0.0
 51
90.0
  0
ARC
  5
256
330
1F
100
AcDbEntity
  8
002
 62
     3
370
    30
100
AcDbCircle
 10
559.109384
 20
125.361354
 30
0.0
 40
62.4129787041125
100
AcDbArc
 50
81.861576
 51
98.138515
  0
LINE
  5
257
330
1F
100
AcDbEntity
  8
002
 62
     3
370
    30
100
AcDbLine
 10
545.109384
 20
187.145754
 30
0.0
 11
534.109384
 21
189.145754
 31
0.0
  0
LINE
  5
258
330
1F
100
AcDbEntity
  8
002
 62
     3
370
    30
100
AcDbLine
 10
534.109384
 20
187.145754
 30
0.0
 11
534.109384
 21
176.145754
 31
0.0
  0
LINE
  5
259
330
1F
100
AcDbEntity
  8
002
 62
     3
370
    30
100
AcDbLine
 10
531.609384
 20
176.145754
 30
0.0
 11
531.609384
 21
172.145754
 31
0.0
  0
LINE
  5
25A
330
1F
100
AcDbEntity
  8
002
 62
     3
370
    30
100
AcDbLine
 10
531.609384
 20
172.145754
 30
0.0
 11
586.609384
 21
172.145754
 31
0.0
  0
LINE
  5
25B
330
1F
100
AcDbEntity
  8
002
 62
     3
370
    30
100
AcDbLine
 10
586.609384
 20
172.145754
 30
0.0
 11
586.609384
 21
176.145754
 31
0.0
  0
LINE
  5
25C
330
1F
100
AcDbEntity
  8
002
 62
     3
370
    30
100
AcDbLine
 10
584.109384
 20
176.145754
 30
0.0
 11
584.109384
 21
187.145754
 31
0.0
  0
LINE
  5
25D
330
1F
100
AcDbEntity
  8
002
 62
     3
370
    30
100
AcDbLine
 10
578.341384
 20
190.600754
 30
0.0
 11
578.341384
 21
190.852754
 31
0.0
  0
LINE
  5
25E
330
1F
100
AcDbEntity
  8
002
 62
     3
370
    30
100
AcDbLine
 10
577.804384
 20
193.498054
 30
0.0
 11
591.204884
 21
192.642654
 31
0.0
  0
LINE
  5
25F
330
1F
100
AcDbEntity
  8
002
 62
     3
370
    30
100
AcDbLine
 10
591.013784
 20
192.642654
 30
0.0
 11
604.414384
 21
193.498054
 31
0.0
  0
ARC
  5
260
330
1F
100
AcDbEntity
  8
002
 62
     3
370
    30
100
AcDbCircle
 10
603.777384
 20
203.477754
 30
0.0
 40
10.00000905449588
100
AcDbArc
 50
273.652211
 51
356.347789
  0
LINE
  5
261
330
1F
100
AcDbEntity
  8
002
 62
     3
370
    30
100
AcDbLine
 10
613.757084
 20
202.840754
 30
0.0
 11
614.612384
 21
216.241254
 31
0.0
  0
LINE
  5
262
330
1F
100
AcDbEntity
  8
002
 62
     3
370
    30
100
AcDbLine
 10
614.612384
 20
216.050154
 30
0.0
 11
613.757084
 21
229.450754
 31
0.0
  0
ARC
  5
263
330
1F
100
AcDbEntity
  8
002
 62
     3
370
    30
100
AcDbCircle
 10
603.777384
 20
228.813754
 30
0.0
 40
10.00000905449599
100
AcDbArc
 50
3.652211
 51
86.347789
  0
CIRCLE
  5
264
330
1F
100
AcDbEntity
  8
002
 62
     3
370
    30
100
AcDbCircle
 10
591.109384
 20
216.145754
 30
0.0
 40
17.5
  0
LINE
  5
265
330
1F
100
AcDbEntity
  8
002
 62
     3
370
    30
100
AcDbLine
 10
593.609384
 20
220.895754
 30
0.0
 11
593.359384
 21
220.645754
 31
0.0
  0
LINE
  5
266
330
1F
100
AcDbEntity
  8
002
 62
     3
370
    30
100
AcDbLine
 10
593.359384
 20
220.645754
 30
0.0
 11
588.859384
 21
220.645754
 31
0.0
  0
LINE
  5
267
330
1F
100
AcDbEntity
  8
002
 62
     3
370
    30
100
AcDbLine
 10
588.859384
 20
220.645754
 30
0.0
 11
588.609384
 21
220.895754
 31
0.0
  0
LINE
  5
268
330
1F
100
AcDbEntity
  8
002
 62
     3
370
    30
100
AcDbLine
 10
588.609384
 20
220.895754
 30
0.0
 11
588.609384
 21
225.395754
 31
0.0
  0
LINE
  5
269
330
1F
100
AcDbEntity
  8
002
 62
     3
370
    30
100
AcDbLine
 10
588.609384
 20
225.395754
 30
0.0
 11
588.859384
 21
225.645754
 31
0.0
  0
LINE
  5
26A
330
1F
100
AcDbEntity
  8
002
 62
     3
370
    30
100
AcDbLine
 10
588.859384
 20
225.645754
 30
0.0
 11
593.359384
 21
225.645754
 31
0.0
  0
LINE
  5
26B
330
1F
100
AcDbEntity
  8
002
 62
     3
370
    30
100
AcDbLine
 10
593.359384
 20
225.645754
 30
0.0
 11
593.609384
 21
225.395754
 31
0.0
  0
LINE
  5
26C
330
1F
100
AcDbEntity
  8
002
 62
     3
370
    30
100
AcDbLine
 10
593.609384
 20
225.395754
 30
0.0
 11
593.609384
 21
220.895754
 31
0.0
  0
ARC
  5
26D
330
1F
100
AcDbEntity
  8
002
 62
     3
370
    30
100
AcDbCircle
 10
593.409384
 20
220.845754
 30
0.0
 40
0.2000000000000455
100
AcDbArc
 50
270.0
 51
0.0
  0
ARC
  5
26E
330
1F
100
AcDbEntity
  8
002
 62
     3
370
    30
100
AcDbCircle
 10
588.809384
 20
220.845754
 30
0.0
 40
0.1999999999999318
100
AcDbArc
 50
180.0
 51
270.0
  0
ARC
  5
26F
330
1F
100
AcDbEntity
  8
002
 62
     3
370
    30
100
AcDbCircle
 10
591.109384
 20
216.145754
 30
0.0
 40
7.499936066394084
100
AcDbArc
 50
109.471393
 51
70.528607
  0
ARC
  5
270
330
1F
100
AcDbEntity
  8
002
 62
     3
370
    30
100
AcDbCircle
 10
591.109384
 20
216.145754
 30
0.0
 40
8.499963294038306
100
AcDbArc
 50
107.104711
 51
72.895289
  0
LINE
  5
271
330
1F
100
AcDbEntity
  8
002
 62
     3
370
    30
100
AcDbLine
 10
592.621984
 20
240.483454
 30
0.0
 11
590.840184
 21
240.312054
 31
0.0
  0
LINE
  5
272
330
1F
100
AcDbEntity
  8
002
 62
     3
370
    30
100
AcDbLine
 10
590.840184
 20
240.312054
 30
0.0
 11
575.423184
 21
239.306054
 31
0.0
  0
ARC
  5
273
330
1F
100
AcDbEntity
  8
002
 62
     3
370
    30
100
AcDbCircle
 10
578.441384
 20
228.813754
 30
0.0
 40
10.000009054496
100
AcDbArc
 50
93.652211
 51
176.347789
  0
ARC
  5
274
330
1F
100
AcDbEntity
  8
002
 62
     3
370
    30
100
AcDbCircle
 10
592.334784
 20
243.469654
 30
0.0
 40
2.999998641666374
100
AcDbArc
 50
275.493568
 51
347.987011
  0
ARC
  5
275
330
1F
100
AcDbEntity
  8
002
 62
     3
370
    30
100
AcDbCircle
 10
597.334784
 20
246.145754
 30
0.0
 40
2.0
100
AcDbArc
 50
180.0
 51
270.0
  0
LINE
  5
276
330
1F
100
AcDbEntity
  8
002
 62
     3
370
    30
100
AcDbLine
 10
596.609384
 20
246.145754
 30
0.0
 11
521.609384
 21
246.145754
 31
0.0
  0
LINE
  5
277
330
1F
100
AcDbEntity
  8
002
 62
     3
370
    30
100
AcDbLine
 10
529.360584
 20
256.145754
 30
0.0
 11
529.360584
 21
262.145754
 31
0.0
  0
LINE
  5
278
330
1F
100
AcDbEntity
  8
002
 62
     3
370
    30
100
AcDbLine
 10
529.360584
 20
262.145754
 30
0.0
 11
539.360584
 21
262.145754
 31
0.0
  0
LINE
  5
279
330
1F
100
AcDbEntity
  8
002
 62
     3
370
    30
100
AcDbLine
 10
539.360584
 20
262.145754
 30
0.0
 11
539.360584
 21
256.145754
 31
0.0
  0
ARC
  5
27A
330
1F
100
AcDbEntity
  8
002
 62
     3
370
    30
100
AcDbCircle
 10
520.109384
 20
230.177054
 30
0.0
 40
3.00005722612082
100
AcDbArc
 50
0.0
 51
41.410861
  0
ARC
  5
27B
330
1F
100
AcDbEntity
  8
002
 62
     3
370
    30
100
AcDbCircle
 10
524.609384
 20
186.145754
 30
0.0
 40
3.0
100
AcDbArc
 50
90.0
 51
180.0
  0
LINE
  5
27C
330
1F
100
AcDbEntity
  8
002
 62
     3
370
    30
100
AcDbLine
 10
521.609384
 20
186.145754
 30
0.0
 11
521.609384
 21
176.145754
 31
0.0
  0
LINE
  5
27D
330
1F
100
AcDbEntity
  8
002
 62
     3
370
    30
100
AcDbLine
 10
521.609384
 20
176.145754
 30
0.0
 11
596.609384
 21
176.145754
 31
0.0
  0
LINE
  5
27E
330
1F
100
AcDbEntity
  8
002
 62
     3
370
    30
100
AcDbLine
 10
596.609384
 20
176.145754
 30
0.0
 11
596.609384
 21
186.805754
 31
0.0
  0
LINE
  5
27F
330
1F
100
AcDbEntity
  8
002
 62
     3
370
    30
100
AcDbLine
 10
601.290884
 20
191.795654
 30
0.0
 11
607.583684
 21
192.197254
 31
0.0
  0
ARC
  5
280
330
1F
100
AcDbEntity
  8
002
 62
     3
370
    30
100
AcDbCircle
 10
607.074084
 20
200.181054
 30
0.0
 40
7.999947365451848
100
AcDbArc
 50
273.652192
 51
356.347762
  0
ARC
  5
281
330
1F
100
AcDbEntity
  8
002
 62
     3
370
    30
100
AcDbCircle
 10
591.109384
 20
215.101354
 30
0.0
 40
15.66944001073435
100
AcDbArc
 50
306.867484
 51
233.132223
  0
ARC
  5
282
330
1F
100
AcDbEntity
  8
002
 62
     3
370
    30
100
AcDbCircle
 10
583.208184
 20
204.565554
 30
0.0
 40
2.499984673952992
100
AcDbArc
 50
233.131477
 51
314.849286
  0
CIRCLE
  5
283
330
1F
100
AcDbEntity
  8
002
 62
     3
370
    30
100
AcDbCircle
 10
586.734384
 20
201.020754
 30
0.0
 40
1.09375
  0
ARC
  5
284
330
1F
100
AcDbEntity
  8
002
 62
     3
370
    30
100
AcDbCircle
 10
586.734384
 20
201.020754
 30
0.0
 40
2.499984673953032
100
AcDbArc
 50
0.0
 51
134.849286
  0
LINE
  5
285
330
1F
100
AcDbEntity
  8
002
 62
     3
370
    30
100
AcDbLine
 10
589.234384
 20
201.020754
 30
0.0
 11
589.234384
 21
198.774154
 31
0.0
  0
LINE
  5
286
330
1F
100
AcDbEntity
  8
002
 62
     3
370
    30
100
AcDbLine
 10
592.984384
 20
198.774154
 30
0.0
 11
592.984384
 21
201.020754
 31
0.0
  0
CIRCLE
  5
287
330
1F
100
AcDbEntity
  8
002
 62
     3
370
    30
100
AcDbCircle
 10
595.484384
 20
201.020754
 30
0.0
 40
1.09375
  0
ARC
  5
288
330
1F
100
AcDbEntity
  8
002
 62
     3
370
    30
100
AcDbCircle
 10
599.010584
 20
204.565554
 30
0.0
 40
2.500020003919964
100
AcDbArc
 50
225.150714
 51
306.866689
  0
ARC
  5
289
330
1F
100
AcDbEntity
  8
002
 62
     3
370
    30
100
AcDbCircle
 10
595.484384
 20
201.020754
 30
0.0
 40
2.5
100
AcDbArc
 50
45.150714
 51
180.0
  0
ARC
  5
28A
330
1F
100
AcDbEntity
  8
002
 62
     3
370
    30
100
AcDbCircle
 10
601.609384
 20
186.805754
 30
0.0
 40
5.0
100
AcDbArc
 50
93.652174
 51
180.0
  0
ARC
  5
28B
330
1F
100
AcDbEntity
  8
002
 62
     3
370
    30
100
AcDbCircle
 10
582.662384
 20
169.145754
 30
0.0
 40
3.000016841619469
100
AcDbArc
 50
90.0
 51
179.167277
  0
LINE
  5
28C
330
1F
100
AcDbEntity
  8
002
 62
     3
370
    30
100
AcDbLine
 10
579.269284
 20
167.145754
 30
0.0
 11
579.269284
 21
172.145754
 31
0.0
  0
LINE
  5
28D
330
1F
100
AcDbEntity
  8
002
 62
     3
370
    30
100
AcDbLine
 10
579.269284
 20
167.145754
 30
0.0
 11
570.769284
 21
167.145754
 31
0.0
  0
LINE
  5
28E
330
1F
100
AcDbEntity
  8
002
 62
     3
370
    30
100
AcDbLine
 10
573.109384
 20
187.145754
 30
0.0
 11
575.877984
 21
187.649154
 31
0.0
  0
ARC
  5
28F
330
1F
100
AcDbEntity
  8
002
 62
     3
370
    30
100
AcDbCircle
 10
575.341384
 20
190.600754
 30
0.0
 40
3.0
100
AcDbArc
 50
280.303822
 51
0.0
  0
ARC
  5
290
330
1F
100
AcDbEntity
  8
002
 62
     3
370
    30
100
AcDbCircle
 10
578.441384
 20
203.477754
 30
0.0
 40
10.00000905449594
100
AcDbArc
 50
183.652211
 51
266.347789
  0
LINE
  5
291
330
1F
100
AcDbEntity
  8
002
 62
     3
370
    30
100
AcDbLine
 10
547.449484
 20
167.145754
 30
0.0
 11
538.949484
 21
167.145754
 31
0.0
  0
ARC
  5
292
330
1F
100
AcDbEntity
  8
002
 62
     3
370
    30
100
AcDbCircle
 10
535.556284
 20
169.145754
 30
0.0
 40
3.0
100
AcDbArc
 50
0.832723
 51
90.0
  0
ARC
  5
293
330
1F
100
AcDbEntity
  8
002
 62
     3
370
    30
100
AcDbCircle
 10
520.109384
 20
190.114354
 30
0.0
 40
3.0
100
AcDbArc
 50
318.590571
 51
0.0
  0
ARC
  5
294
330
1F
100
AcDbEntity
  8
002
 62
     3
370
    30
100
AcDbCircle
 10
605.109384
 20
256.484254
 30
0.0
 40
1.000041124154433
100
AcDbArc
 50
41.412294
 51
138.587706
  0
LINE
  5
295
330
1F
100
AcDbEntity
  8
002
 62
     3
370
    30
100
AcDbLine
 10
531.609384
 20
326.145754
 30
0.0
 11
531.609384
 21
329.145754
 31
0.0
  0
LINE
  5
296
330
1F
100
AcDbEntity
  8
002
 62
     3
370
    30
100
AcDbLine
 10
531.609384
 20
329.145754
 30
0.0
 11
586.609384
 21
329.145754
 31
0.0
  0
LINE
  5
297
330
1F
100
AcDbEntity
  8
002
 62
     3
370
    30
100
AcDbLine
 10
586.609384
 20
329.145754
 30
0.0
 11
586.609384
 21
326.145754
 31
0.0
  0
LINE
  5
298
330
1F
100
AcDbEntity
  8
002
 62
     3
370
    30
100
AcDbLine
 10
585.859384
 20
329.145754
 30
0.0
 11
585.859384
 21
334.145754
 31
0.0
  0
LINE
  5
299
330
1F
100
AcDbEntity
  8
002
 62
     3
370
    30
100
AcDbLine
 10
577.359384
 20
334.145754
 30
0.0
 11
577.359384
 21
329.145754
 31
0.0
  0
LINE
  5
29A
330
1F
100
AcDbEntity
  8
002
 62
     3
370
    30
100
AcDbLine
 10
575.409384
 20
343.145754
 30
0.0
 11
534.809384
 21
343.145754
 31
0.0
  0
ARC
  5
29B
330
1F
100
AcDbEntity
  8
002
 62
     3
370
    30
100
AcDbCircle
 10
534.809384
 20
341.145754
 30
0.0
 40
2.0
100
AcDbArc
 50
90.0
 51
180.0
  0
LINE
  5
29C
330
1F
100
AcDbEntity
  8
002
 62
     3
370
    30
100
AcDbLine
 10
532.809384
 20
341.145754
 30
0.0
 11
532.809384
 21
334.145754
 31
0.0
  0
LINE
  5
29D
330
1F
100
AcDbEntity
  8
002
 62
     3
370
    30
100
AcDbLine
 10
540.859384
 20
334.145754
 30
0.0
 11
540.859384
 21
329.145754
 31
0.0
  0
LINE
  5
29E
330
1F
100
AcDbEntity
  8
002
 62
     3
370
    30
100
AcDbLine
 10
554.859384
 20
329.145754
 30
0.0
 11
554.859384
 21
334.145754
 31
0.0
  0
LINE
  5
29F
330
1F
100
AcDbEntity
  8
002
 62
     3
370
    30
100
AcDbLine
 10
563.359384
 20
334.145754
 30
0.0
 11
563.359384
 21
329.145754
 31
0.0
  0
LINE
  5
2A0
330
1F
100
AcDbEntity
  8
002
 62
     3
370
    30
100
AcDbLine
 10
577.359384
 20
334.145754
 30
0.0
 11
585.859384
 21
334.145754
 31
0.0
  0
ARC
  5
2A1
330
1F
100
AcDbEntity
  8
002
 62
     3
370
    30
100
AcDbCircle
 10
588.109384
 20
347.145754
 30
0.0
 40
0.9999666444436526
100
AcDbArc
 50
279.990722
 51
80.008284
  0
LINE
  5
2A2
330
1F
100
AcDbEntity
  8
002
 62
     3
370
    30
100
AcDbLine
 10
588.282884
 20
348.130554
 30
0.0
 11
577.435784
 21
349.160854
 31
0.0
  0
ARC
  5
2A3
330
1F
100
AcDbEntity
  8
002
 62
     3
370
    30
100
AcDbCircle
 10
577.609384
 20
350.145754
 30
0.0
 40
1.000082481598425
100
AcDbArc
 50
99.997359
 51
260.003636
  0
LINE
  5
2A4
330
1F
100
AcDbEntity
  8
002
 62
     3
370
    30
100
AcDbLine
 10
577.435784
 20
351.130554
 30
0.0
 11
588.282884
 21
352.160854
 31
0.0
  0
ARC
  5
2A5
330
1F
100
AcDbEntity
  8
002
 62
     3
370
    30
100
AcDbCircle
 10
588.109384
 20
353.145754
 30
0.0
 40
0.9999666444436526
100
AcDbArc
 50
279.990722
 51
80.008284
  0
LINE
  5
2A6
330
1F
100
AcDbEntity
  8
002
 62
     3
370
    30
100
AcDbLine
 10
588.282884
 20
354.130554
 30
0.0
 11
577.435784
 21
355.160854
 31
0.0
  0
ARC
  5
2A7
330
1F
100
AcDbEntity
  8
002
 62
     3
370
    30
100
AcDbCircle
 10
577.609384
 20
356.145754
 30
0.0
 40
1.000082481598425
100
AcDbArc
 50
180.0
 51
260.003636
  0
LINE
  5
2A8
330
1F
100
AcDbEntity
  8
002
 62
     3
370
    30
100
AcDbLine
 10
575.609384
 20
356.145754
 30
0.0
 11
542.609384
 21
356.145754
 31
0.0
  0
LINE
  5
2A9
330
1F
100
AcDbEntity
  8
002
 62
     3
370
    30
100
AcDbLine
 10
540.782884
 20
355.160854
 30
0.0
 11
529.935784
 21
354.130554
 31
0.0
  0
ARC
  5
2AA
330
1F
100
AcDbEntity
  8
002
 62
     3
370
    30
100
AcDbCircle
 10
530.109384
 20
353.145754
 30
0.0
 40
1.000082481598435
100
AcDbArc
 50
99.997359
 51
260.003636
  0
LINE
  5
2AB
330
1F
100
AcDbEntity
  8
002
 62
     3
370
    30
100
AcDbLine
 10
529.935784
 20
352.160854
 30
0.0
 11
540.782884
 21
351.130554
 31
0.0
  0
ARC
  5
2AC
330
1F
100
AcDbEntity
  8
002
 62
     3
370
    30
100
AcDbCircle
 10
540.609384
 20
350.145754
 30
0.0
 40
0.9999666444436526
100
AcDbArc
 50
279.990722
 51
80.008284
  0
LINE
  5
2AD
330
1F
100
AcDbEntity
  8
002
 62
     3
370
    30
100
AcDbLine
 10
540.782884
 20
349.160854
 30
0.0
 11
529.935784
 21
348.130554
 31
0.0
  0
ARC
  5
2AE
330
1F
100
AcDbEntity
  8
002
 62
     3
370
    30
100
AcDbCircle
 10
530.109384
 20
347.145754
 30
0.0
 40
1.000082481598435
100
AcDbArc
 50
99.997359
 51
260.003636
  0
LINE
  5
2AF
330
1F
100
AcDbEntity
  8
002
 62
     3
370
    30
100
AcDbLine
 10
529.935784
 20
346.160854
 30
0.0
 11
543.409384
 21
344.145754
 31
0.0
  0
LINE
  5
2B0
330
1F
100
AcDbEntity
  8
002
 62
     3
370
    30
100
AcDbLine
 10
543.409384
 20
344.145754
 30
0.0
 11
543.409384
 21
343.145754
 31
0.0
  0
LINE
  5
2B1
330
1F
100
AcDbEntity
  8
002
 62
     3
370
    30
100
AcDbLine
 10
540.859384
 20
334.145754
 30
0.0
 11
532.359384
 21
334.145754
 31
0.0
  0
LINE
  5
2B2
330
1F
100
AcDbEntity
  8
002
 62
     3
370
    30
100
AcDbLine
 10
532.359384
 20
334.145754
 30
0.0
 11
532.359384
 21
329.145754
 31
0.0
  0
CIRCLE
  5
2B3
330
1F
100
AcDbEntity
  8
002
 62
     3
370
    30
100
AcDbCircle
 10
537.809384
 20
336.645754
 30
0.0
 40
1.0
  0
LINE
  5
2B4
330
1F
100
AcDbEntity
  8
002
 62
     3
370
    30
100
AcDbLine
 10
574.809384
 20
344.145754
 30
0.0
 11
588.282884
 21
346.160854
 31
0.0
  0
LINE
  5
2B5
330
1F
100
AcDbEntity
  8
002
 62
     3
370
    30
100
AcDbLine
 10
588.109384
 20
347.145754
 30
0.0
 11
530.109384
 21
347.145754
 31
0.0
  0
LINE
  5
2B6
330
1F
100
AcDbEntity
  8
002
 62
     3
370
    30
100
AcDbLine
 10
530.109384
 20
353.145754
 30
0.0
 11
588.109384
 21
353.145754
 31
0.0
  0
LINE
  5
2B7
330
1F
100
AcDbEntity
  8
002
 62
     3
370
    30
100
AcDbLine
 10
575.609384
 20
350.145754
 30
0.0
 11
542.609384
 21
350.145754
 31
0.0
  0
ARC
  5
2B8
330
1F
100
AcDbEntity
  8
002
 62
     3
370
    30
100
AcDbCircle
 10
540.609384
 20
356.145754
 30
0.0
 40
1.0
100
AcDbArc
 50
279.990722
 51
0.0
  0
LINE
  5
2B9
330
1F
100
AcDbEntity
  8
002
 62
     3
370
    30
100
AcDbLine
 10
574.809384
 20
344.145754
 30
0.0
 11
574.809384
 21
343.145754
 31
0.0
  0
LINE
  5
2BA
330
1F
100
AcDbEntity
  8
002
 62
     3
370
    30
100
AcDbLine
 10
563.359384
 20
334.145754
 30
0.0
 11
554.859384
 21
334.145754
 31
0.0
  0
LINE
  5
2BB
330
1F
100
AcDbEntity
  8
002
  6
PHANTOM
 62
    40
370
     9
100
AcDbLine
 10
529.109384
 20
394.445754
 30
0.0
 11
529.109384
 21
353.145754
 31
0.0
  0
LINE
  5
2BC
330
1F
100
AcDbEntity
  8
002
  6
PHANTOM
 62
    40
370
     9
100
AcDbLine
 10
541.609384
 20
356.145754
 30
0.0
 11
541.609384
 21
391.445754
 31
0.0
  0
LINE
  5
2BD
330
1F
100
AcDbEntity
  8
002
  6
PHANTOM
 62
    40
370
     9
100
AcDbLine
 10
576.609384
 20
391.445754
 30
0.0
 11
576.609384
 21
356.145754
 31
0.0
  0
LINE
  5
2BE
330
1F
100
AcDbEntity
  8
002
  6
PHANTOM
 62
    40
370
     9
100
AcDbLine
 10
589.109384
 20
353.145754
 30
0.0
 11
589.109384
 21
394.445754
 31
0.0
  0
LINE
  5
2BF
330
1F
100
AcDbEntity
  8
002
  6
CENTER
 62
    40
370
     9
100
AcDbLine
 10
581.609384
 20
323.145754
 30
0.0
 11
581.609384
 21
336.867354
 31
0.0
  0
LINE
  5
2C0
330
1F
100
AcDbEntity
  8
002
  6
CENTER
 62
    40
370
     9
100
AcDbLine
 10
535.441584
 20
336.645754
 30
0.0
 11
540.466684
 21
336.645754
 31
0.0
  0
LINE
  5
2C1
330
1F
100
AcDbEntity
  8
002
  6
CENTER
 62
    40
370
     9
100
AcDbLine
 10
537.809384
 20
340.153454
 30
0.0
 11
537.809384
 21
333.393554
 31
0.0
  0
LINE
  5
2C2
330
1F
100
AcDbEntity
  8
002
  6
CENTER
 62
    40
370
     9
100
AcDbLine
 10
536.609384
 20
336.867354
 30
0.0
 11
536.609384
 21
323.145754
 31
0.0
  0
LINE
  5
2C3
330
1F
100
AcDbEntity
  8
002
  6
CENTER
 62
    40
370
     9
100
AcDbLine
 10
567.882384
 20
306.645754
 30
0.0
 11
550.709084
 21
306.645754
 31
0.0
  0
LINE
  5
2C4
330
1F
100
AcDbEntity
  8
002
  6
CENTER
 62
    40
370
     9
100
AcDbLine
 10
534.360584
 20
266.645754
 30
0.0
 11
534.360584
 21
240.312054
 31
0.0
  0
LINE
  5
2C5
330
1F
100
AcDbEntity
  8
002
  6
CENTER
 62
    40
370
     9
100
AcDbLine
 10
583.858084
 20
240.312054
 30
0.0
 11
583.858084
 21
266.645754
 31
0.0
  0
LINE
  5
2C6
330
1F
100
AcDbEntity
  8
002
  6
CENTER
 62
    40
370
     9
100
AcDbLine
 10
591.109384
 20
264.706254
 30
0.0
 11
591.109384
 21
168.102554
 31
0.0
  0
LINE
  5
2C7
330
1F
100
AcDbEntity
  8
002
  6
CENTER
 62
    40
370
     9
100
AcDbLine
 10
605.109384
 20
241.404054
 30
0.0
 11
605.109384
 21
259.749754
 31
0.0
  0
LINE
  5
2C8
330
1F
100
AcDbEntity
  8
002
  6
CENTER
 62
    40
370
     9
100
AcDbLine
 10
543.199484
 20
178.145754
 30
0.0
 11
543.199484
 21
164.424154
 31
0.0
  0
LINE
  5
2C9
330
1F
100
AcDbEntity
  8
002
  6
CENTER
 62
    40
370
     9
100
AcDbLine
 10
575.019284
 20
164.424154
 30
0.0
 11
575.019284
 21
178.145754
 31
0.0
  0
LINE
  5
2CA
330
1F
100
AcDbEntity
  8
002
  6
DASHED
 62
    40
370
     9
100
AcDbLine
 10
571.109384
 20
186.145754
 30
0.0
 11
571.109384
 21
186.609854
 31
0.0
  0
LINE
  5
2CB
330
1F
100
AcDbEntity
  8
002
  6
DASHED
 62
    40
370
     9
100
AcDbLine
 10
547.109384
 20
186.145754
 30
0.0
 11
547.109384
 21
186.609854
 31
0.0
  0
LINE
  5
2CC
330
1F
100
AcDbEntity
  8
002
  6
HIDDEN
 62
    40
370
     9
100
AcDbLine
 10
552.476084
 20
186.145754
 30
0.0
 11
547.109384
 21
186.145754
 31
0.0
  0
LINE
  5
2CD
330
1F
100
AcDbEntity
  8
002
  6
HIDDEN
 62
    40
370
     9
100
AcDbLine
 10
553.609384
 20
176.145754
 30
0.0
 11
553.609384
 21
186.145754
 31
0.0
  0
LINE
  5
2CE
330
1F
100
AcDbEntity
  8
002
  6
HIDDEN
 62
    40
370
     9
100
AcDbLine
 10
564.609384
 20
186.145754
 30
0.0
 11
564.609384
 21
176.145754
 31
0.0
  0
LINE
  5
2CF
330
1F
100
AcDbEntity
  8
002
  6
HIDDEN
 62
    40
370
     9
100
AcDbLine
 10
571.109384
 20
186.145754
 30
0.0
 11
565.742584
 21
186.145754
 31
0.0
  0
ARC
  5
2D0
330
1F
100
AcDbEntity
  8
002
 62
     3
370
    30
100
AcDbCircle
 10
540.609384
 20
391.445754
 30
0.0
 40
0.9999666444436526
100
AcDbArc
 50
0.0
 51
80.008284
  0
LINE
  5
2D1
330
1F
100
AcDbEntity
  8
002
 62
     3
370
    30
100
AcDbLine
 10
540.782884
 20
392.430554
 30
0.0
 11
529.935784
 21
393.460854
 31
0.0
  0
LINE
  5
2D2
330
1F
100
AcDbEntity
  8
002
 62
     3
370
    30
100
AcDbLine
 10
530.109384
 20
394.445754
 30
0.0
 11
588.109384
 21
394.445754
 31
0.0
  0
ARC
  5
2D3
330
1F
100
AcDbEntity
  8
002
 62
     3
370
    30
100
AcDbCircle
 10
588.109384
 20
394.445754
 30
0.0
 40
0.9999666444436526
100
AcDbArc
 50
279.990722
 51
80.008284
  0
LINE
  5
2D4
330
1F
100
AcDbEntity
  8
002
 62
     3
370
    30
100
AcDbLine
 10
588.282884
 20
395.430554
 30
0.0
 11
577.435784
 21
396.460854
 31
0.0
  0
ARC
  5
2D5
330
1F
100
AcDbEntity
  8
002
 62
     3
370
    30
100
AcDbCircle
 10
577.609384
 20
397.445754
 30
0.0
 40
1.000082481598425
100
AcDbArc
 50
99.997359
 51
260.003636
  0
LINE
  5
2D6
330
1F
100
AcDbEntity
  8
002
 62
     3
370
    30
100
AcDbLine
 10
577.435784
 20
398.430554
 30
0.0
 11
588.282884
 21
399.460854
 31
0.0
  0
ARC
  5
2D7
330
1F
100
AcDbEntity
  8
002
 62
     3
370
    30
100
AcDbCircle
 10
588.109384
 20
400.445754
 30
0.0
 40
0.9999666444436526
100
AcDbArc
 50
279.990722
 51
80.008284
  0
LINE
  5
2D8
330
1F
100
AcDbEntity
  8
002
 62
     3
370
    30
100
AcDbLine
 10
588.282884
 20
401.430554
 30
0.0
 11
569.809384
 21
403.445754
 31
0.0
  0
LINE
  5
2D9
330
1F
100
AcDbEntity
  8
002
 62
     3
370
    30
100
AcDbLine
 10
548.409384
 20
403.445754
 30
0.0
 11
529.935784
 21
401.430554
 31
0.0
  0
ARC
  5
2DA
330
1F
100
AcDbEntity
  8
002
 62
     3
370
    30
100
AcDbCircle
 10
530.109384
 20
400.445754
 30
0.0
 40
1.000082481598435
100
AcDbArc
 50
99.997359
 51
260.003636
  0
LINE
  5
2DB
330
1F
100
AcDbEntity
  8
002
 62
     3
370
    30
100
AcDbLine
 10
529.935784
 20
399.460854
 30
0.0
 11
540.782884
 21
398.430554
 31
0.0
  0
LINE
  5
2DC
330
1F
100
AcDbEntity
  8
002
 62
     3
370
    30
100
AcDbLine
 10
540.782884
 20
396.460854
 30
0.0
 11
529.935784
 21
395.430554
 31
0.0
  0
ARC
  5
2DD
330
1F
100
AcDbEntity
  8
002
 62
     3
370
    30
100
AcDbCircle
 10
530.109384
 20
394.445754
 30
0.0
 40
1.000082481598435
100
AcDbArc
 50
99.997359
 51
260.003636
  0
LINE
  5
2DE
330
1F
100
AcDbEntity
  8
002
 62
     3
370
    30
100
AcDbLine
 10
530.109384
 20
400.445754
 30
0.0
 11
588.109384
 21
400.445754
 31
0.0
  0
LINE
  5
2DF
330
1F
100
AcDbEntity
  8
002
 62
     3
370
    30
100
AcDbLine
 10
588.282884
 20
393.460854
 30
0.0
 11
577.435784
 21
392.430554
 31
0.0
  0
ARC
  5
2E0
330
1F
100
AcDbEntity
  8
002
 62
     3
370
    30
100
AcDbCircle
 10
577.609384
 20
391.445754
 30
0.0
 40
1.0
100
AcDbArc
 50
99.997359
 51
180.0
  0
LINE
  5
2E1
330
1F
100
AcDbEntity
  8
002
 62
     3
370
    30
100
AcDbLine
 10
575.609384
 20
391.445754
 30
0.0
 11
542.609384
 21
391.445754
 31
0.0
  0
ARC
  5
2E2
330
1F
100
AcDbEntity
  8
002
 62
     3
370
    30
100
AcDbCircle
 10
540.609384
 20
397.445754
 30
0.0
 40
0.9999666444436526
100
AcDbArc
 50
279.990722
 51
80.008284
  0
LINE
  5
2E3
330
1F
100
AcDbEntity
  8
002
 62
     3
370
    30
100
AcDbLine
 10
542.609384
 20
397.445754
 30
0.0
 11
575.609384
 21
397.445754
 31
0.0
  0
LINE
  5
2E4
330
1F
100
AcDbEntity
  8
002
 62
     3
370
    30
100
AcDbLine
 10
569.809384
 20
403.445754
 30
0.0
 11
569.809384
 21
404.445754
 31
0.0
  0
LINE
  5
2E5
330
1F
100
AcDbEntity
  8
002
 62
     3
370
    30
100
AcDbLine
 10
570.409384
 20
404.445754
 30
0.0
 11
539.809384
 21
404.445754
 31
0.0
  0
LINE
  5
2E6
330
1F
100
AcDbEntity
  8
002
 62
     3
370
    30
100
AcDbLine
 10
548.409384
 20
404.445754
 30
0.0
 11
548.409384
 21
403.445754
 31
0.0
  0
CIRCLE
  5
2E7
330
1F
100
AcDbEntity
  8
002
 62
     3
370
    30
100
AcDbCircle
 10
542.809384
 20
410.945754
 30
0.0
 40
1.0
  0
LINE
  5
2E8
330
1F
100
AcDbEntity
  8
002
 62
     3
370
    30
100
AcDbLine
 10
548.409384
 20
419.445754
 30
0.0
 11
569.809384
 21
419.445754
 31
0.0
  0
LINE
  5
2E9
330
1F
100
AcDbEntity
  8
002
 62
     3
370
    30
100
AcDbLine
 10
564.959384
 20
419.445754
 30
0.0
 11
564.959384
 21
422.445754
 31
0.0
  0
LINE
  5
2EA
330
1F
100
AcDbEntity
  8
002
 62
     3
370
    30
100
AcDbLine
 10
566.109384
 20
439.445754
 30
0.0
 11
566.109384
 21
422.445754
 31
0.0
  0
LINE
  5
2EB
330
1F
100
AcDbEntity
  8
002
 62
     3
370
    30
100
AcDbLine
 10
552.109384
 20
439.445754
 30
0.0
 11
566.109384
 21
439.445754
 31
0.0
  0
LINE
  5
2EC
330
1F
100
AcDbEntity
  8
002
 62
     3
370
    30
100
AcDbLine
 10
552.109384
 20
439.445754
 30
0.0
 11
552.109384
 21
422.445754
 31
0.0
  0
LINE
  5
2ED
330
1F
100
AcDbEntity
  8
002
 62
     3
370
    30
100
AcDbLine
 10
552.109384
 20
422.445754
 30
0.0
 11
566.109384
 21
422.445754
 31
0.0
  0
LINE
  5
2EE
330
1F
100
AcDbEntity
  8
002
 62
     3
370
    30
100
AcDbLine
 10
553.259384
 20
422.445754
 30
0.0
 11
553.259384
 21
419.445754
 31
0.0
  0
LINE
  5
2EF
330
1F
100
AcDbEntity
  8
002
 62
    40
370
     9
100
AcDbLine
 10
553.159384
 20
422.445754
 30
0.0
 11
553.159384
 21
439.445754
 31
0.0
  0
LINE
  5
2F0
330
1F
100
AcDbEntity
  8
002
 62
    40
370
     9
100
AcDbLine
 10
565.059384
 20
439.445754
 30
0.0
 11
565.059384
 21
422.445754
 31
0.0
  0
LINE
  5
2F1
330
1F
100
AcDbEntity
  8
002
  6
CENTER
 62
    40
370
     9
100
AcDbLine
 10
542.809384
 20
407.693554
 30
0.0
 11
542.809384
 21
414.453454
 31
0.0
  0
LINE
  5
2F2
330
1F
100
AcDbEntity
  8
002
  6
CENTER
 62
    40
370
     9
100
AcDbLine
 10
540.441584
 20
410.945754
 30
0.0
 11
545.466684
 21
410.945754
 31
0.0
  0
LINE
  5
2F3
330
1F
100
AcDbEntity
  8
002
 62
     3
370
    30
100
AcDbLine
 10
541.109384
 20
76.145754
 30
0.0
 11
577.109384
 21
76.145754
 31
0.0
  0
LINE
  5
2F4
330
1F
100
AcDbEntity
  8
002
 62
     3
370
    30
100
AcDbLine
 10
577.109384
 20
76.145754
 30
0.0
 11
577.109384
 21
59.145754
 31
0.0
  0
LINE
  5
2F5
330
1F
100
AcDbEntity
  8
002
 62
     3
370
    30
100
AcDbLine
 10
574.109384
 20
56.145754
 30
0.0
 11
544.109384
 21
56.145754
 31
0.0
  0
LINE
  5
2F6
330
1F
100
AcDbEntity
  8
002
 62
     3
370
    30
100
AcDbLine
 10
541.109384
 20
59.145754
 30
0.0
 11
541.109384
 21
76.145754
 31
0.0
  0
ARC
  5
2F7
330
1F
100
AcDbEntity
  8
002
 62
     3
370
    30
100
AcDbCircle
 10
544.109384
 20
59.145754
 30
0.0
 40
3.0
100
AcDbArc
 50
180.0
 51
270.0
  0
ARC
  5
2F8
330
1F
100
AcDbEntity
  8
002
 62
     3
370
    30
100
AcDbCircle
 10
574.109384
 20
59.145754
 30
0.0
 40
3.0
100
AcDbArc
 50
270.0
 51
0.0
  0
ARC
  5
2F9
330
1F
100
AcDbEntity
  8
002
 62
     3
370
    30
100
AcDbCircle
 10
539.809384
 20
406.445754
 30
0.0
 40
2.0
100
AcDbArc
 50
180.0
 51
270.0
  0
LINE
  5
2FA
330
1F
100
AcDbEntity
  8
002
 62
     3
370
    30
100
AcDbLine
 10
537.809384
 20
406.445754
 30
0.0
 11
537.809384
 21
414.445754
 31
0.0
  0
LINE
  5
2FB
330
1F
100
AcDbEntity
  8
002
 62
     3
370
    30
100
AcDbLine
 10
570.409384
 20
416.445754
 30
0.0
 11
570.409384
 21
404.445754
 31
0.0
  0
LINE
  5
2FC
330
1F
100
AcDbEntity
  8
002
 62
     3
370
    30
100
AcDbLine
 10
569.809384
 20
416.445754
 30
0.0
 11
569.809384
 21
419.445754
 31
0.0
  0
LINE
  5
2FD
330
1F
100
AcDbEntity
  8
002
 62
     3
370
    30
100
AcDbLine
 10
548.409384
 20
419.445754
 30
0.0
 11
548.409384
 21
416.445754
 31
0.0
  0
LINE
  5
2FE
330
1F
100
AcDbEntity
  8
002
 62
     3
370
    30
100
AcDbLine
 10
547.809384
 20
416.445754
 30
0.0
 11
547.809384
 21
404.445754
 31
0.0
  0
ARC
  5
2FF
330
1F
100
AcDbEntity
  8
002
 62
     3
370
    30
100
AcDbCircle
 10
539.809384
 20
414.445754
 30
0.0
 40
2.0
100
AcDbArc
 50
90.0
 51
180.0
  0
LINE
  5
300
330
1F
100
AcDbEntity
  8
002
 62
     3
370
    30
100
AcDbLine
 10
539.809384
 20
416.445754
 30
0.0
 11
570.409384
 21
416.445754
 31
0.0
  0
LINE
  5
301
330
1F
100
AcDbEntity
  8
002
 62
     3
370
    30
100
AcDbLine
 10
575.409384
 20
331.145754
 30
0.0
 11
575.409384
 21
343.145754
 31
0.0
  0
LINE
  5
302
330
1F
100
AcDbEntity
  8
002
 62
     3
370
    30
100
AcDbLine
 10
540.859384
 20
331.145754
 30
0.0
 11
554.859384
 21
331.145754
 31
0.0
  0
LINE
  5
303
330
1F
100
AcDbEntity
  8
002
 62
     3
370
    30
100
AcDbLine
 10
563.359384
 20
331.145754
 30
0.0
 11
575.409384
 21
331.145754
 31
0.0
  0
LINE
  5
304
330
1F
100
AcDbEntity
  8
002
 62
     3
370
    30
100
AcDbLine
 10
574.109384
 20
331.145754
 30
0.0
 11
574.109384
 21
329.145754
 31
0.0
  0
LINE
  5
305
330
1F
100
AcDbEntity
  8
002
 62
     3
370
    30
100
AcDbLine
 10
542.809384
 20
343.145754
 30
0.0
 11
542.809384
 21
331.145754
 31
0.0
  0
LINE
  5
306
330
1F
100
AcDbEntity
  8
002
 62
     3
370
    30
100
AcDbLine
 10
544.109384
 20
331.145754
 30
0.0
 11
544.109384
 21
329.145754
 31
0.0
  0
LINE
  5
307
330
1F
100
AcDbEntity
  8
002
 62
     3
370
    30
100
AcDbLine
 10
695.552559
 20
95.845754
 30
0.0
 11
695.552559
 21
92.845754
 31
0.0
  0
LINE
  5
308
330
1F
100
AcDbEntity
  8
002
 62
     3
370
    30
100
AcDbLine
 10
696.702559
 20
75.845754
 30
0.0
 11
696.702559
 21
92.845754
 31
0.0
  0
LINE
  5
309
330
1F
100
AcDbEntity
  8
002
 62
     3
370
    30
100
AcDbLine
 10
682.702559
 20
75.845754
 30
0.0
 11
682.702559
 21
92.845754
 31
0.0
  0
LINE
  5
30A
330
1F
100
AcDbEntity
  8
002
 62
     3
370
    30
100
AcDbLine
 10
682.702559
 20
92.845754
 30
0.0
 11
696.702559
 21
92.845754
 31
0.0
  0
LINE
  5
30B
330
1F
100
AcDbEntity
  8
002
 62
     3
370
    30
100
AcDbLine
 10
683.852559
 20
92.845754
 30
0.0
 11
683.852559
 21
95.845754
 31
0.0
  0
LINE
  5
30C
330
1F
100
AcDbEntity
  8
002
 62
    40
370
     9
100
AcDbLine
 10
683.752559
 20
75.845754
 30
0.0
 11
683.752559
 21
92.845754
 31
0.0
  0
LINE
  5
30D
330
1F
100
AcDbEntity
  8
002
 62
    40
370
     9
100
AcDbLine
 10
695.652559
 20
92.845754
 30
0.0
 11
695.652559
 21
75.845754
 31
0.0
  0
LINE
  5
30E
330
1F
100
AcDbEntity
  8
002
 62
     3
370
    30
100
AcDbLine
 10
682.702559
 20
75.845754
 30
0.0
 11
696.702559
 21
75.845754
 31
0.0
  0
LINE
  5
30F
330
1F
100
AcDbEntity
  8
002
 62
     3
370
    30
100
AcDbLine
 10
747.700559
 20
198.645754
 30
0.0
 11
747.700559
 21
233.645754
 31
0.0
  0
ARC
  5
310
330
1F
100
AcDbEntity
  8
002
 62
     3
370
    30
100
AcDbCircle
 10
748.702559
 20
236.473754
 30
0.0
 40
3.0
100
AcDbArc
 50
180.0
 51
250.490051
  0
LINE
  5
311
330
1F
100
AcDbEntity
  8
002
 62
     3
370
    30
100
AcDbLine
 10
745.702559
 20
236.473754
 30
0.0
 11
745.702559
 21
244.145754
 31
0.0
  0
LINE
  5
312
330
1F
100
AcDbEntity
  8
002
 62
     3
370
    30
100
AcDbLine
 10
745.702559
 20
244.145754
 30
0.0
 11
727.927559
 21
244.145754
 31
0.0
  0
ARC
  5
313
330
1F
100
AcDbEntity
  8
002
 62
     3
370
    30
100
AcDbCircle
 10
727.927559
 20
246.145754
 30
0.0
 40
2.0
100
AcDbArc
 50
180.0
 51
270.0
  0
LINE
  5
314
330
1F
100
AcDbEntity
  8
002
 62
     3
370
    30
100
AcDbLine
 10
727.202559
 20
246.145754
 30
0.0
 11
652.202559
 21
246.145754
 31
0.0
  0
LINE
  5
315
330
1F
100
AcDbEntity
  8
002
 62
     3
370
    30
100
AcDbLine
 10
652.202559
 20
256.145754
 30
0.0
 11
652.202559
 21
234.145754
 31
0.0
  0
ARC
  5
316
330
1F
100
AcDbEntity
  8
002
 62
     3
370
    30
100
AcDbCircle
 10
650.702559
 20
230.177054
 30
0.0
 40
3.0
100
AcDbArc
 50
0.0
 51
41.410861
  0
LINE
  5
317
330
1F
100
AcDbEntity
  8
002
 62
     3
370
    30
100
AcDbLine
 10
653.702559
 20
230.177054
 30
0.0
 11
653.702559
 21
190.114354
 31
0.0
  0
ARC
  5
318
330
1F
100
AcDbEntity
  8
002
 62
     3
370
    30
100
AcDbCircle
 10
650.702559
 20
190.114354
 30
0.0
 40
2.999991081653385
100
AcDbArc
 50
318.590571
 51
0.0
  0
LINE
  5
319
330
1F
100
AcDbEntity
  8
002
 62
     3
370
    30
100
AcDbLine
 10
652.202559
 20
186.145754
 30
0.0
 11
652.202559
 21
176.145754
 31
0.0
  0
LINE
  5
31A
330
1F
100
AcDbEntity
  8
002
 62
     3
370
    30
100
AcDbLine
 10
652.202559
 20
176.145754
 30
0.0
 11
727.202559
 21
176.145754
 31
0.0
  0
LINE
  5
31B
330
1F
100
AcDbEntity
  8
002
 62
     3
370
    30
100
AcDbLine
 10
727.202559
 20
176.145754
 30
0.0
 11
727.202559
 21
186.805754
 31
0.0
  0
ARC
  5
31C
330
1F
100
AcDbEntity
  8
002
 62
     3
370
    30
100
AcDbCircle
 10
732.202559
 20
186.805754
 30
0.0
 40
5.000086300255202
100
AcDbArc
 50
93.657892
 51
180.0
  0
LINE
  5
31D
330
1F
100
AcDbEntity
  8
002
 62
     3
370
    30
100
AcDbLine
 10
731.883559
 20
191.795654
 30
0.0
 11
738.176559
 21
192.197254
 31
0.0
  0
LINE
  5
31E
330
1F
100
AcDbEntity
  8
002
 62
     3
370
    30
100
AcDbLine
 10
735.007559
 20
193.498054
 30
0.0
 11
721.606559
 21
192.642654
 31
0.0
  0
LINE
  5
31F
330
1F
100
AcDbEntity
  8
002
 62
     3
370
    30
100
AcDbLine
 10
721.797559
 20
192.642654
 30
0.0
 11
708.397559
 21
193.498054
 31
0.0
  0
ARC
  5
320
330
1F
100
AcDbEntity
  8
002
 62
     3
370
    30
100
AcDbCircle
 10
709.034559
 20
203.477754
 30
0.0
 40
10.0003084452431
100
AcDbArc
 50
183.652101
 51
266.347789
  0
LINE
  5
321
330
1F
100
AcDbEntity
  8
002
 62
     3
370
    30
100
AcDbLine
 10
698.924559
 20
194.464254
 30
0.0
 11
697.537559
 21
216.199054
 31
0.0
  0
LINE
  5
322
330
1F
100
AcDbEntity
  8
002
 62
     3
370
    30
100
AcDbLine
 10
697.537559
 20
216.092454
 30
0.0
 11
698.541559
 21
231.831954
 31
0.0
  0
ARC
  5
323
330
1F
100
AcDbEntity
  8
002
 62
     3
370
    30
100
AcDbCircle
 10
706.525559
 20
231.322254
 30
0.0
 40
8.000008964994937
100
AcDbArc
 50
93.647904
 51
176.347184
  0
LINE
  5
324
330
1F
100
AcDbEntity
  8
002
 62
     3
370
    30
100
AcDbLine
 10
706.016559
 20
239.306054
 30
0.0
 11
721.432559
 21
240.312054
 31
0.0
  0
LINE
  5
325
330
1F
100
AcDbEntity
  8
002
 62
     3
370
    30
100
AcDbLine
 10
721.432559
 20
240.312054
 30
0.0
 11
723.214559
 21
240.483454
 31
0.0
  0
LINE
  5
326
330
1F
100
AcDbEntity
  8
002
 62
     3
370
    30
100
AcDbLine
 10
721.797559
 20
239.648754
 30
0.0
 11
708.397559
 21
238.793454
 31
0.0
  0
LINE
  5
327
330
1F
100
AcDbEntity
  8
002
 62
     3
370
    30
100
AcDbLine
 10
698.498559
 20
231.145754
 30
0.0
 11
655.202559
 21
231.145754
 31
0.0
  0
ARC
  5
328
330
1F
100
AcDbEntity
  8
002
 62
     3
370
    30
100
AcDbCircle
 10
655.202559
 20
234.145754
 30
0.0
 40
3.0
100
AcDbArc
 50
180.0
 51
270.0
  0
LINE
  5
329
330
1F
100
AcDbEntity
  8
002
 62
     3
370
    30
100
AcDbLine
 10
653.834559
 20
231.475654
 30
0.0
 11
661.964559
 21
227.310954
 31
0.0
  0
LINE
  5
32A
330
1F
100
AcDbEntity
  8
002
 62
     3
370
    30
100
AcDbLine
 10
666.169559
 20
226.703654
 30
0.0
 11
687.863559
 21
230.798654
 31
0.0
  0
ARC
  5
32B
330
1F
100
AcDbEntity
  8
002
 62
     3
370
    30
100
AcDbCircle
 10
691.573559
 20
211.145754
 30
0.0
 40
20.0
100
AcDbArc
 50
90.0
 51
100.690277
  0
LINE
  5
32C
330
1F
100
AcDbEntity
  8
002
 62
     3
370
    30
100
AcDbLine
 10
699.054559
 20
229.450754
 30
0.0
 11
698.199559
 21
216.050154
 31
0.0
  0
LINE
  5
32D
330
1F
100
AcDbEntity
  8
002
 62
     3
370
    30
100
AcDbLine
 10
698.199559
 20
216.241254
 30
0.0
 11
699.794559
 21
191.252754
 31
0.0
  0
ARC
  5
32E
330
1F
100
AcDbEntity
  8
002
 62
     3
370
    30
100
AcDbCircle
 10
696.800559
 20
191.061654
 30
0.0
 40
3.0
100
AcDbArc
 50
270.0
 51
3.652101
  0
LINE
  5
32F
330
1F
100
AcDbEntity
  8
002
 62
     3
370
    30
100
AcDbLine
 10
696.335559
 20
187.145754
 30
0.0
 11
699.702559
 21
187.145754
 31
0.0
  0
ARC
  5
330
330
1F
100
AcDbEntity
  8
002
 62
     3
370
    30
100
AcDbCircle
 10
699.702559
 20
183.145754
 30
0.0
 40
4.0
100
AcDbArc
 50
0.0
 51
90.0
  0
LINE
  5
331
330
1F
100
AcDbEntity
  8
002
 62
     3
370
    30
100
AcDbLine
 10
703.702559
 20
183.145754
 30
0.0
 11
703.702559
 21
176.145754
 31
0.0
  0
LINE
  5
332
330
1F
100
AcDbEntity
  8
002
 62
     3
370
    30
100
AcDbLine
 10
675.702559
 20
176.145754
 30
0.0
 11
675.702559
 21
183.145754
 31
0.0
  0
ARC
  5
333
330
1F
100
AcDbEntity
  8
002
 62
     3
370
    30
100
AcDbCircle
 10
679.702559
 20
183.145754
 30
0.0
 40
4.0
100
AcDbArc
 50
90.0
 51
180.0
  0
LINE
  5
334
330
1F
100
AcDbEntity
  8
002
 62
     3
370
    30
100
AcDbLine
 10
679.702559
 20
187.145754
 30
0.0
 11
683.068559
 21
187.145754
 31
0.0
  0
LINE
  5
335
330
1F
100
AcDbEntity
  8
002
 62
     3
370
    30
100
AcDbLine
 10
683.068559
 20
187.145754
 30
0.0
 11
683.068559
 21
186.145754
 31
0.0
  0
LINE
  5
336
330
1F
100
AcDbEntity
  8
002
 62
     3
370
    30
100
AcDbLine
 10
683.068559
 20
186.145754
 30
0.0
 11
696.335559
 21
186.145754
 31
0.0
  0
LINE
  5
337
330
1F
100
AcDbEntity
  8
002
 62
     3
370
    30
100
AcDbLine
 10
696.335559
 20
186.145754
 30
0.0
 11
696.335559
 21
187.145754
 31
0.0
  0
LINE
  5
338
330
1F
100
AcDbEntity
  8
002
 62
     3
370
    30
100
AcDbLine
 10
693.934559
 20
189.145754
 30
0.0
 11
655.202559
 21
189.145754
 31
0.0
  0
ARC
  5
339
330
1F
100
AcDbEntity
  8
002
 62
     3
370
    30
100
AcDbCircle
 10
655.202559
 20
186.145754
 30
0.0
 40
3.0
100
AcDbArc
 50
90.0
 51
180.0
  0
LINE
  5
33A
330
1F
100
AcDbEntity
  8
002
 62
     3
370
    30
100
AcDbLine
 10
664.702559
 20
189.145754
 30
0.0
 11
675.702559
 21
187.145754
 31
0.0
  0
ARC
  5
33B
330
1F
100
AcDbEntity
  8
002
 62
     3
370
    30
100
AcDbCircle
 10
689.702559
 20
125.361354
 30
0.0
 40
62.41289376691327
100
AcDbArc
 50
81.86203
 51
98.138879
  0
LINE
  5
33C
330
1F
100
AcDbEntity
  8
002
 62
     3
370
    30
100
AcDbLine
 10
703.702559
 20
187.145754
 30
0.0
 11
706.470559
 21
187.649154
 31
0.0
  0
LINE
  5
33D
330
1F
100
AcDbEntity
  8
002
 62
     3
370
    30
100
AcDbLine
 10
708.934559
 20
190.600754
 30
0.0
 11
708.934559
 21
190.852754
 31
0.0
  0
ARC
  5
33E
330
1F
100
AcDbEntity
  8
002
 62
     3
370
    30
100
AcDbCircle
 10
705.934559
 20
190.600754
 30
0.0
 40
2.999873090648998
100
AcDbArc
 50
280.292547
 51
0.0
  0
LINE
  5
33F
330
1F
100
AcDbEntity
  8
002
 62
     3
370
    30
100
AcDbLine
 10
714.702559
 20
187.145754
 30
0.0
 11
714.702559
 21
176.145754
 31
0.0
  0
LINE
  5
340
330
1F
100
AcDbEntity
  8
002
 62
     3
370
    30
100
AcDbLine
 10
719.827559
 20
198.774154
 30
0.0
 11
719.827559
 21
201.020754
 31
0.0
  0
CIRCLE
  5
341
330
1F
100
AcDbEntity
  8
002
 62
     3
370
    30
100
AcDbCircle
 10
717.327559
 20
201.020754
 30
0.0
 40
1.09375
  0
ARC
  5
342
330
1F
100
AcDbEntity
  8
002
 62
     3
370
    30
100
AcDbCircle
 10
717.327559
 20
201.020754
 30
0.0
 40
2.5
100
AcDbArc
 50
0.0
 51
134.847661
  0
LINE
  5
343
330
1F
100
AcDbEntity
  8
002
 62
     3
370
    30
100
AcDbLine
 10
723.577559
 20
201.020754
 30
0.0
 11
723.577559
 21
198.774154
 31
0.0
  0
ARC
  5
344
330
1F
100
AcDbEntity
  8
002
 62
     3
370
    30
100
AcDbCircle
 10
726.077559
 20
201.020754
 30
0.0
 40
2.499914150525921
100
AcDbArc
 50
45.152339
 51
180.0
  0
ARC
  5
345
330
1F
100
AcDbEntity
  8
002
 62
     3
370
    30
100
AcDbCircle
 10
729.603559
 20
204.565554
 30
0.0
 40
2.49991415052604
100
AcDbArc
 50
225.152339
 51
306.868523
  0
CIRCLE
  5
346
330
1F
100
AcDbEntity
  8
002
 62
     3
370
    30
100
AcDbCircle
 10
726.077559
 20
201.020754
 30
0.0
 40
1.09375
  0
ARC
  5
347
330
1F
100
AcDbEntity
  8
002
 62
     3
370
    30
100
AcDbCircle
 10
713.800559
 20
204.565554
 30
0.0
 40
2.499480147950763
100
AcDbArc
 50
233.149816
 51
314.863906
  0
ARC
  5
348
330
1F
100
AcDbEntity
  8
002
 62
     3
370
    30
100
AcDbCircle
 10
721.702559
 20
215.101354
 30
0.0
 40
15.66932001747374
100
AcDbArc
 50
306.867192
 51
233.132808
  0
ARC
  5
349
330
1F
100
AcDbEntity
  8
002
 62
     3
370
    30
100
AcDbCircle
 10
734.370559
 20
203.477754
 30
0.0
 40
10.00000905449595
100
AcDbArc
 50
273.652211
 51
356.347534
  0
ARC
  5
34A
330
1F
100
AcDbEntity
  8
002
 62
     3
370
    30
100
AcDbCircle
 10
747.688559
 20
195.645754
 30
0.0
 40
3.000023999904001
100
AcDbArc
 50
89.770818
 51
155.649463
  0
LINE
  5
34B
330
1F
100
AcDbEntity
  8
002
 62
     3
370
    30
100
AcDbLine
 10
747.700559
 20
198.645754
 30
0.0
 11
747.675559
 21
198.645754
 31
0.0
  0
ARC
  5
34C
330
1F
100
AcDbEntity
  8
002
 62
     3
370
    30
100
AcDbCircle
 10
737.666559
 20
200.181054
 30
0.0
 40
8.000072652170077
100
AcDbArc
 50
273.655051
 51
356.347899
  0
LINE
  5
34D
330
1F
100
AcDbEntity
  8
002
 62
     3
370
    30
100
AcDbLine
 10
745.650559
 20
199.671454
 30
0.0
 11
746.702559
 21
216.145754
 31
0.0
  0
LINE
  5
34E
330
1F
100
AcDbEntity
  8
002
 62
     3
370
    30
100
AcDbLine
 10
746.702559
 20
216.145754
 30
0.0
 11
745.650559
 21
232.620054
 31
0.0
  0
LINE
  5
34F
330
1F
100
AcDbEntity
  8
002
 62
     3
370
    30
100
AcDbLine
 10
744.349559
 20
229.450754
 30
0.0
 11
745.205559
 21
216.050154
 31
0.0
  0
LINE
  5
350
330
1F
100
AcDbEntity
  8
002
 62
     3
370
    30
100
AcDbLine
 10
745.205559
 20
216.241254
 30
0.0
 11
744.349559
 21
202.840754
 31
0.0
  0
ARC
  5
351
330
1F
100
AcDbEntity
  8
002
 62
     3
370
    30
100
AcDbCircle
 10
724.002559
 20
220.845754
 30
0.0
 40
0.1999999999999318
100
AcDbArc
 50
270.0
 51
0.0
  0
LINE
  5
352
330
1F
100
AcDbEntity
  8
002
 62
     3
370
    30
100
AcDbLine
 10
723.952559
 20
220.645754
 30
0.0
 11
719.452559
 21
220.645754
 31
0.0
  0
LINE
  5
353
330
1F
100
AcDbEntity
  8
002
 62
     3
370
    30
100
AcDbLine
 10
719.452559
 20
220.645754
 30
0.0
 11
719.202559
 21
220.895754
 31
0.0
  0
LINE
  5
354
330
1F
100
AcDbEntity
  8
002
 62
     3
370
    30
100
AcDbLine
 10
719.202559
 20
220.895754
 30
0.0
 11
719.202559
 21
225.395754
 31
0.0
  0
LINE
  5
355
330
1F
100
AcDbEntity
  8
002
 62
     3
370
    30
100
AcDbLine
 10
719.202559
 20
225.395754
 30
0.0
 11
719.452559
 21
225.645754
 31
0.0
  0
LINE
  5
356
330
1F
100
AcDbEntity
  8
002
 62
     3
370
    30
100
AcDbLine
 10
719.452559
 20
225.645754
 30
0.0
 11
723.952559
 21
225.645754
 31
0.0
  0
LINE
  5
357
330
1F
100
AcDbEntity
  8
002
 62
     3
370
    30
100
AcDbLine
 10
723.952559
 20
225.645754
 30
0.0
 11
724.202559
 21
225.395754
 31
0.0
  0
LINE
  5
358
330
1F
100
AcDbEntity
  8
002
 62
     3
370
    30
100
AcDbLine
 10
724.202559
 20
225.395754
 30
0.0
 11
724.202559
 21
220.895754
 31
0.0
  0
LINE
  5
359
330
1F
100
AcDbEntity
  8
002
 62
     3
370
    30
100
AcDbLine
 10
724.202559
 20
220.895754
 30
0.0
 11
723.952559
 21
220.645754
 31
0.0
  0
ARC
  5
35A
330
1F
100
AcDbEntity
  8
002
 62
     3
370
    30
100
AcDbCircle
 10
721.702559
 20
216.145754
 30
0.0
 40
7.499936066394084
100
AcDbArc
 50
109.471393
 51
70.528607
  0
ARC
  5
35B
330
1F
100
AcDbEntity
  8
002
 62
     3
370
    30
100
AcDbCircle
 10
719.402559
 20
220.845754
 30
0.0
 40
0.2000000000000455
100
AcDbArc
 50
180.0
 51
270.0
  0
ARC
  5
35C
330
1F
100
AcDbEntity
  8
002
 62
     3
370
    30
100
AcDbCircle
 10
721.702559
 20
216.145754
 30
0.0
 40
8.499963294038306
100
AcDbArc
 50
107.104711
 51
72.895289
  0
LINE
  5
35D
330
1F
100
AcDbEntity
  8
002
 62
     3
370
    30
100
AcDbLine
 10
721.606559
 20
239.648754
 30
0.0
 11
735.007559
 21
238.793454
 31
0.0
  0
ARC
  5
35E
330
1F
100
AcDbEntity
  8
002
 62
     3
370
    30
100
AcDbCircle
 10
734.370559
 20
228.813754
 30
0.0
 40
9.999310476227894
100
AcDbArc
 50
3.652466
 51
86.347789
  0
ARC
  5
35F
330
1F
100
AcDbEntity
  8
002
 62
     3
370
    30
100
AcDbCircle
 10
737.666559
 20
232.110454
 30
0.0
 40
8.000246756194384
100
AcDbArc
 50
3.652101
 51
86.344903
  0
LINE
  5
360
330
1F
100
AcDbEntity
  8
002
 62
     3
370
    30
100
AcDbLine
 10
738.176559
 20
240.094154
 30
0.0
 11
728.768559
 21
240.593554
 31
0.0
  0
ARC
  5
361
330
1F
100
AcDbEntity
  8
002
 62
     3
370
    30
100
AcDbCircle
 10
728.927559
 20
243.589354
 30
0.0
 40
2.999657395436943
100
AcDbArc
 50
194.959101
 51
266.961917
  0
ARC
  5
362
330
1F
100
AcDbEntity
  8
002
 62
     3
370
    30
100
AcDbCircle
 10
722.927559
 20
243.469654
 30
0.0
 40
2.999959906398807
100
AcDbArc
 50
275.489765
 51
347.985819
  0
LINE
  5
363
330
1F
100
AcDbEntity
  8
002
 62
     3
370
    30
100
AcDbLine
 10
727.202559
 20
244.281954
 30
0.0
 11
727.202559
 21
256.145754
 31
0.0
  0
LINE
  5
364
330
1F
100
AcDbEntity
  8
002
 62
     3
370
    30
100
AcDbLine
 10
727.202559
 20
256.145754
 30
0.0
 11
652.202559
 21
256.145754
 31
0.0
  0
LINE
  5
365
330
1F
100
AcDbEntity
  8
002
 62
     3
370
    30
100
AcDbLine
 10
659.953559
 20
256.145754
 30
0.0
 11
659.953559
 21
262.145754
 31
0.0
  0
LINE
  5
366
330
1F
100
AcDbEntity
  8
002
 62
     3
370
    30
100
AcDbLine
 10
669.953559
 20
262.145754
 30
0.0
 11
659.953559
 21
262.145754
 31
0.0
  0
LINE
  5
367
330
1F
100
AcDbEntity
  8
002
 62
     3
370
    30
100
AcDbLine
 10
660.702559
 20
326.145754
 30
0.0
 11
718.702559
 21
326.145754
 31
0.0
  0
LINE
  5
368
330
1F
100
AcDbEntity
  8
002
 62
     3
370
    30
100
AcDbLine
 10
719.450559
 20
262.145754
 30
0.0
 11
709.450559
 21
262.145754
 31
0.0
  0
LINE
  5
369
330
1F
100
AcDbEntity
  8
002
 62
     3
370
    30
100
AcDbLine
 10
719.450559
 20
262.145754
 30
0.0
 11
719.450559
 21
256.145754
 31
0.0
  0
LINE
  5
36A
330
1F
100
AcDbEntity
  8
002
 62
     3
370
    30
100
AcDbLine
 10
709.450559
 20
256.145754
 30
0.0
 11
709.450559
 21
262.145754
 31
0.0
  0
LINE
  5
36B
330
1F
100
AcDbEntity
  8
002
 62
     3
370
    30
100
AcDbLine
 10
733.202559
 20
257.145754
 30
0.0
 11
738.202559
 21
257.145754
 31
0.0
  0
LINE
  5
36C
330
1F
100
AcDbEntity
  8
002
 62
     3
370
    30
100
AcDbLine
 10
738.202559
 20
257.145754
 30
0.0
 11
738.952559
 21
254.145754
 31
0.0
  0
LINE
  5
36D
330
1F
100
AcDbEntity
  8
002
 62
     3
370
    30
100
AcDbLine
 10
738.952559
 20
254.145754
 30
0.0
 11
738.421559
 21
253.296354
 31
0.0
  0
LINE
  5
36E
330
1F
100
AcDbEntity
  8
002
 62
     3
370
    30
100
AcDbLine
 10
737.999559
 20
252.621754
 30
0.0
 11
733.404559
 21
252.621754
 31
0.0
  0
LINE
  5
36F
330
1F
100
AcDbEntity
  8
002
 62
     3
370
    30
100
AcDbLine
 10
732.983559
 20
253.296354
 30
0.0
 11
732.452559
 21
254.145754
 31
0.0
  0
LINE
  5
370
330
1F
100
AcDbEntity
  8
002
 62
     3
370
    30
100
AcDbLine
 10
732.452559
 20
254.145754
 30
0.0
 11
733.202559
 21
257.145754
 31
0.0
  0
ARC
  5
371
330
1F
100
AcDbEntity
  8
002
 62
     3
370
    30
100
AcDbCircle
 10
735.702559
 20
256.484254
 30
0.0
 40
1.000041124154433
100
AcDbArc
 50
41.412294
 51
138.587706
  0
LINE
  5
372
330
1F
100
AcDbEntity
  8
002
 62
     3
370
    30
100
AcDbLine
 10
738.202559
 20
254.145754
 30
0.0
 11
733.202559
 21
254.145754
 31
0.0
  0
ARC
  5
373
330
1F
100
AcDbEntity
  8
002
 62
     3
370
    30
100
AcDbCircle
 10
732.135559
 20
252.766354
 30
0.0
 40
0.9999197017759904
100
AcDbArc
 50
314.995948
 51
32.005383
  0
LINE
  5
374
330
1F
100
AcDbEntity
  8
002
 62
     3
370
    30
100
AcDbLine
 10
732.842559
 20
252.059254
 30
0.0
 11
730.702559
 21
249.145754
 31
0.0
  0
ARC
  5
375
330
1F
100
AcDbEntity
  8
002
 62
     3
370
    30
100
AcDbCircle
 10
733.202559
 20
246.520754
 30
0.0
 40
3.625
100
AcDbArc
 50
46.397181
 51
133.602819
  0
LINE
  5
376
330
1F
100
AcDbEntity
  8
002
 62
     3
370
    30
100
AcDbLine
 10
735.702559
 20
249.145754
 30
0.0
 11
735.702559
 21
246.145754
 31
0.0
  0
ARC
  5
377
330
1F
100
AcDbEntity
  8
002
 62
     3
370
    30
100
AcDbCircle
 10
733.202559
 20
248.770754
 30
0.0
 40
3.625
100
AcDbArc
 50
226.397181
 51
313.602819
  0
LINE
  5
378
330
1F
100
AcDbEntity
  8
002
 62
     3
370
    30
100
AcDbLine
 10
730.702559
 20
246.145754
 30
0.0
 11
731.702559
 21
245.145754
 31
0.0
  0
LINE
  5
379
330
1F
100
AcDbEntity
  8
002
 62
     3
370
    30
100
AcDbLine
 10
731.702559
 20
245.145754
 30
0.0
 11
739.702559
 21
245.145754
 31
0.0
  0
LINE
  5
37A
330
1F
100
AcDbEntity
  8
002
 62
     3
370
    30
100
AcDbLine
 10
739.702559
 20
245.145754
 30
0.0
 11
740.702559
 21
246.145754
 31
0.0
  0
LINE
  5
37B
330
1F
100
AcDbEntity
  8
002
 62
     3
370
    30
100
AcDbLine
 10
740.702559
 20
246.145754
 30
0.0
 11
740.702559
 21
249.145754
 31
0.0
  0
LINE
  5
37C
330
1F
100
AcDbEntity
  8
002
 62
     3
370
    30
100
AcDbLine
 10
740.702559
 20
249.145754
 30
0.0
 11
738.562559
 21
252.059254
 31
0.0
  0
ARC
  5
37D
330
1F
100
AcDbEntity
  8
002
 62
     3
370
    30
100
AcDbCircle
 10
739.269559
 20
252.766354
 30
0.0
 40
1.000001999997949
100
AcDbArc
 50
147.994617
 51
225.004052
  0
ARC
  5
37E
330
1F
100
AcDbEntity
  8
002
 62
     3
370
    30
100
AcDbCircle
 10
738.202559
 20
246.520754
 30
0.0
 40
3.625
100
AcDbArc
 50
46.397181
 51
133.602819
  0
ARC
  5
37F
330
1F
100
AcDbEntity
  8
002
 62
     3
370
    30
100
AcDbCircle
 10
738.202559
 20
248.770754
 30
0.0
 40
3.625
100
AcDbArc
 50
226.397181
 51
313.602819
  0
LINE
  5
380
330
1F
100
AcDbEntity
  8
002
 62
     3
370
    30
100
AcDbLine
 10
731.840559
 20
245.145754
 30
0.0
 11
731.840559
 21
244.145754
 31
0.0
  0
LINE
  5
381
330
1F
100
AcDbEntity
  8
002
 62
     3
370
    30
100
AcDbLine
 10
730.702559
 20
246.145754
 30
0.0
 11
730.702559
 21
249.145754
 31
0.0
  0
LINE
  5
382
330
1F
100
AcDbEntity
  8
002
 62
     3
370
    30
100
AcDbLine
 10
739.563559
 20
245.145754
 30
0.0
 11
739.563559
 21
244.145754
 31
0.0
  0
ARC
  5
383
330
1F
100
AcDbEntity
  8
002
 62
     3
370
    30
100
AcDbCircle
 10
709.034559
 20
228.813754
 30
0.0
 40
10.00000905449599
100
AcDbArc
 50
93.652211
 51
176.347899
  0
CIRCLE
  5
384
330
1F
100
AcDbEntity
  8
002
 62
     3
370
    30
100
AcDbCircle
 10
721.702559
 20
216.145754
 30
0.0
 40
17.5
  0
ARC
  5
385
330
1F
100
AcDbEntity
  8
002
 62
     3
370
    30
100
AcDbCircle
 10
693.934559
 20
194.145754
 30
0.0
 40
5.0
100
AcDbArc
 50
270.0
 51
3.652101
  0
LINE
  5
386
330
1F
100
AcDbEntity
  8
002
 62
     3
370
    30
100
AcDbLine
 10
664.702559
 20
187.145754
 30
0.0
 11
664.702559
 21
176.145754
 31
0.0
  0
ARC
  5
387
330
1F
100
AcDbEntity
  8
002
 62
     3
370
    30
100
AcDbCircle
 10
664.953559
 20
233.145754
 30
0.0
 40
6.555838012031811
100
AcDbArc
 50
242.875244
 51
280.689287
  0
LINE
  5
388
330
1F
100
AcDbEntity
  8
002
 62
     3
370
    30
100
AcDbLine
 10
669.953559
 20
256.145754
 30
0.0
 11
669.953559
 21
262.145754
 31
0.0
  0
LINE
  5
389
330
1F
100
AcDbEntity
  8
002
 62
     3
370
    30
100
AcDbLine
 10
686.815559
 20
301.645754
 30
0.0
 11
683.928559
 21
306.645754
 31
0.0
  0
LINE
  5
38A
330
1F
100
AcDbEntity
  8
002
 62
     3
370
    30
100
AcDbLine
 10
683.928559
 20
306.645754
 30
0.0
 11
686.815559
 21
311.645754
 31
0.0
  0
LINE
  5
38B
330
1F
100
AcDbEntity
  8
002
 62
     3
370
    30
100
AcDbLine
 10
686.815559
 20
311.645754
 30
0.0
 11
692.588559
 21
311.645754
 31
0.0
  0
LINE
  5
38C
330
1F
100
AcDbEntity
  8
002
 62
     3
370
    30
100
AcDbLine
 10
692.588559
 20
311.645754
 30
0.0
 11
695.475559
 21
306.645754
 31
0.0
  0
LINE
  5
38D
330
1F
100
AcDbEntity
  8
002
 62
     3
370
    30
100
AcDbLine
 10
695.475559
 20
306.645754
 30
0.0
 11
692.588559
 21
301.645754
 31
0.0
  0
LINE
  5
38E
330
1F
100
AcDbEntity
  8
002
 62
     3
370
    30
100
AcDbLine
 10
692.588559
 20
301.645754
 30
0.0
 11
686.815559
 21
301.645754
 31
0.0
  0
CIRCLE
  5
38F
330
1F
100
AcDbEntity
  8
002
 62
     3
370
    30
100
AcDbCircle
 10
689.702559
 20
306.645754
 30
0.0
 40
3.25
  0
CIRCLE
  5
390
330
1F
100
AcDbEntity
  8
002
 62
     3
370
    30
100
AcDbCircle
 10
689.702559
 20
306.645754
 30
0.0
 40
2.5
  0
CIRCLE
  5
391
330
1F
100
AcDbEntity
  8
002
 62
     3
370
    30
100
AcDbCircle
 10
689.702559
 20
306.645754
 30
0.0
 40
0.75
  0
CIRCLE
  5
392
330
1F
100
AcDbEntity
  8
002
 62
     3
370
    30
100
AcDbCircle
 10
689.702559
 20
306.645754
 30
0.0
 40
5.0
  0
LINE
  5
393
330
1F
100
AcDbEntity
  8
002
 62
     3
370
    30
100
AcDbLine
 10
685.452559
 20
330.145754
 30
0.0
 11
685.452559
 21
335.145754
 31
0.0
  0
LINE
  5
394
330
1F
100
AcDbEntity
  8
002
 62
     3
370
    30
100
AcDbLine
 10
693.952559
 20
335.145754
 30
0.0
 11
693.952559
 21
330.145754
 31
0.0
  0
LINE
  5
395
330
1F
100
AcDbEntity
  8
002
 62
     3
370
    30
100
AcDbLine
 10
693.952559
 20
335.145754
 30
0.0
 11
685.452559
 21
335.145754
 31
0.0
  0
LINE
  5
396
330
1F
100
AcDbEntity
  8
002
 62
     3
370
    30
100
AcDbLine
 10
669.17832
 20
335.145754
 30
0.0
 11
662.952559
 21
335.145754
 31
0.0
  0
LINE
  5
397
330
1F
100
AcDbEntity
  8
002
 62
     3
370
    30
100
AcDbLine
 10
662.952559
 20
335.145754
 30
0.0
 11
662.952559
 21
330.145754
 31
0.0
  0
LINE
  5
398
330
1F
100
AcDbEntity
  8
002
 62
     3
370
    30
100
AcDbLine
 10
662.202559
 20
330.145754
 30
0.0
 11
662.202559
 21
326.145754
 31
0.0
  0
LINE
  5
399
330
1F
100
AcDbEntity
  8
002
 62
     3
370
    30
100
AcDbLine
 10
662.202559
 20
330.145754
 30
0.0
 11
717.202559
 21
330.145754
 31
0.0
  0
LINE
  5
39A
330
1F
100
AcDbEntity
  8
002
 62
     3
370
    30
100
AcDbLine
 10
717.202559
 20
330.145754
 30
0.0
 11
717.202559
 21
326.145754
 31
0.0
  0
LINE
  5
39B
330
1F
100
AcDbEntity
  8
002
 62
     3
370
    30
100
AcDbLine
 10
716.452559
 20
330.145754
 30
0.0
 11
716.452559
 21
335.145754
 31
0.0
  0
LINE
  5
39C
330
1F
100
AcDbEntity
  8
002
 62
     3
370
    30
100
AcDbLine
 10
710.225559
 20
335.145754
 30
0.0
 11
716.452559
 21
335.145754
 31
0.0
  0
ARC
  5
39D
330
1F
100
AcDbEntity
  8
002
 62
     3
370
    30
100
AcDbCircle
 10
713.255559
 20
333.145754
 30
0.0
 40
3.000318264784589
100
AcDbArc
 50
180.834549
 51
270.0
  0
LINE
  5
39E
330
1F
100
AcDbEntity
  8
002
 62
     3
370
    30
100
AcDbLine
 10
710.255559
 20
333.102054
 30
0.0
 11
709.702559
 21
371.145754
 31
0.0
  0
LINE
  5
39F
330
1F
100
AcDbEntity
  8
002
 62
     3
370
    30
100
AcDbLine
 10
709.702559
 20
371.145754
 30
0.0
 11
669.702559
 21
371.145754
 31
0.0
  0
LINE
  5
3A0
330
1F
100
AcDbEntity
  8
002
 62
     3
370
    30
100
AcDbLine
 10
669.702559
 20
371.145754
 30
0.0
 11
669.148559
 21
333.102054
 31
0.0
  0
ARC
  5
3A1
330
1F
100
AcDbEntity
  8
002
 62
     3
370
    30
100
AcDbCircle
 10
666.149559
 20
333.145754
 30
0.0
 40
3.0
100
AcDbArc
 50
270.0
 51
359.165172
  0
LINE
  5
3A2
330
1F
100
AcDbEntity
  8
002
  6
DASHED
 62
    40
370
     9
100
AcDbLine
 10
701.702559
 20
186.145754
 30
0.0
 11
701.702559
 21
186.609854
 31
0.0
  0
LINE
  5
3A3
330
1F
100
AcDbEntity
  8
002
  6
DASHED
 62
    40
370
     9
100
AcDbLine
 10
677.702559
 20
186.145754
 30
0.0
 11
677.702559
 21
186.609854
 31
0.0
  0
LINE
  5
3A4
330
1F
100
AcDbEntity
  8
002
  6
CENTER
 62
    40
370
     9
100
AcDbLine
 10
644.586559
 20
216.145754
 30
0.0
 11
756.634559
 21
216.145754
 31
0.0
  0
LINE
  5
3A5
330
1F
100
AcDbEntity
  8
002
  6
CENTER
 62
    40
370
     9
100
AcDbLine
 10
664.953559
 20
266.645754
 30
0.0
 11
664.953559
 21
240.312054
 31
0.0
  0
LINE
  5
3A6
330
1F
100
AcDbEntity
  8
002
  6
CENTER
 62
    40
370
     9
100
AcDbLine
 10
714.450559
 20
240.312054
 30
0.0
 11
714.450559
 21
266.645754
 31
0.0
  0
LINE
  5
3A7
330
1F
100
AcDbEntity
  8
002
  6
CENTER
 62
    40
370
     9
100
AcDbLine
 10
698.102559
 20
306.645754
 30
0.0
 11
680.929559
 21
306.645754
 31
0.0
  0
LINE
  5
3A8
330
1F
100
AcDbEntity
  8
002
  6
CENTER
 62
    40
370
     9
100
AcDbLine
 10
712.202559
 20
336.645754
 30
0.0
 11
712.202559
 21
324.145754
 31
0.0
  0
LINE
  5
3A9
330
1F
100
AcDbEntity
  8
002
  6
CENTER
 62
    40
370
     9
100
AcDbLine
 10
667.202559
 20
324.145754
 30
0.0
 11
667.202559
 21
336.645754
 31
0.0
  0
LINE
  5
3AA
330
1F
100
AcDbEntity
  8
002
  6
CENTER
 62
    40
370
     9
100
AcDbLine
 10
735.702559
 20
241.404054
 30
0.0
 11
735.702559
 21
259.749754
 31
0.0
  0
LINE
  5
3AB
330
1F
100
AcDbEntity
  8
002
  6
HIDDEN
 62
    40
370
     9
100
AcDbLine
 10
683.068559
 20
186.145754
 30
0.0
 11
677.702559
 21
186.145754
 31
0.0
  0
LINE
  5
3AC
330
1F
100
AcDbEntity
  8
002
  6
HIDDEN
 62
    40
370
     9
100
AcDbLine
 10
684.202559
 20
176.145754
 30
0.0
 11
684.202559
 21
186.145754
 31
0.0
  0
LINE
  5
3AD
330
1F
100
AcDbEntity
  8
002
  6
HIDDEN
 62
    40
370
     9
100
AcDbLine
 10
695.202559
 20
186.145754
 30
0.0
 11
695.202559
 21
176.145754
 31
0.0
  0
LINE
  5
3AE
330
1F
100
AcDbEntity
  8
002
  6
HIDDEN
 62
    40
370
     9
100
AcDbLine
 10
696.335559
 20
186.145754
 30
0.0
 11
701.702559
 21
186.145754
 31
0.0
  0
LINE
  5
3AF
330
1F
100
AcDbEntity
  8
002
  6
CENTER
 62
    40
370
     9
100
AcDbLine
 10
721.702559
 20
265.706254
 30
0.0
 11
721.702559
 21
169.102554
 31
0.0
  0
LINE
  5
3B0
330
1F
100
AcDbEntity
  8
002
 62
     3
370
    30
100
AcDbLine
 10
671.702559
 20
417.86133
 30
0.0
 11
707.702559
 21
417.86133
 31
0.0
  0
LINE
  5
3B1
330
1F
100
AcDbEntity
  8
002
 62
     3
370
    30
100
AcDbLine
 10
704.702559
 20
437.86133
 30
0.0
 11
674.702559
 21
437.86133
 31
0.0
  0
LINE
  5
3B2
330
1F
100
AcDbEntity
  8
002
 62
     3
370
    30
100
AcDbLine
 10
671.702559
 20
434.86133
 30
0.0
 11
671.702559
 21
417.86133
 31
0.0
  0
ARC
  5
3B3
330
1F
100
AcDbEntity
  8
002
 62
     3
370
    30
100
AcDbCircle
 10
674.702559
 20
434.86133
 30
0.0
 40
3.0
100
AcDbArc
 50
90.0
 51
180.0
  0
LINE
  5
3B4
330
1F
100
AcDbEntity
  8
002
 62
     3
370
    30
100
AcDbLine
 10
707.702559
 20
417.86133
 30
0.0
 11
707.702559
 21
434.86133
 31
0.0
  0
ARC
  5
3B5
330
1F
100
AcDbEntity
  8
002
 62
     3
370
    30
100
AcDbCircle
 10
704.702559
 20
434.86133
 30
0.0
 40
3.0
100
AcDbArc
 50
0.0
 51
90.0
  0
LINE
  5
3B6
330
1F
100
AcDbEntity
  8
002
 62
     3
370
    30
100
AcDbLine
 10
58.912153
 20
262.145754
 30
0.0
 11
58.912153
 21
326.145754
 31
0.0
  0
LINE
  5
3B7
330
1F
100
AcDbEntity
  8
002
 62
     3
370
    30
100
AcDbLine
 10
116.912153
 20
326.145754
 30
0.0
 11
116.912153
 21
262.145754
 31
0.0
  0
LINE
  5
3B8
330
1F
100
AcDbEntity
  8
002
 62
     3
370
    30
100
AcDbLine
 10
530.109384
 20
262.145754
 30
0.0
 11
530.109384
 21
326.145754
 31
0.0
  0
LINE
  5
3B9
330
1F
100
AcDbEntity
  8
002
 62
     3
370
    30
100
AcDbLine
 10
588.109384
 20
326.145754
 30
0.0
 11
588.109384
 21
262.145754
 31
0.0
  0
LINE
  5
3BA
330
1F
100
AcDbEntity
  8
002
 62
     3
370
    30
100
AcDbLine
 10
660.702559
 20
262.145754
 30
0.0
 11
660.702559
 21
326.145754
 31
0.0
  0
LINE
  5
3BB
330
1F
100
AcDbEntity
  8
002
 62
     3
370
    30
100
AcDbLine
 10
718.702559
 20
326.145754
 30
0.0
 11
718.702559
 21
262.145754
 31
0.0
  0
LINE
  5
3BC
330
1F
100
AcDbEntity
  8
002
 62
     3
370
    30
100
AcDbLine
 10
229.844854
 20
239.645754
 30
0.0
 11
229.844854
 21
192.645754
 31
0.0
  0
LINE
  5
3BD
330
1F
100
AcDbEntity
  8
002
 62
     3
370
    30
100
AcDbLine
 10
229.844854
 20
192.645754
 30
0.0
 11
279.844854
 21
191.145754
 31
0.0
  0
LINE
  5
3BE
330
1F
100
AcDbEntity
  8
002
 62
     3
370
    30
100
AcDbLine
 10
279.844854
 20
191.145754
 30
0.0
 11
329.844854
 21
192.645754
 31
0.0
  0
LINE
  5
3BF
330
1F
100
AcDbEntity
  8
002
 62
     3
370
    30
100
AcDbLine
 10
329.844854
 20
192.645754
 30
0.0
 11
329.844854
 21
239.645754
 31
0.0
  0
LINE
  5
3C0
330
1F
100
AcDbEntity
  8
002
 62
     3
370
    30
100
AcDbLine
 10
329.844854
 20
239.645754
 30
0.0
 11
292.754854
 21
240.758454
 31
0.0
  0
LINE
  5
3C1
330
1F
100
AcDbEntity
  8
002
 62
     3
370
    30
100
AcDbLine
 10
289.844854
 20
243.757054
 30
0.0
 11
289.844854
 21
244.145754
 31
0.0
  0
LINE
  5
3C2
330
1F
100
AcDbEntity
  8
002
 62
     3
370
    30
100
AcDbLine
 10
289.844854
 20
244.145754
 30
0.0
 11
269.844854
 21
244.145754
 31
0.0
  0
LINE
  5
3C3
330
1F
100
AcDbEntity
  8
002
 62
     3
370
    30
100
AcDbLine
 10
269.844854
 20
244.145754
 30
0.0
 11
269.844854
 21
243.757054
 31
0.0
  0
ARC
  5
3C4
330
1F
100
AcDbEntity
  8
002
 62
     3
370
    30
100
AcDbCircle
 10
279.844854
 20
250.096054
 30
0.0
 40
13.6223364402
100
AcDbArc
 50
222.769752
 51
317.230248
  0
ARC
  5
3C5
330
1F
100
AcDbEntity
  8
002
 62
     3
370
    30
100
AcDbCircle
 10
292.844854
 20
243.757054
 30
0.0
 40
2.999950326255428
100
AcDbArc
 50
180.0
 51
268.28084
  0
LINE
  5
3C6
330
1F
100
AcDbEntity
  8
002
 62
     3
370
    30
100
AcDbLine
 10
285.618854
 20
246.145754
 30
0.0
 11
285.618854
 21
249.145754
 31
0.0
  0
LINE
  5
3C7
330
1F
100
AcDbEntity
  8
002
 62
     3
370
    30
100
AcDbLine
 10
285.618854
 20
249.145754
 30
0.0
 11
282.704854
 21
252.059254
 31
0.0
  0
LINE
  5
3C8
330
1F
100
AcDbEntity
  8
002
 62
     3
370
    30
100
AcDbLine
 10
282.142854
 20
252.621754
 30
0.0
 11
277.547854
 21
252.621754
 31
0.0
  0
LINE
  5
3C9
330
1F
100
AcDbEntity
  8
002
 62
     3
370
    30
100
AcDbLine
 10
277.125854
 20
253.296354
 30
0.0
 11
276.594854
 21
254.145754
 31
0.0
  0
LINE
  5
3CA
330
1F
100
AcDbEntity
  8
002
 62
     3
370
    30
100
AcDbLine
 10
276.594854
 20
254.145754
 30
0.0
 11
277.344854
 21
257.145754
 31
0.0
  0
LINE
  5
3CB
330
1F
100
AcDbEntity
  8
002
 62
     3
370
    30
100
AcDbLine
 10
277.344854
 20
257.145754
 30
0.0
 11
282.344854
 21
257.145754
 31
0.0
  0
LINE
  5
3CC
330
1F
100
AcDbEntity
  8
002
 62
     3
370
    30
100
AcDbLine
 10
282.344854
 20
257.145754
 30
0.0
 11
283.094854
 21
254.145754
 31
0.0
  0
LINE
  5
3CD
330
1F
100
AcDbEntity
  8
002
 62
     3
370
    30
100
AcDbLine
 10
283.094854
 20
254.145754
 30
0.0
 11
282.563854
 21
253.296354
 31
0.0
  0
ARC
  5
3CE
330
1F
100
AcDbEntity
  8
002
 62
     3
370
    30
100
AcDbCircle
 10
283.411854
 20
252.766354
 30
0.0
 40
0.9999197017759904
100
AcDbArc
 50
147.994617
 51
225.004052
  0
LINE
  5
3CF
330
1F
100
AcDbEntity
  8
002
 62
     3
370
    30
100
AcDbLine
 10
282.344854
 20
254.145754
 30
0.0
 11
277.344854
 21
254.145754
 31
0.0
  0
LINE
  5
3D0
330
1F
100
AcDbEntity
  8
002
 62
     3
370
    30
100
AcDbLine
 10
242.344854
 20
256.145754
 30
0.0
 11
242.344854
 21
240.020754
 31
0.0
  0
LINE
  5
3D1
330
1F
100
AcDbEntity
  8
002
 62
     3
370
    30
100
AcDbLine
 10
242.344854
 20
246.145754
 30
0.0
 11
274.071854
 21
246.145754
 31
0.0
  0
LINE
  5
3D2
330
1F
100
AcDbEntity
  8
002
 62
     3
370
    30
100
AcDbLine
 10
274.071854
 20
246.145754
 30
0.0
 11
274.973854
 21
245.243054
 31
0.0
  0
ARC
  5
3D3
330
1F
100
AcDbEntity
  8
002
 62
     3
370
    30
100
AcDbCircle
 10
275.514854
 20
246.686454
 30
0.0
 40
1.540975499480717
100
AcDbArc
 50
249.453526
 51
339.458751
  0
LINE
  5
3D4
330
1F
100
AcDbEntity
  8
002
 62
     3
370
    30
100
AcDbLine
 10
276.957854
 20
246.145754
 30
0.0
 11
276.957854
 21
249.145754
 31
0.0
  0
ARC
  5
3D5
330
1F
100
AcDbEntity
  8
002
 62
     3
370
    30
100
AcDbCircle
 10
275.514854
 20
248.605054
 30
0.0
 40
1.54145533830855
100
AcDbArc
 50
20.541249
 51
110.546474
  0
LINE
  5
3D6
330
1F
100
AcDbEntity
  8
002
 62
     3
370
    30
100
AcDbLine
 10
274.071854
 20
249.145754
 30
0.0
 11
276.984854
 21
252.059254
 31
0.0
  0
ARC
  5
3D7
330
1F
100
AcDbEntity
  8
002
 62
     3
370
    30
100
AcDbCircle
 10
276.277854
 20
252.766354
 30
0.0
 40
1.000001999997949
100
AcDbArc
 50
314.995948
 51
32.005383
  0
LINE
  5
3D8
330
1F
100
AcDbEntity
  8
002
 62
     3
370
    30
100
AcDbLine
 10
274.071854
 20
249.145754
 30
0.0
 11
274.071854
 21
246.145754
 31
0.0
  0
LINE
  5
3D9
330
1F
100
AcDbEntity
  8
002
 62
     3
370
    30
100
AcDbLine
 10
275.558854
 20
245.145754
 30
0.0
 11
284.130854
 21
245.145754
 31
0.0
  0
LINE
  5
3DA
330
1F
100
AcDbEntity
  8
002
 62
     3
370
    30
100
AcDbLine
 10
283.706854
 20
245.145754
 30
0.0
 11
283.706854
 21
244.145754
 31
0.0
  0
LINE
  5
3DB
330
1F
100
AcDbEntity
  8
002
 62
     3
370
    30
100
AcDbLine
 10
284.715854
 20
245.243054
 30
0.0
 11
285.618854
 21
246.145754
 31
0.0
  0
LINE
  5
3DC
330
1F
100
AcDbEntity
  8
002
 62
     3
370
    30
100
AcDbLine
 10
285.618854
 20
246.145754
 30
0.0
 11
317.344854
 21
246.145754
 31
0.0
  0
LINE
  5
3DD
330
1F
100
AcDbEntity
  8
002
 62
     3
370
    30
100
AcDbLine
 10
317.344854
 20
240.020754
 30
0.0
 11
317.344854
 21
256.145754
 31
0.0
  0
ARC
  5
3DE
330
1F
100
AcDbEntity
  8
002
 62
     3
370
    30
100
AcDbCircle
 10
279.844854
 20
256.484254
 30
0.0
 40
1.000041124154433
100
AcDbArc
 50
41.412294
 51
138.587706
  0
LINE
  5
3DF
330
1F
100
AcDbEntity
  8
002
 62
     3
370
    30
100
AcDbLine
 10
282.731854
 20
249.145754
 30
0.0
 11
282.731854
 21
246.145754
 31
0.0
  0
ARC
  5
3E0
330
1F
100
AcDbEntity
  8
002
 62
     3
370
    30
100
AcDbCircle
 10
284.174854
 20
246.686454
 30
0.0
 40
1.54145533830863
100
AcDbArc
 50
200.541249
 51
290.546474
  0
ARC
  5
3E1
330
1F
100
AcDbEntity
  8
002
 62
     3
370
    30
100
AcDbCircle
 10
279.844854
 20
245.479054
 30
0.0
 40
4.666846675218766
100
AcDbArc
 50
51.784644
 51
128.215356
  0
ARC
  5
3E2
330
1F
100
AcDbEntity
  8
002
 62
     3
370
    30
100
AcDbCircle
 10
279.844854
 20
249.812354
 30
0.0
 40
4.666768106516431
100
AcDbArc
 50
231.783884
 51
308.216116
  0
ARC
  5
3E3
330
1F
100
AcDbEntity
  8
002
 62
     3
370
    30
100
AcDbCircle
 10
284.174854
 20
248.605054
 30
0.0
 40
1.540975499480757
100
AcDbArc
 50
69.453526
 51
159.458751
  0
LINE
  5
3E4
330
1F
100
AcDbEntity
  8
002
 62
     3
370
    30
100
AcDbLine
 10
275.983854
 20
245.145754
 30
0.0
 11
275.983854
 21
244.145754
 31
0.0
  0
LINE
  5
3E5
330
1F
100
AcDbEntity
  8
002
 62
     3
370
    30
100
AcDbLine
 10
266.934854
 20
240.758454
 30
0.0
 11
229.844854
 21
239.645754
 31
0.0
  0
LINE
  5
3E6
330
1F
100
AcDbEntity
  8
002
 62
     3
370
    30
100
AcDbLine
 10
252.344854
 20
233.645754
 30
0.0
 11
307.344854
 21
233.645754
 31
0.0
  0
LINE
  5
3E7
330
1F
100
AcDbEntity
  8
002
 62
     3
370
    30
100
AcDbLine
 10
307.344854
 20
233.645754
 30
0.0
 11
307.344854
 21
198.645754
 31
0.0
  0
LINE
  5
3E8
330
1F
100
AcDbEntity
  8
002
 62
     3
370
    30
100
AcDbLine
 10
307.344854
 20
198.645754
 30
0.0
 11
252.344854
 21
198.645754
 31
0.0
  0
LINE
  5
3E9
330
1F
100
AcDbEntity
  8
002
 62
     3
370
    30
100
AcDbLine
 10
252.344854
 20
198.645754
 30
0.0
 11
252.344854
 21
233.645754
 31
0.0
  0
ARC
  5
3EA
330
1F
100
AcDbEntity
  8
002
 62
     3
370
    30
100
AcDbCircle
 10
266.844854
 20
243.757054
 30
0.0
 40
3.0
100
AcDbArc
 50
271.71916
 51
0.0
  0
ARC
  5
3EB
330
1F
100
AcDbEntity
  8
002
 62
     3
370
    30
100
AcDbCircle
 10
213.844854
 20
183.258354
 30
0.0
 40
4.0
100
AcDbArc
 50
91.633141
 51
180.0
  0
LINE
  5
3EC
330
1F
100
AcDbEntity
  8
002
 62
     3
370
    30
100
AcDbLine
 10
209.844854
 20
183.258354
 30
0.0
 11
209.844854
 21
176.145754
 31
0.0
  0
LINE
  5
3ED
330
1F
100
AcDbEntity
  8
002
 62
     3
370
    30
100
AcDbLine
 10
209.844854
 20
176.145754
 30
0.0
 11
349.844854
 21
176.145754
 31
0.0
  0
LINE
  5
3EE
330
1F
100
AcDbEntity
  8
002
 62
     3
370
    30
100
AcDbLine
 10
349.844854
 20
176.145754
 30
0.0
 11
349.844854
 21
183.258354
 31
0.0
  0
ARC
  5
3EF
330
1F
100
AcDbEntity
  8
002
 62
     3
370
    30
100
AcDbCircle
 10
345.844854
 20
183.258354
 30
0.0
 40
4.000024819923001
100
AcDbArc
 50
0.0
 51
88.366859
  0
LINE
  5
3F0
330
1F
100
AcDbEntity
  8
002
 62
     3
370
    30
100
AcDbLine
 10
345.958854
 20
187.256754
 30
0.0
 11
279.844854
 21
189.145754
 31
0.0
  0
LINE
  5
3F1
330
1F
100
AcDbEntity
  8
002
 62
     3
370
    30
100
AcDbLine
 10
279.844854
 20
189.145754
 30
0.0
 11
213.730854
 21
187.256754
 31
0.0
  0
ARC
  5
3F2
330
1F
100
AcDbEntity
  8
002
 62
     3
370
    30
100
AcDbCircle
 10
241.844854
 20
190.060854
 30
0.0
 40
2.0
100
AcDbArc
 50
271.633141
 51
0.0
  0
ARC
  5
3F3
330
1F
100
AcDbEntity
  8
002
 62
     3
370
    30
100
AcDbCircle
 10
241.844854
 20
190.284854
 30
0.0
 40
2.000000202499987
100
AcDbArc
 50
0.0
 51
88.280869
  0
ARC
  5
3F4
330
1F
100
AcDbEntity
  8
002
 62
     3
370
    30
100
AcDbCircle
 10
258.659854
 20
184.538754
 30
0.0
 40
4.0
100
AcDbArc
 50
139.328795
 51
180.0
  0
LINE
  5
3F5
330
1F
100
AcDbEntity
  8
002
 62
     3
370
    30
100
AcDbLine
 10
254.659854
 20
184.310254
 30
0.0
 11
254.659854
 21
176.145754
 31
0.0
  0
LINE
  5
3F6
330
1F
100
AcDbEntity
  8
002
 62
     3
370
    30
100
AcDbLine
 10
305.030854
 20
176.145754
 30
0.0
 11
305.030854
 21
184.310254
 31
0.0
  0
ARC
  5
3F7
330
1F
100
AcDbEntity
  8
002
 62
     3
370
    30
100
AcDbCircle
 10
301.030854
 20
184.538754
 30
0.0
 40
3.999442211108851
100
AcDbArc
 50
0.0
 51
40.680542
  0
ARC
  5
3F8
330
1F
100
AcDbEntity
  8
002
 62
     3
370
    30
100
AcDbCircle
 10
309.030854
 20
184.310254
 30
0.0
 40
4.0
100
AcDbArc
 50
134.86328
 51
180.0
  0
ARC
  5
3F9
330
1F
100
AcDbEntity
  8
002
 62
     3
370
    30
100
AcDbCircle
 10
317.844854
 20
190.060854
 30
0.0
 40
2.000012409961472
100
AcDbArc
 50
180.0
 51
268.366859
  0
ARC
  5
3FA
330
1F
100
AcDbEntity
  8
002
 62
     3
370
    30
100
AcDbCircle
 10
317.844854
 20
190.284854
 30
0.0
 40
2.0
100
AcDbArc
 50
91.719131
 51
180.0
  0
ARC
  5
3FB
330
1F
100
AcDbEntity
  8
002
 62
     3
370
    30
100
AcDbCircle
 10
250.659854
 20
184.310254
 30
0.0
 40
3.999762649207991
100
AcDbArc
 50
0.0
 51
45.146873
  0
LINE
  5
3FC
330
1F
100
AcDbEntity
  8
003
  6
CENTER
 62
    40
370
     9
100
AcDbLine
 10
339.844854
 20
192.344054
 30
0.0
 11
339.844854
 21
171.953854
 31
0.0
  0
LINE
  5
3FD
330
1F
100
AcDbEntity
  8
003
  6
HIDDEN
 62
    40
370
     9
100
AcDbLine
 10
345.344854
 20
176.145754
 30
0.0
 11
345.344854
 21
186.145754
 31
0.0
  0
LINE
  5
3FE
330
1F
100
AcDbEntity
  8
003
  6
HIDDEN
 62
    40
370
     9
100
AcDbLine
 10
348.612854
 20
186.145754
 30
0.0
 11
327.844854
 21
186.145754
 31
0.0
  0
LINE
  5
3FF
330
1F
100
AcDbEntity
  8
003
  6
HIDDEN
 62
    40
370
     9
100
AcDbLine
 10
327.844854
 20
186.145754
 30
0.0
 11
327.844854
 21
187.774254
 31
0.0
  0
LINE
  5
400
330
1F
100
AcDbEntity
  8
003
  6
HIDDEN
 62
    40
370
     9
100
AcDbLine
 10
334.344854
 20
186.145754
 30
0.0
 11
334.344854
 21
176.145754
 31
0.0
  0
LINE
  5
401
330
1F
100
AcDbEntity
  8
003
  6
HIDDEN
 62
    40
370
     9
100
AcDbLine
 10
231.844854
 20
186.145754
 30
0.0
 11
211.076854
 21
186.145754
 31
0.0
  0
LINE
  5
402
330
1F
100
AcDbEntity
  8
003
  6
HIDDEN
 62
    40
370
     9
100
AcDbLine
 10
214.344854
 20
186.145754
 30
0.0
 11
214.344854
 21
176.145754
 31
0.0
  0
LINE
  5
403
330
1F
100
AcDbEntity
  8
003
  6
CENTER
 62
    40
370
     9
100
AcDbLine
 10
219.844854
 20
171.953854
 30
0.0
 11
219.844854
 21
192.344054
 31
0.0
  0
LINE
  5
404
330
1F
100
AcDbEntity
  8
003
  6
HIDDEN
 62
    40
370
     9
100
AcDbLine
 10
225.344854
 20
186.145754
 30
0.0
 11
225.344854
 21
176.145754
 31
0.0
  0
LINE
  5
405
330
1F
100
AcDbEntity
  8
003
  6
HIDDEN
 62
    40
370
     9
100
AcDbLine
 10
231.844854
 20
186.145754
 30
0.0
 11
231.844854
 21
187.774254
 31
0.0
  0
LINE
  5
406
330
1F
100
AcDbEntity
  8
002
 62
     3
370
    30
100
AcDbLine
 10
250.844854
 20
326.145754
 30
0.0
 11
308.844854
 21
326.145754
 31
0.0
  0
LINE
  5
407
330
1F
100
AcDbEntity
  8
002
 62
     3
370
    30
100
AcDbLine
 10
309.593554
 20
262.145754
 30
0.0
 11
299.593554
 21
262.145754
 31
0.0
  0
LINE
  5
408
330
1F
100
AcDbEntity
  8
002
 62
     3
370
    30
100
AcDbLine
 10
309.593554
 20
262.145754
 30
0.0
 11
309.593554
 21
256.145754
 31
0.0
  0
LINE
  5
409
330
1F
100
AcDbEntity
  8
002
 62
     3
370
    30
100
AcDbLine
 10
299.593554
 20
262.145754
 30
0.0
 11
299.593554
 21
256.145754
 31
0.0
  0
LINE
  5
40A
330
1F
100
AcDbEntity
  8
002
 62
     3
370
    30
100
AcDbLine
 10
317.344854
 20
256.145754
 30
0.0
 11
242.344854
 21
256.145754
 31
0.0
  0
LINE
  5
40B
330
1F
100
AcDbEntity
  8
002
 62
     3
370
    30
100
AcDbLine
 10
250.096054
 20
256.145754
 30
0.0
 11
250.096054
 21
262.145754
 31
0.0
  0
LINE
  5
40C
330
1F
100
AcDbEntity
  8
002
 62
     3
370
    30
100
AcDbLine
 10
250.096054
 20
262.145754
 30
0.0
 11
260.096054
 21
262.145754
 31
0.0
  0
LINE
  5
40D
330
1F
100
AcDbEntity
  8
002
 62
     3
370
    30
100
AcDbLine
 10
260.096054
 20
262.145754
 30
0.0
 11
260.096054
 21
256.145754
 31
0.0
  0
LINE
  5
40E
330
1F
100
AcDbEntity
  8
002
  6
CENTER
 62
    40
370
     9
100
AcDbLine
 10
255.096054
 20
266.645754
 30
0.0
 11
255.096054
 21
240.312054
 31
0.0
  0
LINE
  5
40F
330
1F
100
AcDbEntity
  8
002
  6
CENTER
 62
    40
370
     9
100
AcDbLine
 10
304.593554
 20
240.312054
 30
0.0
 11
304.593554
 21
266.645754
 31
0.0
  0
ARC
  5
410
330
1F
100
AcDbEntity
  8
002
 62
     3
370
    30
100
AcDbCircle
 10
238.506354
 20
306.645754
 30
0.0
 40
1.000041124154433
100
AcDbArc
 50
131.412294
 51
228.587706
  0
LINE
  5
411
330
1F
100
AcDbEntity
  8
002
 62
     3
370
    30
100
AcDbLine
 10
237.844854
 20
309.145754
 30
0.0
 11
237.844854
 21
304.145754
 31
0.0
  0
LINE
  5
412
330
1F
100
AcDbEntity
  8
002
 62
     3
370
    30
100
AcDbLine
 10
237.844854
 20
304.145754
 30
0.0
 11
240.844854
 21
303.395754
 31
0.0
  0
LINE
  5
413
330
1F
100
AcDbEntity
  8
002
 62
     3
370
    30
100
AcDbLine
 10
240.844854
 20
309.895754
 30
0.0
 11
237.844854
 21
309.145754
 31
0.0
  0
LINE
  5
414
330
1F
100
AcDbEntity
  8
002
 62
     3
370
    30
100
AcDbLine
 10
241.694254
 20
309.364854
 30
0.0
 11
240.844854
 21
309.895754
 31
0.0
  0
LINE
  5
415
330
1F
100
AcDbEntity
  8
002
 62
     3
370
    30
100
AcDbLine
 10
240.844854
 20
304.145754
 30
0.0
 11
240.844854
 21
309.145754
 31
0.0
  0
ARC
  5
416
330
1F
100
AcDbEntity
  8
002
 62
     3
370
    30
100
AcDbCircle
 10
242.224254
 20
310.212854
 30
0.0
 40
1.000001999998045
100
AcDbArc
 50
237.994617
 51
315.0
  0
LINE
  5
417
330
1F
100
AcDbEntity
  8
002
 62
     3
370
    30
100
AcDbLine
 10
242.368854
 20
304.348254
 30
0.0
 11
242.368854
 21
308.943254
 31
0.0
  0
LINE
  5
418
330
1F
100
AcDbEntity
  8
002
 62
     3
370
    30
100
AcDbLine
 10
242.931354
 20
309.505754
 30
0.0
 11
245.844854
 21
311.645754
 31
0.0
  0
LINE
  5
419
330
1F
100
AcDbEntity
  8
002
 62
     3
370
    30
100
AcDbLine
 10
240.844854
 20
303.395754
 30
0.0
 11
241.694254
 21
303.926654
 31
0.0
  0
LINE
  5
41A
330
1F
100
AcDbEntity
  8
002
 62
     3
370
    30
100
AcDbLine
 10
245.844854
 20
301.645754
 30
0.0
 11
242.931354
 21
303.785754
 31
0.0
  0
ARC
  5
41B
330
1F
100
AcDbEntity
  8
002
 62
     3
370
    30
100
AcDbCircle
 10
242.224254
 20
303.078654
 30
0.0
 40
0.9999904099540514
100
AcDbArc
 50
45.0
 51
122.005383
  0
ARC
  5
41C
330
1F
100
AcDbEntity
  8
002
 62
     3
370
    30
100
AcDbCircle
 10
248.469854
 20
304.145754
 30
0.0
 40
3.625
100
AcDbArc
 50
136.397181
 51
223.602819
  0
ARC
  5
41D
330
1F
100
AcDbEntity
  8
002
 62
     3
370
    30
100
AcDbCircle
 10
248.469854
 20
309.145754
 30
0.0
 40
3.625
100
AcDbArc
 50
136.397181
 51
223.602819
  0
LINE
  5
41E
330
1F
100
AcDbEntity
  8
002
 62
     3
370
    30
100
AcDbLine
 10
245.844854
 20
311.645754
 30
0.0
 11
248.844854
 21
311.645754
 31
0.0
  0
ARC
  5
41F
330
1F
100
AcDbEntity
  8
002
 62
     3
370
    30
100
AcDbCircle
 10
246.219854
 20
309.145754
 30
0.0
 40
3.625
100
AcDbArc
 50
316.397181
 51
43.602819
  0
LINE
  5
420
330
1F
100
AcDbEntity
  8
002
 62
     3
370
    30
100
AcDbLine
 10
248.844854
 20
311.645754
 30
0.0
 11
249.844854
 21
310.645754
 31
0.0
  0
LINE
  5
421
330
1F
100
AcDbEntity
  8
002
 62
     3
370
    30
100
AcDbLine
 10
249.844854
 20
310.645754
 30
0.0
 11
249.844854
 21
302.645754
 31
0.0
  0
ARC
  5
422
330
1F
100
AcDbEntity
  8
002
 62
     3
370
    30
100
AcDbCircle
 10
246.219854
 20
304.145754
 30
0.0
 40
3.625
100
AcDbArc
 50
316.397181
 51
43.602819
  0
LINE
  5
423
330
1F
100
AcDbEntity
  8
002
 62
     3
370
    30
100
AcDbLine
 10
249.844854
 20
302.645754
 30
0.0
 11
248.844854
 21
301.645754
 31
0.0
  0
LINE
  5
424
330
1F
100
AcDbEntity
  8
002
 62
     3
370
    30
100
AcDbLine
 10
248.844854
 20
301.645754
 30
0.0
 11
245.844854
 21
301.645754
 31
0.0
  0
LINE
  5
425
330
1F
100
AcDbEntity
  8
002
 62
     3
370
    30
100
AcDbLine
 10
245.844854
 20
306.645754
 30
0.0
 11
248.844854
 21
306.645754
 31
0.0
  0
LINE
  5
426
330
1F
100
AcDbEntity
  8
002
 62
     3
370
    30
100
AcDbLine
 10
249.844854
 20
310.507254
 30
0.0
 11
250.844854
 21
310.507254
 31
0.0
  0
LINE
  5
427
330
1F
100
AcDbEntity
  8
002
 62
     3
370
    30
100
AcDbLine
 10
250.844854
 20
302.784254
 30
0.0
 11
249.844854
 21
302.784254
 31
0.0
  0
LINE
  5
428
330
1F
100
AcDbEntity
  8
002
  6
CENTER
 62
    40
370
     9
100
AcDbLine
 10
252.942393
 20
306.645754
 30
0.0
 11
236.559746
 21
306.645754
 31
0.0
  0
ARC
  5
429
330
1F
100
AcDbEntity
  8
002
 62
     3
370
    30
100
AcDbCircle
 10
321.183354
 20
306.645754
 30
0.0
 40
1.000041124154433
100
AcDbArc
 50
311.412294
 51
48.587706
  0
LINE
  5
42A
330
1F
100
AcDbEntity
  8
002
 62
     3
370
    30
100
AcDbLine
 10
321.844854
 20
309.145754
 30
0.0
 11
321.844854
 21
304.145754
 31
0.0
  0
LINE
  5
42B
330
1F
100
AcDbEntity
  8
002
 62
     3
370
    30
100
AcDbLine
 10
321.844854
 20
304.145754
 30
0.0
 11
318.844854
 21
303.395754
 31
0.0
  0
LINE
  5
42C
330
1F
100
AcDbEntity
  8
002
 62
     3
370
    30
100
AcDbLine
 10
318.844854
 20
309.895754
 30
0.0
 11
321.844854
 21
309.145754
 31
0.0
  0
LINE
  5
42D
330
1F
100
AcDbEntity
  8
002
 62
     3
370
    30
100
AcDbLine
 10
317.995454
 20
309.364854
 30
0.0
 11
318.844854
 21
309.895754
 31
0.0
  0
LINE
  5
42E
330
1F
100
AcDbEntity
  8
002
 62
     3
370
    30
100
AcDbLine
 10
318.844854
 20
304.145754
 30
0.0
 11
318.844854
 21
309.145754
 31
0.0
  0
ARC
  5
42F
330
1F
100
AcDbEntity
  8
002
 62
     3
370
    30
100
AcDbCircle
 10
317.465454
 20
310.212854
 30
0.0
 40
1.000001999998045
100
AcDbArc
 50
225.0
 51
302.005383
  0
LINE
  5
430
330
1F
100
AcDbEntity
  8
002
 62
     3
370
    30
100
AcDbLine
 10
317.320854
 20
304.348254
 30
0.0
 11
317.320854
 21
308.943254
 31
0.0
  0
LINE
  5
431
330
1F
100
AcDbEntity
  8
002
 62
     3
370
    30
100
AcDbLine
 10
316.758354
 20
309.505754
 30
0.0
 11
313.844854
 21
311.645754
 31
0.0
  0
LINE
  5
432
330
1F
100
AcDbEntity
  8
002
 62
     3
370
    30
100
AcDbLine
 10
318.844854
 20
303.395754
 30
0.0
 11
317.995454
 21
303.926654
 31
0.0
  0
LINE
  5
433
330
1F
100
AcDbEntity
  8
002
 62
     3
370
    30
100
AcDbLine
 10
313.844854
 20
301.645754
 30
0.0
 11
316.758354
 21
303.785754
 31
0.0
  0
ARC
  5
434
330
1F
100
AcDbEntity
  8
002
 62
     3
370
    30
100
AcDbCircle
 10
317.465454
 20
303.078654
 30
0.0
 40
0.9999904099540514
100
AcDbArc
 50
57.994617
 51
135.0
  0
ARC
  5
435
330
1F
100
AcDbEntity
  8
002
 62
     3
370
    30
100
AcDbCircle
 10
311.219854
 20
304.145754
 30
0.0
 40
3.625
100
AcDbArc
 50
316.397181
 51
43.602819
  0
ARC
  5
436
330
1F
100
AcDbEntity
  8
002
 62
     3
370
    30
100
AcDbCircle
 10
311.219854
 20
309.145754
 30
0.0
 40
3.625
100
AcDbArc
 50
316.397181
 51
43.602819
  0
LINE
  5
437
330
1F
100
AcDbEntity
  8
002
 62
     3
370
    30
100
AcDbLine
 10
313.844854
 20
311.645754
 30
0.0
 11
310.844854
 21
311.645754
 31
0.0
  0
ARC
  5
438
330
1F
100
AcDbEntity
  8
002
 62
     3
370
    30
100
AcDbCircle
 10
313.469854
 20
309.145754
 30
0.0
 40
3.625
100
AcDbArc
 50
136.397181
 51
223.602819
  0
LINE
  5
439
330
1F
100
AcDbEntity
  8
002
 62
     3
370
    30
100
AcDbLine
 10
310.844854
 20
311.645754
 30
0.0
 11
309.844854
 21
310.645754
 31
0.0
  0
LINE
  5
43A
330
1F
100
AcDbEntity
  8
002
 62
     3
370
    30
100
AcDbLine
 10
309.844854
 20
310.645754
 30
0.0
 11
309.844854
 21
302.645754
 31
0.0
  0
ARC
  5
43B
330
1F
100
AcDbEntity
  8
002
 62
     3
370
    30
100
AcDbCircle
 10
313.469854
 20
304.145754
 30
0.0
 40
3.625
100
AcDbArc
 50
136.397181
 51
223.602819
  0
LINE
  5
43C
330
1F
100
AcDbEntity
  8
002
 62
     3
370
    30
100
AcDbLine
 10
309.844854
 20
302.645754
 30
0.0
 11
310.844854
 21
301.645754
 31
0.0
  0
LINE
  5
43D
330
1F
100
AcDbEntity
  8
002
 62
     3
370
    30
100
AcDbLine
 10
310.844854
 20
301.645754
 30
0.0
 11
313.844854
 21
301.645754
 31
0.0
  0
LINE
  5
43E
330
1F
100
AcDbEntity
  8
002
 62
     3
370
    30
100
AcDbLine
 10
313.844854
 20
306.645754
 30
0.0
 11
310.844854
 21
306.645754
 31
0.0
  0
LINE
  5
43F
330
1F
100
AcDbEntity
  8
002
 62
     3
370
    30
100
AcDbLine
 10
309.844854
 20
310.507254
 30
0.0
 11
308.844854
 21
310.507254
 31
0.0
  0
LINE
  5
440
330
1F
100
AcDbEntity
  8
002
 62
     3
370
    30
100
AcDbLine
 10
308.844854
 20
302.784254
 30
0.0
 11
309.844854
 21
302.784254
 31
0.0
  0
LINE
  5
441
330
1F
100
AcDbEntity
  8
002
  6
CENTER
 62
    40
370
     9
100
AcDbLine
 10
306.747314
 20
306.645754
 30
0.0
 11
323.129962
 21
306.645754
 31
0.0
  0
LINE
  5
442
330
1F
100
AcDbEntity
  8
002
 62
     3
370
    30
100
AcDbLine
 10
194.845154
 20
222.645754
 30
0.0
 11
194.845154
 21
209.645754
 31
0.0
  0
LINE
  5
443
330
1F
100
AcDbEntity
  8
002
 62
     3
370
    30
100
AcDbLine
 10
194.845154
 20
209.645754
 30
0.0
 11
195.845154
 21
208.645754
 31
0.0
  0
LINE
  5
444
330
1F
100
AcDbEntity
  8
002
 62
     3
370
    30
100
AcDbLine
 10
195.845154
 20
208.645754
 30
0.0
 11
227.845154
 21
208.645754
 31
0.0
  0
LINE
  5
445
330
1F
100
AcDbEntity
  8
002
 62
     3
370
    30
100
AcDbLine
 10
227.845154
 20
224.645754
 30
0.0
 11
227.845154
 21
207.645754
 31
0.0
  0
LINE
  5
446
330
1F
100
AcDbEntity
  8
002
 62
     3
370
    30
100
AcDbLine
 10
227.845154
 20
223.645754
 30
0.0
 11
195.845154
 21
223.645754
 31
0.0
  0
LINE
  5
447
330
1F
100
AcDbEntity
  8
002
 62
     3
370
    30
100
AcDbLine
 10
195.845154
 20
223.645754
 30
0.0
 11
194.845154
 21
222.645754
 31
0.0
  0
LINE
  5
448
330
1F
100
AcDbEntity
  8
002
 62
     3
370
    30
100
AcDbLine
 10
195.845154
 20
223.645754
 30
0.0
 11
195.845154
 21
218.645754
 31
0.0
  0
LINE
  5
449
330
1F
100
AcDbEntity
  8
002
 62
     3
370
    30
100
AcDbLine
 10
194.845154
 20
218.645754
 30
0.0
 11
222.345154
 21
218.645754
 31
0.0
  0
LINE
  5
44A
330
1F
100
AcDbEntity
  8
002
 62
     3
370
    30
100
AcDbLine
 10
222.345154
 20
213.645754
 30
0.0
 11
194.845154
 21
213.645754
 31
0.0
  0
LINE
  5
44B
330
1F
100
AcDbEntity
  8
002
 62
     3
370
    30
100
AcDbLine
 10
195.845154
 20
213.645754
 30
0.0
 11
195.845154
 21
208.645754
 31
0.0
  0
LINE
  5
44C
330
1F
100
AcDbEntity
  8
002
 62
     3
370
    30
100
AcDbLine
 10
216.845154
 20
213.645754
 30
0.0
 11
216.845154
 21
218.645754
 31
0.0
  0
ARC
  5
44D
330
1F
100
AcDbEntity
  8
002
 62
     3
370
    30
100
AcDbCircle
 10
222.345154
 20
216.145754
 30
0.0
 40
2.5
100
AcDbArc
 50
270.0
 51
90.0
  0
LINE
  5
44E
330
1F
100
AcDbEntity
  8
002
 62
     3
370
    30
100
AcDbLine
 10
227.845154
 20
224.645754
 30
0.0
 11
229.845154
 21
224.645754
 31
0.0
  0
LINE
  5
44F
330
1F
100
AcDbEntity
  8
002
 62
     3
370
    30
100
AcDbLine
 10
227.845154
 20
207.645754
 30
0.0
 11
229.845154
 21
207.645754
 31
0.0
  0
LINE
  5
450
330
1F
100
AcDbEntity
  8
002
 62
     3
370
    30
100
AcDbLine
 10
364.844554
 20
222.645754
 30
0.0
 11
364.844554
 21
209.645754
 31
0.0
  0
LINE
  5
451
330
1F
100
AcDbEntity
  8
002
 62
     3
370
    30
100
AcDbLine
 10
364.844554
 20
209.645754
 30
0.0
 11
363.844554
 21
208.645754
 31
0.0
  0
LINE
  5
452
330
1F
100
AcDbEntity
  8
002
 62
     3
370
    30
100
AcDbLine
 10
363.844554
 20
208.645754
 30
0.0
 11
331.844554
 21
208.645754
 31
0.0
  0
LINE
  5
453
330
1F
100
AcDbEntity
  8
002
 62
     3
370
    30
100
AcDbLine
 10
331.844554
 20
224.645754
 30
0.0
 11
331.844554
 21
207.645754
 31
0.0
  0
LINE
  5
454
330
1F
100
AcDbEntity
  8
002
 62
     3
370
    30
100
AcDbLine
 10
331.844554
 20
223.645754
 30
0.0
 11
363.844554
 21
223.645754
 31
0.0
  0
LINE
  5
455
330
1F
100
AcDbEntity
  8
002
 62
     3
370
    30
100
AcDbLine
 10
363.844554
 20
223.645754
 30
0.0
 11
364.844554
 21
222.645754
 31
0.0
  0
LINE
  5
456
330
1F
100
AcDbEntity
  8
002
 62
     3
370
    30
100
AcDbLine
 10
363.844554
 20
223.645754
 30
0.0
 11
363.844554
 21
218.645754
 31
0.0
  0
LINE
  5
457
330
1F
100
AcDbEntity
  8
002
 62
     3
370
    30
100
AcDbLine
 10
364.844554
 20
218.645754
 30
0.0
 11
337.344554
 21
218.645754
 31
0.0
  0
LINE
  5
458
330
1F
100
AcDbEntity
  8
002
 62
     3
370
    30
100
AcDbLine
 10
337.344554
 20
213.645754
 30
0.0
 11
364.844554
 21
213.645754
 31
0.0
  0
LINE
  5
459
330
1F
100
AcDbEntity
  8
002
 62
     3
370
    30
100
AcDbLine
 10
363.844554
 20
213.645754
 30
0.0
 11
363.844554
 21
208.645754
 31
0.0
  0
LINE
  5
45A
330
1F
100
AcDbEntity
  8
002
 62
     3
370
    30
100
AcDbLine
 10
342.844554
 20
213.645754
 30
0.0
 11
342.844554
 21
218.645754
 31
0.0
  0
ARC
  5
45B
330
1F
100
AcDbEntity
  8
002
 62
     3
370
    30
100
AcDbCircle
 10
337.344554
 20
216.145754
 30
0.0
 40
2.5
100
AcDbArc
 50
90.0
 51
270.0
  0
LINE
  5
45C
330
1F
100
AcDbEntity
  8
002
 62
     3
370
    30
100
AcDbLine
 10
331.844554
 20
224.645754
 30
0.0
 11
329.844554
 21
224.645754
 31
0.0
  0
LINE
  5
45D
330
1F
100
AcDbEntity
  8
002
 62
     3
370
    30
100
AcDbLine
 10
331.844554
 20
207.645754
 30
0.0
 11
329.844554
 21
207.645754
 31
0.0
  0
LINE
  5
45E
330
1F
100
AcDbEntity
  8
003
  6
CENTER
 62
    40
370
     9
100
AcDbLine
 10
184.843953
 20
216.145754
 30
0.0
 11
373.918463
 21
216.145754
 31
0.0
  0
LINE
  5
45F
330
1F
100
AcDbEntity
  8
002
 62
     3
370
    30
100
AcDbLine
 10
250.844854
 20
262.145754
 30
0.0
 11
250.844854
 21
326.145754
 31
0.0
  0
LINE
  5
460
330
1F
100
AcDbEntity
  8
002
 62
     3
370
    30
100
AcDbLine
 10
308.844854
 20
326.145754
 30
0.0
 11
308.844854
 21
262.145754
 31
0.0
  0
LINE
  5
461
330
1F
100
AcDbEntity
  8
002
 62
     3
370
    30
100
AcDbLine
 10
268.184954
 20
172.145754
 30
0.0
 11
268.184954
 21
167.145754
 31
0.0
  0
LINE
  5
462
330
1F
100
AcDbEntity
  8
002
 62
     3
370
    30
100
AcDbLine
 10
259.684954
 20
167.145754
 30
0.0
 11
259.684954
 21
172.145754
 31
0.0
  0
LINE
  5
463
330
1F
100
AcDbEntity
  8
002
 62
     3
370
    30
100
AcDbLine
 10
259.291454
 20
169.189354
 30
0.0
 11
259.844854
 21
131.145754
 31
0.0
  0
LINE
  5
464
330
1F
100
AcDbEntity
  8
002
 62
     3
370
    30
100
AcDbLine
 10
259.844854
 20
131.145754
 30
0.0
 11
299.844854
 21
131.145754
 31
0.0
  0
LINE
  5
465
330
1F
100
AcDbEntity
  8
002
 62
     3
370
    30
100
AcDbLine
 10
299.844854
 20
131.145754
 30
0.0
 11
300.398154
 21
169.189354
 31
0.0
  0
LINE
  5
466
330
1F
100
AcDbEntity
  8
002
 62
     3
370
    30
100
AcDbLine
 10
291.504754
 20
167.145754
 30
0.0
 11
291.504754
 21
172.145754
 31
0.0
  0
LINE
  5
467
330
1F
100
AcDbEntity
  8
002
 62
     3
370
    30
100
AcDbLine
 10
252.344854
 20
176.145754
 30
0.0
 11
252.344854
 21
172.145754
 31
0.0
  0
LINE
  5
468
330
1F
100
AcDbEntity
  8
002
 62
     3
370
    30
100
AcDbLine
 10
252.344854
 20
172.145754
 30
0.0
 11
307.344854
 21
172.145754
 31
0.0
  0
LINE
  5
469
330
1F
100
AcDbEntity
  8
002
 62
     3
370
    30
100
AcDbLine
 10
307.344854
 20
172.145754
 30
0.0
 11
307.344854
 21
176.145754
 31
0.0
  0
ARC
  5
46A
330
1F
100
AcDbEntity
  8
002
 62
     3
370
    30
100
AcDbCircle
 10
303.397854
 20
169.145754
 30
0.0
 40
3.000016841619469
100
AcDbArc
 50
90.0
 51
179.167277
  0
LINE
  5
46B
330
1F
100
AcDbEntity
  8
002
 62
     3
370
    30
100
AcDbLine
 10
300.004754
 20
167.145754
 30
0.0
 11
300.004754
 21
172.145754
 31
0.0
  0
LINE
  5
46C
330
1F
100
AcDbEntity
  8
002
 62
     3
370
    30
100
AcDbLine
 10
300.004754
 20
167.145754
 30
0.0
 11
291.504754
 21
167.145754
 31
0.0
  0
LINE
  5
46D
330
1F
100
AcDbEntity
  8
002
 62
     3
370
    30
100
AcDbLine
 10
268.184954
 20
167.145754
 30
0.0
 11
259.684954
 21
167.145754
 31
0.0
  0
ARC
  5
46E
330
1F
100
AcDbEntity
  8
002
 62
     3
370
    30
100
AcDbCircle
 10
256.291754
 20
169.145754
 30
0.0
 40
3.0
100
AcDbArc
 50
0.832723
 51
90.0
  0
LINE
  5
46F
330
1F
100
AcDbEntity
  8
002
  6
CENTER
 62
    40
370
     9
100
AcDbLine
 10
263.934954
 20
178.145754
 30
0.0
 11
263.934954
 21
164.424154
 31
0.0
  0
LINE
  5
470
330
1F
100
AcDbEntity
  8
002
  6
CENTER
 62
    40
370
     9
100
AcDbLine
 10
295.754754
 20
164.424154
 30
0.0
 11
295.754754
 21
178.145754
 31
0.0
  0
LINE
  5
471
330
1F
100
AcDbEntity
  8
002
 62
     3
370
    30
100
AcDbLine
 10
286.844854
 20
439.445754
 30
0.0
 11
286.844854
 21
422.445754
 31
0.0
  0
LINE
  5
472
330
1F
100
AcDbEntity
  8
002
 62
     3
370
    30
100
AcDbLine
 10
286.844854
 20
422.445754
 30
0.0
 11
272.844854
 21
422.445754
 31
0.0
  0
LINE
  5
473
330
1F
100
AcDbEntity
  8
002
 62
     3
370
    30
100
AcDbLine
 10
272.844854
 20
439.445754
 30
0.0
 11
272.844854
 21
422.445754
 31
0.0
  0
LINE
  5
474
330
1F
100
AcDbEntity
  8
002
 62
     3
370
    30
100
AcDbLine
 10
286.844854
 20
439.445754
 30
0.0
 11
272.844854
 21
439.445754
 31
0.0
  0
LINE
  5
475
330
1F
100
AcDbEntity
  8
002
 62
     3
370
    30
100
AcDbLine
 10
285.694854
 20
422.445754
 30
0.0
 11
285.694854
 21
419.445754
 31
0.0
  0
LINE
  5
476
330
1F
100
AcDbEntity
  8
002
 62
     3
370
    30
100
AcDbLine
 10
269.845154
 20
419.445754
 30
0.0
 11
289.845154
 21
419.445754
 31
0.0
  0
LINE
  5
477
330
1F
100
AcDbEntity
  8
002
 62
     3
370
    30
100
AcDbLine
 10
273.994854
 20
419.445754
 30
0.0
 11
273.994854
 21
422.445754
 31
0.0
  0
LINE
  5
478
330
1F
100
AcDbEntity
  8
002
 62
    40
370
     9
100
AcDbLine
 10
273.894854
 20
439.445754
 30
0.0
 11
273.894854
 21
422.445754
 31
0.0
  0
LINE
  5
479
330
1F
100
AcDbEntity
  8
002
 62
    40
370
     9
100
AcDbLine
 10
285.794854
 20
422.445754
 30
0.0
 11
285.794854
 21
439.445754
 31
0.0
  0
LINE
  5
47A
330
1F
100
AcDbEntity
  8
002
 62
     3
370
    30
100
AcDbLine
 10
261.844854
 20
76.145754
 30
0.0
 11
297.844854
 21
76.145754
 31
0.0
  0
LINE
  5
47B
330
1F
100
AcDbEntity
  8
002
 62
     3
370
    30
100
AcDbLine
 10
297.844854
 20
76.145754
 30
0.0
 11
297.844854
 21
59.145754
 31
0.0
  0
LINE
  5
47C
330
1F
100
AcDbEntity
  8
002
 62
     3
370
    30
100
AcDbLine
 10
294.844854
 20
56.145754
 30
0.0
 11
264.844854
 21
56.145754
 31
0.0
  0
LINE
  5
47D
330
1F
100
AcDbEntity
  8
002
 62
     3
370
    30
100
AcDbLine
 10
261.844854
 20
59.145754
 30
0.0
 11
261.844854
 21
76.145754
 31
0.0
  0
ARC
  5
47E
330
1F
100
AcDbEntity
  8
002
 62
     3
370
    30
100
AcDbCircle
 10
264.844854
 20
59.145754
 30
0.0
 40
3.0
100
AcDbArc
 50
180.0
 51
270.0
  0
ARC
  5
47F
330
1F
100
AcDbEntity
  8
002
 62
     3
370
    30
100
AcDbCircle
 10
294.844854
 20
59.145754
 30
0.0
 40
3.0
100
AcDbArc
 50
270.0
 51
0.0
  0
LINE
  5
480
330
1F
100
AcDbEntity
  8
002
 62
     3
370
    30
100
AcDbLine
 10
802.750559
 20
262.145754
 30
0.0
 11
802.750559
 21
326.145754
 31
0.0
  0
LINE
  5
481
330
1F
100
AcDbEntity
  8
002
 62
     3
370
    30
100
AcDbLine
 10
860.750559
 20
326.145754
 30
0.0
 11
860.750559
 21
262.145754
 31
0.0
  0
LINE
  5
482
330
1F
100
AcDbEntity
  8
002
 62
     3
370
    30
100
AcDbLine
 10
889.748559
 20
198.645754
 30
0.0
 11
889.748559
 21
233.645754
 31
0.0
  0
ARC
  5
483
330
1F
100
AcDbEntity
  8
002
 62
     3
370
    30
100
AcDbCircle
 10
890.750559
 20
236.473754
 30
0.0
 40
3.0
100
AcDbArc
 50
180.0
 51
250.490051
  0
LINE
  5
484
330
1F
100
AcDbEntity
  8
002
 62
     3
370
    30
100
AcDbLine
 10
887.750559
 20
236.473754
 30
0.0
 11
887.750559
 21
244.145754
 31
0.0
  0
LINE
  5
485
330
1F
100
AcDbEntity
  8
002
 62
     3
370
    30
100
AcDbLine
 10
887.750559
 20
244.145754
 30
0.0
 11
869.975559
 21
244.145754
 31
0.0
  0
ARC
  5
486
330
1F
100
AcDbEntity
  8
002
 62
     3
370
    30
100
AcDbCircle
 10
869.975559
 20
246.145754
 30
0.0
 40
2.0
100
AcDbArc
 50
180.0
 51
270.0
  0
LINE
  5
487
330
1F
100
AcDbEntity
  8
002
 62
     3
370
    30
100
AcDbLine
 10
869.250559
 20
246.145754
 30
0.0
 11
794.250559
 21
246.145754
 31
0.0
  0
LINE
  5
488
330
1F
100
AcDbEntity
  8
002
 62
     3
370
    30
100
AcDbLine
 10
794.250559
 20
256.145754
 30
0.0
 11
794.250559
 21
234.145754
 31
0.0
  0
ARC
  5
489
330
1F
100
AcDbEntity
  8
002
 62
     3
370
    30
100
AcDbCircle
 10
792.750559
 20
230.177054
 30
0.0
 40
3.0
100
AcDbArc
 50
0.0
 51
41.410861
  0
LINE
  5
48A
330
1F
100
AcDbEntity
  8
002
 62
     3
370
    30
100
AcDbLine
 10
795.750559
 20
230.177054
 30
0.0
 11
795.750559
 21
190.114354
 31
0.0
  0
ARC
  5
48B
330
1F
100
AcDbEntity
  8
002
 62
     3
370
    30
100
AcDbCircle
 10
792.750559
 20
190.114354
 30
0.0
 40
2.999991081653385
100
AcDbArc
 50
318.590571
 51
0.0
  0
LINE
  5
48C
330
1F
100
AcDbEntity
  8
002
 62
     3
370
    30
100
AcDbLine
 10
794.250559
 20
186.145754
 30
0.0
 11
794.250559
 21
176.145754
 31
0.0
  0
LINE
  5
48D
330
1F
100
AcDbEntity
  8
002
 62
     3
370
    30
100
AcDbLine
 10
794.250559
 20
176.145754
 30
0.0
 11
869.250559
 21
176.145754
 31
0.0
  0
LINE
  5
48E
330
1F
100
AcDbEntity
  8
002
 62
     3
370
    30
100
AcDbLine
 10
869.250559
 20
176.145754
 30
0.0
 11
869.250559
 21
186.805754
 31
0.0
  0
ARC
  5
48F
330
1F
100
AcDbEntity
  8
002
 62
     3
370
    30
100
AcDbCircle
 10
874.250559
 20
186.805754
 30
0.0
 40
5.000086300255202
100
AcDbArc
 50
93.657892
 51
180.0
  0
LINE
  5
490
330
1F
100
AcDbEntity
  8
002
 62
     3
370
    30
100
AcDbLine
 10
873.931559
 20
191.795654
 30
0.0
 11
880.224559
 21
192.197254
 31
0.0
  0
LINE
  5
491
330
1F
100
AcDbEntity
  8
002
 62
     3
370
    30
100
AcDbLine
 10
877.055559
 20
193.498054
 30
0.0
 11
863.654559
 21
192.642654
 31
0.0
  0
LINE
  5
492
330
1F
100
AcDbEntity
  8
002
 62
     3
370
    30
100
AcDbLine
 10
863.845559
 20
192.642654
 30
0.0
 11
850.445559
 21
193.498054
 31
0.0
  0
ARC
  5
493
330
1F
100
AcDbEntity
  8
002
 62
     3
370
    30
100
AcDbCircle
 10
851.082559
 20
203.477754
 30
0.0
 40
10.0003084452431
100
AcDbArc
 50
183.652101
 51
266.347789
  0
LINE
  5
494
330
1F
100
AcDbEntity
  8
002
 62
     3
370
    30
100
AcDbLine
 10
840.972559
 20
194.464254
 30
0.0
 11
839.585559
 21
216.199054
 31
0.0
  0
LINE
  5
495
330
1F
100
AcDbEntity
  8
002
 62
     3
370
    30
100
AcDbLine
 10
839.585559
 20
216.092454
 30
0.0
 11
840.589559
 21
231.831954
 31
0.0
  0
ARC
  5
496
330
1F
100
AcDbEntity
  8
002
 62
     3
370
    30
100
AcDbCircle
 10
848.573559
 20
231.322254
 30
0.0
 40
8.000008964994937
100
AcDbArc
 50
93.647904
 51
176.347184
  0
LINE
  5
497
330
1F
100
AcDbEntity
  8
002
 62
     3
370
    30
100
AcDbLine
 10
848.064559
 20
239.306054
 30
0.0
 11
863.480559
 21
240.312054
 31
0.0
  0
LINE
  5
498
330
1F
100
AcDbEntity
  8
002
 62
     3
370
    30
100
AcDbLine
 10
863.480559
 20
240.312054
 30
0.0
 11
865.262559
 21
240.483454
 31
0.0
  0
LINE
  5
499
330
1F
100
AcDbEntity
  8
002
 62
     3
370
    30
100
AcDbLine
 10
863.845559
 20
239.648754
 30
0.0
 11
850.445559
 21
238.793454
 31
0.0
  0
LINE
  5
49A
330
1F
100
AcDbEntity
  8
002
 62
     3
370
    30
100
AcDbLine
 10
840.546559
 20
231.145754
 30
0.0
 11
797.250559
 21
231.145754
 31
0.0
  0
ARC
  5
49B
330
1F
100
AcDbEntity
  8
002
 62
     3
370
    30
100
AcDbCircle
 10
797.250559
 20
234.145754
 30
0.0
 40
3.0
100
AcDbArc
 50
180.0
 51
270.0
  0
LINE
  5
49C
330
1F
100
AcDbEntity
  8
002
 62
     3
370
    30
100
AcDbLine
 10
795.882559
 20
231.475654
 30
0.0
 11
804.012559
 21
227.310954
 31
0.0
  0
LINE
  5
49D
330
1F
100
AcDbEntity
  8
002
 62
     3
370
    30
100
AcDbLine
 10
808.217559
 20
226.703654
 30
0.0
 11
829.911559
 21
230.798654
 31
0.0
  0
ARC
  5
49E
330
1F
100
AcDbEntity
  8
002
 62
     3
370
    30
100
AcDbCircle
 10
833.621559
 20
211.145754
 30
0.0
 40
20.0
100
AcDbArc
 50
90.0
 51
100.690277
  0
LINE
  5
49F
330
1F
100
AcDbEntity
  8
002
 62
     3
370
    30
100
AcDbLine
 10
841.102559
 20
229.450754
 30
0.0
 11
840.247559
 21
216.050154
 31
0.0
  0
LINE
  5
4A0
330
1F
100
AcDbEntity
  8
002
 62
     3
370
    30
100
AcDbLine
 10
840.247559
 20
216.241254
 30
0.0
 11
841.842559
 21
191.252754
 31
0.0
  0
ARC
  5
4A1
330
1F
100
AcDbEntity
  8
002
 62
     3
370
    30
100
AcDbCircle
 10
838.848559
 20
191.061654
 30
0.0
 40
3.0
100
AcDbArc
 50
270.0
 51
3.652101
  0
LINE
  5
4A2
330
1F
100
AcDbEntity
  8
002
 62
     3
370
    30
100
AcDbLine
 10
838.383559
 20
187.145754
 30
0.0
 11
841.750559
 21
187.145754
 31
0.0
  0
ARC
  5
4A3
330
1F
100
AcDbEntity
  8
002
 62
     3
370
    30
100
AcDbCircle
 10
841.750559
 20
183.145754
 30
0.0
 40
4.0
100
AcDbArc
 50
0.0
 51
90.0
  0
LINE
  5
4A4
330
1F
100
AcDbEntity
  8
002
 62
     3
370
    30
100
AcDbLine
 10
845.750559
 20
183.145754
 30
0.0
 11
845.750559
 21
176.145754
 31
0.0
  0
LINE
  5
4A5
330
1F
100
AcDbEntity
  8
002
 62
     3
370
    30
100
AcDbLine
 10
817.750559
 20
176.145754
 30
0.0
 11
817.750559
 21
183.145754
 31
0.0
  0
ARC
  5
4A6
330
1F
100
AcDbEntity
  8
002
 62
     3
370
    30
100
AcDbCircle
 10
821.750559
 20
183.145754
 30
0.0
 40
4.0
100
AcDbArc
 50
90.0
 51
180.0
  0
LINE
  5
4A7
330
1F
100
AcDbEntity
  8
002
 62
     3
370
    30
100
AcDbLine
 10
821.750559
 20
187.145754
 30
0.0
 11
825.116559
 21
187.145754
 31
0.0
  0
LINE
  5
4A8
330
1F
100
AcDbEntity
  8
002
 62
     3
370
    30
100
AcDbLine
 10
825.116559
 20
187.145754
 30
0.0
 11
825.116559
 21
186.145754
 31
0.0
  0
LINE
  5
4A9
330
1F
100
AcDbEntity
  8
002
 62
     3
370
    30
100
AcDbLine
 10
825.116559
 20
186.145754
 30
0.0
 11
838.383559
 21
186.145754
 31
0.0
  0
LINE
  5
4AA
330
1F
100
AcDbEntity
  8
002
 62
     3
370
    30
100
AcDbLine
 10
838.383559
 20
186.145754
 30
0.0
 11
838.383559
 21
187.145754
 31
0.0
  0
LINE
  5
4AB
330
1F
100
AcDbEntity
  8
002
 62
     3
370
    30
100
AcDbLine
 10
835.982559
 20
189.145754
 30
0.0
 11
797.250559
 21
189.145754
 31
0.0
  0
ARC
  5
4AC
330
1F
100
AcDbEntity
  8
002
 62
     3
370
    30
100
AcDbCircle
 10
797.250559
 20
186.145754
 30
0.0
 40
3.0
100
AcDbArc
 50
90.0
 51
180.0
  0
LINE
  5
4AD
330
1F
100
AcDbEntity
  8
002
 62
     3
370
    30
100
AcDbLine
 10
806.750559
 20
189.145754
 30
0.0
 11
817.750559
 21
187.145754
 31
0.0
  0
ARC
  5
4AE
330
1F
100
AcDbEntity
  8
002
 62
     3
370
    30
100
AcDbCircle
 10
831.750559
 20
125.361354
 30
0.0
 40
62.41289376691327
100
AcDbArc
 50
81.86203
 51
98.138879
  0
LINE
  5
4AF
330
1F
100
AcDbEntity
  8
002
 62
     3
370
    30
100
AcDbLine
 10
845.750559
 20
187.145754
 30
0.0
 11
848.518559
 21
187.649154
 31
0.0
  0
LINE
  5
4B0
330
1F
100
AcDbEntity
  8
002
 62
     3
370
    30
100
AcDbLine
 10
850.982559
 20
190.600754
 30
0.0
 11
850.982559
 21
190.852754
 31
0.0
  0
ARC
  5
4B1
330
1F
100
AcDbEntity
  8
002
 62
     3
370
    30
100
AcDbCircle
 10
847.982559
 20
190.600754
 30
0.0
 40
2.999873090648998
100
AcDbArc
 50
280.292547
 51
0.0
  0
LINE
  5
4B2
330
1F
100
AcDbEntity
  8
002
 62
     3
370
    30
100
AcDbLine
 10
856.750559
 20
187.145754
 30
0.0
 11
856.750559
 21
176.145754
 31
0.0
  0
LINE
  5
4B3
330
1F
100
AcDbEntity
  8
002
 62
     3
370
    30
100
AcDbLine
 10
861.875559
 20
198.774154
 30
0.0
 11
861.875559
 21
201.020754
 31
0.0
  0
CIRCLE
  5
4B4
330
1F
100
AcDbEntity
  8
002
 62
     3
370
    30
100
AcDbCircle
 10
859.375559
 20
201.020754
 30
0.0
 40
1.09375
  0
ARC
  5
4B5
330
1F
100
AcDbEntity
  8
002
 62
     3
370
    30
100
AcDbCircle
 10
859.375559
 20
201.020754
 30
0.0
 40
2.5
100
AcDbArc
 50
0.0
 51
134.847661
  0
LINE
  5
4B6
330
1F
100
AcDbEntity
  8
002
 62
     3
370
    30
100
AcDbLine
 10
865.625559
 20
201.020754
 30
0.0
 11
865.625559
 21
198.774154
 31
0.0
  0
ARC
  5
4B7
330
1F
100
AcDbEntity
  8
002
 62
     3
370
    30
100
AcDbCircle
 10
868.125559
 20
201.020754
 30
0.0
 40
2.499914150525921
100
AcDbArc
 50
45.152339
 51
180.0
  0
ARC
  5
4B8
330
1F
100
AcDbEntity
  8
002
 62
     3
370
    30
100
AcDbCircle
 10
871.651559
 20
204.565554
 30
0.0
 40
2.49991415052604
100
AcDbArc
 50
225.152339
 51
306.868523
  0
CIRCLE
  5
4B9
330
1F
100
AcDbEntity
  8
002
 62
     3
370
    30
100
AcDbCircle
 10
868.125559
 20
201.020754
 30
0.0
 40
1.09375
  0
ARC
  5
4BA
330
1F
100
AcDbEntity
  8
002
 62
     3
370
    30
100
AcDbCircle
 10
855.848559
 20
204.565554
 30
0.0
 40
2.499480147950763
100
AcDbArc
 50
233.149816
 51
314.863906
  0
ARC
  5
4BB
330
1F
100
AcDbEntity
  8
002
 62
     3
370
    30
100
AcDbCircle
 10
863.750559
 20
215.101354
 30
0.0
 40
15.66932001747374
100
AcDbArc
 50
306.867192
 51
233.132808
  0
ARC
  5
4BC
330
1F
100
AcDbEntity
  8
002
 62
     3
370
    30
100
AcDbCircle
 10
876.418559
 20
203.477754
 30
0.0
 40
10.00000905449595
100
AcDbArc
 50
273.652211
 51
356.347534
  0
ARC
  5
4BD
330
1F
100
AcDbEntity
  8
002
 62
     3
370
    30
100
AcDbCircle
 10
889.736559
 20
195.645754
 30
0.0
 40
3.000023999904001
100
AcDbArc
 50
89.770818
 51
155.649463
  0
LINE
  5
4BE
330
1F
100
AcDbEntity
  8
002
 62
     3
370
    30
100
AcDbLine
 10
889.748559
 20
198.645754
 30
0.0
 11
889.723559
 21
198.645754
 31
0.0
  0
ARC
  5
4BF
330
1F
100
AcDbEntity
  8
002
 62
     3
370
    30
100
AcDbCircle
 10
879.714559
 20
200.181054
 30
0.0
 40
8.000072652170077
100
AcDbArc
 50
273.655051
 51
356.347899
  0
LINE
  5
4C0
330
1F
100
AcDbEntity
  8
002
 62
     3
370
    30
100
AcDbLine
 10
887.698559
 20
199.671454
 30
0.0
 11
888.750559
 21
216.145754
 31
0.0
  0
LINE
  5
4C1
330
1F
100
AcDbEntity
  8
002
 62
     3
370
    30
100
AcDbLine
 10
888.750559
 20
216.145754
 30
0.0
 11
887.698559
 21
232.620054
 31
0.0
  0
LINE
  5
4C2
330
1F
100
AcDbEntity
  8
002
 62
     3
370
    30
100
AcDbLine
 10
886.397559
 20
229.450754
 30
0.0
 11
887.253559
 21
216.050154
 31
0.0
  0
LINE
  5
4C3
330
1F
100
AcDbEntity
  8
002
 62
     3
370
    30
100
AcDbLine
 10
887.253559
 20
216.241254
 30
0.0
 11
886.397559
 21
202.840754
 31
0.0
  0
ARC
  5
4C4
330
1F
100
AcDbEntity
  8
002
 62
     3
370
    30
100
AcDbCircle
 10
866.050559
 20
220.845754
 30
0.0
 40
0.1999999999999318
100
AcDbArc
 50
270.0
 51
0.0
  0
LINE
  5
4C5
330
1F
100
AcDbEntity
  8
002
 62
     3
370
    30
100
AcDbLine
 10
866.000559
 20
220.645754
 30
0.0
 11
861.500559
 21
220.645754
 31
0.0
  0
LINE
  5
4C6
330
1F
100
AcDbEntity
  8
002
 62
     3
370
    30
100
AcDbLine
 10
861.500559
 20
220.645754
 30
0.0
 11
861.250559
 21
220.895754
 31
0.0
  0
LINE
  5
4C7
330
1F
100
AcDbEntity
  8
002
 62
     3
370
    30
100
AcDbLine
 10
861.250559
 20
220.895754
 30
0.0
 11
861.250559
 21
225.395754
 31
0.0
  0
LINE
  5
4C8
330
1F
100
AcDbEntity
  8
002
 62
     3
370
    30
100
AcDbLine
 10
861.250559
 20
225.395754
 30
0.0
 11
861.500559
 21
225.645754
 31
0.0
  0
LINE
  5
4C9
330
1F
100
AcDbEntity
  8
002
 62
     3
370
    30
100
AcDbLine
 10
861.500559
 20
225.645754
 30
0.0
 11
866.000559
 21
225.645754
 31
0.0
  0
LINE
  5
4CA
330
1F
100
AcDbEntity
  8
002
 62
     3
370
    30
100
AcDbLine
 10
866.000559
 20
225.645754
 30
0.0
 11
866.250559
 21
225.395754
 31
0.0
  0
LINE
  5
4CB
330
1F
100
AcDbEntity
  8
002
 62
     3
370
    30
100
AcDbLine
 10
866.250559
 20
225.395754
 30
0.0
 11
866.250559
 21
220.895754
 31
0.0
  0
LINE
  5
4CC
330
1F
100
AcDbEntity
  8
002
 62
     3
370
    30
100
AcDbLine
 10
866.250559
 20
220.895754
 30
0.0
 11
866.000559
 21
220.645754
 31
0.0
  0
ARC
  5
4CD
330
1F
100
AcDbEntity
  8
002
 62
     3
370
    30
100
AcDbCircle
 10
863.750559
 20
216.145754
 30
0.0
 40
7.499936066394084
100
AcDbArc
 50
109.471393
 51
70.528607
  0
ARC
  5
4CE
330
1F
100
AcDbEntity
  8
002
 62
     3
370
    30
100
AcDbCircle
 10
861.450559
 20
220.845754
 30
0.0
 40
0.2000000000000455
100
AcDbArc
 50
180.0
 51
270.0
  0
ARC
  5
4CF
330
1F
100
AcDbEntity
  8
002
 62
     3
370
    30
100
AcDbCircle
 10
863.750559
 20
216.145754
 30
0.0
 40
8.499963294038306
100
AcDbArc
 50
107.104711
 51
72.895289
  0
LINE
  5
4D0
330
1F
100
AcDbEntity
  8
002
 62
     3
370
    30
100
AcDbLine
 10
863.654559
 20
239.648754
 30
0.0
 11
877.055559
 21
238.793454
 31
0.0
  0
ARC
  5
4D1
330
1F
100
AcDbEntity
  8
002
 62
     3
370
    30
100
AcDbCircle
 10
876.418559
 20
228.813754
 30
0.0
 40
9.999310476227894
100
AcDbArc
 50
3.652466
 51
86.347789
  0
ARC
  5
4D2
330
1F
100
AcDbEntity
  8
002
 62
     3
370
    30
100
AcDbCircle
 10
879.714559
 20
232.110454
 30
0.0
 40
8.000246756194384
100
AcDbArc
 50
3.652101
 51
86.344903
  0
LINE
  5
4D3
330
1F
100
AcDbEntity
  8
002
 62
     3
370
    30
100
AcDbLine
 10
880.224559
 20
240.094154
 30
0.0
 11
870.816559
 21
240.593554
 31
0.0
  0
ARC
  5
4D4
330
1F
100
AcDbEntity
  8
002
 62
     3
370
    30
100
AcDbCircle
 10
870.975559
 20
243.589354
 30
0.0
 40
2.999657395436943
100
AcDbArc
 50
194.959101
 51
266.961917
  0
ARC
  5
4D5
330
1F
100
AcDbEntity
  8
002
 62
     3
370
    30
100
AcDbCircle
 10
864.975559
 20
243.469654
 30
0.0
 40
2.999959906398807
100
AcDbArc
 50
275.489765
 51
347.985819
  0
LINE
  5
4D6
330
1F
100
AcDbEntity
  8
002
 62
     3
370
    30
100
AcDbLine
 10
869.250559
 20
244.281954
 30
0.0
 11
869.250559
 21
256.145754
 31
0.0
  0
LINE
  5
4D7
330
1F
100
AcDbEntity
  8
002
 62
     3
370
    30
100
AcDbLine
 10
869.250559
 20
256.145754
 30
0.0
 11
794.250559
 21
256.145754
 31
0.0
  0
LINE
  5
4D8
330
1F
100
AcDbEntity
  8
002
 62
     3
370
    30
100
AcDbLine
 10
802.001559
 20
256.145754
 30
0.0
 11
802.001559
 21
262.145754
 31
0.0
  0
LINE
  5
4D9
330
1F
100
AcDbEntity
  8
002
 62
     3
370
    30
100
AcDbLine
 10
812.001559
 20
262.145754
 30
0.0
 11
802.001559
 21
262.145754
 31
0.0
  0
LINE
  5
4DA
330
1F
100
AcDbEntity
  8
002
 62
     3
370
    30
100
AcDbLine
 10
802.750559
 20
326.145754
 30
0.0
 11
860.750559
 21
326.145754
 31
0.0
  0
LINE
  5
4DB
330
1F
100
AcDbEntity
  8
002
 62
     3
370
    30
100
AcDbLine
 10
861.498559
 20
262.145754
 30
0.0
 11
851.498559
 21
262.145754
 31
0.0
  0
LINE
  5
4DC
330
1F
100
AcDbEntity
  8
002
 62
     3
370
    30
100
AcDbLine
 10
861.498559
 20
262.145754
 30
0.0
 11
861.498559
 21
256.145754
 31
0.0
  0
LINE
  5
4DD
330
1F
100
AcDbEntity
  8
002
 62
     3
370
    30
100
AcDbLine
 10
851.498559
 20
256.145754
 30
0.0
 11
851.498559
 21
262.145754
 31
0.0
  0
LINE
  5
4DE
330
1F
100
AcDbEntity
  8
002
 62
     3
370
    30
100
AcDbLine
 10
875.250559
 20
257.145754
 30
0.0
 11
880.250559
 21
257.145754
 31
0.0
  0
LINE
  5
4DF
330
1F
100
AcDbEntity
  8
002
 62
     3
370
    30
100
AcDbLine
 10
880.250559
 20
257.145754
 30
0.0
 11
881.000559
 21
254.145754
 31
0.0
  0
LINE
  5
4E0
330
1F
100
AcDbEntity
  8
002
 62
     3
370
    30
100
AcDbLine
 10
881.000559
 20
254.145754
 30
0.0
 11
880.469559
 21
253.296354
 31
0.0
  0
LINE
  5
4E1
330
1F
100
AcDbEntity
  8
002
 62
     3
370
    30
100
AcDbLine
 10
880.047559
 20
252.621754
 30
0.0
 11
875.452559
 21
252.621754
 31
0.0
  0
LINE
  5
4E2
330
1F
100
AcDbEntity
  8
002
 62
     3
370
    30
100
AcDbLine
 10
875.031559
 20
253.296354
 30
0.0
 11
874.500559
 21
254.145754
 31
0.0
  0
LINE
  5
4E3
330
1F
100
AcDbEntity
  8
002
 62
     3
370
    30
100
AcDbLine
 10
874.500559
 20
254.145754
 30
0.0
 11
875.250559
 21
257.145754
 31
0.0
  0
ARC
  5
4E4
330
1F
100
AcDbEntity
  8
002
 62
     3
370
    30
100
AcDbCircle
 10
877.750559
 20
256.484254
 30
0.0
 40
1.000041124154433
100
AcDbArc
 50
41.412294
 51
138.587706
  0
LINE
  5
4E5
330
1F
100
AcDbEntity
  8
002
 62
     3
370
    30
100
AcDbLine
 10
880.250559
 20
254.145754
 30
0.0
 11
875.250559
 21
254.145754
 31
0.0
  0
ARC
  5
4E6
330
1F
100
AcDbEntity
  8
002
 62
     3
370
    30
100
AcDbCircle
 10
874.183559
 20
252.766354
 30
0.0
 40
0.9999197017759904
100
AcDbArc
 50
314.995948
 51
32.005383
  0
LINE
  5
4E7
330
1F
100
AcDbEntity
  8
002
 62
     3
370
    30
100
AcDbLine
 10
874.890559
 20
252.059254
 30
0.0
 11
872.750559
 21
249.145754
 31
0.0
  0
ARC
  5
4E8
330
1F
100
AcDbEntity
  8
002
 62
     3
370
    30
100
AcDbCircle
 10
875.250559
 20
246.520754
 30
0.0
 40
3.625
100
AcDbArc
 50
46.397181
 51
133.602819
  0
LINE
  5
4E9
330
1F
100
AcDbEntity
  8
002
 62
     3
370
    30
100
AcDbLine
 10
877.750559
 20
249.145754
 30
0.0
 11
877.750559
 21
246.145754
 31
0.0
  0
ARC
  5
4EA
330
1F
100
AcDbEntity
  8
002
 62
     3
370
    30
100
AcDbCircle
 10
875.250559
 20
248.770754
 30
0.0
 40
3.625
100
AcDbArc
 50
226.397181
 51
313.602819
  0
LINE
  5
4EB
330
1F
100
AcDbEntity
  8
002
 62
     3
370
    30
100
AcDbLine
 10
872.750559
 20
246.145754
 30
0.0
 11
873.750559
 21
245.145754
 31
0.0
  0
LINE
  5
4EC
330
1F
100
AcDbEntity
  8
002
 62
     3
370
    30
100
AcDbLine
 10
873.750559
 20
245.145754
 30
0.0
 11
881.750559
 21
245.145754
 31
0.0
  0
LINE
  5
4ED
330
1F
100
AcDbEntity
  8
002
 62
     3
370
    30
100
AcDbLine
 10
881.750559
 20
245.145754
 30
0.0
 11
882.750559
 21
246.145754
 31
0.0
  0
LINE
  5
4EE
330
1F
100
AcDbEntity
  8
002
 62
     3
370
    30
100
AcDbLine
 10
882.750559
 20
246.145754
 30
0.0
 11
882.750559
 21
249.145754
 31
0.0
  0
LINE
  5
4EF
330
1F
100
AcDbEntity
  8
002
 62
     3
370
    30
100
AcDbLine
 10
882.750559
 20
249.145754
 30
0.0
 11
880.610559
 21
252.059254
 31
0.0
  0
ARC
  5
4F0
330
1F
100
AcDbEntity
  8
002
 62
     3
370
    30
100
AcDbCircle
 10
881.317559
 20
252.766354
 30
0.0
 40
1.000001999997949
100
AcDbArc
 50
147.994617
 51
225.004052
  0
ARC
  5
4F1
330
1F
100
AcDbEntity
  8
002
 62
     3
370
    30
100
AcDbCircle
 10
880.250559
 20
246.520754
 30
0.0
 40
3.625
100
AcDbArc
 50
46.397181
 51
133.602819
  0
ARC
  5
4F2
330
1F
100
AcDbEntity
  8
002
 62
     3
370
    30
100
AcDbCircle
 10
880.250559
 20
248.770754
 30
0.0
 40
3.625
100
AcDbArc
 50
226.397181
 51
313.602819
  0
LINE
  5
4F3
330
1F
100
AcDbEntity
  8
002
 62
     3
370
    30
100
AcDbLine
 10
873.888559
 20
245.145754
 30
0.0
 11
873.888559
 21
244.145754
 31
0.0
  0
LINE
  5
4F4
330
1F
100
AcDbEntity
  8
002
 62
     3
370
    30
100
AcDbLine
 10
872.750559
 20
246.145754
 30
0.0
 11
872.750559
 21
249.145754
 31
0.0
  0
LINE
  5
4F5
330
1F
100
AcDbEntity
  8
002
 62
     3
370
    30
100
AcDbLine
 10
881.611559
 20
245.145754
 30
0.0
 11
881.611559
 21
244.145754
 31
0.0
  0
ARC
  5
4F6
330
1F
100
AcDbEntity
  8
002
 62
     3
370
    30
100
AcDbCircle
 10
851.082559
 20
228.813754
 30
0.0
 40
10.00000905449599
100
AcDbArc
 50
93.652211
 51
176.347899
  0
CIRCLE
  5
4F7
330
1F
100
AcDbEntity
  8
002
 62
     3
370
    30
100
AcDbCircle
 10
863.750559
 20
216.145754
 30
0.0
 40
17.5
  0
ARC
  5
4F8
330
1F
100
AcDbEntity
  8
002
 62
     3
370
    30
100
AcDbCircle
 10
835.982559
 20
194.145754
 30
0.0
 40
5.0
100
AcDbArc
 50
270.0
 51
3.652101
  0
LINE
  5
4F9
330
1F
100
AcDbEntity
  8
002
 62
     3
370
    30
100
AcDbLine
 10
806.750559
 20
187.145754
 30
0.0
 11
806.750559
 21
176.145754
 31
0.0
  0
ARC
  5
4FA
330
1F
100
AcDbEntity
  8
002
 62
     3
370
    30
100
AcDbCircle
 10
807.001559
 20
233.145754
 30
0.0
 40
6.555838012031811
100
AcDbArc
 50
242.875244
 51
280.689287
  0
LINE
  5
4FB
330
1F
100
AcDbEntity
  8
002
 62
     3
370
    30
100
AcDbLine
 10
812.001559
 20
256.145754
 30
0.0
 11
812.001559
 21
262.145754
 31
0.0
  0
LINE
  5
4FC
330
1F
100
AcDbEntity
  8
002
 62
     3
370
    30
100
AcDbLine
 10
828.863559
 20
301.645754
 30
0.0
 11
825.976559
 21
306.645754
 31
0.0
  0
LINE
  5
4FD
330
1F
100
AcDbEntity
  8
002
 62
     3
370
    30
100
AcDbLine
 10
825.976559
 20
306.645754
 30
0.0
 11
828.863559
 21
311.645754
 31
0.0
  0
LINE
  5
4FE
330
1F
100
AcDbEntity
  8
002
 62
     3
370
    30
100
AcDbLine
 10
828.863559
 20
311.645754
 30
0.0
 11
834.636559
 21
311.645754
 31
0.0
  0
LINE
  5
4FF
330
1F
100
AcDbEntity
  8
002
 62
     3
370
    30
100
AcDbLine
 10
834.636559
 20
311.645754
 30
0.0
 11
837.523559
 21
306.645754
 31
0.0
  0
LINE
  5
500
330
1F
100
AcDbEntity
  8
002
 62
     3
370
    30
100
AcDbLine
 10
837.523559
 20
306.645754
 30
0.0
 11
834.636559
 21
301.645754
 31
0.0
  0
LINE
  5
501
330
1F
100
AcDbEntity
  8
002
 62
     3
370
    30
100
AcDbLine
 10
834.636559
 20
301.645754
 30
0.0
 11
828.863559
 21
301.645754
 31
0.0
  0
CIRCLE
  5
502
330
1F
100
AcDbEntity
  8
002
 62
     3
370
    30
100
AcDbCircle
 10
831.750559
 20
306.645754
 30
0.0
 40
3.25
  0
CIRCLE
  5
503
330
1F
100
AcDbEntity
  8
002
 62
     3
370
    30
100
AcDbCircle
 10
831.750559
 20
306.645754
 30
0.0
 40
2.5
  0
CIRCLE
  5
504
330
1F
100
AcDbEntity
  8
002
 62
     3
370
    30
100
AcDbCircle
 10
831.750559
 20
306.645754
 30
0.0
 40
0.75
  0
CIRCLE
  5
505
330
1F
100
AcDbEntity
  8
002
 62
     3
370
    30
100
AcDbCircle
 10
831.750559
 20
306.645754
 30
0.0
 40
5.0
  0
LINE
  5
506
330
1F
100
AcDbEntity
  8
002
 62
     3
370
    30
100
AcDbLine
 10
827.500559
 20
330.145754
 30
0.0
 11
827.500559
 21
335.145754
 31
0.0
  0
LINE
  5
507
330
1F
100
AcDbEntity
  8
002
 62
     3
370
    30
100
AcDbLine
 10
836.000559
 20
335.145754
 30
0.0
 11
836.000559
 21
330.145754
 31
0.0
  0
LINE
  5
508
330
1F
100
AcDbEntity
  8
002
 62
     3
370
    30
100
AcDbLine
 10
836.000559
 20
335.145754
 30
0.0
 11
827.500559
 21
335.145754
 31
0.0
  0
LINE
  5
509
330
1F
100
AcDbEntity
  8
002
 62
     3
370
    30
100
AcDbLine
 10
811.22632
 20
335.145754
 30
0.0
 11
805.000559
 21
335.145754
 31
0.0
  0
LINE
  5
50A
330
1F
100
AcDbEntity
  8
002
 62
     3
370
    30
100
AcDbLine
 10
805.000559
 20
335.145754
 30
0.0
 11
805.000559
 21
330.145754
 31
0.0
  0
LINE
  5
50B
330
1F
100
AcDbEntity
  8
002
 62
     3
370
    30
100
AcDbLine
 10
804.250559
 20
330.145754
 30
0.0
 11
804.250559
 21
326.145754
 31
0.0
  0
LINE
  5
50C
330
1F
100
AcDbEntity
  8
002
 62
     3
370
    30
100
AcDbLine
 10
804.250559
 20
330.145754
 30
0.0
 11
859.250559
 21
330.145754
 31
0.0
  0
LINE
  5
50D
330
1F
100
AcDbEntity
  8
002
 62
     3
370
    30
100
AcDbLine
 10
859.250559
 20
330.145754
 30
0.0
 11
859.250559
 21
326.145754
 31
0.0
  0
LINE
  5
50E
330
1F
100
AcDbEntity
  8
002
 62
     3
370
    30
100
AcDbLine
 10
858.500559
 20
330.145754
 30
0.0
 11
858.500559
 21
335.145754
 31
0.0
  0
LINE
  5
50F
330
1F
100
AcDbEntity
  8
002
 62
     3
370
    30
100
AcDbLine
 10
852.273559
 20
335.145754
 30
0.0
 11
858.500559
 21
335.145754
 31
0.0
  0
ARC
  5
510
330
1F
100
AcDbEntity
  8
002
 62
     3
370
    30
100
AcDbCircle
 10
855.303559
 20
333.145754
 30
0.0
 40
3.000318264784589
100
AcDbArc
 50
180.834549
 51
270.0
  0
LINE
  5
511
330
1F
100
AcDbEntity
  8
002
 62
     3
370
    30
100
AcDbLine
 10
852.303559
 20
333.102054
 30
0.0
 11
851.750559
 21
371.145754
 31
0.0
  0
LINE
  5
512
330
1F
100
AcDbEntity
  8
002
 62
     3
370
    30
100
AcDbLine
 10
851.750559
 20
371.145754
 30
0.0
 11
811.750559
 21
371.145754
 31
0.0
  0
LINE
  5
513
330
1F
100
AcDbEntity
  8
002
 62
     3
370
    30
100
AcDbLine
 10
811.750559
 20
371.145754
 30
0.0
 11
811.196559
 21
333.102054
 31
0.0
  0
ARC
  5
514
330
1F
100
AcDbEntity
  8
002
 62
     3
370
    30
100
AcDbCircle
 10
808.197559
 20
333.145754
 30
0.0
 40
3.0
100
AcDbArc
 50
270.0
 51
359.165172
  0
LINE
  5
515
330
1F
100
AcDbEntity
  8
002
  6
DASHED
 62
    40
370
     9
100
AcDbLine
 10
843.750559
 20
186.145754
 30
0.0
 11
843.750559
 21
186.609854
 31
0.0
  0
LINE
  5
516
330
1F
100
AcDbEntity
  8
002
  6
DASHED
 62
    40
370
     9
100
AcDbLine
 10
819.750559
 20
186.145754
 30
0.0
 11
819.750559
 21
186.609854
 31
0.0
  0
LINE
  5
517
330
1F
100
AcDbEntity
  8
002
  6
CENTER
 62
    40
370
     9
100
AcDbLine
 10
786.634559
 20
216.145754
 30
0.0
 11
898.682559
 21
216.145754
 31
0.0
  0
LINE
  5
518
330
1F
100
AcDbEntity
  8
002
  6
CENTER
 62
    40
370
     9
100
AcDbLine
 10
807.001559
 20
266.645754
 30
0.0
 11
807.001559
 21
240.312054
 31
0.0
  0
LINE
  5
519
330
1F
100
AcDbEntity
  8
002
  6
CENTER
 62
    40
370
     9
100
AcDbLine
 10
856.498559
 20
240.312054
 30
0.0
 11
856.498559
 21
266.645754
 31
0.0
  0
LINE
  5
51A
330
1F
100
AcDbEntity
  8
002
  6
CENTER
 62
    40
370
     9
100
AcDbLine
 10
840.150559
 20
306.645754
 30
0.0
 11
822.977559
 21
306.645754
 31
0.0
  0
LINE
  5
51B
330
1F
100
AcDbEntity
  8
002
  6
CENTER
 62
    40
370
     9
100
AcDbLine
 10
854.250559
 20
336.645754
 30
0.0
 11
854.250559
 21
324.145754
 31
0.0
  0
LINE
  5
51C
330
1F
100
AcDbEntity
  8
002
  6
CENTER
 62
    40
370
     9
100
AcDbLine
 10
809.250559
 20
324.145754
 30
0.0
 11
809.250559
 21
336.645754
 31
0.0
  0
LINE
  5
51D
330
1F
100
AcDbEntity
  8
002
  6
CENTER
 62
    40
370
     9
100
AcDbLine
 10
877.750559
 20
241.404054
 30
0.0
 11
877.750559
 21
259.749754
 31
0.0
  0
LINE
  5
51E
330
1F
100
AcDbEntity
  8
002
  6
HIDDEN
 62
    40
370
     9
100
AcDbLine
 10
825.116559
 20
186.145754
 30
0.0
 11
819.750559
 21
186.145754
 31
0.0
  0
LINE
  5
51F
330
1F
100
AcDbEntity
  8
002
  6
HIDDEN
 62
    40
370
     9
100
AcDbLine
 10
826.250559
 20
176.145754
 30
0.0
 11
826.250559
 21
186.145754
 31
0.0
  0
LINE
  5
520
330
1F
100
AcDbEntity
  8
002
  6
HIDDEN
 62
    40
370
     9
100
AcDbLine
 10
837.250559
 20
186.145754
 30
0.0
 11
837.250559
 21
176.145754
 31
0.0
  0
LINE
  5
521
330
1F
100
AcDbEntity
  8
002
  6
HIDDEN
 62
    40
370
     9
100
AcDbLine
 10
838.383559
 20
186.145754
 30
0.0
 11
843.750559
 21
186.145754
 31
0.0
  0
LINE
  5
522
330
1F
100
AcDbEntity
  8
002
  6
CENTER
 62
    40
370
     9
100
AcDbLine
 10
863.750559
 20
265.706254
 30
0.0
 11
863.750559
 21
169.102554
 31
0.0
  0
LINE
  5
523
330
1F
100
AcDbEntity
  8
002
 62
     3
370
    30
100
AcDbLine
 10
813.750559
 20
417.86133
 30
0.0
 11
849.750559
 21
417.86133
 31
0.0
  0
LINE
  5
524
330
1F
100
AcDbEntity
  8
002
 62
     3
370
    30
100
AcDbLine
 10
846.750559
 20
437.86133
 30
0.0
 11
816.750559
 21
437.86133
 31
0.0
  0
LINE
  5
525
330
1F
100
AcDbEntity
  8
002
 62
     3
370
    30
100
AcDbLine
 10
813.750559
 20
434.86133
 30
0.0
 11
813.750559
 21
417.86133
 31
0.0
  0
ARC
  5
526
330
1F
100
AcDbEntity
  8
002
 62
     3
370
    30
100
AcDbCircle
 10
816.750559
 20
434.86133
 30
0.0
 40
3.0
100
AcDbArc
 50
90.0
 51
180.0
  0
LINE
  5
527
330
1F
100
AcDbEntity
  8
002
 62
     3
370
    30
100
AcDbLine
 10
849.750559
 20
417.86133
 30
0.0
 11
849.750559
 21
434.86133
 31
0.0
  0
ARC
  5
528
330
1F
100
AcDbEntity
  8
002
 62
     3
370
    30
100
AcDbCircle
 10
846.750559
 20
434.86133
 30
0.0
 40
3.0
100
AcDbArc
 50
0.0
 51
90.0
  0
LINE
  5
529
330
1F
100
AcDbEntity
  8
002
 62
     3
370
    30
100
AcDbLine
 10
679.702559
 20
95.845754
 30
0.0
 11
699.702559
 21
95.845754
 31
0.0
  0
LINE
  5
52A
330
1F
100
AcDbEntity
  8
002
 62
     3
370
    30
100
AcDbLine
 10
804.250559
 20
176.145754
 30
0.0
 11
804.250559
 21
173.145754
 31
0.0
  0
LINE
  5
52B
330
1F
100
AcDbEntity
  8
002
 62
     3
370
    30
100
AcDbLine
 10
804.250559
 20
173.145754
 30
0.0
 11
859.250559
 21
173.145754
 31
0.0
  0
LINE
  5
52C
330
1F
100
AcDbEntity
  8
002
 62
     3
370
    30
100
AcDbLine
 10
859.250559
 20
173.145754
 30
0.0
 11
859.250559
 21
176.145754
 31
0.0
  0
LINE
  5
52D
330
1F
100
AcDbEntity
  8
002
 62
     3
370
    30
100
AcDbLine
 10
843.410559
 20
168.145754
 30
0.0
 11
843.410559
 21
173.145754
 31
0.0
  0
LINE
  5
52E
330
1F
100
AcDbEntity
  8
002
 62
     3
370
    30
100
AcDbLine
 10
820.090559
 20
173.145754
 30
0.0
 11
820.090559
 21
168.145754
 31
0.0
  0
LINE
  5
52F
330
1F
100
AcDbEntity
  8
002
 62
     3
370
    30
100
AcDbLine
 10
811.590559
 20
168.145754
 30
0.0
 11
811.590559
 21
173.145754
 31
0.0
  0
LINE
  5
530
330
1F
100
AcDbEntity
  8
002
 62
     3
370
    30
100
AcDbLine
 10
811.590559
 20
168.145754
 30
0.0
 11
820.090559
 21
168.145754
 31
0.0
  0
LINE
  5
531
330
1F
100
AcDbEntity
  8
002
 62
     3
370
    30
100
AcDbLine
 10
815.450559
 20
168.145754
 30
0.0
 11
815.450559
 21
159.145754
 31
0.0
  0
LINE
  5
532
330
1F
100
AcDbEntity
  8
002
 62
     3
370
    30
100
AcDbLine
 10
815.450559
 20
159.145754
 30
0.0
 11
856.050559
 21
159.145754
 31
0.0
  0
LINE
  5
533
330
1F
100
AcDbEntity
  8
002
 62
     3
370
    30
100
AcDbLine
 10
851.910559
 20
168.145754
 30
0.0
 11
843.410559
 21
168.145754
 31
0.0
  0
LINE
  5
534
330
1F
100
AcDbEntity
  8
002
 62
     3
370
    30
100
AcDbLine
 10
848.050559
 20
168.145754
 30
0.0
 11
848.050559
 21
159.145754
 31
0.0
  0
LINE
  5
535
330
1F
100
AcDbEntity
  8
002
 62
     3
370
    30
100
AcDbLine
 10
847.450559
 20
159.145754
 30
0.0
 11
847.450559
 21
158.145754
 31
0.0
  0
LINE
  5
536
330
1F
100
AcDbEntity
  8
002
 62
     3
370
    30
100
AcDbLine
 10
847.450559
 20
158.145754
 30
0.0
 11
860.924559
 21
156.130554
 31
0.0
  0
LINE
  5
537
330
1F
100
AcDbEntity
  8
002
 62
     3
370
    30
100
AcDbLine
 10
860.750559
 20
155.145754
 30
0.0
 11
802.750559
 21
155.145754
 31
0.0
  0
LINE
  5
538
330
1F
100
AcDbEntity
  8
002
 62
     3
370
    30
100
AcDbLine
 10
802.577559
 20
156.130554
 30
0.0
 11
816.050559
 21
158.145754
 31
0.0
  0
LINE
  5
539
330
1F
100
AcDbEntity
  8
002
 62
     3
370
    30
100
AcDbLine
 10
816.050559
 20
158.145754
 30
0.0
 11
816.050559
 21
159.145754
 31
0.0
  0
LINE
  5
53A
330
1F
100
AcDbEntity
  8
002
 62
     3
370
    30
100
AcDbLine
 10
850.077559
 20
153.130554
 30
0.0
 11
860.924559
 21
154.160854
 31
0.0
  0
ARC
  5
53B
330
1F
100
AcDbEntity
  8
002
 62
     3
370
    30
100
AcDbCircle
 10
860.750559
 20
155.145754
 30
0.0
 40
1.000053518567884
100
AcDbArc
 50
280.018931
 51
79.980072
  0
LINE
  5
53C
330
1F
100
AcDbEntity
  8
002
 62
     3
370
    30
100
AcDbLine
 10
860.924559
 20
150.130554
 30
0.0
 11
850.077559
 21
151.160854
 31
0.0
  0
ARC
  5
53D
330
1F
100
AcDbEntity
  8
002
 62
     3
370
    30
100
AcDbCircle
 10
850.250559
 20
152.145754
 30
0.0
 40
0.99997850476896
100
AcDbArc
 50
99.963499
 51
260.037492
  0
LINE
  5
53E
330
1F
100
AcDbEntity
  8
002
 62
     3
370
    30
100
AcDbLine
 10
848.250559
 20
152.145754
 30
0.0
 11
815.250559
 21
152.145754
 31
0.0
  0
LINE
  5
53F
330
1F
100
AcDbEntity
  8
002
 62
     3
370
    30
100
AcDbLine
 10
813.424559
 20
153.130554
 30
0.0
 11
802.577559
 21
154.160854
 31
0.0
  0
ARC
  5
540
330
1F
100
AcDbEntity
  8
002
 62
     3
370
    30
100
AcDbCircle
 10
802.750559
 20
155.145754
 30
0.0
 40
0.99997850476896
100
AcDbArc
 50
99.963499
 51
260.037492
  0
ARC
  5
541
330
1F
100
AcDbEntity
  8
002
 62
     3
370
    30
100
AcDbCircle
 10
802.750559
 20
149.145754
 30
0.0
 40
0.99997850476896
100
AcDbArc
 50
99.963499
 51
260.037492
  0
LINE
  5
542
330
1F
100
AcDbEntity
  8
002
 62
     3
370
    30
100
AcDbLine
 10
802.577559
 20
148.160854
 30
0.0
 11
813.424559
 21
147.130554
 31
0.0
  0
ARC
  5
543
330
1F
100
AcDbEntity
  8
002
 62
     3
370
    30
100
AcDbCircle
 10
813.250559
 20
146.145754
 30
0.0
 40
1.000053518567884
100
AcDbArc
 50
0.0
 51
79.980072
  0
LINE
  5
544
330
1F
100
AcDbEntity
  8
002
 62
     3
370
    30
100
AcDbLine
 10
815.250559
 20
146.145754
 30
0.0
 11
848.250559
 21
146.145754
 31
0.0
  0
LINE
  5
545
330
1F
100
AcDbEntity
  8
002
 62
     3
370
    30
100
AcDbLine
 10
850.077559
 20
147.130554
 30
0.0
 11
860.924559
 21
148.160854
 31
0.0
  0
ARC
  5
546
330
1F
100
AcDbEntity
  8
002
 62
     3
370
    30
100
AcDbCircle
 10
860.750559
 20
149.145754
 30
0.0
 40
1.000053518567884
100
AcDbArc
 50
280.018931
 51
79.980072
  0
LINE
  5
547
330
1F
100
AcDbEntity
  8
002
 62
     3
370
    30
100
AcDbLine
 10
860.750559
 20
149.145754
 30
0.0
 11
802.750559
 21
149.145754
 31
0.0
  0
LINE
  5
548
330
1F
100
AcDbEntity
  8
002
 62
     3
370
    30
100
AcDbLine
 10
802.577559
 20
150.130554
 30
0.0
 11
813.424559
 21
151.160854
 31
0.0
  0
ARC
  5
549
330
1F
100
AcDbEntity
  8
002
 62
     3
370
    30
100
AcDbCircle
 10
813.250559
 20
152.145754
 30
0.0
 40
1.000053518567884
100
AcDbArc
 50
280.018931
 51
79.980072
  0
ARC
  5
54A
330
1F
100
AcDbEntity
  8
002
 62
     3
370
    30
100
AcDbCircle
 10
850.250559
 20
146.145754
 30
0.0
 40
1.0
100
AcDbArc
 50
99.963499
 51
180.0
  0
CIRCLE
  5
54B
330
1F
100
AcDbEntity
  8
002
 62
     3
370
    30
100
AcDbCircle
 10
853.050559
 20
165.645754
 30
0.0
 40
1.0
  0
LINE
  5
54C
330
1F
100
AcDbEntity
  8
002
  6
CENTER
 62
    40
370
     9
100
AcDbLine
 10
815.840559
 20
165.424154
 30
0.0
 11
815.840559
 21
179.145754
 31
0.0
  0
LINE
  5
54D
330
1F
100
AcDbEntity
  8
002
  6
CENTER
 62
    40
370
     9
100
AcDbLine
 10
847.660559
 20
165.424154
 30
0.0
 11
847.660559
 21
179.145754
 31
0.0
  0
LINE
  5
54E
330
1F
100
AcDbEntity
  8
002
  6
CENTER
 62
    40
370
     9
100
AcDbLine
 10
853.050559
 20
168.897954
 30
0.0
 11
853.050559
 21
162.137954
 31
0.0
  0
LINE
  5
54F
330
1F
100
AcDbEntity
  8
002
  6
CENTER
 62
    40
370
     9
100
AcDbLine
 10
855.418559
 20
165.645754
 30
0.0
 11
850.393559
 21
165.645754
 31
0.0
  0
LINE
  5
550
330
1F
100
AcDbEntity
  8
002
  6
PHANTOM
 62
    40
370
     9
100
AcDbLine
 10
801.750559
 20
120.845754
 30
0.0
 11
801.750559
 21
149.145754
 31
0.0
  0
LINE
  5
551
330
1F
100
AcDbEntity
  8
002
  6
PHANTOM
 62
    40
370
     9
100
AcDbLine
 10
814.250559
 20
146.145754
 30
0.0
 11
814.250559
 21
123.845754
 31
0.0
  0
LINE
  5
552
330
1F
100
AcDbEntity
  8
002
  6
PHANTOM
 62
    40
370
     9
100
AcDbLine
 10
849.250559
 20
123.845754
 30
0.0
 11
849.250559
 21
146.145754
 31
0.0
  0
LINE
  5
553
330
1F
100
AcDbEntity
  8
002
  6
PHANTOM
 62
    40
370
     9
100
AcDbLine
 10
861.750559
 20
149.145754
 30
0.0
 11
861.750559
 21
120.845754
 31
0.0
  0
LINE
  5
554
330
1F
100
AcDbEntity
  8
002
 62
     3
370
    30
100
AcDbLine
 10
815.250559
 20
123.845754
 30
0.0
 11
848.250559
 21
123.845754
 31
0.0
  0
ARC
  5
555
330
1F
100
AcDbEntity
  8
002
 62
     3
370
    30
100
AcDbCircle
 10
850.250559
 20
123.845754
 30
0.0
 40
0.99997850476896
100
AcDbArc
 50
180.0
 51
260.037492
  0
LINE
  5
556
330
1F
100
AcDbEntity
  8
002
 62
     3
370
    30
100
AcDbLine
 10
850.077559
 20
122.860854
 30
0.0
 11
860.924559
 21
121.830554
 31
0.0
  0
LINE
  5
557
330
1F
100
AcDbEntity
  8
002
 62
     3
370
    30
100
AcDbLine
 10
860.750559
 20
120.845754
 30
0.0
 11
802.750559
 21
120.845754
 31
0.0
  0
ARC
  5
558
330
1F
100
AcDbEntity
  8
002
 62
     3
370
    30
100
AcDbCircle
 10
802.750559
 20
120.845754
 30
0.0
 40
0.99997850476896
100
AcDbArc
 50
99.963499
 51
260.037492
  0
LINE
  5
559
330
1F
100
AcDbEntity
  8
002
 62
     3
370
    30
100
AcDbLine
 10
802.577559
 20
119.860854
 30
0.0
 11
813.424559
 21
118.830554
 31
0.0
  0
ARC
  5
55A
330
1F
100
AcDbEntity
  8
002
 62
     3
370
    30
100
AcDbCircle
 10
813.250559
 20
117.845754
 30
0.0
 40
1.000053518567884
100
AcDbArc
 50
280.018931
 51
79.980072
  0
LINE
  5
55B
330
1F
100
AcDbEntity
  8
002
 62
     3
370
    30
100
AcDbLine
 10
813.424559
 20
116.860854
 30
0.0
 11
802.577559
 21
115.830554
 31
0.0
  0
ARC
  5
55C
330
1F
100
AcDbEntity
  8
002
 62
     3
370
    30
100
AcDbCircle
 10
802.750559
 20
114.845754
 30
0.0
 40
0.99997850476896
100
AcDbArc
 50
99.963499
 51
260.037492
  0
LINE
  5
55D
330
1F
100
AcDbEntity
  8
002
 62
     3
370
    30
100
AcDbLine
 10
802.577559
 20
113.860854
 30
0.0
 11
821.050559
 21
111.845754
 31
0.0
  0
LINE
  5
55E
330
1F
100
AcDbEntity
  8
002
 62
     3
370
    30
100
AcDbLine
 10
842.450559
 20
111.845754
 30
0.0
 11
860.924559
 21
113.860854
 31
0.0
  0
ARC
  5
55F
330
1F
100
AcDbEntity
  8
002
 62
     3
370
    30
100
AcDbCircle
 10
860.750559
 20
114.845754
 30
0.0
 40
1.000053518567884
100
AcDbArc
 50
280.018931
 51
79.980072
  0
LINE
  5
560
330
1F
100
AcDbEntity
  8
002
 62
     3
370
    30
100
AcDbLine
 10
860.924559
 20
115.830554
 30
0.0
 11
850.077559
 21
116.860854
 31
0.0
  0
LINE
  5
561
330
1F
100
AcDbEntity
  8
002
 62
     3
370
    30
100
AcDbLine
 10
850.077559
 20
118.830554
 30
0.0
 11
860.924559
 21
119.860854
 31
0.0
  0
ARC
  5
562
330
1F
100
AcDbEntity
  8
002
 62
     3
370
    30
100
AcDbCircle
 10
860.750559
 20
120.845754
 30
0.0
 40
1.000053518567884
100
AcDbArc
 50
280.018931
 51
79.980072
  0
LINE
  5
563
330
1F
100
AcDbEntity
  8
002
 62
     3
370
    30
100
AcDbLine
 10
860.750559
 20
114.845754
 30
0.0
 11
802.750559
 21
114.845754
 31
0.0
  0
LINE
  5
564
330
1F
100
AcDbEntity
  8
002
 62
     3
370
    30
100
AcDbLine
 10
802.577559
 20
121.830554
 30
0.0
 11
813.424559
 21
122.860854
 31
0.0
  0
ARC
  5
565
330
1F
100
AcDbEntity
  8
002
 62
     3
370
    30
100
AcDbCircle
 10
813.250559
 20
123.845754
 30
0.0
 40
1.0
100
AcDbArc
 50
280.018931
 51
0.0
  0
LINE
  5
566
330
1F
100
AcDbEntity
  8
002
 62
     3
370
    30
100
AcDbLine
 10
815.250559
 20
117.845754
 30
0.0
 11
848.250559
 21
117.845754
 31
0.0
  0
ARC
  5
567
330
1F
100
AcDbEntity
  8
002
 62
     3
370
    30
100
AcDbCircle
 10
850.250559
 20
117.845754
 30
0.0
 40
0.99997850476896
100
AcDbArc
 50
99.963499
 51
260.037492
  0
LINE
  5
568
330
1F
100
AcDbEntity
  8
002
 62
     3
370
    30
100
AcDbLine
 10
851.050559
 20
110.845754
 30
0.0
 11
820.450559
 21
110.845754
 31
0.0
  0
CIRCLE
  5
569
330
1F
100
AcDbEntity
  8
002
 62
     3
370
    30
100
AcDbCircle
 10
848.050559
 20
104.345754
 30
0.0
 40
1.0
  0
LINE
  5
56A
330
1F
100
AcDbEntity
  8
002
 62
     3
370
    30
100
AcDbLine
 10
821.050559
 20
95.845754
 30
0.0
 11
842.450559
 21
95.845754
 31
0.0
  0
LINE
  5
56B
330
1F
100
AcDbEntity
  8
002
 62
     3
370
    30
100
AcDbLine
 10
837.600559
 20
95.845754
 30
0.0
 11
837.600559
 21
92.845754
 31
0.0
  0
LINE
  5
56C
330
1F
100
AcDbEntity
  8
002
 62
     3
370
    30
100
AcDbLine
 10
838.750559
 20
75.845754
 30
0.0
 11
838.750559
 21
92.845754
 31
0.0
  0
LINE
  5
56D
330
1F
100
AcDbEntity
  8
002
 62
     3
370
    30
100
AcDbLine
 10
824.750559
 20
75.845754
 30
0.0
 11
838.750559
 21
75.845754
 31
0.0
  0
LINE
  5
56E
330
1F
100
AcDbEntity
  8
002
 62
     3
370
    30
100
AcDbLine
 10
824.750559
 20
75.845754
 30
0.0
 11
824.750559
 21
92.845754
 31
0.0
  0
LINE
  5
56F
330
1F
100
AcDbEntity
  8
002
 62
     3
370
    30
100
AcDbLine
 10
824.750559
 20
92.845754
 30
0.0
 11
838.750559
 21
92.845754
 31
0.0
  0
LINE
  5
570
330
1F
100
AcDbEntity
  8
002
 62
     3
370
    30
100
AcDbLine
 10
825.900559
 20
92.845754
 30
0.0
 11
825.900559
 21
95.845754
 31
0.0
  0
LINE
  5
571
330
1F
100
AcDbEntity
  8
002
 62
     3
370
    30
100
AcDbLine
 10
821.050559
 20
110.845754
 30
0.0
 11
821.050559
 21
111.845754
 31
0.0
  0
LINE
  5
572
330
1F
100
AcDbEntity
  8
002
 62
     3
370
    30
100
AcDbLine
 10
842.450559
 20
111.845754
 30
0.0
 11
842.450559
 21
110.845754
 31
0.0
  0
LINE
  5
573
330
1F
100
AcDbEntity
  8
002
  6
CENTER
 62
    40
370
     9
100
AcDbLine
 10
848.050559
 20
107.597954
 30
0.0
 11
848.050559
 21
100.837954
 31
0.0
  0
LINE
  5
574
330
1F
100
AcDbEntity
  8
002
  6
CENTER
 62
    40
370
     9
100
AcDbLine
 10
850.418559
 20
104.345754
 30
0.0
 11
845.393559
 21
104.345754
 31
0.0
  0
LINE
  5
575
330
1F
100
AcDbEntity
  8
002
 62
    40
370
     9
100
AcDbLine
 10
837.700559
 20
92.845754
 30
0.0
 11
837.700559
 21
75.845754
 31
0.0
  0
LINE
  5
576
330
1F
100
AcDbEntity
  8
002
 62
    40
370
     9
100
AcDbLine
 10
825.800559
 20
75.845754
 30
0.0
 11
825.800559
 21
92.845754
 31
0.0
  0
LINE
  5
577
330
1F
100
AcDbEntity
  8
002
 62
     3
370
    30
100
AcDbLine
 10
820.450559
 20
110.845754
 30
0.0
 11
820.450559
 21
98.845754
 31
0.0
  0
LINE
  5
578
330
1F
100
AcDbEntity
  8
002
 62
     3
370
    30
100
AcDbLine
 10
843.050559
 20
110.845754
 30
0.0
 11
843.050559
 21
98.845754
 31
0.0
  0
LINE
  5
579
330
1F
100
AcDbEntity
  8
002
 62
     3
370
    30
100
AcDbLine
 10
842.450559
 20
95.845754
 30
0.0
 11
842.450559
 21
98.845754
 31
0.0
  0
LINE
  5
57A
330
1F
100
AcDbEntity
  8
002
 62
     3
370
    30
100
AcDbLine
 10
820.450559
 20
98.845754
 30
0.0
 11
851.050559
 21
98.845754
 31
0.0
  0
LINE
  5
57B
330
1F
100
AcDbEntity
  8
002
 62
     3
370
    30
100
AcDbLine
 10
821.050559
 20
95.845754
 30
0.0
 11
821.050559
 21
98.845754
 31
0.0
  0
ARC
  5
57C
330
1F
100
AcDbEntity
  8
002
 62
     3
370
    30
100
AcDbCircle
 10
851.050559
 20
100.845754
 30
0.0
 40
2.0
100
AcDbArc
 50
270.0
 51
0.0
  0
ARC
  5
57D
330
1F
100
AcDbEntity
  8
002
 62
     3
370
    30
100
AcDbCircle
 10
851.050559
 20
108.845754
 30
0.0
 40
2.0
100
AcDbArc
 50
0.0
 51
90.0
  0
LINE
  5
57E
330
1F
100
AcDbEntity
  8
002
 62
     3
370
    30
100
AcDbLine
 10
853.050559
 20
100.845754
 30
0.0
 11
853.050559
 21
108.845754
 31
0.0
  0
LINE
  5
57F
330
1F
100
AcDbEntity
  8
002
 62
     3
370
    30
100
AcDbLine
 10
843.410559
 20
171.145754
 30
0.0
 11
820.090559
 21
171.145754
 31
0.0
  0
LINE
  5
580
330
1F
100
AcDbEntity
  8
002
 62
     3
370
    30
100
AcDbLine
 10
851.910559
 20
173.145754
 30
0.0
 11
851.910559
 21
168.145754
 31
0.0
  0
LINE
  5
581
330
1F
100
AcDbEntity
  8
002
 62
     3
370
    30
100
AcDbLine
 10
856.050559
 20
171.145754
 30
0.0
 11
851.910559
 21
171.145754
 31
0.0
  0
ARC
  5
582
330
1F
100
AcDbEntity
  8
002
 62
     3
370
    30
100
AcDbCircle
 10
856.050559
 20
161.145754
 30
0.0
 40
2.0
100
AcDbArc
 50
270.0
 51
0.0
  0
ARC
  5
583
330
1F
100
AcDbEntity
  8
002
 62
     3
370
    30
100
AcDbCircle
 10
856.050559
 20
169.145754
 30
0.0
 40
2.0
100
AcDbArc
 50
0.0
 51
90.0
  0
LINE
  5
584
330
1F
100
AcDbEntity
  8
002
 62
     3
370
    30
100
AcDbLine
 10
858.050559
 20
161.145754
 30
0.0
 11
858.050559
 21
169.145754
 31
0.0
  0
POLYLINE
  5
585
330
1F
100
AcDbEntity
  8
002
 62
     3
370
     9
100
AcDb2dPolyline
 66
     1
 10
0.0
 20
0.0
 30
0.0
  0
VERTEX
  5
587
330
585
100
AcDbEntity
  8
002
 62
     3
370
     9
100
AcDbVertex
100
AcDb2dVertex
 10
71.912153
 20
97.645754
 30
0.0
  0
VERTEX
  5
588
330
585
100
AcDbEntity
  8
002
 62
     3
370
     9
100
AcDbVertex
100
AcDb2dVertex
 10
73.512153
 20
95.869754
 30
0.0
  0
VERTEX
  5
589
330
585
100
AcDbEntity
  8
002
 62
     3
370
     9
100
AcDbVertex
100
AcDb2dVertex
 10
75.112153
 20
94.237754
 30
0.0
  0
VERTEX
  5
58A
330
585
100
AcDbEntity
  8
002
 62
     3
370
     9
100
AcDbVertex
100
AcDb2dVertex
 10
76.712153
 20
92.893754
 30
0.0
  0
VERTEX
  5
58B
330
585
100
AcDbEntity
  8
002
 62
     3
370
     9
100
AcDbVertex
100
AcDb2dVertex
 10
78.312153
 20
91.981754
 30
0.0
  0
VERTEX
  5
58C
330
585
100
AcDbEntity
  8
002
 62
     3
370
     9
100
AcDbVertex
100
AcDb2dVertex
 10
79.912153
 20
91.645754
 30
0.0
  0
VERTEX
  5
58D
330
585
100
AcDbEntity
  8
002
 62
     3
370
     9
100
AcDbVertex
100
AcDb2dVertex
 10
81.512153
 20
91.981754
 30
0.0
  0
VERTEX
  5
58E
330
585
100
AcDbEntity
  8
002
 62
     3
370
     9
100
AcDbVertex
100
AcDb2dVertex
 10
83.112153
 20
92.893754
 30
0.0
  0
VERTEX
  5
58F
330
585
100
AcDbEntity
  8
002
 62
     3
370
     9
100
AcDbVertex
100
AcDb2dVertex
 10
84.712153
 20
94.237754
 30
0.0
  0
VERTEX
  5
590
330
585
100
AcDbEntity
  8
002
 62
     3
370
     9
100
AcDbVertex
100
AcDb2dVertex
 10
86.312153
 20
95.869754
 30
0.0
  0
VERTEX
  5
591
330
585
100
AcDbEntity
  8
002
 62
     3
370
     9
100
AcDbVertex
100
AcDb2dVertex
 10
87.912153
 20
97.645754
 30
0.0
  0
VERTEX
  5
592
330
585
100
AcDbEntity
  8
002
 62
     3
370
     9
100
AcDbVertex
100
AcDb2dVertex
 10
89.512153
 20
99.421754
 30
0.0
  0
VERTEX
  5
593
330
585
100
AcDbEntity
  8
002
 62
     3
370
     9
100
AcDbVertex
100
AcDb2dVertex
 10
91.112153
 20
101.053754
 30
0.0
  0
VERTEX
  5
594
330
585
100
AcDbEntity
  8
002
 62
     3
370
     9
100
AcDbVertex
100
AcDb2dVertex
 10
92.712153
 20
102.397754
 30
0.0
  0
VERTEX
  5
595
330
585
100
AcDbEntity
  8
002
 62
     3
370
     9
100
AcDbVertex
100
AcDb2dVertex
 10
94.312153
 20
103.309754
 30
0.0
  0
VERTEX
  5
596
330
585
100
AcDbEntity
  8
002
 62
     3
370
     9
100
AcDbVertex
100
AcDb2dVertex
 10
95.912153
 20
103.645754
 30
0.0
  0
VERTEX
  5
597
330
585
100
AcDbEntity
  8
002
 62
     3
370
     9
100
AcDbVertex
100
AcDb2dVertex
 10
97.512153
 20
103.309754
 30
0.0
  0
VERTEX
  5
598
330
585
100
AcDbEntity
  8
002
 62
     3
370
     9
100
AcDbVertex
100
AcDb2dVertex
 10
99.112153
 20
102.397754
 30
0.0
  0
VERTEX
  5
599
330
585
100
AcDbEntity
  8
002
 62
     3
370
     9
100
AcDbVertex
100
AcDb2dVertex
 10
100.712153
 20
101.053754
 30
0.0
  0
VERTEX
  5
59A
330
585
100
AcDbEntity
  8
002
 62
     3
370
     9
100
AcDbVertex
100
AcDb2dVertex
 10
102.312153
 20
99.421754
 30
0.0
  0
VERTEX
  5
59B
330
585
100
AcDbEntity
  8
002
 62
     3
370
     9
100
AcDbVertex
100
AcDb2dVertex
 10
103.912153
 20
97.645754
 30
0.0
  0
SEQEND
  5
586
330
585
100
AcDbEntity
  8
002
370
     9
  0
POLYLINE
  5
59C
330
1F
100
AcDbEntity
  8
002
 62
     3
370
     9
100
AcDb2dPolyline
 66
     1
 10
0.0
 20
0.0
 30
0.0
  0
VERTEX
  5
59E
330
59C
100
AcDbEntity
  8
002
 62
     3
370
     9
100
AcDbVertex
100
AcDb2dVertex
 10
71.912153
 20
109.645754
 30
0.0
  0
VERTEX
  5
59F
330
59C
100
AcDbEntity
  8
002
 62
     3
370
     9
100
AcDbVertex
100
AcDb2dVertex
 10
73.512153
 20
107.869754
 30
0.0
  0
VERTEX
  5
5A0
330
59C
100
AcDbEntity
  8
002
 62
     3
370
     9
100
AcDbVertex
100
AcDb2dVertex
 10
75.112153
 20
106.237754
 30
0.0
  0
VERTEX
  5
5A1
330
59C
100
AcDbEntity
  8
002
 62
     3
370
     9
100
AcDbVertex
100
AcDb2dVertex
 10
76.712153
 20
104.893754
 30
0.0
  0
VERTEX
  5
5A2
330
59C
100
AcDbEntity
  8
002
 62
     3
370
     9
100
AcDbVertex
100
AcDb2dVertex
 10
78.312153
 20
103.981754
 30
0.0
  0
VERTEX
  5
5A3
330
59C
100
AcDbEntity
  8
002
 62
     3
370
     9
100
AcDbVertex
100
AcDb2dVertex
 10
79.912153
 20
103.645754
 30
0.0
  0
VERTEX
  5
5A4
330
59C
100
AcDbEntity
  8
002
 62
     3
370
     9
100
AcDbVertex
100
AcDb2dVertex
 10
81.512153
 20
103.981754
 30
0.0
  0
VERTEX
  5
5A5
330
59C
100
AcDbEntity
  8
002
 62
     3
370
     9
100
AcDbVertex
100
AcDb2dVertex
 10
83.112153
 20
104.893754
 30
0.0
  0
VERTEX
  5
5A6
330
59C
100
AcDbEntity
  8
002
 62
     3
370
     9
100
AcDbVertex
100
AcDb2dVertex
 10
84.712153
 20
106.237754
 30
0.0
  0
VERTEX
  5
5A7
330
59C
100
AcDbEntity
  8
002
 62
     3
370
     9
100
AcDbVertex
100
AcDb2dVertex
 10
86.312153
 20
107.869754
 30
0.0
  0
VERTEX
  5
5A8
330
59C
100
AcDbEntity
  8
002
 62
     3
370
     9
100
AcDbVertex
100
AcDb2dVertex
 10
87.912153
 20
109.645754
 30
0.0
  0
VERTEX
  5
5A9
330
59C
100
AcDbEntity
  8
002
 62
     3
370
     9
100
AcDbVertex
100
AcDb2dVertex
 10
89.512153
 20
111.421754
 30
0.0
  0
VERTEX
  5
5AA
330
59C
100
AcDbEntity
  8
002
 62
     3
370
     9
100
AcDbVertex
100
AcDb2dVertex
 10
91.112153
 20
113.053754
 30
0.0
  0
VERTEX
  5
5AB
330
59C
100
AcDbEntity
  8
002
 62
     3
370
     9
100
AcDbVertex
100
AcDb2dVertex
 10
92.712153
 20
114.397754
 30
0.0
  0
VERTEX
  5
5AC
330
59C
100
AcDbEntity
  8
002
 62
     3
370
     9
100
AcDbVertex
100
AcDb2dVertex
 10
94.312153
 20
115.309754
 30
0.0
  0
VERTEX
  5
5AD
330
59C
100
AcDbEntity
  8
002
 62
     3
370
     9
100
AcDbVertex
100
AcDb2dVertex
 10
95.912153
 20
115.645754
 30
0.0
  0
VERTEX
  5
5AE
330
59C
100
AcDbEntity
  8
002
 62
     3
370
     9
100
AcDbVertex
100
AcDb2dVertex
 10
97.512153
 20
115.309754
 30
0.0
  0
VERTEX
  5
5AF
330
59C
100
AcDbEntity
  8
002
 62
     3
370
     9
100
AcDbVertex
100
AcDb2dVertex
 10
99.112153
 20
114.397754
 30
0.0
  0
VERTEX
  5
5B0
330
59C
100
AcDbEntity
  8
002
 62
     3
370
     9
100
AcDbVertex
100
AcDb2dVertex
 10
100.712153
 20
113.053754
 30
0.0
  0
VERTEX
  5
5B1
330
59C
100
AcDbEntity
  8
002
 62
     3
370
     9
100
AcDbVertex
100
AcDb2dVertex
 10
102.312153
 20
111.421754
 30
0.0
  0
VERTEX
  5
5B2
330
59C
100
AcDbEntity
  8
002
 62
     3
370
     9
100
AcDbVertex
100
AcDb2dVertex
 10
103.912153
 20
109.645754
 30
0.0
  0
SEQEND
  5
59D
330
59C
100
AcDbEntity
  8
002
370
     9
  0
LINE
  5
5B3
330
1F
100
AcDbEntity
  8
002
 62
     3
370
    30
100
AcDbLine
 10
71.912153
 20
131.145754
 30
0.0
 11
71.912153
 21
109.645754
 31
0.0
  0
LINE
  5
5B4
330
1F
100
AcDbEntity
  8
002
 62
     3
370
    30
100
AcDbLine
 10
71.912153
 20
97.645754
 30
0.0
 11
71.912153
 21
76.145754
 31
0.0
  0
LINE
  5
5B5
330
1F
100
AcDbEntity
  8
002
 62
     3
370
    30
100
AcDbLine
 10
103.912153
 20
76.145754
 30
0.0
 11
103.912153
 21
97.645754
 31
0.0
  0
LINE
  5
5B6
330
1F
100
AcDbEntity
  8
002
 62
     3
370
    30
100
AcDbLine
 10
103.912153
 20
109.645754
 30
0.0
 11
103.912153
 21
131.145754
 31
0.0
  0
POLYLINE
  5
5B7
330
1F
100
AcDbEntity
  8
002
 62
     3
370
     9
100
AcDb2dPolyline
 66
     1
 10
0.0
 20
0.0
 30
0.0
  0
VERTEX
  5
5B9
330
5B7
100
AcDbEntity
  8
002
 62
     3
370
     9
100
AcDbVertex
100
AcDb2dVertex
 10
263.844854
 20
97.645754
 30
0.0
  0
VERTEX
  5
5BA
330
5B7
100
AcDbEntity
  8
002
 62
     3
370
     9
100
AcDbVertex
100
AcDb2dVertex
 10
265.444854
 20
95.869754
 30
0.0
  0
VERTEX
  5
5BB
330
5B7
100
AcDbEntity
  8
002
 62
     3
370
     9
100
AcDbVertex
100
AcDb2dVertex
 10
267.044854
 20
94.237754
 30
0.0
  0
VERTEX
  5
5BC
330
5B7
100
AcDbEntity
  8
002
 62
     3
370
     9
100
AcDbVertex
100
AcDb2dVertex
 10
268.644854
 20
92.893754
 30
0.0
  0
VERTEX
  5
5BD
330
5B7
100
AcDbEntity
  8
002
 62
     3
370
     9
100
AcDbVertex
100
AcDb2dVertex
 10
270.244854
 20
91.981754
 30
0.0
  0
VERTEX
  5
5BE
330
5B7
100
AcDbEntity
  8
002
 62
     3
370
     9
100
AcDbVertex
100
AcDb2dVertex
 10
271.844854
 20
91.645754
 30
0.0
  0
VERTEX
  5
5BF
330
5B7
100
AcDbEntity
  8
002
 62
     3
370
     9
100
AcDbVertex
100
AcDb2dVertex
 10
273.444854
 20
91.981754
 30
0.0
  0
VERTEX
  5
5C0
330
5B7
100
AcDbEntity
  8
002
 62
     3
370
     9
100
AcDbVertex
100
AcDb2dVertex
 10
275.044854
 20
92.893754
 30
0.0
  0
VERTEX
  5
5C1
330
5B7
100
AcDbEntity
  8
002
 62
     3
370
     9
100
AcDbVertex
100
AcDb2dVertex
 10
276.644854
 20
94.237754
 30
0.0
  0
VERTEX
  5
5C2
330
5B7
100
AcDbEntity
  8
002
 62
     3
370
     9
100
AcDbVertex
100
AcDb2dVertex
 10
278.244854
 20
95.869754
 30
0.0
  0
VERTEX
  5
5C3
330
5B7
100
AcDbEntity
  8
002
 62
     3
370
     9
100
AcDbVertex
100
AcDb2dVertex
 10
279.844854
 20
97.645754
 30
0.0
  0
VERTEX
  5
5C4
330
5B7
100
AcDbEntity
  8
002
 62
     3
370
     9
100
AcDbVertex
100
AcDb2dVertex
 10
281.444854
 20
99.421754
 30
0.0
  0
VERTEX
  5
5C5
330
5B7
100
AcDbEntity
  8
002
 62
     3
370
     9
100
AcDbVertex
100
AcDb2dVertex
 10
283.044854
 20
101.053754
 30
0.0
  0
VERTEX
  5
5C6
330
5B7
100
AcDbEntity
  8
002
 62
     3
370
     9
100
AcDbVertex
100
AcDb2dVertex
 10
284.644854
 20
102.397754
 30
0.0
  0
VERTEX
  5
5C7
330
5B7
100
AcDbEntity
  8
002
 62
     3
370
     9
100
AcDbVertex
100
AcDb2dVertex
 10
286.244854
 20
103.309754
 30
0.0
  0
VERTEX
  5
5C8
330
5B7
100
AcDbEntity
  8
002
 62
     3
370
     9
100
AcDbVertex
100
AcDb2dVertex
 10
287.844854
 20
103.645754
 30
0.0
  0
VERTEX
  5
5C9
330
5B7
100
AcDbEntity
  8
002
 62
     3
370
     9
100
AcDbVertex
100
AcDb2dVertex
 10
289.444854
 20
103.309754
 30
0.0
  0
VERTEX
  5
5CA
330
5B7
100
AcDbEntity
  8
002
 62
     3
370
     9
100
AcDbVertex
100
AcDb2dVertex
 10
291.044854
 20
102.397754
 30
0.0
  0
VERTEX
  5
5CB
330
5B7
100
AcDbEntity
  8
002
 62
     3
370
     9
100
AcDbVertex
100
AcDb2dVertex
 10
292.644854
 20
101.053754
 30
0.0
  0
VERTEX
  5
5CC
330
5B7
100
AcDbEntity
  8
002
 62
     3
370
     9
100
AcDbVertex
100
AcDb2dVertex
 10
294.244854
 20
99.421754
 30
0.0
  0
VERTEX
  5
5CD
330
5B7
100
AcDbEntity
  8
002
 62
     3
370
     9
100
AcDbVertex
100
AcDb2dVertex
 10
295.844854
 20
97.645754
 30
0.0
  0
SEQEND
  5
5B8
330
5B7
100
AcDbEntity
  8
002
370
     9
  0
POLYLINE
  5
5CE
330
1F
100
AcDbEntity
  8
002
 62
     3
370
     9
100
AcDb2dPolyline
 66
     1
 10
0.0
 20
0.0
 30
0.0
  0
VERTEX
  5
5D0
330
5CE
100
AcDbEntity
  8
002
 62
     3
370
     9
100
AcDbVertex
100
AcDb2dVertex
 10
263.844854
 20
109.645754
 30
0.0
  0
VERTEX
  5
5D1
330
5CE
100
AcDbEntity
  8
002
 62
     3
370
     9
100
AcDbVertex
100
AcDb2dVertex
 10
265.444854
 20
107.869754
 30
0.0
  0
VERTEX
  5
5D2
330
5CE
100
AcDbEntity
  8
002
 62
     3
370
     9
100
AcDbVertex
100
AcDb2dVertex
 10
267.044854
 20
106.237754
 30
0.0
  0
VERTEX
  5
5D3
330
5CE
100
AcDbEntity
  8
002
 62
     3
370
     9
100
AcDbVertex
100
AcDb2dVertex
 10
268.644854
 20
104.893754
 30
0.0
  0
VERTEX
  5
5D4
330
5CE
100
AcDbEntity
  8
002
 62
     3
370
     9
100
AcDbVertex
100
AcDb2dVertex
 10
270.244854
 20
103.981754
 30
0.0
  0
VERTEX
  5
5D5
330
5CE
100
AcDbEntity
  8
002
 62
     3
370
     9
100
AcDbVertex
100
AcDb2dVertex
 10
271.844854
 20
103.645754
 30
0.0
  0
VERTEX
  5
5D6
330
5CE
100
AcDbEntity
  8
002
 62
     3
370
     9
100
AcDbVertex
100
AcDb2dVertex
 10
273.444854
 20
103.981754
 30
0.0
  0
VERTEX
  5
5D7
330
5CE
100
AcDbEntity
  8
002
 62
     3
370
     9
100
AcDbVertex
100
AcDb2dVertex
 10
275.044854
 20
104.893754
 30
0.0
  0
VERTEX
  5
5D8
330
5CE
100
AcDbEntity
  8
002
 62
     3
370
     9
100
AcDbVertex
100
AcDb2dVertex
 10
276.644854
 20
106.237754
 30
0.0
  0
VERTEX
  5
5D9
330
5CE
100
AcDbEntity
  8
002
 62
     3
370
     9
100
AcDbVertex
100
AcDb2dVertex
 10
278.244854
 20
107.869754
 30
0.0
  0
VERTEX
  5
5DA
330
5CE
100
AcDbEntity
  8
002
 62
     3
370
     9
100
AcDbVertex
100
AcDb2dVertex
 10
279.844854
 20
109.645754
 30
0.0
  0
VERTEX
  5
5DB
330
5CE
100
AcDbEntity
  8
002
 62
     3
370
     9
100
AcDbVertex
100
AcDb2dVertex
 10
281.444854
 20
111.421754
 30
0.0
  0
VERTEX
  5
5DC
330
5CE
100
AcDbEntity
  8
002
 62
     3
370
     9
100
AcDbVertex
100
AcDb2dVertex
 10
283.044854
 20
113.053754
 30
0.0
  0
VERTEX
  5
5DD
330
5CE
100
AcDbEntity
  8
002
 62
     3
370
     9
100
AcDbVertex
100
AcDb2dVertex
 10
284.644854
 20
114.397754
 30
0.0
  0
VERTEX
  5
5DE
330
5CE
100
AcDbEntity
  8
002
 62
     3
370
     9
100
AcDbVertex
100
AcDb2dVertex
 10
286.244854
 20
115.309754
 30
0.0
  0
VERTEX
  5
5DF
330
5CE
100
AcDbEntity
  8
002
 62
     3
370
     9
100
AcDbVertex
100
AcDb2dVertex
 10
287.844854
 20
115.645754
 30
0.0
  0
VERTEX
  5
5E0
330
5CE
100
AcDbEntity
  8
002
 62
     3
370
     9
100
AcDbVertex
100
AcDb2dVertex
 10
289.444854
 20
115.309754
 30
0.0
  0
VERTEX
  5
5E1
330
5CE
100
AcDbEntity
  8
002
 62
     3
370
     9
100
AcDbVertex
100
AcDb2dVertex
 10
291.044854
 20
114.397754
 30
0.0
  0
VERTEX
  5
5E2
330
5CE
100
AcDbEntity
  8
002
 62
     3
370
     9
100
AcDbVertex
100
AcDb2dVertex
 10
292.644854
 20
113.053754
 30
0.0
  0
VERTEX
  5
5E3
330
5CE
100
AcDbEntity
  8
002
 62
     3
370
     9
100
AcDbVertex
100
AcDb2dVertex
 10
294.244854
 20
111.421754
 30
0.0
  0
VERTEX
  5
5E4
330
5CE
100
AcDbEntity
  8
002
 62
     3
370
     9
100
AcDbVertex
100
AcDb2dVertex
 10
295.844854
 20
109.645754
 30
0.0
  0
SEQEND
  5
5CF
330
5CE
100
AcDbEntity
  8
002
370
     9
  0
LINE
  5
5E5
330
1F
100
AcDbEntity
  8
002
 62
     3
370
    30
100
AcDbLine
 10
263.844854
 20
131.145754
 30
0.0
 11
263.844854
 21
109.645754
 31
0.0
  0
LINE
  5
5E6
330
1F
100
AcDbEntity
  8
002
 62
     3
370
    30
100
AcDbLine
 10
263.844854
 20
97.645754
 30
0.0
 11
263.844854
 21
76.145754
 31
0.0
  0
LINE
  5
5E7
330
1F
100
AcDbEntity
  8
002
 62
     3
370
    30
100
AcDbLine
 10
295.844854
 20
76.145754
 30
0.0
 11
295.844854
 21
97.645754
 31
0.0
  0
LINE
  5
5E8
330
1F
100
AcDbEntity
  8
002
 62
     3
370
    30
100
AcDbLine
 10
295.844854
 20
109.645754
 30
0.0
 11
295.844854
 21
131.145754
 31
0.0
  0
POLYLINE
  5
5E9
330
1F
100
AcDbEntity
  8
002
 62
     3
370
     9
100
AcDb2dPolyline
 66
     1
 10
0.0
 20
0.0
 30
0.0
  0
VERTEX
  5
5EB
330
5E9
100
AcDbEntity
  8
002
 62
     3
370
     9
100
AcDbVertex
100
AcDb2dVertex
 10
289.845154
 20
378.795754
 30
0.0
  0
VERTEX
  5
5EC
330
5E9
100
AcDbEntity
  8
002
 62
     3
370
     9
100
AcDbVertex
100
AcDb2dVertex
 10
288.178487
 20
381.684643
 30
0.0
  0
VERTEX
  5
5ED
330
5E9
100
AcDbEntity
  8
002
 62
     3
370
     9
100
AcDbVertex
100
AcDb2dVertex
 10
286.511821
 20
383.906865
 30
0.0
  0
VERTEX
  5
5EE
330
5E9
100
AcDbEntity
  8
002
 62
     3
370
     9
100
AcDbVertex
100
AcDb2dVertex
 10
284.845154
 20
384.795754
 30
0.0
  0
VERTEX
  5
5EF
330
5E9
100
AcDbEntity
  8
002
 62
     3
370
     9
100
AcDbVertex
100
AcDb2dVertex
 10
283.178487
 20
383.906865
 30
0.0
  0
VERTEX
  5
5F0
330
5E9
100
AcDbEntity
  8
002
 62
     3
370
     9
100
AcDbVertex
100
AcDb2dVertex
 10
281.511821
 20
381.684643
 30
0.0
  0
VERTEX
  5
5F1
330
5E9
100
AcDbEntity
  8
002
 62
     3
370
     9
100
AcDbVertex
100
AcDb2dVertex
 10
279.845154
 20
378.795754
 30
0.0
  0
VERTEX
  5
5F2
330
5E9
100
AcDbEntity
  8
002
 62
     3
370
     9
100
AcDbVertex
100
AcDb2dVertex
 10
278.178487
 20
375.906865
 30
0.0
  0
VERTEX
  5
5F3
330
5E9
100
AcDbEntity
  8
002
 62
     3
370
     9
100
AcDbVertex
100
AcDb2dVertex
 10
276.511821
 20
373.684643
 30
0.0
  0
VERTEX
  5
5F4
330
5E9
100
AcDbEntity
  8
002
 62
     3
370
     9
100
AcDbVertex
100
AcDb2dVertex
 10
274.845154
 20
372.795754
 30
0.0
  0
VERTEX
  5
5F5
330
5E9
100
AcDbEntity
  8
002
 62
     3
370
     9
100
AcDbVertex
100
AcDb2dVertex
 10
273.178487
 20
373.684643
 30
0.0
  0
VERTEX
  5
5F6
330
5E9
100
AcDbEntity
  8
002
 62
     3
370
     9
100
AcDbVertex
100
AcDb2dVertex
 10
271.511821
 20
375.906865
 30
0.0
  0
VERTEX
  5
5F7
330
5E9
100
AcDbEntity
  8
002
 62
     3
370
     9
100
AcDbVertex
100
AcDb2dVertex
 10
269.845154
 20
378.795754
 30
0.0
  0
SEQEND
  5
5EA
330
5E9
100
AcDbEntity
  8
002
370
     9
  0
POLYLINE
  5
5F8
330
1F
100
AcDbEntity
  8
002
 62
     3
370
     9
100
AcDb2dPolyline
 66
     1
 10
0.0
 20
0.0
 30
0.0
  0
VERTEX
  5
5FA
330
5F8
100
AcDbEntity
  8
002
 62
     3
370
     9
100
AcDbVertex
100
AcDb2dVertex
 10
289.845154
 20
366.795754
 30
0.0
  0
VERTEX
  5
5FB
330
5F8
100
AcDbEntity
  8
002
 62
     3
370
     9
100
AcDbVertex
100
AcDb2dVertex
 10
288.178487
 20
369.684643
 30
0.0
  0
VERTEX
  5
5FC
330
5F8
100
AcDbEntity
  8
002
 62
     3
370
     9
100
AcDbVertex
100
AcDb2dVertex
 10
286.511821
 20
371.906865
 30
0.0
  0
VERTEX
  5
5FD
330
5F8
100
AcDbEntity
  8
002
 62
     3
370
     9
100
AcDbVertex
100
AcDb2dVertex
 10
284.845154
 20
372.795754
 30
0.0
  0
VERTEX
  5
5FE
330
5F8
100
AcDbEntity
  8
002
 62
     3
370
     9
100
AcDbVertex
100
AcDb2dVertex
 10
283.178487
 20
371.906865
 30
0.0
  0
VERTEX
  5
5FF
330
5F8
100
AcDbEntity
  8
002
 62
     3
370
     9
100
AcDbVertex
100
AcDb2dVertex
 10
281.511821
 20
369.684643
 30
0.0
  0
VERTEX
  5
600
330
5F8
100
AcDbEntity
  8
002
 62
     3
370
     9
100
AcDbVertex
100
AcDb2dVertex
 10
279.845154
 20
366.795754
 30
0.0
  0
VERTEX
  5
601
330
5F8
100
AcDbEntity
  8
002
 62
     3
370
     9
100
AcDbVertex
100
AcDb2dVertex
 10
278.178487
 20
363.906865
 30
0.0
  0
VERTEX
  5
602
330
5F8
100
AcDbEntity
  8
002
 62
     3
370
     9
100
AcDbVertex
100
AcDb2dVertex
 10
276.511821
 20
361.684643
 30
0.0
  0
VERTEX
  5
603
330
5F8
100
AcDbEntity
  8
002
 62
     3
370
     9
100
AcDbVertex
100
AcDb2dVertex
 10
274.845154
 20
360.795754
 30
0.0
  0
VERTEX
  5
604
330
5F8
100
AcDbEntity
  8
002
 62
     3
370
     9
100
AcDbVertex
100
AcDb2dVertex
 10
273.178487
 20
361.684643
 30
0.0
  0
VERTEX
  5
605
330
5F8
100
AcDbEntity
  8
002
 62
     3
370
     9
100
AcDbVertex
100
AcDb2dVertex
 10
271.511821
 20
363.906865
 30
0.0
  0
VERTEX
  5
606
330
5F8
100
AcDbEntity
  8
002
 62
     3
370
     9
100
AcDbVertex
100
AcDb2dVertex
 10
269.845154
 20
366.795754
 30
0.0
  0
SEQEND
  5
5F9
330
5F8
100
AcDbEntity
  8
002
370
     9
  0
LINE
  5
607
330
1F
100
AcDbEntity
  8
002
 62
    40
370
     9
100
AcDbLine
 10
288.595154
 20
419.445754
 30
0.0
 11
288.595154
 21
380.998879
 31
0.0
  0
LINE
  5
608
330
1F
100
AcDbEntity
  8
002
 62
    40
370
     9
100
AcDbLine
 10
288.595154
 20
368.998879
 30
0.0
 11
288.595154
 21
326.145754
 31
0.0
  0
LINE
  5
609
330
1F
100
AcDbEntity
  8
002
 62
    40
370
     9
100
AcDbLine
 10
271.095154
 20
326.145754
 30
0.0
 11
271.095154
 21
364.592629
 31
0.0
  0
LINE
  5
60A
330
1F
100
AcDbEntity
  8
002
 62
    40
370
     9
100
AcDbLine
 10
271.095154
 20
376.592629
 30
0.0
 11
271.095154
 21
419.445754
 31
0.0
  0
LINE
  5
60B
330
1F
100
AcDbEntity
  8
002
 62
     3
370
    30
100
AcDbLine
 10
269.845154
 20
419.445754
 30
0.0
 11
269.845154
 21
378.795754
 31
0.0
  0
LINE
  5
60C
330
1F
100
AcDbEntity
  8
002
 62
     3
370
    30
100
AcDbLine
 10
269.845154
 20
366.795754
 30
0.0
 11
269.845154
 21
326.145754
 31
0.0
  0
LINE
  5
60D
330
1F
100
AcDbEntity
  8
002
 62
     3
370
    30
100
AcDbLine
 10
289.845154
 20
419.445754
 30
0.0
 11
289.845154
 21
378.795754
 31
0.0
  0
LINE
  5
60E
330
1F
100
AcDbEntity
  8
002
 62
     3
370
    30
100
AcDbLine
 10
289.845154
 20
366.795754
 30
0.0
 11
289.845154
 21
326.145754
 31
0.0
  0
POLYLINE
  5
60F
330
1F
100
AcDbEntity
  8
002
 62
     3
370
     9
100
AcDb2dPolyline
 66
     1
 10
0.0
 20
0.0
 30
0.0
  0
VERTEX
  5
611
330
60F
100
AcDbEntity
  8
002
 62
     3
370
     9
100
AcDbVertex
100
AcDb2dVertex
 10
77.912453
 20
366.795754
 30
0.0
  0
VERTEX
  5
612
330
60F
100
AcDbEntity
  8
002
 62
     3
370
     9
100
AcDbVertex
100
AcDb2dVertex
 10
79.57912
 20
363.906865
 30
0.0
  0
VERTEX
  5
613
330
60F
100
AcDbEntity
  8
002
 62
     3
370
     9
100
AcDbVertex
100
AcDb2dVertex
 10
81.245787
 20
361.684643
 30
0.0
  0
VERTEX
  5
614
330
60F
100
AcDbEntity
  8
002
 62
     3
370
     9
100
AcDbVertex
100
AcDb2dVertex
 10
82.912453
 20
360.795754
 30
0.0
  0
VERTEX
  5
615
330
60F
100
AcDbEntity
  8
002
 62
     3
370
     9
100
AcDbVertex
100
AcDb2dVertex
 10
84.57912
 20
361.684643
 30
0.0
  0
VERTEX
  5
616
330
60F
100
AcDbEntity
  8
002
 62
     3
370
     9
100
AcDbVertex
100
AcDb2dVertex
 10
86.245787
 20
363.906865
 30
0.0
  0
VERTEX
  5
617
330
60F
100
AcDbEntity
  8
002
 62
     3
370
     9
100
AcDbVertex
100
AcDb2dVertex
 10
87.912453
 20
366.795754
 30
0.0
  0
VERTEX
  5
618
330
60F
100
AcDbEntity
  8
002
 62
     3
370
     9
100
AcDbVertex
100
AcDb2dVertex
 10
89.57912
 20
369.684643
 30
0.0
  0
VERTEX
  5
619
330
60F
100
AcDbEntity
  8
002
 62
     3
370
     9
100
AcDbVertex
100
AcDb2dVertex
 10
91.245787
 20
371.906865
 30
0.0
  0
VERTEX
  5
61A
330
60F
100
AcDbEntity
  8
002
 62
     3
370
     9
100
AcDbVertex
100
AcDb2dVertex
 10
92.912453
 20
372.795754
 30
0.0
  0
VERTEX
  5
61B
330
60F
100
AcDbEntity
  8
002
 62
     3
370
     9
100
AcDbVertex
100
AcDb2dVertex
 10
94.57912
 20
371.906865
 30
0.0
  0
VERTEX
  5
61C
330
60F
100
AcDbEntity
  8
002
 62
     3
370
     9
100
AcDbVertex
100
AcDb2dVertex
 10
96.245787
 20
369.684643
 30
0.0
  0
VERTEX
  5
61D
330
60F
100
AcDbEntity
  8
002
 62
     3
370
     9
100
AcDbVertex
100
AcDb2dVertex
 10
97.912453
 20
366.795754
 30
0.0
  0
SEQEND
  5
610
330
60F
100
AcDbEntity
  8
002
370
     9
  0
POLYLINE
  5
61E
330
1F
100
AcDbEntity
  8
002
 62
     3
370
     9
100
AcDb2dPolyline
 66
     1
 10
0.0
 20
0.0
 30
0.0
  0
VERTEX
  5
620
330
61E
100
AcDbEntity
  8
002
 62
     3
370
     9
100
AcDbVertex
100
AcDb2dVertex
 10
77.912453
 20
378.795754
 30
0.0
  0
VERTEX
  5
621
330
61E
100
AcDbEntity
  8
002
 62
     3
370
     9
100
AcDbVertex
100
AcDb2dVertex
 10
79.57912
 20
375.906865
 30
0.0
  0
VERTEX
  5
622
330
61E
100
AcDbEntity
  8
002
 62
     3
370
     9
100
AcDbVertex
100
AcDb2dVertex
 10
81.245787
 20
373.684643
 30
0.0
  0
VERTEX
  5
623
330
61E
100
AcDbEntity
  8
002
 62
     3
370
     9
100
AcDbVertex
100
AcDb2dVertex
 10
82.912453
 20
372.795754
 30
0.0
  0
VERTEX
  5
624
330
61E
100
AcDbEntity
  8
002
 62
     3
370
     9
100
AcDbVertex
100
AcDb2dVertex
 10
84.57912
 20
373.684643
 30
0.0
  0
VERTEX
  5
625
330
61E
100
AcDbEntity
  8
002
 62
     3
370
     9
100
AcDbVertex
100
AcDb2dVertex
 10
86.245787
 20
375.906865
 30
0.0
  0
VERTEX
  5
626
330
61E
100
AcDbEntity
  8
002
 62
     3
370
     9
100
AcDbVertex
100
AcDb2dVertex
 10
87.912453
 20
378.795754
 30
0.0
  0
VERTEX
  5
627
330
61E
100
AcDbEntity
  8
002
 62
     3
370
     9
100
AcDbVertex
100
AcDb2dVertex
 10
89.57912
 20
381.684643
 30
0.0
  0
VERTEX
  5
628
330
61E
100
AcDbEntity
  8
002
 62
     3
370
     9
100
AcDbVertex
100
AcDb2dVertex
 10
91.245787
 20
383.906865
 30
0.0
  0
VERTEX
  5
629
330
61E
100
AcDbEntity
  8
002
 62
     3
370
     9
100
AcDbVertex
100
AcDb2dVertex
 10
92.912453
 20
384.795754
 30
0.0
  0
VERTEX
  5
62A
330
61E
100
AcDbEntity
  8
002
 62
     3
370
     9
100
AcDbVertex
100
AcDb2dVertex
 10
94.57912
 20
383.906865
 30
0.0
  0
VERTEX
  5
62B
330
61E
100
AcDbEntity
  8
002
 62
     3
370
     9
100
AcDbVertex
100
AcDb2dVertex
 10
96.245787
 20
381.684643
 30
0.0
  0
VERTEX
  5
62C
330
61E
100
AcDbEntity
  8
002
 62
     3
370
     9
100
AcDbVertex
100
AcDb2dVertex
 10
97.912453
 20
378.795754
 30
0.0
  0
SEQEND
  5
61F
330
61E
100
AcDbEntity
  8
002
370
     9
  0
LINE
  5
62D
330
1F
100
AcDbEntity
  8
002
 62
     3
370
    30
100
AcDbLine
 10
77.912453
 20
419.445754
 30
0.0
 11
77.912453
 21
378.795754
 31
0.0
  0
LINE
  5
62E
330
1F
100
AcDbEntity
  8
002
 62
     3
370
    30
100
AcDbLine
 10
77.912453
 20
366.795754
 30
0.0
 11
77.912453
 21
326.145754
 31
0.0
  0
LINE
  5
62F
330
1F
100
AcDbEntity
  8
002
 62
     3
370
    30
100
AcDbLine
 10
97.912453
 20
419.445754
 30
0.0
 11
97.912453
 21
378.795754
 31
0.0
  0
LINE
  5
630
330
1F
100
AcDbEntity
  8
002
 62
     3
370
    30
100
AcDbLine
 10
97.912453
 20
366.795754
 30
0.0
 11
97.912453
 21
326.145754
 31
0.0
  0
LINE
  5
631
330
1F
100
AcDbEntity
  8
002
 62
    40
370
     9
100
AcDbLine
 10
96.662453
 20
419.445754
 30
0.0
 11
96.662453
 21
380.998879
 31
0.0
  0
LINE
  5
632
330
1F
100
AcDbEntity
  8
002
 62
    40
370
     9
100
AcDbLine
 10
96.662453
 20
368.998879
 30
0.0
 11
96.662453
 21
326.145754
 31
0.0
  0
LINE
  5
633
330
1F
100
AcDbEntity
  8
002
 62
    40
370
     9
100
AcDbLine
 10
79.162453
 20
326.145754
 30
0.0
 11
79.162453
 21
364.592629
 31
0.0
  0
LINE
  5
634
330
1F
100
AcDbEntity
  8
002
 62
    40
370
     9
100
AcDbLine
 10
79.162453
 20
376.592629
 30
0.0
 11
79.162453
 21
419.445754
 31
0.0
  0
POLYLINE
  5
635
330
1F
100
AcDbEntity
  8
002
 62
     3
370
     9
100
AcDb2dPolyline
 66
     1
 10
0.0
 20
0.0
 30
0.0
  0
VERTEX
  5
637
330
635
100
AcDbEntity
  8
002
 62
     3
370
     9
100
AcDbVertex
100
AcDb2dVertex
 10
575.109384
 20
109.645754
 30
0.0
  0
VERTEX
  5
638
330
635
100
AcDbEntity
  8
002
 62
     3
370
     9
100
AcDbVertex
100
AcDb2dVertex
 10
573.509384
 20
111.421754
 30
0.0
  0
VERTEX
  5
639
330
635
100
AcDbEntity
  8
002
 62
     3
370
     9
100
AcDbVertex
100
AcDb2dVertex
 10
571.909384
 20
113.053754
 30
0.0
  0
VERTEX
  5
63A
330
635
100
AcDbEntity
  8
002
 62
     3
370
     9
100
AcDbVertex
100
AcDb2dVertex
 10
570.309384
 20
114.397754
 30
0.0
  0
VERTEX
  5
63B
330
635
100
AcDbEntity
  8
002
 62
     3
370
     9
100
AcDbVertex
100
AcDb2dVertex
 10
568.709384
 20
115.309754
 30
0.0
  0
VERTEX
  5
63C
330
635
100
AcDbEntity
  8
002
 62
     3
370
     9
100
AcDbVertex
100
AcDb2dVertex
 10
567.109384
 20
115.645754
 30
0.0
  0
VERTEX
  5
63D
330
635
100
AcDbEntity
  8
002
 62
     3
370
     9
100
AcDbVertex
100
AcDb2dVertex
 10
565.509384
 20
115.309754
 30
0.0
  0
VERTEX
  5
63E
330
635
100
AcDbEntity
  8
002
 62
     3
370
     9
100
AcDbVertex
100
AcDb2dVertex
 10
563.909384
 20
114.397754
 30
0.0
  0
VERTEX
  5
63F
330
635
100
AcDbEntity
  8
002
 62
     3
370
     9
100
AcDbVertex
100
AcDb2dVertex
 10
562.309384
 20
113.053754
 30
0.0
  0
VERTEX
  5
640
330
635
100
AcDbEntity
  8
002
 62
     3
370
     9
100
AcDbVertex
100
AcDb2dVertex
 10
560.709384
 20
111.421754
 30
0.0
  0
VERTEX
  5
641
330
635
100
AcDbEntity
  8
002
 62
     3
370
     9
100
AcDbVertex
100
AcDb2dVertex
 10
559.109384
 20
109.645754
 30
0.0
  0
VERTEX
  5
642
330
635
100
AcDbEntity
  8
002
 62
     3
370
     9
100
AcDbVertex
100
AcDb2dVertex
 10
557.509384
 20
107.869754
 30
0.0
  0
VERTEX
  5
643
330
635
100
AcDbEntity
  8
002
 62
     3
370
     9
100
AcDbVertex
100
AcDb2dVertex
 10
555.909384
 20
106.237754
 30
0.0
  0
VERTEX
  5
644
330
635
100
AcDbEntity
  8
002
 62
     3
370
     9
100
AcDbVertex
100
AcDb2dVertex
 10
554.309384
 20
104.893754
 30
0.0
  0
VERTEX
  5
645
330
635
100
AcDbEntity
  8
002
 62
     3
370
     9
100
AcDbVertex
100
AcDb2dVertex
 10
552.709384
 20
103.981754
 30
0.0
  0
VERTEX
  5
646
330
635
100
AcDbEntity
  8
002
 62
     3
370
     9
100
AcDbVertex
100
AcDb2dVertex
 10
551.109384
 20
103.645754
 30
0.0
  0
VERTEX
  5
647
330
635
100
AcDbEntity
  8
002
 62
     3
370
     9
100
AcDbVertex
100
AcDb2dVertex
 10
549.509384
 20
103.981754
 30
0.0
  0
VERTEX
  5
648
330
635
100
AcDbEntity
  8
002
 62
     3
370
     9
100
AcDbVertex
100
AcDb2dVertex
 10
547.909384
 20
104.893754
 30
0.0
  0
VERTEX
  5
649
330
635
100
AcDbEntity
  8
002
 62
     3
370
     9
100
AcDbVertex
100
AcDb2dVertex
 10
546.309384
 20
106.237754
 30
0.0
  0
VERTEX
  5
64A
330
635
100
AcDbEntity
  8
002
 62
     3
370
     9
100
AcDbVertex
100
AcDb2dVertex
 10
544.709384
 20
107.869754
 30
0.0
  0
VERTEX
  5
64B
330
635
100
AcDbEntity
  8
002
 62
     3
370
     9
100
AcDbVertex
100
AcDb2dVertex
 10
543.109384
 20
109.645754
 30
0.0
  0
SEQEND
  5
636
330
635
100
AcDbEntity
  8
002
370
     9
  0
POLYLINE
  5
64C
330
1F
100
AcDbEntity
  8
002
 62
     3
370
     9
100
AcDb2dPolyline
 66
     1
 10
0.0
 20
0.0
 30
0.0
  0
VERTEX
  5
64E
330
64C
100
AcDbEntity
  8
002
 62
     3
370
     9
100
AcDbVertex
100
AcDb2dVertex
 10
575.109384
 20
97.645754
 30
0.0
  0
VERTEX
  5
64F
330
64C
100
AcDbEntity
  8
002
 62
     3
370
     9
100
AcDbVertex
100
AcDb2dVertex
 10
573.509384
 20
99.421754
 30
0.0
  0
VERTEX
  5
650
330
64C
100
AcDbEntity
  8
002
 62
     3
370
     9
100
AcDbVertex
100
AcDb2dVertex
 10
571.909384
 20
101.053754
 30
0.0
  0
VERTEX
  5
651
330
64C
100
AcDbEntity
  8
002
 62
     3
370
     9
100
AcDbVertex
100
AcDb2dVertex
 10
570.309384
 20
102.397754
 30
0.0
  0
VERTEX
  5
652
330
64C
100
AcDbEntity
  8
002
 62
     3
370
     9
100
AcDbVertex
100
AcDb2dVertex
 10
568.709384
 20
103.309754
 30
0.0
  0
VERTEX
  5
653
330
64C
100
AcDbEntity
  8
002
 62
     3
370
     9
100
AcDbVertex
100
AcDb2dVertex
 10
567.109384
 20
103.645754
 30
0.0
  0
VERTEX
  5
654
330
64C
100
AcDbEntity
  8
002
 62
     3
370
     9
100
AcDbVertex
100
AcDb2dVertex
 10
565.509384
 20
103.309754
 30
0.0
  0
VERTEX
  5
655
330
64C
100
AcDbEntity
  8
002
 62
     3
370
     9
100
AcDbVertex
100
AcDb2dVertex
 10
563.909384
 20
102.397754
 30
0.0
  0
VERTEX
  5
656
330
64C
100
AcDbEntity
  8
002
 62
     3
370
     9
100
AcDbVertex
100
AcDb2dVertex
 10
562.309384
 20
101.053754
 30
0.0
  0
VERTEX
  5
657
330
64C
100
AcDbEntity
  8
002
 62
     3
370
     9
100
AcDbVertex
100
AcDb2dVertex
 10
560.709384
 20
99.421754
 30
0.0
  0
VERTEX
  5
658
330
64C
100
AcDbEntity
  8
002
 62
     3
370
     9
100
AcDbVertex
100
AcDb2dVertex
 10
559.109384
 20
97.645754
 30
0.0
  0
VERTEX
  5
659
330
64C
100
AcDbEntity
  8
002
 62
     3
370
     9
100
AcDbVertex
100
AcDb2dVertex
 10
557.509384
 20
95.869754
 30
0.0
  0
VERTEX
  5
65A
330
64C
100
AcDbEntity
  8
002
 62
     3
370
     9
100
AcDbVertex
100
AcDb2dVertex
 10
555.909384
 20
94.237754
 30
0.0
  0
VERTEX
  5
65B
330
64C
100
AcDbEntity
  8
002
 62
     3
370
     9
100
AcDbVertex
100
AcDb2dVertex
 10
554.309384
 20
92.893754
 30
0.0
  0
VERTEX
  5
65C
330
64C
100
AcDbEntity
  8
002
 62
     3
370
     9
100
AcDbVertex
100
AcDb2dVertex
 10
552.709384
 20
91.981754
 30
0.0
  0
VERTEX
  5
65D
330
64C
100
AcDbEntity
  8
002
 62
     3
370
     9
100
AcDbVertex
100
AcDb2dVertex
 10
551.109384
 20
91.645754
 30
0.0
  0
VERTEX
  5
65E
330
64C
100
AcDbEntity
  8
002
 62
     3
370
     9
100
AcDbVertex
100
AcDb2dVertex
 10
549.509384
 20
91.981754
 30
0.0
  0
VERTEX
  5
65F
330
64C
100
AcDbEntity
  8
002
 62
     3
370
     9
100
AcDbVertex
100
AcDb2dVertex
 10
547.909384
 20
92.893754
 30
0.0
  0
VERTEX
  5
660
330
64C
100
AcDbEntity
  8
002
 62
     3
370
     9
100
AcDbVertex
100
AcDb2dVertex
 10
546.309384
 20
94.237754
 30
0.0
  0
VERTEX
  5
661
330
64C
100
AcDbEntity
  8
002
 62
     3
370
     9
100
AcDbVertex
100
AcDb2dVertex
 10
544.709384
 20
95.869754
 30
0.0
  0
VERTEX
  5
662
330
64C
100
AcDbEntity
  8
002
 62
     3
370
     9
100
AcDbVertex
100
AcDb2dVertex
 10
543.109384
 20
97.645754
 30
0.0
  0
SEQEND
  5
64D
330
64C
100
AcDbEntity
  8
002
370
     9
  0
LINE
  5
663
330
1F
100
AcDbEntity
  8
002
 62
     3
370
    30
100
AcDbLine
 10
543.109384
 20
131.145754
 30
0.0
 11
543.109384
 21
109.645754
 31
0.0
  0
LINE
  5
664
330
1F
100
AcDbEntity
  8
002
 62
     3
370
    30
100
AcDbLine
 10
543.109384
 20
97.645754
 30
0.0
 11
543.109384
 21
76.145754
 31
0.0
  0
LINE
  5
665
330
1F
100
AcDbEntity
  8
002
 62
     3
370
    30
100
AcDbLine
 10
575.109384
 20
76.145754
 30
0.0
 11
575.109384
 21
97.645754
 31
0.0
  0
LINE
  5
666
330
1F
100
AcDbEntity
  8
002
 62
     3
370
    30
100
AcDbLine
 10
575.109384
 20
109.645754
 30
0.0
 11
575.109384
 21
131.145754
 31
0.0
  0
POLYLINE
  5
667
330
1F
100
AcDbEntity
  8
002
 62
     3
370
     9
100
AcDb2dPolyline
 66
     1
 10
0.0
 20
0.0
 30
0.0
  0
VERTEX
  5
669
330
667
100
AcDbEntity
  8
002
 62
     3
370
     9
100
AcDbVertex
100
AcDb2dVertex
 10
679.702559
 20
129.995754
 30
0.0
  0
VERTEX
  5
66A
330
667
100
AcDbEntity
  8
002
 62
     3
370
     9
100
AcDbVertex
100
AcDb2dVertex
 10
681.369225
 20
127.106865
 30
0.0
  0
VERTEX
  5
66B
330
667
100
AcDbEntity
  8
002
 62
     3
370
     9
100
AcDbVertex
100
AcDb2dVertex
 10
683.035892
 20
124.884643
 30
0.0
  0
VERTEX
  5
66C
330
667
100
AcDbEntity
  8
002
 62
     3
370
     9
100
AcDbVertex
100
AcDb2dVertex
 10
684.702559
 20
123.995754
 30
0.0
  0
VERTEX
  5
66D
330
667
100
AcDbEntity
  8
002
 62
     3
370
     9
100
AcDbVertex
100
AcDb2dVertex
 10
686.369225
 20
124.884643
 30
0.0
  0
VERTEX
  5
66E
330
667
100
AcDbEntity
  8
002
 62
     3
370
     9
100
AcDbVertex
100
AcDb2dVertex
 10
688.035892
 20
127.106865
 30
0.0
  0
VERTEX
  5
66F
330
667
100
AcDbEntity
  8
002
 62
     3
370
     9
100
AcDbVertex
100
AcDb2dVertex
 10
689.702559
 20
129.995754
 30
0.0
  0
VERTEX
  5
670
330
667
100
AcDbEntity
  8
002
 62
     3
370
     9
100
AcDbVertex
100
AcDb2dVertex
 10
691.369225
 20
132.884643
 30
0.0
  0
VERTEX
  5
671
330
667
100
AcDbEntity
  8
002
 62
     3
370
     9
100
AcDbVertex
100
AcDb2dVertex
 10
693.035892
 20
135.106865
 30
0.0
  0
VERTEX
  5
672
330
667
100
AcDbEntity
  8
002
 62
     3
370
     9
100
AcDbVertex
100
AcDb2dVertex
 10
694.702559
 20
135.995754
 30
0.0
  0
VERTEX
  5
673
330
667
100
AcDbEntity
  8
002
 62
     3
370
     9
100
AcDbVertex
100
AcDb2dVertex
 10
696.369225
 20
135.106865
 30
0.0
  0
VERTEX
  5
674
330
667
100
AcDbEntity
  8
002
 62
     3
370
     9
100
AcDbVertex
100
AcDb2dVertex
 10
698.035892
 20
132.884643
 30
0.0
  0
VERTEX
  5
675
330
667
100
AcDbEntity
  8
002
 62
     3
370
     9
100
AcDbVertex
100
AcDb2dVertex
 10
699.702559
 20
129.995754
 30
0.0
  0
SEQEND
  5
668
330
667
100
AcDbEntity
  8
002
370
     9
  0
POLYLINE
  5
676
330
1F
100
AcDbEntity
  8
002
 62
     3
370
     9
100
AcDb2dPolyline
 66
     1
 10
0.0
 20
0.0
 30
0.0
  0
VERTEX
  5
678
330
676
100
AcDbEntity
  8
002
 62
     3
370
     9
100
AcDbVertex
100
AcDb2dVertex
 10
679.702559
 20
141.995754
 30
0.0
  0
VERTEX
  5
679
330
676
100
AcDbEntity
  8
002
 62
     3
370
     9
100
AcDbVertex
100
AcDb2dVertex
 10
681.369225
 20
139.106865
 30
0.0
  0
VERTEX
  5
67A
330
676
100
AcDbEntity
  8
002
 62
     3
370
     9
100
AcDbVertex
100
AcDb2dVertex
 10
683.035892
 20
136.884643
 30
0.0
  0
VERTEX
  5
67B
330
676
100
AcDbEntity
  8
002
 62
     3
370
     9
100
AcDbVertex
100
AcDb2dVertex
 10
684.702559
 20
135.995754
 30
0.0
  0
VERTEX
  5
67C
330
676
100
AcDbEntity
  8
002
 62
     3
370
     9
100
AcDbVertex
100
AcDb2dVertex
 10
686.369225
 20
136.884643
 30
0.0
  0
VERTEX
  5
67D
330
676
100
AcDbEntity
  8
002
 62
     3
370
     9
100
AcDbVertex
100
AcDb2dVertex
 10
688.035892
 20
139.106865
 30
0.0
  0
VERTEX
  5
67E
330
676
100
AcDbEntity
  8
002
 62
     3
370
     9
100
AcDbVertex
100
AcDb2dVertex
 10
689.702559
 20
141.995754
 30
0.0
  0
VERTEX
  5
67F
330
676
100
AcDbEntity
  8
002
 62
     3
370
     9
100
AcDbVertex
100
AcDb2dVertex
 10
691.369225
 20
144.884643
 30
0.0
  0
VERTEX
  5
680
330
676
100
AcDbEntity
  8
002
 62
     3
370
     9
100
AcDbVertex
100
AcDb2dVertex
 10
693.035892
 20
147.106865
 30
0.0
  0
VERTEX
  5
681
330
676
100
AcDbEntity
  8
002
 62
     3
370
     9
100
AcDbVertex
100
AcDb2dVertex
 10
694.702559
 20
147.995754
 30
0.0
  0
VERTEX
  5
682
330
676
100
AcDbEntity
  8
002
 62
     3
370
     9
100
AcDbVertex
100
AcDb2dVertex
 10
696.369225
 20
147.106865
 30
0.0
  0
VERTEX
  5
683
330
676
100
AcDbEntity
  8
002
 62
     3
370
     9
100
AcDbVertex
100
AcDb2dVertex
 10
698.035892
 20
144.884643
 30
0.0
  0
VERTEX
  5
684
330
676
100
AcDbEntity
  8
002
 62
     3
370
     9
100
AcDbVertex
100
AcDb2dVertex
 10
699.702559
 20
141.995754
 30
0.0
  0
SEQEND
  5
677
330
676
100
AcDbEntity
  8
002
370
     9
  0
LINE
  5
685
330
1F
100
AcDbEntity
  8
002
 62
     3
370
    30
100
AcDbLine
 10
699.702559
 20
176.145754
 30
0.0
 11
699.702559
 21
141.995754
 31
0.0
  0
LINE
  5
686
330
1F
100
AcDbEntity
  8
002
 62
     3
370
    30
100
AcDbLine
 10
699.702559
 20
129.995754
 30
0.0
 11
699.702559
 21
95.845754
 31
0.0
  0
LINE
  5
687
330
1F
100
AcDbEntity
  8
002
 62
     3
370
    30
100
AcDbLine
 10
679.702559
 20
95.845754
 30
0.0
 11
679.702559
 21
129.995754
 31
0.0
  0
LINE
  5
688
330
1F
100
AcDbEntity
  8
002
 62
     3
370
    30
100
AcDbLine
 10
679.702559
 20
141.995754
 30
0.0
 11
679.702559
 21
176.145754
 31
0.0
  0
LINE
  5
689
330
1F
100
AcDbEntity
  8
002
 62
    40
370
     9
100
AcDbLine
 10
698.452559
 20
176.145754
 30
0.0
 11
698.452559
 21
144.198879
 31
0.0
  0
LINE
  5
68A
330
1F
100
AcDbEntity
  8
002
 62
    40
370
     9
100
AcDbLine
 10
698.452559
 20
132.198879
 30
0.0
 11
698.452559
 21
95.845754
 31
0.0
  0
LINE
  5
68B
330
1F
100
AcDbEntity
  8
002
 62
    40
370
     9
100
AcDbLine
 10
680.952559
 20
95.845754
 30
0.0
 11
680.952559
 21
127.792629
 31
0.0
  0
LINE
  5
68C
330
1F
100
AcDbEntity
  8
002
 62
    40
370
     9
100
AcDbLine
 10
680.952559
 20
139.792629
 30
0.0
 11
680.952559
 21
176.145754
 31
0.0
  0
POLYLINE
  5
68D
330
1F
100
AcDbEntity
  8
002
 62
     3
370
     9
100
AcDb2dPolyline
 66
     1
 10
0.0
 20
0.0
 30
0.0
  0
VERTEX
  5
68F
330
68D
100
AcDbEntity
  8
002
 62
     3
370
     9
100
AcDbVertex
100
AcDb2dVertex
 10
673.702559
 20
388.503542
 30
0.0
  0
VERTEX
  5
690
330
68D
100
AcDbEntity
  8
002
 62
     3
370
     9
100
AcDbVertex
100
AcDb2dVertex
 10
675.302559
 20
386.727542
 30
0.0
  0
VERTEX
  5
691
330
68D
100
AcDbEntity
  8
002
 62
     3
370
     9
100
AcDbVertex
100
AcDb2dVertex
 10
676.902559
 20
385.095542
 30
0.0
  0
VERTEX
  5
692
330
68D
100
AcDbEntity
  8
002
 62
     3
370
     9
100
AcDbVertex
100
AcDb2dVertex
 10
678.502559
 20
383.751542
 30
0.0
  0
VERTEX
  5
693
330
68D
100
AcDbEntity
  8
002
 62
     3
370
     9
100
AcDbVertex
100
AcDb2dVertex
 10
680.102559
 20
382.839542
 30
0.0
  0
VERTEX
  5
694
330
68D
100
AcDbEntity
  8
002
 62
     3
370
     9
100
AcDbVertex
100
AcDb2dVertex
 10
681.702559
 20
382.503542
 30
0.0
  0
VERTEX
  5
695
330
68D
100
AcDbEntity
  8
002
 62
     3
370
     9
100
AcDbVertex
100
AcDb2dVertex
 10
683.302559
 20
382.839542
 30
0.0
  0
VERTEX
  5
696
330
68D
100
AcDbEntity
  8
002
 62
     3
370
     9
100
AcDbVertex
100
AcDb2dVertex
 10
684.902559
 20
383.751542
 30
0.0
  0
VERTEX
  5
697
330
68D
100
AcDbEntity
  8
002
 62
     3
370
     9
100
AcDbVertex
100
AcDb2dVertex
 10
686.502559
 20
385.095542
 30
0.0
  0
VERTEX
  5
698
330
68D
100
AcDbEntity
  8
002
 62
     3
370
     9
100
AcDbVertex
100
AcDb2dVertex
 10
688.102559
 20
386.727542
 30
0.0
  0
VERTEX
  5
699
330
68D
100
AcDbEntity
  8
002
 62
     3
370
     9
100
AcDbVertex
100
AcDb2dVertex
 10
689.702559
 20
388.503542
 30
0.0
  0
VERTEX
  5
69A
330
68D
100
AcDbEntity
  8
002
 62
     3
370
     9
100
AcDbVertex
100
AcDb2dVertex
 10
691.302559
 20
390.279542
 30
0.0
  0
VERTEX
  5
69B
330
68D
100
AcDbEntity
  8
002
 62
     3
370
     9
100
AcDbVertex
100
AcDb2dVertex
 10
692.902559
 20
391.911542
 30
0.0
  0
VERTEX
  5
69C
330
68D
100
AcDbEntity
  8
002
 62
     3
370
     9
100
AcDbVertex
100
AcDb2dVertex
 10
694.502559
 20
393.255542
 30
0.0
  0
VERTEX
  5
69D
330
68D
100
AcDbEntity
  8
002
 62
     3
370
     9
100
AcDbVertex
100
AcDb2dVertex
 10
696.102559
 20
394.167542
 30
0.0
  0
VERTEX
  5
69E
330
68D
100
AcDbEntity
  8
002
 62
     3
370
     9
100
AcDbVertex
100
AcDb2dVertex
 10
697.702559
 20
394.503542
 30
0.0
  0
VERTEX
  5
69F
330
68D
100
AcDbEntity
  8
002
 62
     3
370
     9
100
AcDbVertex
100
AcDb2dVertex
 10
699.302559
 20
394.167542
 30
0.0
  0
VERTEX
  5
6A0
330
68D
100
AcDbEntity
  8
002
 62
     3
370
     9
100
AcDbVertex
100
AcDb2dVertex
 10
700.902559
 20
393.255542
 30
0.0
  0
VERTEX
  5
6A1
330
68D
100
AcDbEntity
  8
002
 62
     3
370
     9
100
AcDbVertex
100
AcDb2dVertex
 10
702.502559
 20
391.911542
 30
0.0
  0
VERTEX
  5
6A2
330
68D
100
AcDbEntity
  8
002
 62
     3
370
     9
100
AcDbVertex
100
AcDb2dVertex
 10
704.102559
 20
390.279542
 30
0.0
  0
VERTEX
  5
6A3
330
68D
100
AcDbEntity
  8
002
 62
     3
370
     9
100
AcDbVertex
100
AcDb2dVertex
 10
705.702559
 20
388.503542
 30
0.0
  0
SEQEND
  5
68E
330
68D
100
AcDbEntity
  8
002
370
     9
  0
POLYLINE
  5
6A4
330
1F
100
AcDbEntity
  8
002
 62
     3
370
     9
100
AcDb2dPolyline
 66
     1
 10
0.0
 20
0.0
 30
0.0
  0
VERTEX
  5
6A6
330
6A4
100
AcDbEntity
  8
002
 62
     3
370
     9
100
AcDbVertex
100
AcDb2dVertex
 10
673.702559
 20
400.503542
 30
0.0
  0
VERTEX
  5
6A7
330
6A4
100
AcDbEntity
  8
002
 62
     3
370
     9
100
AcDbVertex
100
AcDb2dVertex
 10
675.302559
 20
398.727542
 30
0.0
  0
VERTEX
  5
6A8
330
6A4
100
AcDbEntity
  8
002
 62
     3
370
     9
100
AcDbVertex
100
AcDb2dVertex
 10
676.902559
 20
397.095542
 30
0.0
  0
VERTEX
  5
6A9
330
6A4
100
AcDbEntity
  8
002
 62
     3
370
     9
100
AcDbVertex
100
AcDb2dVertex
 10
678.502559
 20
395.751542
 30
0.0
  0
VERTEX
  5
6AA
330
6A4
100
AcDbEntity
  8
002
 62
     3
370
     9
100
AcDbVertex
100
AcDb2dVertex
 10
680.102559
 20
394.839542
 30
0.0
  0
VERTEX
  5
6AB
330
6A4
100
AcDbEntity
  8
002
 62
     3
370
     9
100
AcDbVertex
100
AcDb2dVertex
 10
681.702559
 20
394.503542
 30
0.0
  0
VERTEX
  5
6AC
330
6A4
100
AcDbEntity
  8
002
 62
     3
370
     9
100
AcDbVertex
100
AcDb2dVertex
 10
683.302559
 20
394.839542
 30
0.0
  0
VERTEX
  5
6AD
330
6A4
100
AcDbEntity
  8
002
 62
     3
370
     9
100
AcDbVertex
100
AcDb2dVertex
 10
684.902559
 20
395.751542
 30
0.0
  0
VERTEX
  5
6AE
330
6A4
100
AcDbEntity
  8
002
 62
     3
370
     9
100
AcDbVertex
100
AcDb2dVertex
 10
686.502559
 20
397.095542
 30
0.0
  0
VERTEX
  5
6AF
330
6A4
100
AcDbEntity
  8
002
 62
     3
370
     9
100
AcDbVertex
100
AcDb2dVertex
 10
688.102559
 20
398.727542
 30
0.0
  0
VERTEX
  5
6B0
330
6A4
100
AcDbEntity
  8
002
 62
     3
370
     9
100
AcDbVertex
100
AcDb2dVertex
 10
689.702559
 20
400.503542
 30
0.0
  0
VERTEX
  5
6B1
330
6A4
100
AcDbEntity
  8
002
 62
     3
370
     9
100
AcDbVertex
100
AcDb2dVertex
 10
691.302559
 20
402.279542
 30
0.0
  0
VERTEX
  5
6B2
330
6A4
100
AcDbEntity
  8
002
 62
     3
370
     9
100
AcDbVertex
100
AcDb2dVertex
 10
692.902559
 20
403.911542
 30
0.0
  0
VERTEX
  5
6B3
330
6A4
100
AcDbEntity
  8
002
 62
     3
370
     9
100
AcDbVertex
100
AcDb2dVertex
 10
694.502559
 20
405.255542
 30
0.0
  0
VERTEX
  5
6B4
330
6A4
100
AcDbEntity
  8
002
 62
     3
370
     9
100
AcDbVertex
100
AcDb2dVertex
 10
696.102559
 20
406.167542
 30
0.0
  0
VERTEX
  5
6B5
330
6A4
100
AcDbEntity
  8
002
 62
     3
370
     9
100
AcDbVertex
100
AcDb2dVertex
 10
697.702559
 20
406.503542
 30
0.0
  0
VERTEX
  5
6B6
330
6A4
100
AcDbEntity
  8
002
 62
     3
370
     9
100
AcDbVertex
100
AcDb2dVertex
 10
699.302559
 20
406.167542
 30
0.0
  0
VERTEX
  5
6B7
330
6A4
100
AcDbEntity
  8
002
 62
     3
370
     9
100
AcDbVertex
100
AcDb2dVertex
 10
700.902559
 20
405.255542
 30
0.0
  0
VERTEX
  5
6B8
330
6A4
100
AcDbEntity
  8
002
 62
     3
370
     9
100
AcDbVertex
100
AcDb2dVertex
 10
702.502559
 20
403.911542
 30
0.0
  0
VERTEX
  5
6B9
330
6A4
100
AcDbEntity
  8
002
 62
     3
370
     9
100
AcDbVertex
100
AcDb2dVertex
 10
704.102559
 20
402.279542
 30
0.0
  0
VERTEX
  5
6BA
330
6A4
100
AcDbEntity
  8
002
 62
     3
370
     9
100
AcDbVertex
100
AcDb2dVertex
 10
705.702559
 20
400.503542
 30
0.0
  0
SEQEND
  5
6A5
330
6A4
100
AcDbEntity
  8
002
370
     9
  0
LINE
  5
6BB
330
1F
100
AcDbEntity
  8
002
 62
     3
370
    30
100
AcDbLine
 10
673.702559
 20
371.145754
 30
0.0
 11
673.702559
 21
388.503542
 31
0.0
  0
LINE
  5
6BC
330
1F
100
AcDbEntity
  8
002
 62
     3
370
    30
100
AcDbLine
 10
673.702559
 20
400.503542
 30
0.0
 11
673.702559
 21
417.86133
 31
0.0
  0
LINE
  5
6BD
330
1F
100
AcDbEntity
  8
002
 62
     3
370
    30
100
AcDbLine
 10
705.702559
 20
417.86133
 30
0.0
 11
705.702559
 21
400.503542
 31
0.0
  0
LINE
  5
6BE
330
1F
100
AcDbEntity
  8
002
 62
     3
370
    30
100
AcDbLine
 10
705.702559
 20
388.503542
 30
0.0
 11
705.702559
 21
371.145754
 31
0.0
  0
POLYLINE
  5
6BF
330
1F
100
AcDbEntity
  8
002
 62
     3
370
     9
100
AcDb2dPolyline
 66
     1
 10
0.0
 20
0.0
 30
0.0
  0
VERTEX
  5
6C1
330
6BF
100
AcDbEntity
  8
002
 62
     3
370
     9
100
AcDbVertex
100
AcDb2dVertex
 10
815.750559
 20
388.503542
 30
0.0
  0
VERTEX
  5
6C2
330
6BF
100
AcDbEntity
  8
002
 62
     3
370
     9
100
AcDbVertex
100
AcDb2dVertex
 10
817.350559
 20
386.727542
 30
0.0
  0
VERTEX
  5
6C3
330
6BF
100
AcDbEntity
  8
002
 62
     3
370
     9
100
AcDbVertex
100
AcDb2dVertex
 10
818.950559
 20
385.095542
 30
0.0
  0
VERTEX
  5
6C4
330
6BF
100
AcDbEntity
  8
002
 62
     3
370
     9
100
AcDbVertex
100
AcDb2dVertex
 10
820.550559
 20
383.751542
 30
0.0
  0
VERTEX
  5
6C5
330
6BF
100
AcDbEntity
  8
002
 62
     3
370
     9
100
AcDbVertex
100
AcDb2dVertex
 10
822.150559
 20
382.839542
 30
0.0
  0
VERTEX
  5
6C6
330
6BF
100
AcDbEntity
  8
002
 62
     3
370
     9
100
AcDbVertex
100
AcDb2dVertex
 10
823.750559
 20
382.503542
 30
0.0
  0
VERTEX
  5
6C7
330
6BF
100
AcDbEntity
  8
002
 62
     3
370
     9
100
AcDbVertex
100
AcDb2dVertex
 10
825.350559
 20
382.839542
 30
0.0
  0
VERTEX
  5
6C8
330
6BF
100
AcDbEntity
  8
002
 62
     3
370
     9
100
AcDbVertex
100
AcDb2dVertex
 10
826.950559
 20
383.751542
 30
0.0
  0
VERTEX
  5
6C9
330
6BF
100
AcDbEntity
  8
002
 62
     3
370
     9
100
AcDbVertex
100
AcDb2dVertex
 10
828.550559
 20
385.095542
 30
0.0
  0
VERTEX
  5
6CA
330
6BF
100
AcDbEntity
  8
002
 62
     3
370
     9
100
AcDbVertex
100
AcDb2dVertex
 10
830.150559
 20
386.727542
 30
0.0
  0
VERTEX
  5
6CB
330
6BF
100
AcDbEntity
  8
002
 62
     3
370
     9
100
AcDbVertex
100
AcDb2dVertex
 10
831.750559
 20
388.503542
 30
0.0
  0
VERTEX
  5
6CC
330
6BF
100
AcDbEntity
  8
002
 62
     3
370
     9
100
AcDbVertex
100
AcDb2dVertex
 10
833.350559
 20
390.279542
 30
0.0
  0
VERTEX
  5
6CD
330
6BF
100
AcDbEntity
  8
002
 62
     3
370
     9
100
AcDbVertex
100
AcDb2dVertex
 10
834.950559
 20
391.911542
 30
0.0
  0
VERTEX
  5
6CE
330
6BF
100
AcDbEntity
  8
002
 62
     3
370
     9
100
AcDbVertex
100
AcDb2dVertex
 10
836.550559
 20
393.255542
 30
0.0
  0
VERTEX
  5
6CF
330
6BF
100
AcDbEntity
  8
002
 62
     3
370
     9
100
AcDbVertex
100
AcDb2dVertex
 10
838.150559
 20
394.167542
 30
0.0
  0
VERTEX
  5
6D0
330
6BF
100
AcDbEntity
  8
002
 62
     3
370
     9
100
AcDbVertex
100
AcDb2dVertex
 10
839.750559
 20
394.503542
 30
0.0
  0
VERTEX
  5
6D1
330
6BF
100
AcDbEntity
  8
002
 62
     3
370
     9
100
AcDbVertex
100
AcDb2dVertex
 10
841.350559
 20
394.167542
 30
0.0
  0
VERTEX
  5
6D2
330
6BF
100
AcDbEntity
  8
002
 62
     3
370
     9
100
AcDbVertex
100
AcDb2dVertex
 10
842.950559
 20
393.255542
 30
0.0
  0
VERTEX
  5
6D3
330
6BF
100
AcDbEntity
  8
002
 62
     3
370
     9
100
AcDbVertex
100
AcDb2dVertex
 10
844.550559
 20
391.911542
 30
0.0
  0
VERTEX
  5
6D4
330
6BF
100
AcDbEntity
  8
002
 62
     3
370
     9
100
AcDbVertex
100
AcDb2dVertex
 10
846.150559
 20
390.279542
 30
0.0
  0
VERTEX
  5
6D5
330
6BF
100
AcDbEntity
  8
002
 62
     3
370
     9
100
AcDbVertex
100
AcDb2dVertex
 10
847.750559
 20
388.503542
 30
0.0
  0
SEQEND
  5
6C0
330
6BF
100
AcDbEntity
  8
002
370
     9
  0
POLYLINE
  5
6D6
330
1F
100
AcDbEntity
  8
002
 62
     3
370
     9
100
AcDb2dPolyline
 66
     1
 10
0.0
 20
0.0
 30
0.0
  0
VERTEX
  5
6D8
330
6D6
100
AcDbEntity
  8
002
 62
     3
370
     9
100
AcDbVertex
100
AcDb2dVertex
 10
815.750559
 20
400.503542
 30
0.0
  0
VERTEX
  5
6D9
330
6D6
100
AcDbEntity
  8
002
 62
     3
370
     9
100
AcDbVertex
100
AcDb2dVertex
 10
817.350559
 20
398.727542
 30
0.0
  0
VERTEX
  5
6DA
330
6D6
100
AcDbEntity
  8
002
 62
     3
370
     9
100
AcDbVertex
100
AcDb2dVertex
 10
818.950559
 20
397.095542
 30
0.0
  0
VERTEX
  5
6DB
330
6D6
100
AcDbEntity
  8
002
 62
     3
370
     9
100
AcDbVertex
100
AcDb2dVertex
 10
820.550559
 20
395.751542
 30
0.0
  0
VERTEX
  5
6DC
330
6D6
100
AcDbEntity
  8
002
 62
     3
370
     9
100
AcDbVertex
100
AcDb2dVertex
 10
822.150559
 20
394.839542
 30
0.0
  0
VERTEX
  5
6DD
330
6D6
100
AcDbEntity
  8
002
 62
     3
370
     9
100
AcDbVertex
100
AcDb2dVertex
 10
823.750559
 20
394.503542
 30
0.0
  0
VERTEX
  5
6DE
330
6D6
100
AcDbEntity
  8
002
 62
     3
370
     9
100
AcDbVertex
100
AcDb2dVertex
 10
825.350559
 20
394.839542
 30
0.0
  0
VERTEX
  5
6DF
330
6D6
100
AcDbEntity
  8
002
 62
     3
370
     9
100
AcDbVertex
100
AcDb2dVertex
 10
826.950559
 20
395.751542
 30
0.0
  0
VERTEX
  5
6E0
330
6D6
100
AcDbEntity
  8
002
 62
     3
370
     9
100
AcDbVertex
100
AcDb2dVertex
 10
828.550559
 20
397.095542
 30
0.0
  0
VERTEX
  5
6E1
330
6D6
100
AcDbEntity
  8
002
 62
     3
370
     9
100
AcDbVertex
100
AcDb2dVertex
 10
830.150559
 20
398.727542
 30
0.0
  0
VERTEX
  5
6E2
330
6D6
100
AcDbEntity
  8
002
 62
     3
370
     9
100
AcDbVertex
100
AcDb2dVertex
 10
831.750559
 20
400.503542
 30
0.0
  0
VERTEX
  5
6E3
330
6D6
100
AcDbEntity
  8
002
 62
     3
370
     9
100
AcDbVertex
100
AcDb2dVertex
 10
833.350559
 20
402.279542
 30
0.0
  0
VERTEX
  5
6E4
330
6D6
100
AcDbEntity
  8
002
 62
     3
370
     9
100
AcDbVertex
100
AcDb2dVertex
 10
834.950559
 20
403.911542
 30
0.0
  0
VERTEX
  5
6E5
330
6D6
100
AcDbEntity
  8
002
 62
     3
370
     9
100
AcDbVertex
100
AcDb2dVertex
 10
836.550559
 20
405.255542
 30
0.0
  0
VERTEX
  5
6E6
330
6D6
100
AcDbEntity
  8
002
 62
     3
370
     9
100
AcDbVertex
100
AcDb2dVertex
 10
838.150559
 20
406.167542
 30
0.0
  0
VERTEX
  5
6E7
330
6D6
100
AcDbEntity
  8
002
 62
     3
370
     9
100
AcDbVertex
100
AcDb2dVertex
 10
839.750559
 20
406.503542
 30
0.0
  0
VERTEX
  5
6E8
330
6D6
100
AcDbEntity
  8
002
 62
     3
370
     9
100
AcDbVertex
100
AcDb2dVertex
 10
841.350559
 20
406.167542
 30
0.0
  0
VERTEX
  5
6E9
330
6D6
100
AcDbEntity
  8
002
 62
     3
370
     9
100
AcDbVertex
100
AcDb2dVertex
 10
842.950559
 20
405.255542
 30
0.0
  0
VERTEX
  5
6EA
330
6D6
100
AcDbEntity
  8
002
 62
     3
370
     9
100
AcDbVertex
100
AcDb2dVertex
 10
844.550559
 20
403.911542
 30
0.0
  0
VERTEX
  5
6EB
330
6D6
100
AcDbEntity
  8
002
 62
     3
370
     9
100
AcDbVertex
100
AcDb2dVertex
 10
846.150559
 20
402.279542
 30
0.0
  0
VERTEX
  5
6EC
330
6D6
100
AcDbEntity
  8
002
 62
     3
370
     9
100
AcDbVertex
100
AcDb2dVertex
 10
847.750559
 20
400.503542
 30
0.0
  0
SEQEND
  5
6D7
330
6D6
100
AcDbEntity
  8
002
370
     9
  0
LINE
  5
6ED
330
1F
100
AcDbEntity
  8
002
 62
     3
370
    30
100
AcDbLine
 10
815.750559
 20
371.145754
 30
0.0
 11
815.750559
 21
388.503542
 31
0.0
  0
LINE
  5
6EE
330
1F
100
AcDbEntity
  8
002
 62
     3
370
    30
100
AcDbLine
 10
815.750559
 20
400.503542
 30
0.0
 11
815.750559
 21
417.86133
 31
0.0
  0
LINE
  5
6EF
330
1F
100
AcDbEntity
  8
002
 62
     3
370
    30
100
AcDbLine
 10
847.750559
 20
417.86133
 30
0.0
 11
847.750559
 21
400.503542
 31
0.0
  0
LINE
  5
6F0
330
1F
100
AcDbEntity
  8
002
 62
     3
370
    30
100
AcDbLine
 10
847.750559
 20
388.503542
 30
0.0
 11
847.750559
 21
371.145754
 31
0.0
  0
LINE
  5
6F1
330
1F
100
AcDbEntity
  8
002
  6
CENTER
 62
    40
370
     9
100
AcDbLine
 10
87.912153
 20
447.045034
 30
0.0
 11
87.912153
 21
48.688862
 31
0.0
  0
LINE
  5
6F2
330
1F
100
AcDbEntity
  8
002
  6
CENTER
 62
    40
370
     9
100
AcDbLine
 10
559.109384
 20
447.045034
 30
0.0
 11
559.109384
 21
32.910666
 31
0.0
  0
LINE
  5
6F3
330
1F
100
AcDbEntity
  8
002
  6
CENTER
 62
    40
370
     9
100
AcDbLine
 10
831.750559
 20
64.433205
 30
0.0
 11
831.750559
 21
445.574501
 31
0.0
  0
LINE
  5
6F4
330
1F
100
AcDbEntity
  8
002
  6
CENTER
 62
    40
370
     9
100
AcDbLine
 10
689.702559
 20
64.701781
 30
0.0
 11
689.702559
 21
445.574501
 31
0.0
  0
LINE
  5
6F5
330
1F
100
AcDbEntity
  8
003
  6
CENTER
 62
    40
370
     9
100
AcDbLine
 10
279.845154
 20
48.688862
 30
0.0
 11
279.845154
 21
451.945854
 31
0.0
  0
ENDSEC
  0
SECTION
  2
OBJECTS
  0
DICTIONARY
  5
C
330
0
100
AcDbDictionary
281
     1
  3
ACAD_GROUP
350
D
  3
ACAD_LAYOUT
350
1A
  3
ACAD_MLEADERSTYLE
350
6F8
  3
ACAD_MLINESTYLE
350
17
  3
ACAD_PLOTSETTINGS
350
19
  3
ACAD_PLOTSTYLENAME
350
E
  3
ACAD_VISUALSTYLE
350
2A
  3
AcDbVariableDictionary
350
6F6
  0
DICTIONARY
  5
D
102
{ACAD_REACTORS
330
C
102
}
330
C
100
AcDbDictionary
281
     1
  0
DICTIONARY
  5
1A
102
{ACAD_REACTORS
330
C
102
}
330
C
100
AcDbDictionary
281
     1
  3
Layout1
350
1E
  3
Layout2
350
26
  3
Model
350
22
  0
DICTIONARY
  5
6F8
102
{ACAD_REACTORS
330
C
102
}
330
C
100
AcDbDictionary
281
     1
  0
DICTIONARY
  5
17
102
{ACAD_REACTORS
330
C
102
}
330
C
100
AcDbDictionary
281
     1
  3
Standard
350
18
  0
DICTIONARY
  5
19
102
{ACAD_REACTORS
330
C
102
}
330
C
100
AcDbDictionary
281
     1
  0
ACDBDICTIONARYWDFLT
  5
E
102
{ACAD_REACTORS
330
C
102
}
330
C
100
AcDbDictionary
281
     1
  3
Normal
350
F
100
AcDbDictionaryWithDefault
340
F
  0
DICTIONARY
  5
2A
102
{ACAD_REACTORS
330
C
102
}
330
C
100
AcDbDictionary
281
     1
  3
2dWireframe
350
2F
  3
3D Hidden
350
31
  3
3dWireframe
350
30
  3
Basic
350
32
  3
Brighten
350
36
  3
ColorChange
350
3A
  3
Conceptual
350
34
  3
Dim
350
35
  3
Facepattern
350
39
  3
Flat
350
2B
  3
FlatWithEdges
350
2C
  3
Gouraud
350
2D
  3
GouraudWithEdges
350
2E
  3
Linepattern
350
38
  3
Realistic
350
33
  3
Thicken
350
37
  0
DICTIONARY
  5
6F6
102
{ACAD_REACTORS
330
C
102
}
330
C
100
AcDbDictionary
281
     1
  3
PSOLHEIGHT
350
6FA
  3
PSOLWIDTH
350
6F9
  0
LAYOUT
  5
1E
102
{ACAD_REACTORS
330
1A
102
}
330
1A
100
AcDbPlotSettings
  1

  2
none_device
  4

  6

 40
0.0
 41
0.0
 42
0.0
 43
0.0
 44
0.0
 45
0.0
 46
0.0
 47
0.0
 48
0.0
 49
0.0
140
0.0
141
0.0
142
1.0
143
1.0
 70
   688
 72
     0
 73
     0
 74
     5
  7

 75
    16
147
1.0
148
0.0
149
0.0
100
AcDbLayout
  1
Layout1
 70
     1
 71
     1
 10
0.0
 20
0.0
 11
12.0
 21
9.0
 12
0.0
 22
0.0
 32
0.0
 14
1.000000E+20
 24
1.000000E+20
 34
0.0
 15
-1.000000E+20
 25
-1.000000E+20
 35
0.0
146
0.0
 13
0.0
 23
0.0
 33
0.0
 16
1.0
 26
0.0
 36
0.0
 17
0.0
 27
1.0
 37
0.0
 76
     0
330
1B
  0
LAYOUT
  5
26
102
{ACAD_REACTORS
330
1A
102
}
330
1A
100
AcDbPlotSettings
  1

  2
none_device
  4

  6

 40
0.0
 41
0.0
 42
0.0
 43
0.0
 44
0.0
 45
0.0
 46
0.0
 47
0.0
 48
0.0
 49
0.0
140
0.0
141
0.0
142
1.0
143
1.0
 70
   688
 72
     0
 73
     0
 74
     5
  7

 75
    16
147
1.0
148
0.0
149
0.0
100
AcDbLayout
  1
Layout2
 70
     1
 71
     2
 10
0.0
 20
0.0
 11
0.0
 21
0.0
 12
0.0
 22
0.0
 32
0.0
 14
0.0
 24
0.0
 34
0.0
 15
0.0
 25
0.0
 35
0.0
146
0.0
 13
0.0
 23
0.0
 33
0.0
 16
1.0
 26
0.0
 36
0.0
 17
0.0
 27
1.0
 37
0.0
 76
     0
330
23
  0
LAYOUT
  5
22
102
{ACAD_REACTORS
330
1A
102
}
330
1A
100
AcDbPlotSettings
  1

  2
none_device
  4

  6

 40
0.0
 41
0.0
 42
0.0
 43
0.0
 44
0.0
 45
0.0
 46
0.0
 47
0.0
 48
0.0
 49
0.0
140
0.0
141
0.0
142
1.0
143
1.0
 70
  1712
 72
     0
 73
     0
 74
     0
  7

 75
     0
147
1.0
148
0.0
149
0.0
100
AcDbLayout
  1
Model
 70
     1
 71
     0
 10
0.0
 20
0.0
 11
12.0
 21
9.0
 12
0.0
 22
0.0
 32
0.0
 14
39.269775
 24
32.910645
 34
0.0
 15
898.682556
 25
829.505615
 35
0.0
146
0.0
 13
0.0
 23
0.0
 33
0.0
 16
1.0
 26
0.0
 36
0.0
 17
0.0
 27
1.0
 37
0.0
 76
     0
330
1F
331
29
  0
MLINESTYLE
  5
18
102
{ACAD_REACTORS
330
17
102
}
330
17
100
AcDbMlineStyle
  2
Standard
 70
     0
  3

 62
   256
 51
90.0
 52
90.0
 71
     2
 49
0.5
 62
   256
  6
BYLAYER
 49
-0.5
 62
   256
  6
BYLAYER
  0
ACDBPLACEHOLDER
  5
F
102
{ACAD_REACTORS
330
E
102
}
330
E
  0
VISUALSTYLE
  5
2F
102
{ACAD_REACTORS
330
2A
102
}
330
2A
100
AcDbVisualStyle
  2
2dWireframe
 70
     4
 71
     0
 72
     2
 73
     0
 90
        0
 40
-0.6
 41
-30.0
 62
     5
 63
     7
 74
     1
 91
        4
 64
     7
 65
   257
 75
     1
175
     1
 42
1.0
 92
        0
 66
   257
 43
1.0
 76
     1
 77
     6
 78
     2
 67
     7
 79
     5
170
     0
171
     0
290
     0
174
     0
 93
        1
 44
0.0
173
     0
291
     0
 45
0.0
1001
ACAD
1000
AcDbSavedByObjectVersion
1070
     0
  0
VISUALSTYLE
  5
31
102
{ACAD_REACTORS
330
2A
102
}
330
2A
100
AcDbVisualStyle
  2
3D Hidden
 70
     6
 71
     1
 72
     2
 73
     2
 90
        0
 40
-0.6
 41
-30.0
 62
     5
 63
     7
 74
     2
 91
        2
 64
     7
 65
   257
 75
     2
175
     1
 42
40.0
 92
        0
 66
   257
 43
1.0
 76
     1
 77
     6
 78
     2
 67
     7
 79
     3
170
     0
171
     0
290
     0
174
     0
 93
        1
 44
0.0
173
     0
291
     0
 45
0.0
1001
ACAD
1000
AcDbSavedByObjectVersion
1070
     0
  0
VISUALSTYLE
  5
30
102
{ACAD_REACTORS
330
2A
102
}
330
2A
100
AcDbVisualStyle
  2
3dWireframe
 70
     5
 71
     0
 72
     2
 73
     0
 90
        0
 40
-0.6
 41
-30.0
 62
     5
 63
     7
 74
     1
 91
        4
 64
     7
 65
   257
 75
     1
175
     1
 42
1.0
 92
        0
 66
   257
 43
1.0
 76
     1
 77
     6
 78
     2
 67
     7
 79
     5
170
     0
171
     0
290
     0
174
     0
 93
        1
 44
0.0
173
     0
291
     0
 45
0.0
1001
ACAD
1000
AcDbSavedByObjectVersion
1070
     0
  0
VISUALSTYLE
  5
32
102
{ACAD_REACTORS
330
2A
102
}
330
2A
100
AcDbVisualStyle
  2
Basic
 70
     7
 71
     1
 72
     0
 73
     1
 90
        0
 40
-0.6
 41
-30.0
 62
     5
 63
     7
 74
     0
 91
        4
 64
     7
 65
   257
 75
     1
175
     1
 42
1.0
 92
        8
 66
     7
 43
1.0
 76
     1
 77
     6
 78
     2
 67
     7
 79
     5
170
     0
171
     0
290
     0
174
     0
 93
        1
 44
0.0
173
     0
291
     1
 45
0.0
1001
ACAD
1000
AcDbSavedByObjectVersion
1070
     0
  0
VISUALSTYLE
  5
36
102
{ACAD_REACTORS
330
2A
102
}
330
2A
100
AcDbVisualStyle
  2
Brighten
 70
    12
 71
     2
 72
     2
 73
     0
 90
        0
 40
-0.6
 41
-30.0
 62
     5
 63
     7
 74
     1
 91
        4
 64
     7
 65
   257
 75
     1
175
     1
 42
1.0
 92
        8
 66
     7
 43
1.0
 76
     1
 77
     6
 78
     2
 67
     7
 79
     5
170
     0
171
     0
290
     0
174
     0
 93
        1
 44
50.0
173
     0
291
     1
 45
0.0
1001
ACAD
1000
AcDbSavedByObjectVersion
1070
     0
  0
VISUALSTYLE
  5
3A
102
{ACAD_REACTORS
330
2A
102
}
330
2A
100
AcDbVisualStyle
  2
ColorChange
 70
    16
 71
     2
 72
     2
 73
     3
 90
        0
 40
-0.6
 41
-30.0
 62
     5
 63
     8
 74
     1
 91
        4
 64
     7
 65
   257
 75
     1
175
     1
 42
1.0
 92
        8
 66
     8
 43
1.0
 76
     1
 77
     6
 78
     2
 67
     7
 79
     5
170
     0
171
     0
290
     0
174
     0
 93
        1
 44
0.0
173
     0
291
     1
 45
0.0
1001
ACAD
1000
AcDbSavedByObjectVersion
1070
     0
  0
VISUALSTYLE
  5
34
102
{ACAD_REACTORS
330
2A
102
}
330
2A
100
AcDbVisualStyle
  2
Conceptual
 70
     9
 71
     3
 72
     2
 73
     0
 90
        0
 40
-0.6
 41
-30.0
 62
     5
 63
     7
 74
     2
 91
        2
 64
     7
 65
   257
 75
     1
175
     1
 42
40.0
 92
        8
 66
     7
 43
1.0
 76
     1
 77
     6
 78
     2
 67
     7
 79
     3
170
     0
171
     0
290
     0
174
     0
 93
        1
 44
0.0
173
     0
291
     0
 45
0.0
1001
ACAD
1000
AcDbSavedByObjectVersion
1070
     0
  0
VISUALSTYLE
  5
35
102
{ACAD_REACTORS
330
2A
102
}
330
2A
100
AcDbVisualStyle
  2
Dim
 70
    11
 71
     2
 72
     2
 73
     0
 90
        0
 40
-0.6
 41
-30.0
 62
     5
 63
     7
 74
     1
 91
        4
 64
     7
 65
   257
 75
     1
175
     1
 42
1.0
 92
        8
 66
     7
 43
1.0
 76
     1
 77
     6
 78
     2
 67
     7
 79
     5
170
     0
171
     0
290
     0
174
     0
 93
        1
 44
-50.0
173
     0
291
     1
 45
0.0
1001
ACAD
1000
AcDbSavedByObjectVersion
1070
     0
  0
VISUALSTYLE
  5
39
102
{ACAD_REACTORS
330
2A
102
}
330
2A
100
AcDbVisualStyle
  2
Facepattern
 70
    15
 71
     2
 72
     2
 73
     0
 90
        0
 40
-0.6
 41
-30.0
 62
     5
 63
     7
 74
     1
 91
        4
 64
     7
 65
   257
 75
     1
175
     1
 42
1.0
 92
        8
 66
     7
 43
1.0
 76
     1
 77
     6
 78
     2
 67
     7
 79
     5
170
     0
171
     0
290
     0
174
     0
 93
        1
 44
0.0
173
     0
291
     1
 45
0.0
1001
ACAD
1000
AcDbSavedByObjectVersion
1070
     0
  0
VISUALSTYLE
  5
2B
102
{ACAD_REACTORS
330
2A
102
}
330
2A
100
AcDbVisualStyle
  2
Flat
 70
     0
 71
     2
 72
     1
 73
     1
 90
        2
 40
-0.6
 41
30.0
 62
     5
 63
     7
 74
     0
 91
        4
 64
     7
 65
   257
 75
     1
175
     1
 42
1.0
 92
        8
 66
     7
 43
1.0
 76
     1
 77
     6
 78
     2
 67
     7
 79
     5
170
     0
171
     0
290
     0
174
     0
 93
       13
 44
0.0
173
     0
291
     1
 45
0.0
1001
ACAD
1000
AcDbSavedByObjectVersion
1070
     0
  0
VISUALSTYLE
  5
2C
102
{ACAD_REACTORS
330
2A
102
}
330
2A
100
AcDbVisualStyle
  2
FlatWithEdges
 70
     1
 71
     2
 72
     1
 73
     1
 90
        2
 40
-0.6
 41
30.0
 62
     5
 63
     7
 74
     1
 91
        4
 64
     7
 65
   257
 75
     1
175
     1
 42
1.0
 92
        0
 66
   257
 43
1.0
 76
     1
 77
     6
 78
     2
 67
     7
 79
     5
170
     0
171
     0
290
     0
174
     0
 93
       13
 44
0.0
173
     0
291
     1
 45
0.0
1001
ACAD
1000
AcDbSavedByObjectVersion
1070
     0
  0
VISUALSTYLE
  5
2D
102
{ACAD_REACTORS
330
2A
102
}
330
2A
100
AcDbVisualStyle
  2
Gouraud
 70
     2
 71
     2
 72
     2
 73
     1
 90
        2
 40
-0.6
 41
30.0
 62
     5
 63
     7
 74
     0
 91
        4
 64
     7
 65
   257
 75
     1
175
     1
 42
1.0
 92
        0
 66
     7
 43
1.0
 76
     1
 77
     6
 78
     2
 67
     7
 79
     5
170
     0
171
     0
290
     0
174
     0
 93
       13
 44
0.0
173
     0
291
     1
 45
0.0
1001
ACAD
1000
AcDbSavedByObjectVersion
1070
     0
  0
VISUALSTYLE
  5
2E
102
{ACAD_REACTORS
330
2A
102
}
330
2A
100
AcDbVisualStyle
  2
GouraudWithEdges
 70
     3
 71
     2
 72
     2
 73
     1
 90
        2
 40
-0.6
 41
30.0
 62
     5
 63
     7
 74
     1
 91
        4
 64
     7
 65
   257
 75
     1
175
     1
 42
1.0
 92
        0
 66
   257
 43
1.0
 76
     1
 77
     6
 78
     2
 67
     7
 79
     5
170
     0
171
     0
290
     0
174
     0
 93
       13
 44
0.0
173
     0
291
     1
 45
0.0
1001
ACAD
1000
AcDbSavedByObjectVersion
1070
     0
  0
VISUALSTYLE
  5
38
102
{ACAD_REACTORS
330
2A
102
}
330
2A
100
AcDbVisualStyle
  2
Linepattern
 70
    14
 71
     2
 72
     2
 73
     0
 90
        0
 40
-0.6
 41
-30.0
 62
     5
 63
     7
 74
     1
 91
        4
 64
     7
 65
   257
 75
     7
175
     7
 42
1.0
 92
        8
 66
     7
 43
1.0
 76
     1
 77
     6
 78
     2
 67
     7
 79
     5
170
     0
171
     0
290
     0
174
     0
 93
        1
 44
0.0
173
     0
291
     1
 45
0.0
1001
ACAD
1000
AcDbSavedByObjectVersion
1070
     0
  0
VISUALSTYLE
  5
33
102
{ACAD_REACTORS
330
2A
102
}
330
2A
100
AcDbVisualStyle
  2
Realistic
 70
     8
 71
     2
 72
     2
 73
     0
 90
        0
 40
-0.6
 41
-30.0
 62
     5
 63
     7
 74
     1
 91
        0
 64
     7
 65
   257
 75
     1
175
     1
 42
1.0
 92
        8
 66
     8
 43
1.0
 76
     1
 77
     6
 78
     2
 67
     7
 79
     5
170
     0
171
     0
290
     0
174
     0
 93
       13
 44
0.0
173
     0
291
     0
 45
0.0
1001
ACAD
1000
AcDbSavedByObjectVersion
1070
     0
  0
VISUALSTYLE
  5
37
102
{ACAD_REACTORS
330
2A
102
}
330
2A
100
AcDbVisualStyle
  2
Thicken
 70
    13
 71
     2
 72
     2
 73
     0
 90
        0
 40
-0.6
 41
-30.0
 62
     5
 63
     7
 74
     1
 91
        4
 64
     7
 65
   257
 75
     1
175
     1
 42
1.0
 92
       12
 66
     7
 43
1.0
 76
     1
 77
     6
 78
     2
 67
     7
 79
     5
170
     0
171
     0
290
     0
174
     0
 93
        1
 44
0.0
173
     0
291
     1
 45
0.0
1001
ACAD
1000
AcDbSavedByObjectVersion
1070
     0
  0
DICTIONARYVAR
  5
6FA
102
{ACAD_REACTORS
330
6F6
102
}
330
6F6
100
DictionaryVariables
280
     0
  1
80.000000
  0
DICTIONARYVAR
  5
6F9
102
{ACAD_REACTORS
330
6F6
102
}
330
6F6
100
DictionaryVariables
280
     0
  1
5.000000
  0
ENDSEC
  0
EOF
