  0
SECTION
  2
HEADER
  9
$ACADVER
  1
AC1015
  9
$ACADMAINTVER
 70
     6
  9
$DWGCODEPAGE
  3
ANSI_932
  9
$INSBASE
 10
0.0
 20
0.0
 30
0.0
  9
$EXTMIN
 10
128.289551
 20
61.727783
 30
0.0
  9
$EXTMAX
 10
921.297974
 20
959.279602
 30
0.0
  9
$LIMMIN
 10
0.0
 20
0.0
  9
$LIMMAX
 10
12.0
 20
9.0
  9
$ORTHOMODE
 70
     0
  9
$REGENMODE
 70
     1
  9
$FILLMODE
 70
     1
  9
$QTEXTMODE
 70
     0
  9
$MIRRTEXT
 70
     1
  9
$LTSCALE
 40
11.976901
  9
$ATTMODE
 70
     1
  9
$TEXTSIZE
 40
3.2
  9
$TRACEWID
 40
1.0
  9
$TEXTSTYLE
  7
Standard
  9
$CLAYER
  8
0
  9
$CELTYPE
  6
ByLayer
  9
$CECOLOR
 62
   256
  9
$CELTSCALE
 40
1.0
  9
$DISPSILH
 70
     0
  9
$DIMSCALE
 40
1.0
  9
$DIMASZ
 40
2.5
  9
$DIMEXO
 40
0.625
  9
$DIMDLI
 40
3.75
  9
$DIMRND
 40
0.0
  9
$DIMDLE
 40
0.0
  9
$DIMEXE
 40
1.25
  9
$DIMTP
 40
0.0
  9
$DIMTM
 40
0.0
  9
$DIMTXT
 40
2.5
  9
$DIMCEN
 40
0.09
  9
$DIMTSZ
 40
0.0
  9
$DIMTOL
 70
     0
  9
$DIMLIM
 70
     0
  9
$DIMTIH
 70
     0
  9
$DIMTOH
 70
     0
  9
$DIMSE1
 70
     0
  9
$DIMSE2
 70
     0
  9
$DIMTAD
 70
     0
  9
$DIMZIN
 70
     8
  9
$DIMBLK
  1

  9
$DIMASO
 70
     1
  9
$DIMSHO
 70
     0
  9
$DIMPOST
  1

  9
$DIMAPOST
  1

  9
$DIMALT
 70
     0
  9
$DIMALTD
 70
     3
  9
$DIMALTF
 40
0.03937
  9
$DIMLFAC
 40
1.0
  9
$DIMTOFL
 70
     1
  9
$DIMTVP
 40
0.0
  9
$DIMTIX
 70
     0
  9
$DIMSOXD
 70
     0
  9
$DIMSAH
 70
     0
  9
$DIMBLK1
  1

  9
$DIMBLK2
  1

  9
$DIMSTYLE
  2
ISO-25
  9
$DIMCLRD
 70
     0
  9
$DIMCLRE
 70
     0
  9
$DIMCLRT
 70
     0
  9
$DIMTFAC
 40
1.0
  9
$DIMGAP
 40
0.625
  9
$DIMJUST
 70
     0
  9
$DIMSD1
 70
     0
  9
$DIMSD2
 70
     0
  9
$DIMTOLJ
 70
     0
  9
$DIMTZIN
 70
     8
  9
$DIMALTZ
 70
     0
  9
$DIMALTTZ
 70
     0
  9
$DIMUPT
 70
     0
  9
$DIMDEC
 70
     2
  9
$DIMTDEC
 70
     2
  9
$DIMALTU
 70
     2
  9
$DIMALTTD
 70
     3
  9
$DIMTXSTY
  7
Standard
  9
$DIMAUNIT
 70
     0
  9
$DIMADEC
 70
     0
  9
$DIMALTRND
 40
0.0
  9
$DIMAZIN
 70
     0
  9
$DIMDSEP
 70
    44
  9
$DIMATFIT
 70
     3
  9
$DIMFRAC
 70
     0
  9
$DIMLDRBLK
  1

  9
$DIMLUNIT
 70
     2
  9
$DIMLWD
 70
    -2
  9
$DIMLWE
 70
    -2
  9
$DIMTMOVE
 70
     0
  9
$LUNITS
 70
     2
  9
$LUPREC
 70
     4
  9
$SKETCHINC
 40
1.0
  9
$FILLETRAD
 40
0.0
  9
$AUNITS
 70
     0
  9
$AUPREC
 70
     0
  9
$MENU
  1
.
  9
$ELEVATION
 40
0.0
  9
$PELEVATION
 40
0.0
  9
$THICKNESS
 40
0.0
  9
$LIMCHECK
 70
     0
  9
$CHAMFERA
 40
10.0
  9
$CHAMFERB
 40
10.0
  9
$CHAMFERC
 40
20.0
  9
$CHAMFERD
 40
0.0
  9
$SKPOLY
 70
     0
  9
$TDCREATE
 40
2455649.657115162
  9
$TDUCREATE
 40
2455649.282115162
  9
$TDUPDATE
 40
2455649.657115174
  9
$TDUUPDATE
 40
2455649.282115174
  9
$TDINDWG
 40
0.0000000116
  9
$TDUSRTIMER
 40
0.0000000116
  9
$USRTIMER
 70
     1
  9
$ANGBASE
 50
0.0
  9
$ANGDIR
 70
     0
  9
$PDMODE
 70
     0
  9
$PDSIZE
 40
0.0
  9
$PLINEWID
 40
0.0
  9
$SPLFRAME
 70
     0
  9
$SPLINETYPE
 70
     6
  9
$SPLINESEGS
 70
     8
  9
$HANDSEED
  5
624
  9
$SURFTAB1
 70
     6
  9
$SURFTAB2
 70
     6
  9
$SURFTYPE
 70
     6
  9
$SURFU
 70
     6
  9
$SURFV
 70
     6
  9
$UCSBASE
  2

  9
$UCSNAME
  2

  9
$UCSORG
 10
0.0
 20
0.0
 30
0.0
  9
$UCSXDIR
 10
1.0
 20
0.0
 30
0.0
  9
$UCSYDIR
 10
0.0
 20
1.0
 30
0.0
  9
$UCSORTHOREF
  2

  9
$UCSORTHOVIEW
 70
     0
  9
$UCSORGTOP
 10
0.0
 20
0.0
 30
0.0
  9
$UCSORGBOTTOM
 10
0.0
 20
0.0
 30
0.0
  9
$UCSORGLEFT
 10
0.0
 20
0.0
 30
0.0
  9
$UCSORGRIGHT
 10
0.0
 20
0.0
 30
0.0
  9
$UCSORGFRONT
 10
0.0
 20
0.0
 30
0.0
  9
$UCSORGBACK
 10
0.0
 20
0.0
 30
0.0
  9
$PUCSBASE
  2

  9
$PUCSNAME
  2

  9
$PUCSORG
 10
0.0
 20
0.0
 30
0.0
  9
$PUCSXDIR
 10
1.0
 20
0.0
 30
0.0
  9
$PUCSYDIR
 10
0.0
 20
1.0
 30
0.0
  9
$PUCSORTHOREF
  2

  9
$PUCSORTHOVIEW
 70
     0
  9
$PUCSORGTOP
 10
0.0
 20
0.0
 30
0.0
  9
$PUCSORGBOTTOM
 10
0.0
 20
0.0
 30
0.0
  9
$PUCSORGLEFT
 10
0.0
 20
0.0
 30
0.0
  9
$PUCSORGRIGHT
 10
0.0
 20
0.0
 30
0.0
  9
$PUCSORGFRONT
 10
0.0
 20
0.0
 30
0.0
  9
$PUCSORGBACK
 10
0.0
 20
0.0
 30
0.0
  9
$USERI1
 70
     0
  9
$USERI2
 70
     0
  9
$USERI3
 70
     0
  9
$USERI4
 70
     0
  9
$USERI5
 70
     0
  9
$USERR1
 40
0.0
  9
$USERR2
 40
0.0
  9
$USERR3
 40
0.0
  9
$USERR4
 40
0.0
  9
$USERR5
 40
0.0
  9
$WORLDVIEW
 70
     1
  9
$SHADEDGE
 70
     3
  9
$SHADEDIF
 70
    70
  9
$TILEMODE
 70
     1
  9
$MAXACTVP
 70
    64
  9
$PINSBASE
 10
0.0
 20
0.0
 30
0.0
  9
$PLIMCHECK
 70
     0
  9
$PEXTMIN
 10
1.000000E+20
 20
1.000000E+20
 30
0.0
  9
$PEXTMAX
 10
-1.000000E+20
 20
-1.000000E+20
 30
0.0
  9
$PLIMMIN
 10
0.0
 20
0.0
  9
$PLIMMAX
 10
12.0
 20
9.0
  9
$UNITMODE
 70
     0
  9
$VISRETAIN
 70
     1
  9
$PLINEGEN
 70
     0
  9
$PSLTSCALE
 70
     1
  9
$TREEDEPTH
 70
  3020
  9
$CMLSTYLE
  2
Standard
  9
$CMLJUST
 70
     0
  9
$CMLSCALE
 40
20.0
  9
$PROXYGRAPHICS
 70
     1
  9
$MEASUREMENT
 70
     1
  9
$CELWEIGHT
370
    -1
  9
$ENDCAPS
280
     0
  9
$JOINSTYLE
280
     0
  9
$LWDISPLAY
290
     0
  9
$INSUNITS
 70
     4
  9
$HYPERLINKBASE
  1

  9
$STYLESHEET
  1

  9
$XEDIT
290
     1
  9
$CEPSNTYPE
380
     0
  9
$PSTYLEMODE
290
     1
  9
$FINGERPRINTGUID
  2
{F34CC8A3-C58F-404D-ACAD-BD6EDC7AF7E9}
  9
$VERSIONGUID
  2
{FAEB1C32-E019-11D5-929B-00C0DF256EC4}
  9
$EXTNAMES
290
     1
  9
$PSVPSCALE
 40
0.0
  9
$OLESTARTUP
290
     0
  0
ENDSEC
  0
SECTION
  2
CLASSES
  0
CLASS
  1
ACDBDICTIONARYWDFLT
  2
AcDbDictionaryWithDefault
  3
ObjectDBX Classes
 90
        0
280
     0
281
     0
  0
CLASS
  1
VISUALSTYLE
  2
AcDbVisualStyle
  3
ObjectDBX Classes
 90
     4095
280
     0
281
     0
  0
CLASS
  1
DICTIONARYVAR
  2
AcDbDictionaryVar
  3
ObjectDBX Classes
 90
        0
280
     0
281
     0
  0
CLASS
  1
ACDBPLACEHOLDER
  2
AcDbPlaceHolder
  3
ObjectDBX Classes
 90
        0
280
     0
281
     0
  0
CLASS
  1
LAYOUT
  2
AcDbLayout
  3
ObjectDBX Classes
 90
        0
280
     0
281
     0
  0
ENDSEC
  0
SECTION
  2
TABLES
  0
TABLE
  2
VPORT
  5
8
330
0
100
AcDbSymbolTable
 70
     1
  0
VPORT
  5
29
330
8
100
AcDbSymbolTableRecord
100
AcDbViewportTableRecord
  2
*Active
 70
     0
 10
0.0
 20
0.0
 11
1.0
 21
1.0
 12
524.793762
 22
510.503693
 13
0.0
 23
0.0
 14
1.0
 24
1.0
 15
0.0
 25
0.0
 16
0.0
 26
0.0
 36
1.0
 17
0.0
 27
0.0
 37
0.0
 40
906.527337
 41
1.691288
 42
50.0
 43
0.0
 44
0.0
 50
0.0
 51
0.0
 71
     0
 72
   100
 73
     1
 74
     3
 75
     0
 76
     0
 77
     0
 78
     0
281
     0
 65
     1
110
0.0
120
0.0
130
0.0
111
1.0
121
0.0
131
0.0
112
0.0
122
1.0
132
0.0
 79
     0
146
0.0
  0
ENDTAB
  0
TABLE
  2
LTYPE
  5
5
330
0
100
AcDbSymbolTable
 70
     5
  0
LTYPE
  5
14
330
5
100
AcDbSymbolTableRecord
100
AcDbLinetypeTableRecord
  2
ByBlock
 70
     0
  3

 72
    65
 73
     0
 40
0.0
  0
LTYPE
  5
15
330
5
100
AcDbSymbolTableRecord
100
AcDbLinetypeTableRecord
  2
ByLayer
 70
     0
  3

 72
    65
 73
     0
 40
0.0
  0
LTYPE
  5
16
330
5
100
AcDbSymbolTableRecord
100
AcDbLinetypeTableRecord
  2
Continuous
 70
     0
  3
Solid line
 72
    65
 73
     0
 40
0.0
  0
LTYPE
  5
3B
330
5
100
AcDbSymbolTableRecord
100
AcDbLinetypeTableRecord
  2
DASHED
 70
     0
  3
DASHED
 72
    83
 73
     2
 40
0.75
 49
0.5
 74
     0
 49
-0.25
 74
     0
  0
LTYPE
  5
3C
330
5
100
AcDbSymbolTableRecord
100
AcDbLinetypeTableRecord
  2
HIDDEN
 70
     0
  3
HIDDEN
 72
    83
 73
     2
 40
0.375
 49
0.25
 74
     0
 49
-0.125
 74
     0
  0
LTYPE
  5
3D
330
5
100
AcDbSymbolTableRecord
100
AcDbLinetypeTableRecord
  2
CENTER
 70
     0
  3
CENTER
 72
    83
 73
     4
 40
2.0
 49
1.25
 74
     0
 49
-0.25
 74
     0
 49
0.25
 74
     0
 49
-0.25
 74
     0
  0
LTYPE
  5
3E
330
5
100
AcDbSymbolTableRecord
100
AcDbLinetypeTableRecord
  2
PHANTOM
 70
     0
  3
PHANTOM
 72
    83
 73
     6
 40
2.5
 49
1.25
 74
     0
 49
-0.25
 74
     0
 49
0.25
 74
     0
 49
-0.25
 74
     0
 49
0.25
 74
     0
 49
-0.25
 74
     0
  0
ENDTAB
  0
TABLE
  2
LAYER
  5
2
330
0
100
AcDbSymbolTable
 70
     4
  0
LAYER
  5
10
330
2
100
AcDbSymbolTableRecord
100
AcDbLayerTableRecord
  2
0
 70
     0
 62
     7
  6
Continuous
370
    -3
390
F
  0
LAYER
  5
3F
330
2
100
AcDbSymbolTableRecord
100
AcDbLayerTableRecord
  2
001
 70
     0
 62
     7
  6
Continuous
370
    -3
390
F
  0
LAYER
  5
40
330
2
100
AcDbSymbolTableRecord
100
AcDbLayerTableRecord
  2
002
 70
     0
 62
     7
  6
Continuous
370
    -3
390
F
  0
LAYER
  5
41
330
2
100
AcDbSymbolTableRecord
100
AcDbLayerTableRecord
  2
003
 70
     0
 62
     7
  6
Continuous
370
    -3
390
F
  0
ENDTAB
  0
TABLE
  2
STYLE
  5
3
330
0
100
AcDbSymbolTable
 70
     2
  0
STYLE
  5
11
330
3
100
AcDbSymbolTableRecord
100
AcDbTextStyleTableRecord
  2
Standard
 70
     0
 40
0.0
 41
1.0
 50
0.0
 71
     0
 42
0.2
  3
TXT
  4
BIGFONT
  0
STYLE
  5
42
330
3
100
AcDbSymbolTableRecord
100
AcDbTextStyleTableRecord
  2
TATEGAKI
 70
     4
 40
1.0
 41
1.0
 50
0.0
 71
     0
 42
0.2
  3
TXT
  4
BIGFONT
  0
ENDTAB
  0
TABLE
  2
VIEW
  5
6
330
0
100
AcDbSymbolTable
 70
     0
  0
ENDTAB
  0
TABLE
  2
UCS
  5
7
330
0
100
AcDbSymbolTable
 70
     0
  0
ENDTAB
  0
TABLE
  2
APPID
  5
9
330
0
100
AcDbSymbolTable
 70
     1
  0
APPID
  5
12
330
9
100
AcDbSymbolTableRecord
100
AcDbRegAppTableRecord
  2
ACAD
 70
     0
  0
ENDTAB
  0
TABLE
  2
DIMSTYLE
  5
A
330
0
100
AcDbSymbolTable
 70
     2
100
AcDbDimStyleTable
  0
DIMSTYLE
105
27
330
A
100
AcDbSymbolTableRecord
100
AcDbDimStyleTableRecord
  2
ISO-25
 70
     0
 41
2.5
 42
0.625
 43
3.75
 44
1.25
 73
     0
 74
     0
 77
     1
 78
     8
140
2.5
141
2.5
143
0.03937
147
0.625
171
     3
172
     1
271
     2
272
     2
274
     3
278
    44
283
     0
284
     8
340
11
  0
DIMSTYLE
105
43
330
A
100
AcDbSymbolTableRecord
100
AcDbDimStyleTableRecord
  2
Standard
 70
     0
 41
3.0
 42
0.5
 44
0.7
 73
     0
 74
     0
 77
     1
 78
     8
 79
     2
140
4.0
146
0.65
147
1.0
172
     1
179
     3
271
     3
283
     2
340
11
  0
ENDTAB
  0
TABLE
  2
BLOCK_RECORD
  5
1
330
0
100
AcDbSymbolTable
 70
    17
  0
BLOCK_RECORD
  5
1F
330
1
100
AcDbSymbolTableRecord
100
AcDbBlockTableRecord
  2
*Model_Space
340
22
  0
BLOCK_RECORD
  5
1B
330
1
100
AcDbSymbolTableRecord
100
AcDbBlockTableRecord
  2
*Paper_Space
340
1E
  0
BLOCK_RECORD
  5
23
330
1
100
AcDbSymbolTableRecord
100
AcDbBlockTableRecord
  2
*Paper_Space0
340
26
  0
BLOCK_RECORD
  5
44
330
1
100
AcDbSymbolTableRecord
100
AcDbBlockTableRecord
  2
ETC-1
340
0
102
{BLKREFS
331
B4
102
}
  0
BLOCK_RECORD
  5
4B
330
1
100
AcDbSymbolTableRecord
100
AcDbBlockTableRecord
  2
ETC-2
340
0
102
{BLKREFS
331
B5
102
}
  0
BLOCK_RECORD
  5
52
330
1
100
AcDbSymbolTableRecord
100
AcDbBlockTableRecord
  2
ETC-3
340
0
102
{BLKREFS
331
B6
102
}
  0
BLOCK_RECORD
  5
59
330
1
100
AcDbSymbolTableRecord
100
AcDbBlockTableRecord
  2
ETC-4
340
0
102
{BLKREFS
331
B7
102
}
  0
BLOCK_RECORD
  5
60
330
1
100
AcDbSymbolTableRecord
100
AcDbBlockTableRecord
  2
ETC-5
340
0
102
{BLKREFS
331
B8
102
}
  0
BLOCK_RECORD
  5
67
330
1
100
AcDbSymbolTableRecord
100
AcDbBlockTableRecord
  2
ETC-6
340
0
102
{BLKREFS
331
B9
102
}
  0
BLOCK_RECORD
  5
6E
330
1
100
AcDbSymbolTableRecord
100
AcDbBlockTableRecord
  2
ETC-7
340
0
102
{BLKREFS
331
BA
102
}
  0
BLOCK_RECORD
  5
75
330
1
100
AcDbSymbolTableRecord
100
AcDbBlockTableRecord
  2
ETC-8
340
0
102
{BLKREFS
331
BB
102
}
  0
BLOCK_RECORD
  5
7C
330
1
100
AcDbSymbolTableRecord
100
AcDbBlockTableRecord
  2
ETC-9
340
0
102
{BLKREFS
331
BC
102
}
  0
BLOCK_RECORD
  5
83
330
1
100
AcDbSymbolTableRecord
100
AcDbBlockTableRecord
  2
ETC-10
340
0
102
{BLKREFS
331
BD
102
}
  0
BLOCK_RECORD
  5
8A
330
1
100
AcDbSymbolTableRecord
100
AcDbBlockTableRecord
  2
ETC-11
340
0
102
{BLKREFS
331
BE
102
}
  0
BLOCK_RECORD
  5
91
330
1
100
AcDbSymbolTableRecord
100
AcDbBlockTableRecord
  2
ETC-12
340
0
102
{BLKREFS
331
BF
102
}
  0
BLOCK_RECORD
  5
98
330
1
100
AcDbSymbolTableRecord
100
AcDbBlockTableRecord
  2
ETC-13
340
0
102
{BLKREFS
331
C0
102
}
  0
BLOCK_RECORD
  5
9F
330
1
100
AcDbSymbolTableRecord
100
AcDbBlockTableRecord
  2
ETC-14
340
0
102
{BLKREFS
331
C1
102
}
  0
BLOCK_RECORD
  5
A6
330
1
100
AcDbSymbolTableRecord
100
AcDbBlockTableRecord
  2
ETC-15
340
0
102
{BLKREFS
331
C2
102
}
  0
BLOCK_RECORD
  5
AD
330
1
100
AcDbSymbolTableRecord
100
AcDbBlockTableRecord
  2
ETC-16
340
0
102
{BLKREFS
331
C3
102
}
  0
ENDTAB
  0
ENDSEC
  0
SECTION
  2
BLOCKS
  0
BLOCK
  5
20
330
1F
100
AcDbEntity
  8
0
100
AcDbBlockBegin
  2
*Model_Space
 70
     0
 10
0.0
 20
0.0
 30
0.0
  3
*Model_Space
  1

  0
ENDBLK
  5
21
330
1F
100
AcDbEntity
  8
0
100
AcDbBlockEnd
  0
BLOCK
  5
1C
330
1B
100
AcDbEntity
 67
     1
  8
0
100
AcDbBlockBegin
  2
*Paper_Space
 70
     0
 10
0.0
 20
0.0
 30
0.0
  3
*Paper_Space
  1

  0
ENDBLK
  5
1D
330
1B
100
AcDbEntity
 67
     1
  8
0
100
AcDbBlockEnd
  0
BLOCK
  5
24
330
23
100
AcDbEntity
  8
0
100
AcDbBlockBegin
  2
*Paper_Space0
 70
     0
 10
0.0
 20
0.0
 30
0.0
  3
*Paper_Space0
  1

  0
ENDBLK
  5
25
330
23
100
AcDbEntity
  8
0
100
AcDbBlockEnd
  0
BLOCK
  5
45
330
44
100
AcDbEntity
  8
0
100
AcDbBlockBegin
  2
ETC-1
 70
     0
 10
0.0
 20
0.0
 30
0.0
  3
ETC-1
  1

  0
LINE
  5
47
330
44
100
AcDbEntity
  8
002
 62
     3
370
    30
100
AcDbLine
 10
180.107504
 20
545.864304
 30
0.0
 11
179.724473
 21
546.039078
 31
0.0
  0
LINE
  5
48
330
44
100
AcDbEntity
  8
002
 62
     3
370
    30
100
AcDbLine
 10
179.724473
 20
546.039078
 30
0.0
 11
179.31362
 21
546.10997
 31
0.0
  0
LINE
  5
49
330
44
100
AcDbEntity
  8
002
 62
     3
370
    30
100
AcDbLine
 10
179.31362
 20
546.10997
 30
0.0
 11
178.902783
 21
546.039055
 31
0.0
  0
LINE
  5
4A
330
44
100
AcDbEntity
  8
002
 62
     3
370
    30
100
AcDbLine
 10
178.902783
 20
546.039055
 30
0.0
 11
178.519766
 21
545.864273
 31
0.0
  0
ENDBLK
  5
46
330
44
100
AcDbEntity
  8
0
100
AcDbBlockEnd
  0
BLOCK
  5
4C
330
4B
100
AcDbEntity
  8
0
100
AcDbBlockBegin
  2
ETC-2
 70
     0
 10
0.0
 20
0.0
 30
0.0
  3
ETC-2
  1

  0
LINE
  5
4E
330
4B
100
AcDbEntity
  8
002
 62
     3
370
    30
100
AcDbLine
 10
178.519766
 20
545.864273
 30
0.0
 11
177.734152
 21
546.042824
 31
0.0
  0
LINE
  5
4F
330
4B
100
AcDbEntity
  8
002
 62
     3
370
    30
100
AcDbLine
 10
177.734152
 20
546.042824
 30
0.0
 11
176.931982
 21
546.10997
 31
0.0
  0
LINE
  5
50
330
4B
100
AcDbEntity
  8
002
 62
     3
370
    30
100
AcDbLine
 10
176.931982
 20
546.10997
 30
0.0
 11
176.129784
 21
546.042847
 31
0.0
  0
LINE
  5
51
330
4B
100
AcDbEntity
  8
002
 62
     3
370
    30
100
AcDbLine
 10
176.129784
 20
546.042847
 30
0.0
 11
175.344137
 21
545.864304
 31
0.0
  0
ENDBLK
  5
4D
330
4B
100
AcDbEntity
  8
0
100
AcDbBlockEnd
  0
BLOCK
  5
53
330
52
100
AcDbEntity
  8
0
100
AcDbBlockBegin
  2
ETC-3
 70
     0
 10
0.0
 20
0.0
 30
0.0
  3
ETC-3
  1

  0
LINE
  5
55
330
52
100
AcDbEntity
  8
002
 62
     3
370
    30
100
AcDbLine
 10
175.344137
 20
545.864304
 30
0.0
 11
174.961136
 21
546.039071
 31
0.0
  0
LINE
  5
56
330
52
100
AcDbEntity
  8
002
 62
     3
370
    30
100
AcDbLine
 10
174.961136
 20
546.039071
 30
0.0
 11
174.550314
 21
546.10997
 31
0.0
  0
LINE
  5
57
330
52
100
AcDbEntity
  8
002
 62
     3
370
    30
100
AcDbLine
 10
174.550314
 20
546.10997
 30
0.0
 11
174.139477
 21
546.039086
 31
0.0
  0
LINE
  5
58
330
52
100
AcDbEntity
  8
002
 62
     3
370
    30
100
AcDbLine
 10
174.139477
 20
546.039086
 30
0.0
 11
173.75646
 21
545.864319
 31
0.0
  0
ENDBLK
  5
54
330
52
100
AcDbEntity
  8
0
100
AcDbBlockEnd
  0
BLOCK
  5
5A
330
59
100
AcDbEntity
  8
0
100
AcDbBlockBegin
  2
ETC-4
 70
     0
 10
0.0
 20
0.0
 30
0.0
  3
ETC-4
  1

  0
LINE
  5
5C
330
59
100
AcDbEntity
  8
002
 62
     3
370
    30
100
AcDbLine
 10
173.756476
 20
509.871338
 30
0.0
 11
174.139502
 21
509.696564
 31
0.0
  0
LINE
  5
5D
330
59
100
AcDbEntity
  8
002
 62
     3
370
    30
100
AcDbLine
 10
174.139502
 20
509.696564
 30
0.0
 11
174.550345
 21
509.625672
 31
0.0
  0
LINE
  5
5E
330
59
100
AcDbEntity
  8
002
 62
     3
370
    30
100
AcDbLine
 10
174.550345
 20
509.625672
 30
0.0
 11
174.961189
 21
509.696587
 31
0.0
  0
LINE
  5
5F
330
59
100
AcDbEntity
  8
002
 62
     3
370
    30
100
AcDbLine
 10
174.961189
 20
509.696587
 30
0.0
 11
175.344214
 21
509.871369
 31
0.0
  0
ENDBLK
  5
5B
330
59
100
AcDbEntity
  8
0
100
AcDbBlockEnd
  0
BLOCK
  5
61
330
60
100
AcDbEntity
  8
0
100
AcDbBlockBegin
  2
ETC-5
 70
     0
 10
0.0
 20
0.0
 30
0.0
  3
ETC-5
  1

  0
LINE
  5
63
330
60
100
AcDbEntity
  8
002
 62
     3
370
    30
100
AcDbLine
 10
175.344214
 20
509.871369
 30
0.0
 11
176.129828
 21
509.692818
 31
0.0
  0
LINE
  5
64
330
60
100
AcDbEntity
  8
002
 62
     3
370
    30
100
AcDbLine
 10
176.129828
 20
509.692818
 30
0.0
 11
176.931998
 21
509.625672
 31
0.0
  0
LINE
  5
65
330
60
100
AcDbEntity
  8
002
 62
     3
370
    30
100
AcDbLine
 10
176.931998
 20
509.625672
 30
0.0
 11
177.734196
 21
509.692795
 31
0.0
  0
LINE
  5
66
330
60
100
AcDbEntity
  8
002
 62
     3
370
    30
100
AcDbLine
 10
177.734196
 20
509.692795
 30
0.0
 11
178.519842
 21
509.871338
 31
0.0
  0
ENDBLK
  5
62
330
60
100
AcDbEntity
  8
0
100
AcDbBlockEnd
  0
BLOCK
  5
68
330
67
100
AcDbEntity
  8
0
100
AcDbBlockBegin
  2
ETC-6
 70
     0
 10
0.0
 20
0.0
 30
0.0
  3
ETC-6
  1

  0
LINE
  5
6A
330
67
100
AcDbEntity
  8
002
 62
     3
370
    30
100
AcDbLine
 10
178.519842
 20
509.871338
 30
0.0
 11
178.902844
 21
509.696572
 31
0.0
  0
LINE
  5
6B
330
67
100
AcDbEntity
  8
002
 62
     3
370
    30
100
AcDbLine
 10
178.902844
 20
509.696572
 30
0.0
 11
179.313666
 21
509.625672
 31
0.0
  0
LINE
  5
6C
330
67
100
AcDbEntity
  8
002
 62
     3
370
    30
100
AcDbLine
 10
179.313666
 20
509.625672
 30
0.0
 11
179.724503
 21
509.696556
 31
0.0
  0
LINE
  5
6D
330
67
100
AcDbEntity
  8
002
 62
     3
370
    30
100
AcDbLine
 10
179.724503
 20
509.696556
 30
0.0
 11
180.107519
 21
509.871323
 31
0.0
  0
ENDBLK
  5
69
330
67
100
AcDbEntity
  8
0
100
AcDbBlockEnd
  0
BLOCK
  5
6F
330
6E
100
AcDbEntity
  8
0
100
AcDbBlockBegin
  2
ETC-7
 70
     0
 10
0.0
 20
0.0
 30
0.0
  3
ETC-7
  1

  0
LINE
  5
71
330
6E
100
AcDbEntity
  8
002
 62
     3
370
    30
100
AcDbLine
 10
169.950125
 20
348.064458
 30
0.0
 11
170.7035
 21
348.314456
 31
0.0
  0
LINE
  5
72
330
6E
100
AcDbEntity
  8
002
 62
     3
370
    30
100
AcDbLine
 10
170.7035
 20
348.314456
 30
0.0
 11
171.456877
 21
348.56445
 31
0.0
  0
LINE
  5
73
330
6E
100
AcDbEntity
  8
002
 62
     3
370
    30
100
AcDbLine
 10
171.456877
 20
348.56445
 30
0.0
 11
172.210254
 21
348.814445
 31
0.0
  0
LINE
  5
74
330
6E
100
AcDbEntity
  8
002
 62
     3
370
    30
100
AcDbLine
 10
172.210254
 20
348.814445
 30
0.0
 11
172.963629
 21
349.064443
 31
0.0
  0
ENDBLK
  5
70
330
6E
100
AcDbEntity
  8
0
100
AcDbBlockEnd
  0
BLOCK
  5
76
330
75
100
AcDbEntity
  8
0
100
AcDbBlockBegin
  2
ETC-8
 70
     0
 10
0.0
 20
0.0
 30
0.0
  3
ETC-8
  1

  0
LINE
  5
78
330
75
100
AcDbEntity
  8
002
 62
     3
370
    30
100
AcDbLine
 10
183.914374
 20
348.064458
 30
0.0
 11
183.160999
 21
348.314458
 31
0.0
  0
LINE
  5
79
330
75
100
AcDbEntity
  8
002
 62
     3
370
    30
100
AcDbLine
 10
183.160999
 20
348.314458
 30
0.0
 11
182.407622
 21
348.564458
 31
0.0
  0
LINE
  5
7A
330
75
100
AcDbEntity
  8
002
 62
     3
370
    30
100
AcDbLine
 10
182.407622
 20
348.564458
 30
0.0
 11
181.654245
 21
348.814458
 31
0.0
  0
LINE
  5
7B
330
75
100
AcDbEntity
  8
002
 62
     3
370
    30
100
AcDbLine
 10
181.654245
 20
348.814458
 30
0.0
 11
180.90087
 21
349.064458
 31
0.0
  0
ENDBLK
  5
77
330
75
100
AcDbEntity
  8
0
100
AcDbBlockEnd
  0
BLOCK
  5
7D
330
7C
100
AcDbEntity
  8
0
100
AcDbBlockBegin
  2
ETC-9
 70
     0
 10
0.0
 20
0.0
 30
0.0
  3
ETC-9
  1

  0
LINE
  5
7F
330
7C
100
AcDbEntity
  8
002
 62
     3
370
    30
100
AcDbLine
 10
695.338125
 20
217.883098
 30
0.0
 11
696.0915
 21
218.133096
 31
0.0
  0
LINE
  5
80
330
7C
100
AcDbEntity
  8
002
 62
     3
370
    30
100
AcDbLine
 10
696.0915
 20
218.133096
 30
0.0
 11
696.844877
 21
218.38309
 31
0.0
  0
LINE
  5
81
330
7C
100
AcDbEntity
  8
002
 62
     3
370
    30
100
AcDbLine
 10
696.844877
 20
218.38309
 30
0.0
 11
697.598254
 21
218.633085
 31
0.0
  0
LINE
  5
82
330
7C
100
AcDbEntity
  8
002
 62
     3
370
    30
100
AcDbLine
 10
697.598254
 20
218.633085
 30
0.0
 11
698.351629
 21
218.883083
 31
0.0
  0
ENDBLK
  5
7E
330
7C
100
AcDbEntity
  8
0
100
AcDbBlockEnd
  0
BLOCK
  5
84
330
83
100
AcDbEntity
  8
0
100
AcDbBlockBegin
  2
ETC-10
 70
     0
 10
0.0
 20
0.0
 30
0.0
  3
ETC-10
  1

  0
LINE
  5
86
330
83
100
AcDbEntity
  8
002
 62
     3
370
    30
100
AcDbLine
 10
709.302374
 20
217.883098
 30
0.0
 11
708.548999
 21
218.133098
 31
0.0
  0
LINE
  5
87
330
83
100
AcDbEntity
  8
002
 62
     3
370
    30
100
AcDbLine
 10
708.548999
 20
218.133098
 30
0.0
 11
707.795622
 21
218.383098
 31
0.0
  0
LINE
  5
88
330
83
100
AcDbEntity
  8
002
 62
     3
370
    30
100
AcDbLine
 10
707.795622
 20
218.383098
 30
0.0
 11
707.042245
 21
218.633098
 31
0.0
  0
LINE
  5
89
330
83
100
AcDbEntity
  8
002
 62
     3
370
    30
100
AcDbLine
 10
707.042245
 20
218.633098
 30
0.0
 11
706.28887
 21
218.883098
 31
0.0
  0
ENDBLK
  5
85
330
83
100
AcDbEntity
  8
0
100
AcDbBlockEnd
  0
BLOCK
  5
8B
330
8A
100
AcDbEntity
  8
0
100
AcDbBlockBegin
  2
ETC-11
 70
     0
 10
0.0
 20
0.0
 30
0.0
  3
ETC-11
  1

  0
LINE
  5
8D
330
8A
100
AcDbEntity
  8
002
 62
     3
370
    30
100
AcDbLine
 10
361.882826
 20
348.064458
 30
0.0
 11
362.636201
 21
348.314456
 31
0.0
  0
LINE
  5
8E
330
8A
100
AcDbEntity
  8
002
 62
     3
370
    30
100
AcDbLine
 10
362.636201
 20
348.314456
 30
0.0
 11
363.389578
 21
348.56445
 31
0.0
  0
LINE
  5
8F
330
8A
100
AcDbEntity
  8
002
 62
     3
370
    30
100
AcDbLine
 10
363.389578
 20
348.56445
 30
0.0
 11
364.142955
 21
348.814445
 31
0.0
  0
LINE
  5
90
330
8A
100
AcDbEntity
  8
002
 62
     3
370
    30
100
AcDbLine
 10
364.142955
 20
348.814445
 30
0.0
 11
364.89633
 21
349.064443
 31
0.0
  0
ENDBLK
  5
8C
330
8A
100
AcDbEntity
  8
0
100
AcDbBlockEnd
  0
BLOCK
  5
92
330
91
100
AcDbEntity
  8
0
100
AcDbBlockBegin
  2
ETC-12
 70
     0
 10
0.0
 20
0.0
 30
0.0
  3
ETC-12
  1

  0
LINE
  5
94
330
91
100
AcDbEntity
  8
002
 62
     3
370
    30
100
AcDbLine
 10
375.847075
 20
348.064458
 30
0.0
 11
375.0937
 21
348.314458
 31
0.0
  0
LINE
  5
95
330
91
100
AcDbEntity
  8
002
 62
     3
370
    30
100
AcDbLine
 10
375.0937
 20
348.314458
 30
0.0
 11
374.340323
 21
348.564458
 31
0.0
  0
LINE
  5
96
330
91
100
AcDbEntity
  8
002
 62
     3
370
    30
100
AcDbLine
 10
374.340323
 20
348.564458
 30
0.0
 11
373.586946
 21
348.814458
 31
0.0
  0
LINE
  5
97
330
91
100
AcDbEntity
  8
002
 62
     3
370
    30
100
AcDbLine
 10
373.586946
 20
348.814458
 30
0.0
 11
372.833571
 21
349.064458
 31
0.0
  0
ENDBLK
  5
93
330
91
100
AcDbEntity
  8
0
100
AcDbBlockEnd
  0
BLOCK
  5
99
330
98
100
AcDbEntity
  8
0
100
AcDbBlockBegin
  2
ETC-13
 70
     0
 10
0.0
 20
0.0
 30
0.0
  3
ETC-13
  1

  0
LINE
  5
9B
330
98
100
AcDbEntity
  8
002
 62
     3
370
    30
100
AcDbLine
 10
545.035519
 20
283.064489
 30
0.0
 11
544.282144
 21
282.814491
 31
0.0
  0
LINE
  5
9C
330
98
100
AcDbEntity
  8
002
 62
     3
370
    30
100
AcDbLine
 10
544.282144
 20
282.814491
 30
0.0
 11
543.528767
 21
282.564497
 31
0.0
  0
LINE
  5
9D
330
98
100
AcDbEntity
  8
002
 62
     3
370
    30
100
AcDbLine
 10
543.528767
 20
282.564497
 30
0.0
 11
542.77539
 21
282.314502
 31
0.0
  0
LINE
  5
9E
330
98
100
AcDbEntity
  8
002
 62
     3
370
    30
100
AcDbLine
 10
542.77539
 20
282.314502
 30
0.0
 11
542.022015
 21
282.064504
 31
0.0
  0
ENDBLK
  5
9A
330
98
100
AcDbEntity
  8
0
100
AcDbBlockEnd
  0
BLOCK
  5
A0
330
9F
100
AcDbEntity
  8
0
100
AcDbBlockBegin
  2
ETC-14
 70
     0
 10
0.0
 20
0.0
 30
0.0
  3
ETC-14
  1

  0
LINE
  5
A2
330
9F
100
AcDbEntity
  8
002
 62
     3
370
    30
100
AcDbLine
 10
531.07127
 20
283.064489
 30
0.0
 11
531.824645
 21
282.814489
 31
0.0
  0
LINE
  5
A3
330
9F
100
AcDbEntity
  8
002
 62
     3
370
    30
100
AcDbLine
 10
531.824645
 20
282.814489
 30
0.0
 11
532.578022
 21
282.564489
 31
0.0
  0
LINE
  5
A4
330
9F
100
AcDbEntity
  8
002
 62
     3
370
    30
100
AcDbLine
 10
532.578022
 20
282.564489
 30
0.0
 11
533.331399
 21
282.314489
 31
0.0
  0
LINE
  5
A5
330
9F
100
AcDbEntity
  8
002
 62
     3
370
    30
100
AcDbLine
 10
533.331399
 20
282.314489
 30
0.0
 11
534.084774
 21
282.064489
 31
0.0
  0
ENDBLK
  5
A1
330
9F
100
AcDbEntity
  8
0
100
AcDbBlockEnd
  0
BLOCK
  5
A7
330
A6
100
AcDbEntity
  8
0
100
AcDbBlockBegin
  2
ETC-15
 70
     0
 10
0.0
 20
0.0
 30
0.0
  3
ETC-15
  1

  0
LINE
  5
A9
330
A6
100
AcDbEntity
  8
002
 62
     3
370
    30
100
AcDbLine
 10
861.348809
 20
152.883129
 30
0.0
 11
860.595434
 21
152.633131
 31
0.0
  0
LINE
  5
AA
330
A6
100
AcDbEntity
  8
002
 62
     3
370
    30
100
AcDbLine
 10
860.595434
 20
152.633131
 30
0.0
 11
859.842057
 21
152.383137
 31
0.0
  0
LINE
  5
AB
330
A6
100
AcDbEntity
  8
002
 62
     3
370
    30
100
AcDbLine
 10
859.842057
 20
152.383137
 30
0.0
 11
859.08868
 21
152.133142
 31
0.0
  0
LINE
  5
AC
330
A6
100
AcDbEntity
  8
002
 62
     3
370
    30
100
AcDbLine
 10
859.08868
 20
152.133142
 30
0.0
 11
858.335305
 21
151.883144
 31
0.0
  0
ENDBLK
  5
A8
330
A6
100
AcDbEntity
  8
0
100
AcDbBlockEnd
  0
BLOCK
  5
AE
330
AD
100
AcDbEntity
  8
0
100
AcDbBlockBegin
  2
ETC-16
 70
     0
 10
0.0
 20
0.0
 30
0.0
  3
ETC-16
  1

  0
LINE
  5
B0
330
AD
100
AcDbEntity
  8
002
 62
     3
370
    30
100
AcDbLine
 10
847.38456
 20
152.883129
 30
0.0
 11
848.137935
 21
152.633129
 31
0.0
  0
LINE
  5
B1
330
AD
100
AcDbEntity
  8
002
 62
     3
370
    30
100
AcDbLine
 10
848.137935
 20
152.633129
 30
0.0
 11
848.891312
 21
152.383129
 31
0.0
  0
LINE
  5
B2
330
AD
100
AcDbEntity
  8
002
 62
     3
370
    30
100
AcDbLine
 10
848.891312
 20
152.383129
 30
0.0
 11
849.644689
 21
152.133129
 31
0.0
  0
LINE
  5
B3
330
AD
100
AcDbEntity
  8
002
 62
     3
370
    30
100
AcDbLine
 10
849.644689
 20
152.133129
 30
0.0
 11
850.398064
 21
151.883129
 31
0.0
  0
ENDBLK
  5
AF
330
AD
100
AcDbEntity
  8
0
100
AcDbBlockEnd
  0
ENDSEC
  0
SECTION
  2
ENTITIES
  0
INSERT
  5
B4
330
1F
100
AcDbEntity
  8
002
  6
ByBlock
 62
     0
370
    -2
100
AcDbBlockReference
  2
ETC-1
 10
0.0
 20
0.0
 30
0.0
  0
INSERT
  5
B5
330
1F
100
AcDbEntity
  8
002
  6
ByBlock
 62
     0
370
    -2
100
AcDbBlockReference
  2
ETC-2
 10
0.0
 20
0.0
 30
0.0
  0
INSERT
  5
B6
330
1F
100
AcDbEntity
  8
002
  6
ByBlock
 62
     0
370
    -2
100
AcDbBlockReference
  2
ETC-3
 10
0.0
 20
0.0
 30
0.0
  0
INSERT
  5
B7
330
1F
100
AcDbEntity
  8
002
  6
ByBlock
 62
     0
370
    -2
100
AcDbBlockReference
  2
ETC-4
 10
0.0
 20
0.0
 30
0.0
  0
INSERT
  5
B8
330
1F
100
AcDbEntity
  8
002
  6
ByBlock
 62
     0
370
    -2
100
AcDbBlockReference
  2
ETC-5
 10
0.0
 20
0.0
 30
0.0
  0
INSERT
  5
B9
330
1F
100
AcDbEntity
  8
002
  6
ByBlock
 62
     0
370
    -2
100
AcDbBlockReference
  2
ETC-6
 10
0.0
 20
0.0
 30
0.0
  0
INSERT
  5
BA
330
1F
100
AcDbEntity
  8
002
  6
ByBlock
 62
     0
370
    -2
100
AcDbBlockReference
  2
ETC-7
 10
0.0
 20
0.0
 30
0.0
  0
INSERT
  5
BB
330
1F
100
AcDbEntity
  8
002
  6
ByBlock
 62
     0
370
    -2
100
AcDbBlockReference
  2
ETC-8
 10
0.0
 20
0.0
 30
0.0
  0
INSERT
  5
BC
330
1F
100
AcDbEntity
  8
002
  6
ByBlock
 62
     0
370
    -2
100
AcDbBlockReference
  2
ETC-9
 10
0.0
 20
0.0
 30
0.0
  0
INSERT
  5
BD
330
1F
100
AcDbEntity
  8
002
  6
ByBlock
 62
     0
370
    -2
100
AcDbBlockReference
  2
ETC-10
 10
0.0
 20
0.0
 30
0.0
  0
INSERT
  5
BE
330
1F
100
AcDbEntity
  8
002
  6
ByBlock
 62
     0
370
    -2
100
AcDbBlockReference
  2
ETC-11
 10
0.0
 20
0.0
 30
0.0
  0
INSERT
  5
BF
330
1F
100
AcDbEntity
  8
002
  6
ByBlock
 62
     0
370
    -2
100
AcDbBlockReference
  2
ETC-12
 10
0.0
 20
0.0
 30
0.0
  0
INSERT
  5
C0
330
1F
100
AcDbEntity
  8
002
  6
ByBlock
 62
     0
370
    -2
100
AcDbBlockReference
  2
ETC-13
 10
0.0
 20
0.0
 30
0.0
  0
INSERT
  5
C1
330
1F
100
AcDbEntity
  8
002
  6
ByBlock
 62
     0
370
    -2
100
AcDbBlockReference
  2
ETC-14
 10
0.0
 20
0.0
 30
0.0
  0
INSERT
  5
C2
330
1F
100
AcDbEntity
  8
002
  6
ByBlock
 62
     0
370
    -2
100
AcDbBlockReference
  2
ETC-15
 10
0.0
 20
0.0
 30
0.0
  0
INSERT
  5
C3
330
1F
100
AcDbEntity
  8
002
  6
ByBlock
 62
     0
370
    -2
100
AcDbBlockReference
  2
ETC-16
 10
0.0
 20
0.0
 30
0.0
  0
LINE
  5
C4
330
1F
100
AcDbEntity
  8
002
 62
     3
370
    30
100
AcDbLine
 10
688.319967
 20
292.995606
 30
0.0
 11
688.319967
 21
299.995606
 31
0.0
  0
ARC
  5
C5
330
1F
100
AcDbEntity
  8
002
 62
     3
370
    30
100
AcDbCircle
 10
692.319967
 20
299.995606
 30
0.0
 40
4.0
100
AcDbArc
 50
90.0
 51
180.0
  0
LINE
  5
C6
330
1F
100
AcDbEntity
  8
002
 62
     3
370
    30
100
AcDbLine
 10
692.319967
 20
303.995606
 30
0.0
 11
695.685967
 21
303.995606
 31
0.0
  0
LINE
  5
C7
330
1F
100
AcDbEntity
  8
002
 62
     3
370
    30
100
AcDbLine
 10
695.685967
 20
303.995606
 30
0.0
 11
695.685967
 21
302.995606
 31
0.0
  0
LINE
  5
C8
330
1F
100
AcDbEntity
  8
002
 62
     3
370
    30
100
AcDbLine
 10
695.685967
 20
302.995606
 30
0.0
 11
708.952967
 21
302.995606
 31
0.0
  0
LINE
  5
C9
330
1F
100
AcDbEntity
  8
002
 62
     3
370
    30
100
AcDbLine
 10
708.952967
 20
302.995606
 30
0.0
 11
708.952967
 21
303.995606
 31
0.0
  0
LINE
  5
CA
330
1F
100
AcDbEntity
  8
002
 62
     3
370
    30
100
AcDbLine
 10
708.952967
 20
303.995606
 30
0.0
 11
712.319967
 21
303.995606
 31
0.0
  0
ARC
  5
CB
330
1F
100
AcDbEntity
  8
002
 62
     3
370
    30
100
AcDbCircle
 10
712.319967
 20
299.995606
 30
0.0
 40
4.0
100
AcDbArc
 50
0.0
 51
90.0
  0
LINE
  5
CC
330
1F
100
AcDbEntity
  8
002
 62
     3
370
    30
100
AcDbLine
 10
716.319967
 20
299.995606
 30
0.0
 11
716.319967
 21
292.995606
 31
0.0
  0
LINE
  5
CD
330
1F
100
AcDbEntity
  8
002
 62
     3
370
    30
100
AcDbLine
 10
712.319967
 20
92.995606
 30
0.0
 11
692.319967
 21
92.995606
 31
0.0
  0
LINE
  5
CE
330
1F
100
AcDbEntity
  8
002
 62
     3
370
    30
100
AcDbLine
 10
696.319967
 20
92.995606
 30
0.0
 11
696.319967
 21
72.995606
 31
0.0
  0
LINE
  5
CF
330
1F
100
AcDbEntity
  8
002
 62
     3
370
    30
100
AcDbLine
 10
708.319967
 20
72.995606
 30
0.0
 11
708.319967
 21
92.995606
 31
0.0
  0
LINE
  5
D0
330
1F
100
AcDbEntity
  8
002
 62
     3
370
    30
100
AcDbLine
 10
727.319967
 20
292.995606
 30
0.0
 11
727.319967
 21
303.995606
 31
0.0
  0
ARC
  5
D1
330
1F
100
AcDbEntity
  8
002
 62
     3
370
    30
100
AcDbCircle
 10
718.551967
 20
307.450606
 30
0.0
 40
2.999873090649014
100
AcDbArc
 50
280.292547
 51
0.0
  0
LINE
  5
D2
330
1F
100
AcDbEntity
  8
002
 62
     3
370
    30
100
AcDbLine
 10
719.087967
 20
304.499006
 30
0.0
 11
716.319967
 21
303.995606
 31
0.0
  0
ARC
  5
D3
330
1F
100
AcDbEntity
  8
002
 62
     3
370
    30
100
AcDbCircle
 10
709.417967
 20
307.911506
 30
0.0
 40
3.0
100
AcDbArc
 50
270.0
 51
3.652101
  0
LINE
  5
D4
330
1F
100
AcDbEntity
  8
002
 62
     3
370
    30
100
AcDbLine
 10
706.551967
 20
305.995606
 30
0.0
 11
667.819967
 21
305.995606
 31
0.0
  0
LINE
  5
D5
330
1F
100
AcDbEntity
  8
002
 62
     3
370
    30
100
AcDbLine
 10
666.319967
 20
306.964306
 30
0.0
 11
666.319967
 21
347.027006
 31
0.0
  0
LINE
  5
D6
330
1F
100
AcDbEntity
  8
002
 62
     3
370
    30
100
AcDbLine
 10
666.451967
 20
348.325606
 30
0.0
 11
674.581967
 21
344.160806
 31
0.0
  0
LINE
  5
D7
330
1F
100
AcDbEntity
  8
002
 62
     3
370
    30
100
AcDbLine
 10
678.786967
 20
343.553606
 30
0.0
 11
700.480967
 21
347.648606
 31
0.0
  0
ARC
  5
D8
330
1F
100
AcDbEntity
  8
002
 62
     3
370
    30
100
AcDbCircle
 10
704.190967
 20
327.995606
 30
0.0
 40
20.0
100
AcDbArc
 50
90.0
 51
100.690224
  0
LINE
  5
D9
330
1F
100
AcDbEntity
  8
002
 62
     3
370
    30
100
AcDbLine
 10
711.115967
 20
347.995606
 30
0.0
 11
667.819967
 21
347.995606
 31
0.0
  0
ARC
  5
DA
330
1F
100
AcDbEntity
  8
002
 62
     3
370
    30
100
AcDbCircle
 10
667.819967
 20
350.995606
 30
0.0
 40
3.0
100
AcDbArc
 50
180.0
 51
270.0
  0
LINE
  5
DB
330
1F
100
AcDbEntity
  8
002
 62
     3
370
    30
100
AcDbLine
 10
664.819967
 20
350.995606
 30
0.0
 11
664.819967
 21
372.995606
 31
0.0
  0
LINE
  5
DC
330
1F
100
AcDbEntity
  8
002
 62
     3
370
    30
100
AcDbLine
 10
664.819967
 20
372.995606
 30
0.0
 11
739.819967
 21
372.995606
 31
0.0
  0
LINE
  5
DD
330
1F
100
AcDbEntity
  8
002
 62
     3
370
    30
100
AcDbLine
 10
739.819967
 20
372.995606
 30
0.0
 11
739.819967
 21
361.131806
 31
0.0
  0
LINE
  5
DE
330
1F
100
AcDbEntity
  8
002
 62
     3
370
    30
100
AcDbLine
 10
740.544967
 20
360.995606
 30
0.0
 11
758.319967
 21
360.995606
 31
0.0
  0
LINE
  5
DF
330
1F
100
AcDbEntity
  8
002
 62
     3
370
    30
100
AcDbLine
 10
758.319967
 20
360.995606
 30
0.0
 11
758.319967
 21
353.323606
 31
0.0
  0
LINE
  5
E0
330
1F
100
AcDbEntity
  8
002
 62
     3
370
    30
100
AcDbLine
 10
760.317967
 20
350.495606
 30
0.0
 11
760.317967
 21
315.495606
 31
0.0
  0
LINE
  5
E1
330
1F
100
AcDbEntity
  8
002
 62
     3
370
    30
100
AcDbLine
 10
760.317967
 20
315.495606
 30
0.0
 11
760.292967
 21
315.495606
 31
0.0
  0
ARC
  5
E2
330
1F
100
AcDbEntity
  8
002
 62
     3
370
    30
100
AcDbCircle
 10
750.283967
 20
317.030906
 30
0.0
 40
7.999972855578947
100
AcDbArc
 50
273.655097
 51
356.347899
  0
LINE
  5
E3
330
1F
100
AcDbEntity
  8
002
 62
     3
370
    30
100
AcDbLine
 10
750.793967
 20
309.047206
 30
0.0
 11
744.500967
 21
308.645506
 31
0.0
  0
LINE
  5
E4
330
1F
100
AcDbEntity
  8
002
 62
     3
370
    30
100
AcDbLine
 10
747.624967
 20
310.347906
 30
0.0
 11
734.223967
 21
309.492606
 31
0.0
  0
LINE
  5
E5
330
1F
100
AcDbEntity
  8
002
 62
     3
370
    30
100
AcDbLine
 10
734.414967
 20
309.492606
 30
0.0
 11
721.014967
 21
310.347906
 31
0.0
  0
ARC
  5
E6
330
1F
100
AcDbEntity
  8
002
 62
     3
370
    30
100
AcDbCircle
 10
721.651967
 20
320.327606
 30
0.0
 40
10.00030844524309
100
AcDbArc
 50
183.652101
 51
266.347789
  0
LINE
  5
E7
330
1F
100
AcDbEntity
  8
002
 62
     3
370
    30
100
AcDbLine
 10
711.541967
 20
311.314106
 30
0.0
 11
710.154967
 21
333.048906
 31
0.0
  0
LINE
  5
E8
330
1F
100
AcDbEntity
  8
002
 62
     3
370
    30
100
AcDbLine
 10
710.154967
 20
332.942306
 30
0.0
 11
711.158967
 21
348.681806
 31
0.0
  0
ARC
  5
E9
330
1F
100
AcDbEntity
  8
002
 62
     3
370
    30
100
AcDbCircle
 10
719.142967
 20
348.172206
 30
0.0
 40
8.000072652170077
100
AcDbArc
 50
93.655051
 51
176.347899
  0
LINE
  5
EA
330
1F
100
AcDbEntity
  8
002
 62
     3
370
    30
100
AcDbLine
 10
718.632967
 20
356.156006
 30
0.0
 11
734.049967
 21
357.162006
 31
0.0
  0
LINE
  5
EB
330
1F
100
AcDbEntity
  8
002
 62
     3
370
    30
100
AcDbLine
 10
734.049967
 20
357.162006
 30
0.0
 11
735.831967
 21
357.333306
 31
0.0
  0
LINE
  5
EC
330
1F
100
AcDbEntity
  8
002
 62
     3
370
    30
100
AcDbLine
 10
734.414967
 20
356.498706
 30
0.0
 11
721.014967
 21
355.643306
 31
0.0
  0
ARC
  5
ED
330
1F
100
AcDbEntity
  8
002
 62
     3
370
    30
100
AcDbCircle
 10
721.651967
 20
345.663606
 30
0.0
 40
10.00000905449588
100
AcDbArc
 50
93.652211
 51
176.347899
  0
LINE
  5
EE
330
1F
100
AcDbEntity
  8
002
 62
     3
370
    30
100
AcDbLine
 10
711.671967
 20
346.300606
 30
0.0
 11
710.816967
 21
332.900106
 31
0.0
  0
LINE
  5
EF
330
1F
100
AcDbEntity
  8
002
 62
     3
370
    30
100
AcDbLine
 10
710.816967
 20
333.091206
 30
0.0
 11
712.411967
 21
308.102606
 31
0.0
  0
ARC
  5
F0
330
1F
100
AcDbEntity
  8
002
 62
     3
370
    30
100
AcDbCircle
 10
706.551967
 20
310.995606
 30
0.0
 40
5.0
100
AcDbArc
 50
270.0
 51
3.652101
  0
ARC
  5
F1
330
1F
100
AcDbEntity
  8
002
 62
     3
370
    30
100
AcDbCircle
 10
702.319967
 20
242.211306
 30
0.0
 40
62.41279477390829
100
AcDbArc
 50
81.862017
 51
98.138892
  0
LINE
  5
F2
330
1F
100
AcDbEntity
  8
002
 62
     3
370
    30
100
AcDbLine
 10
721.551967
 20
307.450606
 30
0.0
 11
721.551967
 21
307.702706
 31
0.0
  0
ARC
  5
F3
330
1F
100
AcDbEntity
  8
002
 62
     3
370
    30
100
AcDbCircle
 10
734.319967
 20
331.951206
 30
0.0
 40
15.66924001475492
100
AcDbArc
 50
306.867411
 51
233.129664
  0
ARC
  5
F4
330
1F
100
AcDbEntity
  8
002
 62
     3
370
    30
100
AcDbCircle
 10
742.220967
 20
321.415406
 30
0.0
 40
2.49991415052588
100
AcDbArc
 50
225.152339
 51
306.869898
  0
CIRCLE
  5
F5
330
1F
100
AcDbEntity
  8
002
 62
     3
370
    30
100
AcDbCircle
 10
738.694967
 20
317.870606
 30
0.0
 40
1.09375
  0
ARC
  5
F6
330
1F
100
AcDbEntity
  8
002
 62
     3
370
    30
100
AcDbCircle
 10
738.694967
 20
317.870606
 30
0.0
 40
2.499914150525961
100
AcDbArc
 50
45.152339
 51
180.0
  0
LINE
  5
F7
330
1F
100
AcDbEntity
  8
002
 62
     3
370
    30
100
AcDbLine
 10
736.194967
 20
317.870606
 30
0.0
 11
736.194967
 21
315.624006
 31
0.0
  0
LINE
  5
F8
330
1F
100
AcDbEntity
  8
002
 62
     3
370
    30
100
AcDbLine
 10
732.444967
 20
315.624006
 30
0.0
 11
732.444967
 21
317.870606
 31
0.0
  0
CIRCLE
  5
F9
330
1F
100
AcDbEntity
  8
002
 62
     3
370
    30
100
AcDbCircle
 10
729.944967
 20
317.870606
 30
0.0
 40
1.09375
  0
ARC
  5
FA
330
1F
100
AcDbEntity
  8
002
 62
     3
370
    30
100
AcDbCircle
 10
729.944967
 20
317.870606
 30
0.0
 40
2.5
100
AcDbArc
 50
0.0
 51
134.847661
  0
ARC
  5
FB
330
1F
100
AcDbEntity
  8
002
 62
     3
370
    30
100
AcDbCircle
 10
726.417967
 20
321.415406
 30
0.0
 40
2.5
100
AcDbArc
 50
233.130102
 51
314.863906
  0
CIRCLE
  5
FC
330
1F
100
AcDbEntity
  8
002
 62
     3
370
    30
100
AcDbCircle
 10
734.319967
 20
332.995606
 30
0.0
 40
17.5
  0
LINE
  5
FD
330
1F
100
AcDbEntity
  8
002
 62
     3
370
    30
100
AcDbLine
 10
731.819967
 20
337.745606
 30
0.0
 11
732.069967
 21
337.495606
 31
0.0
  0
LINE
  5
FE
330
1F
100
AcDbEntity
  8
002
 62
     3
370
    30
100
AcDbLine
 10
732.069967
 20
337.495606
 30
0.0
 11
736.569967
 21
337.495606
 31
0.0
  0
LINE
  5
FF
330
1F
100
AcDbEntity
  8
002
 62
     3
370
    30
100
AcDbLine
 10
736.569967
 20
337.495606
 30
0.0
 11
736.819967
 21
337.745606
 31
0.0
  0
LINE
  5
100
330
1F
100
AcDbEntity
  8
002
 62
     3
370
    30
100
AcDbLine
 10
736.819967
 20
337.745606
 30
0.0
 11
736.819967
 21
342.245606
 31
0.0
  0
LINE
  5
101
330
1F
100
AcDbEntity
  8
002
 62
     3
370
    30
100
AcDbLine
 10
736.819967
 20
342.245606
 30
0.0
 11
736.569967
 21
342.495606
 31
0.0
  0
LINE
  5
102
330
1F
100
AcDbEntity
  8
002
 62
     3
370
    30
100
AcDbLine
 10
736.569967
 20
342.495606
 30
0.0
 11
732.069967
 21
342.495606
 31
0.0
  0
LINE
  5
103
330
1F
100
AcDbEntity
  8
002
 62
     3
370
    30
100
AcDbLine
 10
732.069967
 20
342.495606
 30
0.0
 11
731.819967
 21
342.245606
 31
0.0
  0
LINE
  5
104
330
1F
100
AcDbEntity
  8
002
 62
     3
370
    30
100
AcDbLine
 10
731.819967
 20
342.245606
 30
0.0
 11
731.819967
 21
337.745606
 31
0.0
  0
ARC
  5
105
330
1F
100
AcDbEntity
  8
002
 62
     3
370
    30
100
AcDbCircle
 10
732.019967
 20
337.695606
 30
0.0
 40
0.1999999999998181
100
AcDbArc
 50
180.0
 51
270.0
  0
ARC
  5
106
330
1F
100
AcDbEntity
  8
002
 62
     3
370
    30
100
AcDbCircle
 10
736.619967
 20
337.695606
 30
0.0
 40
0.2000000000000455
100
AcDbArc
 50
270.0
 51
0.0
  0
ARC
  5
107
330
1F
100
AcDbEntity
  8
002
 62
     3
370
    30
100
AcDbCircle
 10
734.319967
 20
332.995606
 30
0.0
 40
7.500030347271937
100
AcDbArc
 50
109.471139
 51
70.528861
  0
ARC
  5
108
330
1F
100
AcDbEntity
  8
002
 62
     3
370
    30
100
AcDbCircle
 10
734.319967
 20
332.995606
 30
0.0
 40
8.5000588709726
100
AcDbArc
 50
107.104513
 51
72.895487
  0
LINE
  5
109
330
1F
100
AcDbEntity
  8
002
 62
     3
370
    30
100
AcDbLine
 10
734.223967
 20
356.498706
 30
0.0
 11
747.624967
 21
355.643306
 31
0.0
  0
ARC
  5
10A
330
1F
100
AcDbEntity
  8
002
 62
     3
370
    30
100
AcDbCircle
 10
746.987967
 20
345.663606
 30
0.0
 40
9.999310476227894
100
AcDbArc
 50
3.652466
 51
86.347789
  0
LINE
  5
10B
330
1F
100
AcDbEntity
  8
002
 62
     3
370
    30
100
AcDbLine
 10
756.966967
 20
346.300606
 30
0.0
 11
757.822967
 21
332.900106
 31
0.0
  0
LINE
  5
10C
330
1F
100
AcDbEntity
  8
002
 62
     3
370
    30
100
AcDbLine
 10
757.822967
 20
333.091206
 30
0.0
 11
756.966967
 21
319.690606
 31
0.0
  0
ARC
  5
10D
330
1F
100
AcDbEntity
  8
002
 62
     3
370
    30
100
AcDbCircle
 10
746.987967
 20
320.327606
 30
0.0
 40
10.00000905449588
100
AcDbArc
 50
273.652211
 51
356.347534
  0
ARC
  5
10E
330
1F
100
AcDbEntity
  8
002
 62
     3
370
    30
100
AcDbCircle
 10
760.305967
 20
312.495706
 30
0.0
 40
2.999924000704043
100
AcDbArc
 50
89.77081
 51
155.651204
  0
LINE
  5
10F
330
1F
100
AcDbEntity
  8
002
 62
     3
370
    30
100
AcDbLine
 10
758.267967
 20
316.521306
 30
0.0
 11
759.319967
 21
332.995606
 31
0.0
  0
LINE
  5
110
330
1F
100
AcDbEntity
  8
002
 62
     3
370
    30
100
AcDbLine
 10
759.319967
 20
332.995606
 30
0.0
 11
758.267967
 21
349.469906
 31
0.0
  0
ARC
  5
111
330
1F
100
AcDbEntity
  8
002
 62
     3
370
    30
100
AcDbCircle
 10
761.319967
 20
353.323606
 30
0.0
 40
3.0
100
AcDbArc
 50
180.0
 51
250.490051
  0
ARC
  5
112
330
1F
100
AcDbEntity
  8
002
 62
     3
370
    30
100
AcDbCircle
 10
750.283967
 20
348.960306
 30
0.0
 40
8.000246756194384
100
AcDbArc
 50
3.652101
 51
86.344949
  0
LINE
  5
113
330
1F
100
AcDbEntity
  8
002
 62
     3
370
    30
100
AcDbLine
 10
750.793967
 20
356.944106
 30
0.0
 11
741.385967
 21
357.443406
 31
0.0
  0
ARC
  5
114
330
1F
100
AcDbEntity
  8
002
 62
     3
370
    30
100
AcDbCircle
 10
741.544967
 20
360.439206
 30
0.0
 40
2.999657395436943
100
AcDbArc
 50
194.959101
 51
266.961917
  0
ARC
  5
115
330
1F
100
AcDbEntity
  8
002
 62
     3
370
    30
100
AcDbCircle
 10
735.544967
 20
360.319506
 30
0.0
 40
2.999959906398693
100
AcDbArc
 50
275.489765
 51
347.987687
  0
ARC
  5
116
330
1F
100
AcDbEntity
  8
002
 62
     3
370
    30
100
AcDbCircle
 10
740.544967
 20
362.995606
 30
0.0
 40
2.0
100
AcDbArc
 50
180.0
 51
270.0
  0
LINE
  5
117
330
1F
100
AcDbEntity
  8
002
 62
     3
370
    30
100
AcDbLine
 10
739.819967
 20
362.995606
 30
0.0
 11
664.819967
 21
362.995606
 31
0.0
  0
LINE
  5
118
330
1F
100
AcDbEntity
  8
002
 62
     3
370
    30
100
AcDbLine
 10
672.570967
 20
372.995606
 30
0.0
 11
672.570967
 21
378.995606
 31
0.0
  0
LINE
  5
119
330
1F
100
AcDbEntity
  8
002
 62
     3
370
    30
100
AcDbLine
 10
682.570967
 20
378.995606
 30
0.0
 11
672.570967
 21
378.995606
 31
0.0
  0
LINE
  5
11A
330
1F
100
AcDbEntity
  8
002
 62
     3
370
    30
100
AcDbLine
 10
682.159967
 20
378.995606
 30
0.0
 11
682.159967
 21
381.995606
 31
0.0
  0
LINE
  5
11B
330
1F
100
AcDbEntity
  8
002
 62
     3
370
    30
100
AcDbLine
 10
690.659967
 20
381.995606
 30
0.0
 11
690.659967
 21
376.995606
 31
0.0
  0
LINE
  5
11C
330
1F
100
AcDbEntity
  8
002
 62
     3
370
    30
100
AcDbLine
 10
690.659967
 20
381.995606
 30
0.0
 11
682.159967
 21
381.995606
 31
0.0
  0
LINE
  5
11D
330
1F
100
AcDbEntity
  8
002
 62
     3
370
    30
100
AcDbLine
 10
682.570967
 20
378.995606
 30
0.0
 11
682.570967
 21
372.995606
 31
0.0
  0
LINE
  5
11E
330
1F
100
AcDbEntity
  8
002
 62
     3
370
    30
100
AcDbLine
 10
682.570967
 20
376.995606
 30
0.0
 11
722.067967
 21
376.995606
 31
0.0
  0
LINE
  5
11F
330
1F
100
AcDbEntity
  8
002
 62
     3
370
    30
100
AcDbLine
 10
732.067967
 20
378.995606
 30
0.0
 11
722.067967
 21
378.995606
 31
0.0
  0
LINE
  5
120
330
1F
100
AcDbEntity
  8
002
 62
     3
370
    30
100
AcDbLine
 10
722.067967
 20
378.995606
 30
0.0
 11
722.067967
 21
372.995606
 31
0.0
  0
LINE
  5
121
330
1F
100
AcDbEntity
  8
002
 62
     3
370
    30
100
AcDbLine
 10
722.479967
 20
378.995606
 30
0.0
 11
722.479967
 21
381.995606
 31
0.0
  0
LINE
  5
122
330
1F
100
AcDbEntity
  8
002
 62
     3
370
    30
100
AcDbLine
 10
713.979967
 20
381.995606
 30
0.0
 11
722.479967
 21
381.995606
 31
0.0
  0
LINE
  5
123
330
1F
100
AcDbEntity
  8
002
 62
     3
370
    30
100
AcDbLine
 10
719.319967
 20
381.995606
 30
0.0
 11
719.319967
 21
402.995606
 31
0.0
  0
LINE
  5
124
330
1F
100
AcDbEntity
  8
002
 62
     3
370
    30
100
AcDbLine
 10
719.319967
 20
402.995606
 30
0.0
 11
685.319967
 21
402.995606
 31
0.0
  0
LINE
  5
125
330
1F
100
AcDbEntity
  8
002
 62
     3
370
    30
100
AcDbLine
 10
685.319967
 20
402.995606
 30
0.0
 11
685.319967
 21
381.995606
 31
0.0
  0
LINE
  5
126
330
1F
100
AcDbEntity
  8
002
 62
     3
370
    30
100
AcDbLine
 10
713.979967
 20
381.995606
 30
0.0
 11
713.979967
 21
376.995606
 31
0.0
  0
LINE
  5
127
330
1F
100
AcDbEntity
  8
002
 62
     3
370
    30
100
AcDbLine
 10
732.067967
 20
378.995606
 30
0.0
 11
732.067967
 21
372.995606
 31
0.0
  0
LINE
  5
128
330
1F
100
AcDbEntity
  8
002
 62
     3
370
    30
100
AcDbLine
 10
745.069967
 20
370.995606
 30
0.0
 11
745.819967
 21
373.995606
 31
0.0
  0
LINE
  5
129
330
1F
100
AcDbEntity
  8
002
 62
     3
370
    30
100
AcDbLine
 10
745.819967
 20
373.995606
 30
0.0
 11
750.819967
 21
373.995606
 31
0.0
  0
LINE
  5
12A
330
1F
100
AcDbEntity
  8
002
 62
     3
370
    30
100
AcDbLine
 10
750.819967
 20
373.995606
 30
0.0
 11
751.569967
 21
370.995606
 31
0.0
  0
LINE
  5
12B
330
1F
100
AcDbEntity
  8
002
 62
     3
370
    30
100
AcDbLine
 10
751.569967
 20
370.995606
 30
0.0
 11
751.038967
 21
370.146206
 31
0.0
  0
LINE
  5
12C
330
1F
100
AcDbEntity
  8
002
 62
     3
370
    30
100
AcDbLine
 10
750.616967
 20
369.471606
 30
0.0
 11
746.021967
 21
369.471606
 31
0.0
  0
LINE
  5
12D
330
1F
100
AcDbEntity
  8
002
 62
     3
370
    30
100
AcDbLine
 10
745.600967
 20
370.146206
 30
0.0
 11
745.069967
 21
370.995606
 31
0.0
  0
LINE
  5
12E
330
1F
100
AcDbEntity
  8
002
 62
     3
370
    30
100
AcDbLine
 10
745.819967
 20
370.995606
 30
0.0
 11
750.819967
 21
370.995606
 31
0.0
  0
ARC
  5
12F
330
1F
100
AcDbEntity
  8
002
 62
     3
370
    30
100
AcDbCircle
 10
751.886967
 20
369.616206
 30
0.0
 40
1.000001999998201
100
AcDbArc
 50
147.994617
 51
225.004052
  0
LINE
  5
130
330
1F
100
AcDbEntity
  8
002
 62
     3
370
    30
100
AcDbLine
 10
751.179967
 20
368.909106
 30
0.0
 11
753.319967
 21
365.995606
 31
0.0
  0
LINE
  5
131
330
1F
100
AcDbEntity
  8
002
 62
     3
370
    30
100
AcDbLine
 10
753.319967
 20
365.995606
 30
0.0
 11
753.319967
 21
362.995606
 31
0.0
  0
LINE
  5
132
330
1F
100
AcDbEntity
  8
002
 62
     3
370
    30
100
AcDbLine
 10
753.319967
 20
362.995606
 30
0.0
 11
752.319967
 21
361.995606
 31
0.0
  0
LINE
  5
133
330
1F
100
AcDbEntity
  8
002
 62
     3
370
    30
100
AcDbLine
 10
752.319967
 20
361.995606
 30
0.0
 11
744.319967
 21
361.995606
 31
0.0
  0
LINE
  5
134
330
1F
100
AcDbEntity
  8
002
 62
     3
370
    30
100
AcDbLine
 10
744.319967
 20
361.995606
 30
0.0
 11
743.319967
 21
362.995606
 31
0.0
  0
LINE
  5
135
330
1F
100
AcDbEntity
  8
002
 62
     3
370
    30
100
AcDbLine
 10
743.319967
 20
362.995606
 30
0.0
 11
743.319967
 21
365.995606
 31
0.0
  0
LINE
  5
136
330
1F
100
AcDbEntity
  8
002
 62
     3
370
    30
100
AcDbLine
 10
743.319967
 20
365.995606
 30
0.0
 11
745.459967
 21
368.909106
 31
0.0
  0
ARC
  5
137
330
1F
100
AcDbEntity
  8
002
 62
     3
370
    30
100
AcDbCircle
 10
744.752967
 20
369.616206
 30
0.0
 40
0.9999197017759904
100
AcDbArc
 50
314.995948
 51
32.005383
  0
ARC
  5
138
330
1F
100
AcDbEntity
  8
002
 62
     3
370
    30
100
AcDbCircle
 10
745.819967
 20
363.370606
 30
0.0
 40
3.625
100
AcDbArc
 50
46.397181
 51
133.602819
  0
LINE
  5
139
330
1F
100
AcDbEntity
  8
002
 62
     3
370
    30
100
AcDbLine
 10
748.319967
 20
365.995606
 30
0.0
 11
748.319967
 21
362.995606
 31
0.0
  0
ARC
  5
13A
330
1F
100
AcDbEntity
  8
002
 62
     3
370
    30
100
AcDbCircle
 10
745.819967
 20
365.620606
 30
0.0
 40
3.625
100
AcDbArc
 50
226.397181
 51
313.602819
  0
LINE
  5
13B
330
1F
100
AcDbEntity
  8
002
 62
     3
370
    30
100
AcDbLine
 10
744.457967
 20
361.995606
 30
0.0
 11
744.457967
 21
360.995606
 31
0.0
  0
ARC
  5
13C
330
1F
100
AcDbEntity
  8
002
 62
     3
370
    30
100
AcDbCircle
 10
750.819967
 20
363.370606
 30
0.0
 40
3.625
100
AcDbArc
 50
46.397181
 51
133.602819
  0
ARC
  5
13D
330
1F
100
AcDbEntity
  8
002
 62
     3
370
    30
100
AcDbCircle
 10
750.819967
 20
365.620606
 30
0.0
 40
3.625
100
AcDbArc
 50
226.397181
 51
313.602819
  0
LINE
  5
13E
330
1F
100
AcDbEntity
  8
002
 62
     3
370
    30
100
AcDbLine
 10
752.180967
 20
361.995606
 30
0.0
 11
752.180967
 21
360.995606
 31
0.0
  0
ARC
  5
13F
330
1F
100
AcDbEntity
  8
002
 62
     3
370
    30
100
AcDbCircle
 10
748.319967
 20
373.334206
 30
0.0
 40
0.999974979686964
100
AcDbArc
 50
41.407997
 51
138.592003
  0
LINE
  5
140
330
1F
100
AcDbEntity
  8
002
 62
     3
370
    30
100
AcDbLine
 10
739.819967
 20
303.655706
 30
0.0
 11
739.819967
 21
292.995606
 31
0.0
  0
LINE
  5
141
330
1F
100
AcDbEntity
  8
002
 62
     3
370
    30
100
AcDbLine
 10
739.819967
 20
292.995606
 30
0.0
 11
664.819967
 21
292.995606
 31
0.0
  0
LINE
  5
142
330
1F
100
AcDbEntity
  8
002
 62
     3
370
    30
100
AcDbLine
 10
664.819967
 20
292.995606
 30
0.0
 11
664.819967
 21
302.995606
 31
0.0
  0
ARC
  5
143
330
1F
100
AcDbEntity
  8
002
 62
     3
370
    30
100
AcDbCircle
 10
667.819967
 20
302.995606
 30
0.0
 40
3.0
100
AcDbArc
 50
90.0
 51
180.0
  0
ARC
  5
144
330
1F
100
AcDbEntity
  8
002
 62
     3
370
    30
100
AcDbCircle
 10
663.319967
 20
306.964306
 30
0.0
 40
3.000057226120858
100
AcDbArc
 50
318.589139
 51
0.0
  0
LINE
  5
145
330
1F
100
AcDbEntity
  8
002
 62
     3
370
    30
100
AcDbLine
 10
677.319967
 20
303.995606
 30
0.0
 11
677.319967
 21
292.995606
 31
0.0
  0
LINE
  5
146
330
1F
100
AcDbEntity
  8
002
 62
     3
370
    30
100
AcDbLine
 10
677.319967
 20
305.995606
 30
0.0
 11
688.319967
 21
303.995606
 31
0.0
  0
ARC
  5
147
330
1F
100
AcDbEntity
  8
002
 62
     3
370
    30
100
AcDbCircle
 10
677.570967
 20
349.995606
 30
0.0
 40
6.555838012031709
100
AcDbArc
 50
242.875244
 51
280.68945
  0
ARC
  5
148
330
1F
100
AcDbEntity
  8
002
 62
     3
370
    30
100
AcDbCircle
 10
663.319967
 20
347.027006
 30
0.0
 40
3.0
100
AcDbArc
 50
0.0
 51
41.409429
  0
ARC
  5
149
330
1F
100
AcDbEntity
  8
002
 62
     3
370
    30
100
AcDbCircle
 10
744.819967
 20
303.655706
 30
0.0
 40
4.9999865039818
100
AcDbArc
 50
93.657965
 51
180.0
  0
LINE
  5
14A
330
1F
100
AcDbEntity
  8
002
  6
CENTER
 62
    40
370
     9
100
AcDbLine
 10
686.409967
 20
383.495606
 30
0.0
 11
686.409967
 21
370.995606
 31
0.0
  0
LINE
  5
14B
330
1F
100
AcDbEntity
  8
002
  6
CENTER
 62
    40
370
     9
100
AcDbLine
 10
677.570967
 20
383.495606
 30
0.0
 11
677.570967
 21
357.162006
 31
0.0
  0
LINE
  5
14C
330
1F
100
AcDbEntity
  8
002
  6
CENTER
 62
    40
370
     9
100
AcDbLine
 10
657.203967
 20
332.995606
 30
0.0
 11
769.250967
 21
332.995606
 31
0.0
  0
LINE
  5
14D
330
1F
100
AcDbEntity
  8
002
  6
CENTER
 62
    40
370
     9
100
AcDbLine
 10
748.319967
 20
358.254006
 30
0.0
 11
748.319967
 21
376.599606
 31
0.0
  0
LINE
  5
14E
330
1F
100
AcDbEntity
  8
002
  6
CENTER
 62
    40
370
     9
100
AcDbLine
 10
734.319967
 20
381.556206
 30
0.0
 11
734.319967
 21
284.952506
 31
0.0
  0
LINE
  5
14F
330
1F
100
AcDbEntity
  8
002
  6
CENTER
 62
    40
370
     9
100
AcDbLine
 10
727.067967
 20
357.162006
 30
0.0
 11
727.067967
 21
383.495606
 31
0.0
  0
LINE
  5
150
330
1F
100
AcDbEntity
  8
002
  6
CENTER
 62
    40
370
     9
100
AcDbLine
 10
718.229967
 20
383.495606
 30
0.0
 11
718.229967
 21
370.995606
 31
0.0
  0
LINE
  5
151
330
1F
100
AcDbEntity
  8
002
  6
HIDDEN
 62
    40
370
     9
100
AcDbLine
 10
707.819967
 20
302.995606
 30
0.0
 11
707.819967
 21
292.995606
 31
0.0
  0
LINE
  5
152
330
1F
100
AcDbEntity
  8
002
  6
HIDDEN
 62
    40
370
     9
100
AcDbLine
 10
696.819967
 20
292.995606
 30
0.0
 11
696.819967
 21
302.995606
 31
0.0
  0
LINE
  5
153
330
1F
100
AcDbEntity
  8
002
  6
HIDDEN
 62
    40
370
     9
100
AcDbLine
 10
695.685967
 20
302.995606
 30
0.0
 11
690.319967
 21
302.995606
 31
0.0
  0
LINE
  5
154
330
1F
100
AcDbEntity
  8
002
  6
HIDDEN
 62
    40
370
     9
100
AcDbLine
 10
708.952967
 20
302.995606
 30
0.0
 11
714.319967
 21
302.995606
 31
0.0
  0
LINE
  5
155
330
1F
100
AcDbEntity
  8
002
  6
HIDDEN
 62
    40
370
     9
100
AcDbLine
 10
714.319967
 20
302.995606
 30
0.0
 11
714.319967
 21
303.459706
 31
0.0
  0
LINE
  5
156
330
1F
100
AcDbEntity
  8
002
  6
HIDDEN
 62
    40
370
     9
100
AcDbLine
 10
690.319967
 20
302.995606
 30
0.0
 11
690.319967
 21
303.459706
 31
0.0
  0
LINE
  5
157
330
1F
100
AcDbEntity
  8
002
 62
     3
370
    30
100
AcDbLine
 10
696.319967
 20
72.995606
 30
0.0
 11
708.319967
 21
72.995606
 31
0.0
  0
LINE
  5
158
330
1F
100
AcDbEntity
  8
002
 62
     3
370
    30
100
AcDbLine
 10
232.931967
 20
170.931485
 30
0.0
 11
215.157367
 21
170.931485
 31
0.0
  0
LINE
  5
159
330
1F
100
AcDbEntity
  8
002
 62
     3
370
    30
100
AcDbLine
 10
214.431967
 20
171.067585
 30
0.0
 11
214.431967
 21
182.931485
 31
0.0
  0
LINE
  5
15A
330
1F
100
AcDbEntity
  8
002
 62
     3
370
    30
100
AcDbLine
 10
214.431967
 20
182.931485
 30
0.0
 11
139.431967
 21
182.931485
 31
0.0
  0
LINE
  5
15B
330
1F
100
AcDbEntity
  8
002
 62
     3
370
    30
100
AcDbLine
 10
139.431967
 20
182.931485
 30
0.0
 11
139.431967
 21
160.931485
 31
0.0
  0
ARC
  5
15C
330
1F
100
AcDbEntity
  8
002
 62
     3
370
    30
100
AcDbCircle
 10
142.431967
 20
160.931485
 30
0.0
 40
3.0
100
AcDbArc
 50
180.0
 51
270.0
  0
LINE
  5
15D
330
1F
100
AcDbEntity
  8
002
 62
     3
370
    30
100
AcDbLine
 10
142.431967
 20
157.931485
 30
0.0
 11
185.727867
 21
157.931485
 31
0.0
  0
LINE
  5
15E
330
1F
100
AcDbEntity
  8
002
 62
     3
370
    30
100
AcDbLine
 10
185.771667
 20
158.617585
 30
0.0
 11
184.766967
 21
142.878185
 31
0.0
  0
LINE
  5
15F
330
1F
100
AcDbEntity
  8
002
 62
     3
370
    30
100
AcDbLine
 10
184.766967
 20
142.984685
 30
0.0
 11
186.154367
 21
121.249985
 31
0.0
  0
LINE
  5
160
330
1F
100
AcDbEntity
  8
002
 62
     3
370
    30
100
AcDbLine
 10
187.023967
 20
118.038485
 30
0.0
 11
185.428967
 21
143.026985
 31
0.0
  0
LINE
  5
161
330
1F
100
AcDbEntity
  8
002
 62
     3
370
    30
100
AcDbLine
 10
185.428967
 20
142.835885
 30
0.0
 11
186.284267
 21
156.236485
 31
0.0
  0
ARC
  5
162
330
1F
100
AcDbEntity
  8
002
 62
     3
370
    30
100
AcDbCircle
 10
178.803067
 20
137.931485
 30
0.0
 40
19.99995881245758
100
AcDbArc
 50
90.0
 51
100.689433
  0
LINE
  5
163
330
1F
100
AcDbEntity
  8
002
 62
     3
370
    30
100
AcDbLine
 10
175.093367
 20
157.584385
 30
0.0
 11
153.399267
 21
153.489385
 31
0.0
  0
LINE
  5
164
330
1F
100
AcDbEntity
  8
002
 62
     3
370
    30
100
AcDbLine
 10
149.194267
 20
154.096685
 30
0.0
 11
141.064167
 21
158.261385
 31
0.0
  0
LINE
  5
165
330
1F
100
AcDbEntity
  8
002
 62
     3
370
    30
100
AcDbLine
 10
140.931967
 20
156.962785
 30
0.0
 11
140.931967
 21
116.900085
 31
0.0
  0
LINE
  5
166
330
1F
100
AcDbEntity
  8
002
 62
     3
370
    30
100
AcDbLine
 10
142.431967
 20
115.931485
 30
0.0
 11
181.164467
 21
115.931485
 31
0.0
  0
ARC
  5
167
330
1F
100
AcDbEntity
  8
002
 62
     3
370
    30
100
AcDbCircle
 10
181.164467
 20
120.931485
 30
0.0
 40
5.000054425703817
100
AcDbArc
 50
270.0
 51
3.652174
  0
ARC
  5
168
330
1F
100
AcDbEntity
  8
002
 62
     3
370
    30
100
AcDbCircle
 10
184.030067
 20
117.847385
 30
0.0
 40
2.999992736657927
100
AcDbArc
 50
270.0
 51
3.652223
  0
LINE
  5
169
330
1F
100
AcDbEntity
  8
002
 62
     3
370
    30
100
AcDbLine
 10
186.931967
 20
113.931485
 30
0.0
 11
183.565267
 21
113.931485
 31
0.0
  0
LINE
  5
16A
330
1F
100
AcDbEntity
  8
002
 62
     3
370
    30
100
AcDbLine
 10
183.565267
 20
113.931485
 30
0.0
 11
183.565267
 21
112.931485
 31
0.0
  0
LINE
  5
16B
330
1F
100
AcDbEntity
  8
002
 62
     3
370
    30
100
AcDbLine
 10
183.565267
 20
112.931485
 30
0.0
 11
170.298767
 21
112.931485
 31
0.0
  0
LINE
  5
16C
330
1F
100
AcDbEntity
  8
002
 62
     3
370
    30
100
AcDbLine
 10
170.298767
 20
112.931485
 30
0.0
 11
170.298767
 21
113.931485
 31
0.0
  0
LINE
  5
16D
330
1F
100
AcDbEntity
  8
002
 62
     3
370
    30
100
AcDbLine
 10
170.298767
 20
113.931485
 30
0.0
 11
166.931967
 21
113.931485
 31
0.0
  0
ARC
  5
16E
330
1F
100
AcDbEntity
  8
002
 62
     3
370
    30
100
AcDbCircle
 10
166.931967
 20
109.931485
 30
0.0
 40
4.0
100
AcDbArc
 50
90.0
 51
180.0
  0
LINE
  5
16F
330
1F
100
AcDbEntity
  8
002
 62
     3
370
    30
100
AcDbLine
 10
162.931967
 20
109.931485
 30
0.0
 11
162.931967
 21
102.931485
 31
0.0
  0
LINE
  5
170
330
1F
100
AcDbEntity
  8
002
 62
     3
370
    30
100
AcDbLine
 10
165.272067
 20
98.931485
 30
0.0
 11
165.272067
 21
93.931485
 31
0.0
  0
LINE
  5
171
330
1F
100
AcDbEntity
  8
002
 62
     3
370
    30
100
AcDbLine
 10
156.772067
 20
93.931485
 30
0.0
 11
156.772067
 21
98.931485
 31
0.0
  0
LINE
  5
172
330
1F
100
AcDbEntity
  8
002
 62
     3
370
    30
100
AcDbLine
 10
156.772067
 20
93.931485
 30
0.0
 11
165.272067
 21
93.931485
 31
0.0
  0
LINE
  5
173
330
1F
100
AcDbEntity
  8
002
 62
     3
370
    30
100
AcDbLine
 10
159.931967
 20
93.931485
 30
0.0
 11
159.931967
 21
72.931485
 31
0.0
  0
LINE
  5
174
330
1F
100
AcDbEntity
  8
002
 62
     3
370
    30
100
AcDbLine
 10
159.931967
 20
72.931485
 30
0.0
 11
193.931967
 21
72.931485
 31
0.0
  0
LINE
  5
175
330
1F
100
AcDbEntity
  8
002
 62
     3
370
    30
100
AcDbLine
 10
193.931967
 20
72.931485
 30
0.0
 11
193.931967
 21
93.931485
 31
0.0
  0
LINE
  5
176
330
1F
100
AcDbEntity
  8
002
 62
     3
370
    30
100
AcDbLine
 10
197.091867
 20
93.931485
 30
0.0
 11
188.591867
 21
93.931485
 31
0.0
  0
LINE
  5
177
330
1F
100
AcDbEntity
  8
002
 62
     3
370
    30
100
AcDbLine
 10
188.591867
 20
93.931485
 30
0.0
 11
188.591867
 21
98.931485
 31
0.0
  0
LINE
  5
178
330
1F
100
AcDbEntity
  8
002
 62
     3
370
    30
100
AcDbLine
 10
190.931967
 20
102.931485
 30
0.0
 11
190.931967
 21
109.931485
 31
0.0
  0
ARC
  5
179
330
1F
100
AcDbEntity
  8
002
 62
     3
370
    30
100
AcDbCircle
 10
186.931967
 20
109.931485
 30
0.0
 40
4.0
100
AcDbArc
 50
0.0
 51
90.0
  0
ARC
  5
17A
330
1F
100
AcDbEntity
  8
002
 62
     3
370
    30
100
AcDbCircle
 10
176.931967
 20
52.147085
 30
0.0
 40
62.4129645475201
100
AcDbArc
 50
81.861485
 51
98.138424
  0
LINE
  5
17B
330
1F
100
AcDbEntity
  8
002
 62
     3
370
    30
100
AcDbLine
 10
162.931967
 20
113.931485
 30
0.0
 11
151.931967
 21
115.931485
 31
0.0
  0
LINE
  5
17C
330
1F
100
AcDbEntity
  8
002
 62
     3
370
    30
100
AcDbLine
 10
151.931967
 20
113.931485
 30
0.0
 11
151.931967
 21
102.931485
 31
0.0
  0
LINE
  5
17D
330
1F
100
AcDbEntity
  8
002
 62
     3
370
    30
100
AcDbLine
 10
149.431967
 20
102.931485
 30
0.0
 11
149.431967
 21
98.931485
 31
0.0
  0
LINE
  5
17E
330
1F
100
AcDbEntity
  8
002
 62
     3
370
    30
100
AcDbLine
 10
149.431967
 20
98.931485
 30
0.0
 11
204.431967
 21
98.931485
 31
0.0
  0
LINE
  5
17F
330
1F
100
AcDbEntity
  8
002
 62
     3
370
    30
100
AcDbLine
 10
204.431967
 20
98.931485
 30
0.0
 11
204.431967
 21
102.931485
 31
0.0
  0
LINE
  5
180
330
1F
100
AcDbEntity
  8
002
 62
     3
370
    30
100
AcDbLine
 10
201.931967
 20
102.931485
 30
0.0
 11
201.931967
 21
113.931485
 31
0.0
  0
LINE
  5
181
330
1F
100
AcDbEntity
  8
002
 62
     3
370
    30
100
AcDbLine
 10
196.163967
 20
117.386385
 30
0.0
 11
196.163967
 21
117.638485
 31
0.0
  0
LINE
  5
182
330
1F
100
AcDbEntity
  8
002
 62
     3
370
    30
100
AcDbLine
 10
195.626967
 20
120.283785
 30
0.0
 11
209.027567
 21
119.428385
 31
0.0
  0
LINE
  5
183
330
1F
100
AcDbEntity
  8
002
 62
     3
370
    30
100
AcDbLine
 10
208.836467
 20
119.428385
 30
0.0
 11
222.236967
 21
120.283785
 31
0.0
  0
ARC
  5
184
330
1F
100
AcDbEntity
  8
002
 62
     3
370
    30
100
AcDbCircle
 10
221.599967
 20
130.263385
 30
0.0
 40
10.00000905449588
100
AcDbArc
 50
273.652247
 51
356.347789
  0
LINE
  5
185
330
1F
100
AcDbEntity
  8
002
 62
     3
370
    30
100
AcDbLine
 10
231.579667
 20
129.626385
 30
0.0
 11
232.435067
 21
143.026985
 31
0.0
  0
LINE
  5
186
330
1F
100
AcDbEntity
  8
002
 62
     3
370
    30
100
AcDbLine
 10
232.435067
 20
142.835885
 30
0.0
 11
231.579667
 21
156.236485
 31
0.0
  0
ARC
  5
187
330
1F
100
AcDbEntity
  8
002
 62
     3
370
    30
100
AcDbCircle
 10
221.599967
 20
155.599485
 30
0.0
 40
9.99990925758829
100
AcDbArc
 50
3.652211
 51
86.347753
  0
LINE
  5
188
330
1F
100
AcDbEntity
  8
002
 62
     3
370
    30
100
AcDbLine
 10
222.236967
 20
165.579085
 30
0.0
 11
208.836467
 21
166.434485
 31
0.0
  0
LINE
  5
189
330
1F
100
AcDbEntity
  8
002
 62
     3
370
    30
100
AcDbLine
 10
209.027567
 20
166.434485
 30
0.0
 11
195.626967
 21
165.579085
 31
0.0
  0
ARC
  5
18A
330
1F
100
AcDbEntity
  8
002
 62
     3
370
    30
100
AcDbCircle
 10
196.263967
 20
155.599485
 30
0.0
 40
10.00000905449588
100
AcDbArc
 50
93.652247
 51
176.347789
  0
LINE
  5
18B
330
1F
100
AcDbEntity
  8
002
 62
     3
370
    30
100
AcDbLine
 10
193.245767
 20
166.091785
 30
0.0
 11
208.662767
 21
167.097785
 31
0.0
  0
LINE
  5
18C
330
1F
100
AcDbEntity
  8
002
 62
     3
370
    30
100
AcDbLine
 10
208.662767
 20
167.097785
 30
0.0
 11
210.444567
 21
167.269085
 31
0.0
  0
ARC
  5
18D
330
1F
100
AcDbEntity
  8
002
 62
     3
370
    30
100
AcDbCircle
 10
210.157367
 20
170.255385
 30
0.0
 40
2.999998641666362
100
AcDbArc
 50
275.493385
 51
347.987011
  0
ARC
  5
18E
330
1F
100
AcDbEntity
  8
002
 62
     3
370
    30
100
AcDbCircle
 10
216.157367
 20
170.374985
 30
0.0
 40
2.999916580506864
100
AcDbArc
 50
194.955777
 51
266.961816
  0
LINE
  5
18F
330
1F
100
AcDbEntity
  8
002
 62
     3
370
    30
100
AcDbLine
 10
215.998367
 20
167.379285
 30
0.0
 11
225.406267
 21
166.879885
 31
0.0
  0
LINE
  5
190
330
1F
100
AcDbEntity
  8
002
 62
     3
370
    30
100
AcDbLine
 10
226.793467
 20
170.931485
 30
0.0
 11
226.793467
 21
171.931485
 31
0.0
  0
LINE
  5
191
330
1F
100
AcDbEntity
  8
002
 62
     3
370
    30
100
AcDbLine
 10
226.931967
 20
171.931485
 30
0.0
 11
227.931967
 21
172.931485
 31
0.0
  0
LINE
  5
192
330
1F
100
AcDbEntity
  8
002
 62
     3
370
    30
100
AcDbLine
 10
227.931967
 20
172.931485
 30
0.0
 11
227.931967
 21
175.931485
 31
0.0
  0
LINE
  5
193
330
1F
100
AcDbEntity
  8
002
 62
     3
370
    30
100
AcDbLine
 10
227.931967
 20
175.931485
 30
0.0
 11
225.791967
 21
178.844885
 31
0.0
  0
LINE
  5
194
330
1F
100
AcDbEntity
  8
002
 62
     3
370
    30
100
AcDbLine
 10
225.229467
 20
179.407485
 30
0.0
 11
220.634467
 21
179.407485
 31
0.0
  0
LINE
  5
195
330
1F
100
AcDbEntity
  8
002
 62
     3
370
    30
100
AcDbLine
 10
220.212867
 20
180.081985
 30
0.0
 11
219.681967
 21
180.931485
 31
0.0
  0
LINE
  5
196
330
1F
100
AcDbEntity
  8
002
 62
     3
370
    30
100
AcDbLine
 10
219.681967
 20
180.931485
 30
0.0
 11
220.431967
 21
183.931485
 31
0.0
  0
LINE
  5
197
330
1F
100
AcDbEntity
  8
002
 62
     3
370
    30
100
AcDbLine
 10
220.431967
 20
183.931485
 30
0.0
 11
225.431967
 21
183.931485
 31
0.0
  0
LINE
  5
198
330
1F
100
AcDbEntity
  8
002
 62
     3
370
    30
100
AcDbLine
 10
225.431967
 20
183.931485
 30
0.0
 11
226.181967
 21
180.931485
 31
0.0
  0
LINE
  5
199
330
1F
100
AcDbEntity
  8
002
 62
     3
370
    30
100
AcDbLine
 10
226.181967
 20
180.931485
 30
0.0
 11
225.651067
 21
180.081985
 31
0.0
  0
ARC
  5
19A
330
1F
100
AcDbEntity
  8
002
 62
     3
370
    30
100
AcDbCircle
 10
226.499067
 20
179.551985
 30
0.0
 40
0.9999904099540112
100
AcDbArc
 50
147.994617
 51
225.0
  0
LINE
  5
19B
330
1F
100
AcDbEntity
  8
002
 62
     3
370
    30
100
AcDbLine
 10
225.431967
 20
180.931485
 30
0.0
 11
220.431967
 21
180.931485
 31
0.0
  0
ARC
  5
19C
330
1F
100
AcDbEntity
  8
002
 62
     3
370
    30
100
AcDbCircle
 10
219.364867
 20
179.551985
 30
0.0
 40
1.000001999997949
100
AcDbArc
 50
315.0
 51
32.005383
  0
LINE
  5
19D
330
1F
100
AcDbEntity
  8
002
 62
     3
370
    30
100
AcDbLine
 10
220.071967
 20
178.844885
 30
0.0
 11
217.931967
 21
175.931485
 31
0.0
  0
LINE
  5
19E
330
1F
100
AcDbEntity
  8
002
 62
     3
370
    30
100
AcDbLine
 10
217.931967
 20
175.931485
 30
0.0
 11
217.931967
 21
172.931485
 31
0.0
  0
LINE
  5
19F
330
1F
100
AcDbEntity
  8
002
 62
     3
370
    30
100
AcDbLine
 10
217.931967
 20
172.931485
 30
0.0
 11
218.931967
 21
171.931485
 31
0.0
  0
LINE
  5
1A0
330
1F
100
AcDbEntity
  8
002
 62
     3
370
    30
100
AcDbLine
 10
218.931967
 20
171.931485
 30
0.0
 11
226.931967
 21
171.931485
 31
0.0
  0
ARC
  5
1A1
330
1F
100
AcDbEntity
  8
002
 62
     3
370
    30
100
AcDbCircle
 10
225.431967
 20
173.306485
 30
0.0
 40
3.625
100
AcDbArc
 50
46.397181
 51
133.602819
  0
LINE
  5
1A2
330
1F
100
AcDbEntity
  8
002
 62
     3
370
    30
100
AcDbLine
 10
222.931967
 20
175.931485
 30
0.0
 11
222.931967
 21
172.931485
 31
0.0
  0
ARC
  5
1A3
330
1F
100
AcDbEntity
  8
002
 62
     3
370
    30
100
AcDbCircle
 10
225.431967
 20
175.556485
 30
0.0
 40
3.625
100
AcDbArc
 50
226.397181
 51
313.602819
  0
LINE
  5
1A4
330
1F
100
AcDbEntity
  8
002
 62
     3
370
    30
100
AcDbLine
 10
232.931967
 20
170.931485
 30
0.0
 11
232.931967
 21
163.259385
 31
0.0
  0
ARC
  5
1A5
330
1F
100
AcDbEntity
  8
002
 62
     3
370
    30
100
AcDbCircle
 10
235.931967
 20
163.259385
 30
0.0
 40
2.999903306775083
100
AcDbArc
 50
180.0
 51
250.503815
  0
LINE
  5
1A6
330
1F
100
AcDbEntity
  8
002
 62
     3
370
    30
100
AcDbLine
 10
234.930767
 20
160.431485
 30
0.0
 11
234.930767
 21
125.431485
 31
0.0
  0
LINE
  5
1A7
330
1F
100
AcDbEntity
  8
002
 62
     3
370
    30
100
AcDbLine
 10
234.930767
 20
125.431485
 30
0.0
 11
234.905667
 21
125.431485
 31
0.0
  0
ARC
  5
1A8
330
1F
100
AcDbEntity
  8
002
 62
     3
370
    30
100
AcDbCircle
 10
234.918267
 20
122.431485
 30
0.0
 40
3.000050641239147
100
AcDbArc
 50
89.761269
 51
155.651038
  0
LINE
  5
1A9
330
1F
100
AcDbEntity
  8
002
 62
     3
370
    30
100
AcDbLine
 10
232.880467
 20
126.457185
 30
0.0
 11
233.931967
 21
142.931485
 31
0.0
  0
LINE
  5
1AA
330
1F
100
AcDbEntity
  8
002
 62
     3
370
    30
100
AcDbLine
 10
233.931967
 20
142.931485
 30
0.0
 11
232.880467
 21
159.405685
 31
0.0
  0
ARC
  5
1AB
330
1F
100
AcDbEntity
  8
002
 62
     3
370
    30
100
AcDbCircle
 10
224.896667
 20
158.896085
 30
0.0
 40
8.00004716236101
100
AcDbArc
 50
3.652192
 51
86.347808
  0
LINE
  5
1AC
330
1F
100
AcDbEntity
  8
002
 62
     3
370
    30
100
AcDbLine
 10
219.070467
 20
170.931485
 30
0.0
 11
219.070467
 21
171.931485
 31
0.0
  0
ARC
  5
1AD
330
1F
100
AcDbEntity
  8
002
 62
     3
370
    30
100
AcDbCircle
 10
220.431967
 20
175.556485
 30
0.0
 40
3.625
100
AcDbArc
 50
226.397181
 51
313.602819
  0
ARC
  5
1AE
330
1F
100
AcDbEntity
  8
002
 62
     3
370
    30
100
AcDbCircle
 10
220.431967
 20
173.306485
 30
0.0
 40
3.625
100
AcDbArc
 50
46.397181
 51
133.602819
  0
LINE
  5
1AF
330
1F
100
AcDbEntity
  8
002
 62
     3
370
    30
100
AcDbLine
 10
214.431967
 20
172.931485
 30
0.0
 11
139.431967
 21
172.931485
 31
0.0
  0
LINE
  5
1B0
330
1F
100
AcDbEntity
  8
002
 62
     3
370
    30
100
AcDbLine
 10
147.183267
 20
182.931485
 30
0.0
 11
147.183267
 21
188.931485
 31
0.0
  0
LINE
  5
1B1
330
1F
100
AcDbEntity
  8
002
 62
     3
370
    30
100
AcDbLine
 10
157.183267
 20
188.931485
 30
0.0
 11
157.183267
 21
182.931485
 31
0.0
  0
LINE
  5
1B2
330
1F
100
AcDbEntity
  8
002
 62
     3
370
    30
100
AcDbLine
 10
157.183267
 20
188.931485
 30
0.0
 11
147.183267
 21
188.931485
 31
0.0
  0
LINE
  5
1B3
330
1F
100
AcDbEntity
  8
002
 62
     3
370
    30
100
AcDbLine
 10
166.932367
 20
382.931485
 30
0.0
 11
186.932267
 21
382.931485
 31
0.0
  0
LINE
  5
1B4
330
1F
100
AcDbEntity
  8
002
 62
     3
370
    30
100
AcDbLine
 10
196.680767
 20
182.931485
 30
0.0
 11
196.680767
 21
188.931485
 31
0.0
  0
LINE
  5
1B5
330
1F
100
AcDbEntity
  8
002
 62
     3
370
    30
100
AcDbLine
 10
206.680767
 20
188.931485
 30
0.0
 11
206.680767
 21
182.931485
 31
0.0
  0
LINE
  5
1B6
330
1F
100
AcDbEntity
  8
002
 62
     3
370
    30
100
AcDbLine
 10
206.680767
 20
188.931485
 30
0.0
 11
196.680767
 21
188.931485
 31
0.0
  0
ARC
  5
1B7
330
1F
100
AcDbEntity
  8
002
 62
     3
370
    30
100
AcDbCircle
 10
215.157367
 20
172.931485
 30
0.0
 40
2.0
100
AcDbArc
 50
180.0
 51
270.0
  0
ARC
  5
1B8
330
1F
100
AcDbEntity
  8
002
 62
     3
370
    30
100
AcDbCircle
 10
222.931967
 20
183.269985
 30
0.0
 40
1.000041124154395
100
AcDbArc
 50
41.412294
 51
138.587706
  0
CIRCLE
  5
1B9
330
1F
100
AcDbEntity
  8
002
 62
     3
370
    30
100
AcDbCircle
 10
208.931967
 20
142.931485
 30
0.0
 40
17.5
  0
LINE
  5
1BA
330
1F
100
AcDbEntity
  8
002
 62
     3
370
    30
100
AcDbLine
 10
211.431967
 20
147.681485
 30
0.0
 11
211.181967
 21
147.431485
 31
0.0
  0
LINE
  5
1BB
330
1F
100
AcDbEntity
  8
002
 62
     3
370
    30
100
AcDbLine
 10
211.181967
 20
147.431485
 30
0.0
 11
206.681967
 21
147.431485
 31
0.0
  0
LINE
  5
1BC
330
1F
100
AcDbEntity
  8
002
 62
     3
370
    30
100
AcDbLine
 10
206.681967
 20
147.431485
 30
0.0
 11
206.431967
 21
147.681485
 31
0.0
  0
LINE
  5
1BD
330
1F
100
AcDbEntity
  8
002
 62
     3
370
    30
100
AcDbLine
 10
206.431967
 20
147.681485
 30
0.0
 11
206.431967
 21
152.181485
 31
0.0
  0
LINE
  5
1BE
330
1F
100
AcDbEntity
  8
002
 62
     3
370
    30
100
AcDbLine
 10
206.431967
 20
152.181485
 30
0.0
 11
206.681967
 21
152.431485
 31
0.0
  0
LINE
  5
1BF
330
1F
100
AcDbEntity
  8
002
 62
     3
370
    30
100
AcDbLine
 10
206.681967
 20
152.431485
 30
0.0
 11
211.181967
 21
152.431485
 31
0.0
  0
LINE
  5
1C0
330
1F
100
AcDbEntity
  8
002
 62
     3
370
    30
100
AcDbLine
 10
211.181967
 20
152.431485
 30
0.0
 11
211.431967
 21
152.181485
 31
0.0
  0
LINE
  5
1C1
330
1F
100
AcDbEntity
  8
002
 62
     3
370
    30
100
AcDbLine
 10
211.431967
 20
152.181485
 30
0.0
 11
211.431967
 21
147.681485
 31
0.0
  0
ARC
  5
1C2
330
1F
100
AcDbEntity
  8
002
 62
     3
370
    30
100
AcDbCircle
 10
211.231967
 20
147.631485
 30
0.0
 40
0.2000000000000455
100
AcDbArc
 50
270.0
 51
0.0
  0
ARC
  5
1C3
330
1F
100
AcDbEntity
  8
002
 62
     3
370
    30
100
AcDbCircle
 10
206.631967
 20
147.631485
 30
0.0
 40
0.1999999999999886
100
AcDbArc
 50
180.0
 51
270.0
  0
ARC
  5
1C4
330
1F
100
AcDbEntity
  8
002
 62
     3
370
    30
100
AcDbCircle
 10
208.931967
 20
142.931485
 30
0.0
 40
7.499936066394138
100
AcDbArc
 50
109.471393
 51
70.528607
  0
ARC
  5
1C5
330
1F
100
AcDbEntity
  8
002
 62
     3
370
    30
100
AcDbCircle
 10
208.931967
 20
142.931485
 30
0.0
 40
8.499963294038361
100
AcDbArc
 50
107.104711
 51
72.895289
  0
ARC
  5
1C6
330
1F
100
AcDbEntity
  8
002
 62
     3
370
    30
100
AcDbCircle
 10
213.306967
 20
127.806485
 30
0.0
 40
2.5
100
AcDbArc
 50
45.150714
 51
180.0
  0
LINE
  5
1C7
330
1F
100
AcDbEntity
  8
002
 62
     3
370
    30
100
AcDbLine
 10
210.806967
 20
127.806485
 30
0.0
 11
210.806967
 21
125.559885
 31
0.0
  0
LINE
  5
1C8
330
1F
100
AcDbEntity
  8
002
 62
     3
370
    30
100
AcDbLine
 10
207.056967
 20
125.559885
 30
0.0
 11
207.056967
 21
127.806485
 31
0.0
  0
ARC
  5
1C9
330
1F
100
AcDbEntity
  8
002
 62
     3
370
    30
100
AcDbCircle
 10
204.556967
 20
127.806485
 30
0.0
 40
2.499984673953032
100
AcDbArc
 50
0.0
 51
134.849286
  0
ARC
  5
1CA
330
1F
100
AcDbEntity
  8
002
 62
     3
370
    30
100
AcDbCircle
 10
201.030767
 20
131.351285
 30
0.0
 40
2.499984673953032
100
AcDbArc
 50
233.133311
 51
314.849286
  0
CIRCLE
  5
1CB
330
1F
100
AcDbEntity
  8
002
 62
     3
370
    30
100
AcDbCircle
 10
204.556967
 20
127.806485
 30
0.0
 40
1.09375
  0
CIRCLE
  5
1CC
330
1F
100
AcDbEntity
  8
002
 62
     3
370
    30
100
AcDbCircle
 10
213.306967
 20
127.806485
 30
0.0
 40
1.09375
  0
ARC
  5
1CD
330
1F
100
AcDbEntity
  8
002
 62
     3
370
    30
100
AcDbCircle
 10
216.833167
 20
131.351285
 30
0.0
 40
2.500080000720002
100
AcDbArc
 50
225.150714
 51
306.868523
  0
ARC
  5
1CE
330
1F
100
AcDbEntity
  8
002
 62
     3
370
    30
100
AcDbCircle
 10
208.931967
 20
141.887085
 30
0.0
 40
15.66938001389977
100
AcDbArc
 50
306.867777
 51
233.132516
  0
ARC
  5
1CF
330
1F
100
AcDbEntity
  8
002
 62
     3
370
    30
100
AcDbCircle
 10
196.263967
 20
130.263385
 30
0.0
 40
9.999909257588243
100
AcDbArc
 50
183.652211
 51
266.347753
  0
ARC
  5
1D0
330
1F
100
AcDbEntity
  8
002
 62
     3
370
    30
100
AcDbCircle
 10
193.163967
 20
117.386385
 30
0.0
 40
3.0
100
AcDbArc
 50
280.303822
 51
0.0
  0
LINE
  5
1D1
330
1F
100
AcDbEntity
  8
002
 62
     3
370
    30
100
AcDbLine
 10
193.700567
 20
114.434785
 30
0.0
 11
190.931967
 21
113.931485
 31
0.0
  0
LINE
  5
1D2
330
1F
100
AcDbEntity
  8
002
 62
     3
370
    30
100
AcDbLine
 10
197.091867
 20
98.931485
 30
0.0
 11
197.091867
 21
93.931485
 31
0.0
  0
LINE
  5
1D3
330
1F
100
AcDbEntity
  8
002
 62
     3
370
    30
100
AcDbLine
 10
214.431967
 20
102.931485
 30
0.0
 11
214.431967
 21
113.591485
 31
0.0
  0
LINE
  5
1D4
330
1F
100
AcDbEntity
  8
002
 62
     3
370
    30
100
AcDbLine
 10
219.113467
 20
118.581285
 30
0.0
 11
225.406267
 21
118.982985
 31
0.0
  0
ARC
  5
1D5
330
1F
100
AcDbEntity
  8
002
 62
     3
370
    30
100
AcDbCircle
 10
224.896667
 20
126.966785
 30
0.0
 40
8.000047162360957
100
AcDbArc
 50
273.652192
 51
356.347808
  0
ARC
  5
1D6
330
1F
100
AcDbEntity
  8
002
 62
     3
370
    30
100
AcDbCircle
 10
219.431967
 20
113.591485
 30
0.0
 40
5.0
100
AcDbArc
 50
93.652247
 51
180.0
  0
LINE
  5
1D7
330
1F
100
AcDbEntity
  8
002
 62
     3
370
    30
100
AcDbLine
 10
214.431967
 20
102.931485
 30
0.0
 11
139.431967
 21
102.931485
 31
0.0
  0
LINE
  5
1D8
330
1F
100
AcDbEntity
  8
002
 62
     3
370
    30
100
AcDbLine
 10
139.431967
 20
102.931485
 30
0.0
 11
139.431967
 21
112.931485
 31
0.0
  0
ARC
  5
1D9
330
1F
100
AcDbEntity
  8
002
 62
     3
370
    30
100
AcDbCircle
 10
137.931967
 20
116.900085
 30
0.0
 40
3.0
100
AcDbArc
 50
318.590571
 51
0.0
  0
ARC
  5
1DA
330
1F
100
AcDbEntity
  8
002
 62
     3
370
    30
100
AcDbCircle
 10
142.431967
 20
112.931485
 30
0.0
 40
3.0
100
AcDbArc
 50
90.0
 51
180.0
  0
ARC
  5
1DB
330
1F
100
AcDbEntity
  8
002
 62
     3
370
    30
100
AcDbCircle
 10
152.183267
 20
159.931485
 30
0.0
 40
6.555860615510388
100
AcDbArc
 50
242.875244
 51
280.689287
  0
ARC
  5
1DC
330
1F
100
AcDbEntity
  8
002
 62
     3
370
    30
100
AcDbCircle
 10
137.931967
 20
156.962785
 30
0.0
 40
2.999991081653423
100
AcDbArc
 50
0.0
 51
41.409429
  0
ARC
  5
1DD
330
1F
100
AcDbEntity
  8
002
 62
     3
370
    30
100
AcDbCircle
 10
193.755367
 20
158.107985
 30
0.0
 40
7.999947365451852
100
AcDbArc
 50
93.652192
 51
176.347762
  0
LINE
  5
1DE
330
1F
100
AcDbEntity
  8
002
 62
     3
370
    30
100
AcDbLine
 10
182.931967
 20
382.931485
 30
0.0
 11
182.931967
 21
402.931485
 31
0.0
  0
LINE
  5
1DF
330
1F
100
AcDbEntity
  8
002
 62
     3
370
    30
100
AcDbLine
 10
182.931967
 20
402.931485
 30
0.0
 11
170.931967
 21
402.931485
 31
0.0
  0
LINE
  5
1E0
330
1F
100
AcDbEntity
  8
002
 62
     3
370
    30
100
AcDbLine
 10
170.931967
 20
402.931485
 30
0.0
 11
170.931967
 21
382.931485
 31
0.0
  0
LINE
  5
1E1
330
1F
100
AcDbEntity
  8
002
  6
CENTER
 62
    40
370
     9
100
AcDbLine
 10
152.183267
 20
193.431485
 30
0.0
 11
152.183267
 21
167.097785
 31
0.0
  0
LINE
  5
1E2
330
1F
100
AcDbEntity
  8
002
  6
CENTER
 62
    40
370
     9
100
AcDbLine
 10
131.816567
 20
142.931485
 30
0.0
 11
243.863767
 21
142.931485
 31
0.0
  0
LINE
  5
1E3
330
1F
100
AcDbEntity
  8
002
  6
CENTER
 62
    40
370
     9
100
AcDbLine
 10
222.931967
 20
168.189785
 30
0.0
 11
222.931967
 21
186.535385
 31
0.0
  0
LINE
  5
1E4
330
1F
100
AcDbEntity
  8
002
  6
CENTER
 62
    40
370
     9
100
AcDbLine
 10
208.931967
 20
191.491985
 30
0.0
 11
208.931967
 21
94.888285
 31
0.0
  0
LINE
  5
1E5
330
1F
100
AcDbEntity
  8
002
  6
CENTER
 62
    40
370
     9
100
AcDbLine
 10
192.841867
 20
92.431485
 30
0.0
 11
192.841867
 21
104.931485
 31
0.0
  0
LINE
  5
1E6
330
1F
100
AcDbEntity
  8
002
  6
CENTER
 62
    40
370
     9
100
AcDbLine
 10
161.022067
 20
104.931485
 30
0.0
 11
161.022067
 21
92.431485
 31
0.0
  0
LINE
  5
1E7
330
1F
100
AcDbEntity
  8
002
  6
CENTER
 62
    40
370
     9
100
AcDbLine
 10
201.680767
 20
167.097785
 30
0.0
 11
201.680767
 21
193.431485
 31
0.0
  0
LINE
  5
1E8
330
1F
100
AcDbEntity
  8
002
  6
HIDDEN
 62
    40
370
     9
100
AcDbLine
 10
188.931967
 20
112.931485
 30
0.0
 11
188.931967
 21
113.395585
 31
0.0
  0
LINE
  5
1E9
330
1F
100
AcDbEntity
  8
002
  6
HIDDEN
 62
    40
370
     9
100
AcDbLine
 10
164.931967
 20
112.931485
 30
0.0
 11
164.931967
 21
113.395585
 31
0.0
  0
LINE
  5
1EA
330
1F
100
AcDbEntity
  8
002
  6
HIDDEN
 62
    40
370
     9
100
AcDbLine
 10
170.298767
 20
112.931485
 30
0.0
 11
164.931967
 21
112.931485
 31
0.0
  0
LINE
  5
1EB
330
1F
100
AcDbEntity
  8
002
  6
HIDDEN
 62
    40
370
     9
100
AcDbLine
 10
171.431967
 20
102.931485
 30
0.0
 11
171.431967
 21
112.931485
 31
0.0
  0
LINE
  5
1EC
330
1F
100
AcDbEntity
  8
002
  6
HIDDEN
 62
    40
370
     9
100
AcDbLine
 10
182.431967
 20
112.931485
 30
0.0
 11
182.431967
 21
102.931485
 31
0.0
  0
LINE
  5
1ED
330
1F
100
AcDbEntity
  8
002
  6
HIDDEN
 62
    40
370
     9
100
AcDbLine
 10
188.931967
 20
112.931485
 30
0.0
 11
183.565267
 21
112.931485
 31
0.0
  0
LINE
  5
1EE
330
1F
100
AcDbEntity
  8
002
  6
CENTER
 62
    40
370
     9
100
AcDbLine
 10
176.931967
 20
563.315629
 30
0.0
 11
176.931967
 21
492.497229
 31
0.0
  0
LINE
  5
1EF
330
1F
100
AcDbEntity
  8
002
  6
CENTER
 62
    40
370
     9
100
AcDbLine
 10
212.989992
 20
527.867829
 30
0.0
 11
140.934012
 21
527.867829
 31
0.0
  0
LINE
  5
1F0
330
1F
100
AcDbEntity
  8
002
 62
     3
370
    30
100
AcDbLine
 10
169.94985
 20
543.367585
 30
0.0
 11
183.914099
 21
543.367585
 31
0.0
  0
LINE
  5
1F1
330
1F
100
AcDbEntity
  8
002
 62
     3
370
    30
100
AcDbLine
 10
181.931982
 20
543.367829
 30
0.0
 11
181.931982
 21
549.667633
 31
0.0
  0
LINE
  5
1F2
330
1F
100
AcDbEntity
  8
002
 62
     3
370
    30
100
AcDbLine
 10
171.932013
 20
543.367829
 30
0.0
 11
171.932013
 21
549.667633
 31
0.0
  0
LINE
  5
1F3
330
1F
100
AcDbEntity
  8
002
 62
     3
370
    30
100
AcDbLine
 10
181.931982
 20
549.667633
 30
0.0
 11
171.932013
 21
549.667633
 31
0.0
  0
LINE
  5
1F4
330
1F
100
AcDbEntity
  8
002
 62
     3
370
    30
100
AcDbLine
 10
181.931982
 20
544.167633
 30
0.0
 11
171.932013
 21
544.167633
 31
0.0
  0
LINE
  5
1F5
330
1F
100
AcDbEntity
  8
002
 62
     3
370
    30
100
AcDbLine
 10
183.914114
 20
512.368203
 30
0.0
 11
169.949866
 21
512.368203
 31
0.0
  0
LINE
  5
1F6
330
1F
100
AcDbEntity
  8
002
 62
     3
370
    30
100
AcDbLine
 10
171.932059
 20
512.367813
 30
0.0
 11
171.932059
 21
506.068009
 31
0.0
  0
LINE
  5
1F7
330
1F
100
AcDbEntity
  8
002
 62
     3
370
    30
100
AcDbLine
 10
181.932043
 20
512.367829
 30
0.0
 11
181.932043
 21
506.068024
 31
0.0
  0
LINE
  5
1F8
330
1F
100
AcDbEntity
  8
002
 62
     3
370
    30
100
AcDbLine
 10
171.931982
 20
506.068161
 30
0.0
 11
181.931967
 21
506.068161
 31
0.0
  0
LINE
  5
1F9
330
1F
100
AcDbEntity
  8
002
 62
     3
370
    30
100
AcDbLine
 10
171.931982
 20
511.568161
 30
0.0
 11
181.931967
 21
511.568161
 31
0.0
  0
LINE
  5
1FA
330
1F
100
AcDbEntity
  8
002
 62
     3
370
    30
100
AcDbLine
 10
173.75646
 20
545.864273
 30
0.0
 11
173.75646
 21
544.167633
 31
0.0
  0
LINE
  5
1FB
330
1F
100
AcDbEntity
  8
002
 62
     3
370
    30
100
AcDbLine
 10
180.107489
 20
544.167633
 30
0.0
 11
173.75646
 21
544.167633
 31
0.0
  0
LINE
  5
1FC
330
1F
100
AcDbEntity
  8
002
 62
     3
370
    30
100
AcDbLine
 10
179.582037
 20
546.167649
 30
0.0
 11
174.281943
 21
546.167649
 31
0.0
  0
LINE
  5
1FD
330
1F
100
AcDbEntity
  8
002
 62
     3
370
    30
100
AcDbLine
 10
174.281933
 20
546.167626
 30
0.0
 11
173.756458
 21
545.864243
 31
0.0
  0
LINE
  5
1FE
330
1F
100
AcDbEntity
  8
002
 62
     3
370
    30
100
AcDbLine
 10
175.344214
 20
545.864273
 30
0.0
 11
175.344214
 21
544.167633
 31
0.0
  0
LINE
  5
1FF
330
1F
100
AcDbEntity
  8
002
 62
     3
370
    30
100
AcDbLine
 10
180.107489
 20
544.167633
 30
0.0
 11
180.107489
 21
545.864273
 31
0.0
  0
LINE
  5
200
330
1F
100
AcDbEntity
  8
002
 62
     3
370
    30
100
AcDbLine
 10
180.107491
 20
545.864266
 30
0.0
 11
179.582017
 21
546.167649
 31
0.0
  0
LINE
  5
201
330
1F
100
AcDbEntity
  8
002
 62
     3
370
    30
100
AcDbLine
 10
178.519736
 20
544.167633
 30
0.0
 11
178.519736
 21
545.864273
 31
0.0
  0
LINE
  5
202
330
1F
100
AcDbEntity
  8
002
 62
     3
370
    30
100
AcDbLine
 10
180.107519
 20
509.871369
 30
0.0
 11
180.107519
 21
511.568009
 31
0.0
  0
LINE
  5
203
330
1F
100
AcDbEntity
  8
002
 62
     3
370
    30
100
AcDbLine
 10
173.756491
 20
511.568009
 30
0.0
 11
180.107519
 21
511.568009
 31
0.0
  0
LINE
  5
204
330
1F
100
AcDbEntity
  8
002
 62
     3
370
    30
100
AcDbLine
 10
174.281943
 20
509.567994
 30
0.0
 11
179.582037
 21
509.567994
 31
0.0
  0
LINE
  5
205
330
1F
100
AcDbEntity
  8
002
 62
     3
370
    30
100
AcDbLine
 10
179.582074
 20
509.568009
 30
0.0
 11
180.107549
 21
509.871392
 31
0.0
  0
LINE
  5
206
330
1F
100
AcDbEntity
  8
002
 62
     3
370
    30
100
AcDbLine
 10
178.519766
 20
509.871369
 30
0.0
 11
178.519766
 21
511.568009
 31
0.0
  0
LINE
  5
207
330
1F
100
AcDbEntity
  8
002
 62
     3
370
    30
100
AcDbLine
 10
173.756491
 20
511.568009
 30
0.0
 11
173.756491
 21
509.871369
 31
0.0
  0
LINE
  5
208
330
1F
100
AcDbEntity
  8
002
 62
     3
370
    30
100
AcDbLine
 10
173.756487
 20
509.871376
 30
0.0
 11
174.281975
 21
509.567986
 31
0.0
  0
LINE
  5
209
330
1F
100
AcDbEntity
  8
002
 62
     3
370
    30
100
AcDbLine
 10
175.344244
 20
511.568009
 30
0.0
 11
175.344244
 21
509.871369
 31
0.0
  0
CIRCLE
  5
20A
330
1F
100
AcDbEntity
  8
002
 62
     3
370
    30
100
AcDbCircle
 10
176.931967
 20
527.867829
 30
0.0
 40
29.999985
  0
ARC
  5
20B
330
1F
100
AcDbEntity
  8
002
 62
     3
370
    30
100
AcDbCircle
 10
176.931967
 20
527.867829
 30
0.0
 40
16.999983
100
AcDbArc
 50
114.249664
 51
245.75037
  0
CIRCLE
  5
20C
330
1F
100
AcDbEntity
  8
002
 62
     3
370
    30
100
AcDbCircle
 10
176.931967
 20
527.867829
 30
0.0
 40
9.999999000000003
  0
CIRCLE
  5
20D
330
1F
100
AcDbEntity
  8
002
 62
     3
370
    30
100
AcDbCircle
 10
176.931967
 20
527.867829
 30
0.0
 40
10.799998
  0
CIRCLE
  5
20E
330
1F
100
AcDbEntity
  8
002
 62
     3
370
    30
100
AcDbCircle
 10
176.931967
 20
527.867829
 30
0.0
 40
12.029999
  0
CIRCLE
  5
20F
330
1F
100
AcDbEntity
  8
002
 62
     3
370
    30
100
AcDbCircle
 10
156.580389
 20
539.617585
 30
0.0
 40
2.749999000000003
  0
CIRCLE
  5
210
330
1F
100
AcDbEntity
  8
002
 62
     3
370
    30
100
AcDbCircle
 10
156.580389
 20
516.117829
 30
0.0
 40
2.749999000000003
  0
CIRCLE
  5
211
330
1F
100
AcDbEntity
  8
002
 62
     3
370
    30
100
AcDbCircle
 10
197.28356
 20
516.117829
 30
0.0
 40
2.749999000000003
  0
CIRCLE
  5
212
330
1F
100
AcDbEntity
  8
002
 62
     3
370
    30
100
AcDbCircle
 10
197.28356
 20
539.617585
 30
0.0
 40
2.749999000000003
  0
ARC
  5
213
330
1F
100
AcDbEntity
  8
002
 62
     3
370
    30
100
AcDbCircle
 10
176.931967
 20
527.867829
 30
0.0
 40
16.999989
100
AcDbArc
 50
294.249634
 51
65.750336
  0
ARC
  5
214
330
1F
100
AcDbEntity
  8
002
 62
     3
370
    30
100
AcDbCircle
 10
174.147971
 20
540.867585
 30
0.0
 40
8.0
100
AcDbArc
 50
106.081085
 51
178.975693
  0
ARC
  5
215
330
1F
100
AcDbEntity
  8
002
 62
     3
370
    30
100
AcDbCircle
 10
179.715979
 20
540.867585
 30
0.0
 40
7.999999999999999
100
AcDbArc
 50
1.022675
 51
73.918747
  0
ARC
  5
216
330
1F
100
AcDbEntity
  8
002
 62
     3
370
    30
100
AcDbCircle
 10
179.715979
 20
514.868073
 30
0.0
 40
8.000000000000002
100
AcDbArc
 50
286.081146
 51
358.975739
  0
ARC
  5
217
330
1F
100
AcDbEntity
  8
002
 62
     3
370
    30
100
AcDbCircle
 10
174.147971
 20
514.868058
 30
0.0
 40
7.999997000000001
100
AcDbArc
 50
181.022728
 51
253.918804
  0
ARC
  5
218
330
1F
100
AcDbEntity
  8
002
  6
CENTER
 62
    40
370
     9
100
AcDbCircle
 10
176.931967
 20
527.867829
 30
0.0
 40
23.499985
100
AcDbArc
 50
138.399628
 51
230.870079
  0
LINE
  5
219
330
1F
100
AcDbEntity
  8
002
  6
CENTER
 62
    40
370
     9
100
AcDbLine
 10
152.466662
 20
513.742981
 30
0.0
 11
160.693903
 21
518.492981
 31
0.0
  0
LINE
  5
21A
330
1F
100
AcDbEntity
  8
002
  6
CENTER
 62
    40
370
     9
100
AcDbLine
 10
160.693905
 20
537.24244
 30
0.0
 11
152.466664
 21
541.99244
 31
0.0
  0
LINE
  5
21B
330
1F
100
AcDbEntity
  8
002
  6
CENTER
 62
    40
370
     9
100
AcDbLine
 10
201.397265
 20
541.992447
 30
0.0
 11
193.170023
 21
537.242447
 31
0.0
  0
ARC
  5
21C
330
1F
100
AcDbEntity
  8
002
  6
CENTER
 62
    40
370
     9
100
AcDbCircle
 10
176.931967
 20
527.867829
 30
0.0
 40
23.499987
100
AcDbArc
 50
318.399139
 51
52.508011
  0
LINE
  5
21D
330
1F
100
AcDbEntity
  8
002
  6
CENTER
 62
    40
370
     9
100
AcDbLine
 10
193.170039
 20
518.492997
 30
0.0
 11
201.397278
 21
513.742997
 31
0.0
  0
LINE
  5
21E
330
1F
100
AcDbEntity
  8
001
  6
CENTER
 62
    40
370
     9
100
AcDbLine
 10
172.746085
 20
300.064557
 30
0.0
 11
180.705924
 21
300.064557
 31
0.0
  0
LINE
  5
21F
330
1F
100
AcDbEntity
  8
001
  6
CENTER
 62
    40
370
     9
100
AcDbLine
 10
173.237936
 20
340.064339
 30
0.0
 11
181.107596
 21
340.064339
 31
0.0
  0
LINE
  5
220
330
1F
100
AcDbEntity
  8
002
 62
     3
370
    30
100
AcDbLine
 10
193.932226
 20
349.064458
 30
0.0
 11
159.932272
 21
349.064458
 31
0.0
  0
LINE
  5
221
330
1F
100
AcDbEntity
  8
002
 62
     3
370
    30
100
AcDbLine
 10
206.932211
 20
292.064489
 30
0.0
 11
146.932287
 21
292.064489
 31
0.0
  0
LINE
  5
222
330
1F
100
AcDbEntity
  8
002
 62
     3
370
    30
100
AcDbLine
 10
206.932226
 20
282.064489
 30
0.0
 11
146.932272
 21
282.064489
 31
0.0
  0
LINE
  5
223
330
1F
100
AcDbEntity
  8
002
 62
     3
370
    30
100
AcDbLine
 10
206.932226
 20
292.064504
 30
0.0
 11
206.932226
 21
282.064489
 31
0.0
  0
LINE
  5
224
330
1F
100
AcDbEntity
  8
002
 62
     3
370
    30
100
AcDbLine
 10
146.932272
 20
292.064504
 30
0.0
 11
146.932272
 21
282.064489
 31
0.0
  0
LINE
  5
225
330
1F
100
AcDbEntity
  8
002
 62
     3
370
    30
100
AcDbLine
 10
193.932226
 20
349.018604
 30
0.0
 11
193.932226
 21
292.064504
 31
0.0
  0
LINE
  5
226
330
1F
100
AcDbEntity
  8
002
 62
     3
370
    30
100
AcDbLine
 10
159.932272
 20
349.064458
 30
0.0
 11
159.932272
 21
292.064504
 31
0.0
  0
LINE
  5
227
330
1F
100
AcDbEntity
  8
002
 62
     3
370
    30
100
AcDbLine
 10
169.94956
 20
292.064489
 30
0.0
 11
169.94956
 21
328.50884
 31
0.0
  0
LINE
  5
228
330
1F
100
AcDbEntity
  8
002
 62
     3
370
    30
100
AcDbLine
 10
183.913809
 20
292.064473
 30
0.0
 11
183.913809
 21
300.333623
 31
0.0
  0
LINE
  5
229
330
1F
100
AcDbEntity
  8
002
 62
     3
370
    30
100
AcDbLine
 10
169.94956
 20
339.795339
 30
0.0
 11
169.94956
 21
348.064458
 31
0.0
  0
LINE
  5
22A
330
1F
100
AcDbEntity
  8
002
 62
     3
370
    30
100
AcDbLine
 10
183.913809
 20
311.620122
 30
0.0
 11
183.913809
 21
348.064458
 31
0.0
  0
LINE
  5
22B
330
1F
100
AcDbEntity
  8
002
 62
     3
370
    30
100
AcDbLine
 10
181.931677
 20
300.064473
 30
0.0
 11
181.931677
 21
340.064458
 31
0.0
  0
LINE
  5
22C
330
1F
100
AcDbEntity
  8
002
 62
     3
370
    30
100
AcDbLine
 10
187.457023
 20
304.038903
 30
0.0
 11
181.931695
 21
315.861211
 31
0.0
  0
LINE
  5
22D
330
1F
100
AcDbEntity
  8
002
 62
     3
370
    30
100
AcDbLine
 10
182.474355
 20
301.710179
 30
0.0
 11
181.931693
 21
302.871289
 31
0.0
  0
LINE
  5
22E
330
1F
100
AcDbEntity
  8
002
 62
     3
370
    30
100
AcDbLine
 10
181.931871
 20
300.981919
 30
0.0
 11
171.931878
 21
322.37848
 31
0.0
  0
LINE
  5
22F
330
1F
100
AcDbEntity
  8
002
 62
     3
370
    30
100
AcDbLine
 10
186.130059
 20
300.383191
 30
0.0
 11
181.931709
 21
309.366223
 31
0.0
  0
LINE
  5
230
330
1F
100
AcDbEntity
  8
002
 62
     3
370
    30
100
AcDbLine
 10
171.931692
 20
340.064473
 30
0.0
 11
171.931692
 21
300.064489
 31
0.0
  0
LINE
  5
231
330
1F
100
AcDbEntity
  8
002
 62
     3
370
    30
100
AcDbLine
 10
166.406367
 20
336.090094
 30
0.0
 11
171.931695
 21
324.267787
 31
0.0
  0
LINE
  5
232
330
1F
100
AcDbEntity
  8
002
 62
     3
370
    30
100
AcDbLine
 10
171.389033
 20
338.418824
 30
0.0
 11
171.931694
 21
337.257714
 31
0.0
  0
LINE
  5
233
330
1F
100
AcDbEntity
  8
002
 62
     3
370
    30
100
AcDbLine
 10
171.931519
 20
339.147076
 30
0.0
 11
181.931513
 21
317.750516
 31
0.0
  0
LINE
  5
234
330
1F
100
AcDbEntity
  8
002
 62
     3
370
    30
100
AcDbLine
 10
167.73333
 20
339.745806
 30
0.0
 11
171.931681
 21
330.762773
 31
0.0
  0
LINE
  5
235
330
1F
100
AcDbEntity
  8
002
 62
     3
370
    30
100
AcDbLine
 10
175.343786
 20
297.314489
 30
0.0
 11
178.519308
 21
297.314489
 31
0.0
  0
LINE
  5
236
330
1F
100
AcDbEntity
  8
002
 62
     3
370
    30
100
AcDbLine
 10
178.519293
 20
302.814504
 30
0.0
 11
175.343802
 21
302.814504
 31
0.0
  0
LINE
  5
237
330
1F
100
AcDbEntity
  8
002
 62
     3
370
    30
100
AcDbLine
 10
173.756264
 20
300.064557
 30
0.0
 11
175.344032
 21
302.814653
 31
0.0
  0
LINE
  5
238
330
1F
100
AcDbEntity
  8
002
 62
     3
370
    30
100
AcDbLine
 10
178.519402
 20
297.314557
 30
0.0
 11
180.107049
 21
300.064443
 31
0.0
  0
LINE
  5
239
330
1F
100
AcDbEntity
  8
002
 62
     3
370
    30
100
AcDbLine
 10
175.343862
 20
297.314496
 30
0.0
 11
173.756193
 21
300.064424
 31
0.0
  0
LINE
  5
23A
330
1F
100
AcDbEntity
  8
002
 62
     3
370
    30
100
AcDbLine
 10
180.107054
 20
300.064431
 30
0.0
 11
178.519308
 21
302.814489
 31
0.0
  0
LINE
  5
23B
330
1F
100
AcDbEntity
  8
002
 62
     3
370
    30
100
AcDbLine
 10
175.343817
 20
337.314489
 30
0.0
 11
178.519339
 21
337.314489
 31
0.0
  0
LINE
  5
23C
330
1F
100
AcDbEntity
  8
002
 62
     3
370
    30
100
AcDbLine
 10
178.519324
 20
342.814504
 30
0.0
 11
175.343832
 21
342.814504
 31
0.0
  0
LINE
  5
23D
330
1F
100
AcDbEntity
  8
002
 62
     3
370
    30
100
AcDbLine
 10
173.756196
 20
340.064339
 30
0.0
 11
175.343964
 21
342.814435
 31
0.0
  0
LINE
  5
23E
330
1F
100
AcDbEntity
  8
002
 62
     3
370
    30
100
AcDbLine
 10
178.519324
 20
337.314364
 30
0.0
 11
180.10697
 21
340.064248
 31
0.0
  0
LINE
  5
23F
330
1F
100
AcDbEntity
  8
002
 62
     3
370
    30
100
AcDbLine
 10
175.343913
 20
337.314489
 30
0.0
 11
173.756236
 21
340.064427
 31
0.0
  0
LINE
  5
240
330
1F
100
AcDbEntity
  8
002
 62
     3
370
    30
100
AcDbLine
 10
180.107071
 20
340.06442
 30
0.0
 11
178.519318
 21
342.81449
 31
0.0
  0
ARC
  5
241
330
1F
100
AcDbEntity
  8
002
 62
     3
370
    30
100
AcDbCircle
 10
176.931662
 20
300.064473
 30
0.0
 40
4.999999
100
AcDbArc
 50
180.0
 51
359.999908
  0
ARC
  5
242
330
1F
100
AcDbEntity
  8
002
 62
     3
370
    30
100
AcDbCircle
 10
184.965674
 20
302.874486
 30
0.0
 40
2.749998999999999
100
AcDbArc
 50
205.049667
 51
25.049652
  0
ARC
  5
243
330
1F
100
AcDbEntity
  8
002
 62
     3
370
    30
100
AcDbCircle
 10
176.931692
 20
340.064473
 30
0.0
 40
4.999999
100
AcDbArc
 50
0.0
 51
179.999893
  0
ARC
  5
244
330
1F
100
AcDbEntity
  8
002
 62
     3
370
    30
100
AcDbCircle
 10
168.897681
 20
337.25446
 30
0.0
 40
2.749998999999999
100
AcDbArc
 50
25.049713
 51
205.049675
  0
CIRCLE
  5
245
330
1F
100
AcDbEntity
  8
002
 62
     3
370
    30
100
AcDbCircle
 10
176.931662
 20
300.064473
 30
0.0
 40
2.649999000000001
  0
CIRCLE
  5
246
330
1F
100
AcDbEntity
  8
002
 62
     3
370
    30
100
AcDbCircle
 10
176.931662
 20
300.064473
 30
0.0
 40
1.125
  0
CIRCLE
  5
247
330
1F
100
AcDbEntity
  8
002
 62
     3
370
    30
100
AcDbCircle
 10
176.931692
 20
340.064473
 30
0.0
 40
1.125
  0
CIRCLE
  5
248
330
1F
100
AcDbEntity
  8
002
 62
     3
370
    30
100
AcDbCircle
 10
176.931692
 20
340.064473
 30
0.0
 40
2.649999
  0
LINE
  5
249
330
1F
100
AcDbEntity
  8
002
  6
CENTER
 62
    40
370
    30
100
AcDbLine
 10
153.432272
 20
294.064504
 30
0.0
 11
153.432272
 21
280.064519
 31
0.0
  0
LINE
  5
24A
330
1F
100
AcDbEntity
  8
002
  6
CENTER
 62
    40
370
    30
100
AcDbLine
 10
200.432226
 20
294.064504
 30
0.0
 11
200.432226
 21
280.064519
 31
0.0
  0
CIRCLE
  5
24B
330
1F
100
AcDbEntity
  8
002
 62
    40
370
     9
100
AcDbCircle
 10
176.931662
 20
300.064473
 30
0.0
 40
1.5
  0
CIRCLE
  5
24C
330
1F
100
AcDbEntity
  8
002
 62
    40
370
     9
100
AcDbCircle
 10
176.931692
 20
340.064473
 30
0.0
 40
1.5
  0
LINE
  5
24D
330
1F
100
AcDbEntity
  8
002
 62
     3
370
    30
100
AcDbLine
 10
166.932367
 20
349.064458
 30
0.0
 11
166.932367
 21
382.931485
 31
0.0
  0
LINE
  5
24E
330
1F
100
AcDbEntity
  8
002
 62
     3
370
    30
100
AcDbLine
 10
186.932267
 20
382.931485
 30
0.0
 11
186.932267
 21
349.064458
 31
0.0
  0
LINE
  5
24F
330
1F
100
AcDbEntity
  8
001
  6
CENTER
 62
    40
370
     9
100
AcDbLine
 10
698.134085
 20
169.883197
 30
0.0
 11
706.093924
 21
169.883197
 31
0.0
  0
LINE
  5
250
330
1F
100
AcDbEntity
  8
001
  6
CENTER
 62
    40
370
     9
100
AcDbLine
 10
698.625937
 20
209.882979
 30
0.0
 11
706.495596
 21
209.882979
 31
0.0
  0
LINE
  5
251
330
1F
100
AcDbEntity
  8
002
 62
     3
370
    30
100
AcDbLine
 10
719.320226
 20
218.883098
 30
0.0
 11
685.320272
 21
218.883098
 31
0.0
  0
LINE
  5
252
330
1F
100
AcDbEntity
  8
002
 62
     3
370
    30
100
AcDbLine
 10
732.320211
 20
161.883129
 30
0.0
 11
672.320287
 21
161.883129
 31
0.0
  0
LINE
  5
253
330
1F
100
AcDbEntity
  8
002
 62
     3
370
    30
100
AcDbLine
 10
732.320226
 20
151.883129
 30
0.0
 11
672.320272
 21
151.883129
 31
0.0
  0
LINE
  5
254
330
1F
100
AcDbEntity
  8
002
 62
     3
370
    30
100
AcDbLine
 10
732.320226
 20
161.883144
 30
0.0
 11
732.320226
 21
151.883129
 31
0.0
  0
LINE
  5
255
330
1F
100
AcDbEntity
  8
002
 62
     3
370
    30
100
AcDbLine
 10
672.320272
 20
161.883144
 30
0.0
 11
672.320272
 21
151.883129
 31
0.0
  0
LINE
  5
256
330
1F
100
AcDbEntity
  8
002
 62
     3
370
    30
100
AcDbLine
 10
719.320226
 20
218.837245
 30
0.0
 11
719.320226
 21
161.883144
 31
0.0
  0
LINE
  5
257
330
1F
100
AcDbEntity
  8
002
 62
     3
370
    30
100
AcDbLine
 10
685.320272
 20
218.883098
 30
0.0
 11
685.320272
 21
161.883144
 31
0.0
  0
LINE
  5
258
330
1F
100
AcDbEntity
  8
002
 62
     3
370
    30
100
AcDbLine
 10
695.33756
 20
161.883129
 30
0.0
 11
695.33756
 21
198.32748
 31
0.0
  0
LINE
  5
259
330
1F
100
AcDbEntity
  8
002
 62
     3
370
    30
100
AcDbLine
 10
709.301809
 20
161.883113
 30
0.0
 11
709.301809
 21
170.152263
 31
0.0
  0
LINE
  5
25A
330
1F
100
AcDbEntity
  8
002
 62
     3
370
    30
100
AcDbLine
 10
695.33756
 20
209.613979
 30
0.0
 11
695.33756
 21
217.883098
 31
0.0
  0
LINE
  5
25B
330
1F
100
AcDbEntity
  8
002
 62
     3
370
    30
100
AcDbLine
 10
709.301809
 20
181.438762
 30
0.0
 11
709.301809
 21
217.883098
 31
0.0
  0
LINE
  5
25C
330
1F
100
AcDbEntity
  8
002
 62
     3
370
    30
100
AcDbLine
 10
707.319677
 20
169.883113
 30
0.0
 11
707.319677
 21
209.883098
 31
0.0
  0
LINE
  5
25D
330
1F
100
AcDbEntity
  8
002
 62
     3
370
    30
100
AcDbLine
 10
712.845023
 20
173.857543
 30
0.0
 11
707.319695
 21
185.679851
 31
0.0
  0
LINE
  5
25E
330
1F
100
AcDbEntity
  8
002
 62
     3
370
    30
100
AcDbLine
 10
707.862355
 20
171.528819
 30
0.0
 11
707.319693
 21
172.689929
 31
0.0
  0
LINE
  5
25F
330
1F
100
AcDbEntity
  8
002
 62
     3
370
    30
100
AcDbLine
 10
707.319871
 20
170.800559
 30
0.0
 11
697.319878
 21
192.19712
 31
0.0
  0
LINE
  5
260
330
1F
100
AcDbEntity
  8
002
 62
     3
370
    30
100
AcDbLine
 10
711.518059
 20
170.201831
 30
0.0
 11
707.319709
 21
179.184863
 31
0.0
  0
LINE
  5
261
330
1F
100
AcDbEntity
  8
002
 62
     3
370
    30
100
AcDbLine
 10
697.319692
 20
209.883113
 30
0.0
 11
697.319692
 21
169.883129
 31
0.0
  0
LINE
  5
262
330
1F
100
AcDbEntity
  8
002
 62
     3
370
    30
100
AcDbLine
 10
691.794367
 20
205.908734
 30
0.0
 11
697.319695
 21
194.086427
 31
0.0
  0
LINE
  5
263
330
1F
100
AcDbEntity
  8
002
 62
     3
370
    30
100
AcDbLine
 10
696.777033
 20
208.237464
 30
0.0
 11
697.319694
 21
207.076354
 31
0.0
  0
LINE
  5
264
330
1F
100
AcDbEntity
  8
002
 62
     3
370
    30
100
AcDbLine
 10
697.319519
 20
208.965716
 30
0.0
 11
707.319513
 21
187.569156
 31
0.0
  0
LINE
  5
265
330
1F
100
AcDbEntity
  8
002
 62
     3
370
    30
100
AcDbLine
 10
693.12133
 20
209.564446
 30
0.0
 11
697.319681
 21
200.581413
 31
0.0
  0
LINE
  5
266
330
1F
100
AcDbEntity
  8
002
 62
     3
370
    30
100
AcDbLine
 10
700.731786
 20
167.133129
 30
0.0
 11
703.907308
 21
167.133129
 31
0.0
  0
LINE
  5
267
330
1F
100
AcDbEntity
  8
002
 62
     3
370
    30
100
AcDbLine
 10
703.907293
 20
172.633144
 30
0.0
 11
700.731802
 21
172.633144
 31
0.0
  0
LINE
  5
268
330
1F
100
AcDbEntity
  8
002
 62
     3
370
    30
100
AcDbLine
 10
699.144264
 20
169.883197
 30
0.0
 11
700.732032
 21
172.633293
 31
0.0
  0
LINE
  5
269
330
1F
100
AcDbEntity
  8
002
 62
     3
370
    30
100
AcDbLine
 10
703.907402
 20
167.133197
 30
0.0
 11
705.495049
 21
169.883083
 31
0.0
  0
LINE
  5
26A
330
1F
100
AcDbEntity
  8
002
 62
     3
370
    30
100
AcDbLine
 10
700.731862
 20
167.133136
 30
0.0
 11
699.144193
 21
169.883064
 31
0.0
  0
LINE
  5
26B
330
1F
100
AcDbEntity
  8
002
 62
     3
370
    30
100
AcDbLine
 10
705.495054
 20
169.883071
 30
0.0
 11
703.907308
 21
172.633129
 31
0.0
  0
LINE
  5
26C
330
1F
100
AcDbEntity
  8
002
 62
     3
370
    30
100
AcDbLine
 10
700.731817
 20
207.133129
 30
0.0
 11
703.907339
 21
207.133129
 31
0.0
  0
LINE
  5
26D
330
1F
100
AcDbEntity
  8
002
 62
     3
370
    30
100
AcDbLine
 10
703.907324
 20
212.633144
 30
0.0
 11
700.731832
 21
212.633144
 31
0.0
  0
LINE
  5
26E
330
1F
100
AcDbEntity
  8
002
 62
     3
370
    30
100
AcDbLine
 10
699.144196
 20
209.882979
 30
0.0
 11
700.731964
 21
212.633075
 31
0.0
  0
LINE
  5
26F
330
1F
100
AcDbEntity
  8
002
 62
     3
370
    30
100
AcDbLine
 10
703.907324
 20
207.133004
 30
0.0
 11
705.49497
 21
209.882888
 31
0.0
  0
LINE
  5
270
330
1F
100
AcDbEntity
  8
002
 62
     3
370
    30
100
AcDbLine
 10
700.731913
 20
207.133129
 30
0.0
 11
699.144236
 21
209.883067
 31
0.0
  0
LINE
  5
271
330
1F
100
AcDbEntity
  8
002
 62
     3
370
    30
100
AcDbLine
 10
705.495071
 20
209.88306
 30
0.0
 11
703.907318
 21
212.63313
 31
0.0
  0
ARC
  5
272
330
1F
100
AcDbEntity
  8
002
 62
     3
370
    30
100
AcDbCircle
 10
702.319662
 20
169.883113
 30
0.0
 40
4.999999
100
AcDbArc
 50
180.0
 51
359.999908
  0
ARC
  5
273
330
1F
100
AcDbEntity
  8
002
 62
     3
370
    30
100
AcDbCircle
 10
710.353674
 20
172.693126
 30
0.0
 40
2.749998999999999
100
AcDbArc
 50
205.049667
 51
25.049652
  0
ARC
  5
274
330
1F
100
AcDbEntity
  8
002
 62
     3
370
    30
100
AcDbCircle
 10
702.319692
 20
209.883113
 30
0.0
 40
4.999999
100
AcDbArc
 50
0.0
 51
179.999893
  0
ARC
  5
275
330
1F
100
AcDbEntity
  8
002
 62
     3
370
    30
100
AcDbCircle
 10
694.285681
 20
207.0731
 30
0.0
 40
2.749998999999999
100
AcDbArc
 50
25.049713
 51
205.049675
  0
CIRCLE
  5
276
330
1F
100
AcDbEntity
  8
002
 62
     3
370
    30
100
AcDbCircle
 10
702.319662
 20
169.883113
 30
0.0
 40
2.649999000000001
  0
CIRCLE
  5
277
330
1F
100
AcDbEntity
  8
002
 62
     3
370
    30
100
AcDbCircle
 10
702.319662
 20
169.883113
 30
0.0
 40
1.125
  0
CIRCLE
  5
278
330
1F
100
AcDbEntity
  8
002
 62
     3
370
    30
100
AcDbCircle
 10
702.319692
 20
209.883113
 30
0.0
 40
1.125
  0
CIRCLE
  5
279
330
1F
100
AcDbEntity
  8
002
 62
     3
370
    30
100
AcDbCircle
 10
702.319692
 20
209.883113
 30
0.0
 40
2.649999
  0
LINE
  5
27A
330
1F
100
AcDbEntity
  8
002
  6
CENTER
 62
    40
370
    30
100
AcDbLine
 10
678.820272
 20
163.883144
 30
0.0
 11
678.820272
 21
149.883159
 31
0.0
  0
LINE
  5
27B
330
1F
100
AcDbEntity
  8
002
  6
CENTER
 62
    40
370
    30
100
AcDbLine
 10
725.820226
 20
163.883144
 30
0.0
 11
725.820226
 21
149.883159
 31
0.0
  0
CIRCLE
  5
27C
330
1F
100
AcDbEntity
  8
002
 62
    40
370
     9
100
AcDbCircle
 10
702.319662
 20
169.883113
 30
0.0
 40
1.5
  0
CIRCLE
  5
27D
330
1F
100
AcDbEntity
  8
002
 62
    40
370
     9
100
AcDbCircle
 10
702.319692
 20
209.883113
 30
0.0
 40
1.5
  0
LINE
  5
27E
330
1F
100
AcDbEntity
  8
002
 62
     3
370
    30
100
AcDbLine
 10
712.319967
 20
151.883129
 30
0.0
 11
712.319967
 21
92.995606
 31
0.0
  0
LINE
  5
27F
330
1F
100
AcDbEntity
  8
002
 62
     3
370
    30
100
AcDbLine
 10
692.319967
 20
92.995606
 30
0.0
 11
692.319967
 21
151.883129
 31
0.0
  0
LINE
  5
280
330
1F
100
AcDbEntity
  8
002
 62
    40
370
     9
100
AcDbLine
 10
711.069967
 20
92.995606
 30
0.0
 11
711.069967
 21
151.883129
 31
0.0
  0
LINE
  5
281
330
1F
100
AcDbEntity
  8
002
 62
    40
370
     9
100
AcDbLine
 10
693.569967
 20
151.883129
 30
0.0
 11
693.569967
 21
92.995606
 31
0.0
  0
CIRCLE
  5
282
330
1F
100
AcDbEntity
  8
002
 62
    40
370
     9
100
AcDbCircle
 10
176.931967
 20
527.867829
 30
0.0
 40
8.749999000000017
  0
LINE
  5
283
330
1F
100
AcDbEntity
  8
002
 62
    40
370
     9
100
AcDbLine
 10
185.682267
 20
382.931485
 30
0.0
 11
185.682267
 21
349.064458
 31
0.0
  0
LINE
  5
284
330
1F
100
AcDbEntity
  8
002
 62
    40
370
     9
100
AcDbLine
 10
168.182267
 20
349.064458
 30
0.0
 11
168.182267
 21
382.931485
 31
0.0
  0
LINE
  5
285
330
1F
100
AcDbEntity
  8
002
 62
     3
370
    30
100
AcDbLine
 10
211.56366
 20
667.528444
 30
0.0
 11
207.06366
 21
667.528444
 31
0.0
  0
LINE
  5
286
330
1F
100
AcDbEntity
  8
002
 62
     3
370
    30
100
AcDbLine
 10
207.06366
 20
667.528444
 30
0.0
 11
206.81366
 21
667.278444
 31
0.0
  0
LINE
  5
287
330
1F
100
AcDbEntity
  8
002
 62
     3
370
    30
100
AcDbLine
 10
206.81366
 20
667.278444
 30
0.0
 11
206.81366
 21
662.778444
 31
0.0
  0
LINE
  5
288
330
1F
100
AcDbEntity
  8
002
 62
     3
370
    30
100
AcDbLine
 10
206.81366
 20
662.778444
 30
0.0
 11
207.06366
 21
662.528444
 31
0.0
  0
LINE
  5
289
330
1F
100
AcDbEntity
  8
002
 62
     3
370
    30
100
AcDbLine
 10
207.06366
 20
662.528444
 30
0.0
 11
211.56366
 21
662.528444
 31
0.0
  0
LINE
  5
28A
330
1F
100
AcDbEntity
  8
002
 62
     3
370
    30
100
AcDbLine
 10
211.56366
 20
662.528444
 30
0.0
 11
211.81366
 21
662.778444
 31
0.0
  0
LINE
  5
28B
330
1F
100
AcDbEntity
  8
002
 62
     3
370
    30
100
AcDbLine
 10
211.81366
 20
662.778444
 30
0.0
 11
211.81366
 21
667.278444
 31
0.0
  0
LINE
  5
28C
330
1F
100
AcDbEntity
  8
002
 62
     3
370
    30
100
AcDbLine
 10
211.81366
 20
667.278444
 30
0.0
 11
211.56366
 21
667.528444
 31
0.0
  0
ARC
  5
28D
330
1F
100
AcDbEntity
  8
002
 62
     3
370
    30
100
AcDbCircle
 10
211.61366
 20
662.728444
 30
0.0
 40
0.1999999999999318
100
AcDbArc
 50
270.0
 51
0.0
  0
ARC
  5
28E
330
1F
100
AcDbEntity
  8
002
 62
     3
370
    30
100
AcDbCircle
 10
207.01366
 20
662.728444
 30
0.0
 40
0.1999999999998181
100
AcDbArc
 50
180.0
 51
270.0
  0
ARC
  5
28F
330
1F
100
AcDbEntity
  8
002
 62
     3
370
    30
100
AcDbCircle
 10
209.31366
 20
658.028444
 30
0.0
 40
7.499936066394084
100
AcDbArc
 50
109.471393
 51
70.528607
  0
LINE
  5
290
330
1F
100
AcDbEntity
  8
002
  6
CENTER
 62
    40
370
     9
100
AcDbLine
 10
198.51476
 20
658.028444
 30
0.0
 11
221.04796
 21
658.028444
 31
0.0
  0
LINE
  5
291
330
1F
100
AcDbEntity
  8
002
  6
CENTER
 62
    40
370
     9
100
AcDbLine
 10
209.31366
 20
669.840444
 30
0.0
 11
209.31366
 21
647.905444
 31
0.0
  0
LINE
  5
292
330
1F
100
AcDbEntity
  8
002
 62
     3
370
    30
100
AcDbLine
 10
202.431967
 20
777.603929
 30
0.0
 11
215.431967
 21
777.603929
 31
0.0
  0
LINE
  5
293
330
1F
100
AcDbEntity
  8
002
 62
     3
370
    30
100
AcDbLine
 10
215.431967
 20
777.603929
 30
0.0
 11
216.431967
 21
778.603929
 31
0.0
  0
LINE
  5
294
330
1F
100
AcDbEntity
  8
002
 62
     3
370
    30
100
AcDbLine
 10
216.431967
 20
778.603929
 30
0.0
 11
216.431967
 21
810.603929
 31
0.0
  0
LINE
  5
295
330
1F
100
AcDbEntity
  8
002
 62
     3
370
    30
100
AcDbLine
 10
200.431967
 20
810.603929
 30
0.0
 11
217.431967
 21
810.603929
 31
0.0
  0
LINE
  5
296
330
1F
100
AcDbEntity
  8
002
 62
     3
370
    30
100
AcDbLine
 10
201.431967
 20
810.603929
 30
0.0
 11
201.431967
 21
778.603929
 31
0.0
  0
LINE
  5
297
330
1F
100
AcDbEntity
  8
002
 62
     3
370
    30
100
AcDbLine
 10
201.431967
 20
778.603929
 30
0.0
 11
202.431967
 21
777.603929
 31
0.0
  0
LINE
  5
298
330
1F
100
AcDbEntity
  8
002
 62
     3
370
    30
100
AcDbLine
 10
201.431967
 20
778.603929
 30
0.0
 11
206.431967
 21
778.603929
 31
0.0
  0
LINE
  5
299
330
1F
100
AcDbEntity
  8
002
 62
     3
370
    30
100
AcDbLine
 10
206.431967
 20
777.603929
 30
0.0
 11
206.431967
 21
805.103929
 31
0.0
  0
LINE
  5
29A
330
1F
100
AcDbEntity
  8
002
 62
     3
370
    30
100
AcDbLine
 10
211.431967
 20
805.103929
 30
0.0
 11
211.431967
 21
777.603929
 31
0.0
  0
LINE
  5
29B
330
1F
100
AcDbEntity
  8
002
 62
     3
370
    30
100
AcDbLine
 10
211.431967
 20
778.603929
 30
0.0
 11
216.431967
 21
778.603929
 31
0.0
  0
LINE
  5
29C
330
1F
100
AcDbEntity
  8
002
 62
     3
370
    30
100
AcDbLine
 10
211.431967
 20
799.603929
 30
0.0
 11
206.431967
 21
799.603929
 31
0.0
  0
ARC
  5
29D
330
1F
100
AcDbEntity
  8
002
 62
     3
370
    30
100
AcDbCircle
 10
208.931967
 20
805.103929
 30
0.0
 40
2.5
100
AcDbArc
 50
0.0
 51
180.0
  0
LINE
  5
29E
330
1F
100
AcDbEntity
  8
002
 62
     3
370
    30
100
AcDbLine
 10
200.431967
 20
810.603929
 30
0.0
 11
200.431967
 21
812.603929
 31
0.0
  0
LINE
  5
29F
330
1F
100
AcDbEntity
  8
002
 62
     3
370
    30
100
AcDbLine
 10
217.431967
 20
810.603929
 30
0.0
 11
217.431967
 21
812.603929
 31
0.0
  0
LINE
  5
2A0
330
1F
100
AcDbEntity
  8
002
 62
     3
370
    30
100
AcDbLine
 10
232.431967
 20
812.603929
 30
0.0
 11
233.931967
 21
862.603629
 31
0.0
  0
LINE
  5
2A1
330
1F
100
AcDbEntity
  8
002
 62
     3
370
    30
100
AcDbLine
 10
233.931967
 20
862.603629
 30
0.0
 11
232.431967
 21
912.603629
 31
0.0
  0
LINE
  5
2A2
330
1F
100
AcDbEntity
  8
002
 62
     3
370
    30
100
AcDbLine
 10
232.431967
 20
912.603629
 30
0.0
 11
185.431967
 21
912.603629
 31
0.0
  0
LINE
  5
2A3
330
1F
100
AcDbEntity
  8
002
 62
     3
370
    30
100
AcDbLine
 10
185.431967
 20
912.603629
 30
0.0
 11
185.038767
 21
904.739629
 31
0.0
  0
CIRCLE
  5
2A4
330
1F
100
AcDbEntity
  8
002
 62
     3
370
    30
100
AcDbCircle
 10
201.680767
 20
887.352629
 30
0.0
 40
5.0
  0
LINE
  5
2A5
330
1F
100
AcDbEntity
  8
002
 62
     3
370
    30
100
AcDbLine
 10
203.124067
 20
889.852629
 30
0.0
 11
204.567467
 21
887.352629
 31
0.0
  0
LINE
  5
2A6
330
1F
100
AcDbEntity
  8
002
 62
     3
370
    30
100
AcDbLine
 10
204.567467
 20
887.352629
 30
0.0
 11
203.124067
 21
884.852629
 31
0.0
  0
LINE
  5
2A7
330
1F
100
AcDbEntity
  8
002
 62
     3
370
    30
100
AcDbLine
 10
203.124067
 20
884.852629
 30
0.0
 11
200.237367
 21
884.852629
 31
0.0
  0
LINE
  5
2A8
330
1F
100
AcDbEntity
  8
002
 62
     3
370
    30
100
AcDbLine
 10
200.237367
 20
884.852629
 30
0.0
 11
198.793967
 21
887.352629
 31
0.0
  0
LINE
  5
2A9
330
1F
100
AcDbEntity
  8
002
 62
     3
370
    30
100
AcDbLine
 10
198.793967
 20
887.352629
 30
0.0
 11
200.237367
 21
889.852629
 31
0.0
  0
LINE
  5
2AA
330
1F
100
AcDbEntity
  8
002
 62
     3
370
    30
100
AcDbLine
 10
200.237367
 20
889.852629
 30
0.0
 11
203.124067
 21
889.852629
 31
0.0
  0
LINE
  5
2AB
330
1F
100
AcDbEntity
  8
002
 62
     3
370
    30
100
AcDbLine
 10
209.328367
 20
891.116629
 30
0.0
 11
213.654767
 21
870.199629
 31
0.0
  0
LINE
  5
2AC
330
1F
100
AcDbEntity
  8
002
 62
     3
370
    30
100
AcDbLine
 10
217.229067
 20
872.603629
 30
0.0
 11
222.931967
 21
872.603629
 31
0.0
  0
LINE
  5
2AD
330
1F
100
AcDbEntity
  8
002
 62
     3
370
    30
100
AcDbLine
 10
222.931967
 20
868.377629
 30
0.0
 11
227.931967
 21
865.490629
 31
0.0
  0
LINE
  5
2AE
330
1F
100
AcDbEntity
  8
002
 62
     3
370
    30
100
AcDbLine
 10
227.931967
 20
865.490629
 30
0.0
 11
227.931967
 21
859.717129
 31
0.0
  0
LINE
  5
2AF
330
1F
100
AcDbEntity
  8
002
 62
     3
370
    30
100
AcDbLine
 10
227.931967
 20
859.717129
 30
0.0
 11
222.931967
 21
856.830429
 31
0.0
  0
LINE
  5
2B0
330
1F
100
AcDbEntity
  8
002
 62
     3
370
    30
100
AcDbLine
 10
222.931967
 20
856.830429
 30
0.0
 11
217.931967
 21
859.717129
 31
0.0
  0
LINE
  5
2B1
330
1F
100
AcDbEntity
  8
002
 62
     3
370
    30
100
AcDbLine
 10
217.931967
 20
859.717129
 30
0.0
 11
217.931967
 21
865.490629
 31
0.0
  0
LINE
  5
2B2
330
1F
100
AcDbEntity
  8
002
 62
     3
370
    30
100
AcDbLine
 10
217.931967
 20
865.490629
 30
0.0
 11
222.931967
 21
868.377629
 31
0.0
  0
CIRCLE
  5
2B3
330
1F
100
AcDbEntity
  8
002
 62
     3
370
    30
100
AcDbCircle
 10
222.931967
 20
862.603629
 30
0.0
 40
5.0
  0
CIRCLE
  5
2B4
330
1F
100
AcDbEntity
  8
002
 62
     3
370
    30
100
AcDbCircle
 10
222.931967
 20
862.603629
 30
0.0
 40
3.25
  0
CIRCLE
  5
2B5
330
1F
100
AcDbEntity
  8
002
 62
     3
370
    30
100
AcDbCircle
 10
222.931967
 20
862.603629
 30
0.0
 40
2.5
  0
CIRCLE
  5
2B6
330
1F
100
AcDbEntity
  8
002
 62
     3
370
    30
100
AcDbCircle
 10
222.931967
 20
862.603629
 30
0.0
 40
0.75
  0
ARC
  5
2B7
330
1F
100
AcDbEntity
  8
002
 62
     3
370
    30
100
AcDbCircle
 10
222.931967
 20
862.603629
 30
0.0
 40
10.0
100
AcDbArc
 50
270.0
 51
90.0
  0
ARC
  5
2B8
330
1F
100
AcDbEntity
  8
002
 62
     3
370
    30
100
AcDbCircle
 10
217.229067
 20
877.603629
 30
0.0
 40
5.0
100
AcDbArc
 50
191.677606
 51
270.0
  0
LINE
  5
2B9
330
1F
100
AcDbEntity
  8
002
 62
     3
370
    30
100
AcDbLine
 10
213.654767
 20
855.008429
 30
0.0
 11
209.328367
 21
834.091129
 31
0.0
  0
LINE
  5
2BA
330
1F
100
AcDbEntity
  8
002
 62
     3
370
    30
100
AcDbLine
 10
205.444767
 20
830.207529
 30
0.0
 11
184.527467
 21
825.881129
 31
0.0
  0
ARC
  5
2BB
330
1F
100
AcDbEntity
  8
002
 62
     3
370
    30
100
AcDbCircle
 10
180.045067
 20
820.218029
 30
0.0
 40
5.000035524873859
100
AcDbArc
 50
2.862577
 51
94.201223
  0
LINE
  5
2BC
330
1F
100
AcDbEntity
  8
002
 62
     3
370
    30
100
AcDbLine
 10
185.038767
 20
820.467729
 30
0.0
 11
185.431967
 21
812.603929
 31
0.0
  0
LINE
  5
2BD
330
1F
100
AcDbEntity
  8
002
 62
     3
370
    30
100
AcDbLine
 10
185.431967
 20
812.603929
 30
0.0
 11
232.431967
 21
812.603929
 31
0.0
  0
LINE
  5
2BE
330
1F
100
AcDbEntity
  8
002
 62
     3
370
    30
100
AcDbLine
 10
233.107867
 20
835.133829
 30
0.0
 11
234.107467
 21
835.103929
 31
0.0
  0
LINE
  5
2BF
330
1F
100
AcDbEntity
  8
002
 62
     3
370
    30
100
AcDbLine
 10
234.107467
 20
835.103929
 30
0.0
 11
234.931567
 21
862.573629
 31
0.0
  0
LINE
  5
2C0
330
1F
100
AcDbEntity
  8
002
 62
     3
370
    30
100
AcDbLine
 10
234.931567
 20
862.633629
 30
0.0
 11
234.107467
 21
890.103629
 31
0.0
  0
LINE
  5
2C1
330
1F
100
AcDbEntity
  8
002
 62
     3
370
    30
100
AcDbLine
 10
234.107467
 20
890.103629
 30
0.0
 11
233.107867
 21
890.073629
 31
0.0
  0
ARC
  5
2C2
330
1F
100
AcDbEntity
  8
002
 62
     3
370
    30
100
AcDbCircle
 10
204.431967
 20
890.103629
 30
0.0
 40
5.000637243392016
100
AcDbArc
 50
11.688827
 51
78.314809
  0
LINE
  5
2C3
330
1F
100
AcDbEntity
  8
002
 62
     3
370
    30
100
AcDbLine
 10
154.683567
 20
885.909629
 30
0.0
 11
154.683567
 21
888.795629
 31
0.0
  0
LINE
  5
2C4
330
1F
100
AcDbEntity
  8
002
 62
     3
370
    30
100
AcDbLine
 10
154.683567
 20
888.795629
 30
0.0
 11
152.183567
 21
890.239629
 31
0.0
  0
LINE
  5
2C5
330
1F
100
AcDbEntity
  8
002
 62
     3
370
    30
100
AcDbLine
 10
152.183567
 20
890.239629
 30
0.0
 11
149.683567
 21
888.795629
 31
0.0
  0
LINE
  5
2C6
330
1F
100
AcDbEntity
  8
002
 62
     3
370
    30
100
AcDbLine
 10
149.683567
 20
888.795629
 30
0.0
 11
149.683567
 21
885.909629
 31
0.0
  0
LINE
  5
2C7
330
1F
100
AcDbEntity
  8
002
 62
     3
370
    30
100
AcDbLine
 10
149.683567
 20
885.909629
 30
0.0
 11
152.183567
 21
884.465629
 31
0.0
  0
LINE
  5
2C8
330
1F
100
AcDbEntity
  8
002
 62
     3
370
    30
100
AcDbLine
 10
152.183567
 20
884.465629
 30
0.0
 11
154.683567
 21
885.909629
 31
0.0
  0
CIRCLE
  5
2C9
330
1F
100
AcDbEntity
  8
002
 62
     3
370
    30
100
AcDbCircle
 10
152.183567
 20
887.352629
 30
0.0
 40
5.0
  0
LINE
  5
2CA
330
1F
100
AcDbEntity
  8
002
 62
     3
370
    30
100
AcDbLine
 10
153.362567
 20
896.022629
 30
0.0
 11
161.368867
 21
926.628629
 31
0.0
  0
ARC
  5
2CB
330
1F
100
AcDbEntity
  8
002
 62
     3
370
    30
100
AcDbCircle
 10
169.108467
 20
924.603629
 30
0.0
 40
8.000127071490821
100
AcDbArc
 50
90.0
 51
165.337727
  0
LINE
  5
2CC
330
1F
100
AcDbEntity
  8
002
 62
     3
370
    30
100
AcDbLine
 10
169.108467
 20
932.603629
 30
0.0
 11
184.755567
 21
932.603629
 31
0.0
  0
CIRCLE
  5
2CD
330
1F
100
AcDbEntity
  8
002
 62
     3
370
    30
100
AcDbCircle
 10
176.931967
 20
922.603629
 30
0.0
 40
5.5
  0
ARC
  5
2CE
330
1F
100
AcDbEntity
  8
002
 62
     3
370
    30
100
AcDbCircle
 10
176.931967
 20
922.603629
 30
0.0
 40
12.00002787038428
100
AcDbArc
 50
123.557112
 51
56.44249
  0
ARC
  5
2CF
330
1F
100
AcDbEntity
  8
002
 62
     3
370
    30
100
AcDbCircle
 10
184.755567
 20
924.603629
 30
0.0
 40
8.0
100
AcDbArc
 50
14.662273
 51
90.0
  0
LINE
  5
2D0
330
1F
100
AcDbEntity
  8
002
 62
     3
370
    30
100
AcDbLine
 10
192.495167
 20
926.628629
 30
0.0
 11
196.163967
 21
912.603629
 31
0.0
  0
LINE
  5
2D1
330
1F
100
AcDbEntity
  8
002
 62
     3
370
    30
100
AcDbLine
 10
200.431967
 20
914.603629
 30
0.0
 11
200.431967
 21
912.603629
 31
0.0
  0
LINE
  5
2D2
330
1F
100
AcDbEntity
  8
002
 62
     3
370
    30
100
AcDbLine
 10
217.431967
 20
914.603629
 30
0.0
 11
217.431967
 21
912.603629
 31
0.0
  0
LINE
  5
2D3
330
1F
100
AcDbEntity
  8
002
 62
     3
370
    30
100
AcDbLine
 10
200.431967
 20
914.603629
 30
0.0
 11
217.431967
 21
914.603629
 31
0.0
  0
LINE
  5
2D4
330
1F
100
AcDbEntity
  8
002
 62
     3
370
    30
100
AcDbLine
 10
201.431967
 20
914.603629
 30
0.0
 11
201.431967
 21
946.603629
 31
0.0
  0
LINE
  5
2D5
330
1F
100
AcDbEntity
  8
002
 62
     3
370
    30
100
AcDbLine
 10
201.431967
 20
946.603629
 30
0.0
 11
202.431967
 21
947.603629
 31
0.0
  0
LINE
  5
2D6
330
1F
100
AcDbEntity
  8
002
 62
     3
370
    30
100
AcDbLine
 10
202.431967
 20
947.603629
 30
0.0
 11
215.431967
 21
947.603629
 31
0.0
  0
LINE
  5
2D7
330
1F
100
AcDbEntity
  8
002
 62
     3
370
    30
100
AcDbLine
 10
215.431967
 20
947.603629
 30
0.0
 11
216.431967
 21
946.603629
 31
0.0
  0
LINE
  5
2D8
330
1F
100
AcDbEntity
  8
002
 62
     3
370
    30
100
AcDbLine
 10
216.431967
 20
946.603629
 30
0.0
 11
216.431967
 21
914.603629
 31
0.0
  0
LINE
  5
2D9
330
1F
100
AcDbEntity
  8
002
 62
     3
370
    30
100
AcDbLine
 10
211.431967
 20
920.103629
 30
0.0
 11
211.431967
 21
947.603629
 31
0.0
  0
LINE
  5
2DA
330
1F
100
AcDbEntity
  8
002
 62
     3
370
    30
100
AcDbLine
 10
211.431967
 20
946.603629
 30
0.0
 11
216.431967
 21
946.603629
 31
0.0
  0
LINE
  5
2DB
330
1F
100
AcDbEntity
  8
002
 62
     3
370
    30
100
AcDbLine
 10
206.431967
 20
946.603629
 30
0.0
 11
201.431967
 21
946.603629
 31
0.0
  0
LINE
  5
2DC
330
1F
100
AcDbEntity
  8
002
 62
     3
370
    30
100
AcDbLine
 10
206.431967
 20
947.603629
 30
0.0
 11
206.431967
 21
920.103629
 31
0.0
  0
ARC
  5
2DD
330
1F
100
AcDbEntity
  8
002
 62
     3
370
    30
100
AcDbCircle
 10
208.931967
 20
920.103629
 30
0.0
 40
2.5
100
AcDbArc
 50
180.0
 51
0.0
  0
LINE
  5
2DE
330
1F
100
AcDbEntity
  8
002
 62
     3
370
    30
100
AcDbLine
 10
211.431967
 20
925.603629
 30
0.0
 11
206.431967
 21
925.603629
 31
0.0
  0
ARC
  5
2DF
330
1F
100
AcDbEntity
  8
002
 62
     3
370
    30
100
AcDbCircle
 10
149.431567
 20
890.103629
 30
0.0
 40
5.0
100
AcDbArc
 50
90.0
 51
180.0
  0
LINE
  5
2E0
330
1F
100
AcDbEntity
  8
002
 62
     3
370
    30
100
AcDbLine
 10
144.535567
 20
891.116629
 30
0.0
 11
140.209567
 21
870.199629
 31
0.0
  0
ARC
  5
2E1
330
1F
100
AcDbEntity
  8
002
 62
     3
370
    30
100
AcDbCircle
 10
176.931967
 20
862.603629
 30
0.0
 40
37.49962299543822
100
AcDbArc
 50
164.766885
 51
191.685572
  0
LINE
  5
2E2
330
1F
100
AcDbEntity
  8
002
 62
     3
370
    30
100
AcDbLine
 10
140.209567
 20
855.008429
 30
0.0
 11
144.535567
 21
834.091129
 31
0.0
  0
ARC
  5
2E3
330
1F
100
AcDbEntity
  8
002
 62
     3
370
    30
100
AcDbCircle
 10
149.431567
 20
835.103929
 30
0.0
 40
4.999887694738848
100
AcDbArc
 50
191.687512
 51
258.322394
  0
LINE
  5
2E4
330
1F
100
AcDbEntity
  8
002
 62
     3
370
    30
100
AcDbLine
 10
148.419567
 20
830.207529
 30
0.0
 11
169.336567
 21
825.881129
 31
0.0
  0
CIRCLE
  5
2E5
330
1F
100
AcDbEntity
  8
002
 62
     3
370
    30
100
AcDbCircle
 10
201.680767
 20
837.855129
 30
0.0
 40
5.0
  0
LINE
  5
2E6
330
1F
100
AcDbEntity
  8
002
 62
     3
370
    30
100
AcDbLine
 10
201.680767
 20
840.741929
 30
0.0
 11
199.180767
 21
839.298529
 31
0.0
  0
LINE
  5
2E7
330
1F
100
AcDbEntity
  8
002
 62
     3
370
    30
100
AcDbLine
 10
199.180767
 20
839.298529
 30
0.0
 11
199.180767
 21
836.411829
 31
0.0
  0
LINE
  5
2E8
330
1F
100
AcDbEntity
  8
002
 62
     3
370
    30
100
AcDbLine
 10
199.180767
 20
836.411829
 30
0.0
 11
201.680767
 21
834.968429
 31
0.0
  0
LINE
  5
2E9
330
1F
100
AcDbEntity
  8
002
 62
     3
370
    30
100
AcDbLine
 10
201.680767
 20
834.968429
 30
0.0
 11
204.180767
 21
836.411829
 31
0.0
  0
LINE
  5
2EA
330
1F
100
AcDbEntity
  8
002
 62
     3
370
    30
100
AcDbLine
 10
204.180767
 20
836.411829
 30
0.0
 11
204.180767
 21
839.298529
 31
0.0
  0
LINE
  5
2EB
330
1F
100
AcDbEntity
  8
002
 62
     3
370
    30
100
AcDbLine
 10
204.180767
 20
839.298529
 30
0.0
 11
201.680767
 21
840.741929
 31
0.0
  0
ARC
  5
2EC
330
1F
100
AcDbEntity
  8
002
 62
     3
370
    30
100
AcDbCircle
 10
204.431967
 20
835.103929
 30
0.0
 40
5.000049679753181
100
AcDbArc
 50
281.686583
 51
348.313417
  0
LINE
  5
2ED
330
1F
100
AcDbEntity
  8
002
 62
     3
370
    30
100
AcDbLine
 10
217.229067
 20
852.603929
 30
0.0
 11
222.931967
 21
852.603929
 31
0.0
  0
ARC
  5
2EE
330
1F
100
AcDbEntity
  8
002
 62
     3
370
    30
100
AcDbCircle
 10
217.229067
 20
847.603929
 30
0.0
 40
5.000029424913389
100
AcDbArc
 50
90.0
 51
168.314539
  0
ARC
  5
2EF
330
1F
100
AcDbEntity
  8
002
 62
     3
370
    30
100
AcDbCircle
 10
176.931967
 20
862.603629
 30
0.0
 40
37.50017674411683
100
AcDbArc
 50
348.314552
 51
11.686645
  0
ARC
  5
2F0
330
1F
100
AcDbEntity
  8
002
 62
     3
370
    30
100
AcDbCircle
 10
180.045067
 20
904.989629
 30
0.0
 40
4.999953968788216
100
AcDbArc
 50
265.798274
 51
357.13399
  0
LINE
  5
2F1
330
1F
100
AcDbEntity
  8
002
 62
     3
370
    30
100
AcDbLine
 10
153.626567
 20
840.355129
 30
0.0
 11
155.069567
 21
837.855129
 31
0.0
  0
LINE
  5
2F2
330
1F
100
AcDbEntity
  8
002
 62
     3
370
    30
100
AcDbLine
 10
155.069567
 20
837.855129
 30
0.0
 11
153.626567
 21
835.355129
 31
0.0
  0
LINE
  5
2F3
330
1F
100
AcDbEntity
  8
002
 62
     3
370
    30
100
AcDbLine
 10
153.626567
 20
835.355129
 30
0.0
 11
150.739567
 21
835.355129
 31
0.0
  0
LINE
  5
2F4
330
1F
100
AcDbEntity
  8
002
 62
     3
370
    30
100
AcDbLine
 10
150.739567
 20
835.355129
 30
0.0
 11
149.296567
 21
837.855129
 31
0.0
  0
LINE
  5
2F5
330
1F
100
AcDbEntity
  8
002
 62
     3
370
    30
100
AcDbLine
 10
149.296567
 20
837.855129
 30
0.0
 11
150.739567
 21
840.355129
 31
0.0
  0
LINE
  5
2F6
330
1F
100
AcDbEntity
  8
002
 62
     3
370
    30
100
AcDbLine
 10
150.739567
 20
840.355129
 30
0.0
 11
153.626567
 21
840.355129
 31
0.0
  0
CIRCLE
  5
2F7
330
1F
100
AcDbEntity
  8
002
 62
     3
370
    30
100
AcDbCircle
 10
152.183567
 20
837.855129
 30
0.0
 40
5.0
  0
LINE
  5
2F8
330
1F
100
AcDbEntity
  8
002
 62
     3
370
    30
100
AcDbLine
 10
153.362567
 20
829.185129
 30
0.0
 11
161.368867
 21
798.579229
 31
0.0
  0
ARC
  5
2F9
330
1F
100
AcDbEntity
  8
002
 62
     3
370
    30
100
AcDbCircle
 10
169.108467
 20
800.603929
 30
0.0
 40
8.0
100
AcDbArc
 50
194.660194
 51
270.0
  0
LINE
  5
2FA
330
1F
100
AcDbEntity
  8
002
 62
     3
370
    30
100
AcDbLine
 10
169.108467
 20
792.603929
 30
0.0
 11
184.755567
 21
792.603929
 31
0.0
  0
ARC
  5
2FB
330
1F
100
AcDbEntity
  8
002
 62
     3
370
    30
100
AcDbCircle
 10
184.755567
 20
800.603929
 30
0.0
 40
8.00005114046155
100
AcDbArc
 50
270.0
 51
345.339806
  0
LINE
  5
2FC
330
1F
100
AcDbEntity
  8
002
 62
     3
370
    30
100
AcDbLine
 10
192.495167
 20
798.579229
 30
0.0
 11
196.163967
 21
812.603929
 31
0.0
  0
CIRCLE
  5
2FD
330
1F
100
AcDbEntity
  8
002
 62
     3
370
    30
100
AcDbCircle
 10
176.931967
 20
802.603929
 30
0.0
 40
5.5
  0
ARC
  5
2FE
330
1F
100
AcDbEntity
  8
002
 62
     3
370
    30
100
AcDbCircle
 10
176.931967
 20
802.603929
 30
0.0
 40
11.99997259330203
100
AcDbArc
 50
303.55751
 51
236.442888
  0
LINE
  5
2FF
330
1F
100
AcDbEntity
  8
002
  6
CENTER
 62
    40
370
     9
100
AcDbLine
 10
208.931967
 20
959.279629
 30
0.0
 11
208.931967
 21
770.338429
 31
0.0
  0
LINE
  5
300
330
1F
100
AcDbEntity
  8
002
  6
CENTER
 62
    40
370
     9
100
AcDbLine
 10
128.289567
 20
862.603629
 30
0.0
 11
242.046567
 21
862.603629
 31
0.0
  0
LINE
  5
301
330
1F
100
AcDbEntity
  8
002
  6
CENTER
 62
    40
370
     9
100
AcDbLine
 10
194.681367
 20
922.603629
 30
0.0
 11
158.651467
 21
922.603629
 31
0.0
  0
LINE
  5
302
330
1F
100
AcDbEntity
  8
002
  6
CENTER
 62
    40
370
     9
100
AcDbLine
 10
176.931967
 20
783.315629
 30
0.0
 11
176.931967
 21
943.628629
 31
0.0
  0
CIRCLE
  5
303
330
1F
100
AcDbEntity
  8
002
  6
CENTER
 62
    40
370
     9
100
AcDbCircle
 10
176.931967
 20
862.603629
 30
0.0
 40
35.0
  0
LINE
  5
304
330
1F
100
AcDbEntity
  8
002
  6
CENTER
 62
    40
370
     9
100
AcDbLine
 10
198.489567
 20
884.161629
 30
0.0
 11
204.600067
 21
890.271629
 31
0.0
  0
LINE
  5
305
330
1F
100
AcDbEntity
  8
002
  6
CENTER
 62
    40
370
     9
100
AcDbLine
 10
155.374567
 20
884.161629
 30
0.0
 11
149.263567
 21
890.271629
 31
0.0
  0
LINE
  5
306
330
1F
100
AcDbEntity
  8
002
  6
CENTER
 62
    40
370
     9
100
AcDbLine
 10
149.263567
 20
834.935829
 30
0.0
 11
155.374567
 21
841.046329
 31
0.0
  0
LINE
  5
307
330
1F
100
AcDbEntity
  8
002
  6
CENTER
 62
    40
370
     9
100
AcDbLine
 10
198.489567
 20
841.046329
 30
0.0
 11
204.600067
 21
834.935829
 31
0.0
  0
LINE
  5
308
330
1F
100
AcDbEntity
  8
002
  6
CENTER
 62
    40
370
     9
100
AcDbLine
 10
222.931967
 20
854.203629
 30
0.0
 11
222.931967
 21
871.376629
 31
0.0
  0
LINE
  5
309
330
1F
100
AcDbEntity
  8
002
  6
CENTER
 62
    40
370
     9
100
AcDbLine
 10
194.681367
 20
802.603929
 30
0.0
 11
158.651467
 21
802.603929
 31
0.0
  0
LINE
  5
30A
330
1F
100
AcDbEntity
  8
002
  6
HIDDEN
 62
    40
370
     9
100
AcDbLine
 10
200.501567
 20
896.022629
 30
0.0
 11
196.163967
 21
912.603629
 31
0.0
  0
LINE
  5
30B
330
1F
100
AcDbEntity
  8
002
  6
HIDDEN
 62
    40
370
     9
100
AcDbLine
 10
200.501567
 20
829.185129
 30
0.0
 11
196.163967
 21
812.603929
 31
0.0
  0
LINE
  5
30C
330
1F
100
AcDbEntity
  8
002
 62
     3
370
    30
100
AcDbLine
 10
205.444767
 20
894.999729
 30
0.0
 11
184.527467
 21
899.326129
 31
0.0
  0
LINE
  5
30D
330
1F
100
AcDbEntity
  8
002
 62
     3
370
    30
100
AcDbLine
 10
148.419567
 20
894.999729
 30
0.0
 11
169.336567
 21
899.326129
 31
0.0
  0
CIRCLE
  5
30E
330
1F
100
AcDbEntity
  8
002
 62
     3
370
    30
100
AcDbCircle
 10
176.931967
 20
862.603629
 30
0.0
 40
29.0
  0
CIRCLE
  5
30F
330
1F
100
AcDbEntity
  8
002
 62
     3
370
    30
100
AcDbCircle
 10
176.931967
 20
862.603629
 30
0.0
 40
10.0
  0
ARC
  5
310
330
1F
100
AcDbEntity
  8
002
 62
     3
370
    30
100
AcDbCircle
 10
176.931967
 20
862.603629
 30
0.0
 40
37.50017005294772
100
AcDbArc
 50
93.959418
 51
101.685087
  0
ARC
  5
311
330
1F
100
AcDbEntity
  8
002
 62
     3
370
    30
100
AcDbCircle
 10
176.931967
 20
862.603629
 30
0.0
 40
37.50017005294772
100
AcDbArc
 50
78.313417
 51
86.040564
  0
ARC
  5
312
330
1F
100
AcDbEntity
  8
002
 62
     3
370
    30
100
AcDbCircle
 10
176.931967
 20
862.603629
 30
0.0
 40
37.5003725981489
100
AcDbArc
 50
258.314913
 51
266.040671
  0
ARC
  5
313
330
1F
100
AcDbEntity
  8
002
 62
     3
370
    30
100
AcDbCircle
 10
176.931967
 20
862.603629
 30
0.0
 40
37.5003725981489
100
AcDbArc
 50
273.959347
 51
281.686583
  0
ARC
  5
314
330
1F
100
AcDbEntity
  8
002
 62
     3
370
    30
100
AcDbCircle
 10
176.931967
 20
862.603629
 30
0.0
 40
37.49962299543822
100
AcDbArc
 50
266.040671
 51
273.863122
  0
ARC
  5
315
330
1F
100
AcDbEntity
  8
002
 62
     3
370
    30
100
AcDbCircle
 10
176.931967
 20
862.603629
 30
0.0
 40
37.49962299543822
100
AcDbArc
 50
86.136878
 51
93.959329
  0
CIRCLE
  5
316
330
1F
100
AcDbEntity
  8
002
 62
    40
370
     9
100
AcDbCircle
 10
176.931967
 20
862.604629
 30
0.0
 40
8.769753
  0
LINE
  5
317
330
1F
100
AcDbEntity
  8
002
 62
     3
370
    30
100
AcDbLine
 10
318.864668
 20
166.431485
 30
0.0
 11
318.864668
 21
119.431485
 31
0.0
  0
LINE
  5
318
330
1F
100
AcDbEntity
  8
002
 62
     3
370
    30
100
AcDbLine
 10
318.864668
 20
119.431485
 30
0.0
 11
368.864668
 21
117.931485
 31
0.0
  0
LINE
  5
319
330
1F
100
AcDbEntity
  8
002
 62
     3
370
    30
100
AcDbLine
 10
368.864668
 20
117.931485
 30
0.0
 11
418.864668
 21
119.431485
 31
0.0
  0
LINE
  5
31A
330
1F
100
AcDbEntity
  8
002
 62
     3
370
    30
100
AcDbLine
 10
418.864668
 20
119.431485
 30
0.0
 11
418.864668
 21
166.431485
 31
0.0
  0
LINE
  5
31B
330
1F
100
AcDbEntity
  8
002
 62
     3
370
    30
100
AcDbLine
 10
418.864668
 20
166.431485
 30
0.0
 11
381.774668
 21
167.544185
 31
0.0
  0
LINE
  5
31C
330
1F
100
AcDbEntity
  8
002
 62
     3
370
    30
100
AcDbLine
 10
378.864668
 20
170.542785
 30
0.0
 11
378.864668
 21
170.931485
 31
0.0
  0
LINE
  5
31D
330
1F
100
AcDbEntity
  8
002
 62
     3
370
    30
100
AcDbLine
 10
378.864668
 20
170.931485
 30
0.0
 11
358.864668
 21
170.931485
 31
0.0
  0
LINE
  5
31E
330
1F
100
AcDbEntity
  8
002
 62
     3
370
    30
100
AcDbLine
 10
358.864668
 20
170.931485
 30
0.0
 11
358.864668
 21
170.542785
 31
0.0
  0
ARC
  5
31F
330
1F
100
AcDbEntity
  8
002
 62
     3
370
    30
100
AcDbCircle
 10
368.864668
 20
176.881785
 30
0.0
 40
13.6223364402
100
AcDbArc
 50
222.769752
 51
317.230248
  0
ARC
  5
320
330
1F
100
AcDbEntity
  8
002
 62
     3
370
    30
100
AcDbCircle
 10
381.864668
 20
170.542785
 30
0.0
 40
2.999950326255428
100
AcDbArc
 50
180.0
 51
268.28084
  0
LINE
  5
321
330
1F
100
AcDbEntity
  8
002
 62
     3
370
    30
100
AcDbLine
 10
374.638668
 20
172.931485
 30
0.0
 11
374.638668
 21
175.931485
 31
0.0
  0
LINE
  5
322
330
1F
100
AcDbEntity
  8
002
 62
     3
370
    30
100
AcDbLine
 10
374.638668
 20
175.931485
 30
0.0
 11
371.724668
 21
178.844985
 31
0.0
  0
LINE
  5
323
330
1F
100
AcDbEntity
  8
002
 62
     3
370
    30
100
AcDbLine
 10
371.162668
 20
179.407485
 30
0.0
 11
366.567668
 21
179.407485
 31
0.0
  0
LINE
  5
324
330
1F
100
AcDbEntity
  8
002
 62
     3
370
    30
100
AcDbLine
 10
366.145668
 20
180.082085
 30
0.0
 11
365.614668
 21
180.931485
 31
0.0
  0
LINE
  5
325
330
1F
100
AcDbEntity
  8
002
 62
     3
370
    30
100
AcDbLine
 10
365.614668
 20
180.931485
 30
0.0
 11
366.364668
 21
183.931485
 31
0.0
  0
LINE
  5
326
330
1F
100
AcDbEntity
  8
002
 62
     3
370
    30
100
AcDbLine
 10
366.364668
 20
183.931485
 30
0.0
 11
371.364668
 21
183.931485
 31
0.0
  0
LINE
  5
327
330
1F
100
AcDbEntity
  8
002
 62
     3
370
    30
100
AcDbLine
 10
371.364668
 20
183.931485
 30
0.0
 11
372.114668
 21
180.931485
 31
0.0
  0
LINE
  5
328
330
1F
100
AcDbEntity
  8
002
 62
     3
370
    30
100
AcDbLine
 10
372.114668
 20
180.931485
 30
0.0
 11
371.583668
 21
180.082085
 31
0.0
  0
ARC
  5
329
330
1F
100
AcDbEntity
  8
002
 62
     3
370
    30
100
AcDbCircle
 10
372.431668
 20
179.552085
 30
0.0
 40
0.9999197017759904
100
AcDbArc
 50
147.994617
 51
225.004052
  0
LINE
  5
32A
330
1F
100
AcDbEntity
  8
002
 62
     3
370
    30
100
AcDbLine
 10
371.364668
 20
180.931485
 30
0.0
 11
366.364668
 21
180.931485
 31
0.0
  0
LINE
  5
32B
330
1F
100
AcDbEntity
  8
002
 62
     3
370
    30
100
AcDbLine
 10
331.364668
 20
182.931485
 30
0.0
 11
331.364668
 21
166.806485
 31
0.0
  0
LINE
  5
32C
330
1F
100
AcDbEntity
  8
002
 62
     3
370
    30
100
AcDbLine
 10
331.364668
 20
172.931485
 30
0.0
 11
363.091668
 21
172.931485
 31
0.0
  0
LINE
  5
32D
330
1F
100
AcDbEntity
  8
002
 62
     3
370
    30
100
AcDbLine
 10
363.091668
 20
172.931485
 30
0.0
 11
363.993668
 21
172.028785
 31
0.0
  0
ARC
  5
32E
330
1F
100
AcDbEntity
  8
002
 62
     3
370
    30
100
AcDbCircle
 10
364.534668
 20
173.472185
 30
0.0
 40
1.540975499480717
100
AcDbArc
 50
249.453526
 51
339.458751
  0
LINE
  5
32F
330
1F
100
AcDbEntity
  8
002
 62
     3
370
    30
100
AcDbLine
 10
365.977668
 20
172.931485
 30
0.0
 11
365.977668
 21
175.931485
 31
0.0
  0
ARC
  5
330
330
1F
100
AcDbEntity
  8
002
 62
     3
370
    30
100
AcDbCircle
 10
364.534668
 20
175.390785
 30
0.0
 40
1.54145533830855
100
AcDbArc
 50
20.541249
 51
110.546474
  0
LINE
  5
331
330
1F
100
AcDbEntity
  8
002
 62
     3
370
    30
100
AcDbLine
 10
363.091668
 20
175.931485
 30
0.0
 11
366.004668
 21
178.844985
 31
0.0
  0
ARC
  5
332
330
1F
100
AcDbEntity
  8
002
 62
     3
370
    30
100
AcDbCircle
 10
365.297668
 20
179.552085
 30
0.0
 40
1.000001999997949
100
AcDbArc
 50
314.995948
 51
32.005383
  0
LINE
  5
333
330
1F
100
AcDbEntity
  8
002
 62
     3
370
    30
100
AcDbLine
 10
363.091668
 20
175.931485
 30
0.0
 11
363.091668
 21
172.931485
 31
0.0
  0
LINE
  5
334
330
1F
100
AcDbEntity
  8
002
 62
     3
370
    30
100
AcDbLine
 10
364.578668
 20
171.931485
 30
0.0
 11
373.150668
 21
171.931485
 31
0.0
  0
LINE
  5
335
330
1F
100
AcDbEntity
  8
002
 62
     3
370
    30
100
AcDbLine
 10
372.726668
 20
171.931485
 30
0.0
 11
372.726668
 21
170.931485
 31
0.0
  0
LINE
  5
336
330
1F
100
AcDbEntity
  8
002
 62
     3
370
    30
100
AcDbLine
 10
373.735668
 20
172.028785
 30
0.0
 11
374.638668
 21
172.931485
 31
0.0
  0
LINE
  5
337
330
1F
100
AcDbEntity
  8
002
 62
     3
370
    30
100
AcDbLine
 10
374.638668
 20
172.931485
 30
0.0
 11
406.364668
 21
172.931485
 31
0.0
  0
LINE
  5
338
330
1F
100
AcDbEntity
  8
002
 62
     3
370
    30
100
AcDbLine
 10
406.364668
 20
166.806485
 30
0.0
 11
406.364668
 21
182.931485
 31
0.0
  0
ARC
  5
339
330
1F
100
AcDbEntity
  8
002
 62
     3
370
    30
100
AcDbCircle
 10
368.864668
 20
183.269985
 30
0.0
 40
1.000041124154433
100
AcDbArc
 50
41.412294
 51
138.587706
  0
LINE
  5
33A
330
1F
100
AcDbEntity
  8
002
 62
     3
370
    30
100
AcDbLine
 10
371.751668
 20
175.931485
 30
0.0
 11
371.751668
 21
172.931485
 31
0.0
  0
ARC
  5
33B
330
1F
100
AcDbEntity
  8
002
 62
     3
370
    30
100
AcDbCircle
 10
373.194668
 20
173.472185
 30
0.0
 40
1.54145533830863
100
AcDbArc
 50
200.541249
 51
290.546474
  0
ARC
  5
33C
330
1F
100
AcDbEntity
  8
002
 62
     3
370
    30
100
AcDbCircle
 10
368.864668
 20
172.264785
 30
0.0
 40
4.666846675218766
100
AcDbArc
 50
51.784644
 51
128.215356
  0
ARC
  5
33D
330
1F
100
AcDbEntity
  8
002
 62
     3
370
    30
100
AcDbCircle
 10
368.864668
 20
176.598085
 30
0.0
 40
4.666768106516431
100
AcDbArc
 50
231.783884
 51
308.216116
  0
ARC
  5
33E
330
1F
100
AcDbEntity
  8
002
 62
     3
370
    30
100
AcDbCircle
 10
373.194668
 20
175.390785
 30
0.0
 40
1.540975499480757
100
AcDbArc
 50
69.453526
 51
159.458751
  0
LINE
  5
33F
330
1F
100
AcDbEntity
  8
002
 62
     3
370
    30
100
AcDbLine
 10
365.003668
 20
171.931485
 30
0.0
 11
365.003668
 21
170.931485
 31
0.0
  0
LINE
  5
340
330
1F
100
AcDbEntity
  8
002
 62
     3
370
    30
100
AcDbLine
 10
355.954668
 20
167.544185
 30
0.0
 11
318.864668
 21
166.431485
 31
0.0
  0
LINE
  5
341
330
1F
100
AcDbEntity
  8
002
 62
     3
370
    30
100
AcDbLine
 10
341.364668
 20
160.431485
 30
0.0
 11
396.364668
 21
160.431485
 31
0.0
  0
LINE
  5
342
330
1F
100
AcDbEntity
  8
002
 62
     3
370
    30
100
AcDbLine
 10
396.364668
 20
160.431485
 30
0.0
 11
396.364668
 21
125.431485
 31
0.0
  0
LINE
  5
343
330
1F
100
AcDbEntity
  8
002
 62
     3
370
    30
100
AcDbLine
 10
396.364668
 20
125.431485
 30
0.0
 11
341.364668
 21
125.431485
 31
0.0
  0
LINE
  5
344
330
1F
100
AcDbEntity
  8
002
 62
     3
370
    30
100
AcDbLine
 10
341.364668
 20
125.431485
 30
0.0
 11
341.364668
 21
160.431485
 31
0.0
  0
ARC
  5
345
330
1F
100
AcDbEntity
  8
002
 62
     3
370
    30
100
AcDbCircle
 10
355.864668
 20
170.542785
 30
0.0
 40
3.0
100
AcDbArc
 50
271.71916
 51
0.0
  0
ARC
  5
346
330
1F
100
AcDbEntity
  8
002
 62
     3
370
    30
100
AcDbCircle
 10
302.864668
 20
110.044085
 30
0.0
 40
4.0
100
AcDbArc
 50
91.633141
 51
180.0
  0
LINE
  5
347
330
1F
100
AcDbEntity
  8
002
 62
     3
370
    30
100
AcDbLine
 10
298.864668
 20
110.044085
 30
0.0
 11
298.864668
 21
102.931485
 31
0.0
  0
LINE
  5
348
330
1F
100
AcDbEntity
  8
002
 62
     3
370
    30
100
AcDbLine
 10
298.864668
 20
102.931485
 30
0.0
 11
438.864668
 21
102.931485
 31
0.0
  0
LINE
  5
349
330
1F
100
AcDbEntity
  8
002
 62
     3
370
    30
100
AcDbLine
 10
438.864668
 20
102.931485
 30
0.0
 11
438.864668
 21
110.044085
 31
0.0
  0
ARC
  5
34A
330
1F
100
AcDbEntity
  8
002
 62
     3
370
    30
100
AcDbCircle
 10
434.864668
 20
110.044085
 30
0.0
 40
4.000024819923001
100
AcDbArc
 50
0.0
 51
88.366859
  0
LINE
  5
34B
330
1F
100
AcDbEntity
  8
002
 62
     3
370
    30
100
AcDbLine
 10
434.978668
 20
114.042485
 30
0.0
 11
368.864668
 21
115.931485
 31
0.0
  0
LINE
  5
34C
330
1F
100
AcDbEntity
  8
002
 62
     3
370
    30
100
AcDbLine
 10
368.864668
 20
115.931485
 30
0.0
 11
302.750668
 21
114.042485
 31
0.0
  0
ARC
  5
34D
330
1F
100
AcDbEntity
  8
002
 62
     3
370
    30
100
AcDbCircle
 10
330.864668
 20
116.846585
 30
0.0
 40
2.0
100
AcDbArc
 50
271.633141
 51
0.0
  0
ARC
  5
34E
330
1F
100
AcDbEntity
  8
002
 62
     3
370
    30
100
AcDbCircle
 10
330.864668
 20
117.070585
 30
0.0
 40
2.000000202499987
100
AcDbArc
 50
0.0
 51
88.280869
  0
ARC
  5
34F
330
1F
100
AcDbEntity
  8
002
 62
     3
370
    30
100
AcDbCircle
 10
347.679668
 20
111.324485
 30
0.0
 40
4.0
100
AcDbArc
 50
139.328795
 51
180.0
  0
LINE
  5
350
330
1F
100
AcDbEntity
  8
002
 62
     3
370
    30
100
AcDbLine
 10
343.679668
 20
111.095985
 30
0.0
 11
343.679668
 21
102.931485
 31
0.0
  0
LINE
  5
351
330
1F
100
AcDbEntity
  8
002
 62
     3
370
    30
100
AcDbLine
 10
394.050668
 20
102.931485
 30
0.0
 11
394.050668
 21
111.095985
 31
0.0
  0
ARC
  5
352
330
1F
100
AcDbEntity
  8
002
 62
     3
370
    30
100
AcDbCircle
 10
390.050668
 20
111.324485
 30
0.0
 40
3.999442211108851
100
AcDbArc
 50
0.0
 51
40.680542
  0
ARC
  5
353
330
1F
100
AcDbEntity
  8
002
 62
     3
370
    30
100
AcDbCircle
 10
398.050668
 20
111.095985
 30
0.0
 40
4.0
100
AcDbArc
 50
134.86328
 51
180.0
  0
ARC
  5
354
330
1F
100
AcDbEntity
  8
002
 62
     3
370
    30
100
AcDbCircle
 10
406.864668
 20
116.846585
 30
0.0
 40
2.000012409961472
100
AcDbArc
 50
180.0
 51
268.366859
  0
ARC
  5
355
330
1F
100
AcDbEntity
  8
002
 62
     3
370
    30
100
AcDbCircle
 10
406.864668
 20
117.070585
 30
0.0
 40
2.0
100
AcDbArc
 50
91.719131
 51
180.0
  0
ARC
  5
356
330
1F
100
AcDbEntity
  8
002
 62
     3
370
    30
100
AcDbCircle
 10
339.679668
 20
111.095985
 30
0.0
 40
3.999762649207991
100
AcDbArc
 50
0.0
 51
45.146873
  0
LINE
  5
357
330
1F
100
AcDbEntity
  8
003
  6
CENTER
 62
    40
370
     9
100
AcDbLine
 10
428.864668
 20
119.129785
 30
0.0
 11
428.864668
 21
98.739585
 31
0.0
  0
LINE
  5
358
330
1F
100
AcDbEntity
  8
003
  6
HIDDEN
 62
    40
370
     9
100
AcDbLine
 10
434.364668
 20
102.931485
 30
0.0
 11
434.364668
 21
112.931485
 31
0.0
  0
LINE
  5
359
330
1F
100
AcDbEntity
  8
003
  6
HIDDEN
 62
    40
370
     9
100
AcDbLine
 10
437.632668
 20
112.931485
 30
0.0
 11
416.864668
 21
112.931485
 31
0.0
  0
LINE
  5
35A
330
1F
100
AcDbEntity
  8
003
  6
HIDDEN
 62
    40
370
     9
100
AcDbLine
 10
416.864668
 20
112.931485
 30
0.0
 11
416.864668
 21
114.559985
 31
0.0
  0
LINE
  5
35B
330
1F
100
AcDbEntity
  8
003
  6
HIDDEN
 62
    40
370
     9
100
AcDbLine
 10
423.364668
 20
112.931485
 30
0.0
 11
423.364668
 21
102.931485
 31
0.0
  0
LINE
  5
35C
330
1F
100
AcDbEntity
  8
003
  6
HIDDEN
 62
    40
370
     9
100
AcDbLine
 10
320.864668
 20
112.931485
 30
0.0
 11
300.096668
 21
112.931485
 31
0.0
  0
LINE
  5
35D
330
1F
100
AcDbEntity
  8
003
  6
HIDDEN
 62
    40
370
     9
100
AcDbLine
 10
303.364668
 20
112.931485
 30
0.0
 11
303.364668
 21
102.931485
 31
0.0
  0
LINE
  5
35E
330
1F
100
AcDbEntity
  8
003
  6
CENTER
 62
    40
370
     9
100
AcDbLine
 10
308.864668
 20
98.739585
 30
0.0
 11
308.864668
 21
119.129785
 31
0.0
  0
LINE
  5
35F
330
1F
100
AcDbEntity
  8
003
  6
HIDDEN
 62
    40
370
     9
100
AcDbLine
 10
314.364668
 20
112.931485
 30
0.0
 11
314.364668
 21
102.931485
 31
0.0
  0
LINE
  5
360
330
1F
100
AcDbEntity
  8
003
  6
HIDDEN
 62
    40
370
     9
100
AcDbLine
 10
320.864668
 20
112.931485
 30
0.0
 11
320.864668
 21
114.559985
 31
0.0
  0
LINE
  5
361
330
1F
100
AcDbEntity
  8
002
 62
     3
370
    30
100
AcDbLine
 10
398.613368
 20
188.931485
 30
0.0
 11
388.613368
 21
188.931485
 31
0.0
  0
LINE
  5
362
330
1F
100
AcDbEntity
  8
002
 62
     3
370
    30
100
AcDbLine
 10
398.613368
 20
188.931485
 30
0.0
 11
398.613368
 21
182.931485
 31
0.0
  0
LINE
  5
363
330
1F
100
AcDbEntity
  8
002
 62
     3
370
    30
100
AcDbLine
 10
388.613368
 20
188.931485
 30
0.0
 11
388.613368
 21
182.931485
 31
0.0
  0
LINE
  5
364
330
1F
100
AcDbEntity
  8
002
 62
     3
370
    30
100
AcDbLine
 10
406.364668
 20
182.931485
 30
0.0
 11
331.364668
 21
182.931485
 31
0.0
  0
LINE
  5
365
330
1F
100
AcDbEntity
  8
002
 62
     3
370
    30
100
AcDbLine
 10
339.115868
 20
182.931485
 30
0.0
 11
339.115868
 21
188.931485
 31
0.0
  0
LINE
  5
366
330
1F
100
AcDbEntity
  8
002
 62
     3
370
    30
100
AcDbLine
 10
339.115868
 20
188.931485
 30
0.0
 11
349.115868
 21
188.931485
 31
0.0
  0
LINE
  5
367
330
1F
100
AcDbEntity
  8
002
 62
     3
370
    30
100
AcDbLine
 10
349.115868
 20
188.931485
 30
0.0
 11
349.115868
 21
182.931485
 31
0.0
  0
LINE
  5
368
330
1F
100
AcDbEntity
  8
002
  6
CENTER
 62
    40
370
     9
100
AcDbLine
 10
344.115868
 20
193.431485
 30
0.0
 11
344.115868
 21
167.097785
 31
0.0
  0
LINE
  5
369
330
1F
100
AcDbEntity
  8
002
  6
CENTER
 62
    40
370
     9
100
AcDbLine
 10
393.613368
 20
167.097785
 30
0.0
 11
393.613368
 21
193.431485
 31
0.0
  0
LINE
  5
36A
330
1F
100
AcDbEntity
  8
002
 62
     3
370
    30
100
AcDbLine
 10
283.864968
 20
149.431485
 30
0.0
 11
283.864968
 21
136.431485
 31
0.0
  0
LINE
  5
36B
330
1F
100
AcDbEntity
  8
002
 62
     3
370
    30
100
AcDbLine
 10
283.864968
 20
136.431485
 30
0.0
 11
284.864968
 21
135.431485
 31
0.0
  0
LINE
  5
36C
330
1F
100
AcDbEntity
  8
002
 62
     3
370
    30
100
AcDbLine
 10
284.864968
 20
135.431485
 30
0.0
 11
316.864968
 21
135.431485
 31
0.0
  0
LINE
  5
36D
330
1F
100
AcDbEntity
  8
002
 62
     3
370
    30
100
AcDbLine
 10
316.864968
 20
151.431485
 30
0.0
 11
316.864968
 21
134.431485
 31
0.0
  0
LINE
  5
36E
330
1F
100
AcDbEntity
  8
002
 62
     3
370
    30
100
AcDbLine
 10
316.864968
 20
150.431485
 30
0.0
 11
284.864968
 21
150.431485
 31
0.0
  0
LINE
  5
36F
330
1F
100
AcDbEntity
  8
002
 62
     3
370
    30
100
AcDbLine
 10
284.864968
 20
150.431485
 30
0.0
 11
283.864968
 21
149.431485
 31
0.0
  0
LINE
  5
370
330
1F
100
AcDbEntity
  8
002
 62
     3
370
    30
100
AcDbLine
 10
284.864968
 20
150.431485
 30
0.0
 11
284.864968
 21
145.431485
 31
0.0
  0
LINE
  5
371
330
1F
100
AcDbEntity
  8
002
 62
     3
370
    30
100
AcDbLine
 10
283.864968
 20
145.431485
 30
0.0
 11
311.364968
 21
145.431485
 31
0.0
  0
LINE
  5
372
330
1F
100
AcDbEntity
  8
002
 62
     3
370
    30
100
AcDbLine
 10
311.364968
 20
140.431485
 30
0.0
 11
283.864968
 21
140.431485
 31
0.0
  0
LINE
  5
373
330
1F
100
AcDbEntity
  8
002
 62
     3
370
    30
100
AcDbLine
 10
284.864968
 20
140.431485
 30
0.0
 11
284.864968
 21
135.431485
 31
0.0
  0
LINE
  5
374
330
1F
100
AcDbEntity
  8
002
 62
     3
370
    30
100
AcDbLine
 10
305.864968
 20
140.431485
 30
0.0
 11
305.864968
 21
145.431485
 31
0.0
  0
ARC
  5
375
330
1F
100
AcDbEntity
  8
002
 62
     3
370
    30
100
AcDbCircle
 10
311.364968
 20
142.931485
 30
0.0
 40
2.5
100
AcDbArc
 50
270.0
 51
90.0
  0
LINE
  5
376
330
1F
100
AcDbEntity
  8
002
 62
     3
370
    30
100
AcDbLine
 10
316.864968
 20
151.431485
 30
0.0
 11
318.864968
 21
151.431485
 31
0.0
  0
LINE
  5
377
330
1F
100
AcDbEntity
  8
002
 62
     3
370
    30
100
AcDbLine
 10
316.864968
 20
134.431485
 30
0.0
 11
318.864968
 21
134.431485
 31
0.0
  0
LINE
  5
378
330
1F
100
AcDbEntity
  8
002
 62
     3
370
    30
100
AcDbLine
 10
453.864368
 20
149.431485
 30
0.0
 11
453.864368
 21
136.431485
 31
0.0
  0
LINE
  5
379
330
1F
100
AcDbEntity
  8
002
 62
     3
370
    30
100
AcDbLine
 10
453.864368
 20
136.431485
 30
0.0
 11
452.864368
 21
135.431485
 31
0.0
  0
LINE
  5
37A
330
1F
100
AcDbEntity
  8
002
 62
     3
370
    30
100
AcDbLine
 10
452.864368
 20
135.431485
 30
0.0
 11
420.864368
 21
135.431485
 31
0.0
  0
LINE
  5
37B
330
1F
100
AcDbEntity
  8
002
 62
     3
370
    30
100
AcDbLine
 10
420.864368
 20
151.431485
 30
0.0
 11
420.864368
 21
134.431485
 31
0.0
  0
LINE
  5
37C
330
1F
100
AcDbEntity
  8
002
 62
     3
370
    30
100
AcDbLine
 10
420.864368
 20
150.431485
 30
0.0
 11
452.864368
 21
150.431485
 31
0.0
  0
LINE
  5
37D
330
1F
100
AcDbEntity
  8
002
 62
     3
370
    30
100
AcDbLine
 10
452.864368
 20
150.431485
 30
0.0
 11
453.864368
 21
149.431485
 31
0.0
  0
LINE
  5
37E
330
1F
100
AcDbEntity
  8
002
 62
     3
370
    30
100
AcDbLine
 10
452.864368
 20
150.431485
 30
0.0
 11
452.864368
 21
145.431485
 31
0.0
  0
LINE
  5
37F
330
1F
100
AcDbEntity
  8
002
 62
     3
370
    30
100
AcDbLine
 10
453.864368
 20
145.431485
 30
0.0
 11
426.364368
 21
145.431485
 31
0.0
  0
LINE
  5
380
330
1F
100
AcDbEntity
  8
002
 62
     3
370
    30
100
AcDbLine
 10
426.364368
 20
140.431485
 30
0.0
 11
453.864368
 21
140.431485
 31
0.0
  0
LINE
  5
381
330
1F
100
AcDbEntity
  8
002
 62
     3
370
    30
100
AcDbLine
 10
452.864368
 20
140.431485
 30
0.0
 11
452.864368
 21
135.431485
 31
0.0
  0
LINE
  5
382
330
1F
100
AcDbEntity
  8
002
 62
     3
370
    30
100
AcDbLine
 10
431.864368
 20
140.431485
 30
0.0
 11
431.864368
 21
145.431485
 31
0.0
  0
ARC
  5
383
330
1F
100
AcDbEntity
  8
002
 62
     3
370
    30
100
AcDbCircle
 10
426.364368
 20
142.931485
 30
0.0
 40
2.5
100
AcDbArc
 50
90.0
 51
270.0
  0
LINE
  5
384
330
1F
100
AcDbEntity
  8
002
 62
     3
370
    30
100
AcDbLine
 10
420.864368
 20
151.431485
 30
0.0
 11
418.864368
 21
151.431485
 31
0.0
  0
LINE
  5
385
330
1F
100
AcDbEntity
  8
002
 62
     3
370
    30
100
AcDbLine
 10
420.864368
 20
134.431485
 30
0.0
 11
418.864368
 21
134.431485
 31
0.0
  0
LINE
  5
386
330
1F
100
AcDbEntity
  8
003
  6
CENTER
 62
    40
370
     9
100
AcDbLine
 10
273.863767
 20
142.931485
 30
0.0
 11
462.938277
 21
142.931485
 31
0.0
  0
LINE
  5
387
330
1F
100
AcDbEntity
  8
002
 62
     3
370
    30
100
AcDbLine
 10
357.204768
 20
98.931485
 30
0.0
 11
357.204768
 21
93.931485
 31
0.0
  0
LINE
  5
388
330
1F
100
AcDbEntity
  8
002
 62
     3
370
    30
100
AcDbLine
 10
348.704768
 20
93.931485
 30
0.0
 11
348.704768
 21
98.931485
 31
0.0
  0
LINE
  5
389
330
1F
100
AcDbEntity
  8
002
 62
     3
370
    30
100
AcDbLine
 10
348.704768
 20
93.931485
 30
0.0
 11
357.204768
 21
93.931485
 31
0.0
  0
LINE
  5
38A
330
1F
100
AcDbEntity
  8
002
 62
     3
370
    30
100
AcDbLine
 10
351.864668
 20
93.931485
 30
0.0
 11
351.864668
 21
72.931485
 31
0.0
  0
LINE
  5
38B
330
1F
100
AcDbEntity
  8
002
 62
     3
370
    30
100
AcDbLine
 10
351.864668
 20
72.931485
 30
0.0
 11
385.864668
 21
72.931485
 31
0.0
  0
LINE
  5
38C
330
1F
100
AcDbEntity
  8
002
 62
     3
370
    30
100
AcDbLine
 10
385.864668
 20
72.931485
 30
0.0
 11
385.864668
 21
93.931485
 31
0.0
  0
LINE
  5
38D
330
1F
100
AcDbEntity
  8
002
 62
     3
370
    30
100
AcDbLine
 10
389.024568
 20
93.931485
 30
0.0
 11
380.524568
 21
93.931485
 31
0.0
  0
LINE
  5
38E
330
1F
100
AcDbEntity
  8
002
 62
     3
370
    30
100
AcDbLine
 10
380.524568
 20
93.931485
 30
0.0
 11
380.524568
 21
98.931485
 31
0.0
  0
LINE
  5
38F
330
1F
100
AcDbEntity
  8
002
 62
     3
370
    30
100
AcDbLine
 10
341.364668
 20
102.931485
 30
0.0
 11
341.364668
 21
98.931485
 31
0.0
  0
LINE
  5
390
330
1F
100
AcDbEntity
  8
002
 62
     3
370
    30
100
AcDbLine
 10
341.364668
 20
98.931485
 30
0.0
 11
396.364668
 21
98.931485
 31
0.0
  0
LINE
  5
391
330
1F
100
AcDbEntity
  8
002
 62
     3
370
    30
100
AcDbLine
 10
396.364668
 20
98.931485
 30
0.0
 11
396.364668
 21
102.931485
 31
0.0
  0
LINE
  5
392
330
1F
100
AcDbEntity
  8
002
 62
     3
370
    30
100
AcDbLine
 10
389.024568
 20
98.931485
 30
0.0
 11
389.024568
 21
93.931485
 31
0.0
  0
LINE
  5
393
330
1F
100
AcDbEntity
  8
002
  6
CENTER
 62
    40
370
     9
100
AcDbLine
 10
384.774568
 20
92.431485
 30
0.0
 11
384.774568
 21
104.931485
 31
0.0
  0
LINE
  5
394
330
1F
100
AcDbEntity
  8
002
  6
CENTER
 62
    40
370
     9
100
AcDbLine
 10
352.954768
 20
104.931485
 30
0.0
 11
352.954768
 21
92.431485
 31
0.0
  0
LINE
  5
395
330
1F
100
AcDbEntity
  8
002
 62
    40
370
     9
100
AcDbLine
 10
377.614968
 20
382.931485
 30
0.0
 11
377.614968
 21
349.064458
 31
0.0
  0
LINE
  5
396
330
1F
100
AcDbEntity
  8
002
 62
    40
370
     9
100
AcDbLine
 10
360.114968
 20
349.064458
 30
0.0
 11
360.114968
 21
382.931485
 31
0.0
  0
LINE
  5
397
330
1F
100
AcDbEntity
  8
001
  6
CENTER
 62
    40
370
     9
100
AcDbLine
 10
364.678785
 20
300.064557
 30
0.0
 11
372.638624
 21
300.064557
 31
0.0
  0
LINE
  5
398
330
1F
100
AcDbEntity
  8
001
  6
CENTER
 62
    40
370
     9
100
AcDbLine
 10
365.170637
 20
340.064339
 30
0.0
 11
373.040297
 21
340.064339
 31
0.0
  0
LINE
  5
399
330
1F
100
AcDbEntity
  8
002
 62
     3
370
    30
100
AcDbLine
 10
385.864927
 20
349.064458
 30
0.0
 11
351.864973
 21
349.064458
 31
0.0
  0
LINE
  5
39A
330
1F
100
AcDbEntity
  8
002
 62
     3
370
    30
100
AcDbLine
 10
398.864912
 20
292.064489
 30
0.0
 11
338.864988
 21
292.064489
 31
0.0
  0
LINE
  5
39B
330
1F
100
AcDbEntity
  8
002
 62
     3
370
    30
100
AcDbLine
 10
398.864927
 20
282.064489
 30
0.0
 11
338.864973
 21
282.064489
 31
0.0
  0
LINE
  5
39C
330
1F
100
AcDbEntity
  8
002
 62
     3
370
    30
100
AcDbLine
 10
398.864927
 20
292.064504
 30
0.0
 11
398.864927
 21
282.064489
 31
0.0
  0
LINE
  5
39D
330
1F
100
AcDbEntity
  8
002
 62
     3
370
    30
100
AcDbLine
 10
338.864973
 20
292.064504
 30
0.0
 11
338.864973
 21
282.064489
 31
0.0
  0
LINE
  5
39E
330
1F
100
AcDbEntity
  8
002
 62
     3
370
    30
100
AcDbLine
 10
385.864927
 20
349.018604
 30
0.0
 11
385.864927
 21
292.064504
 31
0.0
  0
LINE
  5
39F
330
1F
100
AcDbEntity
  8
002
 62
     3
370
    30
100
AcDbLine
 10
351.864973
 20
349.064458
 30
0.0
 11
351.864973
 21
292.064504
 31
0.0
  0
LINE
  5
3A0
330
1F
100
AcDbEntity
  8
002
 62
     3
370
    30
100
AcDbLine
 10
361.882261
 20
292.064489
 30
0.0
 11
361.882261
 21
328.50884
 31
0.0
  0
LINE
  5
3A1
330
1F
100
AcDbEntity
  8
002
 62
     3
370
    30
100
AcDbLine
 10
375.84651
 20
292.064473
 30
0.0
 11
375.84651
 21
300.333623
 31
0.0
  0
LINE
  5
3A2
330
1F
100
AcDbEntity
  8
002
 62
     3
370
    30
100
AcDbLine
 10
361.882261
 20
339.795339
 30
0.0
 11
361.882261
 21
348.064458
 31
0.0
  0
LINE
  5
3A3
330
1F
100
AcDbEntity
  8
002
 62
     3
370
    30
100
AcDbLine
 10
375.84651
 20
311.620122
 30
0.0
 11
375.84651
 21
348.064458
 31
0.0
  0
LINE
  5
3A4
330
1F
100
AcDbEntity
  8
002
 62
     3
370
    30
100
AcDbLine
 10
373.864378
 20
300.064473
 30
0.0
 11
373.864378
 21
340.064458
 31
0.0
  0
LINE
  5
3A5
330
1F
100
AcDbEntity
  8
002
 62
     3
370
    30
100
AcDbLine
 10
379.389724
 20
304.038903
 30
0.0
 11
373.864396
 21
315.861211
 31
0.0
  0
LINE
  5
3A6
330
1F
100
AcDbEntity
  8
002
 62
     3
370
    30
100
AcDbLine
 10
374.407056
 20
301.710179
 30
0.0
 11
373.864394
 21
302.871289
 31
0.0
  0
LINE
  5
3A7
330
1F
100
AcDbEntity
  8
002
 62
     3
370
    30
100
AcDbLine
 10
373.864572
 20
300.981919
 30
0.0
 11
363.864579
 21
322.37848
 31
0.0
  0
LINE
  5
3A8
330
1F
100
AcDbEntity
  8
002
 62
     3
370
    30
100
AcDbLine
 10
378.06276
 20
300.383191
 30
0.0
 11
373.86441
 21
309.366223
 31
0.0
  0
LINE
  5
3A9
330
1F
100
AcDbEntity
  8
002
 62
     3
370
    30
100
AcDbLine
 10
363.864393
 20
340.064473
 30
0.0
 11
363.864393
 21
300.064489
 31
0.0
  0
LINE
  5
3AA
330
1F
100
AcDbEntity
  8
002
 62
     3
370
    30
100
AcDbLine
 10
358.339068
 20
336.090094
 30
0.0
 11
363.864396
 21
324.267787
 31
0.0
  0
LINE
  5
3AB
330
1F
100
AcDbEntity
  8
002
 62
     3
370
    30
100
AcDbLine
 10
363.321734
 20
338.418824
 30
0.0
 11
363.864395
 21
337.257714
 31
0.0
  0
LINE
  5
3AC
330
1F
100
AcDbEntity
  8
002
 62
     3
370
    30
100
AcDbLine
 10
363.86422
 20
339.147076
 30
0.0
 11
373.864214
 21
317.750516
 31
0.0
  0
LINE
  5
3AD
330
1F
100
AcDbEntity
  8
002
 62
     3
370
    30
100
AcDbLine
 10
359.666031
 20
339.745806
 30
0.0
 11
363.864382
 21
330.762773
 31
0.0
  0
LINE
  5
3AE
330
1F
100
AcDbEntity
  8
002
 62
     3
370
    30
100
AcDbLine
 10
367.276487
 20
297.314489
 30
0.0
 11
370.452009
 21
297.314489
 31
0.0
  0
LINE
  5
3AF
330
1F
100
AcDbEntity
  8
002
 62
     3
370
    30
100
AcDbLine
 10
370.451994
 20
302.814504
 30
0.0
 11
367.276503
 21
302.814504
 31
0.0
  0
LINE
  5
3B0
330
1F
100
AcDbEntity
  8
002
 62
     3
370
    30
100
AcDbLine
 10
365.688965
 20
300.064557
 30
0.0
 11
367.276733
 21
302.814653
 31
0.0
  0
LINE
  5
3B1
330
1F
100
AcDbEntity
  8
002
 62
     3
370
    30
100
AcDbLine
 10
370.452103
 20
297.314557
 30
0.0
 11
372.03975
 21
300.064443
 31
0.0
  0
LINE
  5
3B2
330
1F
100
AcDbEntity
  8
002
 62
     3
370
    30
100
AcDbLine
 10
367.276563
 20
297.314496
 30
0.0
 11
365.688894
 21
300.064424
 31
0.0
  0
LINE
  5
3B3
330
1F
100
AcDbEntity
  8
002
 62
     3
370
    30
100
AcDbLine
 10
372.039755
 20
300.064431
 30
0.0
 11
370.452009
 21
302.814489
 31
0.0
  0
LINE
  5
3B4
330
1F
100
AcDbEntity
  8
002
 62
     3
370
    30
100
AcDbLine
 10
367.276518
 20
337.314489
 30
0.0
 11
370.45204
 21
337.314489
 31
0.0
  0
LINE
  5
3B5
330
1F
100
AcDbEntity
  8
002
 62
     3
370
    30
100
AcDbLine
 10
370.452025
 20
342.814504
 30
0.0
 11
367.276533
 21
342.814504
 31
0.0
  0
LINE
  5
3B6
330
1F
100
AcDbEntity
  8
002
 62
     3
370
    30
100
AcDbLine
 10
365.688897
 20
340.064339
 30
0.0
 11
367.276665
 21
342.814435
 31
0.0
  0
LINE
  5
3B7
330
1F
100
AcDbEntity
  8
002
 62
     3
370
    30
100
AcDbLine
 10
370.452025
 20
337.314364
 30
0.0
 11
372.039671
 21
340.064248
 31
0.0
  0
LINE
  5
3B8
330
1F
100
AcDbEntity
  8
002
 62
     3
370
    30
100
AcDbLine
 10
367.276614
 20
337.314489
 30
0.0
 11
365.688937
 21
340.064427
 31
0.0
  0
LINE
  5
3B9
330
1F
100
AcDbEntity
  8
002
 62
     3
370
    30
100
AcDbLine
 10
372.039772
 20
340.06442
 30
0.0
 11
370.452019
 21
342.81449
 31
0.0
  0
ARC
  5
3BA
330
1F
100
AcDbEntity
  8
002
 62
     3
370
    30
100
AcDbCircle
 10
368.864363
 20
300.064473
 30
0.0
 40
4.999999
100
AcDbArc
 50
180.0
 51
359.999908
  0
ARC
  5
3BB
330
1F
100
AcDbEntity
  8
002
 62
     3
370
    30
100
AcDbCircle
 10
376.898375
 20
302.874486
 30
0.0
 40
2.749998999999999
100
AcDbArc
 50
205.049667
 51
25.049652
  0
ARC
  5
3BC
330
1F
100
AcDbEntity
  8
002
 62
     3
370
    30
100
AcDbCircle
 10
368.864393
 20
340.064473
 30
0.0
 40
4.999999
100
AcDbArc
 50
0.0
 51
179.999893
  0
ARC
  5
3BD
330
1F
100
AcDbEntity
  8
002
 62
     3
370
    30
100
AcDbCircle
 10
360.830382
 20
337.25446
 30
0.0
 40
2.749998999999999
100
AcDbArc
 50
25.049713
 51
205.049675
  0
CIRCLE
  5
3BE
330
1F
100
AcDbEntity
  8
002
 62
     3
370
    30
100
AcDbCircle
 10
368.864363
 20
300.064473
 30
0.0
 40
2.649999000000001
  0
CIRCLE
  5
3BF
330
1F
100
AcDbEntity
  8
002
 62
     3
370
    30
100
AcDbCircle
 10
368.864363
 20
300.064473
 30
0.0
 40
1.125
  0
CIRCLE
  5
3C0
330
1F
100
AcDbEntity
  8
002
 62
     3
370
    30
100
AcDbCircle
 10
368.864393
 20
340.064473
 30
0.0
 40
1.125
  0
CIRCLE
  5
3C1
330
1F
100
AcDbEntity
  8
002
 62
     3
370
    30
100
AcDbCircle
 10
368.864393
 20
340.064473
 30
0.0
 40
2.649999
  0
LINE
  5
3C2
330
1F
100
AcDbEntity
  8
002
  6
CENTER
 62
    40
370
    30
100
AcDbLine
 10
345.364973
 20
294.064504
 30
0.0
 11
345.364973
 21
280.064519
 31
0.0
  0
LINE
  5
3C3
330
1F
100
AcDbEntity
  8
002
  6
CENTER
 62
    40
370
    30
100
AcDbLine
 10
392.364927
 20
294.064504
 30
0.0
 11
392.364927
 21
280.064519
 31
0.0
  0
CIRCLE
  5
3C4
330
1F
100
AcDbEntity
  8
002
 62
    40
370
     9
100
AcDbCircle
 10
368.864363
 20
300.064473
 30
0.0
 40
1.5
  0
CIRCLE
  5
3C5
330
1F
100
AcDbEntity
  8
002
 62
    40
370
     9
100
AcDbCircle
 10
368.864393
 20
340.064473
 30
0.0
 40
1.5
  0
LINE
  5
3C6
330
1F
100
AcDbEntity
  8
002
 62
     3
370
    30
100
AcDbLine
 10
358.865068
 20
349.064458
 30
0.0
 11
358.865068
 21
382.931485
 31
0.0
  0
LINE
  5
3C7
330
1F
100
AcDbEntity
  8
002
 62
     3
370
    30
100
AcDbLine
 10
378.864968
 20
382.931485
 30
0.0
 11
378.864968
 21
349.064458
 31
0.0
  0
LINE
  5
3C8
330
1F
100
AcDbEntity
  8
002
 62
     3
370
    30
100
AcDbLine
 10
358.865068
 20
382.931485
 30
0.0
 11
378.864968
 21
382.931485
 31
0.0
  0
LINE
  5
3C9
330
1F
100
AcDbEntity
  8
002
 62
     3
370
    30
100
AcDbLine
 10
374.864668
 20
382.931485
 30
0.0
 11
374.864668
 21
402.931485
 31
0.0
  0
LINE
  5
3CA
330
1F
100
AcDbEntity
  8
002
 62
     3
370
    30
100
AcDbLine
 10
374.864668
 20
402.931485
 30
0.0
 11
362.864668
 21
402.931485
 31
0.0
  0
LINE
  5
3CB
330
1F
100
AcDbEntity
  8
002
 62
     3
370
    30
100
AcDbLine
 10
362.864668
 20
402.931485
 30
0.0
 11
362.864668
 21
382.931485
 31
0.0
  0
LINE
  5
3CC
330
1F
100
AcDbEntity
  8
002
 62
    40
370
     9
100
AcDbLine
 10
546.803977
 20
382.931485
 30
0.0
 11
546.803977
 21
349.064458
 31
0.0
  0
LINE
  5
3CD
330
1F
100
AcDbEntity
  8
002
 62
    40
370
     9
100
AcDbLine
 10
529.303977
 20
349.064458
 30
0.0
 11
529.303977
 21
382.931485
 31
0.0
  0
LINE
  5
3CE
330
1F
100
AcDbEntity
  8
001
  6
CENTER
 62
    40
370
     9
100
AcDbLine
 10
542.239559
 20
331.06439
 30
0.0
 11
534.279721
 21
331.06439
 31
0.0
  0
LINE
  5
3CF
330
1F
100
AcDbEntity
  8
001
  6
CENTER
 62
    40
370
     9
100
AcDbLine
 10
541.747708
 20
291.064608
 30
0.0
 11
533.878048
 21
291.064608
 31
0.0
  0
LINE
  5
3D0
330
1F
100
AcDbEntity
  8
002
 62
     3
370
    30
100
AcDbLine
 10
521.053418
 20
282.064489
 30
0.0
 11
555.053372
 21
282.064489
 31
0.0
  0
LINE
  5
3D1
330
1F
100
AcDbEntity
  8
002
 62
     3
370
    30
100
AcDbLine
 10
508.053433
 20
339.064458
 30
0.0
 11
568.053357
 21
339.064458
 31
0.0
  0
LINE
  5
3D2
330
1F
100
AcDbEntity
  8
002
 62
     3
370
    30
100
AcDbLine
 10
508.053418
 20
349.064458
 30
0.0
 11
568.053372
 21
349.064458
 31
0.0
  0
LINE
  5
3D3
330
1F
100
AcDbEntity
  8
002
 62
     3
370
    30
100
AcDbLine
 10
508.053418
 20
339.064443
 30
0.0
 11
508.053418
 21
349.064458
 31
0.0
  0
LINE
  5
3D4
330
1F
100
AcDbEntity
  8
002
 62
     3
370
    30
100
AcDbLine
 10
568.053372
 20
339.064443
 30
0.0
 11
568.053372
 21
349.064458
 31
0.0
  0
LINE
  5
3D5
330
1F
100
AcDbEntity
  8
002
 62
     3
370
    30
100
AcDbLine
 10
521.053418
 20
282.110343
 30
0.0
 11
521.053418
 21
339.064443
 31
0.0
  0
LINE
  5
3D6
330
1F
100
AcDbEntity
  8
002
 62
     3
370
    30
100
AcDbLine
 10
555.053372
 20
282.064489
 30
0.0
 11
555.053372
 21
339.064443
 31
0.0
  0
LINE
  5
3D7
330
1F
100
AcDbEntity
  8
002
 62
     3
370
    30
100
AcDbLine
 10
545.036084
 20
339.064458
 30
0.0
 11
545.036084
 21
302.620107
 31
0.0
  0
LINE
  5
3D8
330
1F
100
AcDbEntity
  8
002
 62
     3
370
    30
100
AcDbLine
 10
531.071835
 20
339.064474
 30
0.0
 11
531.071835
 21
330.795324
 31
0.0
  0
LINE
  5
3D9
330
1F
100
AcDbEntity
  8
002
 62
     3
370
    30
100
AcDbLine
 10
545.036084
 20
291.333608
 30
0.0
 11
545.036084
 21
283.064489
 31
0.0
  0
LINE
  5
3DA
330
1F
100
AcDbEntity
  8
002
 62
     3
370
    30
100
AcDbLine
 10
531.071835
 20
319.508825
 30
0.0
 11
531.071835
 21
283.064489
 31
0.0
  0
LINE
  5
3DB
330
1F
100
AcDbEntity
  8
002
 62
     3
370
    30
100
AcDbLine
 10
533.053967
 20
331.064474
 30
0.0
 11
533.053967
 21
291.064489
 31
0.0
  0
LINE
  5
3DC
330
1F
100
AcDbEntity
  8
002
 62
     3
370
    30
100
AcDbLine
 10
527.528621
 20
327.090044
 30
0.0
 11
533.053949
 21
315.267736
 31
0.0
  0
LINE
  5
3DD
330
1F
100
AcDbEntity
  8
002
 62
     3
370
    30
100
AcDbLine
 10
532.511289
 20
329.418768
 30
0.0
 11
533.053951
 21
328.257658
 31
0.0
  0
LINE
  5
3DE
330
1F
100
AcDbEntity
  8
002
 62
     3
370
    30
100
AcDbLine
 10
533.053773
 20
330.147028
 30
0.0
 11
543.053766
 21
308.750467
 31
0.0
  0
LINE
  5
3DF
330
1F
100
AcDbEntity
  8
002
 62
     3
370
    30
100
AcDbLine
 10
528.855585
 20
330.745756
 30
0.0
 11
533.053935
 21
321.762724
 31
0.0
  0
LINE
  5
3E0
330
1F
100
AcDbEntity
  8
002
 62
     3
370
    30
100
AcDbLine
 10
543.053952
 20
291.064474
 30
0.0
 11
543.053952
 21
331.064458
 31
0.0
  0
LINE
  5
3E1
330
1F
100
AcDbEntity
  8
002
 62
     3
370
    30
100
AcDbLine
 10
548.579277
 20
295.038853
 30
0.0
 11
543.053949
 21
306.86116
 31
0.0
  0
LINE
  5
3E2
330
1F
100
AcDbEntity
  8
002
 62
     3
370
    30
100
AcDbLine
 10
543.596611
 20
292.710123
 30
0.0
 11
543.05395
 21
293.871233
 31
0.0
  0
LINE
  5
3E3
330
1F
100
AcDbEntity
  8
002
 62
     3
370
    30
100
AcDbLine
 10
543.054125
 20
291.981871
 30
0.0
 11
533.054131
 21
313.378431
 31
0.0
  0
LINE
  5
3E4
330
1F
100
AcDbEntity
  8
002
 62
     3
370
    30
100
AcDbLine
 10
547.252314
 20
291.383141
 30
0.0
 11
543.053963
 21
300.366174
 31
0.0
  0
LINE
  5
3E5
330
1F
100
AcDbEntity
  8
002
 62
     3
370
    30
100
AcDbLine
 10
539.641858
 20
333.814458
 30
0.0
 11
536.466336
 21
333.814458
 31
0.0
  0
LINE
  5
3E6
330
1F
100
AcDbEntity
  8
002
 62
     3
370
    30
100
AcDbLine
 10
536.466351
 20
328.314443
 30
0.0
 11
539.641842
 21
328.314443
 31
0.0
  0
LINE
  5
3E7
330
1F
100
AcDbEntity
  8
002
 62
     3
370
    30
100
AcDbLine
 10
541.22938
 20
331.06439
 30
0.0
 11
539.641612
 21
328.314294
 31
0.0
  0
LINE
  5
3E8
330
1F
100
AcDbEntity
  8
002
 62
     3
370
    30
100
AcDbLine
 10
536.466242
 20
333.81439
 30
0.0
 11
534.878595
 21
331.064504
 31
0.0
  0
LINE
  5
3E9
330
1F
100
AcDbEntity
  8
002
 62
     3
370
    30
100
AcDbLine
 10
539.641782
 20
333.814451
 30
0.0
 11
541.229451
 21
331.064523
 31
0.0
  0
LINE
  5
3EA
330
1F
100
AcDbEntity
  8
002
 62
     3
370
    30
100
AcDbLine
 10
534.87859
 20
331.064516
 30
0.0
 11
536.466336
 21
328.314458
 31
0.0
  0
LINE
  5
3EB
330
1F
100
AcDbEntity
  8
002
 62
     3
370
    30
100
AcDbLine
 10
539.641827
 20
293.814458
 30
0.0
 11
536.466305
 21
293.814458
 31
0.0
  0
LINE
  5
3EC
330
1F
100
AcDbEntity
  8
002
 62
     3
370
    30
100
AcDbLine
 10
536.46632
 20
288.314443
 30
0.0
 11
539.641812
 21
288.314443
 31
0.0
  0
LINE
  5
3ED
330
1F
100
AcDbEntity
  8
002
 62
     3
370
    30
100
AcDbLine
 10
541.229448
 20
291.064608
 30
0.0
 11
539.64168
 21
288.314512
 31
0.0
  0
LINE
  5
3EE
330
1F
100
AcDbEntity
  8
002
 62
     3
370
    30
100
AcDbLine
 10
536.46632
 20
293.814583
 30
0.0
 11
534.878674
 21
291.064699
 31
0.0
  0
LINE
  5
3EF
330
1F
100
AcDbEntity
  8
002
 62
     3
370
    30
100
AcDbLine
 10
539.641731
 20
293.814458
 30
0.0
 11
541.229408
 21
291.06452
 31
0.0
  0
LINE
  5
3F0
330
1F
100
AcDbEntity
  8
002
 62
     3
370
    30
100
AcDbLine
 10
534.878573
 20
291.064527
 30
0.0
 11
536.466326
 21
288.314457
 31
0.0
  0
ARC
  5
3F1
330
1F
100
AcDbEntity
  8
002
 62
     3
370
    30
100
AcDbCircle
 10
538.053982
 20
331.064474
 30
0.0
 40
4.999999
100
AcDbArc
 50
0.0
 51
179.999908
  0
ARC
  5
3F2
330
1F
100
AcDbEntity
  8
002
 62
     3
370
    30
100
AcDbCircle
 10
530.01997
 20
328.254461
 30
0.0
 40
2.749998999999999
100
AcDbArc
 50
25.049667
 51
205.049652
  0
ARC
  5
3F3
330
1F
100
AcDbEntity
  8
002
 62
     3
370
    30
100
AcDbCircle
 10
538.053952
 20
291.064474
 30
0.0
 40
4.999999
100
AcDbArc
 50
180.0
 51
359.999893
  0
ARC
  5
3F4
330
1F
100
AcDbEntity
  8
002
 62
     3
370
    30
100
AcDbCircle
 10
546.087963
 20
293.874487
 30
0.0
 40
2.749998999999999
100
AcDbArc
 50
205.049713
 51
25.049675
  0
CIRCLE
  5
3F5
330
1F
100
AcDbEntity
  8
002
 62
     3
370
    30
100
AcDbCircle
 10
538.053982
 20
331.064474
 30
0.0
 40
2.649999000000001
  0
CIRCLE
  5
3F6
330
1F
100
AcDbEntity
  8
002
 62
     3
370
    30
100
AcDbCircle
 10
538.053982
 20
331.064474
 30
0.0
 40
1.125
  0
CIRCLE
  5
3F7
330
1F
100
AcDbEntity
  8
002
 62
     3
370
    30
100
AcDbCircle
 10
538.053952
 20
291.064474
 30
0.0
 40
1.125
  0
CIRCLE
  5
3F8
330
1F
100
AcDbEntity
  8
002
 62
     3
370
    30
100
AcDbCircle
 10
538.053952
 20
291.064474
 30
0.0
 40
2.649999
  0
LINE
  5
3F9
330
1F
100
AcDbEntity
  8
002
  6
CENTER
 62
    40
370
    30
100
AcDbLine
 10
561.553372
 20
337.064443
 30
0.0
 11
561.553372
 21
351.064428
 31
0.0
  0
LINE
  5
3FA
330
1F
100
AcDbEntity
  8
002
  6
CENTER
 62
    40
370
    30
100
AcDbLine
 10
514.553418
 20
337.064443
 30
0.0
 11
514.553418
 21
351.064428
 31
0.0
  0
CIRCLE
  5
3FB
330
1F
100
AcDbEntity
  8
002
 62
    40
370
     9
100
AcDbCircle
 10
538.053982
 20
331.064474
 30
0.0
 40
1.5
  0
CIRCLE
  5
3FC
330
1F
100
AcDbEntity
  8
002
 62
    40
370
     9
100
AcDbCircle
 10
538.053952
 20
291.064474
 30
0.0
 40
1.5
  0
LINE
  5
3FD
330
1F
100
AcDbEntity
  8
002
 62
     3
370
    30
100
AcDbLine
 10
528.054077
 20
349.064458
 30
0.0
 11
528.054077
 21
382.931485
 31
0.0
  0
LINE
  5
3FE
330
1F
100
AcDbEntity
  8
002
 62
     3
370
    30
100
AcDbLine
 10
548.053977
 20
382.931485
 30
0.0
 11
548.053977
 21
349.064458
 31
0.0
  0
LINE
  5
3FF
330
1F
100
AcDbEntity
  8
002
 62
     3
370
    30
100
AcDbLine
 10
594.053677
 20
170.931485
 30
0.0
 11
576.279077
 21
170.931485
 31
0.0
  0
LINE
  5
400
330
1F
100
AcDbEntity
  8
002
 62
     3
370
    30
100
AcDbLine
 10
575.553677
 20
171.067585
 30
0.0
 11
575.553677
 21
182.931485
 31
0.0
  0
LINE
  5
401
330
1F
100
AcDbEntity
  8
002
 62
     3
370
    30
100
AcDbLine
 10
575.553677
 20
182.931485
 30
0.0
 11
500.553677
 21
182.931485
 31
0.0
  0
LINE
  5
402
330
1F
100
AcDbEntity
  8
002
 62
     3
370
    30
100
AcDbLine
 10
500.553677
 20
182.931485
 30
0.0
 11
500.553677
 21
160.931485
 31
0.0
  0
ARC
  5
403
330
1F
100
AcDbEntity
  8
002
 62
     3
370
    30
100
AcDbCircle
 10
503.553677
 20
160.931485
 30
0.0
 40
3.0
100
AcDbArc
 50
180.0
 51
270.0
  0
LINE
  5
404
330
1F
100
AcDbEntity
  8
002
 62
     3
370
    30
100
AcDbLine
 10
503.553677
 20
157.931485
 30
0.0
 11
546.849577
 21
157.931485
 31
0.0
  0
LINE
  5
405
330
1F
100
AcDbEntity
  8
002
 62
     3
370
    30
100
AcDbLine
 10
546.893377
 20
158.617585
 30
0.0
 11
545.888677
 21
142.878185
 31
0.0
  0
LINE
  5
406
330
1F
100
AcDbEntity
  8
002
 62
     3
370
    30
100
AcDbLine
 10
545.888677
 20
142.984685
 30
0.0
 11
547.276077
 21
121.249985
 31
0.0
  0
LINE
  5
407
330
1F
100
AcDbEntity
  8
002
 62
     3
370
    30
100
AcDbLine
 10
548.145677
 20
118.038485
 30
0.0
 11
546.550677
 21
143.026985
 31
0.0
  0
LINE
  5
408
330
1F
100
AcDbEntity
  8
002
 62
     3
370
    30
100
AcDbLine
 10
546.550677
 20
142.835885
 30
0.0
 11
547.405977
 21
156.236485
 31
0.0
  0
ARC
  5
409
330
1F
100
AcDbEntity
  8
002
 62
     3
370
    30
100
AcDbCircle
 10
539.924777
 20
137.931485
 30
0.0
 40
19.99995881245758
100
AcDbArc
 50
90.0
 51
100.689433
  0
LINE
  5
40A
330
1F
100
AcDbEntity
  8
002
 62
     3
370
    30
100
AcDbLine
 10
536.215077
 20
157.584385
 30
0.0
 11
514.520977
 21
153.489385
 31
0.0
  0
LINE
  5
40B
330
1F
100
AcDbEntity
  8
002
 62
     3
370
    30
100
AcDbLine
 10
510.315977
 20
154.096685
 30
0.0
 11
502.185877
 21
158.261385
 31
0.0
  0
LINE
  5
40C
330
1F
100
AcDbEntity
  8
002
 62
     3
370
    30
100
AcDbLine
 10
502.053677
 20
156.962785
 30
0.0
 11
502.053677
 21
116.900085
 31
0.0
  0
LINE
  5
40D
330
1F
100
AcDbEntity
  8
002
 62
     3
370
    30
100
AcDbLine
 10
503.553677
 20
115.931485
 30
0.0
 11
542.286177
 21
115.931485
 31
0.0
  0
ARC
  5
40E
330
1F
100
AcDbEntity
  8
002
 62
     3
370
    30
100
AcDbCircle
 10
542.286177
 20
120.931485
 30
0.0
 40
5.000054425703817
100
AcDbArc
 50
270.0
 51
3.652174
  0
ARC
  5
40F
330
1F
100
AcDbEntity
  8
002
 62
     3
370
    30
100
AcDbCircle
 10
545.151777
 20
117.847385
 30
0.0
 40
2.999992736657927
100
AcDbArc
 50
270.0
 51
3.652223
  0
LINE
  5
410
330
1F
100
AcDbEntity
  8
002
 62
     3
370
    30
100
AcDbLine
 10
548.053677
 20
113.931485
 30
0.0
 11
544.686977
 21
113.931485
 31
0.0
  0
LINE
  5
411
330
1F
100
AcDbEntity
  8
002
 62
     3
370
    30
100
AcDbLine
 10
544.686977
 20
113.931485
 30
0.0
 11
544.686977
 21
112.931485
 31
0.0
  0
LINE
  5
412
330
1F
100
AcDbEntity
  8
002
 62
     3
370
    30
100
AcDbLine
 10
544.686977
 20
112.931485
 30
0.0
 11
531.420477
 21
112.931485
 31
0.0
  0
LINE
  5
413
330
1F
100
AcDbEntity
  8
002
 62
     3
370
    30
100
AcDbLine
 10
531.420477
 20
112.931485
 30
0.0
 11
531.420477
 21
113.931485
 31
0.0
  0
LINE
  5
414
330
1F
100
AcDbEntity
  8
002
 62
     3
370
    30
100
AcDbLine
 10
531.420477
 20
113.931485
 30
0.0
 11
528.053677
 21
113.931485
 31
0.0
  0
ARC
  5
415
330
1F
100
AcDbEntity
  8
002
 62
     3
370
    30
100
AcDbCircle
 10
528.053677
 20
109.931485
 30
0.0
 40
4.0
100
AcDbArc
 50
90.0
 51
180.0
  0
LINE
  5
416
330
1F
100
AcDbEntity
  8
002
 62
     3
370
    30
100
AcDbLine
 10
524.053677
 20
109.931485
 30
0.0
 11
524.053677
 21
102.931485
 31
0.0
  0
LINE
  5
417
330
1F
100
AcDbEntity
  8
002
 62
     3
370
    30
100
AcDbLine
 10
526.393777
 20
98.931485
 30
0.0
 11
526.393777
 21
93.931485
 31
0.0
  0
LINE
  5
418
330
1F
100
AcDbEntity
  8
002
 62
     3
370
    30
100
AcDbLine
 10
517.893777
 20
93.931485
 30
0.0
 11
517.893777
 21
98.931485
 31
0.0
  0
LINE
  5
419
330
1F
100
AcDbEntity
  8
002
 62
     3
370
    30
100
AcDbLine
 10
517.893777
 20
93.931485
 30
0.0
 11
526.393777
 21
93.931485
 31
0.0
  0
LINE
  5
41A
330
1F
100
AcDbEntity
  8
002
 62
     3
370
    30
100
AcDbLine
 10
521.053677
 20
93.931485
 30
0.0
 11
521.053677
 21
72.931485
 31
0.0
  0
LINE
  5
41B
330
1F
100
AcDbEntity
  8
002
 62
     3
370
    30
100
AcDbLine
 10
521.053677
 20
72.931485
 30
0.0
 11
555.053677
 21
72.931485
 31
0.0
  0
LINE
  5
41C
330
1F
100
AcDbEntity
  8
002
 62
     3
370
    30
100
AcDbLine
 10
555.053677
 20
72.931485
 30
0.0
 11
555.053677
 21
93.931485
 31
0.0
  0
LINE
  5
41D
330
1F
100
AcDbEntity
  8
002
 62
     3
370
    30
100
AcDbLine
 10
558.213577
 20
93.931485
 30
0.0
 11
549.713577
 21
93.931485
 31
0.0
  0
LINE
  5
41E
330
1F
100
AcDbEntity
  8
002
 62
     3
370
    30
100
AcDbLine
 10
549.713577
 20
93.931485
 30
0.0
 11
549.713577
 21
98.931485
 31
0.0
  0
LINE
  5
41F
330
1F
100
AcDbEntity
  8
002
 62
     3
370
    30
100
AcDbLine
 10
552.053677
 20
102.931485
 30
0.0
 11
552.053677
 21
109.931485
 31
0.0
  0
ARC
  5
420
330
1F
100
AcDbEntity
  8
002
 62
     3
370
    30
100
AcDbCircle
 10
548.053677
 20
109.931485
 30
0.0
 40
4.0
100
AcDbArc
 50
0.0
 51
90.0
  0
ARC
  5
421
330
1F
100
AcDbEntity
  8
002
 62
     3
370
    30
100
AcDbCircle
 10
538.053677
 20
52.147085
 30
0.0
 40
62.4129645475201
100
AcDbArc
 50
81.861485
 51
98.138424
  0
LINE
  5
422
330
1F
100
AcDbEntity
  8
002
 62
     3
370
    30
100
AcDbLine
 10
524.053677
 20
113.931485
 30
0.0
 11
513.053677
 21
115.931485
 31
0.0
  0
LINE
  5
423
330
1F
100
AcDbEntity
  8
002
 62
     3
370
    30
100
AcDbLine
 10
513.053677
 20
113.931485
 30
0.0
 11
513.053677
 21
102.931485
 31
0.0
  0
LINE
  5
424
330
1F
100
AcDbEntity
  8
002
 62
     3
370
    30
100
AcDbLine
 10
510.553677
 20
102.931485
 30
0.0
 11
510.553677
 21
98.931485
 31
0.0
  0
LINE
  5
425
330
1F
100
AcDbEntity
  8
002
 62
     3
370
    30
100
AcDbLine
 10
510.553677
 20
98.931485
 30
0.0
 11
565.553677
 21
98.931485
 31
0.0
  0
LINE
  5
426
330
1F
100
AcDbEntity
  8
002
 62
     3
370
    30
100
AcDbLine
 10
565.553677
 20
98.931485
 30
0.0
 11
565.553677
 21
102.931485
 31
0.0
  0
LINE
  5
427
330
1F
100
AcDbEntity
  8
002
 62
     3
370
    30
100
AcDbLine
 10
563.053677
 20
102.931485
 30
0.0
 11
563.053677
 21
113.931485
 31
0.0
  0
LINE
  5
428
330
1F
100
AcDbEntity
  8
002
 62
     3
370
    30
100
AcDbLine
 10
557.285677
 20
117.386385
 30
0.0
 11
557.285677
 21
117.638485
 31
0.0
  0
LINE
  5
429
330
1F
100
AcDbEntity
  8
002
 62
     3
370
    30
100
AcDbLine
 10
556.748677
 20
120.283785
 30
0.0
 11
570.149277
 21
119.428385
 31
0.0
  0
LINE
  5
42A
330
1F
100
AcDbEntity
  8
002
 62
     3
370
    30
100
AcDbLine
 10
569.958177
 20
119.428385
 30
0.0
 11
583.358677
 21
120.283785
 31
0.0
  0
ARC
  5
42B
330
1F
100
AcDbEntity
  8
002
 62
     3
370
    30
100
AcDbCircle
 10
582.721677
 20
130.263385
 30
0.0
 40
10.00000905449588
100
AcDbArc
 50
273.652247
 51
356.347789
  0
LINE
  5
42C
330
1F
100
AcDbEntity
  8
002
 62
     3
370
    30
100
AcDbLine
 10
592.701377
 20
129.626385
 30
0.0
 11
593.556777
 21
143.026985
 31
0.0
  0
LINE
  5
42D
330
1F
100
AcDbEntity
  8
002
 62
     3
370
    30
100
AcDbLine
 10
593.556777
 20
142.835885
 30
0.0
 11
592.701377
 21
156.236485
 31
0.0
  0
ARC
  5
42E
330
1F
100
AcDbEntity
  8
002
 62
     3
370
    30
100
AcDbCircle
 10
582.721677
 20
155.599485
 30
0.0
 40
9.99990925758829
100
AcDbArc
 50
3.652211
 51
86.347753
  0
LINE
  5
42F
330
1F
100
AcDbEntity
  8
002
 62
     3
370
    30
100
AcDbLine
 10
583.358677
 20
165.579085
 30
0.0
 11
569.958177
 21
166.434485
 31
0.0
  0
LINE
  5
430
330
1F
100
AcDbEntity
  8
002
 62
     3
370
    30
100
AcDbLine
 10
570.149277
 20
166.434485
 30
0.0
 11
556.748677
 21
165.579085
 31
0.0
  0
ARC
  5
431
330
1F
100
AcDbEntity
  8
002
 62
     3
370
    30
100
AcDbCircle
 10
557.385677
 20
155.599485
 30
0.0
 40
10.00000905449588
100
AcDbArc
 50
93.652247
 51
176.347789
  0
LINE
  5
432
330
1F
100
AcDbEntity
  8
002
 62
     3
370
    30
100
AcDbLine
 10
554.367477
 20
166.091785
 30
0.0
 11
569.784477
 21
167.097785
 31
0.0
  0
LINE
  5
433
330
1F
100
AcDbEntity
  8
002
 62
     3
370
    30
100
AcDbLine
 10
569.784477
 20
167.097785
 30
0.0
 11
571.566277
 21
167.269085
 31
0.0
  0
ARC
  5
434
330
1F
100
AcDbEntity
  8
002
 62
     3
370
    30
100
AcDbCircle
 10
571.279077
 20
170.255385
 30
0.0
 40
2.999998641666362
100
AcDbArc
 50
275.493385
 51
347.987011
  0
ARC
  5
435
330
1F
100
AcDbEntity
  8
002
 62
     3
370
    30
100
AcDbCircle
 10
577.279077
 20
170.374985
 30
0.0
 40
2.999916580506864
100
AcDbArc
 50
194.955777
 51
266.961816
  0
LINE
  5
436
330
1F
100
AcDbEntity
  8
002
 62
     3
370
    30
100
AcDbLine
 10
577.120077
 20
167.379285
 30
0.0
 11
586.527977
 21
166.879885
 31
0.0
  0
LINE
  5
437
330
1F
100
AcDbEntity
  8
002
 62
     3
370
    30
100
AcDbLine
 10
587.915177
 20
170.931485
 30
0.0
 11
587.915177
 21
171.931485
 31
0.0
  0
LINE
  5
438
330
1F
100
AcDbEntity
  8
002
 62
     3
370
    30
100
AcDbLine
 10
588.053677
 20
171.931485
 30
0.0
 11
589.053677
 21
172.931485
 31
0.0
  0
LINE
  5
439
330
1F
100
AcDbEntity
  8
002
 62
     3
370
    30
100
AcDbLine
 10
589.053677
 20
172.931485
 30
0.0
 11
589.053677
 21
175.931485
 31
0.0
  0
LINE
  5
43A
330
1F
100
AcDbEntity
  8
002
 62
     3
370
    30
100
AcDbLine
 10
589.053677
 20
175.931485
 30
0.0
 11
586.913677
 21
178.844885
 31
0.0
  0
LINE
  5
43B
330
1F
100
AcDbEntity
  8
002
 62
     3
370
    30
100
AcDbLine
 10
586.351177
 20
179.407485
 30
0.0
 11
581.756177
 21
179.407485
 31
0.0
  0
LINE
  5
43C
330
1F
100
AcDbEntity
  8
002
 62
     3
370
    30
100
AcDbLine
 10
581.334577
 20
180.081985
 30
0.0
 11
580.803677
 21
180.931485
 31
0.0
  0
LINE
  5
43D
330
1F
100
AcDbEntity
  8
002
 62
     3
370
    30
100
AcDbLine
 10
580.803677
 20
180.931485
 30
0.0
 11
581.553677
 21
183.931485
 31
0.0
  0
LINE
  5
43E
330
1F
100
AcDbEntity
  8
002
 62
     3
370
    30
100
AcDbLine
 10
581.553677
 20
183.931485
 30
0.0
 11
586.553677
 21
183.931485
 31
0.0
  0
LINE
  5
43F
330
1F
100
AcDbEntity
  8
002
 62
     3
370
    30
100
AcDbLine
 10
586.553677
 20
183.931485
 30
0.0
 11
587.303677
 21
180.931485
 31
0.0
  0
LINE
  5
440
330
1F
100
AcDbEntity
  8
002
 62
     3
370
    30
100
AcDbLine
 10
587.303677
 20
180.931485
 30
0.0
 11
586.772777
 21
180.081985
 31
0.0
  0
ARC
  5
441
330
1F
100
AcDbEntity
  8
002
 62
     3
370
    30
100
AcDbCircle
 10
587.620777
 20
179.551985
 30
0.0
 40
0.9999904099540112
100
AcDbArc
 50
147.994617
 51
225.0
  0
LINE
  5
442
330
1F
100
AcDbEntity
  8
002
 62
     3
370
    30
100
AcDbLine
 10
586.553677
 20
180.931485
 30
0.0
 11
581.553677
 21
180.931485
 31
0.0
  0
ARC
  5
443
330
1F
100
AcDbEntity
  8
002
 62
     3
370
    30
100
AcDbCircle
 10
580.486577
 20
179.551985
 30
0.0
 40
1.000001999997949
100
AcDbArc
 50
315.0
 51
32.005383
  0
LINE
  5
444
330
1F
100
AcDbEntity
  8
002
 62
     3
370
    30
100
AcDbLine
 10
581.193677
 20
178.844885
 30
0.0
 11
579.053677
 21
175.931485
 31
0.0
  0
LINE
  5
445
330
1F
100
AcDbEntity
  8
002
 62
     3
370
    30
100
AcDbLine
 10
579.053677
 20
175.931485
 30
0.0
 11
579.053677
 21
172.931485
 31
0.0
  0
LINE
  5
446
330
1F
100
AcDbEntity
  8
002
 62
     3
370
    30
100
AcDbLine
 10
579.053677
 20
172.931485
 30
0.0
 11
580.053677
 21
171.931485
 31
0.0
  0
LINE
  5
447
330
1F
100
AcDbEntity
  8
002
 62
     3
370
    30
100
AcDbLine
 10
580.053677
 20
171.931485
 30
0.0
 11
588.053677
 21
171.931485
 31
0.0
  0
ARC
  5
448
330
1F
100
AcDbEntity
  8
002
 62
     3
370
    30
100
AcDbCircle
 10
586.553677
 20
173.306485
 30
0.0
 40
3.625
100
AcDbArc
 50
46.397181
 51
133.602819
  0
LINE
  5
449
330
1F
100
AcDbEntity
  8
002
 62
     3
370
    30
100
AcDbLine
 10
584.053677
 20
175.931485
 30
0.0
 11
584.053677
 21
172.931485
 31
0.0
  0
ARC
  5
44A
330
1F
100
AcDbEntity
  8
002
 62
     3
370
    30
100
AcDbCircle
 10
586.553677
 20
175.556485
 30
0.0
 40
3.625
100
AcDbArc
 50
226.397181
 51
313.602819
  0
LINE
  5
44B
330
1F
100
AcDbEntity
  8
002
 62
     3
370
    30
100
AcDbLine
 10
594.053677
 20
170.931485
 30
0.0
 11
594.053677
 21
163.259385
 31
0.0
  0
ARC
  5
44C
330
1F
100
AcDbEntity
  8
002
 62
     3
370
    30
100
AcDbCircle
 10
597.053677
 20
163.259385
 30
0.0
 40
2.999903306775083
100
AcDbArc
 50
180.0
 51
250.503815
  0
LINE
  5
44D
330
1F
100
AcDbEntity
  8
002
 62
     3
370
    30
100
AcDbLine
 10
596.052477
 20
160.431485
 30
0.0
 11
596.052477
 21
125.431485
 31
0.0
  0
LINE
  5
44E
330
1F
100
AcDbEntity
  8
002
 62
     3
370
    30
100
AcDbLine
 10
596.052477
 20
125.431485
 30
0.0
 11
596.027377
 21
125.431485
 31
0.0
  0
ARC
  5
44F
330
1F
100
AcDbEntity
  8
002
 62
     3
370
    30
100
AcDbCircle
 10
596.039977
 20
122.431485
 30
0.0
 40
3.000050641239147
100
AcDbArc
 50
89.761269
 51
155.651038
  0
LINE
  5
450
330
1F
100
AcDbEntity
  8
002
 62
     3
370
    30
100
AcDbLine
 10
594.002177
 20
126.457185
 30
0.0
 11
595.053677
 21
142.931485
 31
0.0
  0
LINE
  5
451
330
1F
100
AcDbEntity
  8
002
 62
     3
370
    30
100
AcDbLine
 10
595.053677
 20
142.931485
 30
0.0
 11
594.002177
 21
159.405685
 31
0.0
  0
ARC
  5
452
330
1F
100
AcDbEntity
  8
002
 62
     3
370
    30
100
AcDbCircle
 10
586.018377
 20
158.896085
 30
0.0
 40
8.00004716236101
100
AcDbArc
 50
3.652192
 51
86.347808
  0
LINE
  5
453
330
1F
100
AcDbEntity
  8
002
 62
     3
370
    30
100
AcDbLine
 10
580.192177
 20
170.931485
 30
0.0
 11
580.192177
 21
171.931485
 31
0.0
  0
ARC
  5
454
330
1F
100
AcDbEntity
  8
002
 62
     3
370
    30
100
AcDbCircle
 10
581.553677
 20
175.556485
 30
0.0
 40
3.625
100
AcDbArc
 50
226.397181
 51
313.602819
  0
ARC
  5
455
330
1F
100
AcDbEntity
  8
002
 62
     3
370
    30
100
AcDbCircle
 10
581.553677
 20
173.306485
 30
0.0
 40
3.625
100
AcDbArc
 50
46.397181
 51
133.602819
  0
LINE
  5
456
330
1F
100
AcDbEntity
  8
002
 62
     3
370
    30
100
AcDbLine
 10
575.553677
 20
172.931485
 30
0.0
 11
500.553677
 21
172.931485
 31
0.0
  0
LINE
  5
457
330
1F
100
AcDbEntity
  8
002
 62
     3
370
    30
100
AcDbLine
 10
508.304977
 20
182.931485
 30
0.0
 11
508.304977
 21
188.931485
 31
0.0
  0
LINE
  5
458
330
1F
100
AcDbEntity
  8
002
 62
     3
370
    30
100
AcDbLine
 10
518.304977
 20
188.931485
 30
0.0
 11
518.304977
 21
182.931485
 31
0.0
  0
LINE
  5
459
330
1F
100
AcDbEntity
  8
002
 62
     3
370
    30
100
AcDbLine
 10
518.304977
 20
188.931485
 30
0.0
 11
508.304977
 21
188.931485
 31
0.0
  0
LINE
  5
45A
330
1F
100
AcDbEntity
  8
002
 62
     3
370
    30
100
AcDbLine
 10
528.054077
 20
382.931485
 30
0.0
 11
548.053977
 21
382.931485
 31
0.0
  0
LINE
  5
45B
330
1F
100
AcDbEntity
  8
002
 62
     3
370
    30
100
AcDbLine
 10
557.802477
 20
182.931485
 30
0.0
 11
557.802477
 21
188.931485
 31
0.0
  0
LINE
  5
45C
330
1F
100
AcDbEntity
  8
002
 62
     3
370
    30
100
AcDbLine
 10
567.802477
 20
188.931485
 30
0.0
 11
567.802477
 21
182.931485
 31
0.0
  0
LINE
  5
45D
330
1F
100
AcDbEntity
  8
002
 62
     3
370
    30
100
AcDbLine
 10
567.802477
 20
188.931485
 30
0.0
 11
557.802477
 21
188.931485
 31
0.0
  0
ARC
  5
45E
330
1F
100
AcDbEntity
  8
002
 62
     3
370
    30
100
AcDbCircle
 10
576.279077
 20
172.931485
 30
0.0
 40
2.0
100
AcDbArc
 50
180.0
 51
270.0
  0
ARC
  5
45F
330
1F
100
AcDbEntity
  8
002
 62
     3
370
    30
100
AcDbCircle
 10
584.053677
 20
183.269985
 30
0.0
 40
1.000041124154395
100
AcDbArc
 50
41.412294
 51
138.587706
  0
CIRCLE
  5
460
330
1F
100
AcDbEntity
  8
002
 62
     3
370
    30
100
AcDbCircle
 10
570.053677
 20
142.931485
 30
0.0
 40
17.5
  0
LINE
  5
461
330
1F
100
AcDbEntity
  8
002
 62
     3
370
    30
100
AcDbLine
 10
572.553677
 20
147.681485
 30
0.0
 11
572.303677
 21
147.431485
 31
0.0
  0
LINE
  5
462
330
1F
100
AcDbEntity
  8
002
 62
     3
370
    30
100
AcDbLine
 10
572.303677
 20
147.431485
 30
0.0
 11
567.803677
 21
147.431485
 31
0.0
  0
LINE
  5
463
330
1F
100
AcDbEntity
  8
002
 62
     3
370
    30
100
AcDbLine
 10
567.803677
 20
147.431485
 30
0.0
 11
567.553677
 21
147.681485
 31
0.0
  0
LINE
  5
464
330
1F
100
AcDbEntity
  8
002
 62
     3
370
    30
100
AcDbLine
 10
567.553677
 20
147.681485
 30
0.0
 11
567.553677
 21
152.181485
 31
0.0
  0
LINE
  5
465
330
1F
100
AcDbEntity
  8
002
 62
     3
370
    30
100
AcDbLine
 10
567.553677
 20
152.181485
 30
0.0
 11
567.803677
 21
152.431485
 31
0.0
  0
LINE
  5
466
330
1F
100
AcDbEntity
  8
002
 62
     3
370
    30
100
AcDbLine
 10
567.803677
 20
152.431485
 30
0.0
 11
572.303677
 21
152.431485
 31
0.0
  0
LINE
  5
467
330
1F
100
AcDbEntity
  8
002
 62
     3
370
    30
100
AcDbLine
 10
572.303677
 20
152.431485
 30
0.0
 11
572.553677
 21
152.181485
 31
0.0
  0
LINE
  5
468
330
1F
100
AcDbEntity
  8
002
 62
     3
370
    30
100
AcDbLine
 10
572.553677
 20
152.181485
 30
0.0
 11
572.553677
 21
147.681485
 31
0.0
  0
ARC
  5
469
330
1F
100
AcDbEntity
  8
002
 62
     3
370
    30
100
AcDbCircle
 10
572.353677
 20
147.631485
 30
0.0
 40
0.2000000000000455
100
AcDbArc
 50
270.0
 51
0.0
  0
ARC
  5
46A
330
1F
100
AcDbEntity
  8
002
 62
     3
370
    30
100
AcDbCircle
 10
567.753677
 20
147.631485
 30
0.0
 40
0.1999999999999886
100
AcDbArc
 50
180.0
 51
270.0
  0
ARC
  5
46B
330
1F
100
AcDbEntity
  8
002
 62
     3
370
    30
100
AcDbCircle
 10
570.053677
 20
142.931485
 30
0.0
 40
7.499936066394138
100
AcDbArc
 50
109.471393
 51
70.528607
  0
ARC
  5
46C
330
1F
100
AcDbEntity
  8
002
 62
     3
370
    30
100
AcDbCircle
 10
570.053677
 20
142.931485
 30
0.0
 40
8.499963294038361
100
AcDbArc
 50
107.104711
 51
72.895289
  0
ARC
  5
46D
330
1F
100
AcDbEntity
  8
002
 62
     3
370
    30
100
AcDbCircle
 10
574.428677
 20
127.806485
 30
0.0
 40
2.5
100
AcDbArc
 50
45.150714
 51
180.0
  0
LINE
  5
46E
330
1F
100
AcDbEntity
  8
002
 62
     3
370
    30
100
AcDbLine
 10
571.928677
 20
127.806485
 30
0.0
 11
571.928677
 21
125.559885
 31
0.0
  0
LINE
  5
46F
330
1F
100
AcDbEntity
  8
002
 62
     3
370
    30
100
AcDbLine
 10
568.178677
 20
125.559885
 30
0.0
 11
568.178677
 21
127.806485
 31
0.0
  0
ARC
  5
470
330
1F
100
AcDbEntity
  8
002
 62
     3
370
    30
100
AcDbCircle
 10
565.678677
 20
127.806485
 30
0.0
 40
2.499984673953032
100
AcDbArc
 50
0.0
 51
134.849286
  0
ARC
  5
471
330
1F
100
AcDbEntity
  8
002
 62
     3
370
    30
100
AcDbCircle
 10
562.152477
 20
131.351285
 30
0.0
 40
2.499984673953032
100
AcDbArc
 50
233.133311
 51
314.849286
  0
CIRCLE
  5
472
330
1F
100
AcDbEntity
  8
002
 62
     3
370
    30
100
AcDbCircle
 10
565.678677
 20
127.806485
 30
0.0
 40
1.09375
  0
CIRCLE
  5
473
330
1F
100
AcDbEntity
  8
002
 62
     3
370
    30
100
AcDbCircle
 10
574.428677
 20
127.806485
 30
0.0
 40
1.09375
  0
ARC
  5
474
330
1F
100
AcDbEntity
  8
002
 62
     3
370
    30
100
AcDbCircle
 10
577.954877
 20
131.351285
 30
0.0
 40
2.500080000720002
100
AcDbArc
 50
225.150714
 51
306.868523
  0
ARC
  5
475
330
1F
100
AcDbEntity
  8
002
 62
     3
370
    30
100
AcDbCircle
 10
570.053677
 20
141.887085
 30
0.0
 40
15.66938001389977
100
AcDbArc
 50
306.867777
 51
233.132516
  0
ARC
  5
476
330
1F
100
AcDbEntity
  8
002
 62
     3
370
    30
100
AcDbCircle
 10
557.385677
 20
130.263385
 30
0.0
 40
9.999909257588243
100
AcDbArc
 50
183.652211
 51
266.347753
  0
ARC
  5
477
330
1F
100
AcDbEntity
  8
002
 62
     3
370
    30
100
AcDbCircle
 10
554.285677
 20
117.386385
 30
0.0
 40
3.0
100
AcDbArc
 50
280.303822
 51
0.0
  0
LINE
  5
478
330
1F
100
AcDbEntity
  8
002
 62
     3
370
    30
100
AcDbLine
 10
554.822277
 20
114.434785
 30
0.0
 11
552.053677
 21
113.931485
 31
0.0
  0
LINE
  5
479
330
1F
100
AcDbEntity
  8
002
 62
     3
370
    30
100
AcDbLine
 10
558.213577
 20
98.931485
 30
0.0
 11
558.213577
 21
93.931485
 31
0.0
  0
LINE
  5
47A
330
1F
100
AcDbEntity
  8
002
 62
     3
370
    30
100
AcDbLine
 10
575.553677
 20
102.931485
 30
0.0
 11
575.553677
 21
113.591485
 31
0.0
  0
LINE
  5
47B
330
1F
100
AcDbEntity
  8
002
 62
     3
370
    30
100
AcDbLine
 10
580.235177
 20
118.581285
 30
0.0
 11
586.527977
 21
118.982985
 31
0.0
  0
ARC
  5
47C
330
1F
100
AcDbEntity
  8
002
 62
     3
370
    30
100
AcDbCircle
 10
586.018377
 20
126.966785
 30
0.0
 40
8.000047162360957
100
AcDbArc
 50
273.652192
 51
356.347808
  0
ARC
  5
47D
330
1F
100
AcDbEntity
  8
002
 62
     3
370
    30
100
AcDbCircle
 10
580.553677
 20
113.591485
 30
0.0
 40
5.0
100
AcDbArc
 50
93.652247
 51
180.0
  0
LINE
  5
47E
330
1F
100
AcDbEntity
  8
002
 62
     3
370
    30
100
AcDbLine
 10
575.553677
 20
102.931485
 30
0.0
 11
500.553677
 21
102.931485
 31
0.0
  0
LINE
  5
47F
330
1F
100
AcDbEntity
  8
002
 62
     3
370
    30
100
AcDbLine
 10
500.553677
 20
102.931485
 30
0.0
 11
500.553677
 21
112.931485
 31
0.0
  0
ARC
  5
480
330
1F
100
AcDbEntity
  8
002
 62
     3
370
    30
100
AcDbCircle
 10
499.053677
 20
116.900085
 30
0.0
 40
3.0
100
AcDbArc
 50
318.590571
 51
0.0
  0
ARC
  5
481
330
1F
100
AcDbEntity
  8
002
 62
     3
370
    30
100
AcDbCircle
 10
503.553677
 20
112.931485
 30
0.0
 40
3.0
100
AcDbArc
 50
90.0
 51
180.0
  0
ARC
  5
482
330
1F
100
AcDbEntity
  8
002
 62
     3
370
    30
100
AcDbCircle
 10
513.304977
 20
159.931485
 30
0.0
 40
6.555860615510388
100
AcDbArc
 50
242.875244
 51
280.689287
  0
ARC
  5
483
330
1F
100
AcDbEntity
  8
002
 62
     3
370
    30
100
AcDbCircle
 10
499.053677
 20
156.962785
 30
0.0
 40
2.999991081653423
100
AcDbArc
 50
0.0
 51
41.409429
  0
ARC
  5
484
330
1F
100
AcDbEntity
  8
002
 62
     3
370
    30
100
AcDbCircle
 10
554.877077
 20
158.107985
 30
0.0
 40
7.999947365451852
100
AcDbArc
 50
93.652192
 51
176.347762
  0
LINE
  5
485
330
1F
100
AcDbEntity
  8
002
 62
     3
370
    30
100
AcDbLine
 10
544.053677
 20
382.931485
 30
0.0
 11
544.053677
 21
402.931485
 31
0.0
  0
LINE
  5
486
330
1F
100
AcDbEntity
  8
002
 62
     3
370
    30
100
AcDbLine
 10
544.053677
 20
402.931485
 30
0.0
 11
532.053677
 21
402.931485
 31
0.0
  0
LINE
  5
487
330
1F
100
AcDbEntity
  8
002
 62
     3
370
    30
100
AcDbLine
 10
532.053677
 20
402.931485
 30
0.0
 11
532.053677
 21
382.931485
 31
0.0
  0
LINE
  5
488
330
1F
100
AcDbEntity
  8
002
  6
CENTER
 62
    40
370
     9
100
AcDbLine
 10
513.304977
 20
193.431485
 30
0.0
 11
513.304977
 21
167.097785
 31
0.0
  0
LINE
  5
489
330
1F
100
AcDbEntity
  8
002
  6
CENTER
 62
    40
370
     9
100
AcDbLine
 10
492.938277
 20
142.931485
 30
0.0
 11
604.985477
 21
142.931485
 31
0.0
  0
LINE
  5
48A
330
1F
100
AcDbEntity
  8
002
  6
CENTER
 62
    40
370
     9
100
AcDbLine
 10
584.053677
 20
168.189785
 30
0.0
 11
584.053677
 21
186.535385
 31
0.0
  0
LINE
  5
48B
330
1F
100
AcDbEntity
  8
002
  6
CENTER
 62
    40
370
     9
100
AcDbLine
 10
570.053677
 20
191.491985
 30
0.0
 11
570.053677
 21
94.888285
 31
0.0
  0
LINE
  5
48C
330
1F
100
AcDbEntity
  8
002
  6
CENTER
 62
    40
370
     9
100
AcDbLine
 10
553.963577
 20
92.431485
 30
0.0
 11
553.963577
 21
104.931485
 31
0.0
  0
LINE
  5
48D
330
1F
100
AcDbEntity
  8
002
  6
CENTER
 62
    40
370
     9
100
AcDbLine
 10
522.143777
 20
104.931485
 30
0.0
 11
522.143777
 21
92.431485
 31
0.0
  0
LINE
  5
48E
330
1F
100
AcDbEntity
  8
002
  6
CENTER
 62
    40
370
     9
100
AcDbLine
 10
562.802477
 20
167.097785
 30
0.0
 11
562.802477
 21
193.431485
 31
0.0
  0
LINE
  5
48F
330
1F
100
AcDbEntity
  8
002
  6
HIDDEN
 62
    40
370
     9
100
AcDbLine
 10
550.053677
 20
112.931485
 30
0.0
 11
550.053677
 21
113.395585
 31
0.0
  0
LINE
  5
490
330
1F
100
AcDbEntity
  8
002
  6
HIDDEN
 62
    40
370
     9
100
AcDbLine
 10
526.053677
 20
112.931485
 30
0.0
 11
526.053677
 21
113.395585
 31
0.0
  0
LINE
  5
491
330
1F
100
AcDbEntity
  8
002
  6
HIDDEN
 62
    40
370
     9
100
AcDbLine
 10
531.420477
 20
112.931485
 30
0.0
 11
526.053677
 21
112.931485
 31
0.0
  0
LINE
  5
492
330
1F
100
AcDbEntity
  8
002
  6
HIDDEN
 62
    40
370
     9
100
AcDbLine
 10
532.553677
 20
102.931485
 30
0.0
 11
532.553677
 21
112.931485
 31
0.0
  0
LINE
  5
493
330
1F
100
AcDbEntity
  8
002
  6
HIDDEN
 62
    40
370
     9
100
AcDbLine
 10
543.553677
 20
112.931485
 30
0.0
 11
543.553677
 21
102.931485
 31
0.0
  0
LINE
  5
494
330
1F
100
AcDbEntity
  8
002
  6
HIDDEN
 62
    40
370
     9
100
AcDbLine
 10
550.053677
 20
112.931485
 30
0.0
 11
544.686977
 21
112.931485
 31
0.0
  0
LINE
  5
495
330
1F
100
AcDbEntity
  8
002
 62
    40
370
     9
100
AcDbLine
 10
863.116967
 20
92.995606
 30
0.0
 11
863.116967
 21
151.883129
 31
0.0
  0
LINE
  5
496
330
1F
100
AcDbEntity
  8
002
 62
    40
370
     9
100
AcDbLine
 10
845.616967
 20
151.883129
 30
0.0
 11
845.616967
 21
92.995606
 31
0.0
  0
LINE
  5
497
330
1F
100
AcDbEntity
  8
001
  6
CENTER
 62
    40
370
     9
100
AcDbLine
 10
858.55285
 20
200.88303
 30
0.0
 11
850.593011
 21
200.88303
 31
0.0
  0
LINE
  5
498
330
1F
100
AcDbEntity
  8
001
  6
CENTER
 62
    40
370
     9
100
AcDbLine
 10
858.060998
 20
160.883248
 30
0.0
 11
850.191339
 21
160.883248
 31
0.0
  0
LINE
  5
499
330
1F
100
AcDbEntity
  8
002
 62
     3
370
    30
100
AcDbLine
 10
837.366708
 20
151.883129
 30
0.0
 11
871.366662
 21
151.883129
 31
0.0
  0
LINE
  5
49A
330
1F
100
AcDbEntity
  8
002
 62
     3
370
    30
100
AcDbLine
 10
824.366723
 20
208.883098
 30
0.0
 11
884.366647
 21
208.883098
 31
0.0
  0
LINE
  5
49B
330
1F
100
AcDbEntity
  8
002
 62
     3
370
    30
100
AcDbLine
 10
824.366708
 20
218.883098
 30
0.0
 11
884.366662
 21
218.883098
 31
0.0
  0
LINE
  5
49C
330
1F
100
AcDbEntity
  8
002
 62
     3
370
    30
100
AcDbLine
 10
824.366708
 20
208.883083
 30
0.0
 11
824.366708
 21
218.883098
 31
0.0
  0
LINE
  5
49D
330
1F
100
AcDbEntity
  8
002
 62
     3
370
    30
100
AcDbLine
 10
884.366662
 20
208.883083
 30
0.0
 11
884.366662
 21
218.883098
 31
0.0
  0
LINE
  5
49E
330
1F
100
AcDbEntity
  8
002
 62
     3
370
    30
100
AcDbLine
 10
837.366708
 20
151.928983
 30
0.0
 11
837.366708
 21
208.883083
 31
0.0
  0
LINE
  5
49F
330
1F
100
AcDbEntity
  8
002
 62
     3
370
    30
100
AcDbLine
 10
871.366662
 20
151.883129
 30
0.0
 11
871.366662
 21
208.883083
 31
0.0
  0
LINE
  5
4A0
330
1F
100
AcDbEntity
  8
002
 62
     3
370
    30
100
AcDbLine
 10
861.349374
 20
208.883098
 30
0.0
 11
861.349374
 21
172.438747
 31
0.0
  0
LINE
  5
4A1
330
1F
100
AcDbEntity
  8
002
 62
     3
370
    30
100
AcDbLine
 10
847.385125
 20
208.883114
 30
0.0
 11
847.385125
 21
200.613964
 31
0.0
  0
LINE
  5
4A2
330
1F
100
AcDbEntity
  8
002
 62
     3
370
    30
100
AcDbLine
 10
861.349374
 20
161.152248
 30
0.0
 11
861.349374
 21
152.883129
 31
0.0
  0
LINE
  5
4A3
330
1F
100
AcDbEntity
  8
002
 62
     3
370
    30
100
AcDbLine
 10
847.385125
 20
189.327465
 30
0.0
 11
847.385125
 21
152.883129
 31
0.0
  0
LINE
  5
4A4
330
1F
100
AcDbEntity
  8
002
 62
     3
370
    30
100
AcDbLine
 10
849.367257
 20
200.883114
 30
0.0
 11
849.367257
 21
160.883129
 31
0.0
  0
LINE
  5
4A5
330
1F
100
AcDbEntity
  8
002
 62
     3
370
    30
100
AcDbLine
 10
843.841911
 20
196.908684
 30
0.0
 11
849.367239
 21
185.086376
 31
0.0
  0
LINE
  5
4A6
330
1F
100
AcDbEntity
  8
002
 62
     3
370
    30
100
AcDbLine
 10
848.824579
 20
199.237408
 30
0.0
 11
849.367241
 21
198.076298
 31
0.0
  0
LINE
  5
4A7
330
1F
100
AcDbEntity
  8
002
 62
     3
370
    30
100
AcDbLine
 10
849.367063
 20
199.965668
 30
0.0
 11
859.367056
 21
178.569107
 31
0.0
  0
LINE
  5
4A8
330
1F
100
AcDbEntity
  8
002
 62
     3
370
    30
100
AcDbLine
 10
845.168875
 20
200.564396
 30
0.0
 11
849.367225
 21
191.581364
 31
0.0
  0
LINE
  5
4A9
330
1F
100
AcDbEntity
  8
002
 62
     3
370
    30
100
AcDbLine
 10
859.367242
 20
160.883114
 30
0.0
 11
859.367242
 21
200.883098
 31
0.0
  0
LINE
  5
4AA
330
1F
100
AcDbEntity
  8
002
 62
     3
370
    30
100
AcDbLine
 10
864.892567
 20
164.857493
 30
0.0
 11
859.367239
 21
176.6798
 31
0.0
  0
LINE
  5
4AB
330
1F
100
AcDbEntity
  8
002
 62
     3
370
    30
100
AcDbLine
 10
859.909901
 20
162.528763
 30
0.0
 11
859.36724
 21
163.689873
 31
0.0
  0
LINE
  5
4AC
330
1F
100
AcDbEntity
  8
002
 62
     3
370
    30
100
AcDbLine
 10
859.367415
 20
161.800511
 30
0.0
 11
849.367421
 21
183.197071
 31
0.0
  0
LINE
  5
4AD
330
1F
100
AcDbEntity
  8
002
 62
     3
370
    30
100
AcDbLine
 10
863.565604
 20
161.201781
 30
0.0
 11
859.367253
 21
170.184814
 31
0.0
  0
LINE
  5
4AE
330
1F
100
AcDbEntity
  8
002
 62
     3
370
    30
100
AcDbLine
 10
855.955148
 20
203.633098
 30
0.0
 11
852.779626
 21
203.633098
 31
0.0
  0
LINE
  5
4AF
330
1F
100
AcDbEntity
  8
002
 62
     3
370
    30
100
AcDbLine
 10
852.779641
 20
198.133083
 30
0.0
 11
855.955132
 21
198.133083
 31
0.0
  0
LINE
  5
4B0
330
1F
100
AcDbEntity
  8
002
 62
     3
370
    30
100
AcDbLine
 10
857.54267
 20
200.88303
 30
0.0
 11
855.954902
 21
198.132934
 31
0.0
  0
LINE
  5
4B1
330
1F
100
AcDbEntity
  8
002
 62
     3
370
    30
100
AcDbLine
 10
852.779532
 20
203.63303
 30
0.0
 11
851.191885
 21
200.883144
 31
0.0
  0
LINE
  5
4B2
330
1F
100
AcDbEntity
  8
002
 62
     3
370
    30
100
AcDbLine
 10
855.955072
 20
203.633091
 30
0.0
 11
857.542741
 21
200.883163
 31
0.0
  0
LINE
  5
4B3
330
1F
100
AcDbEntity
  8
002
 62
     3
370
    30
100
AcDbLine
 10
851.19188
 20
200.883156
 30
0.0
 11
852.779626
 21
198.133098
 31
0.0
  0
LINE
  5
4B4
330
1F
100
AcDbEntity
  8
002
 62
     3
370
    30
100
AcDbLine
 10
855.955117
 20
163.633098
 30
0.0
 11
852.779595
 21
163.633098
 31
0.0
  0
LINE
  5
4B5
330
1F
100
AcDbEntity
  8
002
 62
     3
370
    30
100
AcDbLine
 10
852.77961
 20
158.133083
 30
0.0
 11
855.955102
 21
158.133083
 31
0.0
  0
LINE
  5
4B6
330
1F
100
AcDbEntity
  8
002
 62
     3
370
    30
100
AcDbLine
 10
857.542738
 20
160.883248
 30
0.0
 11
855.95497
 21
158.133152
 31
0.0
  0
LINE
  5
4B7
330
1F
100
AcDbEntity
  8
002
 62
     3
370
    30
100
AcDbLine
 10
852.77961
 20
163.633223
 30
0.0
 11
851.191964
 21
160.883339
 31
0.0
  0
LINE
  5
4B8
330
1F
100
AcDbEntity
  8
002
 62
     3
370
    30
100
AcDbLine
 10
855.955021
 20
163.633098
 30
0.0
 11
857.542698
 21
160.88316
 31
0.0
  0
LINE
  5
4B9
330
1F
100
AcDbEntity
  8
002
 62
     3
370
    30
100
AcDbLine
 10
851.191863
 20
160.883167
 30
0.0
 11
852.779616
 21
158.133097
 31
0.0
  0
ARC
  5
4BA
330
1F
100
AcDbEntity
  8
002
 62
     3
370
    30
100
AcDbCircle
 10
854.367272
 20
200.883114
 30
0.0
 40
4.999999
100
AcDbArc
 50
0.0
 51
179.999908
  0
ARC
  5
4BB
330
1F
100
AcDbEntity
  8
002
 62
     3
370
    30
100
AcDbCircle
 10
846.33326
 20
198.073101
 30
0.0
 40
2.749998999999999
100
AcDbArc
 50
25.049667
 51
205.049652
  0
ARC
  5
4BC
330
1F
100
AcDbEntity
  8
002
 62
     3
370
    30
100
AcDbCircle
 10
854.367242
 20
160.883114
 30
0.0
 40
4.999999
100
AcDbArc
 50
180.0
 51
359.999893
  0
ARC
  5
4BD
330
1F
100
AcDbEntity
  8
002
 62
     3
370
    30
100
AcDbCircle
 10
862.401253
 20
163.693127
 30
0.0
 40
2.749998999999999
100
AcDbArc
 50
205.049713
 51
25.049675
  0
CIRCLE
  5
4BE
330
1F
100
AcDbEntity
  8
002
 62
     3
370
    30
100
AcDbCircle
 10
854.367272
 20
200.883114
 30
0.0
 40
2.649999000000001
  0
CIRCLE
  5
4BF
330
1F
100
AcDbEntity
  8
002
 62
     3
370
    30
100
AcDbCircle
 10
854.367272
 20
200.883114
 30
0.0
 40
1.125
  0
CIRCLE
  5
4C0
330
1F
100
AcDbEntity
  8
002
 62
     3
370
    30
100
AcDbCircle
 10
854.367242
 20
160.883114
 30
0.0
 40
1.125
  0
CIRCLE
  5
4C1
330
1F
100
AcDbEntity
  8
002
 62
     3
370
    30
100
AcDbCircle
 10
854.367242
 20
160.883114
 30
0.0
 40
2.649999
  0
LINE
  5
4C2
330
1F
100
AcDbEntity
  8
002
  6
CENTER
 62
    40
370
    30
100
AcDbLine
 10
877.866662
 20
206.883083
 30
0.0
 11
877.866662
 21
220.883068
 31
0.0
  0
LINE
  5
4C3
330
1F
100
AcDbEntity
  8
002
  6
CENTER
 62
    40
370
    30
100
AcDbLine
 10
830.866708
 20
206.883083
 30
0.0
 11
830.866708
 21
220.883068
 31
0.0
  0
CIRCLE
  5
4C4
330
1F
100
AcDbEntity
  8
002
 62
    40
370
     9
100
AcDbCircle
 10
854.367272
 20
200.883114
 30
0.0
 40
1.5
  0
CIRCLE
  5
4C5
330
1F
100
AcDbEntity
  8
002
 62
    40
370
     9
100
AcDbCircle
 10
854.367242
 20
160.883114
 30
0.0
 40
1.5
  0
LINE
  5
4C6
330
1F
100
AcDbEntity
  8
002
 62
     3
370
    30
100
AcDbLine
 10
864.366967
 20
151.883129
 30
0.0
 11
864.366967
 21
92.995606
 31
0.0
  0
LINE
  5
4C7
330
1F
100
AcDbEntity
  8
002
 62
     3
370
    30
100
AcDbLine
 10
844.366967
 20
92.995606
 30
0.0
 11
844.366967
 21
151.883129
 31
0.0
  0
LINE
  5
4C8
330
1F
100
AcDbEntity
  8
002
 62
     3
370
    30
100
AcDbLine
 10
840.366967
 20
292.995606
 30
0.0
 11
840.366967
 21
299.995606
 31
0.0
  0
ARC
  5
4C9
330
1F
100
AcDbEntity
  8
002
 62
     3
370
    30
100
AcDbCircle
 10
844.366967
 20
299.995606
 30
0.0
 40
4.0
100
AcDbArc
 50
90.0
 51
180.0
  0
LINE
  5
4CA
330
1F
100
AcDbEntity
  8
002
 62
     3
370
    30
100
AcDbLine
 10
844.366967
 20
303.995606
 30
0.0
 11
847.732967
 21
303.995606
 31
0.0
  0
LINE
  5
4CB
330
1F
100
AcDbEntity
  8
002
 62
     3
370
    30
100
AcDbLine
 10
847.732967
 20
303.995606
 30
0.0
 11
847.732967
 21
302.995606
 31
0.0
  0
LINE
  5
4CC
330
1F
100
AcDbEntity
  8
002
 62
     3
370
    30
100
AcDbLine
 10
847.732967
 20
302.995606
 30
0.0
 11
860.999967
 21
302.995606
 31
0.0
  0
LINE
  5
4CD
330
1F
100
AcDbEntity
  8
002
 62
     3
370
    30
100
AcDbLine
 10
860.999967
 20
302.995606
 30
0.0
 11
860.999967
 21
303.995606
 31
0.0
  0
LINE
  5
4CE
330
1F
100
AcDbEntity
  8
002
 62
     3
370
    30
100
AcDbLine
 10
860.999967
 20
303.995606
 30
0.0
 11
864.366967
 21
303.995606
 31
0.0
  0
ARC
  5
4CF
330
1F
100
AcDbEntity
  8
002
 62
     3
370
    30
100
AcDbCircle
 10
864.366967
 20
299.995606
 30
0.0
 40
4.0
100
AcDbArc
 50
0.0
 51
90.0
  0
LINE
  5
4D0
330
1F
100
AcDbEntity
  8
002
 62
     3
370
    30
100
AcDbLine
 10
868.366967
 20
299.995606
 30
0.0
 11
868.366967
 21
292.995606
 31
0.0
  0
LINE
  5
4D1
330
1F
100
AcDbEntity
  8
002
 62
     3
370
    30
100
AcDbLine
 10
864.366967
 20
92.995606
 30
0.0
 11
844.366967
 21
92.995606
 31
0.0
  0
LINE
  5
4D2
330
1F
100
AcDbEntity
  8
002
 62
     3
370
    30
100
AcDbLine
 10
848.366967
 20
92.995606
 30
0.0
 11
848.366967
 21
72.995606
 31
0.0
  0
LINE
  5
4D3
330
1F
100
AcDbEntity
  8
002
 62
     3
370
    30
100
AcDbLine
 10
860.366967
 20
72.995606
 30
0.0
 11
860.366967
 21
92.995606
 31
0.0
  0
LINE
  5
4D4
330
1F
100
AcDbEntity
  8
002
 62
     3
370
    30
100
AcDbLine
 10
879.366967
 20
292.995606
 30
0.0
 11
879.366967
 21
303.995606
 31
0.0
  0
ARC
  5
4D5
330
1F
100
AcDbEntity
  8
002
 62
     3
370
    30
100
AcDbCircle
 10
870.598967
 20
307.450606
 30
0.0
 40
2.999873090649014
100
AcDbArc
 50
280.292547
 51
0.0
  0
LINE
  5
4D6
330
1F
100
AcDbEntity
  8
002
 62
     3
370
    30
100
AcDbLine
 10
871.134967
 20
304.499006
 30
0.0
 11
868.366967
 21
303.995606
 31
0.0
  0
ARC
  5
4D7
330
1F
100
AcDbEntity
  8
002
 62
     3
370
    30
100
AcDbCircle
 10
861.464967
 20
307.911506
 30
0.0
 40
3.0
100
AcDbArc
 50
270.0
 51
3.652101
  0
LINE
  5
4D8
330
1F
100
AcDbEntity
  8
002
 62
     3
370
    30
100
AcDbLine
 10
858.598967
 20
305.995606
 30
0.0
 11
819.866967
 21
305.995606
 31
0.0
  0
LINE
  5
4D9
330
1F
100
AcDbEntity
  8
002
 62
     3
370
    30
100
AcDbLine
 10
818.366967
 20
306.964306
 30
0.0
 11
818.366967
 21
347.027006
 31
0.0
  0
LINE
  5
4DA
330
1F
100
AcDbEntity
  8
002
 62
     3
370
    30
100
AcDbLine
 10
818.498967
 20
348.325606
 30
0.0
 11
826.628967
 21
344.160806
 31
0.0
  0
LINE
  5
4DB
330
1F
100
AcDbEntity
  8
002
 62
     3
370
    30
100
AcDbLine
 10
830.833967
 20
343.553606
 30
0.0
 11
852.527967
 21
347.648606
 31
0.0
  0
ARC
  5
4DC
330
1F
100
AcDbEntity
  8
002
 62
     3
370
    30
100
AcDbCircle
 10
856.237967
 20
327.995606
 30
0.0
 40
20.0
100
AcDbArc
 50
90.0
 51
100.690224
  0
LINE
  5
4DD
330
1F
100
AcDbEntity
  8
002
 62
     3
370
    30
100
AcDbLine
 10
863.162967
 20
347.995606
 30
0.0
 11
819.866967
 21
347.995606
 31
0.0
  0
ARC
  5
4DE
330
1F
100
AcDbEntity
  8
002
 62
     3
370
    30
100
AcDbCircle
 10
819.866967
 20
350.995606
 30
0.0
 40
3.0
100
AcDbArc
 50
180.0
 51
270.0
  0
LINE
  5
4DF
330
1F
100
AcDbEntity
  8
002
 62
     3
370
    30
100
AcDbLine
 10
816.866967
 20
350.995606
 30
0.0
 11
816.866967
 21
372.995606
 31
0.0
  0
LINE
  5
4E0
330
1F
100
AcDbEntity
  8
002
 62
     3
370
    30
100
AcDbLine
 10
816.866967
 20
372.995606
 30
0.0
 11
891.866967
 21
372.995606
 31
0.0
  0
LINE
  5
4E1
330
1F
100
AcDbEntity
  8
002
 62
     3
370
    30
100
AcDbLine
 10
891.866967
 20
372.995606
 30
0.0
 11
891.866967
 21
361.131806
 31
0.0
  0
LINE
  5
4E2
330
1F
100
AcDbEntity
  8
002
 62
     3
370
    30
100
AcDbLine
 10
892.591967
 20
360.995606
 30
0.0
 11
910.366967
 21
360.995606
 31
0.0
  0
LINE
  5
4E3
330
1F
100
AcDbEntity
  8
002
 62
     3
370
    30
100
AcDbLine
 10
910.366967
 20
360.995606
 30
0.0
 11
910.366967
 21
353.323606
 31
0.0
  0
LINE
  5
4E4
330
1F
100
AcDbEntity
  8
002
 62
     3
370
    30
100
AcDbLine
 10
912.364967
 20
350.495606
 30
0.0
 11
912.364967
 21
315.495606
 31
0.0
  0
LINE
  5
4E5
330
1F
100
AcDbEntity
  8
002
 62
     3
370
    30
100
AcDbLine
 10
912.364967
 20
315.495606
 30
0.0
 11
912.339967
 21
315.495606
 31
0.0
  0
ARC
  5
4E6
330
1F
100
AcDbEntity
  8
002
 62
     3
370
    30
100
AcDbCircle
 10
902.330967
 20
317.030906
 30
0.0
 40
7.999972855578947
100
AcDbArc
 50
273.655097
 51
356.347899
  0
LINE
  5
4E7
330
1F
100
AcDbEntity
  8
002
 62
     3
370
    30
100
AcDbLine
 10
902.840967
 20
309.047206
 30
0.0
 11
896.547967
 21
308.645506
 31
0.0
  0
LINE
  5
4E8
330
1F
100
AcDbEntity
  8
002
 62
     3
370
    30
100
AcDbLine
 10
899.671967
 20
310.347906
 30
0.0
 11
886.270967
 21
309.492606
 31
0.0
  0
LINE
  5
4E9
330
1F
100
AcDbEntity
  8
002
 62
     3
370
    30
100
AcDbLine
 10
886.461967
 20
309.492606
 30
0.0
 11
873.061967
 21
310.347906
 31
0.0
  0
ARC
  5
4EA
330
1F
100
AcDbEntity
  8
002
 62
     3
370
    30
100
AcDbCircle
 10
873.698967
 20
320.327606
 30
0.0
 40
10.00030844524309
100
AcDbArc
 50
183.652101
 51
266.347789
  0
LINE
  5
4EB
330
1F
100
AcDbEntity
  8
002
 62
     3
370
    30
100
AcDbLine
 10
863.588967
 20
311.314106
 30
0.0
 11
862.201967
 21
333.048906
 31
0.0
  0
LINE
  5
4EC
330
1F
100
AcDbEntity
  8
002
 62
     3
370
    30
100
AcDbLine
 10
862.201967
 20
332.942306
 30
0.0
 11
863.205967
 21
348.681806
 31
0.0
  0
ARC
  5
4ED
330
1F
100
AcDbEntity
  8
002
 62
     3
370
    30
100
AcDbCircle
 10
871.189967
 20
348.172206
 30
0.0
 40
8.000072652170077
100
AcDbArc
 50
93.655051
 51
176.347899
  0
LINE
  5
4EE
330
1F
100
AcDbEntity
  8
002
 62
     3
370
    30
100
AcDbLine
 10
870.679967
 20
356.156006
 30
0.0
 11
886.096967
 21
357.162006
 31
0.0
  0
LINE
  5
4EF
330
1F
100
AcDbEntity
  8
002
 62
     3
370
    30
100
AcDbLine
 10
886.096967
 20
357.162006
 30
0.0
 11
887.878967
 21
357.333306
 31
0.0
  0
LINE
  5
4F0
330
1F
100
AcDbEntity
  8
002
 62
     3
370
    30
100
AcDbLine
 10
886.461967
 20
356.498706
 30
0.0
 11
873.061967
 21
355.643306
 31
0.0
  0
ARC
  5
4F1
330
1F
100
AcDbEntity
  8
002
 62
     3
370
    30
100
AcDbCircle
 10
873.698967
 20
345.663606
 30
0.0
 40
10.00000905449588
100
AcDbArc
 50
93.652211
 51
176.347899
  0
LINE
  5
4F2
330
1F
100
AcDbEntity
  8
002
 62
     3
370
    30
100
AcDbLine
 10
863.718967
 20
346.300606
 30
0.0
 11
862.863967
 21
332.900106
 31
0.0
  0
LINE
  5
4F3
330
1F
100
AcDbEntity
  8
002
 62
     3
370
    30
100
AcDbLine
 10
862.863967
 20
333.091206
 30
0.0
 11
864.458967
 21
308.102606
 31
0.0
  0
ARC
  5
4F4
330
1F
100
AcDbEntity
  8
002
 62
     3
370
    30
100
AcDbCircle
 10
858.598967
 20
310.995606
 30
0.0
 40
5.0
100
AcDbArc
 50
270.0
 51
3.652101
  0
ARC
  5
4F5
330
1F
100
AcDbEntity
  8
002
 62
     3
370
    30
100
AcDbCircle
 10
854.366967
 20
242.211306
 30
0.0
 40
62.41279477390829
100
AcDbArc
 50
81.862017
 51
98.138892
  0
LINE
  5
4F6
330
1F
100
AcDbEntity
  8
002
 62
     3
370
    30
100
AcDbLine
 10
873.598967
 20
307.450606
 30
0.0
 11
873.598967
 21
307.702706
 31
0.0
  0
ARC
  5
4F7
330
1F
100
AcDbEntity
  8
002
 62
     3
370
    30
100
AcDbCircle
 10
886.366967
 20
331.951206
 30
0.0
 40
15.66924001475492
100
AcDbArc
 50
306.867411
 51
233.129664
  0
ARC
  5
4F8
330
1F
100
AcDbEntity
  8
002
 62
     3
370
    30
100
AcDbCircle
 10
894.267967
 20
321.415406
 30
0.0
 40
2.49991415052588
100
AcDbArc
 50
225.152339
 51
306.869898
  0
CIRCLE
  5
4F9
330
1F
100
AcDbEntity
  8
002
 62
     3
370
    30
100
AcDbCircle
 10
890.741967
 20
317.870606
 30
0.0
 40
1.09375
  0
ARC
  5
4FA
330
1F
100
AcDbEntity
  8
002
 62
     3
370
    30
100
AcDbCircle
 10
890.741967
 20
317.870606
 30
0.0
 40
2.499914150525961
100
AcDbArc
 50
45.152339
 51
180.0
  0
LINE
  5
4FB
330
1F
100
AcDbEntity
  8
002
 62
     3
370
    30
100
AcDbLine
 10
888.241967
 20
317.870606
 30
0.0
 11
888.241967
 21
315.624006
 31
0.0
  0
LINE
  5
4FC
330
1F
100
AcDbEntity
  8
002
 62
     3
370
    30
100
AcDbLine
 10
884.491967
 20
315.624006
 30
0.0
 11
884.491967
 21
317.870606
 31
0.0
  0
CIRCLE
  5
4FD
330
1F
100
AcDbEntity
  8
002
 62
     3
370
    30
100
AcDbCircle
 10
881.991967
 20
317.870606
 30
0.0
 40
1.09375
  0
ARC
  5
4FE
330
1F
100
AcDbEntity
  8
002
 62
     3
370
    30
100
AcDbCircle
 10
881.991967
 20
317.870606
 30
0.0
 40
2.5
100
AcDbArc
 50
0.0
 51
134.847661
  0
ARC
  5
4FF
330
1F
100
AcDbEntity
  8
002
 62
     3
370
    30
100
AcDbCircle
 10
878.464967
 20
321.415406
 30
0.0
 40
2.5
100
AcDbArc
 50
233.130102
 51
314.863906
  0
CIRCLE
  5
500
330
1F
100
AcDbEntity
  8
002
 62
     3
370
    30
100
AcDbCircle
 10
886.366967
 20
332.995606
 30
0.0
 40
17.5
  0
LINE
  5
501
330
1F
100
AcDbEntity
  8
002
 62
     3
370
    30
100
AcDbLine
 10
883.866967
 20
337.745606
 30
0.0
 11
884.116967
 21
337.495606
 31
0.0
  0
LINE
  5
502
330
1F
100
AcDbEntity
  8
002
 62
     3
370
    30
100
AcDbLine
 10
884.116967
 20
337.495606
 30
0.0
 11
888.616967
 21
337.495606
 31
0.0
  0
LINE
  5
503
330
1F
100
AcDbEntity
  8
002
 62
     3
370
    30
100
AcDbLine
 10
888.616967
 20
337.495606
 30
0.0
 11
888.866967
 21
337.745606
 31
0.0
  0
LINE
  5
504
330
1F
100
AcDbEntity
  8
002
 62
     3
370
    30
100
AcDbLine
 10
888.866967
 20
337.745606
 30
0.0
 11
888.866967
 21
342.245606
 31
0.0
  0
LINE
  5
505
330
1F
100
AcDbEntity
  8
002
 62
     3
370
    30
100
AcDbLine
 10
888.866967
 20
342.245606
 30
0.0
 11
888.616967
 21
342.495606
 31
0.0
  0
LINE
  5
506
330
1F
100
AcDbEntity
  8
002
 62
     3
370
    30
100
AcDbLine
 10
888.616967
 20
342.495606
 30
0.0
 11
884.116967
 21
342.495606
 31
0.0
  0
LINE
  5
507
330
1F
100
AcDbEntity
  8
002
 62
     3
370
    30
100
AcDbLine
 10
884.116967
 20
342.495606
 30
0.0
 11
883.866967
 21
342.245606
 31
0.0
  0
LINE
  5
508
330
1F
100
AcDbEntity
  8
002
 62
     3
370
    30
100
AcDbLine
 10
883.866967
 20
342.245606
 30
0.0
 11
883.866967
 21
337.745606
 31
0.0
  0
ARC
  5
509
330
1F
100
AcDbEntity
  8
002
 62
     3
370
    30
100
AcDbCircle
 10
884.066967
 20
337.695606
 30
0.0
 40
0.1999999999998181
100
AcDbArc
 50
180.0
 51
270.0
  0
ARC
  5
50A
330
1F
100
AcDbEntity
  8
002
 62
     3
370
    30
100
AcDbCircle
 10
888.666967
 20
337.695606
 30
0.0
 40
0.2000000000000455
100
AcDbArc
 50
270.0
 51
0.0
  0
ARC
  5
50B
330
1F
100
AcDbEntity
  8
002
 62
     3
370
    30
100
AcDbCircle
 10
886.366967
 20
332.995606
 30
0.0
 40
7.500030347271937
100
AcDbArc
 50
109.471139
 51
70.528861
  0
ARC
  5
50C
330
1F
100
AcDbEntity
  8
002
 62
     3
370
    30
100
AcDbCircle
 10
886.366967
 20
332.995606
 30
0.0
 40
8.5000588709726
100
AcDbArc
 50
107.104513
 51
72.895487
  0
LINE
  5
50D
330
1F
100
AcDbEntity
  8
002
 62
     3
370
    30
100
AcDbLine
 10
886.270967
 20
356.498706
 30
0.0
 11
899.671967
 21
355.643306
 31
0.0
  0
ARC
  5
50E
330
1F
100
AcDbEntity
  8
002
 62
     3
370
    30
100
AcDbCircle
 10
899.034967
 20
345.663606
 30
0.0
 40
9.999310476227894
100
AcDbArc
 50
3.652466
 51
86.347789
  0
LINE
  5
50F
330
1F
100
AcDbEntity
  8
002
 62
     3
370
    30
100
AcDbLine
 10
909.013967
 20
346.300606
 30
0.0
 11
909.869967
 21
332.900106
 31
0.0
  0
LINE
  5
510
330
1F
100
AcDbEntity
  8
002
 62
     3
370
    30
100
AcDbLine
 10
909.869967
 20
333.091206
 30
0.0
 11
909.013967
 21
319.690606
 31
0.0
  0
ARC
  5
511
330
1F
100
AcDbEntity
  8
002
 62
     3
370
    30
100
AcDbCircle
 10
899.034967
 20
320.327606
 30
0.0
 40
10.00000905449588
100
AcDbArc
 50
273.652211
 51
356.347534
  0
ARC
  5
512
330
1F
100
AcDbEntity
  8
002
 62
     3
370
    30
100
AcDbCircle
 10
912.352967
 20
312.495706
 30
0.0
 40
2.999924000704043
100
AcDbArc
 50
89.77081
 51
155.651204
  0
LINE
  5
513
330
1F
100
AcDbEntity
  8
002
 62
     3
370
    30
100
AcDbLine
 10
910.314967
 20
316.521306
 30
0.0
 11
911.366967
 21
332.995606
 31
0.0
  0
LINE
  5
514
330
1F
100
AcDbEntity
  8
002
 62
     3
370
    30
100
AcDbLine
 10
911.366967
 20
332.995606
 30
0.0
 11
910.314967
 21
349.469906
 31
0.0
  0
ARC
  5
515
330
1F
100
AcDbEntity
  8
002
 62
     3
370
    30
100
AcDbCircle
 10
913.366967
 20
353.323606
 30
0.0
 40
3.0
100
AcDbArc
 50
180.0
 51
250.490051
  0
ARC
  5
516
330
1F
100
AcDbEntity
  8
002
 62
     3
370
    30
100
AcDbCircle
 10
902.330967
 20
348.960306
 30
0.0
 40
8.000246756194384
100
AcDbArc
 50
3.652101
 51
86.344949
  0
LINE
  5
517
330
1F
100
AcDbEntity
  8
002
 62
     3
370
    30
100
AcDbLine
 10
902.840967
 20
356.944106
 30
0.0
 11
893.432967
 21
357.443406
 31
0.0
  0
ARC
  5
518
330
1F
100
AcDbEntity
  8
002
 62
     3
370
    30
100
AcDbCircle
 10
893.591967
 20
360.439206
 30
0.0
 40
2.999657395436943
100
AcDbArc
 50
194.959101
 51
266.961917
  0
ARC
  5
519
330
1F
100
AcDbEntity
  8
002
 62
     3
370
    30
100
AcDbCircle
 10
887.591967
 20
360.319506
 30
0.0
 40
2.999959906398693
100
AcDbArc
 50
275.489765
 51
347.987687
  0
ARC
  5
51A
330
1F
100
AcDbEntity
  8
002
 62
     3
370
    30
100
AcDbCircle
 10
892.591967
 20
362.995606
 30
0.0
 40
2.0
100
AcDbArc
 50
180.0
 51
270.0
  0
LINE
  5
51B
330
1F
100
AcDbEntity
  8
002
 62
     3
370
    30
100
AcDbLine
 10
891.866967
 20
362.995606
 30
0.0
 11
816.866967
 21
362.995606
 31
0.0
  0
LINE
  5
51C
330
1F
100
AcDbEntity
  8
002
 62
     3
370
    30
100
AcDbLine
 10
824.617967
 20
372.995606
 30
0.0
 11
824.617967
 21
378.995606
 31
0.0
  0
LINE
  5
51D
330
1F
100
AcDbEntity
  8
002
 62
     3
370
    30
100
AcDbLine
 10
834.617967
 20
378.995606
 30
0.0
 11
824.617967
 21
378.995606
 31
0.0
  0
LINE
  5
51E
330
1F
100
AcDbEntity
  8
002
 62
     3
370
    30
100
AcDbLine
 10
834.206967
 20
378.995606
 30
0.0
 11
834.206967
 21
381.995606
 31
0.0
  0
LINE
  5
51F
330
1F
100
AcDbEntity
  8
002
 62
     3
370
    30
100
AcDbLine
 10
842.706967
 20
381.995606
 30
0.0
 11
842.706967
 21
376.995606
 31
0.0
  0
LINE
  5
520
330
1F
100
AcDbEntity
  8
002
 62
     3
370
    30
100
AcDbLine
 10
842.706967
 20
381.995606
 30
0.0
 11
834.206967
 21
381.995606
 31
0.0
  0
LINE
  5
521
330
1F
100
AcDbEntity
  8
002
 62
     3
370
    30
100
AcDbLine
 10
834.617967
 20
378.995606
 30
0.0
 11
834.617967
 21
372.995606
 31
0.0
  0
LINE
  5
522
330
1F
100
AcDbEntity
  8
002
 62
     3
370
    30
100
AcDbLine
 10
834.617967
 20
376.995606
 30
0.0
 11
874.114967
 21
376.995606
 31
0.0
  0
LINE
  5
523
330
1F
100
AcDbEntity
  8
002
 62
     3
370
    30
100
AcDbLine
 10
884.114967
 20
378.995606
 30
0.0
 11
874.114967
 21
378.995606
 31
0.0
  0
LINE
  5
524
330
1F
100
AcDbEntity
  8
002
 62
     3
370
    30
100
AcDbLine
 10
874.114967
 20
378.995606
 30
0.0
 11
874.114967
 21
372.995606
 31
0.0
  0
LINE
  5
525
330
1F
100
AcDbEntity
  8
002
 62
     3
370
    30
100
AcDbLine
 10
874.526967
 20
378.995606
 30
0.0
 11
874.526967
 21
381.995606
 31
0.0
  0
LINE
  5
526
330
1F
100
AcDbEntity
  8
002
 62
     3
370
    30
100
AcDbLine
 10
866.026967
 20
381.995606
 30
0.0
 11
874.526967
 21
381.995606
 31
0.0
  0
LINE
  5
527
330
1F
100
AcDbEntity
  8
002
 62
     3
370
    30
100
AcDbLine
 10
871.366967
 20
381.995606
 30
0.0
 11
871.366967
 21
402.995606
 31
0.0
  0
LINE
  5
528
330
1F
100
AcDbEntity
  8
002
 62
     3
370
    30
100
AcDbLine
 10
871.366967
 20
402.995606
 30
0.0
 11
837.366967
 21
402.995606
 31
0.0
  0
LINE
  5
529
330
1F
100
AcDbEntity
  8
002
 62
     3
370
    30
100
AcDbLine
 10
837.366967
 20
402.995606
 30
0.0
 11
837.366967
 21
381.995606
 31
0.0
  0
LINE
  5
52A
330
1F
100
AcDbEntity
  8
002
 62
     3
370
    30
100
AcDbLine
 10
866.026967
 20
381.995606
 30
0.0
 11
866.026967
 21
376.995606
 31
0.0
  0
LINE
  5
52B
330
1F
100
AcDbEntity
  8
002
 62
     3
370
    30
100
AcDbLine
 10
884.114967
 20
378.995606
 30
0.0
 11
884.114967
 21
372.995606
 31
0.0
  0
LINE
  5
52C
330
1F
100
AcDbEntity
  8
002
 62
     3
370
    30
100
AcDbLine
 10
897.116967
 20
370.995606
 30
0.0
 11
897.866967
 21
373.995606
 31
0.0
  0
LINE
  5
52D
330
1F
100
AcDbEntity
  8
002
 62
     3
370
    30
100
AcDbLine
 10
897.866967
 20
373.995606
 30
0.0
 11
902.866967
 21
373.995606
 31
0.0
  0
LINE
  5
52E
330
1F
100
AcDbEntity
  8
002
 62
     3
370
    30
100
AcDbLine
 10
902.866967
 20
373.995606
 30
0.0
 11
903.616967
 21
370.995606
 31
0.0
  0
LINE
  5
52F
330
1F
100
AcDbEntity
  8
002
 62
     3
370
    30
100
AcDbLine
 10
903.616967
 20
370.995606
 30
0.0
 11
903.085967
 21
370.146206
 31
0.0
  0
LINE
  5
530
330
1F
100
AcDbEntity
  8
002
 62
     3
370
    30
100
AcDbLine
 10
902.663967
 20
369.471606
 30
0.0
 11
898.068967
 21
369.471606
 31
0.0
  0
LINE
  5
531
330
1F
100
AcDbEntity
  8
002
 62
     3
370
    30
100
AcDbLine
 10
897.647967
 20
370.146206
 30
0.0
 11
897.116967
 21
370.995606
 31
0.0
  0
LINE
  5
532
330
1F
100
AcDbEntity
  8
002
 62
     3
370
    30
100
AcDbLine
 10
897.866967
 20
370.995606
 30
0.0
 11
902.866967
 21
370.995606
 31
0.0
  0
ARC
  5
533
330
1F
100
AcDbEntity
  8
002
 62
     3
370
    30
100
AcDbCircle
 10
903.933967
 20
369.616206
 30
0.0
 40
1.000001999998201
100
AcDbArc
 50
147.994617
 51
225.004052
  0
LINE
  5
534
330
1F
100
AcDbEntity
  8
002
 62
     3
370
    30
100
AcDbLine
 10
903.226967
 20
368.909106
 30
0.0
 11
905.366967
 21
365.995606
 31
0.0
  0
LINE
  5
535
330
1F
100
AcDbEntity
  8
002
 62
     3
370
    30
100
AcDbLine
 10
905.366967
 20
365.995606
 30
0.0
 11
905.366967
 21
362.995606
 31
0.0
  0
LINE
  5
536
330
1F
100
AcDbEntity
  8
002
 62
     3
370
    30
100
AcDbLine
 10
905.366967
 20
362.995606
 30
0.0
 11
904.366967
 21
361.995606
 31
0.0
  0
LINE
  5
537
330
1F
100
AcDbEntity
  8
002
 62
     3
370
    30
100
AcDbLine
 10
904.366967
 20
361.995606
 30
0.0
 11
896.366967
 21
361.995606
 31
0.0
  0
LINE
  5
538
330
1F
100
AcDbEntity
  8
002
 62
     3
370
    30
100
AcDbLine
 10
896.366967
 20
361.995606
 30
0.0
 11
895.366967
 21
362.995606
 31
0.0
  0
LINE
  5
539
330
1F
100
AcDbEntity
  8
002
 62
     3
370
    30
100
AcDbLine
 10
895.366967
 20
362.995606
 30
0.0
 11
895.366967
 21
365.995606
 31
0.0
  0
LINE
  5
53A
330
1F
100
AcDbEntity
  8
002
 62
     3
370
    30
100
AcDbLine
 10
895.366967
 20
365.995606
 30
0.0
 11
897.506967
 21
368.909106
 31
0.0
  0
ARC
  5
53B
330
1F
100
AcDbEntity
  8
002
 62
     3
370
    30
100
AcDbCircle
 10
896.799967
 20
369.616206
 30
0.0
 40
0.9999197017759904
100
AcDbArc
 50
314.995948
 51
32.005383
  0
ARC
  5
53C
330
1F
100
AcDbEntity
  8
002
 62
     3
370
    30
100
AcDbCircle
 10
897.866967
 20
363.370606
 30
0.0
 40
3.625
100
AcDbArc
 50
46.397181
 51
133.602819
  0
LINE
  5
53D
330
1F
100
AcDbEntity
  8
002
 62
     3
370
    30
100
AcDbLine
 10
900.366967
 20
365.995606
 30
0.0
 11
900.366967
 21
362.995606
 31
0.0
  0
ARC
  5
53E
330
1F
100
AcDbEntity
  8
002
 62
     3
370
    30
100
AcDbCircle
 10
897.866967
 20
365.620606
 30
0.0
 40
3.625
100
AcDbArc
 50
226.397181
 51
313.602819
  0
LINE
  5
53F
330
1F
100
AcDbEntity
  8
002
 62
     3
370
    30
100
AcDbLine
 10
896.504967
 20
361.995606
 30
0.0
 11
896.504967
 21
360.995606
 31
0.0
  0
ARC
  5
540
330
1F
100
AcDbEntity
  8
002
 62
     3
370
    30
100
AcDbCircle
 10
902.866967
 20
363.370606
 30
0.0
 40
3.625
100
AcDbArc
 50
46.397181
 51
133.602819
  0
ARC
  5
541
330
1F
100
AcDbEntity
  8
002
 62
     3
370
    30
100
AcDbCircle
 10
902.866967
 20
365.620606
 30
0.0
 40
3.625
100
AcDbArc
 50
226.397181
 51
313.602819
  0
LINE
  5
542
330
1F
100
AcDbEntity
  8
002
 62
     3
370
    30
100
AcDbLine
 10
904.227967
 20
361.995606
 30
0.0
 11
904.227967
 21
360.995606
 31
0.0
  0
ARC
  5
543
330
1F
100
AcDbEntity
  8
002
 62
     3
370
    30
100
AcDbCircle
 10
900.366967
 20
373.334206
 30
0.0
 40
0.999974979686964
100
AcDbArc
 50
41.407997
 51
138.592003
  0
LINE
  5
544
330
1F
100
AcDbEntity
  8
002
 62
     3
370
    30
100
AcDbLine
 10
891.866967
 20
303.655706
 30
0.0
 11
891.866967
 21
292.995606
 31
0.0
  0
LINE
  5
545
330
1F
100
AcDbEntity
  8
002
 62
     3
370
    30
100
AcDbLine
 10
891.866967
 20
292.995606
 30
0.0
 11
816.866967
 21
292.995606
 31
0.0
  0
LINE
  5
546
330
1F
100
AcDbEntity
  8
002
 62
     3
370
    30
100
AcDbLine
 10
816.866967
 20
292.995606
 30
0.0
 11
816.866967
 21
302.995606
 31
0.0
  0
ARC
  5
547
330
1F
100
AcDbEntity
  8
002
 62
     3
370
    30
100
AcDbCircle
 10
819.866967
 20
302.995606
 30
0.0
 40
3.0
100
AcDbArc
 50
90.0
 51
180.0
  0
ARC
  5
548
330
1F
100
AcDbEntity
  8
002
 62
     3
370
    30
100
AcDbCircle
 10
815.366967
 20
306.964306
 30
0.0
 40
3.000057226120858
100
AcDbArc
 50
318.589139
 51
0.0
  0
LINE
  5
549
330
1F
100
AcDbEntity
  8
002
 62
     3
370
    30
100
AcDbLine
 10
829.366967
 20
303.995606
 30
0.0
 11
829.366967
 21
292.995606
 31
0.0
  0
LINE
  5
54A
330
1F
100
AcDbEntity
  8
002
 62
     3
370
    30
100
AcDbLine
 10
829.366967
 20
305.995606
 30
0.0
 11
840.366967
 21
303.995606
 31
0.0
  0
ARC
  5
54B
330
1F
100
AcDbEntity
  8
002
 62
     3
370
    30
100
AcDbCircle
 10
829.617967
 20
349.995606
 30
0.0
 40
6.555838012031709
100
AcDbArc
 50
242.875244
 51
280.68945
  0
ARC
  5
54C
330
1F
100
AcDbEntity
  8
002
 62
     3
370
    30
100
AcDbCircle
 10
815.366967
 20
347.027006
 30
0.0
 40
3.0
100
AcDbArc
 50
0.0
 51
41.409429
  0
ARC
  5
54D
330
1F
100
AcDbEntity
  8
002
 62
     3
370
    30
100
AcDbCircle
 10
896.866967
 20
303.655706
 30
0.0
 40
4.9999865039818
100
AcDbArc
 50
93.657965
 51
180.0
  0
LINE
  5
54E
330
1F
100
AcDbEntity
  8
002
  6
CENTER
 62
    40
370
     9
100
AcDbLine
 10
838.456967
 20
383.495606
 30
0.0
 11
838.456967
 21
370.995606
 31
0.0
  0
LINE
  5
54F
330
1F
100
AcDbEntity
  8
002
  6
CENTER
 62
    40
370
     9
100
AcDbLine
 10
829.617967
 20
383.495606
 30
0.0
 11
829.617967
 21
357.162006
 31
0.0
  0
LINE
  5
550
330
1F
100
AcDbEntity
  8
002
  6
CENTER
 62
    40
370
     9
100
AcDbLine
 10
809.250967
 20
332.995606
 30
0.0
 11
921.297967
 21
332.995606
 31
0.0
  0
LINE
  5
551
330
1F
100
AcDbEntity
  8
002
  6
CENTER
 62
    40
370
     9
100
AcDbLine
 10
900.366967
 20
358.254006
 30
0.0
 11
900.366967
 21
376.599606
 31
0.0
  0
LINE
  5
552
330
1F
100
AcDbEntity
  8
002
  6
CENTER
 62
    40
370
     9
100
AcDbLine
 10
886.366967
 20
381.556206
 30
0.0
 11
886.366967
 21
284.952506
 31
0.0
  0
LINE
  5
553
330
1F
100
AcDbEntity
  8
002
  6
CENTER
 62
    40
370
     9
100
AcDbLine
 10
879.114967
 20
357.162006
 30
0.0
 11
879.114967
 21
383.495606
 31
0.0
  0
LINE
  5
554
330
1F
100
AcDbEntity
  8
002
  6
CENTER
 62
    40
370
     9
100
AcDbLine
 10
870.276967
 20
383.495606
 30
0.0
 11
870.276967
 21
370.995606
 31
0.0
  0
LINE
  5
555
330
1F
100
AcDbEntity
  8
002
  6
HIDDEN
 62
    40
370
     9
100
AcDbLine
 10
859.866967
 20
302.995606
 30
0.0
 11
859.866967
 21
292.995606
 31
0.0
  0
LINE
  5
556
330
1F
100
AcDbEntity
  8
002
  6
HIDDEN
 62
    40
370
     9
100
AcDbLine
 10
848.866967
 20
292.995606
 30
0.0
 11
848.866967
 21
302.995606
 31
0.0
  0
LINE
  5
557
330
1F
100
AcDbEntity
  8
002
  6
HIDDEN
 62
    40
370
     9
100
AcDbLine
 10
847.732967
 20
302.995606
 30
0.0
 11
842.366967
 21
302.995606
 31
0.0
  0
LINE
  5
558
330
1F
100
AcDbEntity
  8
002
  6
HIDDEN
 62
    40
370
     9
100
AcDbLine
 10
860.999967
 20
302.995606
 30
0.0
 11
866.366967
 21
302.995606
 31
0.0
  0
LINE
  5
559
330
1F
100
AcDbEntity
  8
002
  6
HIDDEN
 62
    40
370
     9
100
AcDbLine
 10
866.366967
 20
302.995606
 30
0.0
 11
866.366967
 21
303.459706
 31
0.0
  0
LINE
  5
55A
330
1F
100
AcDbEntity
  8
002
  6
HIDDEN
 62
    40
370
     9
100
AcDbLine
 10
842.366967
 20
302.995606
 30
0.0
 11
842.366967
 21
303.459706
 31
0.0
  0
LINE
  5
55B
330
1F
100
AcDbEntity
  8
002
 62
     3
370
    30
100
AcDbLine
 10
848.366967
 20
72.995606
 30
0.0
 11
860.366967
 21
72.995606
 31
0.0
  0
POLYLINE
  5
55C
330
1F
100
AcDbEntity
  8
002
 62
     3
370
     9
100
AcDb2dPolyline
 66
     1
 10
0.0
 20
0.0
 30
0.0
  0
VERTEX
  5
55E
330
55C
100
AcDbEntity
  8
002
 62
     3
370
     9
100
AcDbVertex
100
AcDb2dVertex
 10
186.932267
 20
238.497987
 30
0.0
  0
VERTEX
  5
55F
330
55C
100
AcDbEntity
  8
002
 62
     3
370
     9
100
AcDbVertex
100
AcDb2dVertex
 10
185.265601
 20
241.386876
 30
0.0
  0
VERTEX
  5
560
330
55C
100
AcDbEntity
  8
002
 62
     3
370
     9
100
AcDbVertex
100
AcDb2dVertex
 10
183.598934
 20
243.609098
 30
0.0
  0
VERTEX
  5
561
330
55C
100
AcDbEntity
  8
002
 62
     3
370
     9
100
AcDbVertex
100
AcDb2dVertex
 10
181.932267
 20
244.497987
 30
0.0
  0
VERTEX
  5
562
330
55C
100
AcDbEntity
  8
002
 62
     3
370
     9
100
AcDbVertex
100
AcDb2dVertex
 10
180.265601
 20
243.609098
 30
0.0
  0
VERTEX
  5
563
330
55C
100
AcDbEntity
  8
002
 62
     3
370
     9
100
AcDbVertex
100
AcDb2dVertex
 10
178.598934
 20
241.386876
 30
0.0
  0
VERTEX
  5
564
330
55C
100
AcDbEntity
  8
002
 62
     3
370
     9
100
AcDbVertex
100
AcDb2dVertex
 10
176.932267
 20
238.497987
 30
0.0
  0
VERTEX
  5
565
330
55C
100
AcDbEntity
  8
002
 62
     3
370
     9
100
AcDbVertex
100
AcDb2dVertex
 10
175.265601
 20
235.609098
 30
0.0
  0
VERTEX
  5
566
330
55C
100
AcDbEntity
  8
002
 62
     3
370
     9
100
AcDbVertex
100
AcDb2dVertex
 10
173.598934
 20
233.386876
 30
0.0
  0
VERTEX
  5
567
330
55C
100
AcDbEntity
  8
002
 62
     3
370
     9
100
AcDbVertex
100
AcDb2dVertex
 10
171.932267
 20
232.497987
 30
0.0
  0
VERTEX
  5
568
330
55C
100
AcDbEntity
  8
002
 62
     3
370
     9
100
AcDbVertex
100
AcDb2dVertex
 10
170.265601
 20
233.386876
 30
0.0
  0
VERTEX
  5
569
330
55C
100
AcDbEntity
  8
002
 62
     3
370
     9
100
AcDbVertex
100
AcDb2dVertex
 10
168.598934
 20
235.609098
 30
0.0
  0
VERTEX
  5
56A
330
55C
100
AcDbEntity
  8
002
 62
     3
370
     9
100
AcDbVertex
100
AcDb2dVertex
 10
166.932267
 20
238.497987
 30
0.0
  0
SEQEND
  5
55D
330
55C
100
AcDbEntity
  8
002
370
     9
  0
POLYLINE
  5
56B
330
1F
100
AcDbEntity
  8
002
 62
     3
370
     9
100
AcDb2dPolyline
 66
     1
 10
0.0
 20
0.0
 30
0.0
  0
VERTEX
  5
56D
330
56B
100
AcDbEntity
  8
002
 62
     3
370
     9
100
AcDbVertex
100
AcDb2dVertex
 10
186.932267
 20
226.497987
 30
0.0
  0
VERTEX
  5
56E
330
56B
100
AcDbEntity
  8
002
 62
     3
370
     9
100
AcDbVertex
100
AcDb2dVertex
 10
185.265601
 20
229.386876
 30
0.0
  0
VERTEX
  5
56F
330
56B
100
AcDbEntity
  8
002
 62
     3
370
     9
100
AcDbVertex
100
AcDb2dVertex
 10
183.598934
 20
231.609098
 30
0.0
  0
VERTEX
  5
570
330
56B
100
AcDbEntity
  8
002
 62
     3
370
     9
100
AcDbVertex
100
AcDb2dVertex
 10
181.932267
 20
232.497987
 30
0.0
  0
VERTEX
  5
571
330
56B
100
AcDbEntity
  8
002
 62
     3
370
     9
100
AcDbVertex
100
AcDb2dVertex
 10
180.265601
 20
231.609098
 30
0.0
  0
VERTEX
  5
572
330
56B
100
AcDbEntity
  8
002
 62
     3
370
     9
100
AcDbVertex
100
AcDb2dVertex
 10
178.598934
 20
229.386876
 30
0.0
  0
VERTEX
  5
573
330
56B
100
AcDbEntity
  8
002
 62
     3
370
     9
100
AcDbVertex
100
AcDb2dVertex
 10
176.932267
 20
226.497987
 30
0.0
  0
VERTEX
  5
574
330
56B
100
AcDbEntity
  8
002
 62
     3
370
     9
100
AcDbVertex
100
AcDb2dVertex
 10
175.265601
 20
223.609098
 30
0.0
  0
VERTEX
  5
575
330
56B
100
AcDbEntity
  8
002
 62
     3
370
     9
100
AcDbVertex
100
AcDb2dVertex
 10
173.598934
 20
221.386876
 30
0.0
  0
VERTEX
  5
576
330
56B
100
AcDbEntity
  8
002
 62
     3
370
     9
100
AcDbVertex
100
AcDb2dVertex
 10
171.932267
 20
220.497987
 30
0.0
  0
VERTEX
  5
577
330
56B
100
AcDbEntity
  8
002
 62
     3
370
     9
100
AcDbVertex
100
AcDb2dVertex
 10
170.265601
 20
221.386876
 30
0.0
  0
VERTEX
  5
578
330
56B
100
AcDbEntity
  8
002
 62
     3
370
     9
100
AcDbVertex
100
AcDb2dVertex
 10
168.598934
 20
223.609098
 30
0.0
  0
VERTEX
  5
579
330
56B
100
AcDbEntity
  8
002
 62
     3
370
     9
100
AcDbVertex
100
AcDb2dVertex
 10
166.932267
 20
226.497987
 30
0.0
  0
SEQEND
  5
56C
330
56B
100
AcDbEntity
  8
002
370
     9
  0
LINE
  5
57A
330
1F
100
AcDbEntity
  8
002
 62
     3
370
    30
100
AcDbLine
 10
166.932267
 20
182.931485
 30
0.0
 11
166.932267
 21
226.497987
 31
0.0
  0
LINE
  5
57B
330
1F
100
AcDbEntity
  8
002
 62
     3
370
    30
100
AcDbLine
 10
166.932267
 20
238.497987
 30
0.0
 11
166.932267
 21
282.064489
 31
0.0
  0
LINE
  5
57C
330
1F
100
AcDbEntity
  8
002
 62
     3
370
    30
100
AcDbLine
 10
186.932267
 20
282.064489
 30
0.0
 11
186.932267
 21
238.497987
 31
0.0
  0
LINE
  5
57D
330
1F
100
AcDbEntity
  8
002
 62
     3
370
    30
100
AcDbLine
 10
186.932267
 20
226.497987
 30
0.0
 11
186.932267
 21
182.931485
 31
0.0
  0
LINE
  5
57E
330
1F
100
AcDbEntity
  8
002
 62
    40
370
     9
100
AcDbLine
 10
185.682267
 20
282.064489
 30
0.0
 11
185.682267
 21
240.701112
 31
0.0
  0
LINE
  5
57F
330
1F
100
AcDbEntity
  8
002
 62
    40
370
     9
100
AcDbLine
 10
185.682267
 20
228.701112
 30
0.0
 11
185.682267
 21
182.931485
 31
0.0
  0
LINE
  5
580
330
1F
100
AcDbEntity
  8
002
 62
    40
370
     9
100
AcDbLine
 10
168.182267
 20
182.931485
 30
0.0
 11
168.182267
 21
224.294862
 31
0.0
  0
LINE
  5
581
330
1F
100
AcDbEntity
  8
002
 62
    40
370
     9
100
AcDbLine
 10
168.182267
 20
236.294862
 30
0.0
 11
168.182267
 21
282.064489
 31
0.0
  0
POLYLINE
  5
582
330
1F
100
AcDbEntity
  8
002
 62
     3
370
     9
100
AcDb2dPolyline
 66
     1
 10
0.0
 20
0.0
 30
0.0
  0
VERTEX
  5
584
330
582
100
AcDbEntity
  8
002
 62
     3
370
     9
100
AcDbVertex
100
AcDb2dVertex
 10
378.864968
 20
238.497987
 30
0.0
  0
VERTEX
  5
585
330
582
100
AcDbEntity
  8
002
 62
     3
370
     9
100
AcDbVertex
100
AcDb2dVertex
 10
377.198301
 20
241.386876
 30
0.0
  0
VERTEX
  5
586
330
582
100
AcDbEntity
  8
002
 62
     3
370
     9
100
AcDbVertex
100
AcDb2dVertex
 10
375.531635
 20
243.609098
 30
0.0
  0
VERTEX
  5
587
330
582
100
AcDbEntity
  8
002
 62
     3
370
     9
100
AcDbVertex
100
AcDb2dVertex
 10
373.864968
 20
244.497987
 30
0.0
  0
VERTEX
  5
588
330
582
100
AcDbEntity
  8
002
 62
     3
370
     9
100
AcDbVertex
100
AcDb2dVertex
 10
372.198301
 20
243.609098
 30
0.0
  0
VERTEX
  5
589
330
582
100
AcDbEntity
  8
002
 62
     3
370
     9
100
AcDbVertex
100
AcDb2dVertex
 10
370.531635
 20
241.386876
 30
0.0
  0
VERTEX
  5
58A
330
582
100
AcDbEntity
  8
002
 62
     3
370
     9
100
AcDbVertex
100
AcDb2dVertex
 10
368.864968
 20
238.497987
 30
0.0
  0
VERTEX
  5
58B
330
582
100
AcDbEntity
  8
002
 62
     3
370
     9
100
AcDbVertex
100
AcDb2dVertex
 10
367.198301
 20
235.609098
 30
0.0
  0
VERTEX
  5
58C
330
582
100
AcDbEntity
  8
002
 62
     3
370
     9
100
AcDbVertex
100
AcDb2dVertex
 10
365.531635
 20
233.386876
 30
0.0
  0
VERTEX
  5
58D
330
582
100
AcDbEntity
  8
002
 62
     3
370
     9
100
AcDbVertex
100
AcDb2dVertex
 10
363.864968
 20
232.497987
 30
0.0
  0
VERTEX
  5
58E
330
582
100
AcDbEntity
  8
002
 62
     3
370
     9
100
AcDbVertex
100
AcDb2dVertex
 10
362.198301
 20
233.386876
 30
0.0
  0
VERTEX
  5
58F
330
582
100
AcDbEntity
  8
002
 62
     3
370
     9
100
AcDbVertex
100
AcDb2dVertex
 10
360.531635
 20
235.609098
 30
0.0
  0
VERTEX
  5
590
330
582
100
AcDbEntity
  8
002
 62
     3
370
     9
100
AcDbVertex
100
AcDb2dVertex
 10
358.864968
 20
238.497987
 30
0.0
  0
SEQEND
  5
583
330
582
100
AcDbEntity
  8
002
370
     9
  0
POLYLINE
  5
591
330
1F
100
AcDbEntity
  8
002
 62
     3
370
     9
100
AcDb2dPolyline
 66
     1
 10
0.0
 20
0.0
 30
0.0
  0
VERTEX
  5
593
330
591
100
AcDbEntity
  8
002
 62
     3
370
     9
100
AcDbVertex
100
AcDb2dVertex
 10
378.864968
 20
226.497987
 30
0.0
  0
VERTEX
  5
594
330
591
100
AcDbEntity
  8
002
 62
     3
370
     9
100
AcDbVertex
100
AcDb2dVertex
 10
377.198301
 20
229.386876
 30
0.0
  0
VERTEX
  5
595
330
591
100
AcDbEntity
  8
002
 62
     3
370
     9
100
AcDbVertex
100
AcDb2dVertex
 10
375.531635
 20
231.609098
 30
0.0
  0
VERTEX
  5
596
330
591
100
AcDbEntity
  8
002
 62
     3
370
     9
100
AcDbVertex
100
AcDb2dVertex
 10
373.864968
 20
232.497987
 30
0.0
  0
VERTEX
  5
597
330
591
100
AcDbEntity
  8
002
 62
     3
370
     9
100
AcDbVertex
100
AcDb2dVertex
 10
372.198301
 20
231.609098
 30
0.0
  0
VERTEX
  5
598
330
591
100
AcDbEntity
  8
002
 62
     3
370
     9
100
AcDbVertex
100
AcDb2dVertex
 10
370.531635
 20
229.386876
 30
0.0
  0
VERTEX
  5
599
330
591
100
AcDbEntity
  8
002
 62
     3
370
     9
100
AcDbVertex
100
AcDb2dVertex
 10
368.864968
 20
226.497987
 30
0.0
  0
VERTEX
  5
59A
330
591
100
AcDbEntity
  8
002
 62
     3
370
     9
100
AcDbVertex
100
AcDb2dVertex
 10
367.198301
 20
223.609098
 30
0.0
  0
VERTEX
  5
59B
330
591
100
AcDbEntity
  8
002
 62
     3
370
     9
100
AcDbVertex
100
AcDb2dVertex
 10
365.531635
 20
221.386876
 30
0.0
  0
VERTEX
  5
59C
330
591
100
AcDbEntity
  8
002
 62
     3
370
     9
100
AcDbVertex
100
AcDb2dVertex
 10
363.864968
 20
220.497987
 30
0.0
  0
VERTEX
  5
59D
330
591
100
AcDbEntity
  8
002
 62
     3
370
     9
100
AcDbVertex
100
AcDb2dVertex
 10
362.198301
 20
221.386876
 30
0.0
  0
VERTEX
  5
59E
330
591
100
AcDbEntity
  8
002
 62
     3
370
     9
100
AcDbVertex
100
AcDb2dVertex
 10
360.531635
 20
223.609098
 30
0.0
  0
VERTEX
  5
59F
330
591
100
AcDbEntity
  8
002
 62
     3
370
     9
100
AcDbVertex
100
AcDb2dVertex
 10
358.864968
 20
226.497987
 30
0.0
  0
SEQEND
  5
592
330
591
100
AcDbEntity
  8
002
370
     9
  0
LINE
  5
5A0
330
1F
100
AcDbEntity
  8
002
 62
    40
370
     9
100
AcDbLine
 10
377.614968
 20
282.064489
 30
0.0
 11
377.614968
 21
240.701112
 31
0.0
  0
LINE
  5
5A1
330
1F
100
AcDbEntity
  8
002
 62
    40
370
     9
100
AcDbLine
 10
377.614968
 20
228.701112
 30
0.0
 11
377.614968
 21
182.931485
 31
0.0
  0
LINE
  5
5A2
330
1F
100
AcDbEntity
  8
002
 62
    40
370
     9
100
AcDbLine
 10
360.114968
 20
182.931485
 30
0.0
 11
360.114968
 21
224.294862
 31
0.0
  0
LINE
  5
5A3
330
1F
100
AcDbEntity
  8
002
 62
    40
370
     9
100
AcDbLine
 10
360.114968
 20
236.294862
 30
0.0
 11
360.114968
 21
282.064489
 31
0.0
  0
LINE
  5
5A4
330
1F
100
AcDbEntity
  8
002
 62
     3
370
    30
100
AcDbLine
 10
358.864968
 20
182.931485
 30
0.0
 11
358.864968
 21
226.497987
 31
0.0
  0
LINE
  5
5A5
330
1F
100
AcDbEntity
  8
002
 62
     3
370
    30
100
AcDbLine
 10
358.864968
 20
238.497987
 30
0.0
 11
358.864968
 21
282.064489
 31
0.0
  0
LINE
  5
5A6
330
1F
100
AcDbEntity
  8
002
 62
     3
370
    30
100
AcDbLine
 10
378.864968
 20
282.064489
 30
0.0
 11
378.864968
 21
238.497987
 31
0.0
  0
LINE
  5
5A7
330
1F
100
AcDbEntity
  8
002
 62
     3
370
    30
100
AcDbLine
 10
378.864968
 20
226.497987
 30
0.0
 11
378.864968
 21
182.931485
 31
0.0
  0
POLYLINE
  5
5A8
330
1F
100
AcDbEntity
  8
002
 62
     3
370
     9
100
AcDb2dPolyline
 66
     1
 10
0.0
 20
0.0
 30
0.0
  0
VERTEX
  5
5AA
330
5A8
100
AcDbEntity
  8
002
 62
     3
370
     9
100
AcDbVertex
100
AcDb2dVertex
 10
548.053977
 20
238.497987
 30
0.0
  0
VERTEX
  5
5AB
330
5A8
100
AcDbEntity
  8
002
 62
     3
370
     9
100
AcDbVertex
100
AcDb2dVertex
 10
546.38731
 20
241.386876
 30
0.0
  0
VERTEX
  5
5AC
330
5A8
100
AcDbEntity
  8
002
 62
     3
370
     9
100
AcDbVertex
100
AcDb2dVertex
 10
544.720644
 20
243.609098
 30
0.0
  0
VERTEX
  5
5AD
330
5A8
100
AcDbEntity
  8
002
 62
     3
370
     9
100
AcDbVertex
100
AcDb2dVertex
 10
543.053977
 20
244.497987
 30
0.0
  0
VERTEX
  5
5AE
330
5A8
100
AcDbEntity
  8
002
 62
     3
370
     9
100
AcDbVertex
100
AcDb2dVertex
 10
541.38731
 20
243.609098
 30
0.0
  0
VERTEX
  5
5AF
330
5A8
100
AcDbEntity
  8
002
 62
     3
370
     9
100
AcDbVertex
100
AcDb2dVertex
 10
539.720644
 20
241.386876
 30
0.0
  0
VERTEX
  5
5B0
330
5A8
100
AcDbEntity
  8
002
 62
     3
370
     9
100
AcDbVertex
100
AcDb2dVertex
 10
538.053977
 20
238.497987
 30
0.0
  0
VERTEX
  5
5B1
330
5A8
100
AcDbEntity
  8
002
 62
     3
370
     9
100
AcDbVertex
100
AcDb2dVertex
 10
536.38731
 20
235.609098
 30
0.0
  0
VERTEX
  5
5B2
330
5A8
100
AcDbEntity
  8
002
 62
     3
370
     9
100
AcDbVertex
100
AcDb2dVertex
 10
534.720644
 20
233.386876
 30
0.0
  0
VERTEX
  5
5B3
330
5A8
100
AcDbEntity
  8
002
 62
     3
370
     9
100
AcDbVertex
100
AcDb2dVertex
 10
533.053977
 20
232.497987
 30
0.0
  0
VERTEX
  5
5B4
330
5A8
100
AcDbEntity
  8
002
 62
     3
370
     9
100
AcDbVertex
100
AcDb2dVertex
 10
531.38731
 20
233.386876
 30
0.0
  0
VERTEX
  5
5B5
330
5A8
100
AcDbEntity
  8
002
 62
     3
370
     9
100
AcDbVertex
100
AcDb2dVertex
 10
529.720644
 20
235.609098
 30
0.0
  0
VERTEX
  5
5B6
330
5A8
100
AcDbEntity
  8
002
 62
     3
370
     9
100
AcDbVertex
100
AcDb2dVertex
 10
528.053977
 20
238.497987
 30
0.0
  0
SEQEND
  5
5A9
330
5A8
100
AcDbEntity
  8
002
370
     9
  0
POLYLINE
  5
5B7
330
1F
100
AcDbEntity
  8
002
 62
     3
370
     9
100
AcDb2dPolyline
 66
     1
 10
0.0
 20
0.0
 30
0.0
  0
VERTEX
  5
5B9
330
5B7
100
AcDbEntity
  8
002
 62
     3
370
     9
100
AcDbVertex
100
AcDb2dVertex
 10
548.053977
 20
226.497987
 30
0.0
  0
VERTEX
  5
5BA
330
5B7
100
AcDbEntity
  8
002
 62
     3
370
     9
100
AcDbVertex
100
AcDb2dVertex
 10
546.38731
 20
229.386876
 30
0.0
  0
VERTEX
  5
5BB
330
5B7
100
AcDbEntity
  8
002
 62
     3
370
     9
100
AcDbVertex
100
AcDb2dVertex
 10
544.720644
 20
231.609098
 30
0.0
  0
VERTEX
  5
5BC
330
5B7
100
AcDbEntity
  8
002
 62
     3
370
     9
100
AcDbVertex
100
AcDb2dVertex
 10
543.053977
 20
232.497987
 30
0.0
  0
VERTEX
  5
5BD
330
5B7
100
AcDbEntity
  8
002
 62
     3
370
     9
100
AcDbVertex
100
AcDb2dVertex
 10
541.38731
 20
231.609098
 30
0.0
  0
VERTEX
  5
5BE
330
5B7
100
AcDbEntity
  8
002
 62
     3
370
     9
100
AcDbVertex
100
AcDb2dVertex
 10
539.720644
 20
229.386876
 30
0.0
  0
VERTEX
  5
5BF
330
5B7
100
AcDbEntity
  8
002
 62
     3
370
     9
100
AcDbVertex
100
AcDb2dVertex
 10
538.053977
 20
226.497987
 30
0.0
  0
VERTEX
  5
5C0
330
5B7
100
AcDbEntity
  8
002
 62
     3
370
     9
100
AcDbVertex
100
AcDb2dVertex
 10
536.38731
 20
223.609098
 30
0.0
  0
VERTEX
  5
5C1
330
5B7
100
AcDbEntity
  8
002
 62
     3
370
     9
100
AcDbVertex
100
AcDb2dVertex
 10
534.720644
 20
221.386876
 30
0.0
  0
VERTEX
  5
5C2
330
5B7
100
AcDbEntity
  8
002
 62
     3
370
     9
100
AcDbVertex
100
AcDb2dVertex
 10
533.053977
 20
220.497987
 30
0.0
  0
VERTEX
  5
5C3
330
5B7
100
AcDbEntity
  8
002
 62
     3
370
     9
100
AcDbVertex
100
AcDb2dVertex
 10
531.38731
 20
221.386876
 30
0.0
  0
VERTEX
  5
5C4
330
5B7
100
AcDbEntity
  8
002
 62
     3
370
     9
100
AcDbVertex
100
AcDb2dVertex
 10
529.720644
 20
223.609098
 30
0.0
  0
VERTEX
  5
5C5
330
5B7
100
AcDbEntity
  8
002
 62
     3
370
     9
100
AcDbVertex
100
AcDb2dVertex
 10
528.053977
 20
226.497987
 30
0.0
  0
SEQEND
  5
5B8
330
5B7
100
AcDbEntity
  8
002
370
     9
  0
LINE
  5
5C6
330
1F
100
AcDbEntity
  8
002
 62
    40
370
     9
100
AcDbLine
 10
546.803977
 20
282.064489
 30
0.0
 11
546.803977
 21
240.701112
 31
0.0
  0
LINE
  5
5C7
330
1F
100
AcDbEntity
  8
002
 62
    40
370
     9
100
AcDbLine
 10
546.803977
 20
228.701112
 30
0.0
 11
546.803977
 21
182.931485
 31
0.0
  0
LINE
  5
5C8
330
1F
100
AcDbEntity
  8
002
 62
    40
370
     9
100
AcDbLine
 10
529.303977
 20
182.931485
 30
0.0
 11
529.303977
 21
224.294862
 31
0.0
  0
LINE
  5
5C9
330
1F
100
AcDbEntity
  8
002
 62
    40
370
     9
100
AcDbLine
 10
529.303977
 20
236.294862
 30
0.0
 11
529.303977
 21
282.064489
 31
0.0
  0
LINE
  5
5CA
330
1F
100
AcDbEntity
  8
002
 62
     3
370
    30
100
AcDbLine
 10
528.053977
 20
182.931485
 30
0.0
 11
528.053977
 21
226.497987
 31
0.0
  0
LINE
  5
5CB
330
1F
100
AcDbEntity
  8
002
 62
     3
370
    30
100
AcDbLine
 10
528.053977
 20
238.497987
 30
0.0
 11
528.053977
 21
282.064489
 31
0.0
  0
LINE
  5
5CC
330
1F
100
AcDbEntity
  8
002
 62
     3
370
    30
100
AcDbLine
 10
548.053977
 20
282.064489
 30
0.0
 11
548.053977
 21
238.497987
 31
0.0
  0
LINE
  5
5CD
330
1F
100
AcDbEntity
  8
002
 62
     3
370
    30
100
AcDbLine
 10
548.053977
 20
226.497987
 30
0.0
 11
548.053977
 21
182.931485
 31
0.0
  0
POLYLINE
  5
5CE
330
1F
100
AcDbEntity
  8
002
 62
     3
370
     9
100
AcDb2dPolyline
 66
     1
 10
0.0
 20
0.0
 30
0.0
  0
VERTEX
  5
5D0
330
5CE
100
AcDbEntity
  8
002
 62
     3
370
     9
100
AcDbVertex
100
AcDb2dVertex
 10
712.319967
 20
261.939352
 30
0.0
  0
VERTEX
  5
5D1
330
5CE
100
AcDbEntity
  8
002
 62
     3
370
     9
100
AcDbVertex
100
AcDb2dVertex
 10
710.653301
 20
264.828241
 30
0.0
  0
VERTEX
  5
5D2
330
5CE
100
AcDbEntity
  8
002
 62
     3
370
     9
100
AcDbVertex
100
AcDb2dVertex
 10
708.986634
 20
267.050463
 30
0.0
  0
VERTEX
  5
5D3
330
5CE
100
AcDbEntity
  8
002
 62
     3
370
     9
100
AcDbVertex
100
AcDb2dVertex
 10
707.319967
 20
267.939352
 30
0.0
  0
VERTEX
  5
5D4
330
5CE
100
AcDbEntity
  8
002
 62
     3
370
     9
100
AcDbVertex
100
AcDb2dVertex
 10
705.653301
 20
267.050463
 30
0.0
  0
VERTEX
  5
5D5
330
5CE
100
AcDbEntity
  8
002
 62
     3
370
     9
100
AcDbVertex
100
AcDb2dVertex
 10
703.986634
 20
264.828241
 30
0.0
  0
VERTEX
  5
5D6
330
5CE
100
AcDbEntity
  8
002
 62
     3
370
     9
100
AcDbVertex
100
AcDb2dVertex
 10
702.319967
 20
261.939352
 30
0.0
  0
VERTEX
  5
5D7
330
5CE
100
AcDbEntity
  8
002
 62
     3
370
     9
100
AcDbVertex
100
AcDb2dVertex
 10
700.653301
 20
259.050463
 30
0.0
  0
VERTEX
  5
5D8
330
5CE
100
AcDbEntity
  8
002
 62
     3
370
     9
100
AcDbVertex
100
AcDb2dVertex
 10
698.986634
 20
256.828241
 30
0.0
  0
VERTEX
  5
5D9
330
5CE
100
AcDbEntity
  8
002
 62
     3
370
     9
100
AcDbVertex
100
AcDb2dVertex
 10
697.319967
 20
255.939352
 30
0.0
  0
VERTEX
  5
5DA
330
5CE
100
AcDbEntity
  8
002
 62
     3
370
     9
100
AcDbVertex
100
AcDb2dVertex
 10
695.653301
 20
256.828241
 30
0.0
  0
VERTEX
  5
5DB
330
5CE
100
AcDbEntity
  8
002
 62
     3
370
     9
100
AcDbVertex
100
AcDb2dVertex
 10
693.986634
 20
259.050463
 30
0.0
  0
VERTEX
  5
5DC
330
5CE
100
AcDbEntity
  8
002
 62
     3
370
     9
100
AcDbVertex
100
AcDb2dVertex
 10
692.319967
 20
261.939352
 30
0.0
  0
SEQEND
  5
5CF
330
5CE
100
AcDbEntity
  8
002
370
     9
  0
POLYLINE
  5
5DD
330
1F
100
AcDbEntity
  8
002
 62
     3
370
     9
100
AcDb2dPolyline
 66
     1
 10
0.0
 20
0.0
 30
0.0
  0
VERTEX
  5
5DF
330
5DD
100
AcDbEntity
  8
002
 62
     3
370
     9
100
AcDbVertex
100
AcDb2dVertex
 10
712.319967
 20
249.939352
 30
0.0
  0
VERTEX
  5
5E0
330
5DD
100
AcDbEntity
  8
002
 62
     3
370
     9
100
AcDbVertex
100
AcDb2dVertex
 10
710.653301
 20
252.828241
 30
0.0
  0
VERTEX
  5
5E1
330
5DD
100
AcDbEntity
  8
002
 62
     3
370
     9
100
AcDbVertex
100
AcDb2dVertex
 10
708.986634
 20
255.050463
 30
0.0
  0
VERTEX
  5
5E2
330
5DD
100
AcDbEntity
  8
002
 62
     3
370
     9
100
AcDbVertex
100
AcDb2dVertex
 10
707.319967
 20
255.939352
 30
0.0
  0
VERTEX
  5
5E3
330
5DD
100
AcDbEntity
  8
002
 62
     3
370
     9
100
AcDbVertex
100
AcDb2dVertex
 10
705.653301
 20
255.050463
 30
0.0
  0
VERTEX
  5
5E4
330
5DD
100
AcDbEntity
  8
002
 62
     3
370
     9
100
AcDbVertex
100
AcDb2dVertex
 10
703.986634
 20
252.828241
 30
0.0
  0
VERTEX
  5
5E5
330
5DD
100
AcDbEntity
  8
002
 62
     3
370
     9
100
AcDbVertex
100
AcDb2dVertex
 10
702.319967
 20
249.939352
 30
0.0
  0
VERTEX
  5
5E6
330
5DD
100
AcDbEntity
  8
002
 62
     3
370
     9
100
AcDbVertex
100
AcDb2dVertex
 10
700.653301
 20
247.050463
 30
0.0
  0
VERTEX
  5
5E7
330
5DD
100
AcDbEntity
  8
002
 62
     3
370
     9
100
AcDbVertex
100
AcDb2dVertex
 10
698.986634
 20
244.828241
 30
0.0
  0
VERTEX
  5
5E8
330
5DD
100
AcDbEntity
  8
002
 62
     3
370
     9
100
AcDbVertex
100
AcDb2dVertex
 10
697.319967
 20
243.939352
 30
0.0
  0
VERTEX
  5
5E9
330
5DD
100
AcDbEntity
  8
002
 62
     3
370
     9
100
AcDbVertex
100
AcDb2dVertex
 10
695.653301
 20
244.828241
 30
0.0
  0
VERTEX
  5
5EA
330
5DD
100
AcDbEntity
  8
002
 62
     3
370
     9
100
AcDbVertex
100
AcDb2dVertex
 10
693.986634
 20
247.050463
 30
0.0
  0
VERTEX
  5
5EB
330
5DD
100
AcDbEntity
  8
002
 62
     3
370
     9
100
AcDbVertex
100
AcDb2dVertex
 10
692.319967
 20
249.939352
 30
0.0
  0
SEQEND
  5
5DE
330
5DD
100
AcDbEntity
  8
002
370
     9
  0
LINE
  5
5EC
330
1F
100
AcDbEntity
  8
002
 62
     3
370
    30
100
AcDbLine
 10
692.319967
 20
218.883098
 30
0.0
 11
692.319967
 21
249.939352
 31
0.0
  0
LINE
  5
5ED
330
1F
100
AcDbEntity
  8
002
 62
     3
370
    30
100
AcDbLine
 10
692.319967
 20
261.939352
 30
0.0
 11
692.319967
 21
292.995606
 31
0.0
  0
LINE
  5
5EE
330
1F
100
AcDbEntity
  8
002
 62
     3
370
    30
100
AcDbLine
 10
712.319967
 20
292.995606
 30
0.0
 11
712.319967
 21
261.939352
 31
0.0
  0
LINE
  5
5EF
330
1F
100
AcDbEntity
  8
002
 62
     3
370
    30
100
AcDbLine
 10
712.319967
 20
249.939352
 30
0.0
 11
712.319967
 21
218.883098
 31
0.0
  0
LINE
  5
5F0
330
1F
100
AcDbEntity
  8
002
 62
    40
370
     9
100
AcDbLine
 10
711.069967
 20
292.995606
 30
0.0
 11
711.069967
 21
264.142477
 31
0.0
  0
LINE
  5
5F1
330
1F
100
AcDbEntity
  8
002
 62
    40
370
     9
100
AcDbLine
 10
711.069967
 20
252.142477
 30
0.0
 11
711.069967
 21
218.883098
 31
0.0
  0
LINE
  5
5F2
330
1F
100
AcDbEntity
  8
002
 62
    40
370
     9
100
AcDbLine
 10
693.569967
 20
218.883098
 30
0.0
 11
693.569967
 21
247.736227
 31
0.0
  0
LINE
  5
5F3
330
1F
100
AcDbEntity
  8
002
 62
    40
370
     9
100
AcDbLine
 10
693.569967
 20
259.736227
 30
0.0
 11
693.569967
 21
292.995606
 31
0.0
  0
POLYLINE
  5
5F4
330
1F
100
AcDbEntity
  8
002
 62
     3
370
     9
100
AcDb2dPolyline
 66
     1
 10
0.0
 20
0.0
 30
0.0
  0
VERTEX
  5
5F6
330
5F4
100
AcDbEntity
  8
002
 62
     3
370
     9
100
AcDbVertex
100
AcDb2dVertex
 10
864.366967
 20
261.939352
 30
0.0
  0
VERTEX
  5
5F7
330
5F4
100
AcDbEntity
  8
002
 62
     3
370
     9
100
AcDbVertex
100
AcDb2dVertex
 10
862.700301
 20
264.828241
 30
0.0
  0
VERTEX
  5
5F8
330
5F4
100
AcDbEntity
  8
002
 62
     3
370
     9
100
AcDbVertex
100
AcDb2dVertex
 10
861.033634
 20
267.050463
 30
0.0
  0
VERTEX
  5
5F9
330
5F4
100
AcDbEntity
  8
002
 62
     3
370
     9
100
AcDbVertex
100
AcDb2dVertex
 10
859.366967
 20
267.939352
 30
0.0
  0
VERTEX
  5
5FA
330
5F4
100
AcDbEntity
  8
002
 62
     3
370
     9
100
AcDbVertex
100
AcDb2dVertex
 10
857.700301
 20
267.050463
 30
0.0
  0
VERTEX
  5
5FB
330
5F4
100
AcDbEntity
  8
002
 62
     3
370
     9
100
AcDbVertex
100
AcDb2dVertex
 10
856.033634
 20
264.828241
 30
0.0
  0
VERTEX
  5
5FC
330
5F4
100
AcDbEntity
  8
002
 62
     3
370
     9
100
AcDbVertex
100
AcDb2dVertex
 10
854.366967
 20
261.939352
 30
0.0
  0
VERTEX
  5
5FD
330
5F4
100
AcDbEntity
  8
002
 62
     3
370
     9
100
AcDbVertex
100
AcDb2dVertex
 10
852.700301
 20
259.050463
 30
0.0
  0
VERTEX
  5
5FE
330
5F4
100
AcDbEntity
  8
002
 62
     3
370
     9
100
AcDbVertex
100
AcDb2dVertex
 10
851.033634
 20
256.828241
 30
0.0
  0
VERTEX
  5
5FF
330
5F4
100
AcDbEntity
  8
002
 62
     3
370
     9
100
AcDbVertex
100
AcDb2dVertex
 10
849.366967
 20
255.939352
 30
0.0
  0
VERTEX
  5
600
330
5F4
100
AcDbEntity
  8
002
 62
     3
370
     9
100
AcDbVertex
100
AcDb2dVertex
 10
847.700301
 20
256.828241
 30
0.0
  0
VERTEX
  5
601
330
5F4
100
AcDbEntity
  8
002
 62
     3
370
     9
100
AcDbVertex
100
AcDb2dVertex
 10
846.033634
 20
259.050463
 30
0.0
  0
VERTEX
  5
602
330
5F4
100
AcDbEntity
  8
002
 62
     3
370
     9
100
AcDbVertex
100
AcDb2dVertex
 10
844.366967
 20
261.939352
 30
0.0
  0
SEQEND
  5
5F5
330
5F4
100
AcDbEntity
  8
002
370
     9
  0
POLYLINE
  5
603
330
1F
100
AcDbEntity
  8
002
 62
     3
370
     9
100
AcDb2dPolyline
 66
     1
 10
0.0
 20
0.0
 30
0.0
  0
VERTEX
  5
605
330
603
100
AcDbEntity
  8
002
 62
     3
370
     9
100
AcDbVertex
100
AcDb2dVertex
 10
864.366967
 20
249.939352
 30
0.0
  0
VERTEX
  5
606
330
603
100
AcDbEntity
  8
002
 62
     3
370
     9
100
AcDbVertex
100
AcDb2dVertex
 10
862.700301
 20
252.828241
 30
0.0
  0
VERTEX
  5
607
330
603
100
AcDbEntity
  8
002
 62
     3
370
     9
100
AcDbVertex
100
AcDb2dVertex
 10
861.033634
 20
255.050463
 30
0.0
  0
VERTEX
  5
608
330
603
100
AcDbEntity
  8
002
 62
     3
370
     9
100
AcDbVertex
100
AcDb2dVertex
 10
859.366967
 20
255.939352
 30
0.0
  0
VERTEX
  5
609
330
603
100
AcDbEntity
  8
002
 62
     3
370
     9
100
AcDbVertex
100
AcDb2dVertex
 10
857.700301
 20
255.050463
 30
0.0
  0
VERTEX
  5
60A
330
603
100
AcDbEntity
  8
002
 62
     3
370
     9
100
AcDbVertex
100
AcDb2dVertex
 10
856.033634
 20
252.828241
 30
0.0
  0
VERTEX
  5
60B
330
603
100
AcDbEntity
  8
002
 62
     3
370
     9
100
AcDbVertex
100
AcDb2dVertex
 10
854.366967
 20
249.939352
 30
0.0
  0
VERTEX
  5
60C
330
603
100
AcDbEntity
  8
002
 62
     3
370
     9
100
AcDbVertex
100
AcDb2dVertex
 10
852.700301
 20
247.050463
 30
0.0
  0
VERTEX
  5
60D
330
603
100
AcDbEntity
  8
002
 62
     3
370
     9
100
AcDbVertex
100
AcDb2dVertex
 10
851.033634
 20
244.828241
 30
0.0
  0
VERTEX
  5
60E
330
603
100
AcDbEntity
  8
002
 62
     3
370
     9
100
AcDbVertex
100
AcDb2dVertex
 10
849.366967
 20
243.939352
 30
0.0
  0
VERTEX
  5
60F
330
603
100
AcDbEntity
  8
002
 62
     3
370
     9
100
AcDbVertex
100
AcDb2dVertex
 10
847.700301
 20
244.828241
 30
0.0
  0
VERTEX
  5
610
330
603
100
AcDbEntity
  8
002
 62
     3
370
     9
100
AcDbVertex
100
AcDb2dVertex
 10
846.033634
 20
247.050463
 30
0.0
  0
VERTEX
  5
611
330
603
100
AcDbEntity
  8
002
 62
     3
370
     9
100
AcDbVertex
100
AcDb2dVertex
 10
844.366967
 20
249.939352
 30
0.0
  0
SEQEND
  5
604
330
603
100
AcDbEntity
  8
002
370
     9
  0
LINE
  5
612
330
1F
100
AcDbEntity
  8
002
 62
    40
370
     9
100
AcDbLine
 10
863.116967
 20
292.995606
 30
0.0
 11
863.116967
 21
264.142477
 31
0.0
  0
LINE
  5
613
330
1F
100
AcDbEntity
  8
002
 62
    40
370
     9
100
AcDbLine
 10
863.116967
 20
252.142477
 30
0.0
 11
863.116967
 21
218.883098
 31
0.0
  0
LINE
  5
614
330
1F
100
AcDbEntity
  8
002
 62
    40
370
     9
100
AcDbLine
 10
845.616967
 20
218.883098
 30
0.0
 11
845.616967
 21
247.736227
 31
0.0
  0
LINE
  5
615
330
1F
100
AcDbEntity
  8
002
 62
    40
370
     9
100
AcDbLine
 10
845.616967
 20
259.736227
 30
0.0
 11
845.616967
 21
292.995606
 31
0.0
  0
LINE
  5
616
330
1F
100
AcDbEntity
  8
002
 62
     3
370
    30
100
AcDbLine
 10
844.366967
 20
218.883098
 30
0.0
 11
844.366967
 21
249.939352
 31
0.0
  0
LINE
  5
617
330
1F
100
AcDbEntity
  8
002
 62
     3
370
    30
100
AcDbLine
 10
844.366967
 20
261.939352
 30
0.0
 11
844.366967
 21
292.995606
 31
0.0
  0
LINE
  5
618
330
1F
100
AcDbEntity
  8
002
 62
     3
370
    30
100
AcDbLine
 10
864.366967
 20
292.995606
 30
0.0
 11
864.366967
 21
261.939352
 31
0.0
  0
LINE
  5
619
330
1F
100
AcDbEntity
  8
002
 62
     3
370
    30
100
AcDbLine
 10
864.366967
 20
249.939352
 30
0.0
 11
864.366967
 21
218.883098
 31
0.0
  0
LINE
  5
61A
330
1F
100
AcDbEntity
  8
002
  6
CENTER
 62
    40
370
     9
100
AcDbLine
 10
854.366967
 20
67.039006
 30
0.0
 11
854.366967
 21
412.100006
 31
0.0
  0
LINE
  5
61B
330
1F
100
AcDbEntity
  8
002
  6
CENTER
 62
    40
370
     9
100
AcDbLine
 10
702.319967
 20
67.039006
 30
0.0
 11
702.319967
 21
412.100006
 31
0.0
  0
LINE
  5
61C
330
1F
100
AcDbEntity
  8
003
  6
CENTER
 62
    40
370
     9
100
AcDbLine
 10
368.864968
 20
61.727784
 30
0.0
 11
368.864968
 21
409.984358
 31
0.0
  0
LINE
  5
61D
330
1F
100
AcDbEntity
  8
002
  6
CENTER
 62
    40
370
     9
100
AcDbLine
 10
538.053977
 20
61.727784
 30
0.0
 11
538.053977
 21
407.381829
 31
0.0
  0
LINE
  5
61E
330
1F
100
AcDbEntity
  8
002
  6
CENTER
 62
    40
370
     9
100
AcDbLine
 10
176.932267
 20
62.750977
 30
0.0
 11
176.932267
 21
407.381829
 31
0.0
  0
ENDSEC
  0
SECTION
  2
OBJECTS
  0
DICTIONARY
  5
C
330
0
100
AcDbDictionary
281
     1
  3
ACAD_GROUP
350
D
  3
ACAD_LAYOUT
350
1A
  3
ACAD_MLEADERSTYLE
350
621
  3
ACAD_MLINESTYLE
350
17
  3
ACAD_PLOTSETTINGS
350
19
  3
ACAD_PLOTSTYLENAME
350
E
  3
ACAD_VISUALSTYLE
350
2A
  3
AcDbVariableDictionary
350
61F
  0
DICTIONARY
  5
D
102
{ACAD_REACTORS
330
C
102
}
330
C
100
AcDbDictionary
281
     1
  0
DICTIONARY
  5
1A
102
{ACAD_REACTORS
330
C
102
}
330
C
100
AcDbDictionary
281
     1
  3
Layout1
350
1E
  3
Layout2
350
26
  3
Model
350
22
  0
DICTIONARY
  5
621
102
{ACAD_REACTORS
330
C
102
}
330
C
100
AcDbDictionary
281
     1
  0
DICTIONARY
  5
17
102
{ACAD_REACTORS
330
C
102
}
330
C
100
AcDbDictionary
281
     1
  3
Standard
350
18
  0
DICTIONARY
  5
19
102
{ACAD_REACTORS
330
C
102
}
330
C
100
AcDbDictionary
281
     1
  0
ACDBDICTIONARYWDFLT
  5
E
102
{ACAD_REACTORS
330
C
102
}
330
C
100
AcDbDictionary
281
     1
  3
Normal
350
F
100
AcDbDictionaryWithDefault
340
F
  0
DICTIONARY
  5
2A
102
{ACAD_REACTORS
330
C
102
}
330
C
100
AcDbDictionary
281
     1
  3
2dWireframe
350
2F
  3
3D Hidden
350
31
  3
3dWireframe
350
30
  3
Basic
350
32
  3
Brighten
350
36
  3
ColorChange
350
3A
  3
Conceptual
350
34
  3
Dim
350
35
  3
Facepattern
350
39
  3
Flat
350
2B
  3
FlatWithEdges
350
2C
  3
Gouraud
350
2D
  3
GouraudWithEdges
350
2E
  3
Linepattern
350
38
  3
Realistic
350
33
  3
Thicken
350
37
  0
DICTIONARY
  5
61F
102
{ACAD_REACTORS
330
C
102
}
330
C
100
AcDbDictionary
281
     1
  3
PSOLHEIGHT
350
623
  3
PSOLWIDTH
350
622
  0
LAYOUT
  5
1E
102
{ACAD_REACTORS
330
1A
102
}
330
1A
100
AcDbPlotSettings
  1

  2
none_device
  4

  6

 40
0.0
 41
0.0
 42
0.0
 43
0.0
 44
0.0
 45
0.0
 46
0.0
 47
0.0
 48
0.0
 49
0.0
140
0.0
141
0.0
142
1.0
143
1.0
 70
   688
 72
     0
 73
     0
 74
     5
  7

 75
    16
147
1.0
148
0.0
149
0.0
100
AcDbLayout
  1
Layout1
 70
     1
 71
     1
 10
0.0
 20
0.0
 11
12.0
 21
9.0
 12
0.0
 22
0.0
 32
0.0
 14
1.000000E+20
 24
1.000000E+20
 34
0.0
 15
-1.000000E+20
 25
-1.000000E+20
 35
0.0
146
0.0
 13
0.0
 23
0.0
 33
0.0
 16
1.0
 26
0.0
 36
0.0
 17
0.0
 27
1.0
 37
0.0
 76
     0
330
1B
  0
LAYOUT
  5
26
102
{ACAD_REACTORS
330
1A
102
}
330
1A
100
AcDbPlotSettings
  1

  2
none_device
  4

  6

 40
0.0
 41
0.0
 42
0.0
 43
0.0
 44
0.0
 45
0.0
 46
0.0
 47
0.0
 48
0.0
 49
0.0
140
0.0
141
0.0
142
1.0
143
1.0
 70
   688
 72
     0
 73
     0
 74
     5
  7

 75
    16
147
1.0
148
0.0
149
0.0
100
AcDbLayout
  1
Layout2
 70
     1
 71
     2
 10
0.0
 20
0.0
 11
0.0
 21
0.0
 12
0.0
 22
0.0
 32
0.0
 14
0.0
 24
0.0
 34
0.0
 15
0.0
 25
0.0
 35
0.0
146
0.0
 13
0.0
 23
0.0
 33
0.0
 16
1.0
 26
0.0
 36
0.0
 17
0.0
 27
1.0
 37
0.0
 76
     0
330
23
  0
LAYOUT
  5
22
102
{ACAD_REACTORS
330
1A
102
}
330
1A
100
AcDbPlotSettings
  1

  2
none_device
  4

  6

 40
0.0
 41
0.0
 42
0.0
 43
0.0
 44
0.0
 45
0.0
 46
0.0
 47
0.0
 48
0.0
 49
0.0
140
0.0
141
0.0
142
1.0
143
1.0
 70
  1712
 72
     0
 73
     0
 74
     0
  7

 75
     0
147
1.0
148
0.0
149
0.0
100
AcDbLayout
  1
Model
 70
     1
 71
     0
 10
0.0
 20
0.0
 11
12.0
 21
9.0
 12
0.0
 22
0.0
 32
0.0
 14
128.289551
 24
61.727783
 34
0.0
 15
921.297974
 25
959.279602
 35
0.0
146
0.0
 13
0.0
 23
0.0
 33
0.0
 16
1.0
 26
0.0
 36
0.0
 17
0.0
 27
1.0
 37
0.0
 76
     0
330
1F
331
29
  0
MLINESTYLE
  5
18
102
{ACAD_REACTORS
330
17
102
}
330
17
100
AcDbMlineStyle
  2
Standard
 70
     0
  3

 62
   256
 51
90.0
 52
90.0
 71
     2
 49
0.5
 62
   256
  6
BYLAYER
 49
-0.5
 62
   256
  6
BYLAYER
  0
ACDBPLACEHOLDER
  5
F
102
{ACAD_REACTORS
330
E
102
}
330
E
  0
VISUALSTYLE
  5
2F
102
{ACAD_REACTORS
330
2A
102
}
330
2A
100
AcDbVisualStyle
  2
2dWireframe
 70
     4
 71
     0
 72
     2
 73
     0
 90
        0
 40
-0.6
 41
-30.0
 62
     5
 63
     7
 74
     1
 91
        4
 64
     7
 65
   257
 75
     1
175
     1
 42
1.0
 92
        0
 66
   257
 43
1.0
 76
     1
 77
     6
 78
     2
 67
     7
 79
     5
170
     0
171
     0
290
     0
174
     0
 93
        1
 44
0.0
173
     0
291
     0
 45
0.0
1001
ACAD
1000
AcDbSavedByObjectVersion
1070
     0
  0
VISUALSTYLE
  5
31
102
{ACAD_REACTORS
330
2A
102
}
330
2A
100
AcDbVisualStyle
  2
3D Hidden
 70
     6
 71
     1
 72
     2
 73
     2
 90
        0
 40
-0.6
 41
-30.0
 62
     5
 63
     7
 74
     2
 91
        2
 64
     7
 65
   257
 75
     2
175
     1
 42
40.0
 92
        0
 66
   257
 43
1.0
 76
     1
 77
     6
 78
     2
 67
     7
 79
     3
170
     0
171
     0
290
     0
174
     0
 93
        1
 44
0.0
173
     0
291
     0
 45
0.0
1001
ACAD
1000
AcDbSavedByObjectVersion
1070
     0
  0
VISUALSTYLE
  5
30
102
{ACAD_REACTORS
330
2A
102
}
330
2A
100
AcDbVisualStyle
  2
3dWireframe
 70
     5
 71
     0
 72
     2
 73
     0
 90
        0
 40
-0.6
 41
-30.0
 62
     5
 63
     7
 74
     1
 91
        4
 64
     7
 65
   257
 75
     1
175
     1
 42
1.0
 92
        0
 66
   257
 43
1.0
 76
     1
 77
     6
 78
     2
 67
     7
 79
     5
170
     0
171
     0
290
     0
174
     0
 93
        1
 44
0.0
173
     0
291
     0
 45
0.0
1001
ACAD
1000
AcDbSavedByObjectVersion
1070
     0
  0
VISUALSTYLE
  5
32
102
{ACAD_REACTORS
330
2A
102
}
330
2A
100
AcDbVisualStyle
  2
Basic
 70
     7
 71
     1
 72
     0
 73
     1
 90
        0
 40
-0.6
 41
-30.0
 62
     5
 63
     7
 74
     0
 91
        4
 64
     7
 65
   257
 75
     1
175
     1
 42
1.0
 92
        8
 66
     7
 43
1.0
 76
     1
 77
     6
 78
     2
 67
     7
 79
     5
170
     0
171
     0
290
     0
174
     0
 93
        1
 44
0.0
173
     0
291
     1
 45
0.0
1001
ACAD
1000
AcDbSavedByObjectVersion
1070
     0
  0
VISUALSTYLE
  5
36
102
{ACAD_REACTORS
330
2A
102
}
330
2A
100
AcDbVisualStyle
  2
Brighten
 70
    12
 71
     2
 72
     2
 73
     0
 90
        0
 40
-0.6
 41
-30.0
 62
     5
 63
     7
 74
     1
 91
        4
 64
     7
 65
   257
 75
     1
175
     1
 42
1.0
 92
        8
 66
     7
 43
1.0
 76
     1
 77
     6
 78
     2
 67
     7
 79
     5
170
     0
171
     0
290
     0
174
     0
 93
        1
 44
50.0
173
     0
291
     1
 45
0.0
1001
ACAD
1000
AcDbSavedByObjectVersion
1070
     0
  0
VISUALSTYLE
  5
3A
102
{ACAD_REACTORS
330
2A
102
}
330
2A
100
AcDbVisualStyle
  2
ColorChange
 70
    16
 71
     2
 72
     2
 73
     3
 90
        0
 40
-0.6
 41
-30.0
 62
     5
 63
     8
 74
     1
 91
        4
 64
     7
 65
   257
 75
     1
175
     1
 42
1.0
 92
        8
 66
     8
 43
1.0
 76
     1
 77
     6
 78
     2
 67
     7
 79
     5
170
     0
171
     0
290
     0
174
     0
 93
        1
 44
0.0
173
     0
291
     1
 45
0.0
1001
ACAD
1000
AcDbSavedByObjectVersion
1070
     0
  0
VISUALSTYLE
  5
34
102
{ACAD_REACTORS
330
2A
102
}
330
2A
100
AcDbVisualStyle
  2
Conceptual
 70
     9
 71
     3
 72
     2
 73
     0
 90
        0
 40
-0.6
 41
-30.0
 62
     5
 63
     7
 74
     2
 91
        2
 64
     7
 65
   257
 75
     1
175
     1
 42
40.0
 92
        8
 66
     7
 43
1.0
 76
     1
 77
     6
 78
     2
 67
     7
 79
     3
170
     0
171
     0
290
     0
174
     0
 93
        1
 44
0.0
173
     0
291
     0
 45
0.0
1001
ACAD
1000
AcDbSavedByObjectVersion
1070
     0
  0
VISUALSTYLE
  5
35
102
{ACAD_REACTORS
330
2A
102
}
330
2A
100
AcDbVisualStyle
  2
Dim
 70
    11
 71
     2
 72
     2
 73
     0
 90
        0
 40
-0.6
 41
-30.0
 62
     5
 63
     7
 74
     1
 91
        4
 64
     7
 65
   257
 75
     1
175
     1
 42
1.0
 92
        8
 66
     7
 43
1.0
 76
     1
 77
     6
 78
     2
 67
     7
 79
     5
170
     0
171
     0
290
     0
174
     0
 93
        1
 44
-50.0
173
     0
291
     1
 45
0.0
1001
ACAD
1000
AcDbSavedByObjectVersion
1070
     0
  0
VISUALSTYLE
  5
39
102
{ACAD_REACTORS
330
2A
102
}
330
2A
100
AcDbVisualStyle
  2
Facepattern
 70
    15
 71
     2
 72
     2
 73
     0
 90
        0
 40
-0.6
 41
-30.0
 62
     5
 63
     7
 74
     1
 91
        4
 64
     7
 65
   257
 75
     1
175
     1
 42
1.0
 92
        8
 66
     7
 43
1.0
 76
     1
 77
     6
 78
     2
 67
     7
 79
     5
170
     0
171
     0
290
     0
174
     0
 93
        1
 44
0.0
173
     0
291
     1
 45
0.0
1001
ACAD
1000
AcDbSavedByObjectVersion
1070
     0
  0
VISUALSTYLE
  5
2B
102
{ACAD_REACTORS
330
2A
102
}
330
2A
100
AcDbVisualStyle
  2
Flat
 70
     0
 71
     2
 72
     1
 73
     1
 90
        2
 40
-0.6
 41
30.0
 62
     5
 63
     7
 74
     0
 91
        4
 64
     7
 65
   257
 75
     1
175
     1
 42
1.0
 92
        8
 66
     7
 43
1.0
 76
     1
 77
     6
 78
     2
 67
     7
 79
     5
170
     0
171
     0
290
     0
174
     0
 93
       13
 44
0.0
173
     0
291
     1
 45
0.0
1001
ACAD
1000
AcDbSavedByObjectVersion
1070
     0
  0
VISUALSTYLE
  5
2C
102
{ACAD_REACTORS
330
2A
102
}
330
2A
100
AcDbVisualStyle
  2
FlatWithEdges
 70
     1
 71
     2
 72
     1
 73
     1
 90
        2
 40
-0.6
 41
30.0
 62
     5
 63
     7
 74
     1
 91
        4
 64
     7
 65
   257
 75
     1
175
     1
 42
1.0
 92
        0
 66
   257
 43
1.0
 76
     1
 77
     6
 78
     2
 67
     7
 79
     5
170
     0
171
     0
290
     0
174
     0
 93
       13
 44
0.0
173
     0
291
     1
 45
0.0
1001
ACAD
1000
AcDbSavedByObjectVersion
1070
     0
  0
VISUALSTYLE
  5
2D
102
{ACAD_REACTORS
330
2A
102
}
330
2A
100
AcDbVisualStyle
  2
Gouraud
 70
     2
 71
     2
 72
     2
 73
     1
 90
        2
 40
-0.6
 41
30.0
 62
     5
 63
     7
 74
     0
 91
        4
 64
     7
 65
   257
 75
     1
175
     1
 42
1.0
 92
        0
 66
     7
 43
1.0
 76
     1
 77
     6
 78
     2
 67
     7
 79
     5
170
     0
171
     0
290
     0
174
     0
 93
       13
 44
0.0
173
     0
291
     1
 45
0.0
1001
ACAD
1000
AcDbSavedByObjectVersion
1070
     0
  0
VISUALSTYLE
  5
2E
102
{ACAD_REACTORS
330
2A
102
}
330
2A
100
AcDbVisualStyle
  2
GouraudWithEdges
 70
     3
 71
     2
 72
     2
 73
     1
 90
        2
 40
-0.6
 41
30.0
 62
     5
 63
     7
 74
     1
 91
        4
 64
     7
 65
   257
 75
     1
175
     1
 42
1.0
 92
        0
 66
   257
 43
1.0
 76
     1
 77
     6
 78
     2
 67
     7
 79
     5
170
     0
171
     0
290
     0
174
     0
 93
       13
 44
0.0
173
     0
291
     1
 45
0.0
1001
ACAD
1000
AcDbSavedByObjectVersion
1070
     0
  0
VISUALSTYLE
  5
38
102
{ACAD_REACTORS
330
2A
102
}
330
2A
100
AcDbVisualStyle
  2
Linepattern
 70
    14
 71
     2
 72
     2
 73
     0
 90
        0
 40
-0.6
 41
-30.0
 62
     5
 63
     7
 74
     1
 91
        4
 64
     7
 65
   257
 75
     7
175
     7
 42
1.0
 92
        8
 66
     7
 43
1.0
 76
     1
 77
     6
 78
     2
 67
     7
 79
     5
170
     0
171
     0
290
     0
174
     0
 93
        1
 44
0.0
173
     0
291
     1
 45
0.0
1001
ACAD
1000
AcDbSavedByObjectVersion
1070
     0
  0
VISUALSTYLE
  5
33
102
{ACAD_REACTORS
330
2A
102
}
330
2A
100
AcDbVisualStyle
  2
Realistic
 70
     8
 71
     2
 72
     2
 73
     0
 90
        0
 40
-0.6
 41
-30.0
 62
     5
 63
     7
 74
     1
 91
        0
 64
     7
 65
   257
 75
     1
175
     1
 42
1.0
 92
        8
 66
     8
 43
1.0
 76
     1
 77
     6
 78
     2
 67
     7
 79
     5
170
     0
171
     0
290
     0
174
     0
 93
       13
 44
0.0
173
     0
291
     0
 45
0.0
1001
ACAD
1000
AcDbSavedByObjectVersion
1070
     0
  0
VISUALSTYLE
  5
37
102
{ACAD_REACTORS
330
2A
102
}
330
2A
100
AcDbVisualStyle
  2
Thicken
 70
    13
 71
     2
 72
     2
 73
     0
 90
        0
 40
-0.6
 41
-30.0
 62
     5
 63
     7
 74
     1
 91
        4
 64
     7
 65
   257
 75
     1
175
     1
 42
1.0
 92
       12
 66
     7
 43
1.0
 76
     1
 77
     6
 78
     2
 67
     7
 79
     5
170
     0
171
     0
290
     0
174
     0
 93
        1
 44
0.0
173
     0
291
     1
 45
0.0
1001
ACAD
1000
AcDbSavedByObjectVersion
1070
     0
  0
DICTIONARYVAR
  5
623
102
{ACAD_REACTORS
330
61F
102
}
330
61F
100
DictionaryVariables
280
     0
  1
80.000000
  0
DICTIONARYVAR
  5
622
102
{ACAD_REACTORS
330
61F
102
}
330
61F
100
DictionaryVariables
280
     0
  1
5.000000
  0
ENDSEC
  0
EOF
