  0
SECTION
  2
HEADER
  9
$ACADVER
  1
AC1015
  9
$ACADMAINTVER
 70
     6
  9
$DWGCODEPAGE
  3
ANSI_932
  9
$INSBASE
 10
0.0
 20
0.0
 30
0.0
  9
$EXTMIN
 10
102.474731
 20
63.222687
 30
0.0
  9
$EXTMAX
 10
1203.167358
 20
1048.972412
 30
0.0
  9
$LIMMIN
 10
0.0
 20
0.0
  9
$LIMMAX
 10
12.0
 20
9.0
  9
$ORTHOMODE
 70
     0
  9
$REGENMODE
 70
     1
  9
$FILLMODE
 70
     1
  9
$QTEXTMODE
 70
     0
  9
$MIRRTEXT
 70
     1
  9
$LTSCALE
 40
14.775746
  9
$ATTMODE
 70
     1
  9
$TEXTSIZE
 40
3.2
  9
$TRACEWID
 40
1.0
  9
$TEXTSTYLE
  7
Standard
  9
$CLAYER
  8
0
  9
$CELTYPE
  6
ByLayer
  9
$CECOLOR
 62
   256
  9
$CELTSCALE
 40
1.0
  9
$DISPSILH
 70
     0
  9
$DIMSCALE
 40
1.0
  9
$DIMASZ
 40
2.5
  9
$DIMEXO
 40
0.625
  9
$DIMDLI
 40
3.75
  9
$DIMRND
 40
0.0
  9
$DIMDLE
 40
0.0
  9
$DIMEXE
 40
1.25
  9
$DIMTP
 40
0.0
  9
$DIMTM
 40
0.0
  9
$DIMTXT
 40
2.5
  9
$DIMCEN
 40
0.09
  9
$DIMTSZ
 40
0.0
  9
$DIMTOL
 70
     0
  9
$DIMLIM
 70
     0
  9
$DIMTIH
 70
     0
  9
$DIMTOH
 70
     0
  9
$DIMSE1
 70
     0
  9
$DIMSE2
 70
     0
  9
$DIMTAD
 70
     0
  9
$DIMZIN
 70
     8
  9
$DIMBLK
  1

  9
$DIMASO
 70
     1
  9
$DIMSHO
 70
     0
  9
$DIMPOST
  1

  9
$DIMAPOST
  1

  9
$DIMALT
 70
     0
  9
$DIMALTD
 70
     3
  9
$DIMALTF
 40
0.03937
  9
$DIMLFAC
 40
1.0
  9
$DIMTOFL
 70
     1
  9
$DIMTVP
 40
0.0
  9
$DIMTIX
 70
     0
  9
$DIMSOXD
 70
     0
  9
$DIMSAH
 70
     0
  9
$DIMBLK1
  1

  9
$DIMBLK2
  1

  9
$DIMSTYLE
  2
ISO-25
  9
$DIMCLRD
 70
     0
  9
$DIMCLRE
 70
     0
  9
$DIMCLRT
 70
     0
  9
$DIMTFAC
 40
1.0
  9
$DIMGAP
 40
0.625
  9
$DIMJUST
 70
     0
  9
$DIMSD1
 70
     0
  9
$DIMSD2
 70
     0
  9
$DIMTOLJ
 70
     0
  9
$DIMTZIN
 70
     8
  9
$DIMALTZ
 70
     0
  9
$DIMALTTZ
 70
     0
  9
$DIMUPT
 70
     0
  9
$DIMDEC
 70
     2
  9
$DIMTDEC
 70
     2
  9
$DIMALTU
 70
     2
  9
$DIMALTTD
 70
     3
  9
$DIMTXSTY
  7
Standard
  9
$DIMAUNIT
 70
     0
  9
$DIMADEC
 70
     0
  9
$DIMALTRND
 40
0.0
  9
$DIMAZIN
 70
     0
  9
$DIMDSEP
 70
    44
  9
$DIMATFIT
 70
     3
  9
$DIMFRAC
 70
     0
  9
$DIMLDRBLK
  1

  9
$DIMLUNIT
 70
     2
  9
$DIMLWD
 70
    -2
  9
$DIMLWE
 70
    -2
  9
$DIMTMOVE
 70
     0
  9
$LUNITS
 70
     2
  9
$LUPREC
 70
     4
  9
$SKETCHINC
 40
1.0
  9
$FILLETRAD
 40
0.0
  9
$AUNITS
 70
     0
  9
$AUPREC
 70
     0
  9
$MENU
  1
.
  9
$ELEVATION
 40
0.0
  9
$PELEVATION
 40
0.0
  9
$THICKNESS
 40
0.0
  9
$LIMCHECK
 70
     0
  9
$CHAMFERA
 40
10.0
  9
$CHAMFERB
 40
10.0
  9
$CHAMFERC
 40
20.0
  9
$CHAMFERD
 40
0.0
  9
$SKPOLY
 70
     0
  9
$TDCREATE
 40
2455649.657132338
  9
$TDUCREATE
 40
2455649.282132338
  9
$TDUPDATE
 40
2455649.657132349
  9
$TDUUPDATE
 40
2455649.282132349
  9
$TDINDWG
 40
0.0000000116
  9
$TDUSRTIMER
 40
0.0000000116
  9
$USRTIMER
 70
     1
  9
$ANGBASE
 50
0.0
  9
$ANGDIR
 70
     0
  9
$PDMODE
 70
     0
  9
$PDSIZE
 40
0.0
  9
$PLINEWID
 40
0.0
  9
$SPLFRAME
 70
     0
  9
$SPLINETYPE
 70
     6
  9
$SPLINESEGS
 70
     8
  9
$HANDSEED
  5
839
  9
$SURFTAB1
 70
     6
  9
$SURFTAB2
 70
     6
  9
$SURFTYPE
 70
     6
  9
$SURFU
 70
     6
  9
$SURFV
 70
     6
  9
$UCSBASE
  2

  9
$UCSNAME
  2

  9
$UCSORG
 10
0.0
 20
0.0
 30
0.0
  9
$UCSXDIR
 10
1.0
 20
0.0
 30
0.0
  9
$UCSYDIR
 10
0.0
 20
1.0
 30
0.0
  9
$UCSORTHOREF
  2

  9
$UCSORTHOVIEW
 70
     0
  9
$UCSORGTOP
 10
0.0
 20
0.0
 30
0.0
  9
$UCSORGBOTTOM
 10
0.0
 20
0.0
 30
0.0
  9
$UCSORGLEFT
 10
0.0
 20
0.0
 30
0.0
  9
$UCSORGRIGHT
 10
0.0
 20
0.0
 30
0.0
  9
$UCSORGFRONT
 10
0.0
 20
0.0
 30
0.0
  9
$UCSORGBACK
 10
0.0
 20
0.0
 30
0.0
  9
$PUCSBASE
  2

  9
$PUCSNAME
  2

  9
$PUCSORG
 10
0.0
 20
0.0
 30
0.0
  9
$PUCSXDIR
 10
1.0
 20
0.0
 30
0.0
  9
$PUCSYDIR
 10
0.0
 20
1.0
 30
0.0
  9
$PUCSORTHOREF
  2

  9
$PUCSORTHOVIEW
 70
     0
  9
$PUCSORGTOP
 10
0.0
 20
0.0
 30
0.0
  9
$PUCSORGBOTTOM
 10
0.0
 20
0.0
 30
0.0
  9
$PUCSORGLEFT
 10
0.0
 20
0.0
 30
0.0
  9
$PUCSORGRIGHT
 10
0.0
 20
0.0
 30
0.0
  9
$PUCSORGFRONT
 10
0.0
 20
0.0
 30
0.0
  9
$PUCSORGBACK
 10
0.0
 20
0.0
 30
0.0
  9
$USERI1
 70
     0
  9
$USERI2
 70
     0
  9
$USERI3
 70
     0
  9
$USERI4
 70
     0
  9
$USERI5
 70
     0
  9
$USERR1
 40
0.0
  9
$USERR2
 40
0.0
  9
$USERR3
 40
0.0
  9
$USERR4
 40
0.0
  9
$USERR5
 40
0.0
  9
$WORLDVIEW
 70
     1
  9
$SHADEDGE
 70
     3
  9
$SHADEDIF
 70
    70
  9
$TILEMODE
 70
     1
  9
$MAXACTVP
 70
    64
  9
$PINSBASE
 10
0.0
 20
0.0
 30
0.0
  9
$PLIMCHECK
 70
     0
  9
$PEXTMIN
 10
1.000000E+20
 20
1.000000E+20
 30
0.0
  9
$PEXTMAX
 10
-1.000000E+20
 20
-1.000000E+20
 30
0.0
  9
$PLIMMIN
 10
0.0
 20
0.0
  9
$PLIMMAX
 10
12.0
 20
9.0
  9
$UNITMODE
 70
     0
  9
$VISRETAIN
 70
     1
  9
$PLINEGEN
 70
     0
  9
$PSLTSCALE
 70
     1
  9
$TREEDEPTH
 70
  3020
  9
$CMLSTYLE
  2
Standard
  9
$CMLJUST
 70
     0
  9
$CMLSCALE
 40
20.0
  9
$PROXYGRAPHICS
 70
     1
  9
$MEASUREMENT
 70
     1
  9
$CELWEIGHT
370
    -1
  9
$ENDCAPS
280
     0
  9
$JOINSTYLE
280
     0
  9
$LWDISPLAY
290
     0
  9
$INSUNITS
 70
     4
  9
$HYPERLINKBASE
  1

  9
$STYLESHEET
  1

  9
$XEDIT
290
     1
  9
$CEPSNTYPE
380
     0
  9
$PSTYLEMODE
290
     1
  9
$FINGERPRINTGUID
  2
{36115FFE-09C0-499C-B110-D3A19B3698D9}
  9
$VERSIONGUID
  2
{FAEB1C32-E019-11D5-929B-00C0DF256EC4}
  9
$EXTNAMES
290
     1
  9
$PSVPSCALE
 40
0.0
  9
$OLESTARTUP
290
     0
  0
ENDSEC
  0
SECTION
  2
CLASSES
  0
CLASS
  1
ACDBDICTIONARYWDFLT
  2
AcDbDictionaryWithDefault
  3
ObjectDBX Classes
 90
        0
280
     0
281
     0
  0
CLASS
  1
VISUALSTYLE
  2
AcDbVisualStyle
  3
ObjectDBX Classes
 90
     4095
280
     0
281
     0
  0
CLASS
  1
DICTIONARYVAR
  2
AcDbDictionaryVar
  3
ObjectDBX Classes
 90
        0
280
     0
281
     0
  0
CLASS
  1
ACDBPLACEHOLDER
  2
AcDbPlaceHolder
  3
ObjectDBX Classes
 90
        0
280
     0
281
     0
  0
CLASS
  1
LAYOUT
  2
AcDbLayout
  3
ObjectDBX Classes
 90
        0
280
     0
281
     0
  0
ENDSEC
  0
SECTION
  2
TABLES
  0
TABLE
  2
VPORT
  5
8
330
0
100
AcDbSymbolTable
 70
     1
  0
VPORT
  5
29
330
8
100
AcDbSymbolTableRecord
100
AcDbViewportTableRecord
  2
*Active
 70
     0
 10
0.0
 20
0.0
 11
1.0
 21
1.0
 12
652.821045
 22
556.097549
 13
0.0
 23
0.0
 14
1.0
 24
1.0
 15
0.0
 25
0.0
 16
0.0
 26
0.0
 36
1.0
 17
0.0
 27
0.0
 37
0.0
 40
995.607223
 41
1.691288
 42
50.0
 43
0.0
 44
0.0
 50
0.0
 51
0.0
 71
     0
 72
   100
 73
     1
 74
     3
 75
     0
 76
     0
 77
     0
 78
     0
281
     0
 65
     1
110
0.0
120
0.0
130
0.0
111
1.0
121
0.0
131
0.0
112
0.0
122
1.0
132
0.0
 79
     0
146
0.0
  0
ENDTAB
  0
TABLE
  2
LTYPE
  5
5
330
0
100
AcDbSymbolTable
 70
     5
  0
LTYPE
  5
14
330
5
100
AcDbSymbolTableRecord
100
AcDbLinetypeTableRecord
  2
ByBlock
 70
     0
  3

 72
    65
 73
     0
 40
0.0
  0
LTYPE
  5
15
330
5
100
AcDbSymbolTableRecord
100
AcDbLinetypeTableRecord
  2
ByLayer
 70
     0
  3

 72
    65
 73
     0
 40
0.0
  0
LTYPE
  5
16
330
5
100
AcDbSymbolTableRecord
100
AcDbLinetypeTableRecord
  2
Continuous
 70
     0
  3
Solid line
 72
    65
 73
     0
 40
0.0
  0
LTYPE
  5
3B
330
5
100
AcDbSymbolTableRecord
100
AcDbLinetypeTableRecord
  2
DASHED
 70
     0
  3
DASHED
 72
    83
 73
     2
 40
0.75
 49
0.5
 74
     0
 49
-0.25
 74
     0
  0
LTYPE
  5
3C
330
5
100
AcDbSymbolTableRecord
100
AcDbLinetypeTableRecord
  2
HIDDEN
 70
     0
  3
HIDDEN
 72
    83
 73
     2
 40
0.375
 49
0.25
 74
     0
 49
-0.125
 74
     0
  0
LTYPE
  5
3D
330
5
100
AcDbSymbolTableRecord
100
AcDbLinetypeTableRecord
  2
CENTER
 70
     0
  3
CENTER
 72
    83
 73
     4
 40
2.0
 49
1.25
 74
     0
 49
-0.25
 74
     0
 49
0.25
 74
     0
 49
-0.25
 74
     0
  0
LTYPE
  5
3E
330
5
100
AcDbSymbolTableRecord
100
AcDbLinetypeTableRecord
  2
PHANTOM
 70
     0
  3
PHANTOM
 72
    83
 73
     6
 40
2.5
 49
1.25
 74
     0
 49
-0.25
 74
     0
 49
0.25
 74
     0
 49
-0.25
 74
     0
 49
0.25
 74
     0
 49
-0.25
 74
     0
  0
ENDTAB
  0
TABLE
  2
LAYER
  5
2
330
0
100
AcDbSymbolTable
 70
     4
  0
LAYER
  5
10
330
2
100
AcDbSymbolTableRecord
100
AcDbLayerTableRecord
  2
0
 70
     0
 62
     7
  6
Continuous
370
    -3
390
F
  0
LAYER
  5
3F
330
2
100
AcDbSymbolTableRecord
100
AcDbLayerTableRecord
  2
002
 70
     0
 62
     7
  6
Continuous
370
    -3
390
F
  0
LAYER
  5
40
330
2
100
AcDbSymbolTableRecord
100
AcDbLayerTableRecord
  2
003
 70
     0
 62
     7
  6
Continuous
370
    -3
390
F
  0
LAYER
  5
41
330
2
100
AcDbSymbolTableRecord
100
AcDbLayerTableRecord
  2
007
 70
     0
 62
     7
  6
Continuous
370
    -3
390
F
  0
ENDTAB
  0
TABLE
  2
STYLE
  5
3
330
0
100
AcDbSymbolTable
 70
     2
  0
STYLE
  5
11
330
3
100
AcDbSymbolTableRecord
100
AcDbTextStyleTableRecord
  2
Standard
 70
     0
 40
0.0
 41
1.0
 50
0.0
 71
     0
 42
0.2
  3
TXT
  4
BIGFONT
  0
STYLE
  5
42
330
3
100
AcDbSymbolTableRecord
100
AcDbTextStyleTableRecord
  2
TATEGAKI
 70
     4
 40
1.0
 41
1.0
 50
0.0
 71
     0
 42
0.2
  3
TXT
  4
BIGFONT
  0
ENDTAB
  0
TABLE
  2
VIEW
  5
6
330
0
100
AcDbSymbolTable
 70
     0
  0
ENDTAB
  0
TABLE
  2
UCS
  5
7
330
0
100
AcDbSymbolTable
 70
     0
  0
ENDTAB
  0
TABLE
  2
APPID
  5
9
330
0
100
AcDbSymbolTable
 70
     1
  0
APPID
  5
12
330
9
100
AcDbSymbolTableRecord
100
AcDbRegAppTableRecord
  2
ACAD
 70
     0
  0
ENDTAB
  0
TABLE
  2
DIMSTYLE
  5
A
330
0
100
AcDbSymbolTable
 70
     2
100
AcDbDimStyleTable
  0
DIMSTYLE
105
27
330
A
100
AcDbSymbolTableRecord
100
AcDbDimStyleTableRecord
  2
ISO-25
 70
     0
 41
2.5
 42
0.625
 43
3.75
 44
1.25
 73
     0
 74
     0
 77
     1
 78
     8
140
2.5
141
2.5
143
0.03937
147
0.625
171
     3
172
     1
271
     2
272
     2
274
     3
278
    44
283
     0
284
     8
340
11
  0
DIMSTYLE
105
43
330
A
100
AcDbSymbolTableRecord
100
AcDbDimStyleTableRecord
  2
Standard
 70
     0
 41
3.0
 42
0.5
 44
0.7
 73
     0
 74
     0
 77
     1
 78
     8
 79
     2
140
4.0
146
0.65
147
1.0
172
     1
179
     3
271
     3
283
     2
340
11
  0
ENDTAB
  0
TABLE
  2
BLOCK_RECORD
  5
1
330
0
100
AcDbSymbolTable
 70
    25
  0
BLOCK_RECORD
  5
1F
330
1
100
AcDbSymbolTableRecord
100
AcDbBlockTableRecord
  2
*Model_Space
340
22
  0
BLOCK_RECORD
  5
1B
330
1
100
AcDbSymbolTableRecord
100
AcDbBlockTableRecord
  2
*Paper_Space
340
1E
  0
BLOCK_RECORD
  5
23
330
1
100
AcDbSymbolTableRecord
100
AcDbBlockTableRecord
  2
*Paper_Space0
340
26
  0
BLOCK_RECORD
  5
44
330
1
100
AcDbSymbolTableRecord
100
AcDbBlockTableRecord
  2
JZB-1
340
0
102
{BLKREFS
331
17C
102
}
  0
BLOCK_RECORD
  5
55
330
1
100
AcDbSymbolTableRecord
100
AcDbBlockTableRecord
  2
JZB-2
340
0
102
{BLKREFS
331
17D
102
}
  0
BLOCK_RECORD
  5
66
330
1
100
AcDbSymbolTableRecord
100
AcDbBlockTableRecord
  2
JZB-3
340
0
102
{BLKREFS
331
17E
102
}
  0
BLOCK_RECORD
  5
77
330
1
100
AcDbSymbolTableRecord
100
AcDbBlockTableRecord
  2
JZB-4
340
0
102
{BLKREFS
331
17F
102
}
  0
BLOCK_RECORD
  5
88
330
1
100
AcDbSymbolTableRecord
100
AcDbBlockTableRecord
  2
JZB-5
340
0
102
{BLKREFS
331
180
102
}
  0
BLOCK_RECORD
  5
99
330
1
100
AcDbSymbolTableRecord
100
AcDbBlockTableRecord
  2
JZB-6
340
0
102
{BLKREFS
331
181
102
}
  0
BLOCK_RECORD
  5
AA
330
1
100
AcDbSymbolTableRecord
100
AcDbBlockTableRecord
  2
JZB-7
340
0
102
{BLKREFS
331
182
102
}
  0
BLOCK_RECORD
  5
BB
330
1
100
AcDbSymbolTableRecord
100
AcDbBlockTableRecord
  2
JZB-8
340
0
102
{BLKREFS
331
183
102
}
  0
BLOCK_RECORD
  5
CC
330
1
100
AcDbSymbolTableRecord
100
AcDbBlockTableRecord
  2
JZB-9
340
0
102
{BLKREFS
331
184
102
}
  0
BLOCK_RECORD
  5
D7
330
1
100
AcDbSymbolTableRecord
100
AcDbBlockTableRecord
  2
JZB-10
340
0
102
{BLKREFS
331
185
102
}
  0
BLOCK_RECORD
  5
E2
330
1
100
AcDbSymbolTableRecord
100
AcDbBlockTableRecord
  2
JZB-11
340
0
102
{BLKREFS
331
186
102
}
  0
BLOCK_RECORD
  5
ED
330
1
100
AcDbSymbolTableRecord
100
AcDbBlockTableRecord
  2
JZB-12
340
0
102
{BLKREFS
331
187
102
}
  0
BLOCK_RECORD
  5
F8
330
1
100
AcDbSymbolTableRecord
100
AcDbBlockTableRecord
  2
JZB-13
340
0
102
{BLKREFS
331
188
102
}
  0
BLOCK_RECORD
  5
103
330
1
100
AcDbSymbolTableRecord
100
AcDbBlockTableRecord
  2
JZB-14
340
0
102
{BLKREFS
331
189
102
}
  0
BLOCK_RECORD
  5
10E
330
1
100
AcDbSymbolTableRecord
100
AcDbBlockTableRecord
  2
JZB-15
340
0
102
{BLKREFS
331
18A
102
}
  0
BLOCK_RECORD
  5
119
330
1
100
AcDbSymbolTableRecord
100
AcDbBlockTableRecord
  2
JZB-16
340
0
102
{BLKREFS
331
18B
102
}
  0
BLOCK_RECORD
  5
124
330
1
100
AcDbSymbolTableRecord
100
AcDbBlockTableRecord
  2
JZB-17
340
0
102
{BLKREFS
331
18C
102
}
  0
BLOCK_RECORD
  5
12F
330
1
100
AcDbSymbolTableRecord
100
AcDbBlockTableRecord
  2
JZB-18
340
0
102
{BLKREFS
331
18D
102
}
  0
BLOCK_RECORD
  5
13A
330
1
100
AcDbSymbolTableRecord
100
AcDbBlockTableRecord
  2
JZB-19
340
0
102
{BLKREFS
331
18E
102
}
  0
BLOCK_RECORD
  5
145
330
1
100
AcDbSymbolTableRecord
100
AcDbBlockTableRecord
  2
JZB-20
340
0
102
{BLKREFS
331
18F
102
}
  0
BLOCK_RECORD
  5
150
330
1
100
AcDbSymbolTableRecord
100
AcDbBlockTableRecord
  2
JZB-21
340
0
102
{BLKREFS
331
190
102
}
  0
BLOCK_RECORD
  5
15B
330
1
100
AcDbSymbolTableRecord
100
AcDbBlockTableRecord
  2
JZB-22
340
0
102
{BLKREFS
331
191
102
}
  0
BLOCK_RECORD
  5
166
330
1
100
AcDbSymbolTableRecord
100
AcDbBlockTableRecord
  2
JZB-23
340
0
102
{BLKREFS
331
192
102
}
  0
BLOCK_RECORD
  5
171
330
1
100
AcDbSymbolTableRecord
100
AcDbBlockTableRecord
  2
JZB-24
340
0
102
{BLKREFS
331
193
102
}
  0
ENDTAB
  0
ENDSEC
  0
SECTION
  2
BLOCKS
  0
BLOCK
  5
20
330
1F
100
AcDbEntity
  8
0
100
AcDbBlockBegin
  2
*Model_Space
 70
     0
 10
0.0
 20
0.0
 30
0.0
  3
*Model_Space
  1

  0
ENDBLK
  5
21
330
1F
100
AcDbEntity
  8
0
100
AcDbBlockEnd
  0
BLOCK
  5
1C
330
1B
100
AcDbEntity
 67
     1
  8
0
100
AcDbBlockBegin
  2
*Paper_Space
 70
     0
 10
0.0
 20
0.0
 30
0.0
  3
*Paper_Space
  1

  0
ENDBLK
  5
1D
330
1B
100
AcDbEntity
 67
     1
  8
0
100
AcDbBlockEnd
  0
BLOCK
  5
24
330
23
100
AcDbEntity
  8
0
100
AcDbBlockBegin
  2
*Paper_Space0
 70
     0
 10
0.0
 20
0.0
 30
0.0
  3
*Paper_Space0
  1

  0
ENDBLK
  5
25
330
23
100
AcDbEntity
  8
0
100
AcDbBlockEnd
  0
BLOCK
  5
45
330
44
100
AcDbEntity
  8
0
100
AcDbBlockBegin
  2
JZB-1
 70
     0
 10
0.0
 20
0.0
 30
0.0
  3
JZB-1
  1

  0
LINE
  5
47
330
44
100
AcDbEntity
  8
002
 62
     3
370
    30
100
AcDbLine
 10
250.04521
 20
1011.131623
 30
0.0
 11
250.04521
 21
1007.622382
 31
0.0
  0
LINE
  5
48
330
44
100
AcDbEntity
  8
002
 62
     3
370
    30
100
AcDbLine
 10
249.19521
 20
1011.622371
 30
0.0
 11
239.39521
 21
1011.622371
 31
0.0
  0
LINE
  5
49
330
44
100
AcDbEntity
  8
002
 62
     3
370
    30
100
AcDbLine
 10
250.04521
 20
1007.622382
 30
0.0
 11
238.54521
 21
1007.622382
 31
0.0
  0
LINE
  5
4A
330
44
100
AcDbEntity
  8
002
 62
     3
370
    30
100
AcDbLine
 10
249.19521
 20
1011.622371
 30
0.0
 11
250.04521
 21
1011.131623
 31
0.0
  0
LINE
  5
4B
330
44
100
AcDbEntity
  8
002
 62
     3
370
    30
100
AcDbLine
 10
239.39521
 20
1011.622371
 30
0.0
 11
238.54521
 21
1011.131623
 31
0.0
  0
LINE
  5
4C
330
44
100
AcDbEntity
  8
002
 62
     3
370
    30
100
AcDbLine
 10
238.54521
 20
1011.131623
 30
0.0
 11
238.54521
 21
1007.622382
 31
0.0
  0
LINE
  5
4D
330
44
100
AcDbEntity
  8
002
 62
     3
370
    30
100
AcDbLine
 10
247.17021
 20
1007.622382
 30
0.0
 11
247.17021
 21
1011.131623
 31
0.0
  0
LINE
  5
4E
330
44
100
AcDbEntity
  8
002
 62
     3
370
    30
100
AcDbLine
 10
241.42021
 20
1007.622382
 30
0.0
 11
241.42021
 21
1011.131623
 31
0.0
  0
ARC
  5
4F
330
44
100
AcDbEntity
  8
002
 62
     3
370
    30
100
AcDbCircle
 10
239.98271
 20
1009.271632
 30
0.0
 40
2.35073893151023
100
AcDbArc
 50
52.301245
 51
90.0
  0
ARC
  5
50
330
44
100
AcDbEntity
  8
002
 62
     3
370
    30
100
AcDbCircle
 10
248.60771
 20
1009.271632
 30
0.0
 40
2.35073893151023
100
AcDbArc
 50
90.0
 51
127.698755
  0
ARC
  5
51
330
44
100
AcDbEntity
  8
002
 62
     3
370
    30
100
AcDbCircle
 10
244.29521
 20
1002.955537
 30
0.0
 40
8.666834132824174
100
AcDbArc
 50
70.626529
 51
109.373471
  0
LINE
  5
52
330
44
100
AcDbEntity
  8
002
 62
     3
370
    30
100
AcDbLine
 10
244.295205
 20
1007.622371
 30
0.0
 11
244.295205
 21
1007.622382
 31
0.0
  0
LINE
  5
53
330
44
100
AcDbEntity
  8
002
 62
     3
370
    30
100
AcDbLine
 10
244.295205
 20
1007.622371
 30
0.0
 11
244.295216
 21
1007.622371
 31
0.0
  0
LINE
  5
54
330
44
100
AcDbEntity
  8
002
 62
     3
370
    30
100
AcDbLine
 10
244.295216
 20
1007.622371
 30
0.0
 11
244.295216
 21
1007.622382
 31
0.0
  0
ENDBLK
  5
46
330
44
100
AcDbEntity
  8
0
100
AcDbBlockEnd
  0
BLOCK
  5
56
330
55
100
AcDbEntity
  8
0
100
AcDbBlockBegin
  2
JZB-2
 70
     0
 10
0.0
 20
0.0
 30
0.0
  3
JZB-2
  1

  0
LINE
  5
58
330
55
100
AcDbEntity
  8
002
 62
     3
370
    30
100
AcDbLine
 10
199.79721
 20
1011.622371
 30
0.0
 11
209.59721
 21
1011.622371
 31
0.0
  0
LINE
  5
59
330
55
100
AcDbEntity
  8
002
 62
     3
370
    30
100
AcDbLine
 10
199.79721
 20
1011.622371
 30
0.0
 11
198.94721
 21
1011.131623
 31
0.0
  0
LINE
  5
5A
330
55
100
AcDbEntity
  8
002
 62
     3
370
    30
100
AcDbLine
 10
209.59721
 20
1011.622371
 30
0.0
 11
210.44721
 21
1011.131623
 31
0.0
  0
LINE
  5
5B
330
55
100
AcDbEntity
  8
002
 62
     3
370
    30
100
AcDbLine
 10
210.44721
 20
1011.131623
 30
0.0
 11
210.44721
 21
1007.622382
 31
0.0
  0
LINE
  5
5C
330
55
100
AcDbEntity
  8
002
 62
     3
370
    30
100
AcDbLine
 10
201.82221
 20
1007.622382
 30
0.0
 11
201.82221
 21
1011.131623
 31
0.0
  0
LINE
  5
5D
330
55
100
AcDbEntity
  8
002
 62
     3
370
    30
100
AcDbLine
 10
207.57221
 20
1007.622382
 30
0.0
 11
207.57221
 21
1011.131623
 31
0.0
  0
ARC
  5
5E
330
55
100
AcDbEntity
  8
002
 62
     3
370
    30
100
AcDbCircle
 10
209.00971
 20
1009.271632
 30
0.0
 40
2.35073893151023
100
AcDbArc
 50
90.0
 51
127.698755
  0
ARC
  5
5F
330
55
100
AcDbEntity
  8
002
 62
     3
370
    30
100
AcDbCircle
 10
200.38471
 20
1009.271632
 30
0.0
 40
2.35073893151023
100
AcDbArc
 50
52.301245
 51
90.0
  0
ARC
  5
60
330
55
100
AcDbEntity
  8
002
 62
     3
370
    30
100
AcDbCircle
 10
204.69721
 20
1002.955537
 30
0.0
 40
8.666834132824174
100
AcDbArc
 50
70.626529
 51
109.373471
  0
LINE
  5
61
330
55
100
AcDbEntity
  8
002
 62
     3
370
    30
100
AcDbLine
 10
204.697216
 20
1007.622371
 30
0.0
 11
204.697216
 21
1007.622382
 31
0.0
  0
LINE
  5
62
330
55
100
AcDbEntity
  8
002
 62
     3
370
    30
100
AcDbLine
 10
204.697216
 20
1007.622371
 30
0.0
 11
204.697205
 21
1007.622371
 31
0.0
  0
LINE
  5
63
330
55
100
AcDbEntity
  8
002
 62
     3
370
    30
100
AcDbLine
 10
204.697205
 20
1007.622371
 30
0.0
 11
204.697205
 21
1007.622382
 31
0.0
  0
LINE
  5
64
330
55
100
AcDbEntity
  8
002
 62
     3
370
    30
100
AcDbLine
 10
198.94721
 20
1011.131623
 30
0.0
 11
198.94721
 21
1008.567041
 31
0.0
  0
LINE
  5
65
330
55
100
AcDbEntity
  8
002
 62
     3
370
    30
100
AcDbLine
 10
201.82221
 20
1007.622382
 30
0.0
 11
210.44721
 21
1007.622382
 31
0.0
  0
ENDBLK
  5
57
330
55
100
AcDbEntity
  8
0
100
AcDbBlockEnd
  0
BLOCK
  5
67
330
66
100
AcDbEntity
  8
0
100
AcDbBlockBegin
  2
JZB-3
 70
     0
 10
0.0
 20
0.0
 30
0.0
  3
JZB-3
  1

  0
LINE
  5
69
330
66
100
AcDbEntity
  8
002
 62
     3
370
    30
100
AcDbLine
 10
250.04521
 20
892.113118
 30
0.0
 11
250.04521
 21
895.62236
 31
0.0
  0
LINE
  5
6A
330
66
100
AcDbEntity
  8
002
 62
     3
370
    30
100
AcDbLine
 10
249.19521
 20
891.622371
 30
0.0
 11
239.39521
 21
891.622371
 31
0.0
  0
LINE
  5
6B
330
66
100
AcDbEntity
  8
002
 62
     3
370
    30
100
AcDbLine
 10
250.04521
 20
895.62236
 30
0.0
 11
238.54521
 21
895.62236
 31
0.0
  0
LINE
  5
6C
330
66
100
AcDbEntity
  8
002
 62
     3
370
    30
100
AcDbLine
 10
249.19521
 20
891.622371
 30
0.0
 11
250.04521
 21
892.113118
 31
0.0
  0
LINE
  5
6D
330
66
100
AcDbEntity
  8
002
 62
     3
370
    30
100
AcDbLine
 10
239.39521
 20
891.622371
 30
0.0
 11
238.54521
 21
892.113118
 31
0.0
  0
LINE
  5
6E
330
66
100
AcDbEntity
  8
002
 62
     3
370
    30
100
AcDbLine
 10
238.54521
 20
892.113118
 30
0.0
 11
238.54521
 21
895.62236
 31
0.0
  0
LINE
  5
6F
330
66
100
AcDbEntity
  8
002
 62
     3
370
    30
100
AcDbLine
 10
247.17021
 20
895.62236
 30
0.0
 11
247.17021
 21
892.113118
 31
0.0
  0
LINE
  5
70
330
66
100
AcDbEntity
  8
002
 62
     3
370
    30
100
AcDbLine
 10
241.42021
 20
895.62236
 30
0.0
 11
241.42021
 21
892.113118
 31
0.0
  0
ARC
  5
71
330
66
100
AcDbEntity
  8
002
 62
     3
370
    30
100
AcDbCircle
 10
239.98271
 20
893.97311
 30
0.0
 40
2.35073893151023
100
AcDbArc
 50
270.0
 51
307.698755
  0
ARC
  5
72
330
66
100
AcDbEntity
  8
002
 62
     3
370
    30
100
AcDbCircle
 10
248.60771
 20
893.97311
 30
0.0
 40
2.35073893151023
100
AcDbArc
 50
232.301245
 51
270.0
  0
ARC
  5
73
330
66
100
AcDbEntity
  8
002
 62
     3
370
    30
100
AcDbCircle
 10
244.29521
 20
900.289205
 30
0.0
 40
8.666834132824174
100
AcDbArc
 50
250.626529
 51
289.373471
  0
LINE
  5
74
330
66
100
AcDbEntity
  8
002
 62
     3
370
    30
100
AcDbLine
 10
244.295205
 20
895.622371
 30
0.0
 11
244.295205
 21
895.62236
 31
0.0
  0
LINE
  5
75
330
66
100
AcDbEntity
  8
002
 62
     3
370
    30
100
AcDbLine
 10
244.295205
 20
895.622371
 30
0.0
 11
244.295216
 21
895.622371
 31
0.0
  0
LINE
  5
76
330
66
100
AcDbEntity
  8
002
 62
     3
370
    30
100
AcDbLine
 10
244.295216
 20
895.622371
 30
0.0
 11
244.295216
 21
895.62236
 31
0.0
  0
ENDBLK
  5
68
330
66
100
AcDbEntity
  8
0
100
AcDbBlockEnd
  0
BLOCK
  5
78
330
77
100
AcDbEntity
  8
0
100
AcDbBlockBegin
  2
JZB-4
 70
     0
 10
0.0
 20
0.0
 30
0.0
  3
JZB-4
  1

  0
LINE
  5
7A
330
77
100
AcDbEntity
  8
002
 62
     3
370
    30
100
AcDbLine
 10
199.79721
 20
891.622371
 30
0.0
 11
209.59721
 21
891.622371
 31
0.0
  0
LINE
  5
7B
330
77
100
AcDbEntity
  8
002
 62
     3
370
    30
100
AcDbLine
 10
199.79721
 20
891.622371
 30
0.0
 11
198.94721
 21
892.113118
 31
0.0
  0
LINE
  5
7C
330
77
100
AcDbEntity
  8
002
 62
     3
370
    30
100
AcDbLine
 10
209.59721
 20
891.622371
 30
0.0
 11
210.44721
 21
892.113118
 31
0.0
  0
LINE
  5
7D
330
77
100
AcDbEntity
  8
002
 62
     3
370
    30
100
AcDbLine
 10
210.44721
 20
892.113118
 30
0.0
 11
210.44721
 21
895.62236
 31
0.0
  0
LINE
  5
7E
330
77
100
AcDbEntity
  8
002
 62
     3
370
    30
100
AcDbLine
 10
201.82221
 20
895.62236
 30
0.0
 11
201.82221
 21
892.113118
 31
0.0
  0
LINE
  5
7F
330
77
100
AcDbEntity
  8
002
 62
     3
370
    30
100
AcDbLine
 10
207.57221
 20
895.62236
 30
0.0
 11
207.57221
 21
892.113118
 31
0.0
  0
ARC
  5
80
330
77
100
AcDbEntity
  8
002
 62
     3
370
    30
100
AcDbCircle
 10
209.00971
 20
893.97311
 30
0.0
 40
2.35073893151023
100
AcDbArc
 50
232.301245
 51
270.0
  0
ARC
  5
81
330
77
100
AcDbEntity
  8
002
 62
     3
370
    30
100
AcDbCircle
 10
200.38471
 20
893.97311
 30
0.0
 40
2.35073893151023
100
AcDbArc
 50
270.0
 51
307.698755
  0
ARC
  5
82
330
77
100
AcDbEntity
  8
002
 62
     3
370
    30
100
AcDbCircle
 10
204.69721
 20
900.289205
 30
0.0
 40
8.666834132824174
100
AcDbArc
 50
250.626529
 51
289.373471
  0
LINE
  5
83
330
77
100
AcDbEntity
  8
002
 62
     3
370
    30
100
AcDbLine
 10
204.697216
 20
895.622371
 30
0.0
 11
204.697216
 21
895.62236
 31
0.0
  0
LINE
  5
84
330
77
100
AcDbEntity
  8
002
 62
     3
370
    30
100
AcDbLine
 10
204.697216
 20
895.622371
 30
0.0
 11
204.697205
 21
895.622371
 31
0.0
  0
LINE
  5
85
330
77
100
AcDbEntity
  8
002
 62
     3
370
    30
100
AcDbLine
 10
204.697205
 20
895.622371
 30
0.0
 11
204.697205
 21
895.62236
 31
0.0
  0
LINE
  5
86
330
77
100
AcDbEntity
  8
002
 62
     3
370
    30
100
AcDbLine
 10
198.94721
 20
892.113118
 30
0.0
 11
198.94721
 21
894.6777
 31
0.0
  0
LINE
  5
87
330
77
100
AcDbEntity
  8
002
 62
     3
370
    30
100
AcDbLine
 10
201.82221
 20
895.62236
 30
0.0
 11
210.44721
 21
895.62236
 31
0.0
  0
ENDBLK
  5
79
330
77
100
AcDbEntity
  8
0
100
AcDbBlockEnd
  0
BLOCK
  5
89
330
88
100
AcDbEntity
  8
0
100
AcDbBlockBegin
  2
JZB-5
 70
     0
 10
0.0
 20
0.0
 30
0.0
  3
JZB-5
  1

  0
LINE
  5
8B
330
88
100
AcDbEntity
  8
002
 62
     3
370
    30
100
AcDbLine
 10
351.802458
 20
254.998309
 30
0.0
 11
355.311699
 21
254.998309
 31
0.0
  0
LINE
  5
8C
330
88
100
AcDbEntity
  8
002
 62
     3
370
    30
100
AcDbLine
 10
351.31171
 20
255.848309
 30
0.0
 11
351.31171
 21
265.648309
 31
0.0
  0
LINE
  5
8D
330
88
100
AcDbEntity
  8
002
 62
     3
370
    30
100
AcDbLine
 10
355.311699
 20
254.998309
 30
0.0
 11
355.311699
 21
266.498309
 31
0.0
  0
LINE
  5
8E
330
88
100
AcDbEntity
  8
002
 62
     3
370
    30
100
AcDbLine
 10
351.31171
 20
255.848309
 30
0.0
 11
351.802458
 21
254.998309
 31
0.0
  0
LINE
  5
8F
330
88
100
AcDbEntity
  8
002
 62
     3
370
    30
100
AcDbLine
 10
351.31171
 20
265.648309
 30
0.0
 11
351.802458
 21
266.498309
 31
0.0
  0
LINE
  5
90
330
88
100
AcDbEntity
  8
002
 62
     3
370
    30
100
AcDbLine
 10
351.802458
 20
266.498309
 30
0.0
 11
355.311699
 21
266.498309
 31
0.0
  0
LINE
  5
91
330
88
100
AcDbEntity
  8
002
 62
     3
370
    30
100
AcDbLine
 10
355.311699
 20
257.873309
 30
0.0
 11
351.802458
 21
257.873309
 31
0.0
  0
LINE
  5
92
330
88
100
AcDbEntity
  8
002
 62
     3
370
    30
100
AcDbLine
 10
355.311699
 20
263.623309
 30
0.0
 11
351.802458
 21
263.623309
 31
0.0
  0
ARC
  5
93
330
88
100
AcDbEntity
  8
002
 62
     3
370
    30
100
AcDbCircle
 10
353.662449
 20
265.060809
 30
0.0
 40
2.35073893151023
100
AcDbArc
 50
180.0
 51
217.698755
  0
ARC
  5
94
330
88
100
AcDbEntity
  8
002
 62
     3
370
    30
100
AcDbCircle
 10
353.662449
 20
256.435809
 30
0.0
 40
2.35073893151023
100
AcDbArc
 50
142.301245
 51
180.0
  0
ARC
  5
95
330
88
100
AcDbEntity
  8
002
 62
     3
370
    30
100
AcDbCircle
 10
359.978544
 20
260.748309
 30
0.0
 40
8.666834132824174
100
AcDbArc
 50
160.626529
 51
199.373471
  0
LINE
  5
96
330
88
100
AcDbEntity
  8
002
 62
     3
370
    30
100
AcDbLine
 10
355.31171
 20
260.748315
 30
0.0
 11
355.311699
 21
260.748315
 31
0.0
  0
LINE
  5
97
330
88
100
AcDbEntity
  8
002
 62
     3
370
    30
100
AcDbLine
 10
355.31171
 20
260.748315
 30
0.0
 11
355.31171
 21
260.748304
 31
0.0
  0
LINE
  5
98
330
88
100
AcDbEntity
  8
002
 62
     3
370
    30
100
AcDbLine
 10
355.31171
 20
260.748304
 30
0.0
 11
355.311699
 21
260.748304
 31
0.0
  0
ENDBLK
  5
8A
330
88
100
AcDbEntity
  8
0
100
AcDbBlockEnd
  0
BLOCK
  5
9A
330
99
100
AcDbEntity
  8
0
100
AcDbBlockBegin
  2
JZB-6
 70
     0
 10
0.0
 20
0.0
 30
0.0
  3
JZB-6
  1

  0
LINE
  5
9C
330
99
100
AcDbEntity
  8
002
 62
     3
370
    30
100
AcDbLine
 10
351.802458
 20
306.096309
 30
0.0
 11
355.311699
 21
306.096309
 31
0.0
  0
LINE
  5
9D
330
99
100
AcDbEntity
  8
002
 62
     3
370
    30
100
AcDbLine
 10
351.31171
 20
305.246309
 30
0.0
 11
351.31171
 21
295.446309
 31
0.0
  0
LINE
  5
9E
330
99
100
AcDbEntity
  8
002
 62
     3
370
    30
100
AcDbLine
 10
355.311699
 20
306.096309
 30
0.0
 11
355.311699
 21
294.596309
 31
0.0
  0
LINE
  5
9F
330
99
100
AcDbEntity
  8
002
 62
     3
370
    30
100
AcDbLine
 10
351.31171
 20
305.246309
 30
0.0
 11
351.802458
 21
306.096309
 31
0.0
  0
LINE
  5
A0
330
99
100
AcDbEntity
  8
002
 62
     3
370
    30
100
AcDbLine
 10
351.31171
 20
295.446309
 30
0.0
 11
351.802458
 21
294.596309
 31
0.0
  0
LINE
  5
A1
330
99
100
AcDbEntity
  8
002
 62
     3
370
    30
100
AcDbLine
 10
351.802458
 20
294.596309
 30
0.0
 11
355.311699
 21
294.596309
 31
0.0
  0
LINE
  5
A2
330
99
100
AcDbEntity
  8
002
 62
     3
370
    30
100
AcDbLine
 10
355.311699
 20
303.221309
 30
0.0
 11
351.802458
 21
303.221309
 31
0.0
  0
LINE
  5
A3
330
99
100
AcDbEntity
  8
002
 62
     3
370
    30
100
AcDbLine
 10
355.311699
 20
297.471309
 30
0.0
 11
351.802458
 21
297.471309
 31
0.0
  0
ARC
  5
A4
330
99
100
AcDbEntity
  8
002
 62
     3
370
    30
100
AcDbCircle
 10
353.662449
 20
296.033809
 30
0.0
 40
2.35073893151023
100
AcDbArc
 50
142.301245
 51
180.0
  0
ARC
  5
A5
330
99
100
AcDbEntity
  8
002
 62
     3
370
    30
100
AcDbCircle
 10
353.662449
 20
304.658809
 30
0.0
 40
2.35073893151023
100
AcDbArc
 50
180.0
 51
217.698755
  0
ARC
  5
A6
330
99
100
AcDbEntity
  8
002
 62
     3
370
    30
100
AcDbCircle
 10
359.978544
 20
300.346309
 30
0.0
 40
8.666834132824174
100
AcDbArc
 50
160.626529
 51
199.373471
  0
LINE
  5
A7
330
99
100
AcDbEntity
  8
002
 62
     3
370
    30
100
AcDbLine
 10
355.31171
 20
300.346304
 30
0.0
 11
355.311699
 21
300.346304
 31
0.0
  0
LINE
  5
A8
330
99
100
AcDbEntity
  8
002
 62
     3
370
    30
100
AcDbLine
 10
355.31171
 20
300.346304
 30
0.0
 11
355.31171
 21
300.346315
 31
0.0
  0
LINE
  5
A9
330
99
100
AcDbEntity
  8
002
 62
     3
370
    30
100
AcDbLine
 10
355.31171
 20
300.346315
 30
0.0
 11
355.311699
 21
300.346315
 31
0.0
  0
ENDBLK
  5
9B
330
99
100
AcDbEntity
  8
0
100
AcDbBlockEnd
  0
BLOCK
  5
AB
330
AA
100
AcDbEntity
  8
0
100
AcDbBlockBegin
  2
JZB-7
 70
     0
 10
0.0
 20
0.0
 30
0.0
  3
JZB-7
  1

  0
LINE
  5
AD
330
AA
100
AcDbEntity
  8
002
 62
     3
370
    30
100
AcDbLine
 10
470.820962
 20
254.998309
 30
0.0
 11
467.311721
 21
254.998309
 31
0.0
  0
LINE
  5
AE
330
AA
100
AcDbEntity
  8
002
 62
     3
370
    30
100
AcDbLine
 10
471.31171
 20
255.848309
 30
0.0
 11
471.31171
 21
265.648309
 31
0.0
  0
LINE
  5
AF
330
AA
100
AcDbEntity
  8
002
 62
     3
370
    30
100
AcDbLine
 10
467.311721
 20
254.998309
 30
0.0
 11
467.311721
 21
266.498309
 31
0.0
  0
LINE
  5
B0
330
AA
100
AcDbEntity
  8
002
 62
     3
370
    30
100
AcDbLine
 10
471.31171
 20
255.848309
 30
0.0
 11
470.820962
 21
254.998309
 31
0.0
  0
LINE
  5
B1
330
AA
100
AcDbEntity
  8
002
 62
     3
370
    30
100
AcDbLine
 10
471.31171
 20
265.648309
 30
0.0
 11
470.820962
 21
266.498309
 31
0.0
  0
LINE
  5
B2
330
AA
100
AcDbEntity
  8
002
 62
     3
370
    30
100
AcDbLine
 10
470.820962
 20
266.498309
 30
0.0
 11
467.311721
 21
266.498309
 31
0.0
  0
LINE
  5
B3
330
AA
100
AcDbEntity
  8
002
 62
     3
370
    30
100
AcDbLine
 10
467.311721
 20
257.873309
 30
0.0
 11
470.820962
 21
257.873309
 31
0.0
  0
LINE
  5
B4
330
AA
100
AcDbEntity
  8
002
 62
     3
370
    30
100
AcDbLine
 10
467.311721
 20
263.623309
 30
0.0
 11
470.820962
 21
263.623309
 31
0.0
  0
ARC
  5
B5
330
AA
100
AcDbEntity
  8
002
 62
     3
370
    30
100
AcDbCircle
 10
468.960971
 20
265.060809
 30
0.0
 40
2.35073893151023
100
AcDbArc
 50
322.301245
 51
0.0
  0
ARC
  5
B6
330
AA
100
AcDbEntity
  8
002
 62
     3
370
    30
100
AcDbCircle
 10
468.960971
 20
256.435809
 30
0.0
 40
2.35073893151023
100
AcDbArc
 50
0.0
 51
37.698755
  0
ARC
  5
B7
330
AA
100
AcDbEntity
  8
002
 62
     3
370
    30
100
AcDbCircle
 10
462.644876
 20
260.748309
 30
0.0
 40
8.666834132824174
100
AcDbArc
 50
340.626529
 51
19.373471
  0
LINE
  5
B8
330
AA
100
AcDbEntity
  8
002
 62
     3
370
    30
100
AcDbLine
 10
467.31171
 20
260.748315
 30
0.0
 11
467.311721
 21
260.748315
 31
0.0
  0
LINE
  5
B9
330
AA
100
AcDbEntity
  8
002
 62
     3
370
    30
100
AcDbLine
 10
467.31171
 20
260.748315
 30
0.0
 11
467.31171
 21
260.748304
 31
0.0
  0
LINE
  5
BA
330
AA
100
AcDbEntity
  8
002
 62
     3
370
    30
100
AcDbLine
 10
467.31171
 20
260.748304
 30
0.0
 11
467.311721
 21
260.748304
 31
0.0
  0
ENDBLK
  5
AC
330
AA
100
AcDbEntity
  8
0
100
AcDbBlockEnd
  0
BLOCK
  5
BC
330
BB
100
AcDbEntity
  8
0
100
AcDbBlockBegin
  2
JZB-8
 70
     0
 10
0.0
 20
0.0
 30
0.0
  3
JZB-8
  1

  0
LINE
  5
BE
330
BB
100
AcDbEntity
  8
002
 62
     3
370
    30
100
AcDbLine
 10
471.31171
 20
305.246309
 30
0.0
 11
471.31171
 21
295.446309
 31
0.0
  0
LINE
  5
BF
330
BB
100
AcDbEntity
  8
002
 62
     3
370
    30
100
AcDbLine
 10
471.31171
 20
305.246309
 30
0.0
 11
470.820962
 21
306.096309
 31
0.0
  0
LINE
  5
C0
330
BB
100
AcDbEntity
  8
002
 62
     3
370
    30
100
AcDbLine
 10
471.31171
 20
295.446309
 30
0.0
 11
470.820962
 21
294.596309
 31
0.0
  0
LINE
  5
C1
330
BB
100
AcDbEntity
  8
002
 62
     3
370
    30
100
AcDbLine
 10
470.820962
 20
294.596309
 30
0.0
 11
467.311721
 21
294.596309
 31
0.0
  0
LINE
  5
C2
330
BB
100
AcDbEntity
  8
002
 62
     3
370
    30
100
AcDbLine
 10
467.311721
 20
303.221309
 30
0.0
 11
470.820962
 21
303.221309
 31
0.0
  0
LINE
  5
C3
330
BB
100
AcDbEntity
  8
002
 62
     3
370
    30
100
AcDbLine
 10
467.311721
 20
297.471309
 30
0.0
 11
470.820962
 21
297.471309
 31
0.0
  0
ARC
  5
C4
330
BB
100
AcDbEntity
  8
002
 62
     3
370
    30
100
AcDbCircle
 10
468.960971
 20
296.033809
 30
0.0
 40
2.35073893151023
100
AcDbArc
 50
0.0
 51
37.698755
  0
ARC
  5
C5
330
BB
100
AcDbEntity
  8
002
 62
     3
370
    30
100
AcDbCircle
 10
468.960971
 20
304.658809
 30
0.0
 40
2.35073893151023
100
AcDbArc
 50
322.301245
 51
0.0
  0
ARC
  5
C6
330
BB
100
AcDbEntity
  8
002
 62
     3
370
    30
100
AcDbCircle
 10
462.644876
 20
300.346309
 30
0.0
 40
8.666834132824174
100
AcDbArc
 50
340.626529
 51
19.373471
  0
LINE
  5
C7
330
BB
100
AcDbEntity
  8
002
 62
     3
370
    30
100
AcDbLine
 10
467.31171
 20
300.346304
 30
0.0
 11
467.311721
 21
300.346304
 31
0.0
  0
LINE
  5
C8
330
BB
100
AcDbEntity
  8
002
 62
     3
370
    30
100
AcDbLine
 10
467.31171
 20
300.346304
 30
0.0
 11
467.31171
 21
300.346315
 31
0.0
  0
LINE
  5
C9
330
BB
100
AcDbEntity
  8
002
 62
     3
370
    30
100
AcDbLine
 10
467.31171
 20
300.346315
 30
0.0
 11
467.311721
 21
300.346315
 31
0.0
  0
LINE
  5
CA
330
BB
100
AcDbEntity
  8
002
 62
     3
370
    30
100
AcDbLine
 10
467.311721
 20
303.221309
 30
0.0
 11
467.311721
 21
294.596309
 31
0.0
  0
LINE
  5
CB
330
BB
100
AcDbEntity
  8
002
 62
     3
370
    30
100
AcDbLine
 10
470.820962
 20
306.096309
 30
0.0
 11
467.31171
 21
306.096309
 31
0.0
  0
ENDBLK
  5
BD
330
BB
100
AcDbEntity
  8
0
100
AcDbBlockEnd
  0
BLOCK
  5
CD
330
CC
100
AcDbEntity
  8
0
100
AcDbBlockBegin
  2
JZB-9
 70
     0
 10
0.0
 20
0.0
 30
0.0
  3
JZB-9
  1

  0
LINE
  5
CF
330
CC
100
AcDbEntity
  8
003
 62
     3
370
    30
100
AcDbLine
 10
249.872475
 20
298.852007
 30
0.0
 11
248.378183
 21
304.428782
 31
0.0
  0
LINE
  5
D0
330
CC
100
AcDbEntity
  8
003
 62
     3
370
    30
100
AcDbLine
 10
240.213217
 20
296.263816
 30
0.0
 11
238.718925
 21
301.840591
 31
0.0
  0
LINE
  5
D1
330
CC
100
AcDbEntity
  8
003
 62
     3
370
    30
100
AcDbLine
 10
245.789992
 20
294.769524
 30
0.0
 11
240.213217
 21
296.263816
 31
0.0
  0
LINE
  5
D2
330
CC
100
AcDbEntity
  8
003
 62
     3
370
    30
100
AcDbLine
 10
242.801408
 20
305.923074
 30
0.0
 11
248.378183
 21
304.428782
 31
0.0
  0
LINE
  5
D3
330
CC
100
AcDbEntity
  8
003
 62
     3
370
    30
100
AcDbLine
 10
238.718925
 20
301.840591
 30
0.0
 11
242.801408
 21
305.923074
 31
0.0
  0
LINE
  5
D4
330
CC
100
AcDbEntity
  8
003
 62
     3
370
    30
100
AcDbLine
 10
249.872475
 20
298.852007
 30
0.0
 11
245.789992
 21
294.769524
 31
0.0
  0
CIRCLE
  5
D5
330
CC
100
AcDbEntity
  8
003
 62
     3
370
    30
100
AcDbCircle
 10
244.2957
 20
300.346299
 30
0.0
 40
4.999999999999998
  0
LINE
  5
D6
330
CC
100
AcDbEntity
  8
003
  6
CENTER
 62
    40
370
     9
100
AcDbLine
 10
248.647731
 20
304.69833
 30
0.0
 11
239.94367
 21
295.994269
 31
0.0
  0
ENDBLK
  5
CE
330
CC
100
AcDbEntity
  8
0
100
AcDbBlockEnd
  0
BLOCK
  5
D8
330
D7
100
AcDbEntity
  8
0
100
AcDbBlockBegin
  2
JZB-10
 70
     0
 10
0.0
 20
0.0
 30
0.0
  3
JZB-10
  1

  0
LINE
  5
DA
330
D7
100
AcDbEntity
  8
003
 62
     3
370
    30
100
AcDbLine
 10
242.801408
 20
255.171544
 30
0.0
 11
248.378183
 21
256.665836
 31
0.0
  0
LINE
  5
DB
330
D7
100
AcDbEntity
  8
003
 62
     3
370
    30
100
AcDbLine
 10
240.213217
 20
264.830802
 30
0.0
 11
245.789993
 21
266.325095
 31
0.0
  0
LINE
  5
DC
330
D7
100
AcDbEntity
  8
003
 62
     3
370
    30
100
AcDbLine
 10
238.718925
 20
259.254027
 30
0.0
 11
240.213217
 21
264.830802
 31
0.0
  0
LINE
  5
DD
330
D7
100
AcDbEntity
  8
003
 62
     3
370
    30
100
AcDbLine
 10
249.872475
 20
262.242612
 30
0.0
 11
248.378183
 21
256.665836
 31
0.0
  0
LINE
  5
DE
330
D7
100
AcDbEntity
  8
003
 62
     3
370
    30
100
AcDbLine
 10
245.789993
 20
266.325095
 30
0.0
 11
249.872475
 21
262.242612
 31
0.0
  0
LINE
  5
DF
330
D7
100
AcDbEntity
  8
003
 62
     3
370
    30
100
AcDbLine
 10
242.801408
 20
255.171544
 30
0.0
 11
238.718925
 21
259.254027
 31
0.0
  0
CIRCLE
  5
E0
330
D7
100
AcDbEntity
  8
003
 62
     3
370
    30
100
AcDbCircle
 10
244.2957
 20
260.748319
 30
0.0
 40
4.999999999999998
  0
LINE
  5
E1
330
D7
100
AcDbEntity
  8
003
  6
CENTER
 62
    40
370
     9
100
AcDbLine
 10
248.647731
 20
256.396289
 30
0.0
 11
239.94367
 21
265.10035
 31
0.0
  0
ENDBLK
  5
D9
330
D7
100
AcDbEntity
  8
0
100
AcDbBlockEnd
  0
BLOCK
  5
E3
330
E2
100
AcDbEntity
  8
0
100
AcDbBlockBegin
  2
JZB-11
 70
     0
 10
0.0
 20
0.0
 30
0.0
  3
JZB-11
  1

  0
LINE
  5
E5
330
E2
100
AcDbEntity
  8
003
 62
     3
370
    30
100
AcDbLine
 10
199.120945
 20
262.242612
 30
0.0
 11
200.615237
 21
256.665836
 31
0.0
  0
LINE
  5
E6
330
E2
100
AcDbEntity
  8
003
 62
     3
370
    30
100
AcDbLine
 10
208.780203
 20
264.830802
 30
0.0
 11
210.274496
 21
259.254027
 31
0.0
  0
LINE
  5
E7
330
E2
100
AcDbEntity
  8
003
 62
     3
370
    30
100
AcDbLine
 10
203.203428
 20
266.325095
 30
0.0
 11
208.780203
 21
264.830802
 31
0.0
  0
LINE
  5
E8
330
E2
100
AcDbEntity
  8
003
 62
     3
370
    30
100
AcDbLine
 10
206.192013
 20
255.171544
 30
0.0
 11
200.615237
 21
256.665836
 31
0.0
  0
LINE
  5
E9
330
E2
100
AcDbEntity
  8
003
 62
     3
370
    30
100
AcDbLine
 10
210.274496
 20
259.254027
 30
0.0
 11
206.192013
 21
255.171544
 31
0.0
  0
LINE
  5
EA
330
E2
100
AcDbEntity
  8
003
 62
     3
370
    30
100
AcDbLine
 10
199.120945
 20
262.242612
 30
0.0
 11
203.203428
 21
266.325095
 31
0.0
  0
CIRCLE
  5
EB
330
E2
100
AcDbEntity
  8
003
 62
     3
370
    30
100
AcDbCircle
 10
204.69772
 20
260.748319
 30
0.0
 40
4.999999999999998
  0
LINE
  5
EC
330
E2
100
AcDbEntity
  8
003
  6
CENTER
 62
    40
370
     9
100
AcDbLine
 10
200.34569
 20
256.396289
 30
0.0
 11
209.049751
 21
265.10035
 31
0.0
  0
ENDBLK
  5
E4
330
E2
100
AcDbEntity
  8
0
100
AcDbBlockEnd
  0
BLOCK
  5
EE
330
ED
100
AcDbEntity
  8
0
100
AcDbBlockBegin
  2
JZB-12
 70
     0
 10
0.0
 20
0.0
 30
0.0
  3
JZB-12
  1

  0
LINE
  5
F0
330
ED
100
AcDbEntity
  8
003
 62
     3
370
    30
100
AcDbLine
 10
206.192013
 20
305.923074
 30
0.0
 11
200.615237
 21
304.428782
 31
0.0
  0
LINE
  5
F1
330
ED
100
AcDbEntity
  8
003
 62
     3
370
    30
100
AcDbLine
 10
208.780203
 20
296.263816
 30
0.0
 11
203.203428
 21
294.769524
 31
0.0
  0
LINE
  5
F2
330
ED
100
AcDbEntity
  8
003
 62
     3
370
    30
100
AcDbLine
 10
210.274496
 20
301.840591
 30
0.0
 11
208.780203
 21
296.263816
 31
0.0
  0
LINE
  5
F3
330
ED
100
AcDbEntity
  8
003
 62
     3
370
    30
100
AcDbLine
 10
199.120945
 20
298.852007
 30
0.0
 11
200.615237
 21
304.428782
 31
0.0
  0
LINE
  5
F4
330
ED
100
AcDbEntity
  8
003
 62
     3
370
    30
100
AcDbLine
 10
203.203428
 20
294.769524
 30
0.0
 11
199.120945
 21
298.852007
 31
0.0
  0
LINE
  5
F5
330
ED
100
AcDbEntity
  8
003
 62
     3
370
    30
100
AcDbLine
 10
206.192013
 20
305.923074
 30
0.0
 11
210.274496
 21
301.840591
 31
0.0
  0
CIRCLE
  5
F6
330
ED
100
AcDbEntity
  8
003
 62
     3
370
    30
100
AcDbCircle
 10
204.69772
 20
300.346299
 30
0.0
 40
4.999999999999998
  0
LINE
  5
F7
330
ED
100
AcDbEntity
  8
003
  6
CENTER
 62
    40
370
     9
100
AcDbLine
 10
200.34569
 20
304.69833
 30
0.0
 11
209.049751
 21
295.994269
 31
0.0
  0
ENDBLK
  5
EF
330
ED
100
AcDbEntity
  8
0
100
AcDbBlockEnd
  0
BLOCK
  5
F9
330
F8
100
AcDbEntity
  8
0
100
AcDbBlockBegin
  2
JZB-13
 70
     0
 10
0.0
 20
0.0
 30
0.0
  3
JZB-13
  1

  0
LINE
  5
FB
330
F8
100
AcDbEntity
  8
003
 62
     3
370
    30
100
AcDbLine
 10
752.710034
 20
298.852007
 30
0.0
 11
751.215742
 21
304.428782
 31
0.0
  0
LINE
  5
FC
330
F8
100
AcDbEntity
  8
003
 62
     3
370
    30
100
AcDbLine
 10
743.050776
 20
296.263816
 30
0.0
 11
741.556484
 21
301.840591
 31
0.0
  0
LINE
  5
FD
330
F8
100
AcDbEntity
  8
003
 62
     3
370
    30
100
AcDbLine
 10
748.627551
 20
294.769524
 30
0.0
 11
743.050776
 21
296.263816
 31
0.0
  0
LINE
  5
FE
330
F8
100
AcDbEntity
  8
003
 62
     3
370
    30
100
AcDbLine
 10
745.638967
 20
305.923074
 30
0.0
 11
751.215742
 21
304.428782
 31
0.0
  0
LINE
  5
FF
330
F8
100
AcDbEntity
  8
003
 62
     3
370
    30
100
AcDbLine
 10
741.556484
 20
301.840591
 30
0.0
 11
745.638967
 21
305.923074
 31
0.0
  0
LINE
  5
100
330
F8
100
AcDbEntity
  8
003
 62
     3
370
    30
100
AcDbLine
 10
752.710034
 20
298.852007
 30
0.0
 11
748.627551
 21
294.769524
 31
0.0
  0
CIRCLE
  5
101
330
F8
100
AcDbEntity
  8
003
 62
     3
370
    30
100
AcDbCircle
 10
747.133259
 20
300.346299
 30
0.0
 40
4.999999999999998
  0
LINE
  5
102
330
F8
100
AcDbEntity
  8
003
  6
CENTER
 62
    40
370
     9
100
AcDbLine
 10
751.48529
 20
304.69833
 30
0.0
 11
742.781229
 21
295.994269
 31
0.0
  0
ENDBLK
  5
FA
330
F8
100
AcDbEntity
  8
0
100
AcDbBlockEnd
  0
BLOCK
  5
104
330
103
100
AcDbEntity
  8
0
100
AcDbBlockBegin
  2
JZB-14
 70
     0
 10
0.0
 20
0.0
 30
0.0
  3
JZB-14
  1

  0
LINE
  5
106
330
103
100
AcDbEntity
  8
003
 62
     3
370
    30
100
AcDbLine
 10
745.638967
 20
255.171544
 30
0.0
 11
751.215742
 21
256.665836
 31
0.0
  0
LINE
  5
107
330
103
100
AcDbEntity
  8
003
 62
     3
370
    30
100
AcDbLine
 10
743.050776
 20
264.830802
 30
0.0
 11
748.627552
 21
266.325095
 31
0.0
  0
LINE
  5
108
330
103
100
AcDbEntity
  8
003
 62
     3
370
    30
100
AcDbLine
 10
741.556484
 20
259.254027
 30
0.0
 11
743.050776
 21
264.830802
 31
0.0
  0
LINE
  5
109
330
103
100
AcDbEntity
  8
003
 62
     3
370
    30
100
AcDbLine
 10
752.710034
 20
262.242612
 30
0.0
 11
751.215742
 21
256.665836
 31
0.0
  0
LINE
  5
10A
330
103
100
AcDbEntity
  8
003
 62
     3
370
    30
100
AcDbLine
 10
748.627552
 20
266.325095
 30
0.0
 11
752.710034
 21
262.242612
 31
0.0
  0
LINE
  5
10B
330
103
100
AcDbEntity
  8
003
 62
     3
370
    30
100
AcDbLine
 10
745.638967
 20
255.171544
 30
0.0
 11
741.556484
 21
259.254027
 31
0.0
  0
CIRCLE
  5
10C
330
103
100
AcDbEntity
  8
003
 62
     3
370
    30
100
AcDbCircle
 10
747.133259
 20
260.748319
 30
0.0
 40
4.999999999999998
  0
LINE
  5
10D
330
103
100
AcDbEntity
  8
003
  6
CENTER
 62
    40
370
     9
100
AcDbLine
 10
751.48529
 20
256.396289
 30
0.0
 11
742.781229
 21
265.10035
 31
0.0
  0
ENDBLK
  5
105
330
103
100
AcDbEntity
  8
0
100
AcDbBlockEnd
  0
BLOCK
  5
10F
330
10E
100
AcDbEntity
  8
0
100
AcDbBlockBegin
  2
JZB-15
 70
     0
 10
0.0
 20
0.0
 30
0.0
  3
JZB-15
  1

  0
LINE
  5
111
330
10E
100
AcDbEntity
  8
003
 62
     3
370
    30
100
AcDbLine
 10
701.958504
 20
262.242612
 30
0.0
 11
703.452796
 21
256.665836
 31
0.0
  0
LINE
  5
112
330
10E
100
AcDbEntity
  8
003
 62
     3
370
    30
100
AcDbLine
 10
711.617762
 20
264.830802
 30
0.0
 11
713.112055
 21
259.254027
 31
0.0
  0
LINE
  5
113
330
10E
100
AcDbEntity
  8
003
 62
     3
370
    30
100
AcDbLine
 10
706.040987
 20
266.325095
 30
0.0
 11
711.617762
 21
264.830802
 31
0.0
  0
LINE
  5
114
330
10E
100
AcDbEntity
  8
003
 62
     3
370
    30
100
AcDbLine
 10
709.029572
 20
255.171544
 30
0.0
 11
703.452796
 21
256.665836
 31
0.0
  0
LINE
  5
115
330
10E
100
AcDbEntity
  8
003
 62
     3
370
    30
100
AcDbLine
 10
713.112055
 20
259.254027
 30
0.0
 11
709.029572
 21
255.171544
 31
0.0
  0
LINE
  5
116
330
10E
100
AcDbEntity
  8
003
 62
     3
370
    30
100
AcDbLine
 10
701.958504
 20
262.242612
 30
0.0
 11
706.040987
 21
266.325095
 31
0.0
  0
CIRCLE
  5
117
330
10E
100
AcDbEntity
  8
003
 62
     3
370
    30
100
AcDbCircle
 10
707.535279
 20
260.748319
 30
0.0
 40
4.999999999999998
  0
LINE
  5
118
330
10E
100
AcDbEntity
  8
003
  6
CENTER
 62
    40
370
     9
100
AcDbLine
 10
703.183249
 20
256.396289
 30
0.0
 11
711.88731
 21
265.10035
 31
0.0
  0
ENDBLK
  5
110
330
10E
100
AcDbEntity
  8
0
100
AcDbBlockEnd
  0
BLOCK
  5
11A
330
119
100
AcDbEntity
  8
0
100
AcDbBlockBegin
  2
JZB-16
 70
     0
 10
0.0
 20
0.0
 30
0.0
  3
JZB-16
  1

  0
LINE
  5
11C
330
119
100
AcDbEntity
  8
003
 62
     3
370
    30
100
AcDbLine
 10
709.029572
 20
305.923074
 30
0.0
 11
703.452796
 21
304.428782
 31
0.0
  0
LINE
  5
11D
330
119
100
AcDbEntity
  8
003
 62
     3
370
    30
100
AcDbLine
 10
711.617762
 20
296.263816
 30
0.0
 11
706.040987
 21
294.769524
 31
0.0
  0
LINE
  5
11E
330
119
100
AcDbEntity
  8
003
 62
     3
370
    30
100
AcDbLine
 10
713.112055
 20
301.840591
 30
0.0
 11
711.617762
 21
296.263816
 31
0.0
  0
LINE
  5
11F
330
119
100
AcDbEntity
  8
003
 62
     3
370
    30
100
AcDbLine
 10
701.958504
 20
298.852007
 30
0.0
 11
703.452796
 21
304.428782
 31
0.0
  0
LINE
  5
120
330
119
100
AcDbEntity
  8
003
 62
     3
370
    30
100
AcDbLine
 10
706.040987
 20
294.769524
 30
0.0
 11
701.958504
 21
298.852007
 31
0.0
  0
LINE
  5
121
330
119
100
AcDbEntity
  8
003
 62
     3
370
    30
100
AcDbLine
 10
709.029572
 20
305.923074
 30
0.0
 11
713.112055
 21
301.840591
 31
0.0
  0
CIRCLE
  5
122
330
119
100
AcDbEntity
  8
003
 62
     3
370
    30
100
AcDbCircle
 10
707.535279
 20
300.346299
 30
0.0
 40
4.999999999999998
  0
LINE
  5
123
330
119
100
AcDbEntity
  8
003
  6
CENTER
 62
    40
370
     9
100
AcDbLine
 10
703.183249
 20
304.69833
 30
0.0
 11
711.88731
 21
295.994269
 31
0.0
  0
ENDBLK
  5
11B
330
119
100
AcDbEntity
  8
0
100
AcDbBlockEnd
  0
BLOCK
  5
125
330
124
100
AcDbEntity
  8
0
100
AcDbBlockBegin
  2
JZB-17
 70
     0
 10
0.0
 20
0.0
 30
0.0
  3
JZB-17
  1

  0
LINE
  5
127
330
124
100
AcDbEntity
  8
003
 62
     3
370
    30
100
AcDbLine
 10
964.543182
 20
298.852007
 30
0.0
 11
963.048889
 21
304.428782
 31
0.0
  0
LINE
  5
128
330
124
100
AcDbEntity
  8
003
 62
     3
370
    30
100
AcDbLine
 10
954.883923
 20
296.263816
 30
0.0
 11
953.389631
 21
301.840591
 31
0.0
  0
LINE
  5
129
330
124
100
AcDbEntity
  8
003
 62
     3
370
    30
100
AcDbLine
 10
960.460699
 20
294.769524
 30
0.0
 11
954.883923
 21
296.263816
 31
0.0
  0
LINE
  5
12A
330
124
100
AcDbEntity
  8
003
 62
     3
370
    30
100
AcDbLine
 10
957.472114
 20
305.923074
 30
0.0
 11
963.048889
 21
304.428782
 31
0.0
  0
LINE
  5
12B
330
124
100
AcDbEntity
  8
003
 62
     3
370
    30
100
AcDbLine
 10
953.389631
 20
301.840591
 30
0.0
 11
957.472114
 21
305.923074
 31
0.0
  0
LINE
  5
12C
330
124
100
AcDbEntity
  8
003
 62
     3
370
    30
100
AcDbLine
 10
964.543182
 20
298.852007
 30
0.0
 11
960.460699
 21
294.769524
 31
0.0
  0
CIRCLE
  5
12D
330
124
100
AcDbEntity
  8
003
 62
     3
370
    30
100
AcDbCircle
 10
958.966406
 20
300.346299
 30
0.0
 40
4.999999999999998
  0
LINE
  5
12E
330
124
100
AcDbEntity
  8
003
  6
CENTER
 62
    40
370
     9
100
AcDbLine
 10
963.318437
 20
304.69833
 30
0.0
 11
954.614376
 21
295.994269
 31
0.0
  0
ENDBLK
  5
126
330
124
100
AcDbEntity
  8
0
100
AcDbBlockEnd
  0
BLOCK
  5
130
330
12F
100
AcDbEntity
  8
0
100
AcDbBlockBegin
  2
JZB-18
 70
     0
 10
0.0
 20
0.0
 30
0.0
  3
JZB-18
  1

  0
LINE
  5
132
330
12F
100
AcDbEntity
  8
003
 62
     3
370
    30
100
AcDbLine
 10
957.472114
 20
255.171544
 30
0.0
 11
963.048889
 21
256.665836
 31
0.0
  0
LINE
  5
133
330
12F
100
AcDbEntity
  8
003
 62
     3
370
    30
100
AcDbLine
 10
954.883923
 20
264.830802
 30
0.0
 11
960.460699
 21
266.325095
 31
0.0
  0
LINE
  5
134
330
12F
100
AcDbEntity
  8
003
 62
     3
370
    30
100
AcDbLine
 10
953.389631
 20
259.254027
 30
0.0
 11
954.883923
 21
264.830802
 31
0.0
  0
LINE
  5
135
330
12F
100
AcDbEntity
  8
003
 62
     3
370
    30
100
AcDbLine
 10
964.543182
 20
262.242612
 30
0.0
 11
963.048889
 21
256.665836
 31
0.0
  0
LINE
  5
136
330
12F
100
AcDbEntity
  8
003
 62
     3
370
    30
100
AcDbLine
 10
960.460699
 20
266.325095
 30
0.0
 11
964.543182
 21
262.242612
 31
0.0
  0
LINE
  5
137
330
12F
100
AcDbEntity
  8
003
 62
     3
370
    30
100
AcDbLine
 10
957.472114
 20
255.171544
 30
0.0
 11
953.389631
 21
259.254027
 31
0.0
  0
CIRCLE
  5
138
330
12F
100
AcDbEntity
  8
003
 62
     3
370
    30
100
AcDbCircle
 10
958.966406
 20
260.748319
 30
0.0
 40
4.999999999999998
  0
LINE
  5
139
330
12F
100
AcDbEntity
  8
003
  6
CENTER
 62
    40
370
     9
100
AcDbLine
 10
963.318437
 20
256.396289
 30
0.0
 11
954.614376
 21
265.10035
 31
0.0
  0
ENDBLK
  5
131
330
12F
100
AcDbEntity
  8
0
100
AcDbBlockEnd
  0
BLOCK
  5
13B
330
13A
100
AcDbEntity
  8
0
100
AcDbBlockBegin
  2
JZB-19
 70
     0
 10
0.0
 20
0.0
 30
0.0
  3
JZB-19
  1

  0
LINE
  5
13D
330
13A
100
AcDbEntity
  8
003
 62
     3
370
    30
100
AcDbLine
 10
913.791651
 20
262.242612
 30
0.0
 11
915.285944
 21
256.665836
 31
0.0
  0
LINE
  5
13E
330
13A
100
AcDbEntity
  8
003
 62
     3
370
    30
100
AcDbLine
 10
923.45091
 20
264.830802
 30
0.0
 11
924.945202
 21
259.254027
 31
0.0
  0
LINE
  5
13F
330
13A
100
AcDbEntity
  8
003
 62
     3
370
    30
100
AcDbLine
 10
917.874134
 20
266.325095
 30
0.0
 11
923.45091
 21
264.830802
 31
0.0
  0
LINE
  5
140
330
13A
100
AcDbEntity
  8
003
 62
     3
370
    30
100
AcDbLine
 10
920.862719
 20
255.171544
 30
0.0
 11
915.285944
 21
256.665836
 31
0.0
  0
LINE
  5
141
330
13A
100
AcDbEntity
  8
003
 62
     3
370
    30
100
AcDbLine
 10
924.945202
 20
259.254027
 30
0.0
 11
920.862719
 21
255.171544
 31
0.0
  0
LINE
  5
142
330
13A
100
AcDbEntity
  8
003
 62
     3
370
    30
100
AcDbLine
 10
913.791651
 20
262.242612
 30
0.0
 11
917.874134
 21
266.325095
 31
0.0
  0
CIRCLE
  5
143
330
13A
100
AcDbEntity
  8
003
 62
     3
370
    30
100
AcDbCircle
 10
919.368427
 20
260.748319
 30
0.0
 40
4.999999999999998
  0
LINE
  5
144
330
13A
100
AcDbEntity
  8
003
  6
CENTER
 62
    40
370
     9
100
AcDbLine
 10
915.016396
 20
256.396289
 30
0.0
 11
923.720457
 21
265.10035
 31
0.0
  0
ENDBLK
  5
13C
330
13A
100
AcDbEntity
  8
0
100
AcDbBlockEnd
  0
BLOCK
  5
146
330
145
100
AcDbEntity
  8
0
100
AcDbBlockBegin
  2
JZB-20
 70
     0
 10
0.0
 20
0.0
 30
0.0
  3
JZB-20
  1

  0
LINE
  5
148
330
145
100
AcDbEntity
  8
003
 62
     3
370
    30
100
AcDbLine
 10
920.862719
 20
305.923074
 30
0.0
 11
915.285944
 21
304.428782
 31
0.0
  0
LINE
  5
149
330
145
100
AcDbEntity
  8
003
 62
     3
370
    30
100
AcDbLine
 10
923.45091
 20
296.263816
 30
0.0
 11
917.874134
 21
294.769524
 31
0.0
  0
LINE
  5
14A
330
145
100
AcDbEntity
  8
003
 62
     3
370
    30
100
AcDbLine
 10
924.945202
 20
301.840591
 30
0.0
 11
923.45091
 21
296.263816
 31
0.0
  0
LINE
  5
14B
330
145
100
AcDbEntity
  8
003
 62
     3
370
    30
100
AcDbLine
 10
913.791651
 20
298.852007
 30
0.0
 11
915.285944
 21
304.428782
 31
0.0
  0
LINE
  5
14C
330
145
100
AcDbEntity
  8
003
 62
     3
370
    30
100
AcDbLine
 10
917.874134
 20
294.769524
 30
0.0
 11
913.791651
 21
298.852007
 31
0.0
  0
LINE
  5
14D
330
145
100
AcDbEntity
  8
003
 62
     3
370
    30
100
AcDbLine
 10
920.862719
 20
305.923074
 30
0.0
 11
924.945202
 21
301.840591
 31
0.0
  0
CIRCLE
  5
14E
330
145
100
AcDbEntity
  8
003
 62
     3
370
    30
100
AcDbCircle
 10
919.368427
 20
300.346299
 30
0.0
 40
4.999999999999998
  0
LINE
  5
14F
330
145
100
AcDbEntity
  8
003
  6
CENTER
 62
    40
370
     9
100
AcDbLine
 10
915.016396
 20
304.69833
 30
0.0
 11
923.720457
 21
295.994269
 31
0.0
  0
ENDBLK
  5
147
330
145
100
AcDbEntity
  8
0
100
AcDbBlockEnd
  0
BLOCK
  5
151
330
150
100
AcDbEntity
  8
0
100
AcDbBlockBegin
  2
JZB-21
 70
     0
 10
0.0
 20
0.0
 30
0.0
  3
JZB-21
  1

  0
LINE
  5
153
330
150
100
AcDbEntity
  8
003
 62
     3
370
    30
100
AcDbLine
 10
1174.543182
 20
298.852007
 30
0.0
 11
1173.048889
 21
304.428782
 31
0.0
  0
LINE
  5
154
330
150
100
AcDbEntity
  8
003
 62
     3
370
    30
100
AcDbLine
 10
1164.883923
 20
296.263816
 30
0.0
 11
1163.389631
 21
301.840591
 31
0.0
  0
LINE
  5
155
330
150
100
AcDbEntity
  8
003
 62
     3
370
    30
100
AcDbLine
 10
1170.460699
 20
294.769524
 30
0.0
 11
1164.883923
 21
296.263816
 31
0.0
  0
LINE
  5
156
330
150
100
AcDbEntity
  8
003
 62
     3
370
    30
100
AcDbLine
 10
1167.472114
 20
305.923074
 30
0.0
 11
1173.048889
 21
304.428782
 31
0.0
  0
LINE
  5
157
330
150
100
AcDbEntity
  8
003
 62
     3
370
    30
100
AcDbLine
 10
1163.389631
 20
301.840591
 30
0.0
 11
1167.472114
 21
305.923074
 31
0.0
  0
LINE
  5
158
330
150
100
AcDbEntity
  8
003
 62
     3
370
    30
100
AcDbLine
 10
1174.543182
 20
298.852007
 30
0.0
 11
1170.460699
 21
294.769524
 31
0.0
  0
CIRCLE
  5
159
330
150
100
AcDbEntity
  8
003
 62
     3
370
    30
100
AcDbCircle
 10
1168.966406
 20
300.346299
 30
0.0
 40
4.999999999999998
  0
LINE
  5
15A
330
150
100
AcDbEntity
  8
003
  6
CENTER
 62
    40
370
     9
100
AcDbLine
 10
1173.318437
 20
304.69833
 30
0.0
 11
1164.614376
 21
295.994269
 31
0.0
  0
ENDBLK
  5
152
330
150
100
AcDbEntity
  8
0
100
AcDbBlockEnd
  0
BLOCK
  5
15C
330
15B
100
AcDbEntity
  8
0
100
AcDbBlockBegin
  2
JZB-22
 70
     0
 10
0.0
 20
0.0
 30
0.0
  3
JZB-22
  1

  0
LINE
  5
15E
330
15B
100
AcDbEntity
  8
003
 62
     3
370
    30
100
AcDbLine
 10
1167.472114
 20
255.171544
 30
0.0
 11
1173.048889
 21
256.665836
 31
0.0
  0
LINE
  5
15F
330
15B
100
AcDbEntity
  8
003
 62
     3
370
    30
100
AcDbLine
 10
1164.883923
 20
264.830802
 30
0.0
 11
1170.460699
 21
266.325095
 31
0.0
  0
LINE
  5
160
330
15B
100
AcDbEntity
  8
003
 62
     3
370
    30
100
AcDbLine
 10
1163.389631
 20
259.254027
 30
0.0
 11
1164.883923
 21
264.830802
 31
0.0
  0
LINE
  5
161
330
15B
100
AcDbEntity
  8
003
 62
     3
370
    30
100
AcDbLine
 10
1174.543182
 20
262.242612
 30
0.0
 11
1173.048889
 21
256.665836
 31
0.0
  0
LINE
  5
162
330
15B
100
AcDbEntity
  8
003
 62
     3
370
    30
100
AcDbLine
 10
1170.460699
 20
266.325095
 30
0.0
 11
1174.543182
 21
262.242612
 31
0.0
  0
LINE
  5
163
330
15B
100
AcDbEntity
  8
003
 62
     3
370
    30
100
AcDbLine
 10
1167.472114
 20
255.171544
 30
0.0
 11
1163.389631
 21
259.254027
 31
0.0
  0
CIRCLE
  5
164
330
15B
100
AcDbEntity
  8
003
 62
     3
370
    30
100
AcDbCircle
 10
1168.966406
 20
260.748319
 30
0.0
 40
4.999999999999998
  0
LINE
  5
165
330
15B
100
AcDbEntity
  8
003
  6
CENTER
 62
    40
370
     9
100
AcDbLine
 10
1173.318437
 20
256.396289
 30
0.0
 11
1164.614376
 21
265.10035
 31
0.0
  0
ENDBLK
  5
15D
330
15B
100
AcDbEntity
  8
0
100
AcDbBlockEnd
  0
BLOCK
  5
167
330
166
100
AcDbEntity
  8
0
100
AcDbBlockBegin
  2
JZB-23
 70
     0
 10
0.0
 20
0.0
 30
0.0
  3
JZB-23
  1

  0
LINE
  5
169
330
166
100
AcDbEntity
  8
003
 62
     3
370
    30
100
AcDbLine
 10
1123.791651
 20
262.242612
 30
0.0
 11
1125.285944
 21
256.665836
 31
0.0
  0
LINE
  5
16A
330
166
100
AcDbEntity
  8
003
 62
     3
370
    30
100
AcDbLine
 10
1133.45091
 20
264.830802
 30
0.0
 11
1134.945202
 21
259.254027
 31
0.0
  0
LINE
  5
16B
330
166
100
AcDbEntity
  8
003
 62
     3
370
    30
100
AcDbLine
 10
1127.874134
 20
266.325095
 30
0.0
 11
1133.45091
 21
264.830802
 31
0.0
  0
LINE
  5
16C
330
166
100
AcDbEntity
  8
003
 62
     3
370
    30
100
AcDbLine
 10
1130.862719
 20
255.171544
 30
0.0
 11
1125.285944
 21
256.665836
 31
0.0
  0
LINE
  5
16D
330
166
100
AcDbEntity
  8
003
 62
     3
370
    30
100
AcDbLine
 10
1134.945202
 20
259.254027
 30
0.0
 11
1130.862719
 21
255.171544
 31
0.0
  0
LINE
  5
16E
330
166
100
AcDbEntity
  8
003
 62
     3
370
    30
100
AcDbLine
 10
1123.791651
 20
262.242612
 30
0.0
 11
1127.874134
 21
266.325095
 31
0.0
  0
CIRCLE
  5
16F
330
166
100
AcDbEntity
  8
003
 62
     3
370
    30
100
AcDbCircle
 10
1129.368427
 20
260.748319
 30
0.0
 40
4.999999999999998
  0
LINE
  5
170
330
166
100
AcDbEntity
  8
003
  6
CENTER
 62
    40
370
     9
100
AcDbLine
 10
1125.016396
 20
256.396289
 30
0.0
 11
1133.720457
 21
265.10035
 31
0.0
  0
ENDBLK
  5
168
330
166
100
AcDbEntity
  8
0
100
AcDbBlockEnd
  0
BLOCK
  5
172
330
171
100
AcDbEntity
  8
0
100
AcDbBlockBegin
  2
JZB-24
 70
     0
 10
0.0
 20
0.0
 30
0.0
  3
JZB-24
  1

  0
LINE
  5
174
330
171
100
AcDbEntity
  8
003
 62
     3
370
    30
100
AcDbLine
 10
1130.862719
 20
305.923074
 30
0.0
 11
1125.285944
 21
304.428782
 31
0.0
  0
LINE
  5
175
330
171
100
AcDbEntity
  8
003
 62
     3
370
    30
100
AcDbLine
 10
1133.45091
 20
296.263816
 30
0.0
 11
1127.874134
 21
294.769524
 31
0.0
  0
LINE
  5
176
330
171
100
AcDbEntity
  8
003
 62
     3
370
    30
100
AcDbLine
 10
1134.945202
 20
301.840591
 30
0.0
 11
1133.45091
 21
296.263816
 31
0.0
  0
LINE
  5
177
330
171
100
AcDbEntity
  8
003
 62
     3
370
    30
100
AcDbLine
 10
1123.791651
 20
298.852007
 30
0.0
 11
1125.285944
 21
304.428782
 31
0.0
  0
LINE
  5
178
330
171
100
AcDbEntity
  8
003
 62
     3
370
    30
100
AcDbLine
 10
1127.874134
 20
294.769524
 30
0.0
 11
1123.791651
 21
298.852007
 31
0.0
  0
LINE
  5
179
330
171
100
AcDbEntity
  8
003
 62
     3
370
    30
100
AcDbLine
 10
1130.862719
 20
305.923074
 30
0.0
 11
1134.945202
 21
301.840591
 31
0.0
  0
CIRCLE
  5
17A
330
171
100
AcDbEntity
  8
003
 62
     3
370
    30
100
AcDbCircle
 10
1129.368427
 20
300.346299
 30
0.0
 40
4.999999999999998
  0
LINE
  5
17B
330
171
100
AcDbEntity
  8
003
  6
CENTER
 62
    40
370
     9
100
AcDbLine
 10
1125.016396
 20
304.69833
 30
0.0
 11
1133.720457
 21
295.994269
 31
0.0
  0
ENDBLK
  5
173
330
171
100
AcDbEntity
  8
0
100
AcDbBlockEnd
  0
ENDSEC
  0
SECTION
  2
ENTITIES
  0
INSERT
  5
17C
330
1F
100
AcDbEntity
  8
002
  6
ByBlock
 62
     0
370
    -2
100
AcDbBlockReference
  2
JZB-1
 10
0.0
 20
0.0
 30
0.0
  0
INSERT
  5
17D
330
1F
100
AcDbEntity
  8
002
  6
ByBlock
 62
     0
370
    -2
100
AcDbBlockReference
  2
JZB-2
 10
0.0
 20
0.0
 30
0.0
  0
INSERT
  5
17E
330
1F
100
AcDbEntity
  8
002
  6
ByBlock
 62
     0
370
    -2
100
AcDbBlockReference
  2
JZB-3
 10
0.0
 20
0.0
 30
0.0
  0
INSERT
  5
17F
330
1F
100
AcDbEntity
  8
002
  6
ByBlock
 62
     0
370
    -2
100
AcDbBlockReference
  2
JZB-4
 10
0.0
 20
0.0
 30
0.0
  0
INSERT
  5
180
330
1F
100
AcDbEntity
  8
002
  6
ByBlock
 62
     0
370
    -2
100
AcDbBlockReference
  2
JZB-5
 10
0.0
 20
0.0
 30
0.0
  0
INSERT
  5
181
330
1F
100
AcDbEntity
  8
002
  6
ByBlock
 62
     0
370
    -2
100
AcDbBlockReference
  2
JZB-6
 10
0.0
 20
0.0
 30
0.0
  0
INSERT
  5
182
330
1F
100
AcDbEntity
  8
002
  6
ByBlock
 62
     0
370
    -2
100
AcDbBlockReference
  2
JZB-7
 10
0.0
 20
0.0
 30
0.0
  0
INSERT
  5
183
330
1F
100
AcDbEntity
  8
002
  6
ByBlock
 62
     0
370
    -2
100
AcDbBlockReference
  2
JZB-8
 10
0.0
 20
0.0
 30
0.0
  0
INSERT
  5
184
330
1F
100
AcDbEntity
  8
003
  6
ByBlock
 62
     0
370
    -2
100
AcDbBlockReference
  2
JZB-9
 10
0.0
 20
0.0
 30
0.0
  0
INSERT
  5
185
330
1F
100
AcDbEntity
  8
003
  6
ByBlock
 62
     0
370
    -2
100
AcDbBlockReference
  2
JZB-10
 10
0.0
 20
0.0
 30
0.0
  0
INSERT
  5
186
330
1F
100
AcDbEntity
  8
003
  6
ByBlock
 62
     0
370
    -2
100
AcDbBlockReference
  2
JZB-11
 10
0.0
 20
0.0
 30
0.0
  0
INSERT
  5
187
330
1F
100
AcDbEntity
  8
003
  6
ByBlock
 62
     0
370
    -2
100
AcDbBlockReference
  2
JZB-12
 10
0.0
 20
0.0
 30
0.0
  0
INSERT
  5
188
330
1F
100
AcDbEntity
  8
003
  6
ByBlock
 62
     0
370
    -2
100
AcDbBlockReference
  2
JZB-13
 10
0.0
 20
0.0
 30
0.0
  0
INSERT
  5
189
330
1F
100
AcDbEntity
  8
003
  6
ByBlock
 62
     0
370
    -2
100
AcDbBlockReference
  2
JZB-14
 10
0.0
 20
0.0
 30
0.0
  0
INSERT
  5
18A
330
1F
100
AcDbEntity
  8
003
  6
ByBlock
 62
     0
370
    -2
100
AcDbBlockReference
  2
JZB-15
 10
0.0
 20
0.0
 30
0.0
  0
INSERT
  5
18B
330
1F
100
AcDbEntity
  8
003
  6
ByBlock
 62
     0
370
    -2
100
AcDbBlockReference
  2
JZB-16
 10
0.0
 20
0.0
 30
0.0
  0
INSERT
  5
18C
330
1F
100
AcDbEntity
  8
003
  6
ByBlock
 62
     0
370
    -2
100
AcDbBlockReference
  2
JZB-17
 10
0.0
 20
0.0
 30
0.0
  0
INSERT
  5
18D
330
1F
100
AcDbEntity
  8
003
  6
ByBlock
 62
     0
370
    -2
100
AcDbBlockReference
  2
JZB-18
 10
0.0
 20
0.0
 30
0.0
  0
INSERT
  5
18E
330
1F
100
AcDbEntity
  8
003
  6
ByBlock
 62
     0
370
    -2
100
AcDbBlockReference
  2
JZB-19
 10
0.0
 20
0.0
 30
0.0
  0
INSERT
  5
18F
330
1F
100
AcDbEntity
  8
003
  6
ByBlock
 62
     0
370
    -2
100
AcDbBlockReference
  2
JZB-20
 10
0.0
 20
0.0
 30
0.0
  0
INSERT
  5
190
330
1F
100
AcDbEntity
  8
003
  6
ByBlock
 62
     0
370
    -2
100
AcDbBlockReference
  2
JZB-21
 10
0.0
 20
0.0
 30
0.0
  0
INSERT
  5
191
330
1F
100
AcDbEntity
  8
003
  6
ByBlock
 62
     0
370
    -2
100
AcDbBlockReference
  2
JZB-22
 10
0.0
 20
0.0
 30
0.0
  0
INSERT
  5
192
330
1F
100
AcDbEntity
  8
003
  6
ByBlock
 62
     0
370
    -2
100
AcDbBlockReference
  2
JZB-23
 10
0.0
 20
0.0
 30
0.0
  0
INSERT
  5
193
330
1F
100
AcDbEntity
  8
003
  6
ByBlock
 62
     0
370
    -2
100
AcDbBlockReference
  2
JZB-24
 10
0.0
 20
0.0
 30
0.0
  0
LINE
  5
194
330
1F
100
AcDbEntity
  8
002
 62
     3
370
    30
100
AcDbLine
 10
226.74671
 20
681.122371
 30
0.0
 11
222.24671
 21
681.122371
 31
0.0
  0
LINE
  5
195
330
1F
100
AcDbEntity
  8
002
 62
     3
370
    30
100
AcDbLine
 10
222.24671
 20
681.122371
 30
0.0
 11
221.99671
 21
680.872371
 31
0.0
  0
LINE
  5
196
330
1F
100
AcDbEntity
  8
002
 62
     3
370
    30
100
AcDbLine
 10
221.99671
 20
680.872371
 30
0.0
 11
221.99671
 21
676.372371
 31
0.0
  0
LINE
  5
197
330
1F
100
AcDbEntity
  8
002
 62
     3
370
    30
100
AcDbLine
 10
221.99671
 20
676.372371
 30
0.0
 11
222.24671
 21
676.122371
 31
0.0
  0
LINE
  5
198
330
1F
100
AcDbEntity
  8
002
 62
     3
370
    30
100
AcDbLine
 10
222.24671
 20
676.122371
 30
0.0
 11
226.74671
 21
676.122371
 31
0.0
  0
LINE
  5
199
330
1F
100
AcDbEntity
  8
002
 62
     3
370
    30
100
AcDbLine
 10
226.74671
 20
676.122371
 30
0.0
 11
226.99671
 21
676.372371
 31
0.0
  0
LINE
  5
19A
330
1F
100
AcDbEntity
  8
002
 62
     3
370
    30
100
AcDbLine
 10
226.99671
 20
676.372371
 30
0.0
 11
226.99671
 21
680.872371
 31
0.0
  0
LINE
  5
19B
330
1F
100
AcDbEntity
  8
002
 62
     3
370
    30
100
AcDbLine
 10
226.99671
 20
680.872371
 30
0.0
 11
226.74671
 21
681.122371
 31
0.0
  0
ARC
  5
19C
330
1F
100
AcDbEntity
  8
002
 62
     3
370
    30
100
AcDbCircle
 10
226.79671
 20
676.322371
 30
0.0
 40
0.1999999999999318
100
AcDbArc
 50
270.0
 51
0.0
  0
ARC
  5
19D
330
1F
100
AcDbEntity
  8
002
 62
     3
370
    30
100
AcDbCircle
 10
222.19671
 20
676.322371
 30
0.0
 40
0.2000000000000455
100
AcDbArc
 50
180.0
 51
270.0
  0
ARC
  5
19E
330
1F
100
AcDbEntity
  8
002
 62
     3
370
    30
100
AcDbCircle
 10
224.49671
 20
671.622371
 30
0.0
 40
7.499936066394084
100
AcDbArc
 50
109.471393
 51
70.528607
  0
LINE
  5
19F
330
1F
100
AcDbEntity
  8
002
  6
CENTER
 62
    40
370
     9
100
AcDbLine
 10
224.49671
 20
683.434371
 30
0.0
 11
224.49671
 21
661.499371
 31
0.0
  0
LINE
  5
1A0
330
1F
100
AcDbEntity
  8
002
  6
CENTER
 62
    40
370
     9
100
AcDbLine
 10
213.69781
 20
671.622371
 30
0.0
 11
236.23101
 21
671.622371
 31
0.0
  0
LINE
  5
1A1
330
1F
100
AcDbEntity
  8
002
 62
     3
370
    30
100
AcDbLine
 10
484.063492
 20
722.236723
 30
0.0
 11
459.063492
 21
722.236723
 31
0.0
  0
LINE
  5
1A2
330
1F
100
AcDbEntity
  8
002
 62
     3
370
    30
100
AcDbLine
 10
491.563492
 20
739.236723
 30
0.0
 11
491.563492
 21
804.236723
 31
0.0
  0
LINE
  5
1A3
330
1F
100
AcDbEntity
  8
002
 62
     3
370
    30
100
AcDbLine
 10
491.563492
 20
804.236723
 30
0.0
 11
488.563492
 21
807.236723
 31
0.0
  0
LINE
  5
1A4
330
1F
100
AcDbEntity
  8
002
 62
     3
370
    30
100
AcDbLine
 10
488.563492
 20
807.236723
 30
0.0
 11
454.563492
 21
807.236723
 31
0.0
  0
LINE
  5
1A5
330
1F
100
AcDbEntity
  8
002
 62
     3
370
    30
100
AcDbLine
 10
454.563492
 20
807.236723
 30
0.0
 11
451.563492
 21
804.236723
 31
0.0
  0
LINE
  5
1A6
330
1F
100
AcDbEntity
  8
002
 62
     3
370
    30
100
AcDbLine
 10
451.563492
 20
804.236723
 30
0.0
 11
451.563492
 21
739.236723
 31
0.0
  0
LINE
  5
1A7
330
1F
100
AcDbEntity
  8
002
 62
     3
370
    30
100
AcDbLine
 10
487.175992
 20
767.236723
 30
0.0
 11
487.175992
 21
804.236723
 31
0.0
  0
LINE
  5
1A8
330
1F
100
AcDbEntity
  8
002
 62
     3
370
    30
100
AcDbLine
 10
487.175992
 20
804.236723
 30
0.0
 11
483.085192
 21
807.236723
 31
0.0
  0
LINE
  5
1A9
330
1F
100
AcDbEntity
  8
002
 62
     3
370
    30
100
AcDbLine
 10
487.175992
 20
804.236723
 30
0.0
 11
491.563492
 21
804.236723
 31
0.0
  0
CIRCLE
  5
1AA
330
1F
100
AcDbEntity
  8
002
 62
     3
370
    30
100
AcDbCircle
 10
471.563492
 20
787.236723
 30
0.0
 40
10.0
  0
LINE
  5
1AB
330
1F
100
AcDbEntity
  8
002
 62
     3
370
    30
100
AcDbLine
 10
455.950992
 20
767.236723
 30
0.0
 11
455.950992
 21
804.236723
 31
0.0
  0
LINE
  5
1AC
330
1F
100
AcDbEntity
  8
002
 62
     3
370
    30
100
AcDbLine
 10
455.950992
 20
804.236723
 30
0.0
 11
451.563492
 21
804.236723
 31
0.0
  0
LINE
  5
1AD
330
1F
100
AcDbEntity
  8
002
 62
     3
370
    30
100
AcDbLine
 10
455.950992
 20
804.236723
 30
0.0
 11
460.041692
 21
807.236723
 31
0.0
  0
LINE
  5
1AE
330
1F
100
AcDbEntity
  8
002
  6
CENTER
 62
    40
370
     9
100
AcDbLine
 10
439.865092
 20
787.236723
 30
0.0
 11
502.122492
 21
787.236723
 31
0.0
  0
ARC
  5
1AF
330
1F
100
AcDbEntity
  8
002
 62
     3
370
    30
100
AcDbCircle
 10
471.563492
 20
894.736723
 30
0.0
 40
16.99998737911297
100
AcDbArc
 50
312.667651
 51
47.332121
  0
LINE
  5
1B0
330
1F
100
AcDbEntity
  8
002
 62
     3
370
    30
100
AcDbLine
 10
487.175992
 20
907.236723
 30
0.0
 11
455.950992
 21
907.236723
 31
0.0
  0
ARC
  5
1B1
330
1F
100
AcDbEntity
  8
002
 62
     3
370
    30
100
AcDbCircle
 10
471.563492
 20
894.736723
 30
0.0
 40
17.00012868333648
100
AcDbArc
 50
132.668127
 51
227.332101
  0
LINE
  5
1B2
330
1F
100
AcDbEntity
  8
002
 62
     3
370
    30
100
AcDbLine
 10
455.950992
 20
882.236623
 30
0.0
 11
487.175992
 21
882.236623
 31
0.0
  0
CIRCLE
  5
1B3
330
1F
100
AcDbEntity
  8
002
 62
     3
370
    30
100
AcDbCircle
 10
471.563492
 20
894.736723
 30
0.0
 40
20.0
  0
LINE
  5
1B4
330
1F
100
AcDbEntity
  8
002
 62
     3
370
    30
100
AcDbLine
 10
451.563492
 20
739.236723
 30
0.0
 11
453.563492
 21
737.236723
 31
0.0
  0
LINE
  5
1B5
330
1F
100
AcDbEntity
  8
002
 62
     3
370
    30
100
AcDbLine
 10
489.563492
 20
737.236723
 30
0.0
 11
491.563492
 21
739.236723
 31
0.0
  0
LINE
  5
1B6
330
1F
100
AcDbEntity
  8
002
 62
     3
370
    30
100
AcDbLine
 10
491.563492
 20
739.236723
 30
0.0
 11
451.563492
 21
739.236723
 31
0.0
  0
LINE
  5
1B7
330
1F
100
AcDbEntity
  8
002
 62
     3
370
    30
100
AcDbLine
 10
460.950992
 20
762.236723
 30
0.0
 11
482.175992
 21
762.236723
 31
0.0
  0
ARC
  5
1B8
330
1F
100
AcDbEntity
  8
002
 62
     3
370
    30
100
AcDbCircle
 10
482.175992
 20
767.236723
 30
0.0
 40
5.0
100
AcDbArc
 50
270.0
 51
0.0
  0
LINE
  5
1B9
330
1F
100
AcDbEntity
  8
002
 62
     3
370
    30
100
AcDbLine
 10
487.175992
 20
767.236723
 30
0.0
 11
455.950992
 21
767.236723
 31
0.0
  0
ARC
  5
1BA
330
1F
100
AcDbEntity
  8
002
 62
     3
370
    30
100
AcDbCircle
 10
460.950992
 20
767.236723
 30
0.0
 40
5.0
100
AcDbArc
 50
180.0
 51
270.0
  0
LINE
  5
1BB
330
1F
100
AcDbEntity
  8
002
 62
     3
370
    30
100
AcDbLine
 10
489.563492
 20
737.236723
 30
0.0
 11
453.563492
 21
737.236723
 31
0.0
  0
LINE
  5
1BC
330
1F
100
AcDbEntity
  8
002
  6
HIDDEN
 62
    40
370
     9
100
AcDbLine
 10
461.563492
 20
907.236723
 30
0.0
 11
461.563492
 21
882.236623
 31
0.0
  0
LINE
  5
1BD
330
1F
100
AcDbEntity
  8
002
  6
HIDDEN
 62
    40
370
     9
100
AcDbLine
 10
481.563492
 20
907.236723
 30
0.0
 11
481.563492
 21
882.236623
 31
0.0
  0
LINE
  5
1BE
330
1F
100
AcDbEntity
  8
002
  6
CENTER
 62
    40
370
     9
100
AcDbLine
 10
471.563492
 20
929.736723
 30
0.0
 11
471.563492
 21
859.736723
 31
0.0
  0
LINE
  5
1BF
330
1F
100
AcDbEntity
  8
002
  6
CENTER
 62
    40
370
     9
100
AcDbLine
 10
680.051992
 20
745.231723
 30
0.0
 11
680.051992
 21
768.521223
 31
0.0
  0
LINE
  5
1C0
330
1F
100
AcDbEntity
  8
002
  6
CENTER
 62
    40
370
     9
100
AcDbLine
 10
756.051992
 20
745.231723
 30
0.0
 11
756.051992
 21
768.521223
 31
0.0
  0
LINE
  5
1C1
330
1F
100
AcDbEntity
  8
002
 62
     3
370
    30
100
AcDbLine
 10
771.051992
 20
751.236723
 30
0.0
 11
772.051992
 21
752.236723
 31
0.0
  0
LINE
  5
1C2
330
1F
100
AcDbEntity
  8
002
 62
     3
370
    30
100
AcDbLine
 10
665.051992
 20
751.236723
 30
0.0
 11
771.051992
 21
751.236723
 31
0.0
  0
LINE
  5
1C3
330
1F
100
AcDbEntity
  8
002
 62
     3
370
    30
100
AcDbLine
 10
772.051992
 20
752.236723
 30
0.0
 11
772.051992
 21
761.236723
 31
0.0
  0
LINE
  5
1C4
330
1F
100
AcDbEntity
  8
002
 62
     3
370
    30
100
AcDbLine
 10
772.051992
 20
761.236723
 30
0.0
 11
771.051992
 21
762.236723
 31
0.0
  0
LINE
  5
1C5
330
1F
100
AcDbEntity
  8
002
 62
     3
370
    30
100
AcDbLine
 10
771.051992
 20
762.236723
 30
0.0
 11
665.051992
 21
762.236723
 31
0.0
  0
LINE
  5
1C6
330
1F
100
AcDbEntity
  8
002
 62
     3
370
    30
100
AcDbLine
 10
737.051992
 20
738.236723
 30
0.0
 11
737.051992
 21
750.236723
 31
0.0
  0
ARC
  5
1C7
330
1F
100
AcDbEntity
  8
002
 62
     3
370
    30
100
AcDbCircle
 10
738.051992
 20
750.236723
 30
0.0
 40
1.0
100
AcDbArc
 50
90.0
 51
180.0
  0
LINE
  5
1C8
330
1F
100
AcDbEntity
  8
002
 62
     3
370
    30
100
AcDbLine
 10
737.051992
 20
738.236723
 30
0.0
 11
736.051992
 21
737.236723
 31
0.0
  0
LINE
  5
1C9
330
1F
100
AcDbEntity
  8
002
 62
     3
370
    30
100
AcDbLine
 10
700.051992
 20
737.236723
 30
0.0
 11
699.051992
 21
738.236723
 31
0.0
  0
LINE
  5
1CA
330
1F
100
AcDbEntity
  8
002
 62
     3
370
    30
100
AcDbLine
 10
699.051992
 20
750.236723
 30
0.0
 11
699.051992
 21
738.236723
 31
0.0
  0
ARC
  5
1CB
330
1F
100
AcDbEntity
  8
002
 62
     3
370
    30
100
AcDbCircle
 10
698.051992
 20
750.236723
 30
0.0
 40
1.0
100
AcDbArc
 50
0.0
 51
90.0
  0
LINE
  5
1CC
330
1F
100
AcDbEntity
  8
002
 62
     3
370
    30
100
AcDbLine
 10
664.051992
 20
752.236723
 30
0.0
 11
665.051992
 21
751.236723
 31
0.0
  0
LINE
  5
1CD
330
1F
100
AcDbEntity
  8
002
 62
     3
370
    30
100
AcDbLine
 10
664.051992
 20
761.236723
 30
0.0
 11
664.051992
 21
752.236723
 31
0.0
  0
LINE
  5
1CE
330
1F
100
AcDbEntity
  8
002
 62
     3
370
    30
100
AcDbLine
 10
665.051992
 20
762.236723
 30
0.0
 11
664.051992
 21
761.236723
 31
0.0
  0
LINE
  5
1CF
330
1F
100
AcDbEntity
  8
002
 62
     3
370
    30
100
AcDbLine
 10
736.051992
 20
737.236723
 30
0.0
 11
700.051992
 21
737.236723
 31
0.0
  0
LINE
  5
1D0
330
1F
100
AcDbEntity
  8
002
  6
CENTER
 62
    40
370
     9
100
AcDbLine
 10
718.051992
 20
833.801076
 30
0.0
 11
718.051992
 21
956.447823
 31
0.0
  0
CIRCLE
  5
1D1
330
1F
100
AcDbEntity
  8
002
  6
CENTER
 62
    40
370
     9
100
AcDbCircle
 10
718.051992
 20
894.736723
 30
0.0
 40
38.0
  0
LINE
  5
1D2
330
1F
100
AcDbEntity
  8
002
  6
CENTER
 62
    40
370
     9
100
AcDbLine
 10
653.919492
 20
894.736723
 30
0.0
 11
779.062992
 21
894.736723
 31
0.0
  0
CIRCLE
  5
1D3
330
1F
100
AcDbEntity
  8
002
 62
    40
370
     9
100
AcDbCircle
 10
718.051992
 20
894.736723
 30
0.0
 40
9.0
  0
CIRCLE
  5
1D4
330
1F
100
AcDbEntity
  8
002
 62
     3
370
    30
100
AcDbCircle
 10
718.051992
 20
894.736723
 30
0.0
 40
54.0
  0
CIRCLE
  5
1D5
330
1F
100
AcDbEntity
  8
002
 62
     3
370
    30
100
AcDbCircle
 10
718.051992
 20
856.736723
 30
0.0
 40
5.5
  0
CIRCLE
  5
1D6
330
1F
100
AcDbEntity
  8
002
 62
     3
370
    30
100
AcDbCircle
 10
756.051992
 20
894.736723
 30
0.0
 40
5.5
  0
CIRCLE
  5
1D7
330
1F
100
AcDbEntity
  8
002
 62
     3
370
    30
100
AcDbCircle
 10
718.051992
 20
894.736723
 30
0.0
 40
8.188
  0
CIRCLE
  5
1D8
330
1F
100
AcDbEntity
  8
002
 62
     3
370
    30
100
AcDbCircle
 10
718.051992
 20
932.736823
 30
0.0
 40
5.5
  0
CIRCLE
  5
1D9
330
1F
100
AcDbEntity
  8
002
 62
     3
370
    30
100
AcDbCircle
 10
680.051992
 20
894.736723
 30
0.0
 40
5.5
  0
LINE
  5
1DA
330
1F
100
AcDbEntity
  8
002
 62
     3
370
    30
100
AcDbLine
 10
459.063492
 20
703.560191
 30
0.0
 11
459.063492
 21
737.236723
 31
0.0
  0
LINE
  5
1DB
330
1F
100
AcDbEntity
  8
002
 62
     3
370
    30
100
AcDbLine
 10
484.063492
 20
737.236723
 30
0.0
 11
484.063492
 21
703.560191
 31
0.0
  0
LINE
  5
1DC
330
1F
100
AcDbEntity
  8
002
 62
    40
370
     9
100
AcDbLine
 10
461.563492
 20
722.236723
 30
0.0
 11
461.563492
 21
703.560191
 31
0.0
  0
LINE
  5
1DD
330
1F
100
AcDbEntity
  8
002
 62
    40
370
     9
100
AcDbLine
 10
481.563492
 20
703.560191
 30
0.0
 11
481.563492
 21
722.236723
 31
0.0
  0
LINE
  5
1DE
330
1F
100
AcDbEntity
  8
002
  6
CENTER
 62
    40
370
     9
100
AcDbLine
 10
471.563492
 20
822.236723
 30
0.0
 11
471.563492
 21
703.560191
 31
0.0
  0
LINE
  5
1DF
330
1F
100
AcDbEntity
  8
002
  6
HIDDEN
 62
    40
370
     9
100
AcDbLine
 10
462.560588
 20
737.236723
 30
0.0
 11
462.560588
 21
759.236723
 31
0.0
  0
LINE
  5
1E0
330
1F
100
AcDbEntity
  8
002
  6
HIDDEN
 62
    40
370
     9
100
AcDbLine
 10
480.560588
 20
759.236723
 30
0.0
 11
480.560588
 21
737.236723
 31
0.0
  0
LINE
  5
1E1
330
1F
100
AcDbEntity
  8
002
  6
HIDDEN
 62
    40
370
     9
100
AcDbLine
 10
463.372588
 20
737.236723
 30
0.0
 11
463.372588
 21
759.236723
 31
0.0
  0
LINE
  5
1E2
330
1F
100
AcDbEntity
  8
002
  6
HIDDEN
 62
    40
370
     9
100
AcDbLine
 10
479.748588
 20
759.236723
 30
0.0
 11
479.748588
 21
737.236723
 31
0.0
  0
LINE
  5
1E3
330
1F
100
AcDbEntity
  8
007
  6
HIDDEN
 62
    40
370
     9
100
AcDbLine
 10
480.560588
 20
759.236723
 30
0.0
 11
462.560588
 21
759.236723
 31
0.0
  0
LINE
  5
1E4
330
1F
100
AcDbEntity
  8
002
  6
CENTER
 62
    40
370
     9
100
AcDbLine
 10
445.871737
 20
894.736723
 30
0.0
 11
497.494215
 21
894.736723
 31
0.0
  0
LINE
  5
1E5
330
1F
100
AcDbEntity
  8
002
 62
     3
370
    30
100
AcDbLine
 10
730.551992
 20
722.236723
 30
0.0
 11
705.551992
 21
722.236723
 31
0.0
  0
LINE
  5
1E6
330
1F
100
AcDbEntity
  8
002
 62
     3
370
    30
100
AcDbLine
 10
705.551992
 20
703.560191
 30
0.0
 11
705.551992
 21
737.236723
 31
0.0
  0
LINE
  5
1E7
330
1F
100
AcDbEntity
  8
002
 62
     3
370
    30
100
AcDbLine
 10
730.551992
 20
737.236723
 30
0.0
 11
730.551992
 21
703.560191
 31
0.0
  0
LINE
  5
1E8
330
1F
100
AcDbEntity
  8
002
 62
    40
370
     9
100
AcDbLine
 10
708.051992
 20
722.236723
 30
0.0
 11
708.051992
 21
703.560191
 31
0.0
  0
LINE
  5
1E9
330
1F
100
AcDbEntity
  8
002
 62
    40
370
     9
100
AcDbLine
 10
728.051992
 20
703.560191
 30
0.0
 11
728.051992
 21
722.236723
 31
0.0
  0
LINE
  5
1EA
330
1F
100
AcDbEntity
  8
002
  6
HIDDEN
 62
    40
370
     9
100
AcDbLine
 10
709.049087
 20
737.236723
 30
0.0
 11
709.049087
 21
759.236723
 31
0.0
  0
LINE
  5
1EB
330
1F
100
AcDbEntity
  8
002
  6
HIDDEN
 62
    40
370
     9
100
AcDbLine
 10
727.049087
 20
759.236723
 30
0.0
 11
727.049087
 21
737.236723
 31
0.0
  0
LINE
  5
1EC
330
1F
100
AcDbEntity
  8
002
  6
HIDDEN
 62
    40
370
     9
100
AcDbLine
 10
709.861087
 20
737.236723
 30
0.0
 11
709.861087
 21
759.236723
 31
0.0
  0
LINE
  5
1ED
330
1F
100
AcDbEntity
  8
002
  6
HIDDEN
 62
    40
370
     9
100
AcDbLine
 10
726.237087
 20
759.236723
 30
0.0
 11
726.237087
 21
737.236723
 31
0.0
  0
LINE
  5
1EE
330
1F
100
AcDbEntity
  8
007
  6
HIDDEN
 62
    40
370
     9
100
AcDbLine
 10
727.049087
 20
759.236723
 30
0.0
 11
709.049087
 21
759.236723
 31
0.0
  0
LINE
  5
1EF
330
1F
100
AcDbEntity
  8
002
  6
CENTER
 62
    40
370
     9
100
AcDbLine
 10
718.051992
 20
777.236723
 30
0.0
 11
718.051992
 21
703.560191
 31
0.0
  0
LINE
  5
1F0
330
1F
100
AcDbEntity
  8
002
 62
     3
370
    30
100
AcDbLine
 10
177.15801
 20
391.547309
 30
0.0
 11
182.93151
 21
391.547309
 31
0.0
  0
LINE
  5
1F1
330
1F
100
AcDbEntity
  8
002
 62
     3
370
    30
100
AcDbLine
 10
182.93151
 20
391.547309
 30
0.0
 11
185.81821
 21
386.547309
 31
0.0
  0
LINE
  5
1F2
330
1F
100
AcDbEntity
  8
002
 62
     3
370
    30
100
AcDbLine
 10
185.81821
 20
386.547309
 30
0.0
 11
182.93151
 21
381.547309
 31
0.0
  0
LINE
  5
1F3
330
1F
100
AcDbEntity
  8
002
 62
     3
370
    30
100
AcDbLine
 10
182.93151
 20
381.547309
 30
0.0
 11
177.15801
 21
381.547309
 31
0.0
  0
LINE
  5
1F4
330
1F
100
AcDbEntity
  8
002
 62
     3
370
    30
100
AcDbLine
 10
177.15801
 20
381.547309
 30
0.0
 11
174.27121
 21
386.547309
 31
0.0
  0
LINE
  5
1F5
330
1F
100
AcDbEntity
  8
002
 62
     3
370
    30
100
AcDbLine
 10
174.27121
 20
386.547309
 30
0.0
 11
177.15801
 21
391.547309
 31
0.0
  0
CIRCLE
  5
1F6
330
1F
100
AcDbEntity
  8
002
 62
     3
370
    30
100
AcDbCircle
 10
180.04471
 20
386.547309
 30
0.0
 40
0.75
  0
CIRCLE
  5
1F7
330
1F
100
AcDbEntity
  8
002
 62
     3
370
    30
100
AcDbCircle
 10
180.04471
 20
386.547309
 30
0.0
 40
2.5
  0
CIRCLE
  5
1F8
330
1F
100
AcDbEntity
  8
002
 62
     3
370
    30
100
AcDbCircle
 10
180.04471
 20
386.547309
 30
0.0
 40
3.25
  0
CIRCLE
  5
1F9
330
1F
100
AcDbEntity
  8
002
 62
     3
370
    30
100
AcDbCircle
 10
180.04471
 20
386.547309
 30
0.0
 40
5.0
  0
LINE
  5
1FA
330
1F
100
AcDbEntity
  8
002
 62
     3
370
    30
100
AcDbLine
 10
141.94441
 20
333.547309
 30
0.0
 11
141.94441
 21
325.547309
 31
0.0
  0
LINE
  5
1FB
330
1F
100
AcDbEntity
  8
002
 62
     3
370
    30
100
AcDbLine
 10
141.94441
 20
327.340609
 30
0.0
 11
173.54471
 21
327.340609
 31
0.0
  0
LINE
  5
1FC
330
1F
100
AcDbEntity
  8
002
 62
     3
370
    30
100
AcDbLine
 10
173.54471
 20
325.547309
 30
0.0
 11
173.54471
 21
333.547309
 31
0.0
  0
LINE
  5
1FD
330
1F
100
AcDbEntity
  8
002
 62
     3
370
    30
100
AcDbLine
 10
173.54471
 20
333.547309
 30
0.0
 11
186.54471
 21
333.547309
 31
0.0
  0
LINE
  5
1FE
330
1F
100
AcDbEntity
  8
002
 62
     3
370
    30
100
AcDbLine
 10
186.54471
 20
333.547309
 30
0.0
 11
186.54471
 21
325.547309
 31
0.0
  0
LINE
  5
1FF
330
1F
100
AcDbEntity
  8
002
 62
     3
370
    30
100
AcDbLine
 10
186.54471
 20
327.340609
 30
0.0
 11
218.14501
 21
327.340609
 31
0.0
  0
LINE
  5
200
330
1F
100
AcDbEntity
  8
002
 62
     3
370
    30
100
AcDbLine
 10
218.14501
 20
325.547309
 30
0.0
 11
218.14501
 21
333.547309
 31
0.0
  0
LINE
  5
201
330
1F
100
AcDbEntity
  8
002
 62
     3
370
    30
100
AcDbLine
 10
231.14501
 20
333.547309
 30
0.0
 11
231.14501
 21
325.547309
 31
0.0
  0
LINE
  5
202
330
1F
100
AcDbEntity
  8
002
 62
     3
370
    30
100
AcDbLine
 10
231.14501
 20
333.547309
 30
0.0
 11
218.14501
 21
333.547309
 31
0.0
  0
LINE
  5
203
330
1F
100
AcDbEntity
  8
002
 62
     3
370
    30
100
AcDbLine
 10
218.04471
 20
406.547309
 30
0.0
 11
142.04471
 21
406.547309
 31
0.0
  0
LINE
  5
204
330
1F
100
AcDbEntity
  8
002
 62
     3
370
    30
100
AcDbLine
 10
128.94441
 20
333.547309
 30
0.0
 11
141.94441
 21
333.547309
 31
0.0
  0
LINE
  5
205
330
1F
100
AcDbEntity
  8
002
 62
     3
370
    30
100
AcDbLine
 10
128.94441
 20
333.547309
 30
0.0
 11
128.94441
 21
325.547309
 31
0.0
  0
LINE
  5
206
330
1F
100
AcDbEntity
  8
002
 62
     3
370
    30
100
AcDbLine
 10
120.04471
 20
325.547309
 30
0.0
 11
240.04471
 21
325.547309
 31
0.0
  0
LINE
  5
207
330
1F
100
AcDbEntity
  8
002
 62
     3
370
    30
100
AcDbLine
 10
240.04471
 20
325.547309
 30
0.0
 11
240.04471
 21
310.547309
 31
0.0
  0
LINE
  5
208
330
1F
100
AcDbEntity
  8
002
 62
     3
370
    30
100
AcDbLine
 10
240.04471
 20
315.547309
 30
0.0
 11
120.04471
 21
315.547309
 31
0.0
  0
LINE
  5
209
330
1F
100
AcDbEntity
  8
002
 62
     3
370
    30
100
AcDbLine
 10
120.04471
 20
325.547309
 30
0.0
 11
120.04471
 21
301.240109
 31
0.0
  0
ARC
  5
20A
330
1F
100
AcDbEntity
  8
002
 62
     3
370
    30
100
AcDbCircle
 10
125.04471
 20
301.240109
 30
0.0
 40
4.999996136998507
100
AcDbArc
 50
180.0
 51
252.897608
  0
LINE
  5
20B
330
1F
100
AcDbEntity
  8
002
 62
     3
370
    30
100
AcDbLine
 10
123.57431
 20
296.461209
 30
0.0
 11
130.92701
 21
294.198909
 31
0.0
  0
LINE
  5
20C
330
1F
100
AcDbEntity
  8
002
 62
     3
370
    30
100
AcDbLine
 10
133.04471
 20
293.547309
 30
0.0
 11
169.04471
 21
293.547309
 31
0.0
  0
LINE
  5
20D
330
1F
100
AcDbEntity
  8
002
 62
     3
370
    30
100
AcDbLine
 10
169.04471
 20
294.470309
 30
0.0
 11
168.93131
 21
294.470309
 31
0.0
  0
ARC
  5
20E
330
1F
100
AcDbEntity
  8
002
 62
     3
370
    30
100
AcDbCircle
 10
169.04471
 20
291.470309
 30
0.0
 40
3.0
100
AcDbArc
 50
0.0
 51
90.0
  0
LINE
  5
20F
330
1F
100
AcDbEntity
  8
002
 62
     3
370
    30
100
AcDbLine
 10
172.04471
 20
291.470309
 30
0.0
 11
172.04471
 21
280.547309
 31
0.0
  0
ARC
  5
210
330
1F
100
AcDbEntity
  8
002
 62
     3
370
    30
100
AcDbCircle
 10
180.04471
 20
280.547309
 30
0.0
 40
8.0
100
AcDbArc
 50
180.0
 51
0.0
  0
LINE
  5
211
330
1F
100
AcDbEntity
  8
002
 62
     3
370
    30
100
AcDbLine
 10
188.04471
 20
280.547309
 30
0.0
 11
188.04471
 21
291.470309
 31
0.0
  0
LINE
  5
212
330
1F
100
AcDbEntity
  8
002
 62
     3
370
    30
100
AcDbLine
 10
191.04471
 20
293.547309
 30
0.0
 11
194.49671
 21
293.547309
 31
0.0
  0
ARC
  5
213
330
1F
100
AcDbEntity
  8
002
 62
     3
370
    30
100
AcDbCircle
 10
191.04471
 20
290.547309
 30
0.0
 40
3.0
100
AcDbArc
 50
90.0
 51
180.0
  0
LINE
  5
214
330
1F
100
AcDbEntity
  8
002
 62
     3
370
    30
100
AcDbLine
 10
191.04471
 20
294.470309
 30
0.0
 11
191.15811
 21
294.470309
 31
0.0
  0
ARC
  5
215
330
1F
100
AcDbEntity
  8
002
 62
     3
370
    30
100
AcDbCircle
 10
191.04471
 20
291.470309
 30
0.0
 40
3.0
100
AcDbArc
 50
90.0
 51
180.0
  0
LINE
  5
216
330
1F
100
AcDbEntity
  8
002
 62
     3
370
    30
100
AcDbLine
 10
185.04471
 20
283.434009
 30
0.0
 11
185.04471
 21
277.660509
 31
0.0
  0
LINE
  5
217
330
1F
100
AcDbEntity
  8
002
 62
     3
370
    30
100
AcDbLine
 10
185.04471
 20
277.660509
 30
0.0
 11
180.04471
 21
274.773809
 31
0.0
  0
LINE
  5
218
330
1F
100
AcDbEntity
  8
002
 62
     3
370
    30
100
AcDbLine
 10
180.04471
 20
274.773809
 30
0.0
 11
175.04471
 21
277.660509
 31
0.0
  0
LINE
  5
219
330
1F
100
AcDbEntity
  8
002
 62
     3
370
    30
100
AcDbLine
 10
175.04471
 20
277.660509
 30
0.0
 11
175.04471
 21
283.434009
 31
0.0
  0
LINE
  5
21A
330
1F
100
AcDbEntity
  8
002
 62
     3
370
    30
100
AcDbLine
 10
175.04471
 20
283.434009
 30
0.0
 11
180.04471
 21
286.320809
 31
0.0
  0
LINE
  5
21B
330
1F
100
AcDbEntity
  8
002
 62
     3
370
    30
100
AcDbLine
 10
180.04471
 20
286.320809
 30
0.0
 11
185.04471
 21
283.434009
 31
0.0
  0
CIRCLE
  5
21C
330
1F
100
AcDbEntity
  8
002
 62
     3
370
    30
100
AcDbCircle
 10
180.04471
 20
280.547309
 30
0.0
 40
5.0
  0
CIRCLE
  5
21D
330
1F
100
AcDbEntity
  8
002
 62
     3
370
    30
100
AcDbCircle
 10
180.04471
 20
280.547309
 30
0.0
 40
3.25
  0
CIRCLE
  5
21E
330
1F
100
AcDbEntity
  8
002
 62
     3
370
    30
100
AcDbCircle
 10
180.04471
 20
280.547309
 30
0.0
 40
2.5
  0
CIRCLE
  5
21F
330
1F
100
AcDbEntity
  8
002
 62
     3
370
    30
100
AcDbCircle
 10
180.04471
 20
280.547309
 30
0.0
 40
0.75
  0
ARC
  5
220
330
1F
100
AcDbEntity
  8
002
 62
     3
370
    30
100
AcDbCircle
 10
169.04471
 20
290.547309
 30
0.0
 40
3.0
100
AcDbArc
 50
0.0
 51
90.0
  0
LINE
  5
221
330
1F
100
AcDbEntity
  8
002
 62
     3
370
    30
100
AcDbLine
 10
194.49671
 20
297.547309
 30
0.0
 11
123.49671
 21
297.547309
 31
0.0
  0
LINE
  5
222
330
1F
100
AcDbEntity
  8
002
 62
     3
370
    30
100
AcDbLine
 10
125.04471
 20
293.823909
 30
0.0
 11
125.04471
 21
265.547309
 31
0.0
  0
LINE
  5
223
330
1F
100
AcDbEntity
  8
002
 62
     3
370
    30
100
AcDbLine
 10
125.04471
 20
265.547309
 30
0.0
 11
129.33881
 21
264.396709
 31
0.0
  0
ARC
  5
224
330
1F
100
AcDbEntity
  8
002
 62
     3
370
    30
100
AcDbCircle
 10
128.04471
 20
259.567009
 30
0.0
 40
5.000069689514357
100
AcDbArc
 50
0.0
 51
75.000157
  0
LINE
  5
225
330
1F
100
AcDbEntity
  8
002
 62
     3
370
    30
100
AcDbLine
 10
125.04471
 20
270.319809
 30
0.0
 11
117.04471
 21
270.069809
 31
0.0
  0
LINE
  5
226
330
1F
100
AcDbEntity
  8
002
 62
     3
370
    30
100
AcDbLine
 10
117.04471
 20
270.069809
 30
0.0
 11
117.04471
 21
291.024809
 31
0.0
  0
LINE
  5
227
330
1F
100
AcDbEntity
  8
002
 62
     3
370
    30
100
AcDbLine
 10
117.04471
 20
291.024809
 30
0.0
 11
125.04471
 21
290.774809
 31
0.0
  0
ARC
  5
228
330
1F
100
AcDbEntity
  8
002
 62
     3
370
    30
100
AcDbCircle
 10
122.04471
 20
293.823909
 30
0.0
 40
3.000023701573074
100
AcDbArc
 50
0.0
 51
67.97587
  0
LINE
  5
229
330
1F
100
AcDbEntity
  8
002
 62
     3
370
    30
100
AcDbLine
 10
117.04471
 20
287.547309
 30
0.0
 11
107.04471
 21
287.047309
 31
0.0
  0
LINE
  5
22A
330
1F
100
AcDbEntity
  8
002
 62
     3
370
    30
100
AcDbLine
 10
107.04471
 20
287.047309
 30
0.0
 11
107.04471
 21
274.047309
 31
0.0
  0
LINE
  5
22B
330
1F
100
AcDbEntity
  8
002
 62
     3
370
    30
100
AcDbLine
 10
107.04471
 20
274.047309
 30
0.0
 11
117.04471
 21
273.547309
 31
0.0
  0
LINE
  5
22C
330
1F
100
AcDbEntity
  8
002
 62
     3
370
    30
100
AcDbLine
 10
133.04471
 20
291.331509
 30
0.0
 11
133.04471
 21
248.547309
 31
0.0
  0
LINE
  5
22D
330
1F
100
AcDbEntity
  8
002
 62
     3
370
    30
100
AcDbLine
 10
121.49671
 20
248.547309
 30
0.0
 11
275.49671
 21
248.547309
 31
0.0
  0
LINE
  5
22E
330
1F
100
AcDbEntity
  8
002
 62
     3
370
    30
100
AcDbLine
 10
276.01341
 20
248.502409
 30
0.0
 11
254.18401
 21
307.287809
 31
0.0
  0
LINE
  5
22F
330
1F
100
AcDbEntity
  8
002
 62
     3
370
    30
100
AcDbLine
 10
254.49671
 20
305.547309
 30
0.0
 11
254.49671
 21
255.547309
 31
0.0
  0
LINE
  5
230
330
1F
100
AcDbEntity
  8
002
 62
     3
370
    30
100
AcDbLine
 10
251.49671
 20
255.547309
 30
0.0
 11
251.49671
 21
305.547309
 31
0.0
  0
ARC
  5
231
330
1F
100
AcDbEntity
  8
002
 62
     3
370
    30
100
AcDbCircle
 10
246.49671
 20
305.547309
 30
0.0
 40
5.0
100
AcDbArc
 50
0.0
 51
90.0
  0
LINE
  5
232
330
1F
100
AcDbEntity
  8
002
 62
     3
370
    30
100
AcDbLine
 10
246.49671
 20
307.547309
 30
0.0
 11
202.49671
 21
307.547309
 31
0.0
  0
ARC
  5
233
330
1F
100
AcDbEntity
  8
002
 62
     3
370
    30
100
AcDbCircle
 10
202.49671
 20
302.547309
 30
0.0
 40
5.0
100
AcDbArc
 50
90.0
 51
180.0
  0
LINE
  5
234
330
1F
100
AcDbEntity
  8
002
 62
     3
370
    30
100
AcDbLine
 10
197.49671
 20
302.547309
 30
0.0
 11
197.49671
 21
258.547309
 31
0.0
  0
ARC
  5
235
330
1F
100
AcDbEntity
  8
002
 62
     3
370
    30
100
AcDbCircle
 10
202.49671
 20
258.547309
 30
0.0
 40
5.000000000000057
100
AcDbArc
 50
180.0
 51
270.0
  0
LINE
  5
236
330
1F
100
AcDbEntity
  8
002
 62
     3
370
    30
100
AcDbLine
 10
202.49671
 20
253.547309
 30
0.0
 11
246.49671
 21
253.547309
 31
0.0
  0
ARC
  5
237
330
1F
100
AcDbEntity
  8
002
 62
     3
370
    30
100
AcDbCircle
 10
246.49671
 20
258.547309
 30
0.0
 40
5.0
100
AcDbArc
 50
270.0
 51
0.0
  0
ARC
  5
238
330
1F
100
AcDbEntity
  8
002
 62
     3
370
    30
100
AcDbCircle
 10
246.49671
 20
255.547309
 30
0.0
 40
5.0
100
AcDbArc
 50
270.0
 51
0.0
  0
LINE
  5
239
330
1F
100
AcDbEntity
  8
002
 62
     3
370
    30
100
AcDbLine
 10
249.49671
 20
250.547309
 30
0.0
 11
199.49671
 21
250.547309
 31
0.0
  0
LINE
  5
23A
330
1F
100
AcDbEntity
  8
002
 62
     3
370
    30
100
AcDbLine
 10
194.49671
 20
255.547309
 30
0.0
 11
194.49671
 21
305.547309
 31
0.0
  0
LINE
  5
23B
330
1F
100
AcDbEntity
  8
002
 62
     3
370
    30
100
AcDbLine
 10
199.49671
 20
310.547309
 30
0.0
 11
249.49671
 21
310.547309
 31
0.0
  0
ARC
  5
23C
330
1F
100
AcDbEntity
  8
002
 62
     3
370
    30
100
AcDbCircle
 10
249.49671
 20
305.547309
 30
0.0
 40
5.0
100
AcDbArc
 50
0.0
 51
90.0
  0
ARC
  5
23D
330
1F
100
AcDbEntity
  8
002
 62
     3
370
    30
100
AcDbCircle
 10
246.49671
 20
302.547309
 30
0.0
 40
5.0
100
AcDbArc
 50
0.0
 51
90.0
  0
LINE
  5
23E
330
1F
100
AcDbEntity
  8
002
 62
     3
370
    30
100
AcDbLine
 10
257.84781
 20
297.421409
 30
0.0
 11
258.78521
 21
297.769509
 31
0.0
  0
LINE
  5
23F
330
1F
100
AcDbEntity
  8
002
 62
     3
370
    30
100
AcDbLine
 10
258.78521
 20
297.769509
 30
0.0
 11
271.31731
 21
264.021209
 31
0.0
  0
LINE
  5
240
330
1F
100
AcDbEntity
  8
002
 62
     3
370
    30
100
AcDbLine
 10
271.31731
 20
264.021209
 30
0.0
 11
270.37991
 21
263.673109
 31
0.0
  0
LINE
  5
241
330
1F
100
AcDbEntity
  8
002
 62
     3
370
    30
100
AcDbLine
 10
278.49671
 20
245.547309
 30
0.0
 11
278.49671
 21
235.547309
 31
0.0
  0
LINE
  5
242
330
1F
100
AcDbEntity
  8
002
 62
     3
370
    30
100
AcDbLine
 10
278.49671
 20
235.547309
 30
0.0
 11
118.49671
 21
235.547309
 31
0.0
  0
LINE
  5
243
330
1F
100
AcDbEntity
  8
002
 62
     3
370
    30
100
AcDbLine
 10
118.49671
 20
235.547309
 30
0.0
 11
118.49671
 21
245.547309
 31
0.0
  0
ARC
  5
244
330
1F
100
AcDbEntity
  8
002
 62
     3
370
    30
100
AcDbCircle
 10
121.49671
 20
245.547309
 30
0.0
 40
3.0
100
AcDbArc
 50
90.0
 51
180.0
  0
LINE
  5
245
330
1F
100
AcDbEntity
  8
002
 62
     3
370
    30
100
AcDbLine
 10
142.54471
 20
235.547309
 30
0.0
 11
142.54471
 21
231.547309
 31
0.0
  0
LINE
  5
246
330
1F
100
AcDbEntity
  8
002
 62
     3
370
    30
100
AcDbLine
 10
142.54471
 20
231.547309
 30
0.0
 11
217.54471
 21
231.547309
 31
0.0
  0
LINE
  5
247
330
1F
100
AcDbEntity
  8
002
 62
     3
370
    30
100
AcDbLine
 10
217.54471
 20
231.547309
 30
0.0
 11
217.54471
 21
235.547309
 31
0.0
  0
LINE
  5
248
330
1F
100
AcDbEntity
  8
002
 62
     3
370
    30
100
AcDbLine
 10
214.29471
 20
231.547309
 30
0.0
 11
214.29471
 21
226.547309
 31
0.0
  0
LINE
  5
249
330
1F
100
AcDbEntity
  8
002
 62
     3
370
    30
100
AcDbLine
 10
205.79471
 20
226.547309
 30
0.0
 11
205.79471
 21
231.547309
 31
0.0
  0
ARC
  5
24A
330
1F
100
AcDbEntity
  8
002
 62
     3
370
    30
100
AcDbCircle
 10
206.92261
 20
228.547309
 30
0.0
 40
2.999933227590303
100
AcDbArc
 50
90.0
 51
178.168092
  0
LINE
  5
24B
330
1F
100
AcDbEntity
  8
002
 62
     3
370
    30
100
AcDbLine
 10
203.92421
 20
228.643209
 30
0.0
 11
202.54471
 21
185.547309
 31
0.0
  0
LINE
  5
24C
330
1F
100
AcDbEntity
  8
002
 62
     3
370
    30
100
AcDbLine
 10
202.54471
 20
185.547309
 30
0.0
 11
157.54471
 21
185.547309
 31
0.0
  0
LINE
  5
24D
330
1F
100
AcDbEntity
  8
002
 62
     3
370
    30
100
AcDbLine
 10
157.54471
 20
185.547309
 30
0.0
 11
156.16531
 21
228.643209
 31
0.0
  0
ARC
  5
24E
330
1F
100
AcDbEntity
  8
002
 62
     3
370
    30
100
AcDbCircle
 10
153.16681
 20
228.547309
 30
0.0
 40
3.0
100
AcDbArc
 50
1.831847
 51
90.0
  0
LINE
  5
24F
330
1F
100
AcDbEntity
  8
002
 62
     3
370
    30
100
AcDbLine
 10
154.29471
 20
231.547309
 30
0.0
 11
154.29471
 21
226.547309
 31
0.0
  0
LINE
  5
250
330
1F
100
AcDbEntity
  8
002
 62
     3
370
    30
100
AcDbLine
 10
154.29471
 20
226.547309
 30
0.0
 11
145.79471
 21
226.547309
 31
0.0
  0
LINE
  5
251
330
1F
100
AcDbEntity
  8
002
 62
     3
370
    30
100
AcDbLine
 10
145.79471
 20
226.547309
 30
0.0
 11
145.79471
 21
231.547309
 31
0.0
  0
LINE
  5
252
330
1F
100
AcDbEntity
  8
002
 62
     3
370
    30
100
AcDbLine
 10
175.79471
 20
231.547309
 30
0.0
 11
175.79471
 21
226.547309
 31
0.0
  0
LINE
  5
253
330
1F
100
AcDbEntity
  8
002
 62
     3
370
    30
100
AcDbLine
 10
184.29471
 20
226.547309
 30
0.0
 11
175.79471
 21
226.547309
 31
0.0
  0
LINE
  5
254
330
1F
100
AcDbEntity
  8
002
 62
     3
370
    30
100
AcDbLine
 10
184.29471
 20
226.547309
 30
0.0
 11
184.29471
 21
231.547309
 31
0.0
  0
LINE
  5
255
330
1F
100
AcDbEntity
  8
002
 62
     3
370
    30
100
AcDbLine
 10
205.79471
 20
226.547309
 30
0.0
 11
214.29471
 21
226.547309
 31
0.0
  0
ARC
  5
256
330
1F
100
AcDbEntity
  8
002
 62
     3
370
    30
100
AcDbCircle
 10
199.49671
 20
255.547309
 30
0.0
 40
5.0
100
AcDbArc
 50
180.0
 51
270.0
  0
LINE
  5
257
330
1F
100
AcDbEntity
  8
002
 62
     3
370
    30
100
AcDbLine
 10
222.39671
 20
285.047309
 30
0.0
 11
226.59671
 21
285.047309
 31
0.0
  0
LINE
  5
258
330
1F
100
AcDbEntity
  8
002
 62
     3
370
    30
100
AcDbLine
 10
226.59671
 20
285.047309
 30
0.0
 11
226.99671
 21
285.447309
 31
0.0
  0
LINE
  5
259
330
1F
100
AcDbEntity
  8
002
 62
     3
370
    30
100
AcDbLine
 10
226.99671
 20
285.447309
 30
0.0
 11
226.99671
 21
289.647309
 31
0.0
  0
LINE
  5
25A
330
1F
100
AcDbEntity
  8
002
 62
     3
370
    30
100
AcDbLine
 10
226.99671
 20
289.647309
 30
0.0
 11
226.59671
 21
290.047309
 31
0.0
  0
LINE
  5
25B
330
1F
100
AcDbEntity
  8
002
 62
     3
370
    30
100
AcDbLine
 10
226.59671
 20
290.047309
 30
0.0
 11
222.39671
 21
290.047309
 31
0.0
  0
LINE
  5
25C
330
1F
100
AcDbEntity
  8
002
 62
     3
370
    30
100
AcDbLine
 10
222.39671
 20
290.047309
 30
0.0
 11
221.99671
 21
289.647309
 31
0.0
  0
LINE
  5
25D
330
1F
100
AcDbEntity
  8
002
 62
     3
370
    30
100
AcDbLine
 10
221.99671
 20
289.647309
 30
0.0
 11
221.99671
 21
285.447309
 31
0.0
  0
LINE
  5
25E
330
1F
100
AcDbEntity
  8
002
 62
     3
370
    30
100
AcDbLine
 10
221.99671
 20
285.447309
 30
0.0
 11
222.39671
 21
285.047309
 31
0.0
  0
ARC
  5
25F
330
1F
100
AcDbEntity
  8
002
 62
     3
370
    30
100
AcDbCircle
 10
222.39671
 20
285.447309
 30
0.0
 40
0.3999999999999773
100
AcDbArc
 50
180.0
 51
270.0
  0
ARC
  5
260
330
1F
100
AcDbEntity
  8
002
 62
     3
370
    30
100
AcDbCircle
 10
224.49671
 20
280.547309
 30
0.0
 40
7.499936066394084
100
AcDbArc
 50
109.471393
 51
70.528607
  0
ARC
  5
261
330
1F
100
AcDbEntity
  8
002
 62
     3
370
    30
100
AcDbCircle
 10
226.59671
 20
285.447309
 30
0.0
 40
0.3999999999999773
100
AcDbArc
 50
270.0
 51
0.0
  0
ARC
  5
262
330
1F
100
AcDbEntity
  8
002
 62
     3
370
    30
100
AcDbCircle
 10
224.49671
 20
280.547309
 30
0.0
 40
7.999960030525125
100
AcDbArc
 50
108.210051
 51
71.789949
  0
CIRCLE
  5
263
330
1F
100
AcDbEntity
  8
002
 62
     3
370
    30
100
AcDbCircle
 10
224.49671
 20
280.547309
 30
0.0
 40
13.0
  0
ARC
  5
264
330
1F
100
AcDbEntity
  8
002
 62
     3
370
    30
100
AcDbCircle
 10
249.49671
 20
255.547309
 30
0.0
 40
5.0
100
AcDbArc
 50
270.0
 51
0.0
  0
ARC
  5
265
330
1F
100
AcDbEntity
  8
002
 62
     3
370
    30
100
AcDbCircle
 10
275.49671
 20
245.547309
 30
0.0
 40
3.0
100
AcDbArc
 50
0.0
 51
90.0
  0
ARC
  5
266
330
1F
100
AcDbEntity
  8
002
 62
     3
370
    30
100
AcDbCircle
 10
199.49671
 20
305.547309
 30
0.0
 40
5.0
100
AcDbArc
 50
90.0
 51
180.0
  0
ARC
  5
267
330
1F
100
AcDbEntity
  8
002
 62
     3
370
    30
100
AcDbCircle
 10
130.04471
 20
291.331509
 30
0.0
 40
3.000072674119751
100
AcDbArc
 50
0.0
 51
72.89685
  0
LINE
  5
268
330
1F
100
AcDbEntity
  8
002
  6
CENTER
 62
    40
370
     9
100
AcDbLine
 10
171.64441
 20
386.547309
 30
0.0
 11
188.81781
 21
386.547309
 31
0.0
  0
LINE
  5
269
330
1F
100
AcDbEntity
  8
002
  6
CENTER
 62
    40
370
     9
100
AcDbLine
 10
135.44441
 20
309.158709
 30
0.0
 11
135.44441
 21
335.558709
 31
0.0
  0
LINE
  5
26A
330
1F
100
AcDbEntity
  8
002
  6
CENTER
 62
    40
370
     9
100
AcDbLine
 10
224.64501
 20
335.558709
 30
0.0
 11
224.64501
 21
315.547309
 31
0.0
  0
LINE
  5
26B
330
1F
100
AcDbEntity
  8
002
  6
CENTER
 62
    40
370
     9
100
AcDbLine
 10
261.93721
 20
280.547309
 30
0.0
 11
104.08571
 21
280.547309
 31
0.0
  0
LINE
  5
26C
330
1F
100
AcDbEntity
  8
002
  6
CENTER
 62
    40
370
     9
100
AcDbLine
 10
224.49671
 20
312.296109
 30
0.0
 11
224.49671
 21
243.605009
 31
0.0
  0
LINE
  5
26D
330
1F
100
AcDbEntity
  8
002
  6
CENTER
 62
    40
370
     9
100
AcDbLine
 10
264.49671
 20
228.146809
 30
0.0
 11
264.49671
 21
256.075509
 31
0.0
  0
LINE
  5
26E
330
1F
100
AcDbEntity
  8
002
 62
    40
370
     9
100
AcDbLine
 10
117.04471
 20
271.231809
 30
0.0
 11
125.04471
 21
271.481809
 31
0.0
  0
LINE
  5
26F
330
1F
100
AcDbEntity
  8
002
 62
    40
370
     9
100
AcDbLine
 10
117.04471
 20
289.862809
 30
0.0
 11
125.04471
 21
289.612809
 31
0.0
  0
LINE
  5
270
330
1F
100
AcDbEntity
  8
002
 62
    40
370
     9
100
AcDbLine
 10
107.04471
 20
287.047309
 30
0.0
 11
117.04471
 21
273.547309
 31
0.0
  0
LINE
  5
271
330
1F
100
AcDbEntity
  8
002
 62
    40
370
     9
100
AcDbLine
 10
107.04471
 20
274.047309
 30
0.0
 11
117.04471
 21
287.547309
 31
0.0
  0
LINE
  5
272
330
1F
100
AcDbEntity
  8
002
  6
CENTER
 62
    40
370
     9
100
AcDbLine
 10
132.49671
 20
256.075509
 30
0.0
 11
132.49671
 21
228.146809
 31
0.0
  0
LINE
  5
273
330
1F
100
AcDbEntity
  8
002
  6
CENTER
 62
    40
370
     9
100
AcDbLine
 10
150.04471
 20
237.672109
 30
0.0
 11
150.04471
 21
225.393209
 31
0.0
  0
LINE
  5
274
330
1F
100
AcDbEntity
  8
002
  6
CENTER
 62
    40
370
     9
100
AcDbLine
 10
210.04471
 20
237.672109
 30
0.0
 11
210.04471
 21
225.393209
 31
0.0
  0
LINE
  5
275
330
1F
100
AcDbEntity
  8
002
  6
HIDDEN
 62
    40
370
     9
100
AcDbLine
 10
258.99671
 20
248.547309
 30
0.0
 11
258.99671
 21
235.547309
 31
0.0
  0
LINE
  5
276
330
1F
100
AcDbEntity
  8
002
  6
HIDDEN
 62
    40
370
     9
100
AcDbLine
 10
269.99671
 20
248.547309
 30
0.0
 11
269.99671
 21
235.547309
 31
0.0
  0
LINE
  5
277
330
1F
100
AcDbEntity
  8
002
  6
HIDDEN
 62
    40
370
     9
100
AcDbLine
 10
126.99671
 20
235.547309
 30
0.0
 11
126.99671
 21
248.547309
 31
0.0
  0
LINE
  5
278
330
1F
100
AcDbEntity
  8
002
  6
HIDDEN
 62
    40
370
     9
100
AcDbLine
 10
137.99671
 20
248.547309
 30
0.0
 11
137.99671
 21
235.547309
 31
0.0
  0
LINE
  5
279
330
1F
100
AcDbEntity
  8
002
 62
     3
370
    30
100
AcDbLine
 10
189.04401
 20
545.547309
 30
0.0
 11
171.04401
 21
545.547309
 31
0.0
  0
LINE
  5
27A
330
1F
100
AcDbEntity
  8
002
 62
     3
370
    30
100
AcDbLine
 10
171.04401
 20
545.547309
 30
0.0
 11
171.04401
 21
526.547309
 31
0.0
  0
LINE
  5
27B
330
1F
100
AcDbEntity
  8
002
 62
     3
370
    30
100
AcDbLine
 10
171.04401
 20
526.547309
 30
0.0
 11
189.04401
 21
526.547309
 31
0.0
  0
LINE
  5
27C
330
1F
100
AcDbEntity
  8
002
 62
     3
370
    30
100
AcDbLine
 10
189.04401
 20
526.547309
 30
0.0
 11
189.04401
 21
545.547309
 31
0.0
  0
LINE
  5
27D
330
1F
100
AcDbEntity
  8
002
 62
     3
370
    30
100
AcDbLine
 10
187.89401
 20
526.547309
 30
0.0
 11
187.89401
 21
523.547309
 31
0.0
  0
LINE
  5
27E
330
1F
100
AcDbEntity
  8
002
 62
     3
370
    30
100
AcDbLine
 10
192.54471
 20
523.547309
 30
0.0
 11
167.54471
 21
523.547309
 31
0.0
  0
LINE
  5
27F
330
1F
100
AcDbEntity
  8
002
 62
     3
370
    30
100
AcDbLine
 10
172.19401
 20
523.547309
 30
0.0
 11
172.19401
 21
526.547309
 31
0.0
  0
LINE
  5
280
330
1F
100
AcDbEntity
  8
002
 62
    40
370
     9
100
AcDbLine
 10
172.09401
 20
545.547309
 30
0.0
 11
172.09401
 21
526.547309
 31
0.0
  0
LINE
  5
281
330
1F
100
AcDbEntity
  8
002
 62
    40
370
     9
100
AcDbLine
 10
187.99401
 20
526.547309
 30
0.0
 11
187.99401
 21
545.547309
 31
0.0
  0
LINE
  5
282
330
1F
100
AcDbEntity
  8
002
 62
     3
370
    30
100
AcDbLine
 10
158.04471
 20
100.547309
 30
0.0
 11
158.04471
 21
83.547309
 31
0.0
  0
ARC
  5
283
330
1F
100
AcDbEntity
  8
002
 62
     3
370
    30
100
AcDbCircle
 10
161.04471
 20
83.547309
 30
0.0
 40
3.0
100
AcDbArc
 50
180.0
 51
270.0
  0
LINE
  5
284
330
1F
100
AcDbEntity
  8
002
 62
     3
370
    30
100
AcDbLine
 10
161.04471
 20
80.547309
 30
0.0
 11
199.04471
 21
80.547309
 31
0.0
  0
ARC
  5
285
330
1F
100
AcDbEntity
  8
002
 62
     3
370
    30
100
AcDbCircle
 10
199.04471
 20
83.547309
 30
0.0
 40
3.0
100
AcDbArc
 50
270.0
 51
0.0
  0
LINE
  5
286
330
1F
100
AcDbEntity
  8
002
 62
     3
370
    30
100
AcDbLine
 10
202.04471
 20
83.547309
 30
0.0
 11
202.04471
 21
100.547309
 31
0.0
  0
LINE
  5
287
330
1F
100
AcDbEntity
  8
002
 62
     3
370
    30
100
AcDbLine
 10
202.04471
 20
100.547309
 30
0.0
 11
158.04471
 21
100.547309
 31
0.0
  0
LINE
  5
288
330
1F
100
AcDbEntity
  8
002
 62
     3
370
    30
100
AcDbLine
 10
145.49671
 20
248.547309
 30
0.0
 11
145.49671
 21
235.547309
 31
0.0
  0
LINE
  5
289
330
1F
100
AcDbEntity
  8
002
 62
     3
370
    30
100
AcDbLine
 10
251.49671
 20
235.547309
 30
0.0
 11
251.49671
 21
248.547309
 31
0.0
  0
LINE
  5
28A
330
1F
100
AcDbEntity
  8
002
 62
     3
370
    30
100
AcDbLine
 10
679.995569
 20
391.547309
 30
0.0
 11
685.769069
 21
391.547309
 31
0.0
  0
LINE
  5
28B
330
1F
100
AcDbEntity
  8
002
 62
     3
370
    30
100
AcDbLine
 10
685.769069
 20
391.547309
 30
0.0
 11
688.655769
 21
386.547309
 31
0.0
  0
LINE
  5
28C
330
1F
100
AcDbEntity
  8
002
 62
     3
370
    30
100
AcDbLine
 10
688.655769
 20
386.547309
 30
0.0
 11
685.769069
 21
381.547309
 31
0.0
  0
LINE
  5
28D
330
1F
100
AcDbEntity
  8
002
 62
     3
370
    30
100
AcDbLine
 10
685.769069
 20
381.547309
 30
0.0
 11
679.995569
 21
381.547309
 31
0.0
  0
LINE
  5
28E
330
1F
100
AcDbEntity
  8
002
 62
     3
370
    30
100
AcDbLine
 10
679.995569
 20
381.547309
 30
0.0
 11
677.108769
 21
386.547309
 31
0.0
  0
LINE
  5
28F
330
1F
100
AcDbEntity
  8
002
 62
     3
370
    30
100
AcDbLine
 10
677.108769
 20
386.547309
 30
0.0
 11
679.995569
 21
391.547309
 31
0.0
  0
CIRCLE
  5
290
330
1F
100
AcDbEntity
  8
002
 62
     3
370
    30
100
AcDbCircle
 10
682.882269
 20
386.547309
 30
0.0
 40
0.75
  0
CIRCLE
  5
291
330
1F
100
AcDbEntity
  8
002
 62
     3
370
    30
100
AcDbCircle
 10
682.882269
 20
386.547309
 30
0.0
 40
2.5
  0
CIRCLE
  5
292
330
1F
100
AcDbEntity
  8
002
 62
     3
370
    30
100
AcDbCircle
 10
682.882269
 20
386.547309
 30
0.0
 40
3.25
  0
CIRCLE
  5
293
330
1F
100
AcDbEntity
  8
002
 62
     3
370
    30
100
AcDbCircle
 10
682.882269
 20
386.547309
 30
0.0
 40
5.0
  0
LINE
  5
294
330
1F
100
AcDbEntity
  8
002
 62
     3
370
    30
100
AcDbLine
 10
644.781969
 20
333.547309
 30
0.0
 11
644.781969
 21
325.547309
 31
0.0
  0
LINE
  5
295
330
1F
100
AcDbEntity
  8
002
 62
     3
370
    30
100
AcDbLine
 10
644.781969
 20
327.340609
 30
0.0
 11
676.382269
 21
327.340609
 31
0.0
  0
LINE
  5
296
330
1F
100
AcDbEntity
  8
002
 62
     3
370
    30
100
AcDbLine
 10
676.382269
 20
325.547309
 30
0.0
 11
676.382269
 21
333.547309
 31
0.0
  0
LINE
  5
297
330
1F
100
AcDbEntity
  8
002
 62
     3
370
    30
100
AcDbLine
 10
676.382269
 20
333.547309
 30
0.0
 11
689.382269
 21
333.547309
 31
0.0
  0
LINE
  5
298
330
1F
100
AcDbEntity
  8
002
 62
     3
370
    30
100
AcDbLine
 10
689.382269
 20
333.547309
 30
0.0
 11
689.382269
 21
325.547309
 31
0.0
  0
LINE
  5
299
330
1F
100
AcDbEntity
  8
002
 62
     3
370
    30
100
AcDbLine
 10
689.382269
 20
327.340609
 30
0.0
 11
720.982569
 21
327.340609
 31
0.0
  0
LINE
  5
29A
330
1F
100
AcDbEntity
  8
002
 62
     3
370
    30
100
AcDbLine
 10
720.982569
 20
325.547309
 30
0.0
 11
720.982569
 21
333.547309
 31
0.0
  0
LINE
  5
29B
330
1F
100
AcDbEntity
  8
002
 62
     3
370
    30
100
AcDbLine
 10
733.982569
 20
333.547309
 30
0.0
 11
733.982569
 21
325.547309
 31
0.0
  0
LINE
  5
29C
330
1F
100
AcDbEntity
  8
002
 62
     3
370
    30
100
AcDbLine
 10
733.982569
 20
333.547309
 30
0.0
 11
720.982569
 21
333.547309
 31
0.0
  0
LINE
  5
29D
330
1F
100
AcDbEntity
  8
002
 62
     3
370
    30
100
AcDbLine
 10
720.882269
 20
406.547309
 30
0.0
 11
644.882269
 21
406.547309
 31
0.0
  0
LINE
  5
29E
330
1F
100
AcDbEntity
  8
002
 62
     3
370
    30
100
AcDbLine
 10
631.781969
 20
333.547309
 30
0.0
 11
644.781969
 21
333.547309
 31
0.0
  0
LINE
  5
29F
330
1F
100
AcDbEntity
  8
002
 62
     3
370
    30
100
AcDbLine
 10
631.781969
 20
333.547309
 30
0.0
 11
631.781969
 21
325.547309
 31
0.0
  0
LINE
  5
2A0
330
1F
100
AcDbEntity
  8
002
 62
     3
370
    30
100
AcDbLine
 10
622.882269
 20
325.547309
 30
0.0
 11
742.882269
 21
325.547309
 31
0.0
  0
LINE
  5
2A1
330
1F
100
AcDbEntity
  8
002
 62
     3
370
    30
100
AcDbLine
 10
742.882269
 20
325.547309
 30
0.0
 11
742.882269
 21
310.547309
 31
0.0
  0
LINE
  5
2A2
330
1F
100
AcDbEntity
  8
002
 62
     3
370
    30
100
AcDbLine
 10
742.882269
 20
315.547309
 30
0.0
 11
622.882269
 21
315.547309
 31
0.0
  0
LINE
  5
2A3
330
1F
100
AcDbEntity
  8
002
 62
     3
370
    30
100
AcDbLine
 10
622.882269
 20
325.547309
 30
0.0
 11
622.882269
 21
301.240109
 31
0.0
  0
ARC
  5
2A4
330
1F
100
AcDbEntity
  8
002
 62
     3
370
    30
100
AcDbCircle
 10
627.882269
 20
301.240109
 30
0.0
 40
4.999996136998507
100
AcDbArc
 50
180.0
 51
252.897608
  0
LINE
  5
2A5
330
1F
100
AcDbEntity
  8
002
 62
     3
370
    30
100
AcDbLine
 10
626.411869
 20
296.461209
 30
0.0
 11
633.764569
 21
294.198909
 31
0.0
  0
LINE
  5
2A6
330
1F
100
AcDbEntity
  8
002
 62
     3
370
    30
100
AcDbLine
 10
635.882269
 20
293.547309
 30
0.0
 11
671.882269
 21
293.547309
 31
0.0
  0
LINE
  5
2A7
330
1F
100
AcDbEntity
  8
002
 62
     3
370
    30
100
AcDbLine
 10
671.882269
 20
294.470309
 30
0.0
 11
671.768869
 21
294.470309
 31
0.0
  0
ARC
  5
2A8
330
1F
100
AcDbEntity
  8
002
 62
     3
370
    30
100
AcDbCircle
 10
671.882269
 20
291.470309
 30
0.0
 40
3.0
100
AcDbArc
 50
0.0
 51
90.0
  0
LINE
  5
2A9
330
1F
100
AcDbEntity
  8
002
 62
     3
370
    30
100
AcDbLine
 10
674.882269
 20
291.470309
 30
0.0
 11
674.882269
 21
280.547309
 31
0.0
  0
ARC
  5
2AA
330
1F
100
AcDbEntity
  8
002
 62
     3
370
    30
100
AcDbCircle
 10
682.882269
 20
280.547309
 30
0.0
 40
8.0
100
AcDbArc
 50
180.0
 51
0.0
  0
LINE
  5
2AB
330
1F
100
AcDbEntity
  8
002
 62
     3
370
    30
100
AcDbLine
 10
690.882269
 20
280.547309
 30
0.0
 11
690.882269
 21
291.470309
 31
0.0
  0
LINE
  5
2AC
330
1F
100
AcDbEntity
  8
002
 62
     3
370
    30
100
AcDbLine
 10
693.882269
 20
293.547309
 30
0.0
 11
697.334269
 21
293.547309
 31
0.0
  0
ARC
  5
2AD
330
1F
100
AcDbEntity
  8
002
 62
     3
370
    30
100
AcDbCircle
 10
693.882269
 20
290.547309
 30
0.0
 40
3.0
100
AcDbArc
 50
90.0
 51
180.0
  0
LINE
  5
2AE
330
1F
100
AcDbEntity
  8
002
 62
     3
370
    30
100
AcDbLine
 10
693.882269
 20
294.470309
 30
0.0
 11
693.995669
 21
294.470309
 31
0.0
  0
ARC
  5
2AF
330
1F
100
AcDbEntity
  8
002
 62
     3
370
    30
100
AcDbCircle
 10
693.882269
 20
291.470309
 30
0.0
 40
3.0
100
AcDbArc
 50
90.0
 51
180.0
  0
LINE
  5
2B0
330
1F
100
AcDbEntity
  8
002
 62
     3
370
    30
100
AcDbLine
 10
687.882269
 20
283.434009
 30
0.0
 11
687.882269
 21
277.660509
 31
0.0
  0
LINE
  5
2B1
330
1F
100
AcDbEntity
  8
002
 62
     3
370
    30
100
AcDbLine
 10
687.882269
 20
277.660509
 30
0.0
 11
682.882269
 21
274.773809
 31
0.0
  0
LINE
  5
2B2
330
1F
100
AcDbEntity
  8
002
 62
     3
370
    30
100
AcDbLine
 10
682.882269
 20
274.773809
 30
0.0
 11
677.882269
 21
277.660509
 31
0.0
  0
LINE
  5
2B3
330
1F
100
AcDbEntity
  8
002
 62
     3
370
    30
100
AcDbLine
 10
677.882269
 20
277.660509
 30
0.0
 11
677.882269
 21
283.434009
 31
0.0
  0
LINE
  5
2B4
330
1F
100
AcDbEntity
  8
002
 62
     3
370
    30
100
AcDbLine
 10
677.882269
 20
283.434009
 30
0.0
 11
682.882269
 21
286.320809
 31
0.0
  0
LINE
  5
2B5
330
1F
100
AcDbEntity
  8
002
 62
     3
370
    30
100
AcDbLine
 10
682.882269
 20
286.320809
 30
0.0
 11
687.882269
 21
283.434009
 31
0.0
  0
CIRCLE
  5
2B6
330
1F
100
AcDbEntity
  8
002
 62
     3
370
    30
100
AcDbCircle
 10
682.882269
 20
280.547309
 30
0.0
 40
5.0
  0
CIRCLE
  5
2B7
330
1F
100
AcDbEntity
  8
002
 62
     3
370
    30
100
AcDbCircle
 10
682.882269
 20
280.547309
 30
0.0
 40
3.25
  0
CIRCLE
  5
2B8
330
1F
100
AcDbEntity
  8
002
 62
     3
370
    30
100
AcDbCircle
 10
682.882269
 20
280.547309
 30
0.0
 40
2.5
  0
CIRCLE
  5
2B9
330
1F
100
AcDbEntity
  8
002
 62
     3
370
    30
100
AcDbCircle
 10
682.882269
 20
280.547309
 30
0.0
 40
0.75
  0
ARC
  5
2BA
330
1F
100
AcDbEntity
  8
002
 62
     3
370
    30
100
AcDbCircle
 10
671.882269
 20
290.547309
 30
0.0
 40
3.0
100
AcDbArc
 50
0.0
 51
90.0
  0
LINE
  5
2BB
330
1F
100
AcDbEntity
  8
002
 62
     3
370
    30
100
AcDbLine
 10
697.334269
 20
297.547309
 30
0.0
 11
626.334269
 21
297.547309
 31
0.0
  0
LINE
  5
2BC
330
1F
100
AcDbEntity
  8
002
 62
     3
370
    30
100
AcDbLine
 10
627.882269
 20
293.823909
 30
0.0
 11
627.882269
 21
265.547309
 31
0.0
  0
LINE
  5
2BD
330
1F
100
AcDbEntity
  8
002
 62
     3
370
    30
100
AcDbLine
 10
627.882269
 20
265.547309
 30
0.0
 11
632.176369
 21
264.396709
 31
0.0
  0
ARC
  5
2BE
330
1F
100
AcDbEntity
  8
002
 62
     3
370
    30
100
AcDbCircle
 10
630.882269
 20
259.567009
 30
0.0
 40
5.000069689514357
100
AcDbArc
 50
0.0
 51
75.000157
  0
LINE
  5
2BF
330
1F
100
AcDbEntity
  8
002
 62
     3
370
    30
100
AcDbLine
 10
627.882269
 20
270.319809
 30
0.0
 11
619.882269
 21
270.069809
 31
0.0
  0
LINE
  5
2C0
330
1F
100
AcDbEntity
  8
002
 62
     3
370
    30
100
AcDbLine
 10
619.882269
 20
270.069809
 30
0.0
 11
619.882269
 21
291.024809
 31
0.0
  0
LINE
  5
2C1
330
1F
100
AcDbEntity
  8
002
 62
     3
370
    30
100
AcDbLine
 10
619.882269
 20
291.024809
 30
0.0
 11
627.882269
 21
290.774809
 31
0.0
  0
ARC
  5
2C2
330
1F
100
AcDbEntity
  8
002
 62
     3
370
    30
100
AcDbCircle
 10
624.882269
 20
293.823909
 30
0.0
 40
3.000023701573074
100
AcDbArc
 50
0.0
 51
67.97587
  0
LINE
  5
2C3
330
1F
100
AcDbEntity
  8
002
 62
     3
370
    30
100
AcDbLine
 10
619.882269
 20
287.547309
 30
0.0
 11
609.882269
 21
287.047309
 31
0.0
  0
LINE
  5
2C4
330
1F
100
AcDbEntity
  8
002
 62
     3
370
    30
100
AcDbLine
 10
609.882269
 20
287.047309
 30
0.0
 11
609.882269
 21
274.047309
 31
0.0
  0
LINE
  5
2C5
330
1F
100
AcDbEntity
  8
002
 62
     3
370
    30
100
AcDbLine
 10
609.882269
 20
274.047309
 30
0.0
 11
619.882269
 21
273.547309
 31
0.0
  0
LINE
  5
2C6
330
1F
100
AcDbEntity
  8
002
 62
     3
370
    30
100
AcDbLine
 10
635.882269
 20
291.331509
 30
0.0
 11
635.882269
 21
248.547309
 31
0.0
  0
LINE
  5
2C7
330
1F
100
AcDbEntity
  8
002
 62
     3
370
    30
100
AcDbLine
 10
624.334269
 20
248.547309
 30
0.0
 11
778.334269
 21
248.547309
 31
0.0
  0
LINE
  5
2C8
330
1F
100
AcDbEntity
  8
002
 62
     3
370
    30
100
AcDbLine
 10
778.850969
 20
248.502409
 30
0.0
 11
757.021569
 21
307.287809
 31
0.0
  0
LINE
  5
2C9
330
1F
100
AcDbEntity
  8
002
 62
     3
370
    30
100
AcDbLine
 10
757.334269
 20
305.547309
 30
0.0
 11
757.334269
 21
255.547309
 31
0.0
  0
LINE
  5
2CA
330
1F
100
AcDbEntity
  8
002
 62
     3
370
    30
100
AcDbLine
 10
754.334269
 20
255.547309
 30
0.0
 11
754.334269
 21
305.547309
 31
0.0
  0
ARC
  5
2CB
330
1F
100
AcDbEntity
  8
002
 62
     3
370
    30
100
AcDbCircle
 10
749.334269
 20
305.547309
 30
0.0
 40
5.0
100
AcDbArc
 50
0.0
 51
90.0
  0
LINE
  5
2CC
330
1F
100
AcDbEntity
  8
002
 62
     3
370
    30
100
AcDbLine
 10
749.334269
 20
307.547309
 30
0.0
 11
705.334269
 21
307.547309
 31
0.0
  0
ARC
  5
2CD
330
1F
100
AcDbEntity
  8
002
 62
     3
370
    30
100
AcDbCircle
 10
705.334269
 20
302.547309
 30
0.0
 40
5.0
100
AcDbArc
 50
90.0
 51
180.0
  0
LINE
  5
2CE
330
1F
100
AcDbEntity
  8
002
 62
     3
370
    30
100
AcDbLine
 10
700.334269
 20
302.547309
 30
0.0
 11
700.334269
 21
258.547309
 31
0.0
  0
ARC
  5
2CF
330
1F
100
AcDbEntity
  8
002
 62
     3
370
    30
100
AcDbCircle
 10
705.334269
 20
258.547309
 30
0.0
 40
5.000000000000057
100
AcDbArc
 50
180.0
 51
270.0
  0
LINE
  5
2D0
330
1F
100
AcDbEntity
  8
002
 62
     3
370
    30
100
AcDbLine
 10
705.334269
 20
253.547309
 30
0.0
 11
749.334269
 21
253.547309
 31
0.0
  0
ARC
  5
2D1
330
1F
100
AcDbEntity
  8
002
 62
     3
370
    30
100
AcDbCircle
 10
749.334269
 20
258.547309
 30
0.0
 40
5.0
100
AcDbArc
 50
270.0
 51
0.0
  0
ARC
  5
2D2
330
1F
100
AcDbEntity
  8
002
 62
     3
370
    30
100
AcDbCircle
 10
749.334269
 20
255.547309
 30
0.0
 40
5.0
100
AcDbArc
 50
270.0
 51
0.0
  0
LINE
  5
2D3
330
1F
100
AcDbEntity
  8
002
 62
     3
370
    30
100
AcDbLine
 10
752.334269
 20
250.547309
 30
0.0
 11
702.334269
 21
250.547309
 31
0.0
  0
LINE
  5
2D4
330
1F
100
AcDbEntity
  8
002
 62
     3
370
    30
100
AcDbLine
 10
697.334269
 20
255.547309
 30
0.0
 11
697.334269
 21
305.547309
 31
0.0
  0
LINE
  5
2D5
330
1F
100
AcDbEntity
  8
002
 62
     3
370
    30
100
AcDbLine
 10
702.334269
 20
310.547309
 30
0.0
 11
752.334269
 21
310.547309
 31
0.0
  0
ARC
  5
2D6
330
1F
100
AcDbEntity
  8
002
 62
     3
370
    30
100
AcDbCircle
 10
752.334269
 20
305.547309
 30
0.0
 40
5.0
100
AcDbArc
 50
0.0
 51
90.0
  0
ARC
  5
2D7
330
1F
100
AcDbEntity
  8
002
 62
     3
370
    30
100
AcDbCircle
 10
749.334269
 20
302.547309
 30
0.0
 40
5.0
100
AcDbArc
 50
0.0
 51
90.0
  0
LINE
  5
2D8
330
1F
100
AcDbEntity
  8
002
 62
     3
370
    30
100
AcDbLine
 10
760.685369
 20
297.421409
 30
0.0
 11
761.622769
 21
297.769509
 31
0.0
  0
LINE
  5
2D9
330
1F
100
AcDbEntity
  8
002
 62
     3
370
    30
100
AcDbLine
 10
761.622769
 20
297.769509
 30
0.0
 11
774.154869
 21
264.021209
 31
0.0
  0
LINE
  5
2DA
330
1F
100
AcDbEntity
  8
002
 62
     3
370
    30
100
AcDbLine
 10
774.154869
 20
264.021209
 30
0.0
 11
773.217469
 21
263.673109
 31
0.0
  0
LINE
  5
2DB
330
1F
100
AcDbEntity
  8
002
 62
     3
370
    30
100
AcDbLine
 10
781.334269
 20
245.547309
 30
0.0
 11
781.334269
 21
235.547309
 31
0.0
  0
LINE
  5
2DC
330
1F
100
AcDbEntity
  8
002
 62
     3
370
    30
100
AcDbLine
 10
781.334269
 20
235.547309
 30
0.0
 11
621.334269
 21
235.547309
 31
0.0
  0
LINE
  5
2DD
330
1F
100
AcDbEntity
  8
002
 62
     3
370
    30
100
AcDbLine
 10
621.334269
 20
235.547309
 30
0.0
 11
621.334269
 21
245.547309
 31
0.0
  0
ARC
  5
2DE
330
1F
100
AcDbEntity
  8
002
 62
     3
370
    30
100
AcDbCircle
 10
624.334269
 20
245.547309
 30
0.0
 40
3.0
100
AcDbArc
 50
90.0
 51
180.0
  0
LINE
  5
2DF
330
1F
100
AcDbEntity
  8
002
 62
     3
370
    30
100
AcDbLine
 10
645.382269
 20
235.547309
 30
0.0
 11
645.382269
 21
231.547309
 31
0.0
  0
LINE
  5
2E0
330
1F
100
AcDbEntity
  8
002
 62
     3
370
    30
100
AcDbLine
 10
645.382269
 20
231.547309
 30
0.0
 11
720.382269
 21
231.547309
 31
0.0
  0
LINE
  5
2E1
330
1F
100
AcDbEntity
  8
002
 62
     3
370
    30
100
AcDbLine
 10
720.382269
 20
231.547309
 30
0.0
 11
720.382269
 21
235.547309
 31
0.0
  0
LINE
  5
2E2
330
1F
100
AcDbEntity
  8
002
 62
     3
370
    30
100
AcDbLine
 10
717.132269
 20
231.547309
 30
0.0
 11
717.132269
 21
226.547309
 31
0.0
  0
LINE
  5
2E3
330
1F
100
AcDbEntity
  8
002
 62
     3
370
    30
100
AcDbLine
 10
708.632269
 20
226.547309
 30
0.0
 11
708.632269
 21
231.547309
 31
0.0
  0
ARC
  5
2E4
330
1F
100
AcDbEntity
  8
002
 62
     3
370
    30
100
AcDbCircle
 10
709.760169
 20
228.547309
 30
0.0
 40
2.999933227590303
100
AcDbArc
 50
90.0
 51
178.168092
  0
LINE
  5
2E5
330
1F
100
AcDbEntity
  8
002
 62
     3
370
    30
100
AcDbLine
 10
706.761769
 20
228.643209
 30
0.0
 11
705.382269
 21
185.547309
 31
0.0
  0
LINE
  5
2E6
330
1F
100
AcDbEntity
  8
002
 62
     3
370
    30
100
AcDbLine
 10
705.382269
 20
185.547309
 30
0.0
 11
660.382269
 21
185.547309
 31
0.0
  0
LINE
  5
2E7
330
1F
100
AcDbEntity
  8
002
 62
     3
370
    30
100
AcDbLine
 10
660.382269
 20
185.547309
 30
0.0
 11
659.002869
 21
228.643209
 31
0.0
  0
ARC
  5
2E8
330
1F
100
AcDbEntity
  8
002
 62
     3
370
    30
100
AcDbCircle
 10
656.004369
 20
228.547309
 30
0.0
 40
3.0
100
AcDbArc
 50
1.831847
 51
90.0
  0
LINE
  5
2E9
330
1F
100
AcDbEntity
  8
002
 62
     3
370
    30
100
AcDbLine
 10
657.132269
 20
231.547309
 30
0.0
 11
657.132269
 21
226.547309
 31
0.0
  0
LINE
  5
2EA
330
1F
100
AcDbEntity
  8
002
 62
     3
370
    30
100
AcDbLine
 10
657.132269
 20
226.547309
 30
0.0
 11
648.632269
 21
226.547309
 31
0.0
  0
LINE
  5
2EB
330
1F
100
AcDbEntity
  8
002
 62
     3
370
    30
100
AcDbLine
 10
648.632269
 20
226.547309
 30
0.0
 11
648.632269
 21
231.547309
 31
0.0
  0
LINE
  5
2EC
330
1F
100
AcDbEntity
  8
002
 62
     3
370
    30
100
AcDbLine
 10
678.632269
 20
231.547309
 30
0.0
 11
678.632269
 21
226.547309
 31
0.0
  0
LINE
  5
2ED
330
1F
100
AcDbEntity
  8
002
 62
     3
370
    30
100
AcDbLine
 10
687.132269
 20
226.547309
 30
0.0
 11
678.632269
 21
226.547309
 31
0.0
  0
LINE
  5
2EE
330
1F
100
AcDbEntity
  8
002
 62
     3
370
    30
100
AcDbLine
 10
687.132269
 20
226.547309
 30
0.0
 11
687.132269
 21
231.547309
 31
0.0
  0
LINE
  5
2EF
330
1F
100
AcDbEntity
  8
002
 62
     3
370
    30
100
AcDbLine
 10
708.632269
 20
226.547309
 30
0.0
 11
717.132269
 21
226.547309
 31
0.0
  0
ARC
  5
2F0
330
1F
100
AcDbEntity
  8
002
 62
     3
370
    30
100
AcDbCircle
 10
702.334269
 20
255.547309
 30
0.0
 40
5.0
100
AcDbArc
 50
180.0
 51
270.0
  0
LINE
  5
2F1
330
1F
100
AcDbEntity
  8
002
 62
     3
370
    30
100
AcDbLine
 10
725.234269
 20
285.047309
 30
0.0
 11
729.434269
 21
285.047309
 31
0.0
  0
LINE
  5
2F2
330
1F
100
AcDbEntity
  8
002
 62
     3
370
    30
100
AcDbLine
 10
729.434269
 20
285.047309
 30
0.0
 11
729.834269
 21
285.447309
 31
0.0
  0
LINE
  5
2F3
330
1F
100
AcDbEntity
  8
002
 62
     3
370
    30
100
AcDbLine
 10
729.834269
 20
285.447309
 30
0.0
 11
729.834269
 21
289.647309
 31
0.0
  0
LINE
  5
2F4
330
1F
100
AcDbEntity
  8
002
 62
     3
370
    30
100
AcDbLine
 10
729.834269
 20
289.647309
 30
0.0
 11
729.434269
 21
290.047309
 31
0.0
  0
LINE
  5
2F5
330
1F
100
AcDbEntity
  8
002
 62
     3
370
    30
100
AcDbLine
 10
729.434269
 20
290.047309
 30
0.0
 11
725.234269
 21
290.047309
 31
0.0
  0
LINE
  5
2F6
330
1F
100
AcDbEntity
  8
002
 62
     3
370
    30
100
AcDbLine
 10
725.234269
 20
290.047309
 30
0.0
 11
724.834269
 21
289.647309
 31
0.0
  0
LINE
  5
2F7
330
1F
100
AcDbEntity
  8
002
 62
     3
370
    30
100
AcDbLine
 10
724.834269
 20
289.647309
 30
0.0
 11
724.834269
 21
285.447309
 31
0.0
  0
LINE
  5
2F8
330
1F
100
AcDbEntity
  8
002
 62
     3
370
    30
100
AcDbLine
 10
724.834269
 20
285.447309
 30
0.0
 11
725.234269
 21
285.047309
 31
0.0
  0
ARC
  5
2F9
330
1F
100
AcDbEntity
  8
002
 62
     3
370
    30
100
AcDbCircle
 10
725.234269
 20
285.447309
 30
0.0
 40
0.3999999999999773
100
AcDbArc
 50
180.0
 51
270.0
  0
ARC
  5
2FA
330
1F
100
AcDbEntity
  8
002
 62
     3
370
    30
100
AcDbCircle
 10
727.334269
 20
280.547309
 30
0.0
 40
7.499936066394084
100
AcDbArc
 50
109.471393
 51
70.528607
  0
ARC
  5
2FB
330
1F
100
AcDbEntity
  8
002
 62
     3
370
    30
100
AcDbCircle
 10
729.434269
 20
285.447309
 30
0.0
 40
0.3999999999999773
100
AcDbArc
 50
270.0
 51
0.0
  0
ARC
  5
2FC
330
1F
100
AcDbEntity
  8
002
 62
     3
370
    30
100
AcDbCircle
 10
727.334269
 20
280.547309
 30
0.0
 40
7.999960030525125
100
AcDbArc
 50
108.210051
 51
71.789949
  0
CIRCLE
  5
2FD
330
1F
100
AcDbEntity
  8
002
 62
     3
370
    30
100
AcDbCircle
 10
727.334269
 20
280.547309
 30
0.0
 40
13.0
  0
ARC
  5
2FE
330
1F
100
AcDbEntity
  8
002
 62
     3
370
    30
100
AcDbCircle
 10
752.334269
 20
255.547309
 30
0.0
 40
5.0
100
AcDbArc
 50
270.0
 51
0.0
  0
ARC
  5
2FF
330
1F
100
AcDbEntity
  8
002
 62
     3
370
    30
100
AcDbCircle
 10
778.334269
 20
245.547309
 30
0.0
 40
3.0
100
AcDbArc
 50
0.0
 51
90.0
  0
ARC
  5
300
330
1F
100
AcDbEntity
  8
002
 62
     3
370
    30
100
AcDbCircle
 10
702.334269
 20
305.547309
 30
0.0
 40
5.0
100
AcDbArc
 50
90.0
 51
180.0
  0
ARC
  5
301
330
1F
100
AcDbEntity
  8
002
 62
     3
370
    30
100
AcDbCircle
 10
632.882269
 20
291.331509
 30
0.0
 40
3.000072674119751
100
AcDbArc
 50
0.0
 51
72.89685
  0
LINE
  5
302
330
1F
100
AcDbEntity
  8
002
 62
     3
370
    30
100
AcDbLine
 10
720.382269
 20
406.547309
 30
0.0
 11
720.382269
 21
408.847309
 31
0.0
  0
LINE
  5
303
330
1F
100
AcDbEntity
  8
002
 62
     3
370
    30
100
AcDbLine
 10
720.382269
 20
408.847309
 30
0.0
 11
645.382269
 21
408.847309
 31
0.0
  0
LINE
  5
304
330
1F
100
AcDbEntity
  8
002
 62
     3
370
    30
100
AcDbLine
 10
645.382269
 20
408.847309
 30
0.0
 11
645.382269
 21
406.547309
 31
0.0
  0
LINE
  5
305
330
1F
100
AcDbEntity
  8
002
 62
     3
370
    30
100
AcDbLine
 10
648.632269
 20
408.847309
 30
0.0
 11
648.632269
 21
413.847309
 31
0.0
  0
LINE
  5
306
330
1F
100
AcDbEntity
  8
002
 62
     3
370
    30
100
AcDbLine
 10
648.632269
 20
413.847309
 30
0.0
 11
657.132269
 21
413.847309
 31
0.0
  0
LINE
  5
307
330
1F
100
AcDbEntity
  8
002
 62
     3
370
    30
100
AcDbLine
 10
656.382269
 20
413.847309
 30
0.0
 11
656.382269
 21
423.847309
 31
0.0
  0
LINE
  5
308
330
1F
100
AcDbEntity
  8
002
 62
     3
370
    30
100
AcDbLine
 10
656.382269
 20
423.847309
 30
0.0
 11
717.382269
 21
423.847309
 31
0.0
  0
LINE
  5
309
330
1F
100
AcDbEntity
  8
002
 62
     3
370
    30
100
AcDbLine
 10
718.528469
 20
427.852609
 30
0.0
 11
710.236069
 21
426.841909
 31
0.0
  0
ARC
  5
30A
330
1F
100
AcDbEntity
  8
002
 62
     3
370
    30
100
AcDbCircle
 10
710.382269
 20
424.847309
 30
0.0
 40
2.0
100
AcDbArc
 50
94.192164
 51
180.0
  0
LINE
  5
30B
330
1F
100
AcDbEntity
  8
002
 62
     3
370
    30
100
AcDbLine
 10
708.382269
 20
424.847309
 30
0.0
 11
708.382269
 21
423.847309
 31
0.0
  0
LINE
  5
30C
330
1F
100
AcDbEntity
  8
002
 62
     3
370
    30
100
AcDbLine
 10
709.382269
 20
423.847309
 30
0.0
 11
709.382269
 21
413.847309
 31
0.0
  0
LINE
  5
30D
330
1F
100
AcDbEntity
  8
002
 62
     3
370
    30
100
AcDbLine
 10
708.632269
 20
413.847309
 30
0.0
 11
717.132269
 21
413.847309
 31
0.0
  0
LINE
  5
30E
330
1F
100
AcDbEntity
  8
002
 62
     3
370
    30
100
AcDbLine
 10
708.632269
 20
413.847309
 30
0.0
 11
708.632269
 21
408.847309
 31
0.0
  0
LINE
  5
30F
330
1F
100
AcDbEntity
  8
002
 62
     3
370
    30
100
AcDbLine
 10
687.132269
 20
408.847309
 30
0.0
 11
687.132269
 21
413.847309
 31
0.0
  0
LINE
  5
310
330
1F
100
AcDbEntity
  8
002
 62
     3
370
    30
100
AcDbLine
 10
678.632269
 20
413.847309
 30
0.0
 11
687.132269
 21
413.847309
 31
0.0
  0
LINE
  5
311
330
1F
100
AcDbEntity
  8
002
 62
     3
370
    30
100
AcDbLine
 10
687.132269
 20
410.847309
 30
0.0
 11
708.632269
 21
410.847309
 31
0.0
  0
LINE
  5
312
330
1F
100
AcDbEntity
  8
002
 62
     3
370
    30
100
AcDbLine
 10
717.132269
 20
408.847309
 30
0.0
 11
717.132269
 21
413.847309
 31
0.0
  0
LINE
  5
313
330
1F
100
AcDbEntity
  8
002
 62
     3
370
    30
100
AcDbLine
 10
717.132269
 20
410.847309
 30
0.0
 11
717.382269
 21
410.847309
 31
0.0
  0
ARC
  5
314
330
1F
100
AcDbEntity
  8
002
 62
     3
370
    30
100
AcDbCircle
 10
717.382269
 20
413.847309
 30
0.0
 40
3.0
100
AcDbArc
 50
270.0
 51
0.0
  0
LINE
  5
315
330
1F
100
AcDbEntity
  8
002
 62
     3
370
    30
100
AcDbLine
 10
720.382269
 20
413.847309
 30
0.0
 11
720.382269
 21
420.847309
 31
0.0
  0
ARC
  5
316
330
1F
100
AcDbEntity
  8
002
 62
     3
370
    30
100
AcDbCircle
 10
717.382269
 20
420.847309
 30
0.0
 40
3.0
100
AcDbArc
 50
0.0
 51
90.0
  0
ARC
  5
317
330
1F
100
AcDbEntity
  8
002
 62
     3
370
    30
100
AcDbCircle
 10
718.382269
 20
429.847309
 30
0.0
 40
1.999950899397276
100
AcDbArc
 50
274.191954
 51
85.807836
  0
LINE
  5
318
330
1F
100
AcDbEntity
  8
002
 62
     3
370
    30
100
AcDbLine
 10
718.528469
 20
431.841909
 30
0.0
 11
704.736069
 21
432.852609
 31
0.0
  0
ARC
  5
319
330
1F
100
AcDbEntity
  8
002
 62
     3
370
    30
100
AcDbCircle
 10
704.882269
 20
434.847309
 30
0.0
 40
2.000050631859067
100
AcDbArc
 50
94.192164
 51
265.808046
  0
LINE
  5
31A
330
1F
100
AcDbEntity
  8
002
 62
     3
370
    30
100
AcDbLine
 10
704.736069
 20
436.841909
 30
0.0
 11
718.528469
 21
437.852609
 31
0.0
  0
ARC
  5
31B
330
1F
100
AcDbEntity
  8
002
 62
     3
370
    30
100
AcDbCircle
 10
718.382269
 20
439.847309
 30
0.0
 40
1.999950899397276
100
AcDbArc
 50
274.191954
 51
85.807836
  0
LINE
  5
31C
330
1F
100
AcDbEntity
  8
002
 62
     3
370
    30
100
AcDbLine
 10
718.528469
 20
441.841909
 30
0.0
 11
704.736069
 21
442.852609
 31
0.0
  0
ARC
  5
31D
330
1F
100
AcDbEntity
  8
002
 62
     3
370
    30
100
AcDbCircle
 10
704.882269
 20
444.847309
 30
0.0
 40
2.000050631859067
100
AcDbArc
 50
180.0
 51
265.808046
  0
LINE
  5
31E
330
1F
100
AcDbEntity
  8
002
 62
     3
370
    30
100
AcDbLine
 10
700.882269
 20
444.847309
 30
0.0
 11
664.882269
 21
444.847309
 31
0.0
  0
ARC
  5
31F
330
1F
100
AcDbEntity
  8
002
 62
     3
370
    30
100
AcDbCircle
 10
660.882269
 20
444.847309
 30
0.0
 40
2.0
100
AcDbArc
 50
274.191954
 51
0.0
  0
LINE
  5
320
330
1F
100
AcDbEntity
  8
002
 62
     3
370
    30
100
AcDbLine
 10
661.028469
 20
442.852609
 30
0.0
 11
647.236069
 21
441.841909
 31
0.0
  0
ARC
  5
321
330
1F
100
AcDbEntity
  8
002
 62
     3
370
    30
100
AcDbCircle
 10
647.382269
 20
439.847309
 30
0.0
 40
2.000050631859069
100
AcDbArc
 50
94.192164
 51
265.808046
  0
LINE
  5
322
330
1F
100
AcDbEntity
  8
002
 62
     3
370
    30
100
AcDbLine
 10
647.236069
 20
437.852609
 30
0.0
 11
661.028469
 21
436.841909
 31
0.0
  0
ARC
  5
323
330
1F
100
AcDbEntity
  8
002
 62
     3
370
    30
100
AcDbCircle
 10
660.882269
 20
434.847309
 30
0.0
 40
1.999950899397273
100
AcDbArc
 50
274.191954
 51
85.807836
  0
LINE
  5
324
330
1F
100
AcDbEntity
  8
002
 62
     3
370
    30
100
AcDbLine
 10
661.028469
 20
432.852609
 30
0.0
 11
647.236069
 21
431.841909
 31
0.0
  0
ARC
  5
325
330
1F
100
AcDbEntity
  8
002
 62
     3
370
    30
100
AcDbCircle
 10
647.382269
 20
429.847309
 30
0.0
 40
2.000050631859069
100
AcDbArc
 50
94.192164
 51
265.808046
  0
LINE
  5
326
330
1F
100
AcDbEntity
  8
002
 62
     3
370
    30
100
AcDbLine
 10
647.236069
 20
427.852609
 30
0.0
 11
655.528469
 21
426.841909
 31
0.0
  0
ARC
  5
327
330
1F
100
AcDbEntity
  8
002
 62
     3
370
    30
100
AcDbCircle
 10
655.382269
 20
424.847309
 30
0.0
 40
1.999950899397273
100
AcDbArc
 50
0.0
 51
85.807836
  0
LINE
  5
328
330
1F
100
AcDbEntity
  8
002
 62
     3
370
    30
100
AcDbLine
 10
657.382269
 20
424.847309
 30
0.0
 11
657.382269
 21
423.847309
 31
0.0
  0
LINE
  5
329
330
1F
100
AcDbEntity
  8
002
 62
     3
370
    30
100
AcDbLine
 10
700.882269
 20
434.847309
 30
0.0
 11
664.882269
 21
434.847309
 31
0.0
  0
LINE
  5
32A
330
1F
100
AcDbEntity
  8
002
 62
     3
370
    30
100
AcDbLine
 10
647.382269
 20
429.847309
 30
0.0
 11
718.382269
 21
429.847309
 31
0.0
  0
LINE
  5
32B
330
1F
100
AcDbEntity
  8
002
 62
     3
370
    30
100
AcDbLine
 10
718.382269
 20
439.847309
 30
0.0
 11
647.382269
 21
439.847309
 31
0.0
  0
LINE
  5
32C
330
1F
100
AcDbEntity
  8
002
 62
     3
370
    30
100
AcDbLine
 10
657.132269
 20
413.847309
 30
0.0
 11
657.132269
 21
408.847309
 31
0.0
  0
LINE
  5
32D
330
1F
100
AcDbEntity
  8
002
 62
     3
370
    30
100
AcDbLine
 10
678.632269
 20
408.847309
 30
0.0
 11
678.632269
 21
413.847309
 31
0.0
  0
LINE
  5
32E
330
1F
100
AcDbEntity
  8
002
 62
     3
370
    30
100
AcDbLine
 10
678.632269
 20
410.847309
 30
0.0
 11
657.132269
 21
410.847309
 31
0.0
  0
CIRCLE
  5
32F
330
1F
100
AcDbEntity
  8
002
 62
     3
370
    30
100
AcDbCircle
 10
714.882269
 20
417.347309
 30
0.0
 40
1.0
  0
LINE
  5
330
330
1F
100
AcDbEntity
  8
002
 62
     3
370
    30
100
AcDbLine
 10
700.882269
 20
487.247309
 30
0.0
 11
664.882269
 21
487.247309
 31
0.0
  0
ARC
  5
331
330
1F
100
AcDbEntity
  8
002
 62
     3
370
    30
100
AcDbCircle
 10
660.882269
 20
487.247309
 30
0.0
 40
1.999950899397273
100
AcDbArc
 50
0.0
 51
85.807836
  0
LINE
  5
332
330
1F
100
AcDbEntity
  8
002
 62
     3
370
    30
100
AcDbLine
 10
661.028469
 20
489.241909
 30
0.0
 11
647.236069
 21
490.252609
 31
0.0
  0
LINE
  5
333
330
1F
100
AcDbEntity
  8
002
 62
     3
370
    30
100
AcDbLine
 10
647.382269
 20
492.247309
 30
0.0
 11
718.382269
 21
492.247309
 31
0.0
  0
LINE
  5
334
330
1F
100
AcDbEntity
  8
002
 62
     3
370
    30
100
AcDbLine
 10
718.528469
 20
494.241909
 30
0.0
 11
704.736069
 21
495.252609
 31
0.0
  0
ARC
  5
335
330
1F
100
AcDbEntity
  8
002
 62
     3
370
    30
100
AcDbCircle
 10
704.882269
 20
497.247309
 30
0.0
 40
2.000050631859067
100
AcDbArc
 50
94.192164
 51
265.808046
  0
LINE
  5
336
330
1F
100
AcDbEntity
  8
002
 62
     3
370
    30
100
AcDbLine
 10
704.736069
 20
499.241909
 30
0.0
 11
718.528469
 21
500.252609
 31
0.0
  0
ARC
  5
337
330
1F
100
AcDbEntity
  8
002
 62
     3
370
    30
100
AcDbCircle
 10
718.382269
 20
502.247309
 30
0.0
 40
1.999950899397276
100
AcDbArc
 50
274.191954
 51
85.807836
  0
LINE
  5
338
330
1F
100
AcDbEntity
  8
002
 62
     3
370
    30
100
AcDbLine
 10
718.528469
 20
504.241909
 30
0.0
 11
698.236069
 21
505.252609
 31
0.0
  0
ARC
  5
339
330
1F
100
AcDbEntity
  8
002
 62
     3
370
    30
100
AcDbCircle
 10
698.382269
 20
507.247309
 30
0.0
 40
2.000050631859067
100
AcDbArc
 50
180.0
 51
265.808046
  0
LINE
  5
33A
330
1F
100
AcDbEntity
  8
002
 62
     3
370
    30
100
AcDbLine
 10
696.382269
 20
507.247309
 30
0.0
 11
696.382269
 21
508.247309
 31
0.0
  0
LINE
  5
33B
330
1F
100
AcDbEntity
  8
002
 62
     3
370
    30
100
AcDbLine
 10
697.382269
 20
508.247309
 30
0.0
 11
697.382269
 21
521.247309
 31
0.0
  0
LINE
  5
33C
330
1F
100
AcDbEntity
  8
002
 62
     3
370
    30
100
AcDbLine
 10
696.382269
 20
521.247309
 30
0.0
 11
696.382269
 21
523.247309
 31
0.0
  0
LINE
  5
33D
330
1F
100
AcDbEntity
  8
002
 62
     3
370
    30
100
AcDbLine
 10
669.382269
 20
523.247309
 30
0.0
 11
669.382269
 21
521.247309
 31
0.0
  0
LINE
  5
33E
330
1F
100
AcDbEntity
  8
002
 62
     3
370
    30
100
AcDbLine
 10
668.382269
 20
521.247309
 30
0.0
 11
705.382269
 21
521.247309
 31
0.0
  0
LINE
  5
33F
330
1F
100
AcDbEntity
  8
002
 62
     3
370
    30
100
AcDbLine
 10
708.382269
 20
518.247309
 30
0.0
 11
708.382269
 21
511.247309
 31
0.0
  0
LINE
  5
340
330
1F
100
AcDbEntity
  8
002
 62
     3
370
    30
100
AcDbLine
 10
705.382269
 20
508.247309
 30
0.0
 11
668.382269
 21
508.247309
 31
0.0
  0
LINE
  5
341
330
1F
100
AcDbEntity
  8
002
 62
     3
370
    30
100
AcDbLine
 10
668.382269
 20
508.247309
 30
0.0
 11
668.382269
 21
521.247309
 31
0.0
  0
LINE
  5
342
330
1F
100
AcDbEntity
  8
002
 62
     3
370
    30
100
AcDbLine
 10
669.382269
 20
523.247309
 30
0.0
 11
696.382269
 21
523.247309
 31
0.0
  0
LINE
  5
343
330
1F
100
AcDbEntity
  8
002
 62
     3
370
    30
100
AcDbLine
 10
690.731569
 20
523.247309
 30
0.0
 11
690.731569
 21
526.247309
 31
0.0
  0
LINE
  5
344
330
1F
100
AcDbEntity
  8
002
 62
     3
370
    30
100
AcDbLine
 10
691.881569
 20
526.247309
 30
0.0
 11
691.881569
 21
545.247309
 31
0.0
  0
LINE
  5
345
330
1F
100
AcDbEntity
  8
002
 62
     3
370
    30
100
AcDbLine
 10
691.881569
 20
545.247309
 30
0.0
 11
673.881469
 21
545.247309
 31
0.0
  0
LINE
  5
346
330
1F
100
AcDbEntity
  8
002
 62
     3
370
    30
100
AcDbLine
 10
673.881469
 20
545.247309
 30
0.0
 11
673.881469
 21
526.247309
 31
0.0
  0
LINE
  5
347
330
1F
100
AcDbEntity
  8
002
 62
     3
370
    30
100
AcDbLine
 10
673.881469
 20
526.247309
 30
0.0
 11
691.881569
 21
526.247309
 31
0.0
  0
CIRCLE
  5
348
330
1F
100
AcDbEntity
  8
002
 62
     3
370
    30
100
AcDbCircle
 10
702.882269
 20
514.747309
 30
0.0
 40
1.0
  0
ARC
  5
349
330
1F
100
AcDbEntity
  8
002
 62
     3
370
    30
100
AcDbCircle
 10
705.382269
 20
518.247309
 30
0.0
 40
3.0
100
AcDbArc
 50
0.0
 51
90.0
  0
ARC
  5
34A
330
1F
100
AcDbEntity
  8
002
 62
     3
370
    30
100
AcDbCircle
 10
705.382269
 20
511.247309
 30
0.0
 40
3.0
100
AcDbArc
 50
270.0
 51
0.0
  0
LINE
  5
34B
330
1F
100
AcDbEntity
  8
002
 62
     3
370
    30
100
AcDbLine
 10
718.382269
 20
502.247309
 30
0.0
 11
647.382269
 21
502.247309
 31
0.0
  0
LINE
  5
34C
330
1F
100
AcDbEntity
  8
002
 62
     3
370
    30
100
AcDbLine
 10
647.236069
 20
500.252609
 30
0.0
 11
661.028469
 21
499.241909
 31
0.0
  0
LINE
  5
34D
330
1F
100
AcDbEntity
  8
002
 62
     3
370
    30
100
AcDbLine
 10
661.028469
 20
495.252609
 30
0.0
 11
647.236069
 21
494.241909
 31
0.0
  0
ARC
  5
34E
330
1F
100
AcDbEntity
  8
002
 62
     3
370
    30
100
AcDbCircle
 10
647.382269
 20
492.247309
 30
0.0
 40
2.000050631859069
100
AcDbArc
 50
94.192164
 51
265.808046
  0
ARC
  5
34F
330
1F
100
AcDbEntity
  8
002
 62
     3
370
    30
100
AcDbCircle
 10
647.382269
 20
502.247309
 30
0.0
 40
2.000050631859069
100
AcDbArc
 50
94.192164
 51
265.808046
  0
LINE
  5
350
330
1F
100
AcDbEntity
  8
002
 62
     3
370
    30
100
AcDbLine
 10
647.236069
 20
504.241909
 30
0.0
 11
667.528469
 21
505.252609
 31
0.0
  0
ARC
  5
351
330
1F
100
AcDbEntity
  8
002
 62
     3
370
    30
100
AcDbCircle
 10
667.382269
 20
507.247309
 30
0.0
 40
2.0
100
AcDbArc
 50
274.191954
 51
0.0
  0
LINE
  5
352
330
1F
100
AcDbEntity
  8
002
 62
     3
370
    30
100
AcDbLine
 10
669.382269
 20
507.247309
 30
0.0
 11
669.382269
 21
508.247309
 31
0.0
  0
LINE
  5
353
330
1F
100
AcDbEntity
  8
002
 62
     3
370
    30
100
AcDbLine
 10
664.882269
 20
497.247309
 30
0.0
 11
700.882269
 21
497.247309
 31
0.0
  0
LINE
  5
354
330
1F
100
AcDbEntity
  8
002
 62
     3
370
    30
100
AcDbLine
 10
704.736069
 20
489.241909
 30
0.0
 11
718.528469
 21
490.252609
 31
0.0
  0
ARC
  5
355
330
1F
100
AcDbEntity
  8
002
 62
     3
370
    30
100
AcDbCircle
 10
718.382269
 20
492.247309
 30
0.0
 40
1.999950899397276
100
AcDbArc
 50
274.191954
 51
85.807836
  0
ARC
  5
356
330
1F
100
AcDbEntity
  8
002
 62
     3
370
    30
100
AcDbCircle
 10
704.882269
 20
487.247309
 30
0.0
 40
2.0
100
AcDbArc
 50
94.192164
 51
180.0
  0
ARC
  5
357
330
1F
100
AcDbEntity
  8
002
 62
     3
370
    30
100
AcDbCircle
 10
660.882269
 20
497.247309
 30
0.0
 40
1.999950899397273
100
AcDbArc
 50
274.191954
 51
85.807836
  0
LINE
  5
358
330
1F
100
AcDbEntity
  8
002
 62
     3
370
    30
100
AcDbLine
 10
675.031569
 20
523.247309
 30
0.0
 11
675.031569
 21
526.247309
 31
0.0
  0
LINE
  5
359
330
1F
100
AcDbEntity
  8
002
 62
    40
370
     9
100
AcDbLine
 10
674.931569
 20
545.247309
 30
0.0
 11
674.931569
 21
526.247309
 31
0.0
  0
LINE
  5
35A
330
1F
100
AcDbEntity
  8
002
 62
    40
370
     9
100
AcDbLine
 10
690.831569
 20
526.247309
 30
0.0
 11
690.831569
 21
545.247309
 31
0.0
  0
LINE
  5
35B
330
1F
100
AcDbEntity
  8
002
  6
CENTER
 62
    40
370
     9
100
AcDbLine
 10
700.626469
 20
514.747309
 30
0.0
 11
705.227169
 21
514.747309
 31
0.0
  0
LINE
  5
35C
330
1F
100
AcDbEntity
  8
002
  6
CENTER
 62
    40
370
     9
100
AcDbLine
 10
702.882269
 20
516.618209
 30
0.0
 11
702.882269
 21
512.647109
 31
0.0
  0
LINE
  5
35D
330
1F
100
AcDbEntity
  8
002
  6
CENTER
 62
    40
370
     9
100
AcDbLine
 10
712.882269
 20
395.303009
 30
0.0
 11
712.882269
 21
415.274909
 31
0.0
  0
LINE
  5
35E
330
1F
100
AcDbEntity
  8
002
  6
CENTER
 62
    40
370
     9
100
AcDbLine
 10
714.882269
 20
415.247109
 30
0.0
 11
714.882269
 21
419.218209
 31
0.0
  0
LINE
  5
35F
330
1F
100
AcDbEntity
  8
002
  6
CENTER
 62
    40
370
     9
100
AcDbLine
 10
712.626469
 20
417.347309
 30
0.0
 11
717.227169
 21
417.347309
 31
0.0
  0
LINE
  5
360
330
1F
100
AcDbEntity
  8
002
  6
CENTER
 62
    40
370
     9
100
AcDbLine
 10
652.882269
 20
415.274909
 30
0.0
 11
652.882269
 21
395.303009
 31
0.0
  0
LINE
  5
361
330
1F
100
AcDbEntity
  8
002
  6
CENTER
 62
    40
370
     9
100
AcDbLine
 10
674.481969
 20
386.547309
 30
0.0
 11
691.655369
 21
386.547309
 31
0.0
  0
LINE
  5
362
330
1F
100
AcDbEntity
  8
002
  6
CENTER
 62
    40
370
     9
100
AcDbLine
 10
638.281969
 20
309.158709
 30
0.0
 11
638.281969
 21
335.558709
 31
0.0
  0
LINE
  5
363
330
1F
100
AcDbEntity
  8
002
  6
CENTER
 62
    40
370
     9
100
AcDbLine
 10
727.482569
 20
335.558709
 30
0.0
 11
727.482569
 21
315.547309
 31
0.0
  0
LINE
  5
364
330
1F
100
AcDbEntity
  8
002
  6
CENTER
 62
    40
370
     9
100
AcDbLine
 10
727.334269
 20
312.296109
 30
0.0
 11
727.334269
 21
243.605009
 31
0.0
  0
LINE
  5
365
330
1F
100
AcDbEntity
  8
002
  6
CENTER
 62
    40
370
     9
100
AcDbLine
 10
764.774769
 20
280.547309
 30
0.0
 11
606.923269
 21
280.547309
 31
0.0
  0
LINE
  5
366
330
1F
100
AcDbEntity
  8
002
 62
    40
370
     9
100
AcDbLine
 10
619.882269
 20
271.231809
 30
0.0
 11
627.882269
 21
271.481809
 31
0.0
  0
LINE
  5
367
330
1F
100
AcDbEntity
  8
002
 62
    40
370
     9
100
AcDbLine
 10
619.882269
 20
289.862809
 30
0.0
 11
627.882269
 21
289.612809
 31
0.0
  0
LINE
  5
368
330
1F
100
AcDbEntity
  8
002
 62
    40
370
     9
100
AcDbLine
 10
609.882269
 20
287.047309
 30
0.0
 11
619.882269
 21
273.547309
 31
0.0
  0
LINE
  5
369
330
1F
100
AcDbEntity
  8
002
 62
    40
370
     9
100
AcDbLine
 10
609.882269
 20
274.047309
 30
0.0
 11
619.882269
 21
287.547309
 31
0.0
  0
LINE
  5
36A
330
1F
100
AcDbEntity
  8
002
  6
CENTER
 62
    40
370
     9
100
AcDbLine
 10
635.334269
 20
256.075509
 30
0.0
 11
635.334269
 21
228.146809
 31
0.0
  0
LINE
  5
36B
330
1F
100
AcDbEntity
  8
002
  6
CENTER
 62
    40
370
     9
100
AcDbLine
 10
652.882269
 20
237.672109
 30
0.0
 11
652.882269
 21
225.393209
 31
0.0
  0
LINE
  5
36C
330
1F
100
AcDbEntity
  8
002
  6
CENTER
 62
    40
370
     9
100
AcDbLine
 10
712.882269
 20
237.672109
 30
0.0
 11
712.882269
 21
225.393209
 31
0.0
  0
LINE
  5
36D
330
1F
100
AcDbEntity
  8
002
  6
CENTER
 62
    40
370
     9
100
AcDbLine
 10
767.334269
 20
228.146809
 30
0.0
 11
767.334269
 21
256.075509
 31
0.0
  0
LINE
  5
36E
330
1F
100
AcDbEntity
  8
002
  6
PHANTOM
 62
    40
370
     9
100
AcDbLine
 10
645.382269
 20
439.847309
 30
0.0
 11
645.382269
 21
492.247309
 31
0.0
  0
LINE
  5
36F
330
1F
100
AcDbEntity
  8
002
  6
PHANTOM
 62
    40
370
     9
100
AcDbLine
 10
662.882269
 20
487.247309
 30
0.0
 11
662.882269
 21
444.847309
 31
0.0
  0
LINE
  5
370
330
1F
100
AcDbEntity
  8
002
  6
PHANTOM
 62
    40
370
     9
100
AcDbLine
 10
702.882269
 20
487.247309
 30
0.0
 11
702.882269
 21
444.847309
 31
0.0
  0
LINE
  5
371
330
1F
100
AcDbEntity
  8
002
  6
PHANTOM
 62
    40
370
     9
100
AcDbLine
 10
720.382269
 20
439.847309
 30
0.0
 11
720.382269
 21
492.247309
 31
0.0
  0
LINE
  5
372
330
1F
100
AcDbEntity
  8
002
  6
HIDDEN
 62
    40
370
     9
100
AcDbLine
 10
629.834269
 20
235.547309
 30
0.0
 11
629.834269
 21
248.547309
 31
0.0
  0
LINE
  5
373
330
1F
100
AcDbEntity
  8
002
  6
HIDDEN
 62
    40
370
     9
100
AcDbLine
 10
640.834269
 20
248.547309
 30
0.0
 11
640.834269
 21
235.547309
 31
0.0
  0
LINE
  5
374
330
1F
100
AcDbEntity
  8
002
  6
HIDDEN
 62
    40
370
     9
100
AcDbLine
 10
761.834269
 20
248.547309
 30
0.0
 11
761.834269
 21
235.547309
 31
0.0
  0
LINE
  5
375
330
1F
100
AcDbEntity
  8
002
  6
HIDDEN
 62
    40
370
     9
100
AcDbLine
 10
772.834269
 20
248.547309
 30
0.0
 11
772.834269
 21
235.547309
 31
0.0
  0
LINE
  5
376
330
1F
100
AcDbEntity
  8
002
 62
     3
370
    30
100
AcDbLine
 10
660.882269
 20
100.547309
 30
0.0
 11
660.882269
 21
83.547309
 31
0.0
  0
ARC
  5
377
330
1F
100
AcDbEntity
  8
002
 62
     3
370
    30
100
AcDbCircle
 10
663.882269
 20
83.547309
 30
0.0
 40
3.0
100
AcDbArc
 50
180.0
 51
270.0
  0
LINE
  5
378
330
1F
100
AcDbEntity
  8
002
 62
     3
370
    30
100
AcDbLine
 10
663.882269
 20
80.547309
 30
0.0
 11
701.882269
 21
80.547309
 31
0.0
  0
ARC
  5
379
330
1F
100
AcDbEntity
  8
002
 62
     3
370
    30
100
AcDbCircle
 10
701.882269
 20
83.547309
 30
0.0
 40
3.0
100
AcDbArc
 50
270.0
 51
0.0
  0
LINE
  5
37A
330
1F
100
AcDbEntity
  8
002
 62
     3
370
    30
100
AcDbLine
 10
704.882269
 20
83.547309
 30
0.0
 11
704.882269
 21
100.547309
 31
0.0
  0
LINE
  5
37B
330
1F
100
AcDbEntity
  8
002
 62
     3
370
    30
100
AcDbLine
 10
704.882269
 20
100.547309
 30
0.0
 11
660.882269
 21
100.547309
 31
0.0
  0
LINE
  5
37C
330
1F
100
AcDbEntity
  8
002
 62
     3
370
    30
100
AcDbLine
 10
648.334269
 20
248.547309
 30
0.0
 11
648.334269
 21
235.547309
 31
0.0
  0
LINE
  5
37D
330
1F
100
AcDbEntity
  8
002
 62
     3
370
    30
100
AcDbLine
 10
754.334269
 20
235.547309
 30
0.0
 11
754.334269
 21
248.547309
 31
0.0
  0
LINE
  5
37E
330
1F
100
AcDbEntity
  8
002
 62
     3
370
    30
100
AcDbLine
 10
917.215417
 20
456.547309
 30
0.0
 11
872.215417
 21
456.547309
 31
0.0
  0
LINE
  5
37F
330
1F
100
AcDbEntity
  8
002
 62
     3
370
    30
100
AcDbLine
 10
872.215417
 20
456.547309
 30
0.0
 11
870.836417
 21
413.451309
 31
0.0
  0
ARC
  5
380
330
1F
100
AcDbEntity
  8
002
 62
     3
370
    30
100
AcDbCircle
 10
867.837417
 20
413.547309
 30
0.0
 40
3.0
100
AcDbArc
 50
270.0
 51
358.16655
  0
LINE
  5
381
330
1F
100
AcDbEntity
  8
002
 62
     3
370
    30
100
AcDbLine
 10
868.965417
 20
410.767409
 30
0.0
 11
868.965417
 21
415.547309
 31
0.0
  0
LINE
  5
382
330
1F
100
AcDbEntity
  8
002
 62
     3
370
    30
100
AcDbLine
 10
860.465417
 20
415.547309
 30
0.0
 11
860.465417
 21
410.547309
 31
0.0
  0
LINE
  5
383
330
1F
100
AcDbEntity
  8
002
 62
     3
370
    30
100
AcDbLine
 10
857.215417
 20
410.547309
 30
0.0
 11
932.215417
 21
410.547309
 31
0.0
  0
LINE
  5
384
330
1F
100
AcDbEntity
  8
002
 62
     3
370
    30
100
AcDbLine
 10
932.215417
 20
410.547309
 30
0.0
 11
932.215417
 21
406.547309
 31
0.0
  0
LINE
  5
385
330
1F
100
AcDbEntity
  8
002
 62
     3
370
    30
100
AcDbLine
 10
932.816417
 20
333.547309
 30
0.0
 11
932.816417
 21
325.547309
 31
0.0
  0
LINE
  5
386
330
1F
100
AcDbEntity
  8
002
 62
     3
370
    30
100
AcDbLine
 10
932.816417
 20
327.340609
 30
0.0
 11
901.215417
 21
327.340609
 31
0.0
  0
LINE
  5
387
330
1F
100
AcDbEntity
  8
002
 62
     3
370
    30
100
AcDbLine
 10
901.215417
 20
325.547309
 30
0.0
 11
901.215417
 21
333.547309
 31
0.0
  0
LINE
  5
388
330
1F
100
AcDbEntity
  8
002
 62
     3
370
    30
100
AcDbLine
 10
888.215417
 20
333.547309
 30
0.0
 11
888.215417
 21
325.547309
 31
0.0
  0
LINE
  5
389
330
1F
100
AcDbEntity
  8
002
 62
     3
370
    30
100
AcDbLine
 10
888.215417
 20
327.340609
 30
0.0
 11
856.615417
 21
327.340609
 31
0.0
  0
LINE
  5
38A
330
1F
100
AcDbEntity
  8
002
 62
     3
370
    30
100
AcDbLine
 10
856.615417
 20
325.547309
 30
0.0
 11
856.615417
 21
333.547309
 31
0.0
  0
LINE
  5
38B
330
1F
100
AcDbEntity
  8
002
 62
     3
370
    30
100
AcDbLine
 10
843.615417
 20
333.547309
 30
0.0
 11
856.615417
 21
333.547309
 31
0.0
  0
LINE
  5
38C
330
1F
100
AcDbEntity
  8
002
 62
     3
370
    30
100
AcDbLine
 10
856.715417
 20
406.547309
 30
0.0
 11
932.715417
 21
406.547309
 31
0.0
  0
LINE
  5
38D
330
1F
100
AcDbEntity
  8
002
 62
     3
370
    30
100
AcDbLine
 10
928.965417
 20
410.547309
 30
0.0
 11
928.965417
 21
415.547309
 31
0.0
  0
LINE
  5
38E
330
1F
100
AcDbEntity
  8
002
 62
     3
370
    30
100
AcDbLine
 10
928.965417
 20
415.547309
 30
0.0
 11
920.465417
 21
415.547309
 31
0.0
  0
LINE
  5
38F
330
1F
100
AcDbEntity
  8
002
 62
     3
370
    30
100
AcDbLine
 10
920.465417
 20
415.547309
 30
0.0
 11
920.465417
 21
410.767409
 31
0.0
  0
ARC
  5
390
330
1F
100
AcDbEntity
  8
002
 62
     3
370
    30
100
AcDbCircle
 10
921.593417
 20
413.547309
 30
0.0
 40
2.999536630881558
100
AcDbArc
 50
181.834061
 51
270.0
  0
LINE
  5
391
330
1F
100
AcDbEntity
  8
002
 62
     3
370
    30
100
AcDbLine
 10
918.595417
 20
413.451309
 30
0.0
 11
917.215417
 21
456.547309
 31
0.0
  0
LINE
  5
392
330
1F
100
AcDbEntity
  8
002
 62
     3
370
    30
100
AcDbLine
 10
868.965417
 20
415.547309
 30
0.0
 11
860.465417
 21
415.547309
 31
0.0
  0
LINE
  5
393
330
1F
100
AcDbEntity
  8
002
 62
     3
370
    30
100
AcDbLine
 10
857.215417
 20
410.547309
 30
0.0
 11
857.215417
 21
406.547309
 31
0.0
  0
LINE
  5
394
330
1F
100
AcDbEntity
  8
002
 62
     3
370
    30
100
AcDbLine
 10
890.465417
 20
410.547309
 30
0.0
 11
890.465417
 21
415.547309
 31
0.0
  0
LINE
  5
395
330
1F
100
AcDbEntity
  8
002
 62
     3
370
    30
100
AcDbLine
 10
890.465417
 20
415.547309
 30
0.0
 11
898.965417
 21
415.547309
 31
0.0
  0
LINE
  5
396
330
1F
100
AcDbEntity
  8
002
 62
     3
370
    30
100
AcDbLine
 10
898.965417
 20
415.547309
 30
0.0
 11
898.965417
 21
410.547309
 31
0.0
  0
LINE
  5
397
330
1F
100
AcDbEntity
  8
002
 62
     3
370
    30
100
AcDbLine
 10
897.602417
 20
391.547309
 30
0.0
 11
900.489417
 21
386.547309
 31
0.0
  0
LINE
  5
398
330
1F
100
AcDbEntity
  8
002
 62
     3
370
    30
100
AcDbLine
 10
900.489417
 20
386.547309
 30
0.0
 11
897.602417
 21
381.547309
 31
0.0
  0
LINE
  5
399
330
1F
100
AcDbEntity
  8
002
 62
     3
370
    30
100
AcDbLine
 10
897.602417
 20
381.547309
 30
0.0
 11
891.829417
 21
381.547309
 31
0.0
  0
LINE
  5
39A
330
1F
100
AcDbEntity
  8
002
 62
     3
370
    30
100
AcDbLine
 10
891.829417
 20
381.547309
 30
0.0
 11
888.942417
 21
386.547309
 31
0.0
  0
LINE
  5
39B
330
1F
100
AcDbEntity
  8
002
 62
     3
370
    30
100
AcDbLine
 10
888.942417
 20
386.547309
 30
0.0
 11
891.829417
 21
391.547309
 31
0.0
  0
LINE
  5
39C
330
1F
100
AcDbEntity
  8
002
 62
     3
370
    30
100
AcDbLine
 10
891.829417
 20
391.547309
 30
0.0
 11
897.602417
 21
391.547309
 31
0.0
  0
CIRCLE
  5
39D
330
1F
100
AcDbEntity
  8
002
 62
     3
370
    30
100
AcDbCircle
 10
894.715417
 20
386.547309
 30
0.0
 40
0.75
  0
CIRCLE
  5
39E
330
1F
100
AcDbEntity
  8
002
 62
     3
370
    30
100
AcDbCircle
 10
894.715417
 20
386.547309
 30
0.0
 40
2.5
  0
CIRCLE
  5
39F
330
1F
100
AcDbEntity
  8
002
 62
     3
370
    30
100
AcDbCircle
 10
894.715417
 20
386.547309
 30
0.0
 40
3.25
  0
CIRCLE
  5
3A0
330
1F
100
AcDbEntity
  8
002
 62
     3
370
    30
100
AcDbCircle
 10
894.715417
 20
386.547309
 30
0.0
 40
5.0
  0
LINE
  5
3A1
330
1F
100
AcDbEntity
  8
002
 62
     3
370
    30
100
AcDbLine
 10
888.215417
 20
333.547309
 30
0.0
 11
901.215417
 21
333.547309
 31
0.0
  0
LINE
  5
3A2
330
1F
100
AcDbEntity
  8
002
 62
     3
370
    30
100
AcDbLine
 10
914.167417
 20
310.547309
 30
0.0
 11
964.167417
 21
310.547309
 31
0.0
  0
ARC
  5
3A3
330
1F
100
AcDbEntity
  8
002
 62
     3
370
    30
100
AcDbCircle
 10
964.167417
 20
305.547309
 30
0.0
 40
5.0
100
AcDbArc
 50
0.0
 51
90.0
  0
LINE
  5
3A4
330
1F
100
AcDbEntity
  8
002
 62
     3
370
    30
100
AcDbLine
 10
969.167417
 20
305.547309
 30
0.0
 11
969.167417
 21
255.547309
 31
0.0
  0
ARC
  5
3A5
330
1F
100
AcDbEntity
  8
002
 62
     3
370
    30
100
AcDbCircle
 10
964.167417
 20
255.547309
 30
0.0
 40
5.0
100
AcDbArc
 50
270.0
 51
0.0
  0
LINE
  5
3A6
330
1F
100
AcDbEntity
  8
002
 62
     3
370
    30
100
AcDbLine
 10
964.167417
 20
250.547309
 30
0.0
 11
914.167417
 21
250.547309
 31
0.0
  0
ARC
  5
3A7
330
1F
100
AcDbEntity
  8
002
 62
     3
370
    30
100
AcDbCircle
 10
914.167417
 20
255.547309
 30
0.0
 40
5.0
100
AcDbArc
 50
180.0
 51
270.0
  0
LINE
  5
3A8
330
1F
100
AcDbEntity
  8
002
 62
     3
370
    30
100
AcDbLine
 10
909.167417
 20
255.547309
 30
0.0
 11
909.167417
 21
305.547309
 31
0.0
  0
ARC
  5
3A9
330
1F
100
AcDbEntity
  8
002
 62
     3
370
    30
100
AcDbCircle
 10
914.167417
 20
305.547309
 30
0.0
 40
5.0
100
AcDbArc
 50
90.0
 51
180.0
  0
LINE
  5
3AA
330
1F
100
AcDbEntity
  8
002
 62
     3
370
    30
100
AcDbLine
 10
917.167417
 20
307.547309
 30
0.0
 11
961.167417
 21
307.547309
 31
0.0
  0
ARC
  5
3AB
330
1F
100
AcDbEntity
  8
002
 62
     3
370
    30
100
AcDbCircle
 10
961.167417
 20
302.547309
 30
0.0
 40
5.0
100
AcDbArc
 50
0.0
 51
90.0
  0
LINE
  5
3AC
330
1F
100
AcDbEntity
  8
002
 62
     3
370
    30
100
AcDbLine
 10
966.167417
 20
305.547309
 30
0.0
 11
966.167417
 21
255.547309
 31
0.0
  0
ARC
  5
3AD
330
1F
100
AcDbEntity
  8
002
 62
     3
370
    30
100
AcDbCircle
 10
961.167417
 20
255.547309
 30
0.0
 40
5.0
100
AcDbArc
 50
270.0
 51
0.0
  0
LINE
  5
3AE
330
1F
100
AcDbEntity
  8
002
 62
     3
370
    30
100
AcDbLine
 10
961.167417
 20
253.547309
 30
0.0
 11
917.167417
 21
253.547309
 31
0.0
  0
ARC
  5
3AF
330
1F
100
AcDbEntity
  8
002
 62
     3
370
    30
100
AcDbCircle
 10
917.167417
 20
258.547309
 30
0.0
 40
5.0
100
AcDbArc
 50
180.0
 51
270.0
  0
LINE
  5
3B0
330
1F
100
AcDbEntity
  8
002
 62
     3
370
    30
100
AcDbLine
 10
912.167417
 20
258.547309
 30
0.0
 11
912.167417
 21
302.547309
 31
0.0
  0
ARC
  5
3B1
330
1F
100
AcDbEntity
  8
002
 62
     3
370
    30
100
AcDbCircle
 10
917.167417
 20
302.547309
 30
0.0
 40
5.0
100
AcDbArc
 50
90.0
 51
180.0
  0
LINE
  5
3B2
330
1F
100
AcDbEntity
  8
002
 62
     3
370
    30
100
AcDbLine
 10
909.167417
 20
297.547309
 30
0.0
 11
838.167417
 21
297.547309
 31
0.0
  0
ARC
  5
3B3
330
1F
100
AcDbEntity
  8
002
 62
     3
370
    30
100
AcDbCircle
 10
836.715417
 20
293.823909
 30
0.0
 40
3.0
100
AcDbArc
 50
0.0
 51
67.97587
  0
LINE
  5
3B4
330
1F
100
AcDbEntity
  8
002
 62
     3
370
    30
100
AcDbLine
 10
839.715417
 20
293.823909
 30
0.0
 11
839.715417
 21
265.547309
 31
0.0
  0
LINE
  5
3B5
330
1F
100
AcDbEntity
  8
002
 62
     3
370
    30
100
AcDbLine
 10
839.715417
 20
265.547309
 30
0.0
 11
844.009417
 21
264.396709
 31
0.0
  0
ARC
  5
3B6
330
1F
100
AcDbEntity
  8
002
 62
     3
370
    30
100
AcDbCircle
 10
842.715417
 20
259.567009
 30
0.0
 40
5.0
100
AcDbArc
 50
0.0
 51
75.001264
  0
LINE
  5
3B7
330
1F
100
AcDbEntity
  8
002
 62
     3
370
    30
100
AcDbLine
 10
847.715417
 20
248.547309
 30
0.0
 11
847.715417
 21
291.331509
 31
0.0
  0
LINE
  5
3B8
330
1F
100
AcDbEntity
  8
002
 62
     3
370
    30
100
AcDbLine
 10
847.715417
 20
293.547309
 30
0.0
 11
883.715417
 21
293.547309
 31
0.0
  0
ARC
  5
3B9
330
1F
100
AcDbEntity
  8
002
 62
     3
370
    30
100
AcDbCircle
 10
883.715417
 20
290.547309
 30
0.0
 40
3.0
100
AcDbArc
 50
0.0
 51
90.0
  0
LINE
  5
3BA
330
1F
100
AcDbEntity
  8
002
 62
     3
370
    30
100
AcDbLine
 10
886.715417
 20
291.470309
 30
0.0
 11
886.715417
 21
280.547309
 31
0.0
  0
CIRCLE
  5
3BB
330
1F
100
AcDbEntity
  8
002
 62
     3
370
    30
100
AcDbCircle
 10
894.715417
 20
280.547309
 30
0.0
 40
5.0
  0
CIRCLE
  5
3BC
330
1F
100
AcDbEntity
  8
002
 62
     3
370
    30
100
AcDbCircle
 10
894.715417
 20
280.547309
 30
0.0
 40
3.25
  0
CIRCLE
  5
3BD
330
1F
100
AcDbEntity
  8
002
 62
     3
370
    30
100
AcDbCircle
 10
894.715417
 20
280.547309
 30
0.0
 40
2.5
  0
CIRCLE
  5
3BE
330
1F
100
AcDbEntity
  8
002
 62
     3
370
    30
100
AcDbCircle
 10
894.715417
 20
280.547309
 30
0.0
 40
0.75
  0
LINE
  5
3BF
330
1F
100
AcDbEntity
  8
002
 62
     3
370
    30
100
AcDbLine
 10
889.715417
 20
283.434009
 30
0.0
 11
894.715417
 21
286.320809
 31
0.0
  0
LINE
  5
3C0
330
1F
100
AcDbEntity
  8
002
 62
     3
370
    30
100
AcDbLine
 10
894.715417
 20
286.320809
 30
0.0
 11
899.715417
 21
283.434009
 31
0.0
  0
LINE
  5
3C1
330
1F
100
AcDbEntity
  8
002
 62
     3
370
    30
100
AcDbLine
 10
899.715417
 20
283.434009
 30
0.0
 11
899.715417
 21
277.660509
 31
0.0
  0
LINE
  5
3C2
330
1F
100
AcDbEntity
  8
002
 62
     3
370
    30
100
AcDbLine
 10
899.715417
 20
277.660509
 30
0.0
 11
894.715417
 21
274.773809
 31
0.0
  0
LINE
  5
3C3
330
1F
100
AcDbEntity
  8
002
 62
     3
370
    30
100
AcDbLine
 10
894.715417
 20
274.773809
 30
0.0
 11
889.715417
 21
277.660509
 31
0.0
  0
LINE
  5
3C4
330
1F
100
AcDbEntity
  8
002
 62
     3
370
    30
100
AcDbLine
 10
889.715417
 20
277.660509
 30
0.0
 11
889.715417
 21
283.434009
 31
0.0
  0
LINE
  5
3C5
330
1F
100
AcDbEntity
  8
002
 62
     3
370
    30
100
AcDbLine
 10
883.715417
 20
294.470309
 30
0.0
 11
883.602417
 21
294.470309
 31
0.0
  0
ARC
  5
3C6
330
1F
100
AcDbEntity
  8
002
 62
     3
370
    30
100
AcDbCircle
 10
883.715417
 20
291.470309
 30
0.0
 40
3.0
100
AcDbArc
 50
0.0
 51
90.0
  0
LINE
  5
3C7
330
1F
100
AcDbEntity
  8
002
 62
     3
370
    30
100
AcDbLine
 10
902.715417
 20
291.470309
 30
0.0
 11
902.715417
 21
280.547309
 31
0.0
  0
ARC
  5
3C8
330
1F
100
AcDbEntity
  8
002
 62
     3
370
    30
100
AcDbCircle
 10
894.715417
 20
280.547309
 30
0.0
 40
8.0
100
AcDbArc
 50
180.0
 51
0.0
  0
ARC
  5
3C9
330
1F
100
AcDbEntity
  8
002
 62
     3
370
    30
100
AcDbCircle
 10
905.715417
 20
290.547309
 30
0.0
 40
3.0
100
AcDbArc
 50
90.0
 51
180.0
  0
LINE
  5
3CA
330
1F
100
AcDbEntity
  8
002
 62
     3
370
    30
100
AcDbLine
 10
905.715417
 20
293.547309
 30
0.0
 11
909.167417
 21
293.547309
 31
0.0
  0
LINE
  5
3CB
330
1F
100
AcDbEntity
  8
002
 62
     3
370
    30
100
AcDbLine
 10
905.829417
 20
294.470309
 30
0.0
 11
905.715417
 21
294.470309
 31
0.0
  0
ARC
  5
3CC
330
1F
100
AcDbEntity
  8
002
 62
     3
370
    30
100
AcDbCircle
 10
905.715417
 20
291.470309
 30
0.0
 40
3.0
100
AcDbArc
 50
90.0
 51
180.0
  0
CIRCLE
  5
3CD
330
1F
100
AcDbEntity
  8
002
 62
     3
370
    30
100
AcDbCircle
 10
939.167417
 20
280.547309
 30
0.0
 40
13.0
  0
LINE
  5
3CE
330
1F
100
AcDbEntity
  8
002
 62
     3
370
    30
100
AcDbLine
 10
936.667417
 20
285.447309
 30
0.0
 11
936.667417
 21
289.647309
 31
0.0
  0
LINE
  5
3CF
330
1F
100
AcDbEntity
  8
002
 62
     3
370
    30
100
AcDbLine
 10
936.667417
 20
289.647309
 30
0.0
 11
937.067417
 21
290.047309
 31
0.0
  0
LINE
  5
3D0
330
1F
100
AcDbEntity
  8
002
 62
     3
370
    30
100
AcDbLine
 10
937.067417
 20
290.047309
 30
0.0
 11
941.267417
 21
290.047309
 31
0.0
  0
LINE
  5
3D1
330
1F
100
AcDbEntity
  8
002
 62
     3
370
    30
100
AcDbLine
 10
941.267417
 20
290.047309
 30
0.0
 11
941.667417
 21
289.647309
 31
0.0
  0
LINE
  5
3D2
330
1F
100
AcDbEntity
  8
002
 62
     3
370
    30
100
AcDbLine
 10
941.667417
 20
289.647309
 30
0.0
 11
941.667417
 21
285.447309
 31
0.0
  0
LINE
  5
3D3
330
1F
100
AcDbEntity
  8
002
 62
     3
370
    30
100
AcDbLine
 10
941.667417
 20
285.447309
 30
0.0
 11
941.267417
 21
285.047309
 31
0.0
  0
LINE
  5
3D4
330
1F
100
AcDbEntity
  8
002
 62
     3
370
    30
100
AcDbLine
 10
941.267417
 20
285.047309
 30
0.0
 11
937.067417
 21
285.047309
 31
0.0
  0
LINE
  5
3D5
330
1F
100
AcDbEntity
  8
002
 62
     3
370
    30
100
AcDbLine
 10
937.067417
 20
285.047309
 30
0.0
 11
936.667417
 21
285.447309
 31
0.0
  0
ARC
  5
3D6
330
1F
100
AcDbEntity
  8
002
 62
     3
370
    30
100
AcDbCircle
 10
937.067417
 20
285.447309
 30
0.0
 40
0.4000000000000909
100
AcDbArc
 50
180.0
 51
270.0
  0
ARC
  5
3D7
330
1F
100
AcDbEntity
  8
002
 62
     3
370
    30
100
AcDbCircle
 10
941.267417
 20
285.447309
 30
0.0
 40
0.3999999999999773
100
AcDbArc
 50
270.0
 51
0.0
  0
ARC
  5
3D8
330
1F
100
AcDbEntity
  8
002
 62
     3
370
    30
100
AcDbCircle
 10
939.167417
 20
280.547309
 30
0.0
 40
7.499936066394084
100
AcDbArc
 50
109.471393
 51
70.528607
  0
ARC
  5
3D9
330
1F
100
AcDbEntity
  8
002
 62
     3
370
    30
100
AcDbCircle
 10
939.167417
 20
280.547309
 30
0.0
 40
7.999960030525125
100
AcDbArc
 50
108.210051
 51
71.789949
  0
LINE
  5
3DA
330
1F
100
AcDbEntity
  8
002
 62
     3
370
    30
100
AcDbLine
 10
954.715417
 20
310.547309
 30
0.0
 11
954.715417
 21
325.547309
 31
0.0
  0
LINE
  5
3DB
330
1F
100
AcDbEntity
  8
002
 62
     3
370
    30
100
AcDbLine
 10
954.715417
 20
325.547309
 30
0.0
 11
834.715417
 21
325.547309
 31
0.0
  0
LINE
  5
3DC
330
1F
100
AcDbEntity
  8
002
 62
     3
370
    30
100
AcDbLine
 10
834.715417
 20
325.547309
 30
0.0
 11
834.715417
 21
301.240109
 31
0.0
  0
ARC
  5
3DD
330
1F
100
AcDbEntity
  8
002
 62
     3
370
    30
100
AcDbCircle
 10
839.715417
 20
301.240109
 30
0.0
 40
5.0
100
AcDbArc
 50
180.0
 51
252.901989
  0
LINE
  5
3DE
330
1F
100
AcDbEntity
  8
002
 62
     3
370
    30
100
AcDbLine
 10
838.245417
 20
296.461209
 30
0.0
 11
845.598417
 21
294.198909
 31
0.0
  0
ARC
  5
3DF
330
1F
100
AcDbEntity
  8
002
 62
     3
370
    30
100
AcDbCircle
 10
844.715417
 20
291.331509
 30
0.0
 40
3.0
100
AcDbArc
 50
0.0
 51
72.884073
  0
LINE
  5
3E0
330
1F
100
AcDbEntity
  8
002
 62
     3
370
    30
100
AcDbLine
 10
839.715417
 20
290.774809
 30
0.0
 11
831.715417
 21
291.024809
 31
0.0
  0
LINE
  5
3E1
330
1F
100
AcDbEntity
  8
002
 62
     3
370
    30
100
AcDbLine
 10
831.715417
 20
291.024809
 30
0.0
 11
831.715417
 21
270.069809
 31
0.0
  0
LINE
  5
3E2
330
1F
100
AcDbEntity
  8
002
 62
     3
370
    30
100
AcDbLine
 10
831.715417
 20
270.069809
 30
0.0
 11
839.715417
 21
270.319809
 31
0.0
  0
LINE
  5
3E3
330
1F
100
AcDbEntity
  8
002
 62
     3
370
    30
100
AcDbLine
 10
831.715417
 20
273.547309
 30
0.0
 11
821.715417
 21
274.047309
 31
0.0
  0
LINE
  5
3E4
330
1F
100
AcDbEntity
  8
002
 62
     3
370
    30
100
AcDbLine
 10
821.715417
 20
274.047309
 30
0.0
 11
821.715417
 21
287.047309
 31
0.0
  0
LINE
  5
3E5
330
1F
100
AcDbEntity
  8
002
 62
     3
370
    30
100
AcDbLine
 10
821.715417
 20
287.047309
 30
0.0
 11
831.715417
 21
287.547309
 31
0.0
  0
LINE
  5
3E6
330
1F
100
AcDbEntity
  8
002
 62
     3
370
    30
100
AcDbLine
 10
834.715417
 20
315.547309
 30
0.0
 11
954.715417
 21
315.547309
 31
0.0
  0
ARC
  5
3E7
330
1F
100
AcDbEntity
  8
002
 62
     3
370
    30
100
AcDbCircle
 10
961.167417
 20
305.547309
 30
0.0
 40
5.0
100
AcDbArc
 50
0.0
 51
90.0
  0
LINE
  5
3E8
330
1F
100
AcDbEntity
  8
002
 62
     3
370
    30
100
AcDbLine
 10
968.855417
 20
307.287809
 30
0.0
 11
990.684417
 21
248.502409
 31
0.0
  0
LINE
  5
3E9
330
1F
100
AcDbEntity
  8
002
 62
     3
370
    30
100
AcDbLine
 10
990.167417
 20
248.547309
 30
0.0
 11
836.167417
 21
248.547309
 31
0.0
  0
LINE
  5
3EA
330
1F
100
AcDbEntity
  8
002
 62
     3
370
    30
100
AcDbLine
 10
833.167417
 20
245.547309
 30
0.0
 11
833.167417
 21
235.547309
 31
0.0
  0
LINE
  5
3EB
330
1F
100
AcDbEntity
  8
002
 62
     3
370
    30
100
AcDbLine
 10
833.167417
 20
235.547309
 30
0.0
 11
993.167417
 21
235.547309
 31
0.0
  0
LINE
  5
3EC
330
1F
100
AcDbEntity
  8
002
 62
     3
370
    30
100
AcDbLine
 10
993.167417
 20
235.547309
 30
0.0
 11
993.167417
 21
245.547309
 31
0.0
  0
ARC
  5
3ED
330
1F
100
AcDbEntity
  8
002
 62
     3
370
    30
100
AcDbCircle
 10
990.167417
 20
245.547309
 30
0.0
 40
3.0
100
AcDbArc
 50
0.0
 51
90.0
  0
LINE
  5
3EE
330
1F
100
AcDbEntity
  8
002
 62
     3
370
    30
100
AcDbLine
 10
985.988417
 20
264.021209
 30
0.0
 11
973.456417
 21
297.769509
 31
0.0
  0
LINE
  5
3EF
330
1F
100
AcDbEntity
  8
002
 62
     3
370
    30
100
AcDbLine
 10
973.456417
 20
297.769509
 30
0.0
 11
972.518417
 21
297.421409
 31
0.0
  0
LINE
  5
3F0
330
1F
100
AcDbEntity
  8
002
 62
     3
370
    30
100
AcDbLine
 10
985.051417
 20
263.673109
 30
0.0
 11
985.988417
 21
264.021209
 31
0.0
  0
ARC
  5
3F1
330
1F
100
AcDbEntity
  8
002
 62
     3
370
    30
100
AcDbCircle
 10
961.167417
 20
258.547309
 30
0.0
 40
5.000000000000057
100
AcDbArc
 50
270.0
 51
0.0
  0
LINE
  5
3F2
330
1F
100
AcDbEntity
  8
002
 62
     3
370
    30
100
AcDbLine
 10
907.215417
 20
117.547309
 30
0.0
 11
882.215417
 21
117.547309
 31
0.0
  0
ARC
  5
3F3
330
1F
100
AcDbEntity
  8
002
 62
     3
370
    30
100
AcDbCircle
 10
836.167417
 20
245.547309
 30
0.0
 40
3.0
100
AcDbArc
 50
90.0
 51
180.0
  0
LINE
  5
3F4
330
1F
100
AcDbEntity
  8
002
 62
     3
370
    30
100
AcDbLine
 10
843.615417
 20
325.547309
 30
0.0
 11
843.615417
 21
333.547309
 31
0.0
  0
LINE
  5
3F5
330
1F
100
AcDbEntity
  8
002
 62
     3
370
    30
100
AcDbLine
 10
932.816417
 20
333.547309
 30
0.0
 11
945.816417
 21
333.547309
 31
0.0
  0
LINE
  5
3F6
330
1F
100
AcDbEntity
  8
002
 62
     3
370
    30
100
AcDbLine
 10
945.816417
 20
333.547309
 30
0.0
 11
945.816417
 21
325.547309
 31
0.0
  0
LINE
  5
3F7
330
1F
100
AcDbEntity
  8
002
 62
     3
370
    30
100
AcDbLine
 10
902.565417
 20
117.547209
 30
0.0
 11
902.565417
 21
114.547209
 31
0.0
  0
LINE
  5
3F8
330
1F
100
AcDbEntity
  8
002
 62
     3
370
    30
100
AcDbLine
 10
903.715417
 20
114.547209
 30
0.0
 11
903.715417
 21
95.547309
 31
0.0
  0
LINE
  5
3F9
330
1F
100
AcDbEntity
  8
002
 62
     3
370
    30
100
AcDbLine
 10
903.715417
 20
95.547309
 30
0.0
 11
885.715417
 21
95.547309
 31
0.0
  0
LINE
  5
3FA
330
1F
100
AcDbEntity
  8
002
 62
     3
370
    30
100
AcDbLine
 10
885.715417
 20
95.547309
 30
0.0
 11
885.715417
 21
114.547209
 31
0.0
  0
LINE
  5
3FB
330
1F
100
AcDbEntity
  8
002
 62
     3
370
    30
100
AcDbLine
 10
885.715417
 20
114.547309
 30
0.0
 11
903.715417
 21
114.547309
 31
0.0
  0
LINE
  5
3FC
330
1F
100
AcDbEntity
  8
002
 62
     3
370
    30
100
AcDbLine
 10
886.865417
 20
114.547209
 30
0.0
 11
886.865417
 21
117.547209
 31
0.0
  0
LINE
  5
3FD
330
1F
100
AcDbEntity
  8
002
 62
    40
370
     9
100
AcDbLine
 10
902.665417
 20
114.547209
 30
0.0
 11
902.665417
 21
95.547309
 31
0.0
  0
LINE
  5
3FE
330
1F
100
AcDbEntity
  8
002
 62
    40
370
     9
100
AcDbLine
 10
886.765417
 20
95.547309
 30
0.0
 11
886.765417
 21
114.547209
 31
0.0
  0
LINE
  5
3FF
330
1F
100
AcDbEntity
  8
002
  6
CENTER
 62
    40
370
     9
100
AcDbLine
 10
847.167417
 20
256.075509
 30
0.0
 11
847.167417
 21
228.146809
 31
0.0
  0
LINE
  5
400
330
1F
100
AcDbEntity
  8
002
  6
CENTER
 62
    40
370
     9
100
AcDbLine
 10
979.167417
 20
228.146809
 30
0.0
 11
979.167417
 21
256.075509
 31
0.0
  0
LINE
  5
401
330
1F
100
AcDbEntity
  8
002
  6
CENTER
 62
    40
370
     9
100
AcDbLine
 10
976.608417
 20
280.547309
 30
0.0
 11
818.788417
 21
280.547309
 31
0.0
  0
LINE
  5
402
330
1F
100
AcDbEntity
  8
002
  6
CENTER
 62
    40
370
     9
100
AcDbLine
 10
939.167417
 20
248.547309
 30
0.0
 11
939.167417
 21
312.296109
 31
0.0
  0
LINE
  5
403
330
1F
100
AcDbEntity
  8
002
  6
CENTER
 62
    40
370
     9
100
AcDbLine
 10
939.315417
 20
309.158709
 30
0.0
 11
939.315417
 21
335.558709
 31
0.0
  0
LINE
  5
404
330
1F
100
AcDbEntity
  8
002
  6
CENTER
 62
    40
370
     9
100
AcDbLine
 10
850.115417
 20
309.158709
 30
0.0
 11
850.115417
 21
335.558709
 31
0.0
  0
LINE
  5
405
330
1F
100
AcDbEntity
  8
002
 62
    40
370
     9
100
AcDbLine
 10
821.715417
 20
287.047309
 30
0.0
 11
831.715417
 21
273.547309
 31
0.0
  0
LINE
  5
406
330
1F
100
AcDbEntity
  8
002
 62
    40
370
     9
100
AcDbLine
 10
821.715417
 20
274.047309
 30
0.0
 11
831.715417
 21
287.547309
 31
0.0
  0
LINE
  5
407
330
1F
100
AcDbEntity
  8
002
 62
    40
370
     9
100
AcDbLine
 10
831.715417
 20
271.231809
 30
0.0
 11
839.715417
 21
271.481809
 31
0.0
  0
LINE
  5
408
330
1F
100
AcDbEntity
  8
002
 62
    40
370
     9
100
AcDbLine
 10
831.715417
 20
289.862809
 30
0.0
 11
839.715417
 21
289.612809
 31
0.0
  0
LINE
  5
409
330
1F
100
AcDbEntity
  8
002
  6
CENTER
 62
    40
370
     9
100
AcDbLine
 10
885.942417
 20
386.547309
 30
0.0
 11
903.116417
 21
386.547309
 31
0.0
  0
LINE
  5
40A
330
1F
100
AcDbEntity
  8
002
  6
CENTER
 62
    40
370
     9
100
AcDbLine
 10
864.715417
 20
397.003009
 30
0.0
 11
864.715417
 21
416.974909
 31
0.0
  0
LINE
  5
40B
330
1F
100
AcDbEntity
  8
002
  6
CENTER
 62
    40
370
     9
100
AcDbLine
 10
924.715417
 20
397.003009
 30
0.0
 11
924.715417
 21
416.974909
 31
0.0
  0
LINE
  5
40C
330
1F
100
AcDbEntity
  8
002
  6
HIDDEN
 62
    40
370
     9
100
AcDbLine
 10
841.667417
 20
235.547309
 30
0.0
 11
841.667417
 21
248.547309
 31
0.0
  0
LINE
  5
40D
330
1F
100
AcDbEntity
  8
002
  6
HIDDEN
 62
    40
370
     9
100
AcDbLine
 10
852.667417
 20
248.547309
 30
0.0
 11
852.667417
 21
235.547309
 31
0.0
  0
LINE
  5
40E
330
1F
100
AcDbEntity
  8
002
  6
HIDDEN
 62
    40
370
     9
100
AcDbLine
 10
973.667417
 20
248.547309
 30
0.0
 11
973.667417
 21
235.547309
 31
0.0
  0
LINE
  5
40F
330
1F
100
AcDbEntity
  8
002
  6
HIDDEN
 62
    40
370
     9
100
AcDbLine
 10
984.667417
 20
235.547309
 30
0.0
 11
984.667417
 21
248.547309
 31
0.0
  0
LINE
  5
410
330
1F
100
AcDbEntity
  8
002
 62
     3
370
    30
100
AcDbLine
 10
916.715417
 20
557.547309
 30
0.0
 11
916.715417
 21
540.547309
 31
0.0
  0
LINE
  5
411
330
1F
100
AcDbEntity
  8
002
 62
     3
370
    30
100
AcDbLine
 10
916.715417
 20
540.547309
 30
0.0
 11
872.715417
 21
540.547309
 31
0.0
  0
LINE
  5
412
330
1F
100
AcDbEntity
  8
002
 62
     3
370
    30
100
AcDbLine
 10
872.715417
 20
540.547309
 30
0.0
 11
872.715417
 21
557.547309
 31
0.0
  0
ARC
  5
413
330
1F
100
AcDbEntity
  8
002
 62
     3
370
    30
100
AcDbCircle
 10
875.715417
 20
557.547309
 30
0.0
 40
3.0
100
AcDbArc
 50
90.0
 51
180.0
  0
LINE
  5
414
330
1F
100
AcDbEntity
  8
002
 62
     3
370
    30
100
AcDbLine
 10
875.715417
 20
560.547309
 30
0.0
 11
913.715417
 21
560.547309
 31
0.0
  0
ARC
  5
415
330
1F
100
AcDbEntity
  8
002
 62
     3
370
    30
100
AcDbCircle
 10
913.715417
 20
557.547309
 30
0.0
 40
3.0
100
AcDbArc
 50
0.0
 51
90.0
  0
LINE
  5
416
330
1F
100
AcDbEntity
  8
002
 62
     3
370
    30
100
AcDbLine
 10
860.167417
 20
248.547309
 30
0.0
 11
860.167417
 21
235.547309
 31
0.0
  0
LINE
  5
417
330
1F
100
AcDbEntity
  8
002
 62
     3
370
    30
100
AcDbLine
 10
966.167417
 20
235.547309
 30
0.0
 11
966.167417
 21
248.547309
 31
0.0
  0
ARC
  5
418
330
1F
100
AcDbEntity
  8
002
 62
     3
370
    30
100
AcDbCircle
 10
275.51321
 20
921.122371
 30
0.0
 40
3.0
100
AcDbArc
 50
0.0
 51
90.0
  0
LINE
  5
419
330
1F
100
AcDbEntity
  8
002
 62
     3
370
    30
100
AcDbLine
 10
275.51321
 20
924.122371
 30
0.0
 11
257.49621
 21
924.122371
 31
0.0
  0
ARC
  5
41A
330
1F
100
AcDbEntity
  8
002
 62
     3
370
    30
100
AcDbCircle
 10
257.49621
 20
921.122371
 30
0.0
 40
3.0
100
AcDbArc
 50
90.0
 51
180.0
  0
LINE
  5
41B
330
1F
100
AcDbEntity
  8
002
 62
     3
370
    30
100
AcDbLine
 10
254.49621
 20
921.122371
 30
0.0
 11
254.49621
 21
919.928371
 31
0.0
  0
ARC
  5
41C
330
1F
100
AcDbEntity
  8
002
 62
     3
370
    30
100
AcDbCircle
 10
264.49621
 20
911.622371
 30
0.0
 40
13.0
100
AcDbArc
 50
140.286978
 51
180.0
  0
LINE
  5
41D
330
1F
100
AcDbEntity
  8
002
 62
     3
370
    30
100
AcDbLine
 10
251.49621
 20
911.622371
 30
0.0
 11
251.49621
 21
895.622371
 31
0.0
  0
LINE
  5
41E
330
1F
100
AcDbEntity
  8
002
 62
     3
370
    30
100
AcDbLine
 10
251.49621
 20
895.622371
 30
0.0
 11
201.58471
 21
895.622371
 31
0.0
  0
LINE
  5
41F
330
1F
100
AcDbEntity
  8
002
 62
     3
370
    30
100
AcDbLine
 10
251.49621
 20
900.622371
 30
0.0
 11
211.65071
 21
900.622371
 31
0.0
  0
LINE
  5
420
330
1F
100
AcDbEntity
  8
002
 62
     3
370
    30
100
AcDbLine
 10
231.99621
 20
886.622371
 30
0.0
 11
231.99621
 21
862.622071
 31
0.0
  0
LINE
  5
421
330
1F
100
AcDbEntity
  8
002
 62
     3
370
    30
100
AcDbLine
 10
231.99621
 20
862.622071
 30
0.0
 11
226.99621
 21
862.622071
 31
0.0
  0
LINE
  5
422
330
1F
100
AcDbEntity
  8
002
 62
     3
370
    30
100
AcDbLine
 10
226.99621
 20
861.622071
 30
0.0
 11
226.99621
 21
883.122371
 31
0.0
  0
LINE
  5
423
330
1F
100
AcDbEntity
  8
002
 62
     3
370
    30
100
AcDbLine
 10
226.99621
 20
883.122371
 30
0.0
 11
221.99621
 21
883.122371
 31
0.0
  0
LINE
  5
424
330
1F
100
AcDbEntity
  8
002
 62
     3
370
    30
100
AcDbLine
 10
221.99621
 20
883.122371
 30
0.0
 11
221.99621
 21
861.622071
 31
0.0
  0
LINE
  5
425
330
1F
100
AcDbEntity
  8
002
 62
     3
370
    30
100
AcDbLine
 10
221.99621
 20
862.622071
 30
0.0
 11
216.99621
 21
862.622071
 31
0.0
  0
LINE
  5
426
330
1F
100
AcDbEntity
  8
002
 62
     3
370
    30
100
AcDbLine
 10
216.99621
 20
862.622071
 30
0.0
 11
217.99621
 21
861.622071
 31
0.0
  0
LINE
  5
427
330
1F
100
AcDbEntity
  8
002
 62
     3
370
    30
100
AcDbLine
 10
217.99621
 20
861.622071
 30
0.0
 11
230.99621
 21
861.622071
 31
0.0
  0
LINE
  5
428
330
1F
100
AcDbEntity
  8
002
 62
     3
370
    30
100
AcDbLine
 10
230.99621
 20
861.622071
 30
0.0
 11
231.99621
 21
862.622071
 31
0.0
  0
LINE
  5
429
330
1F
100
AcDbEntity
  8
002
 62
     3
370
    30
100
AcDbLine
 10
216.99621
 20
862.622071
 30
0.0
 11
216.99621
 21
886.622371
 31
0.0
  0
ARC
  5
42A
330
1F
100
AcDbEntity
  8
002
 62
     3
370
    30
100
AcDbCircle
 10
224.49621
 20
883.122371
 30
0.0
 40
2.5
100
AcDbArc
 50
0.0
 51
180.0
  0
LINE
  5
42B
330
1F
100
AcDbEntity
  8
002
 62
     3
370
    30
100
AcDbLine
 10
251.49621
 20
902.622371
 30
0.0
 11
253.94241
 21
902.622371
 31
0.0
  0
ARC
  5
42C
330
1F
100
AcDbEntity
  8
002
 62
     3
370
    30
100
AcDbCircle
 10
253.94241
 20
899.622371
 30
0.0
 40
2.999999999999886
100
AcDbArc
 50
49.402641
 51
90.0
  0
ARC
  5
42D
330
1F
100
AcDbEntity
  8
002
 62
     3
370
    30
100
AcDbCircle
 10
264.81131
 20
912.303371
 30
0.0
 40
13.70183378274599
100
AcDbArc
 50
229.399522
 51
357.151147
  0
LINE
  5
42E
330
1F
100
AcDbEntity
  8
002
 62
     3
370
    30
100
AcDbLine
 10
278.49621
 20
911.622371
 30
0.0
 11
278.49621
 21
991.622371
 31
0.0
  0
ARC
  5
42F
330
1F
100
AcDbEntity
  8
002
 62
     3
370
    30
100
AcDbCircle
 10
264.81131
 20
990.940371
 30
0.0
 40
13.70215207768474
100
AcDbArc
 50
2.853029
 51
130.597757
  0
LINE
  5
430
330
1F
100
AcDbEntity
  8
002
 62
     3
370
    30
100
AcDbLine
 10
253.94241
 20
1000.622371
 30
0.0
 11
251.49621
 21
1000.622371
 31
0.0
  0
LINE
  5
431
330
1F
100
AcDbEntity
  8
002
 62
     3
370
    30
100
AcDbLine
 10
251.49621
 20
1002.622371
 30
0.0
 11
211.65071
 21
1002.622371
 31
0.0
  0
LINE
  5
432
330
1F
100
AcDbEntity
  8
002
 62
     3
370
    30
100
AcDbLine
 10
251.49621
 20
1007.622371
 30
0.0
 11
251.49621
 21
991.622371
 31
0.0
  0
ARC
  5
433
330
1F
100
AcDbEntity
  8
002
 62
     3
370
    30
100
AcDbCircle
 10
264.49621
 20
991.622371
 30
0.0
 40
13.00024034393212
100
AcDbArc
 50
180.0
 51
219.716412
  0
LINE
  5
434
330
1F
100
AcDbEntity
  8
002
 62
     3
370
    30
100
AcDbLine
 10
254.49621
 20
983.315371
 30
0.0
 11
254.49621
 21
982.122371
 31
0.0
  0
ARC
  5
435
330
1F
100
AcDbEntity
  8
002
 62
     3
370
    30
100
AcDbCircle
 10
257.49621
 20
982.122371
 30
0.0
 40
3.0
100
AcDbArc
 50
180.0
 51
270.0
  0
LINE
  5
436
330
1F
100
AcDbEntity
  8
002
 62
     3
370
    30
100
AcDbLine
 10
257.49621
 20
979.122371
 30
0.0
 11
275.51321
 21
979.122371
 31
0.0
  0
ARC
  5
437
330
1F
100
AcDbEntity
  8
002
 62
     3
370
    30
100
AcDbCircle
 10
275.51321
 20
982.122371
 30
0.0
 40
3.0
100
AcDbArc
 50
270.0
 51
0.0
  0
LINE
  5
438
330
1F
100
AcDbEntity
  8
002
 62
     3
370
    30
100
AcDbLine
 10
275.99621
 20
978.122371
 30
0.0
 11
275.99621
 21
925.122371
 31
0.0
  0
LINE
  5
439
330
1F
100
AcDbEntity
  8
002
 62
     3
370
    30
100
AcDbLine
 10
271.31681
 20
928.122371
 30
0.0
 11
271.31681
 21
975.122371
 31
0.0
  0
ARC
  5
43A
330
1F
100
AcDbEntity
  8
002
 62
     3
370
    30
100
AcDbCircle
 10
268.31681
 20
975.122371
 30
0.0
 40
3.0
100
AcDbArc
 50
0.0
 51
90.0
  0
LINE
  5
43B
330
1F
100
AcDbEntity
  8
002
 62
     3
370
    30
100
AcDbLine
 10
268.31681
 20
978.122371
 30
0.0
 11
260.84731
 21
978.122371
 31
0.0
  0
ARC
  5
43C
330
1F
100
AcDbEntity
  8
002
 62
     3
370
    30
100
AcDbCircle
 10
260.84731
 20
975.122371
 30
0.0
 40
3.0
100
AcDbArc
 50
90.0
 51
180.0
  0
LINE
  5
43D
330
1F
100
AcDbEntity
  8
002
 62
     3
370
    30
100
AcDbLine
 10
257.84731
 20
975.122371
 30
0.0
 11
257.84731
 21
928.122371
 31
0.0
  0
ARC
  5
43E
330
1F
100
AcDbEntity
  8
002
 62
     3
370
    30
100
AcDbCircle
 10
260.84731
 20
928.122371
 30
0.0
 40
3.0
100
AcDbArc
 50
180.0
 51
270.0
  0
LINE
  5
43F
330
1F
100
AcDbEntity
  8
002
 62
     3
370
    30
100
AcDbLine
 10
261.78471
 20
925.122371
 30
0.0
 11
268.31681
 21
925.122371
 31
0.0
  0
ARC
  5
440
330
1F
100
AcDbEntity
  8
002
 62
     3
370
    30
100
AcDbCircle
 10
268.31681
 20
928.122371
 30
0.0
 40
3.0
100
AcDbArc
 50
270.0
 51
0.0
  0
CIRCLE
  5
441
330
1F
100
AcDbEntity
  8
002
 62
     3
370
    30
100
AcDbCircle
 10
264.49621
 20
911.622371
 30
0.0
 40
11.0
  0
CIRCLE
  5
442
330
1F
100
AcDbEntity
  8
002
 62
     3
370
    30
100
AcDbCircle
 10
264.49621
 20
911.622371
 30
0.0
 40
5.5
  0
LINE
  5
443
330
1F
100
AcDbEntity
  8
002
 62
     3
370
    30
100
AcDbLine
 10
254.49621
 20
924.122371
 30
0.0
 11
254.49621
 21
979.122371
 31
0.0
  0
LINE
  5
444
330
1F
100
AcDbEntity
  8
002
 62
     3
370
    30
100
AcDbLine
 10
258.78471
 20
975.122371
 30
0.0
 11
258.78471
 21
928.122371
 31
0.0
  0
ARC
  5
445
330
1F
100
AcDbEntity
  8
002
 62
     3
370
    30
100
AcDbCircle
 10
261.78471
 20
928.122371
 30
0.0
 40
3.0
100
AcDbArc
 50
180.0
 51
270.0
  0
LINE
  5
446
330
1F
100
AcDbEntity
  8
002
 62
     3
370
    30
100
AcDbLine
 10
227.64451
 20
924.140371
 30
0.0
 11
227.64451
 21
927.604371
 31
0.0
  0
LINE
  5
447
330
1F
100
AcDbEntity
  8
002
 62
     3
370
    30
100
AcDbLine
 10
227.64451
 20
927.604371
 30
0.0
 11
224.64451
 21
929.336371
 31
0.0
  0
LINE
  5
448
330
1F
100
AcDbEntity
  8
002
 62
     3
370
    30
100
AcDbLine
 10
224.64451
 20
929.336371
 30
0.0
 11
221.64451
 21
927.604371
 31
0.0
  0
LINE
  5
449
330
1F
100
AcDbEntity
  8
002
 62
     3
370
    30
100
AcDbLine
 10
221.64451
 20
927.604371
 30
0.0
 11
221.64451
 21
924.140371
 31
0.0
  0
LINE
  5
44A
330
1F
100
AcDbEntity
  8
002
 62
     3
370
    30
100
AcDbLine
 10
221.64451
 20
924.140371
 30
0.0
 11
224.64451
 21
922.408371
 31
0.0
  0
LINE
  5
44B
330
1F
100
AcDbEntity
  8
002
 62
     3
370
    30
100
AcDbLine
 10
224.64451
 20
922.408371
 30
0.0
 11
227.64451
 21
924.140371
 31
0.0
  0
CIRCLE
  5
44C
330
1F
100
AcDbEntity
  8
002
 62
     3
370
    30
100
AcDbCircle
 10
224.64451
 20
925.872371
 30
0.0
 40
6.5
  0
ARC
  5
44D
330
1F
100
AcDbEntity
  8
002
 62
     3
370
    30
100
AcDbCircle
 10
180.04471
 20
1003.122371
 30
0.0
 40
6.5
100
AcDbArc
 50
321.662297
 51
216.267127
  0
CIRCLE
  5
44E
330
1F
100
AcDbEntity
  8
002
 62
     3
370
    30
100
AcDbCircle
 10
180.04471
 20
951.622371
 30
0.0
 40
60.0
  0
LINE
  5
44F
330
1F
100
AcDbEntity
  8
002
 62
     3
370
    30
100
AcDbLine
 10
201.58471
 20
1007.622371
 30
0.0
 11
251.49621
 21
1007.622371
 31
0.0
  0
LINE
  5
450
330
1F
100
AcDbEntity
  8
002
 62
     3
370
    30
100
AcDbLine
 10
232.49621
 20
1016.622371
 30
0.0
 11
216.49621
 21
1016.622371
 31
0.0
  0
LINE
  5
451
330
1F
100
AcDbEntity
  8
002
 62
     3
370
    30
100
AcDbLine
 10
216.99621
 20
1016.622371
 30
0.0
 11
216.99621
 21
1040.622371
 31
0.0
  0
LINE
  5
452
330
1F
100
AcDbEntity
  8
002
 62
     3
370
    30
100
AcDbLine
 10
216.99621
 20
1040.622371
 30
0.0
 11
217.99621
 21
1041.622371
 31
0.0
  0
LINE
  5
453
330
1F
100
AcDbEntity
  8
002
 62
     3
370
    30
100
AcDbLine
 10
217.99621
 20
1041.622371
 30
0.0
 11
230.99621
 21
1041.622371
 31
0.0
  0
LINE
  5
454
330
1F
100
AcDbEntity
  8
002
 62
     3
370
    30
100
AcDbLine
 10
230.99621
 20
1041.622371
 30
0.0
 11
231.99621
 21
1040.622371
 31
0.0
  0
LINE
  5
455
330
1F
100
AcDbEntity
  8
002
 62
     3
370
    30
100
AcDbLine
 10
231.99621
 20
1040.622371
 30
0.0
 11
231.99621
 21
1016.622371
 31
0.0
  0
LINE
  5
456
330
1F
100
AcDbEntity
  8
002
 62
     3
370
    30
100
AcDbLine
 10
221.99621
 20
1020.122371
 30
0.0
 11
221.99621
 21
1041.622371
 31
0.0
  0
LINE
  5
457
330
1F
100
AcDbEntity
  8
002
 62
     3
370
    30
100
AcDbLine
 10
221.99621
 20
1040.622371
 30
0.0
 11
216.99621
 21
1040.622371
 31
0.0
  0
LINE
  5
458
330
1F
100
AcDbEntity
  8
002
 62
     3
370
    30
100
AcDbLine
 10
226.99621
 20
1040.622371
 30
0.0
 11
231.99621
 21
1040.622371
 31
0.0
  0
LINE
  5
459
330
1F
100
AcDbEntity
  8
002
 62
     3
370
    30
100
AcDbLine
 10
226.99621
 20
1041.622371
 30
0.0
 11
226.99621
 21
1020.122371
 31
0.0
  0
LINE
  5
45A
330
1F
100
AcDbEntity
  8
002
 62
     3
370
    30
100
AcDbLine
 10
226.99621
 20
1020.122371
 30
0.0
 11
221.99621
 21
1020.122371
 31
0.0
  0
ARC
  5
45B
330
1F
100
AcDbEntity
  8
002
 62
     3
370
    30
100
AcDbCircle
 10
224.49621
 20
1020.122371
 30
0.0
 40
2.5
100
AcDbArc
 50
180.0
 51
0.0
  0
ARC
  5
45C
330
1F
100
AcDbEntity
  8
002
 62
     3
370
    30
100
AcDbCircle
 10
253.94241
 20
1003.622371
 30
0.0
 40
3.000126545664405
100
AcDbArc
 50
270.0
 51
310.597359
  0
CIRCLE
  5
45D
330
1F
100
AcDbEntity
  8
002
 62
     3
370
    30
100
AcDbCircle
 10
264.49621
 20
991.622371
 30
0.0
 40
11.0
  0
CIRCLE
  5
45E
330
1F
100
AcDbEntity
  8
002
 62
     3
370
    30
100
AcDbCircle
 10
264.49621
 20
991.622371
 30
0.0
 40
5.5
  0
ARC
  5
45F
330
1F
100
AcDbEntity
  8
002
 62
     3
370
    30
100
AcDbCircle
 10
261.78471
 20
975.122371
 30
0.0
 40
3.0
100
AcDbArc
 50
90.0
 51
180.0
  0
LINE
  5
460
330
1F
100
AcDbEntity
  8
002
 62
     3
370
    30
100
AcDbLine
 10
227.64451
 20
975.640371
 30
0.0
 11
227.64451
 21
979.104371
 31
0.0
  0
LINE
  5
461
330
1F
100
AcDbEntity
  8
002
 62
     3
370
    30
100
AcDbLine
 10
227.64451
 20
979.104371
 30
0.0
 11
224.64451
 21
980.836371
 31
0.0
  0
LINE
  5
462
330
1F
100
AcDbEntity
  8
002
 62
     3
370
    30
100
AcDbLine
 10
224.64451
 20
980.836371
 30
0.0
 11
221.64451
 21
979.104371
 31
0.0
  0
LINE
  5
463
330
1F
100
AcDbEntity
  8
002
 62
     3
370
    30
100
AcDbLine
 10
221.64451
 20
979.104371
 30
0.0
 11
221.64451
 21
975.640371
 31
0.0
  0
LINE
  5
464
330
1F
100
AcDbEntity
  8
002
 62
     3
370
    30
100
AcDbLine
 10
221.64451
 20
975.640371
 30
0.0
 11
224.64451
 21
973.908371
 31
0.0
  0
LINE
  5
465
330
1F
100
AcDbEntity
  8
002
 62
     3
370
    30
100
AcDbLine
 10
224.64451
 20
973.908371
 30
0.0
 11
227.64451
 21
975.640371
 31
0.0
  0
CIRCLE
  5
466
330
1F
100
AcDbEntity
  8
002
 62
     3
370
    30
100
AcDbCircle
 10
224.64451
 20
977.372371
 30
0.0
 40
6.5
  0
LINE
  5
467
330
1F
100
AcDbEntity
  8
002
 62
     3
370
    30
100
AcDbLine
 10
145.41771
 20
902.622371
 30
0.0
 11
143.07971
 21
902.622371
 31
0.0
  0
ARC
  5
468
330
1F
100
AcDbEntity
  8
002
 62
     3
370
    30
100
AcDbCircle
 10
143.07971
 20
899.622371
 30
0.0
 40
3.000454132294061
100
AcDbArc
 50
90.0
 51
131.419454
  0
ARC
  5
469
330
1F
100
AcDbEntity
  8
002
 62
     3
370
    30
100
AcDbCircle
 10
132.49671
 20
911.622371
 30
0.0
 40
5.49951143284552
100
AcDbArc
 50
104.875053
 51
335.266335
  0
LINE
  5
46A
330
1F
100
AcDbEntity
  8
002
 62
     3
370
    30
100
AcDbLine
 10
135.44371
 20
922.408371
 30
0.0
 11
138.44371
 21
924.140371
 31
0.0
  0
LINE
  5
46B
330
1F
100
AcDbEntity
  8
002
 62
     3
370
    30
100
AcDbLine
 10
138.44371
 20
924.140371
 30
0.0
 11
138.44371
 21
927.604371
 31
0.0
  0
LINE
  5
46C
330
1F
100
AcDbEntity
  8
002
 62
     3
370
    30
100
AcDbLine
 10
138.44371
 20
927.604371
 30
0.0
 11
135.44371
 21
929.336371
 31
0.0
  0
LINE
  5
46D
330
1F
100
AcDbEntity
  8
002
 62
     3
370
    30
100
AcDbLine
 10
135.44371
 20
929.336371
 30
0.0
 11
132.44371
 21
927.604371
 31
0.0
  0
LINE
  5
46E
330
1F
100
AcDbEntity
  8
002
 62
     3
370
    30
100
AcDbLine
 10
132.44371
 20
927.604371
 30
0.0
 11
132.44371
 21
924.140371
 31
0.0
  0
LINE
  5
46F
330
1F
100
AcDbEntity
  8
002
 62
     3
370
    30
100
AcDbLine
 10
132.44371
 20
924.140371
 30
0.0
 11
135.44371
 21
922.408371
 31
0.0
  0
ARC
  5
470
330
1F
100
AcDbEntity
  8
002
 62
     3
370
    30
100
AcDbCircle
 10
132.49671
 20
911.622371
 30
0.0
 40
10.99970567788074
100
AcDbArc
 50
113.857244
 51
326.288262
  0
CIRCLE
  5
471
330
1F
100
AcDbEntity
  8
002
 62
     3
370
    30
100
AcDbCircle
 10
135.44371
 20
977.372371
 30
0.0
 40
6.5
  0
LINE
  5
472
330
1F
100
AcDbEntity
  8
002
 62
     3
370
    30
100
AcDbLine
 10
135.44371
 20
980.836371
 30
0.0
 11
132.44371
 21
979.104371
 31
0.0
  0
LINE
  5
473
330
1F
100
AcDbEntity
  8
002
 62
     3
370
    30
100
AcDbLine
 10
132.44371
 20
979.104371
 30
0.0
 11
132.44371
 21
975.640371
 31
0.0
  0
LINE
  5
474
330
1F
100
AcDbEntity
  8
002
 62
     3
370
    30
100
AcDbLine
 10
132.44371
 20
975.640371
 30
0.0
 11
135.44371
 21
973.908371
 31
0.0
  0
LINE
  5
475
330
1F
100
AcDbEntity
  8
002
 62
     3
370
    30
100
AcDbLine
 10
135.44371
 20
973.908371
 30
0.0
 11
138.44371
 21
975.640371
 31
0.0
  0
LINE
  5
476
330
1F
100
AcDbEntity
  8
002
 62
     3
370
    30
100
AcDbLine
 10
138.44371
 20
975.640371
 30
0.0
 11
138.44371
 21
979.104371
 31
0.0
  0
LINE
  5
477
330
1F
100
AcDbEntity
  8
002
 62
     3
370
    30
100
AcDbLine
 10
138.44371
 20
979.104371
 30
0.0
 11
135.44371
 21
980.836371
 31
0.0
  0
ARC
  5
478
330
1F
100
AcDbEntity
  8
002
 62
     3
370
    30
100
AcDbCircle
 10
132.49671
 20
991.622371
 30
0.0
 40
5.500327262990851
100
AcDbArc
 50
24.724201
 51
255.124947
  0
ARC
  5
479
330
1F
100
AcDbEntity
  8
002
 62
     3
370
    30
100
AcDbCircle
 10
132.49671
 20
991.622371
 30
0.0
 40
11.00078733545918
100
AcDbArc
 50
33.707404
 51
246.144863
  0
LINE
  5
47A
330
1F
100
AcDbEntity
  8
002
 62
     3
370
    30
100
AcDbLine
 10
120.966521
 20
962.099371
 30
0.0
 11
117.04471
 21
962.099371
 31
0.0
  0
LINE
  5
47B
330
1F
100
AcDbEntity
  8
002
 62
     3
370
    30
100
AcDbLine
 10
117.04471
 20
962.099371
 30
0.0
 11
117.04471
 21
941.144371
 31
0.0
  0
LINE
  5
47C
330
1F
100
AcDbEntity
  8
002
 62
     3
370
    30
100
AcDbLine
 10
117.04471
 20
941.144371
 30
0.0
 11
120.966698
 21
941.144371
 31
0.0
  0
LINE
  5
47D
330
1F
100
AcDbEntity
  8
002
 62
     3
370
    30
100
AcDbLine
 10
117.04471
 20
944.622371
 30
0.0
 11
107.04471
 21
944.622371
 31
0.0
  0
LINE
  5
47E
330
1F
100
AcDbEntity
  8
002
 62
     3
370
    30
100
AcDbLine
 10
107.04471
 20
944.622371
 30
0.0
 11
107.04471
 21
958.622371
 31
0.0
  0
LINE
  5
47F
330
1F
100
AcDbEntity
  8
002
 62
     3
370
    30
100
AcDbLine
 10
107.04471
 20
958.622371
 30
0.0
 11
117.04471
 21
958.622371
 31
0.0
  0
CIRCLE
  5
480
330
1F
100
AcDbEntity
  8
002
 62
     3
370
    30
100
AcDbCircle
 10
135.44371
 20
925.872371
 30
0.0
 40
6.5
  0
LINE
  5
481
330
1F
100
AcDbEntity
  8
002
 62
     3
370
    30
100
AcDbLine
 10
145.41771
 20
1000.622371
 30
0.0
 11
143.07971
 21
1000.622371
 31
0.0
  0
ARC
  5
482
330
1F
100
AcDbEntity
  8
002
 62
     3
370
    30
100
AcDbCircle
 10
143.07971
 20
1003.622371
 30
0.0
 40
3.0
100
AcDbArc
 50
228.580546
 51
270.0
  0
ARC
  5
483
330
1F
100
AcDbEntity
  8
002
 62
     3
370
    30
100
AcDbCircle
 10
132.20071
 20
990.923371
 30
0.0
 40
13.72181536823749
100
AcDbArc
 50
49.596172
 51
177.080044
  0
ARC
  5
484
330
1F
100
AcDbEntity
  8
002
 62
     3
370
    30
100
AcDbCircle
 10
132.20071
 20
912.321371
 30
0.0
 40
13.72169220613839
100
AcDbArc
 50
182.919956
 51
310.403828
  0
CIRCLE
  5
485
330
1F
100
AcDbEntity
  8
002
 62
     3
370
    30
100
AcDbCircle
 10
180.04471
 20
951.622371
 30
0.0
 40
38.0
  0
CIRCLE
  5
486
330
1F
100
AcDbEntity
  8
002
 62
     3
370
    30
100
AcDbCircle
 10
180.04471
 20
951.622371
 30
0.0
 40
12.5
  0
CIRCLE
  5
487
330
1F
100
AcDbEntity
  8
002
 62
     3
370
    30
100
AcDbCircle
 10
180.04471
 20
951.622371
 30
0.0
 40
9.0
  0
LINE
  5
488
330
1F
100
AcDbEntity
  8
002
  6
CENTER
 62
    40
370
     9
100
AcDbLine
 10
285.278383
 20
951.622371
 30
0.0
 11
102.47471
 21
951.622371
 31
0.0
  0
LINE
  5
489
330
1F
100
AcDbEntity
  8
002
  6
CENTER
 62
    40
370
     9
100
AcDbLine
 10
180.04471
 20
1020.123371
 30
0.0
 11
180.04471
 21
885.86663
 31
0.0
  0
CIRCLE
  5
48A
330
1F
100
AcDbEntity
  8
002
 62
    40
370
     9
100
AcDbCircle
 10
180.04471
 20
951.622371
 30
0.0
 40
8.25
  0
LINE
  5
48B
330
1F
100
AcDbEntity
  8
002
  6
CENTER
 62
    40
370
     9
100
AcDbLine
 10
216.85031
 20
930.372371
 30
0.0
 11
232.00581
 21
921.622371
 31
0.0
  0
CIRCLE
  5
48C
330
1F
100
AcDbEntity
  8
002
  6
CENTER
 62
    40
370
     9
100
AcDbCircle
 10
180.04471
 20
951.622371
 30
0.0
 40
51.5
  0
LINE
  5
48D
330
1F
100
AcDbEntity
  8
002
  6
CENTER
 62
    40
370
     9
100
AcDbLine
 10
216.85031
 20
972.872371
 30
0.0
 11
232.00581
 21
981.622371
 31
0.0
  0
LINE
  5
48E
330
1F
100
AcDbEntity
  8
002
  6
CENTER
 62
    40
370
     9
100
AcDbLine
 10
143.23771
 20
972.872371
 30
0.0
 11
128.08271
 21
981.622371
 31
0.0
  0
LINE
  5
48F
330
1F
100
AcDbEntity
  8
002
  6
CENTER
 62
    40
370
     9
100
AcDbLine
 10
142.25371
 20
911.622371
 30
0.0
 11
118.49671
 21
911.622371
 31
0.0
  0
LINE
  5
490
330
1F
100
AcDbEntity
  8
002
  6
CENTER
 62
    40
370
     9
100
AcDbLine
 10
132.49671
 20
921.519371
 30
0.0
 11
132.49671
 21
897.448371
 31
0.0
  0
LINE
  5
491
330
1F
100
AcDbEntity
  8
002
  6
CENTER
 62
    40
370
     9
100
AcDbLine
 10
128.08271
 20
921.622371
 30
0.0
 11
143.23771
 21
930.372371
 31
0.0
  0
LINE
  5
492
330
1F
100
AcDbEntity
  8
002
  6
CENTER
 62
    40
370
     9
100
AcDbLine
 10
132.49671
 20
981.724371
 30
0.0
 11
132.49671
 21
1005.796371
 31
0.0
  0
LINE
  5
493
330
1F
100
AcDbEntity
  8
002
  6
CENTER
 62
    40
370
     9
100
AcDbLine
 10
142.25371
 20
991.622371
 30
0.0
 11
118.49671
 21
991.622371
 31
0.0
  0
LINE
  5
494
330
1F
100
AcDbEntity
  8
002
 62
    40
370
     9
100
AcDbLine
 10
107.04471
 20
958.622371
 30
0.0
 11
117.04471
 21
944.622371
 31
0.0
  0
LINE
  5
495
330
1F
100
AcDbEntity
  8
002
 62
    40
370
     9
100
AcDbLine
 10
107.04471
 20
944.622371
 30
0.0
 11
117.04471
 21
958.622371
 31
0.0
  0
LINE
  5
496
330
1F
100
AcDbEntity
  8
002
 62
    40
370
     9
100
AcDbLine
 10
117.04471
 20
942.306371
 30
0.0
 11
120.772355
 21
942.306371
 31
0.0
  0
LINE
  5
497
330
1F
100
AcDbEntity
  8
002
 62
    40
370
     9
100
AcDbLine
 10
117.04471
 20
960.937371
 30
0.0
 11
120.772197
 21
960.937371
 31
0.0
  0
LINE
  5
498
330
1F
100
AcDbEntity
  8
002
  6
CENTER
 62
    40
370
     9
100
AcDbLine
 10
224.49621
 20
854.236371
 30
0.0
 11
224.49621
 21
1048.972371
 31
0.0
  0
LINE
  5
499
330
1F
100
AcDbEntity
  8
002
  6
CENTER
 62
    40
370
     9
100
AcDbLine
 10
264.49621
 20
924.122371
 30
0.0
 11
264.49621
 21
896.941371
 31
0.0
  0
LINE
  5
49A
330
1F
100
AcDbEntity
  8
002
  6
CENTER
 62
    40
370
     9
100
AcDbLine
 10
250.45221
 20
911.622371
 30
0.0
 11
280.52311
 21
911.622371
 31
0.0
  0
LINE
  5
49B
330
1F
100
AcDbEntity
  8
002
  6
CENTER
 62
    40
370
     9
100
AcDbLine
 10
264.49621
 20
978.122371
 30
0.0
 11
264.49621
 21
1005.861371
 31
0.0
  0
LINE
  5
49C
330
1F
100
AcDbEntity
  8
002
  6
CENTER
 62
    40
370
     9
100
AcDbLine
 10
249.31561
 20
991.622371
 30
0.0
 11
280.47901
 21
991.622371
 31
0.0
  0
LINE
  5
49D
330
1F
100
AcDbEntity
  8
002
 62
     3
370
    30
100
AcDbLine
 10
183.90621
 20
989.425662
 30
0.0
 11
183.90621
 21
990.622371
 31
0.0
  0
LINE
  5
49E
330
1F
100
AcDbEntity
  8
002
 62
     3
370
    30
100
AcDbLine
 10
184.04471
 20
990.622371
 30
0.0
 11
185.04471
 21
991.622371
 31
0.0
  0
LINE
  5
49F
330
1F
100
AcDbEntity
  8
002
 62
     3
370
    30
100
AcDbLine
 10
185.04471
 20
991.622371
 30
0.0
 11
185.04471
 21
994.622371
 31
0.0
  0
LINE
  5
4A0
330
1F
100
AcDbEntity
  8
002
 62
     3
370
    30
100
AcDbLine
 10
185.04471
 20
994.622371
 30
0.0
 11
182.90471
 21
997.535871
 31
0.0
  0
LINE
  5
4A1
330
1F
100
AcDbEntity
  8
002
 62
     3
370
    30
100
AcDbLine
 10
182.34221
 20
998.098371
 30
0.0
 11
177.74721
 21
998.098371
 31
0.0
  0
LINE
  5
4A2
330
1F
100
AcDbEntity
  8
002
 62
     3
370
    30
100
AcDbLine
 10
177.32561
 20
998.772971
 30
0.0
 11
176.79471
 21
999.622371
 31
0.0
  0
LINE
  5
4A3
330
1F
100
AcDbEntity
  8
002
 62
     3
370
    30
100
AcDbLine
 10
176.79471
 20
999.622371
 30
0.0
 11
177.54471
 21
1002.622371
 31
0.0
  0
LINE
  5
4A4
330
1F
100
AcDbEntity
  8
002
 62
     3
370
    30
100
AcDbLine
 10
177.54471
 20
1002.622371
 30
0.0
 11
182.54471
 21
1002.622371
 31
0.0
  0
LINE
  5
4A5
330
1F
100
AcDbEntity
  8
002
 62
     3
370
    30
100
AcDbLine
 10
182.54471
 20
1002.622371
 30
0.0
 11
183.29471
 21
999.622371
 31
0.0
  0
LINE
  5
4A6
330
1F
100
AcDbEntity
  8
002
 62
     3
370
    30
100
AcDbLine
 10
183.29471
 20
999.622371
 30
0.0
 11
182.76381
 21
998.772971
 31
0.0
  0
ARC
  5
4A7
330
1F
100
AcDbEntity
  8
002
 62
     3
370
    30
100
AcDbCircle
 10
183.61181
 20
998.242971
 30
0.0
 40
0.9999904099540514
100
AcDbArc
 50
147.994617
 51
225.0
  0
LINE
  5
4A8
330
1F
100
AcDbEntity
  8
002
 62
     3
370
    30
100
AcDbLine
 10
182.54471
 20
999.622371
 30
0.0
 11
177.54471
 21
999.622371
 31
0.0
  0
ARC
  5
4A9
330
1F
100
AcDbEntity
  8
002
 62
     3
370
    30
100
AcDbCircle
 10
176.47761
 20
998.242971
 30
0.0
 40
1.000001999998045
100
AcDbArc
 50
315.0
 51
32.005383
  0
LINE
  5
4AA
330
1F
100
AcDbEntity
  8
002
 62
     3
370
    30
100
AcDbLine
 10
177.18471
 20
997.535871
 30
0.0
 11
175.04471
 21
994.622371
 31
0.0
  0
LINE
  5
4AB
330
1F
100
AcDbEntity
  8
002
 62
     3
370
    30
100
AcDbLine
 10
175.04471
 20
994.622371
 30
0.0
 11
175.04471
 21
991.622371
 31
0.0
  0
LINE
  5
4AC
330
1F
100
AcDbEntity
  8
002
 62
     3
370
    30
100
AcDbLine
 10
175.04471
 20
991.622371
 30
0.0
 11
176.04471
 21
990.622371
 31
0.0
  0
LINE
  5
4AD
330
1F
100
AcDbEntity
  8
002
 62
     3
370
    30
100
AcDbLine
 10
176.04471
 20
990.622371
 30
0.0
 11
184.04471
 21
990.622371
 31
0.0
  0
ARC
  5
4AE
330
1F
100
AcDbEntity
  8
002
 62
     3
370
    30
100
AcDbCircle
 10
182.54471
 20
991.997371
 30
0.0
 40
3.625
100
AcDbArc
 50
46.397181
 51
133.602819
  0
LINE
  5
4AF
330
1F
100
AcDbEntity
  8
002
 62
     3
370
    30
100
AcDbLine
 10
180.04471
 20
994.622371
 30
0.0
 11
180.04471
 21
991.622371
 31
0.0
  0
ARC
  5
4B0
330
1F
100
AcDbEntity
  8
002
 62
     3
370
    30
100
AcDbCircle
 10
182.54471
 20
994.247371
 30
0.0
 40
3.625
100
AcDbArc
 50
226.397181
 51
313.602819
  0
ARC
  5
4B1
330
1F
100
AcDbEntity
  8
002
 62
     3
370
    30
100
AcDbCircle
 10
177.54471
 20
991.997371
 30
0.0
 40
3.625
100
AcDbArc
 50
46.397181
 51
133.602819
  0
ARC
  5
4B2
330
1F
100
AcDbEntity
  8
002
 62
     3
370
    30
100
AcDbCircle
 10
177.54471
 20
994.247371
 30
0.0
 40
3.625
100
AcDbArc
 50
226.397181
 51
313.602819
  0
LINE
  5
4B3
330
1F
100
AcDbEntity
  8
002
 62
     3
370
    30
100
AcDbLine
 10
176.18321
 20
990.622371
 30
0.0
 11
176.18321
 21
989.425662
 31
0.0
  0
ARC
  5
4B4
330
1F
100
AcDbEntity
  8
002
 62
     3
370
    30
100
AcDbCircle
 10
180.04471
 20
1001.960871
 30
0.0
 40
1.000041124154433
100
AcDbArc
 50
41.412294
 51
138.587706
  0
LINE
  5
4B5
330
1F
100
AcDbEntity
  8
002
 62
     3
370
    30
100
AcDbLine
 10
183.90621
 20
913.81908
 30
0.0
 11
183.90621
 21
912.622371
 31
0.0
  0
LINE
  5
4B6
330
1F
100
AcDbEntity
  8
002
 62
     3
370
    30
100
AcDbLine
 10
176.04471
 20
912.622371
 30
0.0
 11
184.04471
 21
912.622371
 31
0.0
  0
LINE
  5
4B7
330
1F
100
AcDbEntity
  8
002
 62
     3
370
    30
100
AcDbLine
 10
184.04471
 20
912.622371
 30
0.0
 11
185.04471
 21
911.622371
 31
0.0
  0
ARC
  5
4B8
330
1F
100
AcDbEntity
  8
002
 62
     3
370
    30
100
AcDbCircle
 10
182.54471
 20
908.997371
 30
0.0
 40
3.625
100
AcDbArc
 50
46.397181
 51
133.602819
  0
LINE
  5
4B9
330
1F
100
AcDbEntity
  8
002
 62
     3
370
    30
100
AcDbLine
 10
176.18321
 20
912.622371
 30
0.0
 11
176.18321
 21
913.81908
 31
0.0
  0
LINE
  5
4BA
330
1F
100
AcDbEntity
  8
002
 62
     3
370
    30
100
AcDbLine
 10
175.04471
 20
911.622371
 30
0.0
 11
176.04471
 21
912.622371
 31
0.0
  0
ARC
  5
4BB
330
1F
100
AcDbEntity
  8
002
 62
     3
370
    30
100
AcDbCircle
 10
177.54471
 20
908.997371
 30
0.0
 40
3.625
100
AcDbArc
 50
46.397181
 51
133.602819
  0
LINE
  5
4BC
330
1F
100
AcDbEntity
  8
002
 62
     3
370
    30
100
AcDbLine
 10
175.04471
 20
908.622371
 30
0.0
 11
175.04471
 21
911.622371
 31
0.0
  0
ARC
  5
4BD
330
1F
100
AcDbEntity
  8
002
 62
     3
370
    30
100
AcDbCircle
 10
177.54471
 20
911.247371
 30
0.0
 40
3.625
100
AcDbArc
 50
226.397181
 51
313.602819
  0
LINE
  5
4BE
330
1F
100
AcDbEntity
  8
002
 62
     3
370
    30
100
AcDbLine
 10
180.04471
 20
908.622371
 30
0.0
 11
180.04471
 21
911.622371
 31
0.0
  0
ARC
  5
4BF
330
1F
100
AcDbEntity
  8
002
 62
     3
370
    30
100
AcDbCircle
 10
182.54471
 20
911.247371
 30
0.0
 40
3.625
100
AcDbArc
 50
226.397181
 51
313.602819
  0
LINE
  5
4C0
330
1F
100
AcDbEntity
  8
002
 62
     3
370
    30
100
AcDbLine
 10
185.04471
 20
911.622371
 30
0.0
 11
185.04471
 21
908.622371
 31
0.0
  0
LINE
  5
4C1
330
1F
100
AcDbEntity
  8
002
 62
     3
370
    30
100
AcDbLine
 10
185.04471
 20
908.622371
 30
0.0
 11
182.90471
 21
905.708871
 31
0.0
  0
LINE
  5
4C2
330
1F
100
AcDbEntity
  8
002
 62
     3
370
    30
100
AcDbLine
 10
177.18471
 20
905.708871
 30
0.0
 11
175.04471
 21
908.622371
 31
0.0
  0
ARC
  5
4C3
330
1F
100
AcDbEntity
  8
002
 62
     3
370
    30
100
AcDbCircle
 10
183.61181
 20
905.001771
 30
0.0
 40
0.9999904099540514
100
AcDbArc
 50
135.0
 51
212.005383
  0
LINE
  5
4C4
330
1F
100
AcDbEntity
  8
002
 62
     3
370
    30
100
AcDbLine
 10
183.29471
 20
903.622371
 30
0.0
 11
182.76381
 21
904.471771
 31
0.0
  0
LINE
  5
4C5
330
1F
100
AcDbEntity
  8
002
 62
     3
370
    30
100
AcDbLine
 10
182.54471
 20
900.622371
 30
0.0
 11
183.29471
 21
903.622371
 31
0.0
  0
LINE
  5
4C6
330
1F
100
AcDbEntity
  8
002
 62
     3
370
    30
100
AcDbLine
 10
177.54471
 20
900.622371
 30
0.0
 11
182.54471
 21
900.622371
 31
0.0
  0
ARC
  5
4C7
330
1F
100
AcDbEntity
  8
002
 62
     3
370
    30
100
AcDbCircle
 10
180.04471
 20
901.283871
 30
0.0
 40
1.000041124154433
100
AcDbArc
 50
221.412294
 51
318.587706
  0
LINE
  5
4C8
330
1F
100
AcDbEntity
  8
002
 62
     3
370
    30
100
AcDbLine
 10
176.79471
 20
903.622371
 30
0.0
 11
177.54471
 21
900.622371
 31
0.0
  0
LINE
  5
4C9
330
1F
100
AcDbEntity
  8
002
 62
     3
370
    30
100
AcDbLine
 10
177.32561
 20
904.471771
 30
0.0
 11
176.79471
 21
903.622371
 31
0.0
  0
ARC
  5
4CA
330
1F
100
AcDbEntity
  8
002
 62
     3
370
    30
100
AcDbCircle
 10
176.47761
 20
905.001771
 30
0.0
 40
1.000001999998045
100
AcDbArc
 50
327.994617
 51
45.0
  0
LINE
  5
4CB
330
1F
100
AcDbEntity
  8
002
 62
     3
370
    30
100
AcDbLine
 10
182.34221
 20
905.146371
 30
0.0
 11
177.74721
 21
905.146371
 31
0.0
  0
LINE
  5
4CC
330
1F
100
AcDbEntity
  8
002
 62
     3
370
    30
100
AcDbLine
 10
182.54471
 20
903.622371
 30
0.0
 11
177.54471
 21
903.622371
 31
0.0
  0
ARC
  5
4CD
330
1F
100
AcDbEntity
  8
002
 62
     3
370
    30
100
AcDbCircle
 10
180.04471
 20
951.622371
 30
0.0
 40
42.5
100
AcDbArc
 50
96.756327
 51
263.243673
  0
ARC
  5
4CE
330
1F
100
AcDbEntity
  8
002
 62
     3
370
    30
100
AcDbCircle
 10
180.04471
 20
951.622371
 30
0.0
 40
42.5
100
AcDbArc
 50
276.756327
 51
83.243673
  0
LINE
  5
4CF
330
1F
100
AcDbEntity
  8
002
 62
     3
370
    30
100
AcDbLine
 10
118.49671
 20
911.622371
 30
0.0
 11
118.49671
 21
941.144371
 31
0.0
  0
LINE
  5
4D0
330
1F
100
AcDbEntity
  8
002
 62
     3
370
    30
100
AcDbLine
 10
118.49671
 20
962.099371
 30
0.0
 11
118.49671
 21
991.622371
 31
0.0
  0
ARC
  5
4D1
330
1F
100
AcDbEntity
  8
002
 62
     3
370
    30
100
AcDbCircle
 10
180.04471
 20
900.122371
 30
0.0
 40
6.5
100
AcDbArc
 50
143.999218
 51
36.624657
  0
LINE
  5
4D2
330
1F
100
AcDbEntity
  8
002
 62
     3
370
    30
100
AcDbLine
 10
232.49621
 20
886.622371
 30
0.0
 11
216.49621
 21
886.622371
 31
0.0
  0
LINE
  5
4D3
330
1F
100
AcDbEntity
  8
002
 62
     3
370
    30
100
AcDbLine
 10
218.04471
 20
333.547309
 30
0.0
 11
218.04471
 21
406.547309
 31
0.0
  0
LINE
  5
4D4
330
1F
100
AcDbEntity
  8
002
 62
     3
370
    30
100
AcDbLine
 10
142.04471
 20
406.547309
 30
0.0
 11
142.04471
 21
333.547309
 31
0.0
  0
LINE
  5
4D5
330
1F
100
AcDbEntity
  8
002
 62
     3
370
    30
100
AcDbLine
 10
644.882269
 20
406.547309
 30
0.0
 11
644.882269
 21
333.547309
 31
0.0
  0
LINE
  5
4D6
330
1F
100
AcDbEntity
  8
002
 62
     3
370
    30
100
AcDbLine
 10
720.882269
 20
333.547309
 30
0.0
 11
720.882269
 21
406.547309
 31
0.0
  0
LINE
  5
4D7
330
1F
100
AcDbEntity
  8
002
 62
     3
370
    30
100
AcDbLine
 10
856.715417
 20
333.547309
 30
0.0
 11
856.715417
 21
406.547309
 31
0.0
  0
LINE
  5
4D8
330
1F
100
AcDbEntity
  8
002
 62
     3
370
    30
100
AcDbLine
 10
932.715417
 20
406.547309
 30
0.0
 11
932.715417
 21
333.547309
 31
0.0
  0
LINE
  5
4D9
330
1F
100
AcDbEntity
  8
002
 62
     3
370
    30
100
AcDbLine
 10
355.31171
 20
307.547309
 30
0.0
 11
355.31171
 21
253.547309
 31
0.0
  0
LINE
  5
4DA
330
1F
100
AcDbEntity
  8
002
 62
     3
370
    30
100
AcDbLine
 10
355.31171
 20
253.547309
 30
0.0
 11
360.31171
 21
253.547309
 31
0.0
  0
LINE
  5
4DB
330
1F
100
AcDbEntity
  8
002
 62
     3
370
    30
100
AcDbLine
 10
360.31171
 20
253.547309
 30
0.0
 11
360.31171
 21
307.547309
 31
0.0
  0
LINE
  5
4DC
330
1F
100
AcDbEntity
  8
002
 62
     3
370
    30
100
AcDbLine
 10
351.31171
 20
307.547309
 30
0.0
 11
351.31171
 21
325.547309
 31
0.0
  0
LINE
  5
4DD
330
1F
100
AcDbEntity
  8
002
 62
     3
370
    30
100
AcDbLine
 10
471.31171
 20
325.547309
 30
0.0
 11
471.31171
 21
307.547309
 31
0.0
  0
LINE
  5
4DE
330
1F
100
AcDbEntity
  8
002
 62
     3
370
    30
100
AcDbLine
 10
471.31171
 20
307.547309
 30
0.0
 11
351.31171
 21
307.547309
 31
0.0
  0
LINE
  5
4DF
330
1F
100
AcDbEntity
  8
002
 62
     3
370
    30
100
AcDbLine
 10
351.31171
 20
315.547309
 30
0.0
 11
471.31171
 21
315.547309
 31
0.0
  0
LINE
  5
4E0
330
1F
100
AcDbEntity
  8
002
 62
     3
370
    30
100
AcDbLine
 10
467.31171
 20
307.547309
 30
0.0
 11
467.31171
 21
253.547309
 31
0.0
  0
LINE
  5
4E1
330
1F
100
AcDbEntity
  8
002
 62
     3
370
    30
100
AcDbLine
 10
467.31171
 20
253.547309
 30
0.0
 11
462.31171
 21
253.547309
 31
0.0
  0
ARC
  5
4E2
330
1F
100
AcDbEntity
  8
002
 62
     3
370
    30
100
AcDbCircle
 10
462.31171
 20
251.547309
 30
0.0
 40
2.0
100
AcDbArc
 50
90.0
 51
180.0
  0
ARC
  5
4E3
330
1F
100
AcDbEntity
  8
002
 62
     3
370
    30
100
AcDbCircle
 10
463.31171
 20
251.547309
 30
0.0
 40
3.0
100
AcDbArc
 50
180.0
 51
270.0
  0
LINE
  5
4E4
330
1F
100
AcDbEntity
  8
002
 62
     3
370
    30
100
AcDbLine
 10
464.33171
 20
248.547309
 30
0.0
 11
358.29071
 21
248.547309
 31
0.0
  0
LINE
  5
4E5
330
1F
100
AcDbEntity
  8
002
 62
     3
370
    30
100
AcDbLine
 10
358.29071
 20
248.547309
 30
0.0
 11
358.29071
 21
235.547309
 31
0.0
  0
LINE
  5
4E6
330
1F
100
AcDbEntity
  8
002
 62
     3
370
    30
100
AcDbLine
 10
358.29071
 20
235.547309
 30
0.0
 11
464.33171
 21
235.547309
 31
0.0
  0
LINE
  5
4E7
330
1F
100
AcDbEntity
  8
002
 62
     3
370
    30
100
AcDbLine
 10
464.33171
 20
235.547309
 30
0.0
 11
464.33171
 21
248.547309
 31
0.0
  0
LINE
  5
4E8
330
1F
100
AcDbEntity
  8
002
 62
     3
370
    30
100
AcDbLine
 10
462.31171
 20
253.547309
 30
0.0
 11
462.31171
 21
307.547309
 31
0.0
  0
ARC
  5
4E9
330
1F
100
AcDbEntity
  8
002
 62
     3
370
    30
100
AcDbCircle
 10
446.00471
 20
304.547309
 30
0.0
 40
3.0
100
AcDbArc
 50
90.0
 51
180.0
  0
LINE
  5
4EA
330
1F
100
AcDbEntity
  8
002
 62
     3
370
    30
100
AcDbLine
 10
443.00471
 20
304.547309
 30
0.0
 11
443.00471
 21
251.547309
 31
0.0
  0
ARC
  5
4EB
330
1F
100
AcDbEntity
  8
002
 62
     3
370
    30
100
AcDbCircle
 10
446.00471
 20
251.547309
 30
0.0
 40
3.0
100
AcDbArc
 50
180.0
 51
270.0
  0
LINE
  5
4EC
330
1F
100
AcDbEntity
  8
002
 62
     3
370
    30
100
AcDbLine
 10
438.81171
 20
251.547309
 30
0.0
 11
438.81171
 21
304.547309
 31
0.0
  0
ARC
  5
4ED
330
1F
100
AcDbEntity
  8
002
 62
     3
370
    30
100
AcDbCircle
 10
441.81171
 20
304.547309
 30
0.0
 40
3.0
100
AcDbArc
 50
90.0
 51
180.0
  0
LINE
  5
4EE
330
1F
100
AcDbEntity
  8
002
 62
     3
370
    30
100
AcDbLine
 10
434.81171
 20
297.769509
 30
0.0
 11
387.81171
 21
297.769509
 31
0.0
  0
ARC
  5
4EF
330
1F
100
AcDbEntity
  8
002
 62
     3
370
    30
100
AcDbCircle
 10
387.81171
 20
294.769509
 30
0.0
 40
3.0
100
AcDbArc
 50
90.0
 51
180.0
  0
LINE
  5
4F0
330
1F
100
AcDbEntity
  8
002
 62
     3
370
    30
100
AcDbLine
 10
384.81171
 20
294.769509
 30
0.0
 11
384.81171
 21
267.021209
 31
0.0
  0
ARC
  5
4F1
330
1F
100
AcDbEntity
  8
002
 62
     3
370
    30
100
AcDbCircle
 10
387.81171
 20
267.021209
 30
0.0
 40
3.0
100
AcDbArc
 50
180.0
 51
270.0
  0
LINE
  5
4F2
330
1F
100
AcDbEntity
  8
002
 62
     3
370
    30
100
AcDbLine
 10
387.81171
 20
264.021209
 30
0.0
 11
434.81171
 21
264.021209
 31
0.0
  0
ARC
  5
4F3
330
1F
100
AcDbEntity
  8
002
 62
     3
370
    30
100
AcDbCircle
 10
434.81171
 20
267.021209
 30
0.0
 40
3.0
100
AcDbArc
 50
270.0
 51
0.0
  0
LINE
  5
4F4
330
1F
100
AcDbEntity
  8
002
 62
     3
370
    30
100
AcDbLine
 10
437.81171
 20
267.021209
 30
0.0
 11
437.81171
 21
294.769509
 31
0.0
  0
ARC
  5
4F5
330
1F
100
AcDbEntity
  8
002
 62
     3
370
    30
100
AcDbCircle
 10
434.81171
 20
294.769509
 30
0.0
 40
3.0
100
AcDbArc
 50
0.0
 51
90.0
  0
LINE
  5
4F6
330
1F
100
AcDbEntity
  8
002
 62
     3
370
    30
100
AcDbLine
 10
379.61771
 20
304.547309
 30
0.0
 11
379.61771
 21
251.547309
 31
0.0
  0
ARC
  5
4F7
330
1F
100
AcDbEntity
  8
002
 62
     3
370
    30
100
AcDbCircle
 10
380.81171
 20
251.547309
 30
0.0
 40
3.0
100
AcDbArc
 50
270.0
 51
0.0
  0
LINE
  5
4F8
330
1F
100
AcDbEntity
  8
002
 62
     3
370
    30
100
AcDbLine
 10
383.81171
 20
251.547309
 30
0.0
 11
383.81171
 21
304.547309
 31
0.0
  0
ARC
  5
4F9
330
1F
100
AcDbEntity
  8
002
 62
     3
370
    30
100
AcDbCircle
 10
380.81171
 20
304.547309
 30
0.0
 40
3.0
100
AcDbArc
 50
0.0
 51
90.0
  0
ARC
  5
4FA
330
1F
100
AcDbEntity
  8
002
 62
     3
370
    30
100
AcDbCircle
 10
376.61771
 20
304.547309
 30
0.0
 40
3.0
100
AcDbArc
 50
0.0
 51
90.0
  0
ARC
  5
4FB
330
1F
100
AcDbEntity
  8
002
 62
     3
370
    30
100
AcDbCircle
 10
359.31171
 20
251.547309
 30
0.0
 40
2.999999999999886
100
AcDbArc
 50
270.0
 51
0.0
  0
ARC
  5
4FC
330
1F
100
AcDbEntity
  8
002
 62
     3
370
    30
100
AcDbCircle
 10
360.31171
 20
251.547309
 30
0.0
 40
2.0
100
AcDbArc
 50
0.0
 51
90.0
  0
ARC
  5
4FD
330
1F
100
AcDbEntity
  8
002
 62
     3
370
    30
100
AcDbCircle
 10
376.61771
 20
251.547309
 30
0.0
 40
3.0
100
AcDbArc
 50
270.0
 51
0.0
  0
ARC
  5
4FE
330
1F
100
AcDbEntity
  8
002
 62
     3
370
    30
100
AcDbCircle
 10
441.81171
 20
251.547309
 30
0.0
 40
3.0
100
AcDbArc
 50
180.0
 51
270.0
  0
LINE
  5
4FF
330
1F
100
AcDbEntity
  8
003
  6
CENTER
 62
    40
370
     9
100
AcDbLine
 10
507.00471
 20
280.547309
 30
0.0
 11
311.93721
 21
280.547309
 31
0.0
  0
LINE
  5
500
330
1F
100
AcDbEntity
  8
003
  6
HIDDEN
 62
    40
370
     9
100
AcDbLine
 10
462.31171
 20
248.547309
 30
0.0
 11
462.31171
 21
247.547309
 31
0.0
  0
LINE
  5
501
330
1F
100
AcDbEntity
  8
003
  6
HIDDEN
 62
    40
370
     9
100
AcDbLine
 10
462.31171
 20
247.547309
 30
0.0
 11
440.31171
 21
247.547309
 31
0.0
  0
LINE
  5
502
330
1F
100
AcDbEntity
  8
003
  6
HIDDEN
 62
    40
370
     9
100
AcDbLine
 10
440.31171
 20
247.547309
 30
0.0
 11
440.31171
 21
248.547309
 31
0.0
  0
LINE
  5
503
330
1F
100
AcDbEntity
  8
003
  6
HIDDEN
 62
    40
370
     9
100
AcDbLine
 10
445.81171
 20
247.547309
 30
0.0
 11
445.81171
 21
235.547309
 31
0.0
  0
LINE
  5
504
330
1F
100
AcDbEntity
  8
003
  6
CENTER
 62
    40
370
     9
100
AcDbLine
 10
451.31171
 20
228.146809
 30
0.0
 11
451.31171
 21
256.075509
 31
0.0
  0
LINE
  5
505
330
1F
100
AcDbEntity
  8
003
  6
HIDDEN
 62
    40
370
     9
100
AcDbLine
 10
456.81171
 20
247.547309
 30
0.0
 11
456.81171
 21
235.547309
 31
0.0
  0
LINE
  5
506
330
1F
100
AcDbEntity
  8
003
  6
HIDDEN
 62
    40
370
     9
100
AcDbLine
 10
376.81171
 20
235.547309
 30
0.0
 11
376.81171
 21
247.547309
 31
0.0
  0
LINE
  5
507
330
1F
100
AcDbEntity
  8
003
  6
HIDDEN
 62
    40
370
     9
100
AcDbLine
 10
382.31171
 20
247.547309
 30
0.0
 11
360.31171
 21
247.547309
 31
0.0
  0
LINE
  5
508
330
1F
100
AcDbEntity
  8
003
  6
HIDDEN
 62
    40
370
     9
100
AcDbLine
 10
360.31171
 20
247.547309
 30
0.0
 11
360.31171
 21
248.547309
 31
0.0
  0
LINE
  5
509
330
1F
100
AcDbEntity
  8
003
  6
HIDDEN
 62
    40
370
     9
100
AcDbLine
 10
365.81171
 20
247.547309
 30
0.0
 11
365.81171
 21
235.547309
 31
0.0
  0
LINE
  5
50A
330
1F
100
AcDbEntity
  8
003
  6
CENTER
 62
    40
370
     9
100
AcDbLine
 10
371.31171
 20
228.146809
 30
0.0
 11
371.31171
 21
256.075509
 31
0.0
  0
LINE
  5
50B
330
1F
100
AcDbEntity
  8
003
  6
HIDDEN
 62
    40
370
     9
100
AcDbLine
 10
382.31171
 20
248.547309
 30
0.0
 11
382.31171
 21
247.547309
 31
0.0
  0
LINE
  5
50C
330
1F
100
AcDbEntity
  8
002
 62
     3
370
    30
100
AcDbLine
 10
366.31171
 20
333.547309
 30
0.0
 11
366.31171
 21
325.547309
 31
0.0
  0
LINE
  5
50D
330
1F
100
AcDbEntity
  8
002
 62
     3
370
    30
100
AcDbLine
 10
449.31171
 20
406.547309
 30
0.0
 11
373.31171
 21
406.547309
 31
0.0
  0
LINE
  5
50E
330
1F
100
AcDbEntity
  8
002
 62
     3
370
    30
100
AcDbLine
 10
353.31171
 20
333.547309
 30
0.0
 11
366.31171
 21
333.547309
 31
0.0
  0
LINE
  5
50F
330
1F
100
AcDbEntity
  8
002
 62
     3
370
    30
100
AcDbLine
 10
353.31171
 20
333.547309
 30
0.0
 11
353.31171
 21
325.547309
 31
0.0
  0
LINE
  5
510
330
1F
100
AcDbEntity
  8
002
 62
     3
370
    30
100
AcDbLine
 10
351.31171
 20
325.547309
 30
0.0
 11
471.31171
 21
325.547309
 31
0.0
  0
LINE
  5
511
330
1F
100
AcDbEntity
  8
002
 62
     3
370
    30
100
AcDbLine
 10
373.81171
 20
235.547309
 30
0.0
 11
373.81171
 21
231.547309
 31
0.0
  0
LINE
  5
512
330
1F
100
AcDbEntity
  8
002
 62
     3
370
    30
100
AcDbLine
 10
373.81171
 20
231.547309
 30
0.0
 11
448.81171
 21
231.547309
 31
0.0
  0
LINE
  5
513
330
1F
100
AcDbEntity
  8
002
 62
     3
370
    30
100
AcDbLine
 10
448.81171
 20
231.547309
 30
0.0
 11
448.81171
 21
235.547309
 31
0.0
  0
LINE
  5
514
330
1F
100
AcDbEntity
  8
002
 62
     3
370
    30
100
AcDbLine
 10
445.56171
 20
231.547309
 30
0.0
 11
445.56171
 21
226.547309
 31
0.0
  0
LINE
  5
515
330
1F
100
AcDbEntity
  8
002
 62
     3
370
    30
100
AcDbLine
 10
437.06171
 20
226.547309
 30
0.0
 11
437.06171
 21
231.547309
 31
0.0
  0
ARC
  5
516
330
1F
100
AcDbEntity
  8
002
 62
     3
370
    30
100
AcDbCircle
 10
438.18961
 20
228.547309
 30
0.0
 40
2.999933227590303
100
AcDbArc
 50
90.0
 51
178.168092
  0
LINE
  5
517
330
1F
100
AcDbEntity
  8
002
 62
     3
370
    30
100
AcDbLine
 10
435.19121
 20
228.643209
 30
0.0
 11
433.81171
 21
185.547309
 31
0.0
  0
LINE
  5
518
330
1F
100
AcDbEntity
  8
002
 62
     3
370
    30
100
AcDbLine
 10
388.81171
 20
185.547309
 30
0.0
 11
387.43231
 21
228.643209
 31
0.0
  0
ARC
  5
519
330
1F
100
AcDbEntity
  8
002
 62
     3
370
    30
100
AcDbCircle
 10
384.43381
 20
228.547309
 30
0.0
 40
3.0
100
AcDbArc
 50
1.831847
 51
90.0
  0
LINE
  5
51A
330
1F
100
AcDbEntity
  8
002
 62
     3
370
    30
100
AcDbLine
 10
385.56171
 20
231.547309
 30
0.0
 11
385.56171
 21
226.547309
 31
0.0
  0
LINE
  5
51B
330
1F
100
AcDbEntity
  8
002
 62
     3
370
    30
100
AcDbLine
 10
385.56171
 20
226.547309
 30
0.0
 11
377.06171
 21
226.547309
 31
0.0
  0
LINE
  5
51C
330
1F
100
AcDbEntity
  8
002
 62
     3
370
    30
100
AcDbLine
 10
377.06171
 20
226.547309
 30
0.0
 11
377.06171
 21
231.547309
 31
0.0
  0
LINE
  5
51D
330
1F
100
AcDbEntity
  8
002
 62
     3
370
    30
100
AcDbLine
 10
407.06171
 20
231.547309
 30
0.0
 11
407.06171
 21
226.547309
 31
0.0
  0
LINE
  5
51E
330
1F
100
AcDbEntity
  8
002
 62
     3
370
    30
100
AcDbLine
 10
415.56171
 20
226.547309
 30
0.0
 11
407.06171
 21
226.547309
 31
0.0
  0
LINE
  5
51F
330
1F
100
AcDbEntity
  8
002
 62
     3
370
    30
100
AcDbLine
 10
415.56171
 20
226.547309
 30
0.0
 11
415.56171
 21
231.547309
 31
0.0
  0
LINE
  5
520
330
1F
100
AcDbEntity
  8
002
 62
     3
370
    30
100
AcDbLine
 10
437.06171
 20
226.547309
 30
0.0
 11
445.56171
 21
226.547309
 31
0.0
  0
LINE
  5
521
330
1F
100
AcDbEntity
  8
002
  6
CENTER
 62
    40
370
     9
100
AcDbLine
 10
359.81171
 20
309.158709
 30
0.0
 11
359.81171
 21
335.558709
 31
0.0
  0
LINE
  5
522
330
1F
100
AcDbEntity
  8
002
  6
CENTER
 62
    40
370
     9
100
AcDbLine
 10
381.31171
 20
237.672109
 30
0.0
 11
381.31171
 21
225.393209
 31
0.0
  0
LINE
  5
523
330
1F
100
AcDbEntity
  8
002
  6
CENTER
 62
    40
370
     9
100
AcDbLine
 10
441.31171
 20
237.672109
 30
0.0
 11
441.31171
 21
225.393209
 31
0.0
  0
LINE
  5
524
330
1F
100
AcDbEntity
  8
002
 62
     3
370
    30
100
AcDbLine
 10
392.061515
 20
333.547309
 30
0.0
 11
392.061515
 21
325.547309
 31
0.0
  0
LINE
  5
525
330
1F
100
AcDbEntity
  8
002
 62
     3
370
    30
100
AcDbLine
 10
379.061515
 20
333.547309
 30
0.0
 11
392.061515
 21
333.547309
 31
0.0
  0
LINE
  5
526
330
1F
100
AcDbEntity
  8
002
 62
     3
370
    30
100
AcDbLine
 10
379.061515
 20
333.547309
 30
0.0
 11
379.061515
 21
325.547309
 31
0.0
  0
LINE
  5
527
330
1F
100
AcDbEntity
  8
002
  6
CENTER
 62
    40
370
     9
100
AcDbLine
 10
385.561515
 20
309.158709
 30
0.0
 11
385.561515
 21
335.558709
 31
0.0
  0
LINE
  5
528
330
1F
100
AcDbEntity
  8
002
 62
     3
370
    30
100
AcDbLine
 10
456.31171
 20
333.547309
 30
0.0
 11
456.31171
 21
325.547309
 31
0.0
  0
LINE
  5
529
330
1F
100
AcDbEntity
  8
002
 62
     3
370
    30
100
AcDbLine
 10
469.31171
 20
333.547309
 30
0.0
 11
456.31171
 21
333.547309
 31
0.0
  0
LINE
  5
52A
330
1F
100
AcDbEntity
  8
002
 62
     3
370
    30
100
AcDbLine
 10
469.31171
 20
333.547309
 30
0.0
 11
469.31171
 21
325.547309
 31
0.0
  0
LINE
  5
52B
330
1F
100
AcDbEntity
  8
002
  6
CENTER
 62
    40
370
     9
100
AcDbLine
 10
462.81171
 20
309.158709
 30
0.0
 11
462.81171
 21
335.558709
 31
0.0
  0
LINE
  5
52C
330
1F
100
AcDbEntity
  8
002
 62
     3
370
    30
100
AcDbLine
 10
430.561906
 20
333.547309
 30
0.0
 11
430.561906
 21
325.547309
 31
0.0
  0
LINE
  5
52D
330
1F
100
AcDbEntity
  8
002
 62
     3
370
    30
100
AcDbLine
 10
443.561906
 20
333.547309
 30
0.0
 11
430.561906
 21
333.547309
 31
0.0
  0
LINE
  5
52E
330
1F
100
AcDbEntity
  8
002
 62
     3
370
    30
100
AcDbLine
 10
443.561906
 20
333.547309
 30
0.0
 11
443.561906
 21
325.547309
 31
0.0
  0
LINE
  5
52F
330
1F
100
AcDbEntity
  8
002
  6
CENTER
 62
    40
370
     9
100
AcDbLine
 10
437.061906
 20
309.158709
 30
0.0
 11
437.061906
 21
335.558709
 31
0.0
  0
LINE
  5
530
330
1F
100
AcDbEntity
  8
003
 62
     3
370
    30
100
AcDbLine
 10
368.81171
 20
325.547309
 30
0.0
 11
368.81171
 21
327.340609
 31
0.0
  0
LINE
  5
531
330
1F
100
AcDbEntity
  8
003
 62
     3
370
    30
100
AcDbLine
 10
453.81171
 20
325.547309
 30
0.0
 11
453.81171
 21
327.340609
 31
0.0
  0
LINE
  5
532
330
1F
100
AcDbEntity
  8
002
 62
     3
370
    30
100
AcDbLine
 10
443.561906
 20
327.340609
 30
0.0
 11
453.81171
 21
327.340609
 31
0.0
  0
LINE
  5
533
330
1F
100
AcDbEntity
  8
002
 62
     3
370
    30
100
AcDbLine
 10
368.81171
 20
327.340609
 30
0.0
 11
379.061515
 21
327.340609
 31
0.0
  0
LINE
  5
534
330
1F
100
AcDbEntity
  8
002
 62
     3
370
    30
100
AcDbLine
 10
392.061515
 20
327.340609
 30
0.0
 11
430.561906
 21
327.340609
 31
0.0
  0
LINE
  5
535
330
1F
100
AcDbEntity
  8
002
 62
     3
370
    30
100
AcDbLine
 10
346.31171
 20
273.047309
 30
0.0
 11
322.31141
 21
273.047309
 31
0.0
  0
LINE
  5
536
330
1F
100
AcDbEntity
  8
002
 62
     3
370
    30
100
AcDbLine
 10
322.31141
 20
273.047309
 30
0.0
 11
322.31141
 21
278.047309
 31
0.0
  0
LINE
  5
537
330
1F
100
AcDbEntity
  8
002
 62
     3
370
    30
100
AcDbLine
 10
321.31141
 20
278.047309
 30
0.0
 11
342.81171
 21
278.047309
 31
0.0
  0
LINE
  5
538
330
1F
100
AcDbEntity
  8
002
 62
     3
370
    30
100
AcDbLine
 10
342.81171
 20
278.047309
 30
0.0
 11
342.81171
 21
283.047309
 31
0.0
  0
LINE
  5
539
330
1F
100
AcDbEntity
  8
002
 62
     3
370
    30
100
AcDbLine
 10
342.81171
 20
283.047309
 30
0.0
 11
321.31141
 21
283.047309
 31
0.0
  0
LINE
  5
53A
330
1F
100
AcDbEntity
  8
002
 62
     3
370
    30
100
AcDbLine
 10
322.31141
 20
283.047309
 30
0.0
 11
322.31141
 21
288.047309
 31
0.0
  0
LINE
  5
53B
330
1F
100
AcDbEntity
  8
002
 62
     3
370
    30
100
AcDbLine
 10
322.31141
 20
288.047309
 30
0.0
 11
321.31141
 21
287.047309
 31
0.0
  0
LINE
  5
53C
330
1F
100
AcDbEntity
  8
002
 62
     3
370
    30
100
AcDbLine
 10
321.31141
 20
287.047309
 30
0.0
 11
321.31141
 21
274.047309
 31
0.0
  0
LINE
  5
53D
330
1F
100
AcDbEntity
  8
002
 62
     3
370
    30
100
AcDbLine
 10
321.31141
 20
274.047309
 30
0.0
 11
322.31141
 21
273.047309
 31
0.0
  0
LINE
  5
53E
330
1F
100
AcDbEntity
  8
002
 62
     3
370
    30
100
AcDbLine
 10
322.31141
 20
288.047309
 30
0.0
 11
346.31171
 21
288.047309
 31
0.0
  0
ARC
  5
53F
330
1F
100
AcDbEntity
  8
002
 62
     3
370
    30
100
AcDbCircle
 10
342.81171
 20
280.547309
 30
0.0
 40
2.5
100
AcDbArc
 50
270.0
 51
90.0
  0
LINE
  5
540
330
1F
100
AcDbEntity
  8
002
 62
     3
370
    30
100
AcDbLine
 10
346.31171
 20
272.547309
 30
0.0
 11
346.31171
 21
288.547309
 31
0.0
  0
LINE
  5
541
330
1F
100
AcDbEntity
  8
002
 62
     3
370
    30
100
AcDbLine
 10
476.31171
 20
273.047309
 30
0.0
 11
500.31201
 21
273.047309
 31
0.0
  0
LINE
  5
542
330
1F
100
AcDbEntity
  8
002
 62
     3
370
    30
100
AcDbLine
 10
500.31201
 20
273.047309
 30
0.0
 11
500.31201
 21
278.047309
 31
0.0
  0
LINE
  5
543
330
1F
100
AcDbEntity
  8
002
 62
     3
370
    30
100
AcDbLine
 10
501.31201
 20
278.047309
 30
0.0
 11
479.81171
 21
278.047309
 31
0.0
  0
LINE
  5
544
330
1F
100
AcDbEntity
  8
002
 62
     3
370
    30
100
AcDbLine
 10
479.81171
 20
278.047309
 30
0.0
 11
479.81171
 21
283.047309
 31
0.0
  0
LINE
  5
545
330
1F
100
AcDbEntity
  8
002
 62
     3
370
    30
100
AcDbLine
 10
479.81171
 20
283.047309
 30
0.0
 11
501.31201
 21
283.047309
 31
0.0
  0
LINE
  5
546
330
1F
100
AcDbEntity
  8
002
 62
     3
370
    30
100
AcDbLine
 10
500.31201
 20
283.047309
 30
0.0
 11
500.31201
 21
288.047309
 31
0.0
  0
LINE
  5
547
330
1F
100
AcDbEntity
  8
002
 62
     3
370
    30
100
AcDbLine
 10
500.31201
 20
288.047309
 30
0.0
 11
501.31201
 21
287.047309
 31
0.0
  0
LINE
  5
548
330
1F
100
AcDbEntity
  8
002
 62
     3
370
    30
100
AcDbLine
 10
501.31201
 20
287.047309
 30
0.0
 11
501.31201
 21
274.047309
 31
0.0
  0
LINE
  5
549
330
1F
100
AcDbEntity
  8
002
 62
     3
370
    30
100
AcDbLine
 10
501.31201
 20
274.047309
 30
0.0
 11
500.31201
 21
273.047309
 31
0.0
  0
LINE
  5
54A
330
1F
100
AcDbEntity
  8
002
 62
     3
370
    30
100
AcDbLine
 10
500.31201
 20
288.047309
 30
0.0
 11
476.31171
 21
288.047309
 31
0.0
  0
ARC
  5
54B
330
1F
100
AcDbEntity
  8
002
 62
     3
370
    30
100
AcDbCircle
 10
479.81171
 20
280.547309
 30
0.0
 40
2.5
100
AcDbArc
 50
90.0
 51
270.0
  0
LINE
  5
54C
330
1F
100
AcDbEntity
  8
002
 62
     3
370
    30
100
AcDbLine
 10
476.31171
 20
272.547309
 30
0.0
 11
476.31171
 21
288.547309
 31
0.0
  0
LINE
  5
54D
330
1F
100
AcDbEntity
  8
002
 62
     3
370
    30
100
AcDbLine
 10
372.31171
 20
390.547309
 30
0.0
 11
372.31171
 21
382.547309
 31
0.0
  0
LINE
  5
54E
330
1F
100
AcDbEntity
  8
002
 62
     3
370
    30
100
AcDbLine
 10
372.31171
 20
382.547309
 30
0.0
 11
371.31171
 21
381.547309
 31
0.0
  0
ARC
  5
54F
330
1F
100
AcDbEntity
  8
002
 62
     3
370
    30
100
AcDbCircle
 10
368.68671
 20
384.047309
 30
0.0
 40
3.625
100
AcDbArc
 50
316.397181
 51
43.602819
  0
LINE
  5
550
330
1F
100
AcDbEntity
  8
002
 62
     3
370
    30
100
AcDbLine
 10
371.31171
 20
391.547309
 30
0.0
 11
372.31171
 21
390.547309
 31
0.0
  0
ARC
  5
551
330
1F
100
AcDbEntity
  8
002
 62
     3
370
    30
100
AcDbCircle
 10
368.68671
 20
389.047309
 30
0.0
 40
3.625
100
AcDbArc
 50
316.397181
 51
43.602819
  0
LINE
  5
552
330
1F
100
AcDbEntity
  8
002
 62
     3
370
    30
100
AcDbLine
 10
368.31171
 20
391.547309
 30
0.0
 11
371.31171
 21
391.547309
 31
0.0
  0
ARC
  5
553
330
1F
100
AcDbEntity
  8
002
 62
     3
370
    30
100
AcDbCircle
 10
370.93671
 20
389.047309
 30
0.0
 40
3.625
100
AcDbArc
 50
136.397181
 51
223.602819
  0
LINE
  5
554
330
1F
100
AcDbEntity
  8
002
 62
     3
370
    30
100
AcDbLine
 10
368.31171
 20
386.547309
 30
0.0
 11
371.31171
 21
386.547309
 31
0.0
  0
ARC
  5
555
330
1F
100
AcDbEntity
  8
002
 62
     3
370
    30
100
AcDbCircle
 10
370.93671
 20
384.047309
 30
0.0
 40
3.625
100
AcDbArc
 50
136.397181
 51
223.602819
  0
LINE
  5
556
330
1F
100
AcDbEntity
  8
002
 62
     3
370
    30
100
AcDbLine
 10
371.31171
 20
381.547309
 30
0.0
 11
368.31171
 21
381.547309
 31
0.0
  0
LINE
  5
557
330
1F
100
AcDbEntity
  8
002
 62
     3
370
    30
100
AcDbLine
 10
368.31171
 20
381.547309
 30
0.0
 11
365.39821
 21
383.687309
 31
0.0
  0
LINE
  5
558
330
1F
100
AcDbEntity
  8
002
 62
     3
370
    30
100
AcDbLine
 10
365.39821
 20
389.407309
 30
0.0
 11
368.31171
 21
391.547309
 31
0.0
  0
ARC
  5
559
330
1F
100
AcDbEntity
  8
002
 62
     3
370
    30
100
AcDbCircle
 10
364.69111
 20
382.980209
 30
0.0
 40
0.9999904099540514
100
AcDbArc
 50
45.0
 51
122.005383
  0
LINE
  5
55A
330
1F
100
AcDbEntity
  8
002
 62
     3
370
    30
100
AcDbLine
 10
363.31171
 20
383.297309
 30
0.0
 11
364.16111
 21
383.828209
 31
0.0
  0
LINE
  5
55B
330
1F
100
AcDbEntity
  8
002
 62
     3
370
    30
100
AcDbLine
 10
360.31171
 20
384.047309
 30
0.0
 11
363.31171
 21
383.297309
 31
0.0
  0
LINE
  5
55C
330
1F
100
AcDbEntity
  8
002
 62
     3
370
    30
100
AcDbLine
 10
360.31171
 20
389.047309
 30
0.0
 11
360.31171
 21
384.047309
 31
0.0
  0
ARC
  5
55D
330
1F
100
AcDbEntity
  8
002
 62
     3
370
    30
100
AcDbCircle
 10
360.97321
 20
386.547309
 30
0.0
 40
1.000041124154433
100
AcDbArc
 50
131.412294
 51
228.587706
  0
LINE
  5
55E
330
1F
100
AcDbEntity
  8
002
 62
     3
370
    30
100
AcDbLine
 10
363.31171
 20
389.797309
 30
0.0
 11
360.31171
 21
389.047309
 31
0.0
  0
LINE
  5
55F
330
1F
100
AcDbEntity
  8
002
 62
     3
370
    30
100
AcDbLine
 10
364.16111
 20
389.266409
 30
0.0
 11
363.31171
 21
389.797309
 31
0.0
  0
ARC
  5
560
330
1F
100
AcDbEntity
  8
002
 62
     3
370
    30
100
AcDbCircle
 10
364.69111
 20
390.114409
 30
0.0
 40
1.000001999998045
100
AcDbArc
 50
237.994617
 51
315.0
  0
LINE
  5
561
330
1F
100
AcDbEntity
  8
002
 62
     3
370
    30
100
AcDbLine
 10
364.83571
 20
384.249809
 30
0.0
 11
364.83571
 21
388.844809
 31
0.0
  0
LINE
  5
562
330
1F
100
AcDbEntity
  8
002
 62
     3
370
    30
100
AcDbLine
 10
363.31171
 20
384.047309
 30
0.0
 11
363.31171
 21
389.047309
 31
0.0
  0
LINE
  5
563
330
1F
100
AcDbEntity
  8
002
  6
CENTER
 62
    40
370
     9
100
AcDbLine
 10
379.361478
 20
386.547309
 30
0.0
 11
357.633986
 21
386.547309
 31
0.0
  0
LINE
  5
564
330
1F
100
AcDbEntity
  8
002
 62
     3
370
    30
100
AcDbLine
 10
372.31171
 20
390.408809
 30
0.0
 11
373.31171
 21
390.408809
 31
0.0
  0
LINE
  5
565
330
1F
100
AcDbEntity
  8
002
 62
     3
370
    30
100
AcDbLine
 10
373.31171
 20
382.685809
 30
0.0
 11
372.31171
 21
382.685809
 31
0.0
  0
LINE
  5
566
330
1F
100
AcDbEntity
  8
002
 62
     3
370
    30
100
AcDbLine
 10
450.31171
 20
390.547309
 30
0.0
 11
450.31171
 21
382.547309
 31
0.0
  0
LINE
  5
567
330
1F
100
AcDbEntity
  8
002
 62
     3
370
    30
100
AcDbLine
 10
450.31171
 20
382.547309
 30
0.0
 11
451.31171
 21
381.547309
 31
0.0
  0
ARC
  5
568
330
1F
100
AcDbEntity
  8
002
 62
     3
370
    30
100
AcDbCircle
 10
453.93671
 20
384.047309
 30
0.0
 40
3.625
100
AcDbArc
 50
136.397181
 51
223.602819
  0
LINE
  5
569
330
1F
100
AcDbEntity
  8
002
 62
     3
370
    30
100
AcDbLine
 10
451.31171
 20
391.547309
 30
0.0
 11
450.31171
 21
390.547309
 31
0.0
  0
ARC
  5
56A
330
1F
100
AcDbEntity
  8
002
 62
     3
370
    30
100
AcDbCircle
 10
453.93671
 20
389.047309
 30
0.0
 40
3.625
100
AcDbArc
 50
136.397181
 51
223.602819
  0
LINE
  5
56B
330
1F
100
AcDbEntity
  8
002
 62
     3
370
    30
100
AcDbLine
 10
454.31171
 20
391.547309
 30
0.0
 11
451.31171
 21
391.547309
 31
0.0
  0
ARC
  5
56C
330
1F
100
AcDbEntity
  8
002
 62
     3
370
    30
100
AcDbCircle
 10
451.68671
 20
389.047309
 30
0.0
 40
3.625
100
AcDbArc
 50
316.397181
 51
43.602819
  0
LINE
  5
56D
330
1F
100
AcDbEntity
  8
002
 62
     3
370
    30
100
AcDbLine
 10
454.31171
 20
386.547309
 30
0.0
 11
451.31171
 21
386.547309
 31
0.0
  0
ARC
  5
56E
330
1F
100
AcDbEntity
  8
002
 62
     3
370
    30
100
AcDbCircle
 10
451.68671
 20
384.047309
 30
0.0
 40
3.625
100
AcDbArc
 50
316.397181
 51
43.602819
  0
LINE
  5
56F
330
1F
100
AcDbEntity
  8
002
 62
     3
370
    30
100
AcDbLine
 10
451.31171
 20
381.547309
 30
0.0
 11
454.31171
 21
381.547309
 31
0.0
  0
LINE
  5
570
330
1F
100
AcDbEntity
  8
002
 62
     3
370
    30
100
AcDbLine
 10
454.31171
 20
381.547309
 30
0.0
 11
457.22521
 21
383.687309
 31
0.0
  0
LINE
  5
571
330
1F
100
AcDbEntity
  8
002
 62
     3
370
    30
100
AcDbLine
 10
457.22521
 20
389.407309
 30
0.0
 11
454.31171
 21
391.547309
 31
0.0
  0
ARC
  5
572
330
1F
100
AcDbEntity
  8
002
 62
     3
370
    30
100
AcDbCircle
 10
457.93231
 20
382.980209
 30
0.0
 40
0.9999904099540514
100
AcDbArc
 50
57.994617
 51
135.0
  0
LINE
  5
573
330
1F
100
AcDbEntity
  8
002
 62
     3
370
    30
100
AcDbLine
 10
459.31171
 20
383.297309
 30
0.0
 11
458.46231
 21
383.828209
 31
0.0
  0
LINE
  5
574
330
1F
100
AcDbEntity
  8
002
 62
     3
370
    30
100
AcDbLine
 10
462.31171
 20
384.047309
 30
0.0
 11
459.31171
 21
383.297309
 31
0.0
  0
LINE
  5
575
330
1F
100
AcDbEntity
  8
002
 62
     3
370
    30
100
AcDbLine
 10
462.31171
 20
389.047309
 30
0.0
 11
462.31171
 21
384.047309
 31
0.0
  0
ARC
  5
576
330
1F
100
AcDbEntity
  8
002
 62
     3
370
    30
100
AcDbCircle
 10
461.65021
 20
386.547309
 30
0.0
 40
1.000041124154433
100
AcDbArc
 50
311.412294
 51
48.587706
  0
LINE
  5
577
330
1F
100
AcDbEntity
  8
002
 62
     3
370
    30
100
AcDbLine
 10
459.31171
 20
389.797309
 30
0.0
 11
462.31171
 21
389.047309
 31
0.0
  0
LINE
  5
578
330
1F
100
AcDbEntity
  8
002
 62
     3
370
    30
100
AcDbLine
 10
458.46231
 20
389.266409
 30
0.0
 11
459.31171
 21
389.797309
 31
0.0
  0
ARC
  5
579
330
1F
100
AcDbEntity
  8
002
 62
     3
370
    30
100
AcDbCircle
 10
457.93231
 20
390.114409
 30
0.0
 40
1.000001999998045
100
AcDbArc
 50
225.0
 51
302.005383
  0
LINE
  5
57A
330
1F
100
AcDbEntity
  8
002
 62
     3
370
    30
100
AcDbLine
 10
457.78771
 20
384.249809
 30
0.0
 11
457.78771
 21
388.844809
 31
0.0
  0
LINE
  5
57B
330
1F
100
AcDbEntity
  8
002
 62
     3
370
    30
100
AcDbLine
 10
459.31171
 20
384.047309
 30
0.0
 11
459.31171
 21
389.047309
 31
0.0
  0
LINE
  5
57C
330
1F
100
AcDbEntity
  8
002
  6
CENTER
 62
    40
370
     9
100
AcDbLine
 10
443.261943
 20
386.547309
 30
0.0
 11
464.989435
 21
386.547309
 31
0.0
  0
LINE
  5
57D
330
1F
100
AcDbEntity
  8
002
 62
     3
370
    30
100
AcDbLine
 10
450.31171
 20
390.408809
 30
0.0
 11
449.31171
 21
390.408809
 31
0.0
  0
LINE
  5
57E
330
1F
100
AcDbEntity
  8
002
 62
     3
370
    30
100
AcDbLine
 10
449.31171
 20
382.685809
 30
0.0
 11
450.31171
 21
382.685809
 31
0.0
  0
LINE
  5
57F
330
1F
100
AcDbEntity
  8
002
 62
     3
370
    30
100
AcDbLine
 10
433.81171
 20
185.547309
 30
0.0
 11
388.81171
 21
185.547309
 31
0.0
  0
LINE
  5
580
330
1F
100
AcDbEntity
  8
002
 62
     3
370
    30
100
AcDbLine
 10
389.31171
 20
100.547309
 30
0.0
 11
389.31171
 21
83.547309
 31
0.0
  0
ARC
  5
581
330
1F
100
AcDbEntity
  8
002
 62
     3
370
    30
100
AcDbCircle
 10
392.31171
 20
83.547309
 30
0.0
 40
3.0
100
AcDbArc
 50
180.0
 51
270.0
  0
LINE
  5
582
330
1F
100
AcDbEntity
  8
002
 62
     3
370
    30
100
AcDbLine
 10
392.31171
 20
80.547309
 30
0.0
 11
430.31171
 21
80.547309
 31
0.0
  0
ARC
  5
583
330
1F
100
AcDbEntity
  8
002
 62
     3
370
    30
100
AcDbCircle
 10
430.31171
 20
83.547309
 30
0.0
 40
3.0
100
AcDbArc
 50
270.0
 51
0.0
  0
LINE
  5
584
330
1F
100
AcDbEntity
  8
002
 62
     3
370
    30
100
AcDbLine
 10
433.31171
 20
83.547309
 30
0.0
 11
433.31171
 21
100.547309
 31
0.0
  0
LINE
  5
585
330
1F
100
AcDbEntity
  8
002
 62
     3
370
    30
100
AcDbLine
 10
433.31171
 20
100.547309
 30
0.0
 11
389.31171
 21
100.547309
 31
0.0
  0
LINE
  5
586
330
1F
100
AcDbEntity
  8
002
 62
     3
370
    30
100
AcDbLine
 10
373.31171
 20
406.547309
 30
0.0
 11
373.31171
 21
327.340609
 31
0.0
  0
LINE
  5
587
330
1F
100
AcDbEntity
  8
002
 62
     3
370
    30
100
AcDbLine
 10
449.31171
 20
327.340609
 30
0.0
 11
449.31171
 21
406.547309
 31
0.0
  0
LINE
  5
588
330
1F
100
AcDbEntity
  8
002
 62
     3
370
    30
100
AcDbLine
 10
420.31101
 20
545.547309
 30
0.0
 11
402.31101
 21
545.547309
 31
0.0
  0
LINE
  5
589
330
1F
100
AcDbEntity
  8
002
 62
     3
370
    30
100
AcDbLine
 10
402.31101
 20
545.547309
 30
0.0
 11
402.31101
 21
526.547309
 31
0.0
  0
LINE
  5
58A
330
1F
100
AcDbEntity
  8
002
 62
     3
370
    30
100
AcDbLine
 10
402.31101
 20
526.547309
 30
0.0
 11
420.31101
 21
526.547309
 31
0.0
  0
LINE
  5
58B
330
1F
100
AcDbEntity
  8
002
 62
     3
370
    30
100
AcDbLine
 10
420.31101
 20
526.547309
 30
0.0
 11
420.31101
 21
545.547309
 31
0.0
  0
LINE
  5
58C
330
1F
100
AcDbEntity
  8
002
 62
     3
370
    30
100
AcDbLine
 10
419.16101
 20
526.547309
 30
0.0
 11
419.16101
 21
523.547309
 31
0.0
  0
LINE
  5
58D
330
1F
100
AcDbEntity
  8
002
 62
     3
370
    30
100
AcDbLine
 10
423.81171
 20
523.547309
 30
0.0
 11
398.81171
 21
523.547309
 31
0.0
  0
LINE
  5
58E
330
1F
100
AcDbEntity
  8
002
 62
     3
370
    30
100
AcDbLine
 10
403.46101
 20
523.547309
 30
0.0
 11
403.46101
 21
526.547309
 31
0.0
  0
LINE
  5
58F
330
1F
100
AcDbEntity
  8
002
 62
    40
370
     9
100
AcDbLine
 10
403.36101
 20
545.547309
 30
0.0
 11
403.36101
 21
526.547309
 31
0.0
  0
LINE
  5
590
330
1F
100
AcDbEntity
  8
002
 62
    40
370
     9
100
AcDbLine
 10
419.26101
 20
526.547309
 30
0.0
 11
419.26101
 21
545.547309
 31
0.0
  0
LINE
  5
591
330
1F
100
AcDbEntity
  8
002
 62
     3
370
    30
100
AcDbLine
 10
1066.715417
 20
333.547309
 30
0.0
 11
1066.715417
 21
406.547309
 31
0.0
  0
LINE
  5
592
330
1F
100
AcDbEntity
  8
002
 62
     3
370
    30
100
AcDbLine
 10
1142.715417
 20
406.547309
 30
0.0
 11
1142.715417
 21
333.547309
 31
0.0
  0
LINE
  5
593
330
1F
100
AcDbEntity
  8
002
 62
     3
370
    30
100
AcDbLine
 10
1127.215417
 20
456.547309
 30
0.0
 11
1082.215417
 21
456.547309
 31
0.0
  0
LINE
  5
594
330
1F
100
AcDbEntity
  8
002
 62
     3
370
    30
100
AcDbLine
 10
1082.215417
 20
456.547309
 30
0.0
 11
1080.836417
 21
413.451309
 31
0.0
  0
ARC
  5
595
330
1F
100
AcDbEntity
  8
002
 62
     3
370
    30
100
AcDbCircle
 10
1077.837417
 20
413.547309
 30
0.0
 40
3.0
100
AcDbArc
 50
270.0
 51
358.16655
  0
LINE
  5
596
330
1F
100
AcDbEntity
  8
002
 62
     3
370
    30
100
AcDbLine
 10
1078.965417
 20
410.767409
 30
0.0
 11
1078.965417
 21
415.547309
 31
0.0
  0
LINE
  5
597
330
1F
100
AcDbEntity
  8
002
 62
     3
370
    30
100
AcDbLine
 10
1070.465417
 20
415.547309
 30
0.0
 11
1070.465417
 21
410.547309
 31
0.0
  0
LINE
  5
598
330
1F
100
AcDbEntity
  8
002
 62
     3
370
    30
100
AcDbLine
 10
1067.215417
 20
410.547309
 30
0.0
 11
1142.215417
 21
410.547309
 31
0.0
  0
LINE
  5
599
330
1F
100
AcDbEntity
  8
002
 62
     3
370
    30
100
AcDbLine
 10
1142.215417
 20
410.547309
 30
0.0
 11
1142.215417
 21
406.547309
 31
0.0
  0
LINE
  5
59A
330
1F
100
AcDbEntity
  8
002
 62
     3
370
    30
100
AcDbLine
 10
1142.816417
 20
333.547309
 30
0.0
 11
1142.816417
 21
325.547309
 31
0.0
  0
LINE
  5
59B
330
1F
100
AcDbEntity
  8
002
 62
     3
370
    30
100
AcDbLine
 10
1142.816417
 20
327.340609
 30
0.0
 11
1111.215417
 21
327.340609
 31
0.0
  0
LINE
  5
59C
330
1F
100
AcDbEntity
  8
002
 62
     3
370
    30
100
AcDbLine
 10
1111.215417
 20
325.547309
 30
0.0
 11
1111.215417
 21
333.547309
 31
0.0
  0
LINE
  5
59D
330
1F
100
AcDbEntity
  8
002
 62
     3
370
    30
100
AcDbLine
 10
1098.215417
 20
333.547309
 30
0.0
 11
1098.215417
 21
325.547309
 31
0.0
  0
LINE
  5
59E
330
1F
100
AcDbEntity
  8
002
 62
     3
370
    30
100
AcDbLine
 10
1098.215417
 20
327.340609
 30
0.0
 11
1066.615417
 21
327.340609
 31
0.0
  0
LINE
  5
59F
330
1F
100
AcDbEntity
  8
002
 62
     3
370
    30
100
AcDbLine
 10
1066.615417
 20
325.547309
 30
0.0
 11
1066.615417
 21
333.547309
 31
0.0
  0
LINE
  5
5A0
330
1F
100
AcDbEntity
  8
002
 62
     3
370
    30
100
AcDbLine
 10
1053.615417
 20
333.547309
 30
0.0
 11
1066.615417
 21
333.547309
 31
0.0
  0
LINE
  5
5A1
330
1F
100
AcDbEntity
  8
002
 62
     3
370
    30
100
AcDbLine
 10
1066.715417
 20
406.547309
 30
0.0
 11
1142.715417
 21
406.547309
 31
0.0
  0
LINE
  5
5A2
330
1F
100
AcDbEntity
  8
002
 62
     3
370
    30
100
AcDbLine
 10
1138.965417
 20
410.547309
 30
0.0
 11
1138.965417
 21
415.547309
 31
0.0
  0
LINE
  5
5A3
330
1F
100
AcDbEntity
  8
002
 62
     3
370
    30
100
AcDbLine
 10
1138.965417
 20
415.547309
 30
0.0
 11
1130.465417
 21
415.547309
 31
0.0
  0
LINE
  5
5A4
330
1F
100
AcDbEntity
  8
002
 62
     3
370
    30
100
AcDbLine
 10
1130.465417
 20
415.547309
 30
0.0
 11
1130.465417
 21
410.767409
 31
0.0
  0
ARC
  5
5A5
330
1F
100
AcDbEntity
  8
002
 62
     3
370
    30
100
AcDbCircle
 10
1131.593417
 20
413.547309
 30
0.0
 40
2.999536630881558
100
AcDbArc
 50
181.834061
 51
270.0
  0
LINE
  5
5A6
330
1F
100
AcDbEntity
  8
002
 62
     3
370
    30
100
AcDbLine
 10
1128.595417
 20
413.451309
 30
0.0
 11
1127.215417
 21
456.547309
 31
0.0
  0
LINE
  5
5A7
330
1F
100
AcDbEntity
  8
002
 62
     3
370
    30
100
AcDbLine
 10
1078.965417
 20
415.547309
 30
0.0
 11
1070.465417
 21
415.547309
 31
0.0
  0
LINE
  5
5A8
330
1F
100
AcDbEntity
  8
002
 62
     3
370
    30
100
AcDbLine
 10
1067.215417
 20
410.547309
 30
0.0
 11
1067.215417
 21
406.547309
 31
0.0
  0
LINE
  5
5A9
330
1F
100
AcDbEntity
  8
002
 62
     3
370
    30
100
AcDbLine
 10
1100.465417
 20
410.547309
 30
0.0
 11
1100.465417
 21
415.547309
 31
0.0
  0
LINE
  5
5AA
330
1F
100
AcDbEntity
  8
002
 62
     3
370
    30
100
AcDbLine
 10
1100.465417
 20
415.547309
 30
0.0
 11
1108.965417
 21
415.547309
 31
0.0
  0
LINE
  5
5AB
330
1F
100
AcDbEntity
  8
002
 62
     3
370
    30
100
AcDbLine
 10
1108.965417
 20
415.547309
 30
0.0
 11
1108.965417
 21
410.547309
 31
0.0
  0
LINE
  5
5AC
330
1F
100
AcDbEntity
  8
002
 62
     3
370
    30
100
AcDbLine
 10
1107.602417
 20
391.547309
 30
0.0
 11
1110.489417
 21
386.547309
 31
0.0
  0
LINE
  5
5AD
330
1F
100
AcDbEntity
  8
002
 62
     3
370
    30
100
AcDbLine
 10
1110.489417
 20
386.547309
 30
0.0
 11
1107.602417
 21
381.547309
 31
0.0
  0
LINE
  5
5AE
330
1F
100
AcDbEntity
  8
002
 62
     3
370
    30
100
AcDbLine
 10
1107.602417
 20
381.547309
 30
0.0
 11
1101.829417
 21
381.547309
 31
0.0
  0
LINE
  5
5AF
330
1F
100
AcDbEntity
  8
002
 62
     3
370
    30
100
AcDbLine
 10
1101.829417
 20
381.547309
 30
0.0
 11
1098.942417
 21
386.547309
 31
0.0
  0
LINE
  5
5B0
330
1F
100
AcDbEntity
  8
002
 62
     3
370
    30
100
AcDbLine
 10
1098.942417
 20
386.547309
 30
0.0
 11
1101.829417
 21
391.547309
 31
0.0
  0
LINE
  5
5B1
330
1F
100
AcDbEntity
  8
002
 62
     3
370
    30
100
AcDbLine
 10
1101.829417
 20
391.547309
 30
0.0
 11
1107.602417
 21
391.547309
 31
0.0
  0
CIRCLE
  5
5B2
330
1F
100
AcDbEntity
  8
002
 62
     3
370
    30
100
AcDbCircle
 10
1104.715417
 20
386.547309
 30
0.0
 40
0.75
  0
CIRCLE
  5
5B3
330
1F
100
AcDbEntity
  8
002
 62
     3
370
    30
100
AcDbCircle
 10
1104.715417
 20
386.547309
 30
0.0
 40
2.5
  0
CIRCLE
  5
5B4
330
1F
100
AcDbEntity
  8
002
 62
     3
370
    30
100
AcDbCircle
 10
1104.715417
 20
386.547309
 30
0.0
 40
3.25
  0
CIRCLE
  5
5B5
330
1F
100
AcDbEntity
  8
002
 62
     3
370
    30
100
AcDbCircle
 10
1104.715417
 20
386.547309
 30
0.0
 40
5.0
  0
LINE
  5
5B6
330
1F
100
AcDbEntity
  8
002
 62
     3
370
    30
100
AcDbLine
 10
1098.215417
 20
333.547309
 30
0.0
 11
1111.215417
 21
333.547309
 31
0.0
  0
LINE
  5
5B7
330
1F
100
AcDbEntity
  8
002
 62
     3
370
    30
100
AcDbLine
 10
1124.167417
 20
310.547309
 30
0.0
 11
1174.167417
 21
310.547309
 31
0.0
  0
ARC
  5
5B8
330
1F
100
AcDbEntity
  8
002
 62
     3
370
    30
100
AcDbCircle
 10
1174.167417
 20
305.547309
 30
0.0
 40
5.0
100
AcDbArc
 50
0.0
 51
90.0
  0
LINE
  5
5B9
330
1F
100
AcDbEntity
  8
002
 62
     3
370
    30
100
AcDbLine
 10
1179.167417
 20
305.547309
 30
0.0
 11
1179.167417
 21
255.547309
 31
0.0
  0
ARC
  5
5BA
330
1F
100
AcDbEntity
  8
002
 62
     3
370
    30
100
AcDbCircle
 10
1174.167417
 20
255.547309
 30
0.0
 40
5.0
100
AcDbArc
 50
270.0
 51
0.0
  0
LINE
  5
5BB
330
1F
100
AcDbEntity
  8
002
 62
     3
370
    30
100
AcDbLine
 10
1174.167417
 20
250.547309
 30
0.0
 11
1124.167417
 21
250.547309
 31
0.0
  0
ARC
  5
5BC
330
1F
100
AcDbEntity
  8
002
 62
     3
370
    30
100
AcDbCircle
 10
1124.167417
 20
255.547309
 30
0.0
 40
5.0
100
AcDbArc
 50
180.0
 51
270.0
  0
LINE
  5
5BD
330
1F
100
AcDbEntity
  8
002
 62
     3
370
    30
100
AcDbLine
 10
1119.167417
 20
255.547309
 30
0.0
 11
1119.167417
 21
305.547309
 31
0.0
  0
ARC
  5
5BE
330
1F
100
AcDbEntity
  8
002
 62
     3
370
    30
100
AcDbCircle
 10
1124.167417
 20
305.547309
 30
0.0
 40
5.0
100
AcDbArc
 50
90.0
 51
180.0
  0
LINE
  5
5BF
330
1F
100
AcDbEntity
  8
002
 62
     3
370
    30
100
AcDbLine
 10
1127.167417
 20
307.547309
 30
0.0
 11
1171.167417
 21
307.547309
 31
0.0
  0
ARC
  5
5C0
330
1F
100
AcDbEntity
  8
002
 62
     3
370
    30
100
AcDbCircle
 10
1171.167417
 20
302.547309
 30
0.0
 40
5.0
100
AcDbArc
 50
0.0
 51
90.0
  0
LINE
  5
5C1
330
1F
100
AcDbEntity
  8
002
 62
     3
370
    30
100
AcDbLine
 10
1176.167417
 20
305.547309
 30
0.0
 11
1176.167417
 21
255.547309
 31
0.0
  0
ARC
  5
5C2
330
1F
100
AcDbEntity
  8
002
 62
     3
370
    30
100
AcDbCircle
 10
1171.167417
 20
255.547309
 30
0.0
 40
5.0
100
AcDbArc
 50
270.0
 51
0.0
  0
LINE
  5
5C3
330
1F
100
AcDbEntity
  8
002
 62
     3
370
    30
100
AcDbLine
 10
1171.167417
 20
253.547309
 30
0.0
 11
1127.167417
 21
253.547309
 31
0.0
  0
ARC
  5
5C4
330
1F
100
AcDbEntity
  8
002
 62
     3
370
    30
100
AcDbCircle
 10
1127.167417
 20
258.547309
 30
0.0
 40
5.0
100
AcDbArc
 50
180.0
 51
270.0
  0
LINE
  5
5C5
330
1F
100
AcDbEntity
  8
002
 62
     3
370
    30
100
AcDbLine
 10
1122.167417
 20
258.547309
 30
0.0
 11
1122.167417
 21
302.547309
 31
0.0
  0
ARC
  5
5C6
330
1F
100
AcDbEntity
  8
002
 62
     3
370
    30
100
AcDbCircle
 10
1127.167417
 20
302.547309
 30
0.0
 40
5.0
100
AcDbArc
 50
90.0
 51
180.0
  0
LINE
  5
5C7
330
1F
100
AcDbEntity
  8
002
 62
     3
370
    30
100
AcDbLine
 10
1119.167417
 20
297.547309
 30
0.0
 11
1048.167417
 21
297.547309
 31
0.0
  0
ARC
  5
5C8
330
1F
100
AcDbEntity
  8
002
 62
     3
370
    30
100
AcDbCircle
 10
1046.715417
 20
293.823909
 30
0.0
 40
3.0
100
AcDbArc
 50
0.0
 51
67.97587
  0
LINE
  5
5C9
330
1F
100
AcDbEntity
  8
002
 62
     3
370
    30
100
AcDbLine
 10
1049.715417
 20
293.823909
 30
0.0
 11
1049.715417
 21
265.547309
 31
0.0
  0
LINE
  5
5CA
330
1F
100
AcDbEntity
  8
002
 62
     3
370
    30
100
AcDbLine
 10
1049.715417
 20
265.547309
 30
0.0
 11
1054.009417
 21
264.396709
 31
0.0
  0
ARC
  5
5CB
330
1F
100
AcDbEntity
  8
002
 62
     3
370
    30
100
AcDbCircle
 10
1052.715417
 20
259.567009
 30
0.0
 40
5.0
100
AcDbArc
 50
0.0
 51
75.001264
  0
LINE
  5
5CC
330
1F
100
AcDbEntity
  8
002
 62
     3
370
    30
100
AcDbLine
 10
1057.715417
 20
248.547309
 30
0.0
 11
1057.715417
 21
291.331509
 31
0.0
  0
LINE
  5
5CD
330
1F
100
AcDbEntity
  8
002
 62
     3
370
    30
100
AcDbLine
 10
1057.715417
 20
293.547309
 30
0.0
 11
1093.715417
 21
293.547309
 31
0.0
  0
ARC
  5
5CE
330
1F
100
AcDbEntity
  8
002
 62
     3
370
    30
100
AcDbCircle
 10
1093.715417
 20
290.547309
 30
0.0
 40
3.0
100
AcDbArc
 50
0.0
 51
90.0
  0
LINE
  5
5CF
330
1F
100
AcDbEntity
  8
002
 62
     3
370
    30
100
AcDbLine
 10
1096.715417
 20
291.470309
 30
0.0
 11
1096.715417
 21
280.547309
 31
0.0
  0
CIRCLE
  5
5D0
330
1F
100
AcDbEntity
  8
002
 62
     3
370
    30
100
AcDbCircle
 10
1104.715417
 20
280.547309
 30
0.0
 40
5.0
  0
CIRCLE
  5
5D1
330
1F
100
AcDbEntity
  8
002
 62
     3
370
    30
100
AcDbCircle
 10
1104.715417
 20
280.547309
 30
0.0
 40
3.25
  0
CIRCLE
  5
5D2
330
1F
100
AcDbEntity
  8
002
 62
     3
370
    30
100
AcDbCircle
 10
1104.715417
 20
280.547309
 30
0.0
 40
2.5
  0
CIRCLE
  5
5D3
330
1F
100
AcDbEntity
  8
002
 62
     3
370
    30
100
AcDbCircle
 10
1104.715417
 20
280.547309
 30
0.0
 40
0.75
  0
LINE
  5
5D4
330
1F
100
AcDbEntity
  8
002
 62
     3
370
    30
100
AcDbLine
 10
1099.715417
 20
283.434009
 30
0.0
 11
1104.715417
 21
286.320809
 31
0.0
  0
LINE
  5
5D5
330
1F
100
AcDbEntity
  8
002
 62
     3
370
    30
100
AcDbLine
 10
1104.715417
 20
286.320809
 30
0.0
 11
1109.715417
 21
283.434009
 31
0.0
  0
LINE
  5
5D6
330
1F
100
AcDbEntity
  8
002
 62
     3
370
    30
100
AcDbLine
 10
1109.715417
 20
283.434009
 30
0.0
 11
1109.715417
 21
277.660509
 31
0.0
  0
LINE
  5
5D7
330
1F
100
AcDbEntity
  8
002
 62
     3
370
    30
100
AcDbLine
 10
1109.715417
 20
277.660509
 30
0.0
 11
1104.715417
 21
274.773809
 31
0.0
  0
LINE
  5
5D8
330
1F
100
AcDbEntity
  8
002
 62
     3
370
    30
100
AcDbLine
 10
1104.715417
 20
274.773809
 30
0.0
 11
1099.715417
 21
277.660509
 31
0.0
  0
LINE
  5
5D9
330
1F
100
AcDbEntity
  8
002
 62
     3
370
    30
100
AcDbLine
 10
1099.715417
 20
277.660509
 30
0.0
 11
1099.715417
 21
283.434009
 31
0.0
  0
LINE
  5
5DA
330
1F
100
AcDbEntity
  8
002
 62
     3
370
    30
100
AcDbLine
 10
1093.715417
 20
294.470309
 30
0.0
 11
1093.602417
 21
294.470309
 31
0.0
  0
ARC
  5
5DB
330
1F
100
AcDbEntity
  8
002
 62
     3
370
    30
100
AcDbCircle
 10
1093.715417
 20
291.470309
 30
0.0
 40
3.0
100
AcDbArc
 50
0.0
 51
90.0
  0
LINE
  5
5DC
330
1F
100
AcDbEntity
  8
002
 62
     3
370
    30
100
AcDbLine
 10
1112.715417
 20
291.470309
 30
0.0
 11
1112.715417
 21
280.547309
 31
0.0
  0
ARC
  5
5DD
330
1F
100
AcDbEntity
  8
002
 62
     3
370
    30
100
AcDbCircle
 10
1104.715417
 20
280.547309
 30
0.0
 40
8.0
100
AcDbArc
 50
180.0
 51
0.0
  0
ARC
  5
5DE
330
1F
100
AcDbEntity
  8
002
 62
     3
370
    30
100
AcDbCircle
 10
1115.715417
 20
290.547309
 30
0.0
 40
3.0
100
AcDbArc
 50
90.0
 51
180.0
  0
LINE
  5
5DF
330
1F
100
AcDbEntity
  8
002
 62
     3
370
    30
100
AcDbLine
 10
1115.715417
 20
293.547309
 30
0.0
 11
1119.167417
 21
293.547309
 31
0.0
  0
LINE
  5
5E0
330
1F
100
AcDbEntity
  8
002
 62
     3
370
    30
100
AcDbLine
 10
1115.829417
 20
294.470309
 30
0.0
 11
1115.715417
 21
294.470309
 31
0.0
  0
ARC
  5
5E1
330
1F
100
AcDbEntity
  8
002
 62
     3
370
    30
100
AcDbCircle
 10
1115.715417
 20
291.470309
 30
0.0
 40
3.0
100
AcDbArc
 50
90.0
 51
180.0
  0
CIRCLE
  5
5E2
330
1F
100
AcDbEntity
  8
002
 62
     3
370
    30
100
AcDbCircle
 10
1149.167417
 20
280.547309
 30
0.0
 40
13.0
  0
LINE
  5
5E3
330
1F
100
AcDbEntity
  8
002
 62
     3
370
    30
100
AcDbLine
 10
1146.667417
 20
285.447309
 30
0.0
 11
1146.667417
 21
289.647309
 31
0.0
  0
LINE
  5
5E4
330
1F
100
AcDbEntity
  8
002
 62
     3
370
    30
100
AcDbLine
 10
1146.667417
 20
289.647309
 30
0.0
 11
1147.067417
 21
290.047309
 31
0.0
  0
LINE
  5
5E5
330
1F
100
AcDbEntity
  8
002
 62
     3
370
    30
100
AcDbLine
 10
1147.067417
 20
290.047309
 30
0.0
 11
1151.267417
 21
290.047309
 31
0.0
  0
LINE
  5
5E6
330
1F
100
AcDbEntity
  8
002
 62
     3
370
    30
100
AcDbLine
 10
1151.267417
 20
290.047309
 30
0.0
 11
1151.667417
 21
289.647309
 31
0.0
  0
LINE
  5
5E7
330
1F
100
AcDbEntity
  8
002
 62
     3
370
    30
100
AcDbLine
 10
1151.667417
 20
289.647309
 30
0.0
 11
1151.667417
 21
285.447309
 31
0.0
  0
LINE
  5
5E8
330
1F
100
AcDbEntity
  8
002
 62
     3
370
    30
100
AcDbLine
 10
1151.667417
 20
285.447309
 30
0.0
 11
1151.267417
 21
285.047309
 31
0.0
  0
LINE
  5
5E9
330
1F
100
AcDbEntity
  8
002
 62
     3
370
    30
100
AcDbLine
 10
1151.267417
 20
285.047309
 30
0.0
 11
1147.067417
 21
285.047309
 31
0.0
  0
LINE
  5
5EA
330
1F
100
AcDbEntity
  8
002
 62
     3
370
    30
100
AcDbLine
 10
1147.067417
 20
285.047309
 30
0.0
 11
1146.667417
 21
285.447309
 31
0.0
  0
ARC
  5
5EB
330
1F
100
AcDbEntity
  8
002
 62
     3
370
    30
100
AcDbCircle
 10
1147.067417
 20
285.447309
 30
0.0
 40
0.4000000000000909
100
AcDbArc
 50
180.0
 51
270.0
  0
ARC
  5
5EC
330
1F
100
AcDbEntity
  8
002
 62
     3
370
    30
100
AcDbCircle
 10
1151.267417
 20
285.447309
 30
0.0
 40
0.3999999999999773
100
AcDbArc
 50
270.0
 51
0.0
  0
ARC
  5
5ED
330
1F
100
AcDbEntity
  8
002
 62
     3
370
    30
100
AcDbCircle
 10
1149.167417
 20
280.547309
 30
0.0
 40
7.499936066394084
100
AcDbArc
 50
109.471393
 51
70.528607
  0
ARC
  5
5EE
330
1F
100
AcDbEntity
  8
002
 62
     3
370
    30
100
AcDbCircle
 10
1149.167417
 20
280.547309
 30
0.0
 40
7.999960030525125
100
AcDbArc
 50
108.210051
 51
71.789949
  0
LINE
  5
5EF
330
1F
100
AcDbEntity
  8
002
 62
     3
370
    30
100
AcDbLine
 10
1164.715417
 20
310.547309
 30
0.0
 11
1164.715417
 21
325.547309
 31
0.0
  0
LINE
  5
5F0
330
1F
100
AcDbEntity
  8
002
 62
     3
370
    30
100
AcDbLine
 10
1164.715417
 20
325.547309
 30
0.0
 11
1044.715417
 21
325.547309
 31
0.0
  0
LINE
  5
5F1
330
1F
100
AcDbEntity
  8
002
 62
     3
370
    30
100
AcDbLine
 10
1044.715417
 20
325.547309
 30
0.0
 11
1044.715417
 21
301.240109
 31
0.0
  0
ARC
  5
5F2
330
1F
100
AcDbEntity
  8
002
 62
     3
370
    30
100
AcDbCircle
 10
1049.715417
 20
301.240109
 30
0.0
 40
5.0
100
AcDbArc
 50
180.0
 51
252.901989
  0
LINE
  5
5F3
330
1F
100
AcDbEntity
  8
002
 62
     3
370
    30
100
AcDbLine
 10
1048.245417
 20
296.461209
 30
0.0
 11
1055.598417
 21
294.198909
 31
0.0
  0
ARC
  5
5F4
330
1F
100
AcDbEntity
  8
002
 62
     3
370
    30
100
AcDbCircle
 10
1054.715417
 20
291.331509
 30
0.0
 40
3.0
100
AcDbArc
 50
0.0
 51
72.884073
  0
LINE
  5
5F5
330
1F
100
AcDbEntity
  8
002
 62
     3
370
    30
100
AcDbLine
 10
1049.715417
 20
290.774809
 30
0.0
 11
1041.715417
 21
291.024809
 31
0.0
  0
LINE
  5
5F6
330
1F
100
AcDbEntity
  8
002
 62
     3
370
    30
100
AcDbLine
 10
1041.715417
 20
291.024809
 30
0.0
 11
1041.715417
 21
270.069809
 31
0.0
  0
LINE
  5
5F7
330
1F
100
AcDbEntity
  8
002
 62
     3
370
    30
100
AcDbLine
 10
1041.715417
 20
270.069809
 30
0.0
 11
1049.715417
 21
270.319809
 31
0.0
  0
LINE
  5
5F8
330
1F
100
AcDbEntity
  8
002
 62
     3
370
    30
100
AcDbLine
 10
1041.715417
 20
273.547309
 30
0.0
 11
1031.715417
 21
274.047309
 31
0.0
  0
LINE
  5
5F9
330
1F
100
AcDbEntity
  8
002
 62
     3
370
    30
100
AcDbLine
 10
1031.715417
 20
274.047309
 30
0.0
 11
1031.715417
 21
287.047309
 31
0.0
  0
LINE
  5
5FA
330
1F
100
AcDbEntity
  8
002
 62
     3
370
    30
100
AcDbLine
 10
1031.715417
 20
287.047309
 30
0.0
 11
1041.715417
 21
287.547309
 31
0.0
  0
LINE
  5
5FB
330
1F
100
AcDbEntity
  8
002
 62
     3
370
    30
100
AcDbLine
 10
1044.715417
 20
315.547309
 30
0.0
 11
1164.715417
 21
315.547309
 31
0.0
  0
ARC
  5
5FC
330
1F
100
AcDbEntity
  8
002
 62
     3
370
    30
100
AcDbCircle
 10
1171.167417
 20
305.547309
 30
0.0
 40
5.0
100
AcDbArc
 50
0.0
 51
90.0
  0
LINE
  5
5FD
330
1F
100
AcDbEntity
  8
002
 62
     3
370
    30
100
AcDbLine
 10
1178.855417
 20
307.287809
 30
0.0
 11
1200.684417
 21
248.502409
 31
0.0
  0
LINE
  5
5FE
330
1F
100
AcDbEntity
  8
002
 62
     3
370
    30
100
AcDbLine
 10
1200.167417
 20
248.547309
 30
0.0
 11
1046.167417
 21
248.547309
 31
0.0
  0
LINE
  5
5FF
330
1F
100
AcDbEntity
  8
002
 62
     3
370
    30
100
AcDbLine
 10
1043.167417
 20
245.547309
 30
0.0
 11
1043.167417
 21
235.547309
 31
0.0
  0
LINE
  5
600
330
1F
100
AcDbEntity
  8
002
 62
     3
370
    30
100
AcDbLine
 10
1043.167417
 20
235.547309
 30
0.0
 11
1203.167417
 21
235.547309
 31
0.0
  0
LINE
  5
601
330
1F
100
AcDbEntity
  8
002
 62
     3
370
    30
100
AcDbLine
 10
1203.167417
 20
235.547309
 30
0.0
 11
1203.167417
 21
245.547309
 31
0.0
  0
ARC
  5
602
330
1F
100
AcDbEntity
  8
002
 62
     3
370
    30
100
AcDbCircle
 10
1200.167417
 20
245.547309
 30
0.0
 40
3.0
100
AcDbArc
 50
0.0
 51
90.0
  0
LINE
  5
603
330
1F
100
AcDbEntity
  8
002
 62
     3
370
    30
100
AcDbLine
 10
1195.988417
 20
264.021209
 30
0.0
 11
1183.456417
 21
297.769509
 31
0.0
  0
LINE
  5
604
330
1F
100
AcDbEntity
  8
002
 62
     3
370
    30
100
AcDbLine
 10
1183.456417
 20
297.769509
 30
0.0
 11
1182.518417
 21
297.421409
 31
0.0
  0
LINE
  5
605
330
1F
100
AcDbEntity
  8
002
 62
     3
370
    30
100
AcDbLine
 10
1195.051417
 20
263.673109
 30
0.0
 11
1195.988417
 21
264.021209
 31
0.0
  0
ARC
  5
606
330
1F
100
AcDbEntity
  8
002
 62
     3
370
    30
100
AcDbCircle
 10
1171.167417
 20
258.547309
 30
0.0
 40
5.000000000000057
100
AcDbArc
 50
270.0
 51
0.0
  0
ARC
  5
607
330
1F
100
AcDbEntity
  8
002
 62
     3
370
    30
100
AcDbCircle
 10
1046.167417
 20
245.547309
 30
0.0
 40
3.0
100
AcDbArc
 50
90.0
 51
180.0
  0
LINE
  5
608
330
1F
100
AcDbEntity
  8
002
 62
     3
370
    30
100
AcDbLine
 10
1053.615417
 20
325.547309
 30
0.0
 11
1053.615417
 21
333.547309
 31
0.0
  0
LINE
  5
609
330
1F
100
AcDbEntity
  8
002
 62
     3
370
    30
100
AcDbLine
 10
1142.816417
 20
333.547309
 30
0.0
 11
1155.816417
 21
333.547309
 31
0.0
  0
LINE
  5
60A
330
1F
100
AcDbEntity
  8
002
 62
     3
370
    30
100
AcDbLine
 10
1155.816417
 20
333.547309
 30
0.0
 11
1155.816417
 21
325.547309
 31
0.0
  0
LINE
  5
60B
330
1F
100
AcDbEntity
  8
002
  6
CENTER
 62
    40
370
     9
100
AcDbLine
 10
1057.167417
 20
256.075509
 30
0.0
 11
1057.167417
 21
228.146809
 31
0.0
  0
LINE
  5
60C
330
1F
100
AcDbEntity
  8
002
  6
CENTER
 62
    40
370
     9
100
AcDbLine
 10
1189.167417
 20
228.146809
 30
0.0
 11
1189.167417
 21
256.075509
 31
0.0
  0
LINE
  5
60D
330
1F
100
AcDbEntity
  8
002
  6
CENTER
 62
    40
370
     9
100
AcDbLine
 10
1186.608417
 20
280.547309
 30
0.0
 11
1028.788417
 21
280.547309
 31
0.0
  0
LINE
  5
60E
330
1F
100
AcDbEntity
  8
002
  6
CENTER
 62
    40
370
     9
100
AcDbLine
 10
1149.167417
 20
248.547309
 30
0.0
 11
1149.167417
 21
312.296109
 31
0.0
  0
LINE
  5
60F
330
1F
100
AcDbEntity
  8
002
  6
CENTER
 62
    40
370
     9
100
AcDbLine
 10
1149.315417
 20
309.158709
 30
0.0
 11
1149.315417
 21
335.558709
 31
0.0
  0
LINE
  5
610
330
1F
100
AcDbEntity
  8
002
  6
CENTER
 62
    40
370
     9
100
AcDbLine
 10
1060.115417
 20
309.158709
 30
0.0
 11
1060.115417
 21
335.558709
 31
0.0
  0
LINE
  5
611
330
1F
100
AcDbEntity
  8
002
 62
    40
370
     9
100
AcDbLine
 10
1031.715417
 20
287.047309
 30
0.0
 11
1041.715417
 21
273.547309
 31
0.0
  0
LINE
  5
612
330
1F
100
AcDbEntity
  8
002
 62
    40
370
     9
100
AcDbLine
 10
1031.715417
 20
274.047309
 30
0.0
 11
1041.715417
 21
287.547309
 31
0.0
  0
LINE
  5
613
330
1F
100
AcDbEntity
  8
002
 62
    40
370
     9
100
AcDbLine
 10
1041.715417
 20
271.231809
 30
0.0
 11
1049.715417
 21
271.481809
 31
0.0
  0
LINE
  5
614
330
1F
100
AcDbEntity
  8
002
 62
    40
370
     9
100
AcDbLine
 10
1041.715417
 20
289.862809
 30
0.0
 11
1049.715417
 21
289.612809
 31
0.0
  0
LINE
  5
615
330
1F
100
AcDbEntity
  8
002
  6
CENTER
 62
    40
370
     9
100
AcDbLine
 10
1095.942417
 20
386.547309
 30
0.0
 11
1113.116417
 21
386.547309
 31
0.0
  0
LINE
  5
616
330
1F
100
AcDbEntity
  8
002
  6
CENTER
 62
    40
370
     9
100
AcDbLine
 10
1074.715417
 20
397.003009
 30
0.0
 11
1074.715417
 21
416.974909
 31
0.0
  0
LINE
  5
617
330
1F
100
AcDbEntity
  8
002
  6
CENTER
 62
    40
370
     9
100
AcDbLine
 10
1134.715417
 20
397.003009
 30
0.0
 11
1134.715417
 21
416.974909
 31
0.0
  0
LINE
  5
618
330
1F
100
AcDbEntity
  8
002
  6
HIDDEN
 62
    40
370
     9
100
AcDbLine
 10
1051.667417
 20
235.547309
 30
0.0
 11
1051.667417
 21
248.547309
 31
0.0
  0
LINE
  5
619
330
1F
100
AcDbEntity
  8
002
  6
HIDDEN
 62
    40
370
     9
100
AcDbLine
 10
1062.667417
 20
248.547309
 30
0.0
 11
1062.667417
 21
235.547309
 31
0.0
  0
LINE
  5
61A
330
1F
100
AcDbEntity
  8
002
  6
HIDDEN
 62
    40
370
     9
100
AcDbLine
 10
1183.667417
 20
248.547309
 30
0.0
 11
1183.667417
 21
235.547309
 31
0.0
  0
LINE
  5
61B
330
1F
100
AcDbEntity
  8
002
  6
HIDDEN
 62
    40
370
     9
100
AcDbLine
 10
1194.667417
 20
235.547309
 30
0.0
 11
1194.667417
 21
248.547309
 31
0.0
  0
LINE
  5
61C
330
1F
100
AcDbEntity
  8
002
 62
     3
370
    30
100
AcDbLine
 10
1126.715417
 20
557.547309
 30
0.0
 11
1126.715417
 21
540.547309
 31
0.0
  0
LINE
  5
61D
330
1F
100
AcDbEntity
  8
002
 62
     3
370
    30
100
AcDbLine
 10
1126.715417
 20
540.547309
 30
0.0
 11
1082.715417
 21
540.547309
 31
0.0
  0
LINE
  5
61E
330
1F
100
AcDbEntity
  8
002
 62
     3
370
    30
100
AcDbLine
 10
1082.715417
 20
540.547309
 30
0.0
 11
1082.715417
 21
557.547309
 31
0.0
  0
ARC
  5
61F
330
1F
100
AcDbEntity
  8
002
 62
     3
370
    30
100
AcDbCircle
 10
1085.715417
 20
557.547309
 30
0.0
 40
3.0
100
AcDbArc
 50
90.0
 51
180.0
  0
LINE
  5
620
330
1F
100
AcDbEntity
  8
002
 62
     3
370
    30
100
AcDbLine
 10
1085.715417
 20
560.547309
 30
0.0
 11
1123.715417
 21
560.547309
 31
0.0
  0
ARC
  5
621
330
1F
100
AcDbEntity
  8
002
 62
     3
370
    30
100
AcDbCircle
 10
1123.715417
 20
557.547309
 30
0.0
 40
3.0
100
AcDbArc
 50
0.0
 51
90.0
  0
LINE
  5
622
330
1F
100
AcDbEntity
  8
002
 62
     3
370
    30
100
AcDbLine
 10
1070.167417
 20
248.547309
 30
0.0
 11
1070.167417
 21
235.547309
 31
0.0
  0
LINE
  5
623
330
1F
100
AcDbEntity
  8
002
 62
     3
370
    30
100
AcDbLine
 10
1176.167417
 20
235.547309
 30
0.0
 11
1176.167417
 21
248.547309
 31
0.0
  0
LINE
  5
624
330
1F
100
AcDbEntity
  8
002
 62
     3
370
    30
100
AcDbLine
 10
1142.215417
 20
235.547309
 30
0.0
 11
1142.215417
 21
233.247309
 31
0.0
  0
LINE
  5
625
330
1F
100
AcDbEntity
  8
002
 62
     3
370
    30
100
AcDbLine
 10
1142.215417
 20
233.247309
 30
0.0
 11
1067.215417
 21
233.247309
 31
0.0
  0
LINE
  5
626
330
1F
100
AcDbEntity
  8
002
 62
     3
370
    30
100
AcDbLine
 10
1067.215417
 20
233.247309
 30
0.0
 11
1067.215417
 21
235.547309
 31
0.0
  0
LINE
  5
627
330
1F
100
AcDbEntity
  8
002
 62
     3
370
    30
100
AcDbLine
 10
1070.465417
 20
233.247309
 30
0.0
 11
1070.465417
 21
228.247309
 31
0.0
  0
LINE
  5
628
330
1F
100
AcDbEntity
  8
002
 62
     3
370
    30
100
AcDbLine
 10
1070.465417
 20
228.247309
 30
0.0
 11
1078.965417
 21
228.247309
 31
0.0
  0
LINE
  5
629
330
1F
100
AcDbEntity
  8
002
 62
     3
370
    30
100
AcDbLine
 10
1078.215417
 20
228.247309
 30
0.0
 11
1078.215417
 21
218.247309
 31
0.0
  0
LINE
  5
62A
330
1F
100
AcDbEntity
  8
002
 62
     3
370
    30
100
AcDbLine
 10
1078.215417
 20
218.247309
 30
0.0
 11
1139.215417
 21
218.247309
 31
0.0
  0
LINE
  5
62B
330
1F
100
AcDbEntity
  8
002
 62
     3
370
    30
100
AcDbLine
 10
1140.361617
 20
214.242009
 30
0.0
 11
1132.069217
 21
215.252709
 31
0.0
  0
ARC
  5
62C
330
1F
100
AcDbEntity
  8
002
 62
     3
370
    30
100
AcDbCircle
 10
1132.215417
 20
217.247309
 30
0.0
 40
2.0
100
AcDbArc
 50
180.0
 51
265.807836
  0
LINE
  5
62D
330
1F
100
AcDbEntity
  8
002
 62
     3
370
    30
100
AcDbLine
 10
1130.215417
 20
217.247309
 30
0.0
 11
1130.215417
 21
218.247309
 31
0.0
  0
LINE
  5
62E
330
1F
100
AcDbEntity
  8
002
 62
     3
370
    30
100
AcDbLine
 10
1131.215417
 20
218.247309
 30
0.0
 11
1131.215417
 21
228.247309
 31
0.0
  0
LINE
  5
62F
330
1F
100
AcDbEntity
  8
002
 62
     3
370
    30
100
AcDbLine
 10
1130.465417
 20
228.247309
 30
0.0
 11
1138.965417
 21
228.247309
 31
0.0
  0
LINE
  5
630
330
1F
100
AcDbEntity
  8
002
 62
     3
370
    30
100
AcDbLine
 10
1130.465417
 20
228.247309
 30
0.0
 11
1130.465417
 21
233.247309
 31
0.0
  0
LINE
  5
631
330
1F
100
AcDbEntity
  8
002
 62
     3
370
    30
100
AcDbLine
 10
1108.965417
 20
233.247309
 30
0.0
 11
1108.965417
 21
228.247309
 31
0.0
  0
LINE
  5
632
330
1F
100
AcDbEntity
  8
002
 62
     3
370
    30
100
AcDbLine
 10
1100.465417
 20
228.247309
 30
0.0
 11
1108.965417
 21
228.247309
 31
0.0
  0
LINE
  5
633
330
1F
100
AcDbEntity
  8
002
 62
     3
370
    30
100
AcDbLine
 10
1108.965417
 20
231.247309
 30
0.0
 11
1130.465417
 21
231.247309
 31
0.0
  0
LINE
  5
634
330
1F
100
AcDbEntity
  8
002
 62
     3
370
    30
100
AcDbLine
 10
1138.965417
 20
233.247309
 30
0.0
 11
1138.965417
 21
228.247309
 31
0.0
  0
LINE
  5
635
330
1F
100
AcDbEntity
  8
002
 62
     3
370
    30
100
AcDbLine
 10
1138.965417
 20
231.247309
 30
0.0
 11
1139.215417
 21
231.247309
 31
0.0
  0
ARC
  5
636
330
1F
100
AcDbEntity
  8
002
 62
     3
370
    30
100
AcDbCircle
 10
1139.215417
 20
228.247309
 30
0.0
 40
3.0
100
AcDbArc
 50
0.0
 51
90.0
  0
LINE
  5
637
330
1F
100
AcDbEntity
  8
002
 62
     3
370
    30
100
AcDbLine
 10
1142.215417
 20
228.247309
 30
0.0
 11
1142.215417
 21
221.247309
 31
0.0
  0
ARC
  5
638
330
1F
100
AcDbEntity
  8
002
 62
     3
370
    30
100
AcDbCircle
 10
1139.215417
 20
221.247309
 30
0.0
 40
3.0
100
AcDbArc
 50
270.0
 51
0.0
  0
ARC
  5
639
330
1F
100
AcDbEntity
  8
002
 62
     3
370
    30
100
AcDbCircle
 10
1140.215417
 20
212.247309
 30
0.0
 40
1.999950899397276
100
AcDbArc
 50
274.192164
 51
85.808046
  0
LINE
  5
63A
330
1F
100
AcDbEntity
  8
002
 62
     3
370
    30
100
AcDbLine
 10
1140.361617
 20
210.252709
 30
0.0
 11
1126.569217
 21
209.242009
 31
0.0
  0
ARC
  5
63B
330
1F
100
AcDbEntity
  8
002
 62
     3
370
    30
100
AcDbCircle
 10
1126.715417
 20
207.247309
 30
0.0
 40
2.000050631859067
100
AcDbArc
 50
94.191954
 51
265.807836
  0
LINE
  5
63C
330
1F
100
AcDbEntity
  8
002
 62
     3
370
    30
100
AcDbLine
 10
1126.569217
 20
205.252709
 30
0.0
 11
1140.361617
 21
204.242009
 31
0.0
  0
ARC
  5
63D
330
1F
100
AcDbEntity
  8
002
 62
     3
370
    30
100
AcDbCircle
 10
1140.215417
 20
202.247309
 30
0.0
 40
1.999950899397276
100
AcDbArc
 50
274.192164
 51
85.808046
  0
LINE
  5
63E
330
1F
100
AcDbEntity
  8
002
 62
     3
370
    30
100
AcDbLine
 10
1140.361617
 20
200.252709
 30
0.0
 11
1126.569217
 21
199.242009
 31
0.0
  0
ARC
  5
63F
330
1F
100
AcDbEntity
  8
002
 62
     3
370
    30
100
AcDbCircle
 10
1126.715417
 20
197.247309
 30
0.0
 40
2.000050631859067
100
AcDbArc
 50
94.191954
 51
180.0
  0
LINE
  5
640
330
1F
100
AcDbEntity
  8
002
 62
     3
370
    30
100
AcDbLine
 10
1122.715417
 20
197.247309
 30
0.0
 11
1086.715417
 21
197.247309
 31
0.0
  0
ARC
  5
641
330
1F
100
AcDbEntity
  8
002
 62
     3
370
    30
100
AcDbCircle
 10
1082.715417
 20
197.247309
 30
0.0
 40
2.0
100
AcDbArc
 50
0.0
 51
85.808046
  0
LINE
  5
642
330
1F
100
AcDbEntity
  8
002
 62
     3
370
    30
100
AcDbLine
 10
1082.861617
 20
199.242009
 30
0.0
 11
1069.069217
 21
200.252709
 31
0.0
  0
ARC
  5
643
330
1F
100
AcDbEntity
  8
002
 62
     3
370
    30
100
AcDbCircle
 10
1069.215417
 20
202.247309
 30
0.0
 40
2.000050631859069
100
AcDbArc
 50
94.191954
 51
265.807836
  0
LINE
  5
644
330
1F
100
AcDbEntity
  8
002
 62
     3
370
    30
100
AcDbLine
 10
1069.069217
 20
204.242009
 30
0.0
 11
1082.861617
 21
205.252709
 31
0.0
  0
ARC
  5
645
330
1F
100
AcDbEntity
  8
002
 62
     3
370
    30
100
AcDbCircle
 10
1082.715417
 20
207.247309
 30
0.0
 40
1.999950899397273
100
AcDbArc
 50
274.192164
 51
85.808046
  0
LINE
  5
646
330
1F
100
AcDbEntity
  8
002
 62
     3
370
    30
100
AcDbLine
 10
1082.861617
 20
209.242009
 30
0.0
 11
1069.069217
 21
210.252709
 31
0.0
  0
ARC
  5
647
330
1F
100
AcDbEntity
  8
002
 62
     3
370
    30
100
AcDbCircle
 10
1069.215417
 20
212.247309
 30
0.0
 40
2.000050631859069
100
AcDbArc
 50
94.191954
 51
265.807836
  0
LINE
  5
648
330
1F
100
AcDbEntity
  8
002
 62
     3
370
    30
100
AcDbLine
 10
1069.069217
 20
214.242009
 30
0.0
 11
1077.361617
 21
215.252709
 31
0.0
  0
ARC
  5
649
330
1F
100
AcDbEntity
  8
002
 62
     3
370
    30
100
AcDbCircle
 10
1077.215417
 20
217.247309
 30
0.0
 40
1.999950899397273
100
AcDbArc
 50
274.192164
 51
0.0
  0
LINE
  5
64A
330
1F
100
AcDbEntity
  8
002
 62
     3
370
    30
100
AcDbLine
 10
1079.215417
 20
217.247309
 30
0.0
 11
1079.215417
 21
218.247309
 31
0.0
  0
LINE
  5
64B
330
1F
100
AcDbEntity
  8
002
 62
     3
370
    30
100
AcDbLine
 10
1122.715417
 20
207.247309
 30
0.0
 11
1086.715417
 21
207.247309
 31
0.0
  0
LINE
  5
64C
330
1F
100
AcDbEntity
  8
002
 62
     3
370
    30
100
AcDbLine
 10
1069.215417
 20
212.247309
 30
0.0
 11
1140.215417
 21
212.247309
 31
0.0
  0
LINE
  5
64D
330
1F
100
AcDbEntity
  8
002
 62
     3
370
    30
100
AcDbLine
 10
1140.215417
 20
202.247309
 30
0.0
 11
1069.215417
 21
202.247309
 31
0.0
  0
LINE
  5
64E
330
1F
100
AcDbEntity
  8
002
 62
     3
370
    30
100
AcDbLine
 10
1078.965417
 20
228.247309
 30
0.0
 11
1078.965417
 21
233.247309
 31
0.0
  0
LINE
  5
64F
330
1F
100
AcDbEntity
  8
002
 62
     3
370
    30
100
AcDbLine
 10
1100.465417
 20
233.247309
 30
0.0
 11
1100.465417
 21
228.247309
 31
0.0
  0
LINE
  5
650
330
1F
100
AcDbEntity
  8
002
 62
     3
370
    30
100
AcDbLine
 10
1100.465417
 20
231.247309
 30
0.0
 11
1078.965417
 21
231.247309
 31
0.0
  0
CIRCLE
  5
651
330
1F
100
AcDbEntity
  8
002
 62
     3
370
    30
100
AcDbCircle
 10
1136.715417
 20
224.747309
 30
0.0
 40
1.0
  0
LINE
  5
652
330
1F
100
AcDbEntity
  8
002
 62
     3
370
    30
100
AcDbLine
 10
1122.715417
 20
154.847309
 30
0.0
 11
1086.715417
 21
154.847309
 31
0.0
  0
ARC
  5
653
330
1F
100
AcDbEntity
  8
002
 62
     3
370
    30
100
AcDbCircle
 10
1082.715417
 20
154.847309
 30
0.0
 40
1.999950899397273
100
AcDbArc
 50
274.192164
 51
0.0
  0
LINE
  5
654
330
1F
100
AcDbEntity
  8
002
 62
     3
370
    30
100
AcDbLine
 10
1082.861617
 20
152.852709
 30
0.0
 11
1069.069217
 21
151.842009
 31
0.0
  0
LINE
  5
655
330
1F
100
AcDbEntity
  8
002
 62
     3
370
    30
100
AcDbLine
 10
1069.215417
 20
149.847309
 30
0.0
 11
1140.215417
 21
149.847309
 31
0.0
  0
LINE
  5
656
330
1F
100
AcDbEntity
  8
002
 62
     3
370
    30
100
AcDbLine
 10
1140.361617
 20
147.852709
 30
0.0
 11
1126.569217
 21
146.842009
 31
0.0
  0
ARC
  5
657
330
1F
100
AcDbEntity
  8
002
 62
     3
370
    30
100
AcDbCircle
 10
1126.715417
 20
144.847309
 30
0.0
 40
2.000050631859067
100
AcDbArc
 50
94.191954
 51
265.807836
  0
LINE
  5
658
330
1F
100
AcDbEntity
  8
002
 62
     3
370
    30
100
AcDbLine
 10
1126.569217
 20
142.852709
 30
0.0
 11
1140.361617
 21
141.842009
 31
0.0
  0
ARC
  5
659
330
1F
100
AcDbEntity
  8
002
 62
     3
370
    30
100
AcDbCircle
 10
1140.215417
 20
139.847309
 30
0.0
 40
1.999950899397276
100
AcDbArc
 50
274.192164
 51
85.808046
  0
LINE
  5
65A
330
1F
100
AcDbEntity
  8
002
 62
     3
370
    30
100
AcDbLine
 10
1140.361617
 20
137.852709
 30
0.0
 11
1120.069217
 21
136.842009
 31
0.0
  0
ARC
  5
65B
330
1F
100
AcDbEntity
  8
002
 62
     3
370
    30
100
AcDbCircle
 10
1120.215417
 20
134.847309
 30
0.0
 40
2.000050631859067
100
AcDbArc
 50
94.191954
 51
180.0
  0
LINE
  5
65C
330
1F
100
AcDbEntity
  8
002
 62
     3
370
    30
100
AcDbLine
 10
1118.215417
 20
134.847309
 30
0.0
 11
1118.215417
 21
133.847309
 31
0.0
  0
LINE
  5
65D
330
1F
100
AcDbEntity
  8
002
 62
     3
370
    30
100
AcDbLine
 10
1119.215417
 20
133.847309
 30
0.0
 11
1119.215417
 21
120.847309
 31
0.0
  0
LINE
  5
65E
330
1F
100
AcDbEntity
  8
002
 62
     3
370
    30
100
AcDbLine
 10
1118.215417
 20
120.847309
 30
0.0
 11
1118.215417
 21
118.847309
 31
0.0
  0
LINE
  5
65F
330
1F
100
AcDbEntity
  8
002
 62
     3
370
    30
100
AcDbLine
 10
1091.215417
 20
118.847309
 30
0.0
 11
1091.215417
 21
120.847309
 31
0.0
  0
LINE
  5
660
330
1F
100
AcDbEntity
  8
002
 62
     3
370
    30
100
AcDbLine
 10
1090.215417
 20
120.847309
 30
0.0
 11
1127.215417
 21
120.847309
 31
0.0
  0
LINE
  5
661
330
1F
100
AcDbEntity
  8
002
 62
     3
370
    30
100
AcDbLine
 10
1130.215417
 20
123.847309
 30
0.0
 11
1130.215417
 21
130.847309
 31
0.0
  0
LINE
  5
662
330
1F
100
AcDbEntity
  8
002
 62
     3
370
    30
100
AcDbLine
 10
1127.215417
 20
133.847309
 30
0.0
 11
1090.215417
 21
133.847309
 31
0.0
  0
LINE
  5
663
330
1F
100
AcDbEntity
  8
002
 62
     3
370
    30
100
AcDbLine
 10
1090.215417
 20
133.847309
 30
0.0
 11
1090.215417
 21
120.847309
 31
0.0
  0
LINE
  5
664
330
1F
100
AcDbEntity
  8
002
 62
     3
370
    30
100
AcDbLine
 10
1091.215417
 20
118.847309
 30
0.0
 11
1118.215417
 21
118.847309
 31
0.0
  0
LINE
  5
665
330
1F
100
AcDbEntity
  8
002
 62
     3
370
    30
100
AcDbLine
 10
1112.564717
 20
118.847309
 30
0.0
 11
1112.564717
 21
115.847309
 31
0.0
  0
LINE
  5
666
330
1F
100
AcDbEntity
  8
002
 62
     3
370
    30
100
AcDbLine
 10
1113.714717
 20
115.847309
 30
0.0
 11
1113.714717
 21
96.847309
 31
0.0
  0
LINE
  5
667
330
1F
100
AcDbEntity
  8
002
 62
     3
370
    30
100
AcDbLine
 10
1113.714717
 20
96.847309
 30
0.0
 11
1095.714617
 21
96.847309
 31
0.0
  0
LINE
  5
668
330
1F
100
AcDbEntity
  8
002
 62
     3
370
    30
100
AcDbLine
 10
1095.714617
 20
96.847309
 30
0.0
 11
1095.714617
 21
115.847309
 31
0.0
  0
LINE
  5
669
330
1F
100
AcDbEntity
  8
002
 62
     3
370
    30
100
AcDbLine
 10
1095.714617
 20
115.847309
 30
0.0
 11
1113.714717
 21
115.847309
 31
0.0
  0
CIRCLE
  5
66A
330
1F
100
AcDbEntity
  8
002
 62
     3
370
    30
100
AcDbCircle
 10
1124.715417
 20
127.347309
 30
0.0
 40
1.0
  0
ARC
  5
66B
330
1F
100
AcDbEntity
  8
002
 62
     3
370
    30
100
AcDbCircle
 10
1127.215417
 20
123.847309
 30
0.0
 40
3.0
100
AcDbArc
 50
270.0
 51
0.0
  0
ARC
  5
66C
330
1F
100
AcDbEntity
  8
002
 62
     3
370
    30
100
AcDbCircle
 10
1127.215417
 20
130.847309
 30
0.0
 40
3.0
100
AcDbArc
 50
0.0
 51
90.0
  0
LINE
  5
66D
330
1F
100
AcDbEntity
  8
002
 62
     3
370
    30
100
AcDbLine
 10
1140.215417
 20
139.847309
 30
0.0
 11
1069.215417
 21
139.847309
 31
0.0
  0
LINE
  5
66E
330
1F
100
AcDbEntity
  8
002
 62
     3
370
    30
100
AcDbLine
 10
1069.069217
 20
141.842009
 30
0.0
 11
1082.861617
 21
142.852709
 31
0.0
  0
LINE
  5
66F
330
1F
100
AcDbEntity
  8
002
 62
     3
370
    30
100
AcDbLine
 10
1082.861617
 20
146.842009
 30
0.0
 11
1069.069217
 21
147.852709
 31
0.0
  0
ARC
  5
670
330
1F
100
AcDbEntity
  8
002
 62
     3
370
    30
100
AcDbCircle
 10
1069.215417
 20
149.847309
 30
0.0
 40
2.000050631859069
100
AcDbArc
 50
94.191954
 51
265.807836
  0
ARC
  5
671
330
1F
100
AcDbEntity
  8
002
 62
     3
370
    30
100
AcDbCircle
 10
1069.215417
 20
139.847309
 30
0.0
 40
2.000050631859069
100
AcDbArc
 50
94.191954
 51
265.807836
  0
LINE
  5
672
330
1F
100
AcDbEntity
  8
002
 62
     3
370
    30
100
AcDbLine
 10
1069.069217
 20
137.852709
 30
0.0
 11
1089.361617
 21
136.842009
 31
0.0
  0
ARC
  5
673
330
1F
100
AcDbEntity
  8
002
 62
     3
370
    30
100
AcDbCircle
 10
1089.215417
 20
134.847309
 30
0.0
 40
2.0
100
AcDbArc
 50
0.0
 51
85.808046
  0
LINE
  5
674
330
1F
100
AcDbEntity
  8
002
 62
     3
370
    30
100
AcDbLine
 10
1091.215417
 20
134.847309
 30
0.0
 11
1091.215417
 21
133.847309
 31
0.0
  0
LINE
  5
675
330
1F
100
AcDbEntity
  8
002
 62
     3
370
    30
100
AcDbLine
 10
1086.715417
 20
144.847309
 30
0.0
 11
1122.715417
 21
144.847309
 31
0.0
  0
LINE
  5
676
330
1F
100
AcDbEntity
  8
002
 62
     3
370
    30
100
AcDbLine
 10
1126.569217
 20
152.852709
 30
0.0
 11
1140.361617
 21
151.842009
 31
0.0
  0
ARC
  5
677
330
1F
100
AcDbEntity
  8
002
 62
     3
370
    30
100
AcDbCircle
 10
1140.215417
 20
149.847309
 30
0.0
 40
1.999950899397276
100
AcDbArc
 50
274.192164
 51
85.808046
  0
ARC
  5
678
330
1F
100
AcDbEntity
  8
002
 62
     3
370
    30
100
AcDbCircle
 10
1126.715417
 20
154.847309
 30
0.0
 40
2.0
100
AcDbArc
 50
180.0
 51
265.807836
  0
ARC
  5
679
330
1F
100
AcDbEntity
  8
002
 62
     3
370
    30
100
AcDbCircle
 10
1082.715417
 20
144.847309
 30
0.0
 40
1.999950899397273
100
AcDbArc
 50
274.192164
 51
85.808046
  0
LINE
  5
67A
330
1F
100
AcDbEntity
  8
002
 62
     3
370
    30
100
AcDbLine
 10
1096.864717
 20
118.847309
 30
0.0
 11
1096.864717
 21
115.847309
 31
0.0
  0
LINE
  5
67B
330
1F
100
AcDbEntity
  8
002
 62
    40
370
     9
100
AcDbLine
 10
1096.764717
 20
96.847309
 30
0.0
 11
1096.764717
 21
115.847309
 31
0.0
  0
LINE
  5
67C
330
1F
100
AcDbEntity
  8
002
 62
    40
370
     9
100
AcDbLine
 10
1112.664717
 20
115.847309
 30
0.0
 11
1112.664717
 21
96.847309
 31
0.0
  0
LINE
  5
67D
330
1F
100
AcDbEntity
  8
002
  6
CENTER
 62
    40
370
     9
100
AcDbLine
 10
1122.459617
 20
127.347309
 30
0.0
 11
1127.060317
 21
127.347309
 31
0.0
  0
LINE
  5
67E
330
1F
100
AcDbEntity
  8
002
  6
CENTER
 62
    40
370
     9
100
AcDbLine
 10
1124.715417
 20
125.476409
 30
0.0
 11
1124.715417
 21
129.447509
 31
0.0
  0
LINE
  5
67F
330
1F
100
AcDbEntity
  8
002
  6
CENTER
 62
    40
370
     9
100
AcDbLine
 10
1134.715417
 20
246.791609
 30
0.0
 11
1134.715417
 21
226.819709
 31
0.0
  0
LINE
  5
680
330
1F
100
AcDbEntity
  8
002
  6
CENTER
 62
    40
370
     9
100
AcDbLine
 10
1136.715417
 20
226.847509
 30
0.0
 11
1136.715417
 21
222.876409
 31
0.0
  0
LINE
  5
681
330
1F
100
AcDbEntity
  8
002
  6
CENTER
 62
    40
370
     9
100
AcDbLine
 10
1134.459617
 20
224.747309
 30
0.0
 11
1139.060317
 21
224.747309
 31
0.0
  0
LINE
  5
682
330
1F
100
AcDbEntity
  8
002
  6
CENTER
 62
    40
370
     9
100
AcDbLine
 10
1074.715417
 20
226.819709
 30
0.0
 11
1074.715417
 21
246.791609
 31
0.0
  0
LINE
  5
683
330
1F
100
AcDbEntity
  8
002
  6
PHANTOM
 62
    40
370
     9
100
AcDbLine
 10
1067.215417
 20
202.247309
 30
0.0
 11
1067.215417
 21
149.847309
 31
0.0
  0
LINE
  5
684
330
1F
100
AcDbEntity
  8
002
  6
PHANTOM
 62
    40
370
     9
100
AcDbLine
 10
1084.715417
 20
154.847309
 30
0.0
 11
1084.715417
 21
197.247309
 31
0.0
  0
LINE
  5
685
330
1F
100
AcDbEntity
  8
002
  6
PHANTOM
 62
    40
370
     9
100
AcDbLine
 10
1124.715417
 20
154.847309
 30
0.0
 11
1124.715417
 21
197.247309
 31
0.0
  0
LINE
  5
686
330
1F
100
AcDbEntity
  8
002
  6
PHANTOM
 62
    40
370
     9
100
AcDbLine
 10
1142.215417
 20
202.247309
 30
0.0
 11
1142.215417
 21
149.847309
 31
0.0
  0
POLYLINE
  5
687
330
1F
100
AcDbEntity
  8
002
 62
     3
370
     9
100
AcDb2dPolyline
 66
     1
 10
0.0
 20
0.0
 30
0.0
  0
VERTEX
  5
689
330
687
100
AcDbEntity
  8
002
 62
     3
370
     9
100
AcDbVertex
100
AcDb2dVertex
 10
167.54471
 20
459.047309
 30
0.0
  0
VERTEX
  5
68A
330
687
100
AcDbEntity
  8
002
 62
     3
370
     9
100
AcDbVertex
100
AcDb2dVertex
 10
169.10721
 20
456.844184
 30
0.0
  0
VERTEX
  5
68B
330
687
100
AcDbEntity
  8
002
 62
     3
370
     9
100
AcDbVertex
100
AcDb2dVertex
 10
170.66971
 20
454.922309
 30
0.0
  0
VERTEX
  5
68C
330
687
100
AcDbEntity
  8
002
 62
     3
370
     9
100
AcDbVertex
100
AcDb2dVertex
 10
172.23221
 20
453.562934
 30
0.0
  0
VERTEX
  5
68D
330
687
100
AcDbEntity
  8
002
 62
     3
370
     9
100
AcDbVertex
100
AcDb2dVertex
 10
173.79471
 20
453.047309
 30
0.0
  0
VERTEX
  5
68E
330
687
100
AcDbEntity
  8
002
 62
     3
370
     9
100
AcDbVertex
100
AcDb2dVertex
 10
175.35721
 20
453.562934
 30
0.0
  0
VERTEX
  5
68F
330
687
100
AcDbEntity
  8
002
 62
     3
370
     9
100
AcDbVertex
100
AcDb2dVertex
 10
176.91971
 20
454.922309
 30
0.0
  0
VERTEX
  5
690
330
687
100
AcDbEntity
  8
002
 62
     3
370
     9
100
AcDbVertex
100
AcDb2dVertex
 10
178.48221
 20
456.844184
 30
0.0
  0
VERTEX
  5
691
330
687
100
AcDbEntity
  8
002
 62
     3
370
     9
100
AcDbVertex
100
AcDb2dVertex
 10
180.04471
 20
459.047309
 30
0.0
  0
VERTEX
  5
692
330
687
100
AcDbEntity
  8
002
 62
     3
370
     9
100
AcDbVertex
100
AcDb2dVertex
 10
181.60721
 20
461.250434
 30
0.0
  0
VERTEX
  5
693
330
687
100
AcDbEntity
  8
002
 62
     3
370
     9
100
AcDbVertex
100
AcDb2dVertex
 10
183.16971
 20
463.172309
 30
0.0
  0
VERTEX
  5
694
330
687
100
AcDbEntity
  8
002
 62
     3
370
     9
100
AcDbVertex
100
AcDb2dVertex
 10
184.73221
 20
464.531684
 30
0.0
  0
VERTEX
  5
695
330
687
100
AcDbEntity
  8
002
 62
     3
370
     9
100
AcDbVertex
100
AcDb2dVertex
 10
186.29471
 20
465.047309
 30
0.0
  0
VERTEX
  5
696
330
687
100
AcDbEntity
  8
002
 62
     3
370
     9
100
AcDbVertex
100
AcDb2dVertex
 10
187.85721
 20
464.531684
 30
0.0
  0
VERTEX
  5
697
330
687
100
AcDbEntity
  8
002
 62
     3
370
     9
100
AcDbVertex
100
AcDb2dVertex
 10
189.41971
 20
463.172309
 30
0.0
  0
VERTEX
  5
698
330
687
100
AcDbEntity
  8
002
 62
     3
370
     9
100
AcDbVertex
100
AcDb2dVertex
 10
190.98221
 20
461.250434
 30
0.0
  0
VERTEX
  5
699
330
687
100
AcDbEntity
  8
002
 62
     3
370
     9
100
AcDbVertex
100
AcDb2dVertex
 10
192.54471
 20
459.047309
 30
0.0
  0
SEQEND
  5
688
330
687
100
AcDbEntity
  8
002
370
     9
  0
POLYLINE
  5
69A
330
1F
100
AcDbEntity
  8
002
 62
     3
370
     9
100
AcDb2dPolyline
 66
     1
 10
0.0
 20
0.0
 30
0.0
  0
VERTEX
  5
69C
330
69A
100
AcDbEntity
  8
002
 62
     3
370
     9
100
AcDbVertex
100
AcDb2dVertex
 10
167.54471
 20
471.047309
 30
0.0
  0
VERTEX
  5
69D
330
69A
100
AcDbEntity
  8
002
 62
     3
370
     9
100
AcDbVertex
100
AcDb2dVertex
 10
169.10721
 20
468.844184
 30
0.0
  0
VERTEX
  5
69E
330
69A
100
AcDbEntity
  8
002
 62
     3
370
     9
100
AcDbVertex
100
AcDb2dVertex
 10
170.66971
 20
466.922309
 30
0.0
  0
VERTEX
  5
69F
330
69A
100
AcDbEntity
  8
002
 62
     3
370
     9
100
AcDbVertex
100
AcDb2dVertex
 10
172.23221
 20
465.562934
 30
0.0
  0
VERTEX
  5
6A0
330
69A
100
AcDbEntity
  8
002
 62
     3
370
     9
100
AcDbVertex
100
AcDb2dVertex
 10
173.79471
 20
465.047309
 30
0.0
  0
VERTEX
  5
6A1
330
69A
100
AcDbEntity
  8
002
 62
     3
370
     9
100
AcDbVertex
100
AcDb2dVertex
 10
175.35721
 20
465.562934
 30
0.0
  0
VERTEX
  5
6A2
330
69A
100
AcDbEntity
  8
002
 62
     3
370
     9
100
AcDbVertex
100
AcDb2dVertex
 10
176.91971
 20
466.922309
 30
0.0
  0
VERTEX
  5
6A3
330
69A
100
AcDbEntity
  8
002
 62
     3
370
     9
100
AcDbVertex
100
AcDb2dVertex
 10
178.48221
 20
468.844184
 30
0.0
  0
VERTEX
  5
6A4
330
69A
100
AcDbEntity
  8
002
 62
     3
370
     9
100
AcDbVertex
100
AcDb2dVertex
 10
180.04471
 20
471.047309
 30
0.0
  0
VERTEX
  5
6A5
330
69A
100
AcDbEntity
  8
002
 62
     3
370
     9
100
AcDbVertex
100
AcDb2dVertex
 10
181.60721
 20
473.250434
 30
0.0
  0
VERTEX
  5
6A6
330
69A
100
AcDbEntity
  8
002
 62
     3
370
     9
100
AcDbVertex
100
AcDb2dVertex
 10
183.16971
 20
475.172309
 30
0.0
  0
VERTEX
  5
6A7
330
69A
100
AcDbEntity
  8
002
 62
     3
370
     9
100
AcDbVertex
100
AcDb2dVertex
 10
184.73221
 20
476.531684
 30
0.0
  0
VERTEX
  5
6A8
330
69A
100
AcDbEntity
  8
002
 62
     3
370
     9
100
AcDbVertex
100
AcDb2dVertex
 10
186.29471
 20
477.047309
 30
0.0
  0
VERTEX
  5
6A9
330
69A
100
AcDbEntity
  8
002
 62
     3
370
     9
100
AcDbVertex
100
AcDb2dVertex
 10
187.85721
 20
476.531684
 30
0.0
  0
VERTEX
  5
6AA
330
69A
100
AcDbEntity
  8
002
 62
     3
370
     9
100
AcDbVertex
100
AcDb2dVertex
 10
189.41971
 20
475.172309
 30
0.0
  0
VERTEX
  5
6AB
330
69A
100
AcDbEntity
  8
002
 62
     3
370
     9
100
AcDbVertex
100
AcDb2dVertex
 10
190.98221
 20
473.250434
 30
0.0
  0
VERTEX
  5
6AC
330
69A
100
AcDbEntity
  8
002
 62
     3
370
     9
100
AcDbVertex
100
AcDb2dVertex
 10
192.54471
 20
471.047309
 30
0.0
  0
SEQEND
  5
69B
330
69A
100
AcDbEntity
  8
002
370
     9
  0
LINE
  5
6AD
330
1F
100
AcDbEntity
  8
002
 62
     3
370
    30
100
AcDbLine
 10
167.54471
 20
523.547309
 30
0.0
 11
167.54471
 21
471.047309
 31
0.0
  0
LINE
  5
6AE
330
1F
100
AcDbEntity
  8
002
 62
     3
370
    30
100
AcDbLine
 10
167.54471
 20
459.047309
 30
0.0
 11
167.54471
 21
406.547309
 31
0.0
  0
LINE
  5
6AF
330
1F
100
AcDbEntity
  8
002
 62
     3
370
    30
100
AcDbLine
 10
192.54471
 20
406.547309
 30
0.0
 11
192.54471
 21
459.047309
 31
0.0
  0
LINE
  5
6B0
330
1F
100
AcDbEntity
  8
002
 62
     3
370
    30
100
AcDbLine
 10
192.54471
 20
471.047309
 30
0.0
 11
192.54471
 21
523.547309
 31
0.0
  0
LINE
  5
6B1
330
1F
100
AcDbEntity
  8
002
 62
    40
370
     9
100
AcDbLine
 10
190.99461
 20
406.547309
 30
0.0
 11
190.99461
 21
461.233685
 31
0.0
  0
LINE
  5
6B2
330
1F
100
AcDbEntity
  8
002
 62
    40
370
     9
100
AcDbLine
 10
190.99461
 20
473.233685
 30
0.0
 11
190.99461
 21
523.547309
 31
0.0
  0
LINE
  5
6B3
330
1F
100
AcDbEntity
  8
002
 62
    40
370
     9
100
AcDbLine
 10
169.09461
 20
523.547309
 30
0.0
 11
169.09461
 21
468.861203
 31
0.0
  0
LINE
  5
6B4
330
1F
100
AcDbEntity
  8
002
 62
    40
370
     9
100
AcDbLine
 10
169.09461
 20
456.861203
 30
0.0
 11
169.09461
 21
406.547309
 31
0.0
  0
POLYLINE
  5
6B5
330
1F
100
AcDbEntity
  8
002
 62
     3
370
     9
100
AcDb2dPolyline
 66
     1
 10
0.0
 20
0.0
 30
0.0
  0
VERTEX
  5
6B7
330
6B5
100
AcDbEntity
  8
002
 62
     3
370
     9
100
AcDbVertex
100
AcDb2dVertex
 10
398.81171
 20
459.047309
 30
0.0
  0
VERTEX
  5
6B8
330
6B5
100
AcDbEntity
  8
002
 62
     3
370
     9
100
AcDbVertex
100
AcDb2dVertex
 10
400.37421
 20
456.844184
 30
0.0
  0
VERTEX
  5
6B9
330
6B5
100
AcDbEntity
  8
002
 62
     3
370
     9
100
AcDbVertex
100
AcDb2dVertex
 10
401.93671
 20
454.922309
 30
0.0
  0
VERTEX
  5
6BA
330
6B5
100
AcDbEntity
  8
002
 62
     3
370
     9
100
AcDbVertex
100
AcDb2dVertex
 10
403.49921
 20
453.562934
 30
0.0
  0
VERTEX
  5
6BB
330
6B5
100
AcDbEntity
  8
002
 62
     3
370
     9
100
AcDbVertex
100
AcDb2dVertex
 10
405.06171
 20
453.047309
 30
0.0
  0
VERTEX
  5
6BC
330
6B5
100
AcDbEntity
  8
002
 62
     3
370
     9
100
AcDbVertex
100
AcDb2dVertex
 10
406.62421
 20
453.562934
 30
0.0
  0
VERTEX
  5
6BD
330
6B5
100
AcDbEntity
  8
002
 62
     3
370
     9
100
AcDbVertex
100
AcDb2dVertex
 10
408.18671
 20
454.922309
 30
0.0
  0
VERTEX
  5
6BE
330
6B5
100
AcDbEntity
  8
002
 62
     3
370
     9
100
AcDbVertex
100
AcDb2dVertex
 10
409.74921
 20
456.844184
 30
0.0
  0
VERTEX
  5
6BF
330
6B5
100
AcDbEntity
  8
002
 62
     3
370
     9
100
AcDbVertex
100
AcDb2dVertex
 10
411.31171
 20
459.047309
 30
0.0
  0
VERTEX
  5
6C0
330
6B5
100
AcDbEntity
  8
002
 62
     3
370
     9
100
AcDbVertex
100
AcDb2dVertex
 10
412.87421
 20
461.250434
 30
0.0
  0
VERTEX
  5
6C1
330
6B5
100
AcDbEntity
  8
002
 62
     3
370
     9
100
AcDbVertex
100
AcDb2dVertex
 10
414.43671
 20
463.172309
 30
0.0
  0
VERTEX
  5
6C2
330
6B5
100
AcDbEntity
  8
002
 62
     3
370
     9
100
AcDbVertex
100
AcDb2dVertex
 10
415.99921
 20
464.531684
 30
0.0
  0
VERTEX
  5
6C3
330
6B5
100
AcDbEntity
  8
002
 62
     3
370
     9
100
AcDbVertex
100
AcDb2dVertex
 10
417.56171
 20
465.047309
 30
0.0
  0
VERTEX
  5
6C4
330
6B5
100
AcDbEntity
  8
002
 62
     3
370
     9
100
AcDbVertex
100
AcDb2dVertex
 10
419.12421
 20
464.531684
 30
0.0
  0
VERTEX
  5
6C5
330
6B5
100
AcDbEntity
  8
002
 62
     3
370
     9
100
AcDbVertex
100
AcDb2dVertex
 10
420.68671
 20
463.172309
 30
0.0
  0
VERTEX
  5
6C6
330
6B5
100
AcDbEntity
  8
002
 62
     3
370
     9
100
AcDbVertex
100
AcDb2dVertex
 10
422.24921
 20
461.250434
 30
0.0
  0
VERTEX
  5
6C7
330
6B5
100
AcDbEntity
  8
002
 62
     3
370
     9
100
AcDbVertex
100
AcDb2dVertex
 10
423.81171
 20
459.047309
 30
0.0
  0
SEQEND
  5
6B6
330
6B5
100
AcDbEntity
  8
002
370
     9
  0
POLYLINE
  5
6C8
330
1F
100
AcDbEntity
  8
002
 62
     3
370
     9
100
AcDb2dPolyline
 66
     1
 10
0.0
 20
0.0
 30
0.0
  0
VERTEX
  5
6CA
330
6C8
100
AcDbEntity
  8
002
 62
     3
370
     9
100
AcDbVertex
100
AcDb2dVertex
 10
398.81171
 20
471.047309
 30
0.0
  0
VERTEX
  5
6CB
330
6C8
100
AcDbEntity
  8
002
 62
     3
370
     9
100
AcDbVertex
100
AcDb2dVertex
 10
400.37421
 20
468.844184
 30
0.0
  0
VERTEX
  5
6CC
330
6C8
100
AcDbEntity
  8
002
 62
     3
370
     9
100
AcDbVertex
100
AcDb2dVertex
 10
401.93671
 20
466.922309
 30
0.0
  0
VERTEX
  5
6CD
330
6C8
100
AcDbEntity
  8
002
 62
     3
370
     9
100
AcDbVertex
100
AcDb2dVertex
 10
403.49921
 20
465.562934
 30
0.0
  0
VERTEX
  5
6CE
330
6C8
100
AcDbEntity
  8
002
 62
     3
370
     9
100
AcDbVertex
100
AcDb2dVertex
 10
405.06171
 20
465.047309
 30
0.0
  0
VERTEX
  5
6CF
330
6C8
100
AcDbEntity
  8
002
 62
     3
370
     9
100
AcDbVertex
100
AcDb2dVertex
 10
406.62421
 20
465.562934
 30
0.0
  0
VERTEX
  5
6D0
330
6C8
100
AcDbEntity
  8
002
 62
     3
370
     9
100
AcDbVertex
100
AcDb2dVertex
 10
408.18671
 20
466.922309
 30
0.0
  0
VERTEX
  5
6D1
330
6C8
100
AcDbEntity
  8
002
 62
     3
370
     9
100
AcDbVertex
100
AcDb2dVertex
 10
409.74921
 20
468.844184
 30
0.0
  0
VERTEX
  5
6D2
330
6C8
100
AcDbEntity
  8
002
 62
     3
370
     9
100
AcDbVertex
100
AcDb2dVertex
 10
411.31171
 20
471.047309
 30
0.0
  0
VERTEX
  5
6D3
330
6C8
100
AcDbEntity
  8
002
 62
     3
370
     9
100
AcDbVertex
100
AcDb2dVertex
 10
412.87421
 20
473.250434
 30
0.0
  0
VERTEX
  5
6D4
330
6C8
100
AcDbEntity
  8
002
 62
     3
370
     9
100
AcDbVertex
100
AcDb2dVertex
 10
414.43671
 20
475.172309
 30
0.0
  0
VERTEX
  5
6D5
330
6C8
100
AcDbEntity
  8
002
 62
     3
370
     9
100
AcDbVertex
100
AcDb2dVertex
 10
415.99921
 20
476.531684
 30
0.0
  0
VERTEX
  5
6D6
330
6C8
100
AcDbEntity
  8
002
 62
     3
370
     9
100
AcDbVertex
100
AcDb2dVertex
 10
417.56171
 20
477.047309
 30
0.0
  0
VERTEX
  5
6D7
330
6C8
100
AcDbEntity
  8
002
 62
     3
370
     9
100
AcDbVertex
100
AcDb2dVertex
 10
419.12421
 20
476.531684
 30
0.0
  0
VERTEX
  5
6D8
330
6C8
100
AcDbEntity
  8
002
 62
     3
370
     9
100
AcDbVertex
100
AcDb2dVertex
 10
420.68671
 20
475.172309
 30
0.0
  0
VERTEX
  5
6D9
330
6C8
100
AcDbEntity
  8
002
 62
     3
370
     9
100
AcDbVertex
100
AcDb2dVertex
 10
422.24921
 20
473.250434
 30
0.0
  0
VERTEX
  5
6DA
330
6C8
100
AcDbEntity
  8
002
 62
     3
370
     9
100
AcDbVertex
100
AcDb2dVertex
 10
423.81171
 20
471.047309
 30
0.0
  0
SEQEND
  5
6C9
330
6C8
100
AcDbEntity
  8
002
370
     9
  0
LINE
  5
6DB
330
1F
100
AcDbEntity
  8
002
 62
    40
370
     9
100
AcDbLine
 10
422.26161
 20
406.547309
 30
0.0
 11
422.26161
 21
461.233685
 31
0.0
  0
LINE
  5
6DC
330
1F
100
AcDbEntity
  8
002
 62
    40
370
     9
100
AcDbLine
 10
422.26161
 20
473.233685
 30
0.0
 11
422.26161
 21
523.547309
 31
0.0
  0
LINE
  5
6DD
330
1F
100
AcDbEntity
  8
002
 62
    40
370
     9
100
AcDbLine
 10
400.36161
 20
523.547309
 30
0.0
 11
400.36161
 21
468.861203
 31
0.0
  0
LINE
  5
6DE
330
1F
100
AcDbEntity
  8
002
 62
    40
370
     9
100
AcDbLine
 10
400.36161
 20
456.861203
 30
0.0
 11
400.36161
 21
406.547309
 31
0.0
  0
LINE
  5
6DF
330
1F
100
AcDbEntity
  8
002
 62
     3
370
    30
100
AcDbLine
 10
398.81171
 20
523.547309
 30
0.0
 11
398.81171
 21
471.047309
 31
0.0
  0
LINE
  5
6E0
330
1F
100
AcDbEntity
  8
002
 62
     3
370
    30
100
AcDbLine
 10
398.81171
 20
459.047309
 30
0.0
 11
398.81171
 21
406.547309
 31
0.0
  0
LINE
  5
6E1
330
1F
100
AcDbEntity
  8
002
 62
     3
370
    30
100
AcDbLine
 10
423.81171
 20
406.547309
 30
0.0
 11
423.81171
 21
459.047309
 31
0.0
  0
LINE
  5
6E2
330
1F
100
AcDbEntity
  8
002
 62
     3
370
    30
100
AcDbLine
 10
423.81171
 20
471.047309
 30
0.0
 11
423.81171
 21
523.547309
 31
0.0
  0
POLYLINE
  5
6E3
330
1F
100
AcDbEntity
  8
002
 62
     3
370
     9
100
AcDb2dPolyline
 66
     1
 10
0.0
 20
0.0
 30
0.0
  0
VERTEX
  5
6E5
330
6E3
100
AcDbEntity
  8
002
 62
     3
370
     9
100
AcDbVertex
100
AcDb2dVertex
 10
875.715417
 20
492.547309
 30
0.0
  0
VERTEX
  5
6E6
330
6E3
100
AcDbEntity
  8
002
 62
     3
370
     9
100
AcDbVertex
100
AcDb2dVertex
 10
877.615417
 20
490.771309
 30
0.0
  0
VERTEX
  5
6E7
330
6E3
100
AcDbEntity
  8
002
 62
     3
370
     9
100
AcDbVertex
100
AcDb2dVertex
 10
879.515417
 20
489.139309
 30
0.0
  0
VERTEX
  5
6E8
330
6E3
100
AcDbEntity
  8
002
 62
     3
370
     9
100
AcDbVertex
100
AcDb2dVertex
 10
881.415417
 20
487.795309
 30
0.0
  0
VERTEX
  5
6E9
330
6E3
100
AcDbEntity
  8
002
 62
     3
370
     9
100
AcDbVertex
100
AcDb2dVertex
 10
883.315417
 20
486.883309
 30
0.0
  0
VERTEX
  5
6EA
330
6E3
100
AcDbEntity
  8
002
 62
     3
370
     9
100
AcDbVertex
100
AcDb2dVertex
 10
885.215417
 20
486.547309
 30
0.0
  0
VERTEX
  5
6EB
330
6E3
100
AcDbEntity
  8
002
 62
     3
370
     9
100
AcDbVertex
100
AcDb2dVertex
 10
887.115417
 20
486.883309
 30
0.0
  0
VERTEX
  5
6EC
330
6E3
100
AcDbEntity
  8
002
 62
     3
370
     9
100
AcDbVertex
100
AcDb2dVertex
 10
889.015417
 20
487.795309
 30
0.0
  0
VERTEX
  5
6ED
330
6E3
100
AcDbEntity
  8
002
 62
     3
370
     9
100
AcDbVertex
100
AcDb2dVertex
 10
890.915417
 20
489.139309
 30
0.0
  0
VERTEX
  5
6EE
330
6E3
100
AcDbEntity
  8
002
 62
     3
370
     9
100
AcDbVertex
100
AcDb2dVertex
 10
892.815417
 20
490.771309
 30
0.0
  0
VERTEX
  5
6EF
330
6E3
100
AcDbEntity
  8
002
 62
     3
370
     9
100
AcDbVertex
100
AcDb2dVertex
 10
894.715417
 20
492.547309
 30
0.0
  0
VERTEX
  5
6F0
330
6E3
100
AcDbEntity
  8
002
 62
     3
370
     9
100
AcDbVertex
100
AcDb2dVertex
 10
896.615417
 20
494.323309
 30
0.0
  0
VERTEX
  5
6F1
330
6E3
100
AcDbEntity
  8
002
 62
     3
370
     9
100
AcDbVertex
100
AcDb2dVertex
 10
898.515417
 20
495.955309
 30
0.0
  0
VERTEX
  5
6F2
330
6E3
100
AcDbEntity
  8
002
 62
     3
370
     9
100
AcDbVertex
100
AcDb2dVertex
 10
900.415417
 20
497.299309
 30
0.0
  0
VERTEX
  5
6F3
330
6E3
100
AcDbEntity
  8
002
 62
     3
370
     9
100
AcDbVertex
100
AcDb2dVertex
 10
902.315417
 20
498.211309
 30
0.0
  0
VERTEX
  5
6F4
330
6E3
100
AcDbEntity
  8
002
 62
     3
370
     9
100
AcDbVertex
100
AcDb2dVertex
 10
904.215417
 20
498.547309
 30
0.0
  0
VERTEX
  5
6F5
330
6E3
100
AcDbEntity
  8
002
 62
     3
370
     9
100
AcDbVertex
100
AcDb2dVertex
 10
906.115417
 20
498.211309
 30
0.0
  0
VERTEX
  5
6F6
330
6E3
100
AcDbEntity
  8
002
 62
     3
370
     9
100
AcDbVertex
100
AcDb2dVertex
 10
908.015417
 20
497.299309
 30
0.0
  0
VERTEX
  5
6F7
330
6E3
100
AcDbEntity
  8
002
 62
     3
370
     9
100
AcDbVertex
100
AcDb2dVertex
 10
909.915417
 20
495.955309
 30
0.0
  0
VERTEX
  5
6F8
330
6E3
100
AcDbEntity
  8
002
 62
     3
370
     9
100
AcDbVertex
100
AcDb2dVertex
 10
911.815417
 20
494.323309
 30
0.0
  0
VERTEX
  5
6F9
330
6E3
100
AcDbEntity
  8
002
 62
     3
370
     9
100
AcDbVertex
100
AcDb2dVertex
 10
913.715417
 20
492.547309
 30
0.0
  0
SEQEND
  5
6E4
330
6E3
100
AcDbEntity
  8
002
370
     9
  0
POLYLINE
  5
6FA
330
1F
100
AcDbEntity
  8
002
 62
     3
370
     9
100
AcDb2dPolyline
 66
     1
 10
0.0
 20
0.0
 30
0.0
  0
VERTEX
  5
6FC
330
6FA
100
AcDbEntity
  8
002
 62
     3
370
     9
100
AcDbVertex
100
AcDb2dVertex
 10
875.715417
 20
504.547309
 30
0.0
  0
VERTEX
  5
6FD
330
6FA
100
AcDbEntity
  8
002
 62
     3
370
     9
100
AcDbVertex
100
AcDb2dVertex
 10
877.615417
 20
502.771309
 30
0.0
  0
VERTEX
  5
6FE
330
6FA
100
AcDbEntity
  8
002
 62
     3
370
     9
100
AcDbVertex
100
AcDb2dVertex
 10
879.515417
 20
501.139309
 30
0.0
  0
VERTEX
  5
6FF
330
6FA
100
AcDbEntity
  8
002
 62
     3
370
     9
100
AcDbVertex
100
AcDb2dVertex
 10
881.415417
 20
499.795309
 30
0.0
  0
VERTEX
  5
700
330
6FA
100
AcDbEntity
  8
002
 62
     3
370
     9
100
AcDbVertex
100
AcDb2dVertex
 10
883.315417
 20
498.883309
 30
0.0
  0
VERTEX
  5
701
330
6FA
100
AcDbEntity
  8
002
 62
     3
370
     9
100
AcDbVertex
100
AcDb2dVertex
 10
885.215417
 20
498.547309
 30
0.0
  0
VERTEX
  5
702
330
6FA
100
AcDbEntity
  8
002
 62
     3
370
     9
100
AcDbVertex
100
AcDb2dVertex
 10
887.115417
 20
498.883309
 30
0.0
  0
VERTEX
  5
703
330
6FA
100
AcDbEntity
  8
002
 62
     3
370
     9
100
AcDbVertex
100
AcDb2dVertex
 10
889.015417
 20
499.795309
 30
0.0
  0
VERTEX
  5
704
330
6FA
100
AcDbEntity
  8
002
 62
     3
370
     9
100
AcDbVertex
100
AcDb2dVertex
 10
890.915417
 20
501.139309
 30
0.0
  0
VERTEX
  5
705
330
6FA
100
AcDbEntity
  8
002
 62
     3
370
     9
100
AcDbVertex
100
AcDb2dVertex
 10
892.815417
 20
502.771309
 30
0.0
  0
VERTEX
  5
706
330
6FA
100
AcDbEntity
  8
002
 62
     3
370
     9
100
AcDbVertex
100
AcDb2dVertex
 10
894.715417
 20
504.547309
 30
0.0
  0
VERTEX
  5
707
330
6FA
100
AcDbEntity
  8
002
 62
     3
370
     9
100
AcDbVertex
100
AcDb2dVertex
 10
896.615417
 20
506.323309
 30
0.0
  0
VERTEX
  5
708
330
6FA
100
AcDbEntity
  8
002
 62
     3
370
     9
100
AcDbVertex
100
AcDb2dVertex
 10
898.515417
 20
507.955309
 30
0.0
  0
VERTEX
  5
709
330
6FA
100
AcDbEntity
  8
002
 62
     3
370
     9
100
AcDbVertex
100
AcDb2dVertex
 10
900.415417
 20
509.299309
 30
0.0
  0
VERTEX
  5
70A
330
6FA
100
AcDbEntity
  8
002
 62
     3
370
     9
100
AcDbVertex
100
AcDb2dVertex
 10
902.315417
 20
510.211309
 30
0.0
  0
VERTEX
  5
70B
330
6FA
100
AcDbEntity
  8
002
 62
     3
370
     9
100
AcDbVertex
100
AcDb2dVertex
 10
904.215417
 20
510.547309
 30
0.0
  0
VERTEX
  5
70C
330
6FA
100
AcDbEntity
  8
002
 62
     3
370
     9
100
AcDbVertex
100
AcDb2dVertex
 10
906.115417
 20
510.211309
 30
0.0
  0
VERTEX
  5
70D
330
6FA
100
AcDbEntity
  8
002
 62
     3
370
     9
100
AcDbVertex
100
AcDb2dVertex
 10
908.015417
 20
509.299309
 30
0.0
  0
VERTEX
  5
70E
330
6FA
100
AcDbEntity
  8
002
 62
     3
370
     9
100
AcDbVertex
100
AcDb2dVertex
 10
909.915417
 20
507.955309
 30
0.0
  0
VERTEX
  5
70F
330
6FA
100
AcDbEntity
  8
002
 62
     3
370
     9
100
AcDbVertex
100
AcDb2dVertex
 10
911.815417
 20
506.323309
 30
0.0
  0
VERTEX
  5
710
330
6FA
100
AcDbEntity
  8
002
 62
     3
370
     9
100
AcDbVertex
100
AcDb2dVertex
 10
913.715417
 20
504.547309
 30
0.0
  0
SEQEND
  5
6FB
330
6FA
100
AcDbEntity
  8
002
370
     9
  0
LINE
  5
711
330
1F
100
AcDbEntity
  8
002
 62
     3
370
    30
100
AcDbLine
 10
913.715417
 20
540.547309
 30
0.0
 11
913.715417
 21
504.547309
 31
0.0
  0
LINE
  5
712
330
1F
100
AcDbEntity
  8
002
 62
     3
370
    30
100
AcDbLine
 10
913.715417
 20
492.547309
 30
0.0
 11
913.715417
 21
456.547309
 31
0.0
  0
LINE
  5
713
330
1F
100
AcDbEntity
  8
002
 62
     3
370
    30
100
AcDbLine
 10
875.715417
 20
456.547309
 30
0.0
 11
875.715417
 21
492.547309
 31
0.0
  0
LINE
  5
714
330
1F
100
AcDbEntity
  8
002
 62
     3
370
    30
100
AcDbLine
 10
875.715417
 20
504.547309
 30
0.0
 11
875.715417
 21
540.547309
 31
0.0
  0
POLYLINE
  5
715
330
1F
100
AcDbEntity
  8
002
 62
     3
370
     9
100
AcDb2dPolyline
 66
     1
 10
0.0
 20
0.0
 30
0.0
  0
VERTEX
  5
717
330
715
100
AcDbEntity
  8
002
 62
     3
370
     9
100
AcDbVertex
100
AcDb2dVertex
 10
1085.715417
 20
492.547309
 30
0.0
  0
VERTEX
  5
718
330
715
100
AcDbEntity
  8
002
 62
     3
370
     9
100
AcDbVertex
100
AcDb2dVertex
 10
1087.615417
 20
490.771309
 30
0.0
  0
VERTEX
  5
719
330
715
100
AcDbEntity
  8
002
 62
     3
370
     9
100
AcDbVertex
100
AcDb2dVertex
 10
1089.515417
 20
489.139309
 30
0.0
  0
VERTEX
  5
71A
330
715
100
AcDbEntity
  8
002
 62
     3
370
     9
100
AcDbVertex
100
AcDb2dVertex
 10
1091.415417
 20
487.795309
 30
0.0
  0
VERTEX
  5
71B
330
715
100
AcDbEntity
  8
002
 62
     3
370
     9
100
AcDbVertex
100
AcDb2dVertex
 10
1093.315417
 20
486.883309
 30
0.0
  0
VERTEX
  5
71C
330
715
100
AcDbEntity
  8
002
 62
     3
370
     9
100
AcDbVertex
100
AcDb2dVertex
 10
1095.215417
 20
486.547309
 30
0.0
  0
VERTEX
  5
71D
330
715
100
AcDbEntity
  8
002
 62
     3
370
     9
100
AcDbVertex
100
AcDb2dVertex
 10
1097.115417
 20
486.883309
 30
0.0
  0
VERTEX
  5
71E
330
715
100
AcDbEntity
  8
002
 62
     3
370
     9
100
AcDbVertex
100
AcDb2dVertex
 10
1099.015417
 20
487.795309
 30
0.0
  0
VERTEX
  5
71F
330
715
100
AcDbEntity
  8
002
 62
     3
370
     9
100
AcDbVertex
100
AcDb2dVertex
 10
1100.915417
 20
489.139309
 30
0.0
  0
VERTEX
  5
720
330
715
100
AcDbEntity
  8
002
 62
     3
370
     9
100
AcDbVertex
100
AcDb2dVertex
 10
1102.815417
 20
490.771309
 30
0.0
  0
VERTEX
  5
721
330
715
100
AcDbEntity
  8
002
 62
     3
370
     9
100
AcDbVertex
100
AcDb2dVertex
 10
1104.715417
 20
492.547309
 30
0.0
  0
VERTEX
  5
722
330
715
100
AcDbEntity
  8
002
 62
     3
370
     9
100
AcDbVertex
100
AcDb2dVertex
 10
1106.615417
 20
494.323309
 30
0.0
  0
VERTEX
  5
723
330
715
100
AcDbEntity
  8
002
 62
     3
370
     9
100
AcDbVertex
100
AcDb2dVertex
 10
1108.515417
 20
495.955309
 30
0.0
  0
VERTEX
  5
724
330
715
100
AcDbEntity
  8
002
 62
     3
370
     9
100
AcDbVertex
100
AcDb2dVertex
 10
1110.415417
 20
497.299309
 30
0.0
  0
VERTEX
  5
725
330
715
100
AcDbEntity
  8
002
 62
     3
370
     9
100
AcDbVertex
100
AcDb2dVertex
 10
1112.315417
 20
498.211309
 30
0.0
  0
VERTEX
  5
726
330
715
100
AcDbEntity
  8
002
 62
     3
370
     9
100
AcDbVertex
100
AcDb2dVertex
 10
1114.215417
 20
498.547309
 30
0.0
  0
VERTEX
  5
727
330
715
100
AcDbEntity
  8
002
 62
     3
370
     9
100
AcDbVertex
100
AcDb2dVertex
 10
1116.115417
 20
498.211309
 30
0.0
  0
VERTEX
  5
728
330
715
100
AcDbEntity
  8
002
 62
     3
370
     9
100
AcDbVertex
100
AcDb2dVertex
 10
1118.015417
 20
497.299309
 30
0.0
  0
VERTEX
  5
729
330
715
100
AcDbEntity
  8
002
 62
     3
370
     9
100
AcDbVertex
100
AcDb2dVertex
 10
1119.915417
 20
495.955309
 30
0.0
  0
VERTEX
  5
72A
330
715
100
AcDbEntity
  8
002
 62
     3
370
     9
100
AcDbVertex
100
AcDb2dVertex
 10
1121.815417
 20
494.323309
 30
0.0
  0
VERTEX
  5
72B
330
715
100
AcDbEntity
  8
002
 62
     3
370
     9
100
AcDbVertex
100
AcDb2dVertex
 10
1123.715417
 20
492.547309
 30
0.0
  0
SEQEND
  5
716
330
715
100
AcDbEntity
  8
002
370
     9
  0
POLYLINE
  5
72C
330
1F
100
AcDbEntity
  8
002
 62
     3
370
     9
100
AcDb2dPolyline
 66
     1
 10
0.0
 20
0.0
 30
0.0
  0
VERTEX
  5
72E
330
72C
100
AcDbEntity
  8
002
 62
     3
370
     9
100
AcDbVertex
100
AcDb2dVertex
 10
1085.715417
 20
504.547309
 30
0.0
  0
VERTEX
  5
72F
330
72C
100
AcDbEntity
  8
002
 62
     3
370
     9
100
AcDbVertex
100
AcDb2dVertex
 10
1087.615417
 20
502.771309
 30
0.0
  0
VERTEX
  5
730
330
72C
100
AcDbEntity
  8
002
 62
     3
370
     9
100
AcDbVertex
100
AcDb2dVertex
 10
1089.515417
 20
501.139309
 30
0.0
  0
VERTEX
  5
731
330
72C
100
AcDbEntity
  8
002
 62
     3
370
     9
100
AcDbVertex
100
AcDb2dVertex
 10
1091.415417
 20
499.795309
 30
0.0
  0
VERTEX
  5
732
330
72C
100
AcDbEntity
  8
002
 62
     3
370
     9
100
AcDbVertex
100
AcDb2dVertex
 10
1093.315417
 20
498.883309
 30
0.0
  0
VERTEX
  5
733
330
72C
100
AcDbEntity
  8
002
 62
     3
370
     9
100
AcDbVertex
100
AcDb2dVertex
 10
1095.215417
 20
498.547309
 30
0.0
  0
VERTEX
  5
734
330
72C
100
AcDbEntity
  8
002
 62
     3
370
     9
100
AcDbVertex
100
AcDb2dVertex
 10
1097.115417
 20
498.883309
 30
0.0
  0
VERTEX
  5
735
330
72C
100
AcDbEntity
  8
002
 62
     3
370
     9
100
AcDbVertex
100
AcDb2dVertex
 10
1099.015417
 20
499.795309
 30
0.0
  0
VERTEX
  5
736
330
72C
100
AcDbEntity
  8
002
 62
     3
370
     9
100
AcDbVertex
100
AcDb2dVertex
 10
1100.915417
 20
501.139309
 30
0.0
  0
VERTEX
  5
737
330
72C
100
AcDbEntity
  8
002
 62
     3
370
     9
100
AcDbVertex
100
AcDb2dVertex
 10
1102.815417
 20
502.771309
 30
0.0
  0
VERTEX
  5
738
330
72C
100
AcDbEntity
  8
002
 62
     3
370
     9
100
AcDbVertex
100
AcDb2dVertex
 10
1104.715417
 20
504.547309
 30
0.0
  0
VERTEX
  5
739
330
72C
100
AcDbEntity
  8
002
 62
     3
370
     9
100
AcDbVertex
100
AcDb2dVertex
 10
1106.615417
 20
506.323309
 30
0.0
  0
VERTEX
  5
73A
330
72C
100
AcDbEntity
  8
002
 62
     3
370
     9
100
AcDbVertex
100
AcDb2dVertex
 10
1108.515417
 20
507.955309
 30
0.0
  0
VERTEX
  5
73B
330
72C
100
AcDbEntity
  8
002
 62
     3
370
     9
100
AcDbVertex
100
AcDb2dVertex
 10
1110.415417
 20
509.299309
 30
0.0
  0
VERTEX
  5
73C
330
72C
100
AcDbEntity
  8
002
 62
     3
370
     9
100
AcDbVertex
100
AcDb2dVertex
 10
1112.315417
 20
510.211309
 30
0.0
  0
VERTEX
  5
73D
330
72C
100
AcDbEntity
  8
002
 62
     3
370
     9
100
AcDbVertex
100
AcDb2dVertex
 10
1114.215417
 20
510.547309
 30
0.0
  0
VERTEX
  5
73E
330
72C
100
AcDbEntity
  8
002
 62
     3
370
     9
100
AcDbVertex
100
AcDb2dVertex
 10
1116.115417
 20
510.211309
 30
0.0
  0
VERTEX
  5
73F
330
72C
100
AcDbEntity
  8
002
 62
     3
370
     9
100
AcDbVertex
100
AcDb2dVertex
 10
1118.015417
 20
509.299309
 30
0.0
  0
VERTEX
  5
740
330
72C
100
AcDbEntity
  8
002
 62
     3
370
     9
100
AcDbVertex
100
AcDb2dVertex
 10
1119.915417
 20
507.955309
 30
0.0
  0
VERTEX
  5
741
330
72C
100
AcDbEntity
  8
002
 62
     3
370
     9
100
AcDbVertex
100
AcDb2dVertex
 10
1121.815417
 20
506.323309
 30
0.0
  0
VERTEX
  5
742
330
72C
100
AcDbEntity
  8
002
 62
     3
370
     9
100
AcDbVertex
100
AcDb2dVertex
 10
1123.715417
 20
504.547309
 30
0.0
  0
SEQEND
  5
72D
330
72C
100
AcDbEntity
  8
002
370
     9
  0
LINE
  5
743
330
1F
100
AcDbEntity
  8
002
 62
     3
370
    30
100
AcDbLine
 10
1123.715417
 20
540.547309
 30
0.0
 11
1123.715417
 21
504.547309
 31
0.0
  0
LINE
  5
744
330
1F
100
AcDbEntity
  8
002
 62
     3
370
    30
100
AcDbLine
 10
1123.715417
 20
492.547309
 30
0.0
 11
1123.715417
 21
456.547309
 31
0.0
  0
LINE
  5
745
330
1F
100
AcDbEntity
  8
002
 62
     3
370
    30
100
AcDbLine
 10
1085.715417
 20
456.547309
 30
0.0
 11
1085.715417
 21
492.547309
 31
0.0
  0
LINE
  5
746
330
1F
100
AcDbEntity
  8
002
 62
     3
370
    30
100
AcDbLine
 10
1085.715417
 20
504.547309
 30
0.0
 11
1085.715417
 21
540.547309
 31
0.0
  0
POLYLINE
  5
747
330
1F
100
AcDbEntity
  8
002
 62
     3
370
     9
100
AcDb2dPolyline
 66
     1
 10
0.0
 20
0.0
 30
0.0
  0
VERTEX
  5
749
330
747
100
AcDbEntity
  8
002
 62
     3
370
     9
100
AcDbVertex
100
AcDb2dVertex
 10
907.215417
 20
182.547309
 30
0.0
  0
VERTEX
  5
74A
330
747
100
AcDbEntity
  8
002
 62
     3
370
     9
100
AcDbVertex
100
AcDb2dVertex
 10
905.652917
 20
184.750434
 30
0.0
  0
VERTEX
  5
74B
330
747
100
AcDbEntity
  8
002
 62
     3
370
     9
100
AcDbVertex
100
AcDb2dVertex
 10
904.090417
 20
186.672309
 30
0.0
  0
VERTEX
  5
74C
330
747
100
AcDbEntity
  8
002
 62
     3
370
     9
100
AcDbVertex
100
AcDb2dVertex
 10
902.527917
 20
188.031684
 30
0.0
  0
VERTEX
  5
74D
330
747
100
AcDbEntity
  8
002
 62
     3
370
     9
100
AcDbVertex
100
AcDb2dVertex
 10
900.965417
 20
188.547309
 30
0.0
  0
VERTEX
  5
74E
330
747
100
AcDbEntity
  8
002
 62
     3
370
     9
100
AcDbVertex
100
AcDb2dVertex
 10
899.402917
 20
188.031684
 30
0.0
  0
VERTEX
  5
74F
330
747
100
AcDbEntity
  8
002
 62
     3
370
     9
100
AcDbVertex
100
AcDb2dVertex
 10
897.840417
 20
186.672309
 30
0.0
  0
VERTEX
  5
750
330
747
100
AcDbEntity
  8
002
 62
     3
370
     9
100
AcDbVertex
100
AcDb2dVertex
 10
896.277917
 20
184.750434
 30
0.0
  0
VERTEX
  5
751
330
747
100
AcDbEntity
  8
002
 62
     3
370
     9
100
AcDbVertex
100
AcDb2dVertex
 10
894.715417
 20
182.547309
 30
0.0
  0
VERTEX
  5
752
330
747
100
AcDbEntity
  8
002
 62
     3
370
     9
100
AcDbVertex
100
AcDb2dVertex
 10
893.152917
 20
180.344184
 30
0.0
  0
VERTEX
  5
753
330
747
100
AcDbEntity
  8
002
 62
     3
370
     9
100
AcDbVertex
100
AcDb2dVertex
 10
891.590417
 20
178.422309
 30
0.0
  0
VERTEX
  5
754
330
747
100
AcDbEntity
  8
002
 62
     3
370
     9
100
AcDbVertex
100
AcDb2dVertex
 10
890.027917
 20
177.062934
 30
0.0
  0
VERTEX
  5
755
330
747
100
AcDbEntity
  8
002
 62
     3
370
     9
100
AcDbVertex
100
AcDb2dVertex
 10
888.465417
 20
176.547309
 30
0.0
  0
VERTEX
  5
756
330
747
100
AcDbEntity
  8
002
 62
     3
370
     9
100
AcDbVertex
100
AcDb2dVertex
 10
886.902917
 20
177.062934
 30
0.0
  0
VERTEX
  5
757
330
747
100
AcDbEntity
  8
002
 62
     3
370
     9
100
AcDbVertex
100
AcDb2dVertex
 10
885.340417
 20
178.422309
 30
0.0
  0
VERTEX
  5
758
330
747
100
AcDbEntity
  8
002
 62
     3
370
     9
100
AcDbVertex
100
AcDb2dVertex
 10
883.777917
 20
180.344184
 30
0.0
  0
VERTEX
  5
759
330
747
100
AcDbEntity
  8
002
 62
     3
370
     9
100
AcDbVertex
100
AcDb2dVertex
 10
882.215417
 20
182.547309
 30
0.0
  0
SEQEND
  5
748
330
747
100
AcDbEntity
  8
002
370
     9
  0
POLYLINE
  5
75A
330
1F
100
AcDbEntity
  8
002
 62
     3
370
     9
100
AcDb2dPolyline
 66
     1
 10
0.0
 20
0.0
 30
0.0
  0
VERTEX
  5
75C
330
75A
100
AcDbEntity
  8
002
 62
     3
370
     9
100
AcDbVertex
100
AcDb2dVertex
 10
907.215417
 20
170.547309
 30
0.0
  0
VERTEX
  5
75D
330
75A
100
AcDbEntity
  8
002
 62
     3
370
     9
100
AcDbVertex
100
AcDb2dVertex
 10
905.652917
 20
172.750434
 30
0.0
  0
VERTEX
  5
75E
330
75A
100
AcDbEntity
  8
002
 62
     3
370
     9
100
AcDbVertex
100
AcDb2dVertex
 10
904.090417
 20
174.672309
 30
0.0
  0
VERTEX
  5
75F
330
75A
100
AcDbEntity
  8
002
 62
     3
370
     9
100
AcDbVertex
100
AcDb2dVertex
 10
902.527917
 20
176.031684
 30
0.0
  0
VERTEX
  5
760
330
75A
100
AcDbEntity
  8
002
 62
     3
370
     9
100
AcDbVertex
100
AcDb2dVertex
 10
900.965417
 20
176.547309
 30
0.0
  0
VERTEX
  5
761
330
75A
100
AcDbEntity
  8
002
 62
     3
370
     9
100
AcDbVertex
100
AcDb2dVertex
 10
899.402917
 20
176.031684
 30
0.0
  0
VERTEX
  5
762
330
75A
100
AcDbEntity
  8
002
 62
     3
370
     9
100
AcDbVertex
100
AcDb2dVertex
 10
897.840417
 20
174.672309
 30
0.0
  0
VERTEX
  5
763
330
75A
100
AcDbEntity
  8
002
 62
     3
370
     9
100
AcDbVertex
100
AcDb2dVertex
 10
896.277917
 20
172.750434
 30
0.0
  0
VERTEX
  5
764
330
75A
100
AcDbEntity
  8
002
 62
     3
370
     9
100
AcDbVertex
100
AcDb2dVertex
 10
894.715417
 20
170.547309
 30
0.0
  0
VERTEX
  5
765
330
75A
100
AcDbEntity
  8
002
 62
     3
370
     9
100
AcDbVertex
100
AcDb2dVertex
 10
893.152917
 20
168.344184
 30
0.0
  0
VERTEX
  5
766
330
75A
100
AcDbEntity
  8
002
 62
     3
370
     9
100
AcDbVertex
100
AcDb2dVertex
 10
891.590417
 20
166.422309
 30
0.0
  0
VERTEX
  5
767
330
75A
100
AcDbEntity
  8
002
 62
     3
370
     9
100
AcDbVertex
100
AcDb2dVertex
 10
890.027917
 20
165.062934
 30
0.0
  0
VERTEX
  5
768
330
75A
100
AcDbEntity
  8
002
 62
     3
370
     9
100
AcDbVertex
100
AcDb2dVertex
 10
888.465417
 20
164.547309
 30
0.0
  0
VERTEX
  5
769
330
75A
100
AcDbEntity
  8
002
 62
     3
370
     9
100
AcDbVertex
100
AcDb2dVertex
 10
886.902917
 20
165.062934
 30
0.0
  0
VERTEX
  5
76A
330
75A
100
AcDbEntity
  8
002
 62
     3
370
     9
100
AcDbVertex
100
AcDb2dVertex
 10
885.340417
 20
166.422309
 30
0.0
  0
VERTEX
  5
76B
330
75A
100
AcDbEntity
  8
002
 62
     3
370
     9
100
AcDbVertex
100
AcDb2dVertex
 10
883.777917
 20
168.344184
 30
0.0
  0
VERTEX
  5
76C
330
75A
100
AcDbEntity
  8
002
 62
     3
370
     9
100
AcDbVertex
100
AcDb2dVertex
 10
882.215417
 20
170.547309
 30
0.0
  0
SEQEND
  5
75B
330
75A
100
AcDbEntity
  8
002
370
     9
  0
LINE
  5
76D
330
1F
100
AcDbEntity
  8
002
 62
     3
370
    30
100
AcDbLine
 10
907.215417
 20
235.547309
 30
0.0
 11
907.215417
 21
182.547309
 31
0.0
  0
LINE
  5
76E
330
1F
100
AcDbEntity
  8
002
 62
     3
370
    30
100
AcDbLine
 10
907.215417
 20
170.547309
 30
0.0
 11
907.215417
 21
117.547309
 31
0.0
  0
LINE
  5
76F
330
1F
100
AcDbEntity
  8
002
 62
     3
370
    30
100
AcDbLine
 10
882.215417
 20
117.547309
 30
0.0
 11
882.215417
 21
170.547309
 31
0.0
  0
LINE
  5
770
330
1F
100
AcDbEntity
  8
002
 62
     3
370
    30
100
AcDbLine
 10
882.215417
 20
182.547309
 30
0.0
 11
882.215417
 21
235.547309
 31
0.0
  0
LINE
  5
771
330
1F
100
AcDbEntity
  8
002
 62
    40
370
     9
100
AcDbLine
 10
905.665417
 20
235.547309
 30
0.0
 11
905.665417
 21
184.73355
 31
0.0
  0
LINE
  5
772
330
1F
100
AcDbEntity
  8
002
 62
    40
370
     9
100
AcDbLine
 10
905.665417
 20
172.73355
 30
0.0
 11
905.665417
 21
117.547209
 31
0.0
  0
LINE
  5
773
330
1F
100
AcDbEntity
  8
002
 62
    40
370
     9
100
AcDbLine
 10
883.765417
 20
117.547209
 30
0.0
 11
883.765417
 21
168.361068
 31
0.0
  0
LINE
  5
774
330
1F
100
AcDbEntity
  8
002
 62
    40
370
     9
100
AcDbLine
 10
883.765417
 20
180.361068
 30
0.0
 11
883.765417
 21
235.547309
 31
0.0
  0
POLYLINE
  5
775
330
1F
100
AcDbEntity
  8
002
 62
     3
370
     9
100
AcDb2dPolyline
 66
     1
 10
0.0
 20
0.0
 30
0.0
  0
VERTEX
  5
777
330
775
100
AcDbEntity
  8
002
 62
     3
370
     9
100
AcDbVertex
100
AcDb2dVertex
 10
701.882269
 20
149.047309
 30
0.0
  0
VERTEX
  5
778
330
775
100
AcDbEntity
  8
002
 62
     3
370
     9
100
AcDbVertex
100
AcDb2dVertex
 10
699.982269
 20
150.823309
 30
0.0
  0
VERTEX
  5
779
330
775
100
AcDbEntity
  8
002
 62
     3
370
     9
100
AcDbVertex
100
AcDb2dVertex
 10
698.082269
 20
152.455309
 30
0.0
  0
VERTEX
  5
77A
330
775
100
AcDbEntity
  8
002
 62
     3
370
     9
100
AcDbVertex
100
AcDb2dVertex
 10
696.182269
 20
153.799309
 30
0.0
  0
VERTEX
  5
77B
330
775
100
AcDbEntity
  8
002
 62
     3
370
     9
100
AcDbVertex
100
AcDb2dVertex
 10
694.282269
 20
154.711309
 30
0.0
  0
VERTEX
  5
77C
330
775
100
AcDbEntity
  8
002
 62
     3
370
     9
100
AcDbVertex
100
AcDb2dVertex
 10
692.382269
 20
155.047309
 30
0.0
  0
VERTEX
  5
77D
330
775
100
AcDbEntity
  8
002
 62
     3
370
     9
100
AcDbVertex
100
AcDb2dVertex
 10
690.482269
 20
154.711309
 30
0.0
  0
VERTEX
  5
77E
330
775
100
AcDbEntity
  8
002
 62
     3
370
     9
100
AcDbVertex
100
AcDb2dVertex
 10
688.582269
 20
153.799309
 30
0.0
  0
VERTEX
  5
77F
330
775
100
AcDbEntity
  8
002
 62
     3
370
     9
100
AcDbVertex
100
AcDb2dVertex
 10
686.682269
 20
152.455309
 30
0.0
  0
VERTEX
  5
780
330
775
100
AcDbEntity
  8
002
 62
     3
370
     9
100
AcDbVertex
100
AcDb2dVertex
 10
684.782269
 20
150.823309
 30
0.0
  0
VERTEX
  5
781
330
775
100
AcDbEntity
  8
002
 62
     3
370
     9
100
AcDbVertex
100
AcDb2dVertex
 10
682.882269
 20
149.047309
 30
0.0
  0
VERTEX
  5
782
330
775
100
AcDbEntity
  8
002
 62
     3
370
     9
100
AcDbVertex
100
AcDb2dVertex
 10
680.982269
 20
147.271309
 30
0.0
  0
VERTEX
  5
783
330
775
100
AcDbEntity
  8
002
 62
     3
370
     9
100
AcDbVertex
100
AcDb2dVertex
 10
679.082269
 20
145.639309
 30
0.0
  0
VERTEX
  5
784
330
775
100
AcDbEntity
  8
002
 62
     3
370
     9
100
AcDbVertex
100
AcDb2dVertex
 10
677.182269
 20
144.295309
 30
0.0
  0
VERTEX
  5
785
330
775
100
AcDbEntity
  8
002
 62
     3
370
     9
100
AcDbVertex
100
AcDb2dVertex
 10
675.282269
 20
143.383309
 30
0.0
  0
VERTEX
  5
786
330
775
100
AcDbEntity
  8
002
 62
     3
370
     9
100
AcDbVertex
100
AcDb2dVertex
 10
673.382269
 20
143.047309
 30
0.0
  0
VERTEX
  5
787
330
775
100
AcDbEntity
  8
002
 62
     3
370
     9
100
AcDbVertex
100
AcDb2dVertex
 10
671.482269
 20
143.383309
 30
0.0
  0
VERTEX
  5
788
330
775
100
AcDbEntity
  8
002
 62
     3
370
     9
100
AcDbVertex
100
AcDb2dVertex
 10
669.582269
 20
144.295309
 30
0.0
  0
VERTEX
  5
789
330
775
100
AcDbEntity
  8
002
 62
     3
370
     9
100
AcDbVertex
100
AcDb2dVertex
 10
667.682269
 20
145.639309
 30
0.0
  0
VERTEX
  5
78A
330
775
100
AcDbEntity
  8
002
 62
     3
370
     9
100
AcDbVertex
100
AcDb2dVertex
 10
665.782269
 20
147.271309
 30
0.0
  0
VERTEX
  5
78B
330
775
100
AcDbEntity
  8
002
 62
     3
370
     9
100
AcDbVertex
100
AcDb2dVertex
 10
663.882269
 20
149.047309
 30
0.0
  0
SEQEND
  5
776
330
775
100
AcDbEntity
  8
002
370
     9
  0
POLYLINE
  5
78C
330
1F
100
AcDbEntity
  8
002
 62
     3
370
     9
100
AcDb2dPolyline
 66
     1
 10
0.0
 20
0.0
 30
0.0
  0
VERTEX
  5
78E
330
78C
100
AcDbEntity
  8
002
 62
     3
370
     9
100
AcDbVertex
100
AcDb2dVertex
 10
701.882269
 20
137.047309
 30
0.0
  0
VERTEX
  5
78F
330
78C
100
AcDbEntity
  8
002
 62
     3
370
     9
100
AcDbVertex
100
AcDb2dVertex
 10
699.982269
 20
138.823309
 30
0.0
  0
VERTEX
  5
790
330
78C
100
AcDbEntity
  8
002
 62
     3
370
     9
100
AcDbVertex
100
AcDb2dVertex
 10
698.082269
 20
140.455309
 30
0.0
  0
VERTEX
  5
791
330
78C
100
AcDbEntity
  8
002
 62
     3
370
     9
100
AcDbVertex
100
AcDb2dVertex
 10
696.182269
 20
141.799309
 30
0.0
  0
VERTEX
  5
792
330
78C
100
AcDbEntity
  8
002
 62
     3
370
     9
100
AcDbVertex
100
AcDb2dVertex
 10
694.282269
 20
142.711309
 30
0.0
  0
VERTEX
  5
793
330
78C
100
AcDbEntity
  8
002
 62
     3
370
     9
100
AcDbVertex
100
AcDb2dVertex
 10
692.382269
 20
143.047309
 30
0.0
  0
VERTEX
  5
794
330
78C
100
AcDbEntity
  8
002
 62
     3
370
     9
100
AcDbVertex
100
AcDb2dVertex
 10
690.482269
 20
142.711309
 30
0.0
  0
VERTEX
  5
795
330
78C
100
AcDbEntity
  8
002
 62
     3
370
     9
100
AcDbVertex
100
AcDb2dVertex
 10
688.582269
 20
141.799309
 30
0.0
  0
VERTEX
  5
796
330
78C
100
AcDbEntity
  8
002
 62
     3
370
     9
100
AcDbVertex
100
AcDb2dVertex
 10
686.682269
 20
140.455309
 30
0.0
  0
VERTEX
  5
797
330
78C
100
AcDbEntity
  8
002
 62
     3
370
     9
100
AcDbVertex
100
AcDb2dVertex
 10
684.782269
 20
138.823309
 30
0.0
  0
VERTEX
  5
798
330
78C
100
AcDbEntity
  8
002
 62
     3
370
     9
100
AcDbVertex
100
AcDb2dVertex
 10
682.882269
 20
137.047309
 30
0.0
  0
VERTEX
  5
799
330
78C
100
AcDbEntity
  8
002
 62
     3
370
     9
100
AcDbVertex
100
AcDb2dVertex
 10
680.982269
 20
135.271309
 30
0.0
  0
VERTEX
  5
79A
330
78C
100
AcDbEntity
  8
002
 62
     3
370
     9
100
AcDbVertex
100
AcDb2dVertex
 10
679.082269
 20
133.639309
 30
0.0
  0
VERTEX
  5
79B
330
78C
100
AcDbEntity
  8
002
 62
     3
370
     9
100
AcDbVertex
100
AcDb2dVertex
 10
677.182269
 20
132.295309
 30
0.0
  0
VERTEX
  5
79C
330
78C
100
AcDbEntity
  8
002
 62
     3
370
     9
100
AcDbVertex
100
AcDb2dVertex
 10
675.282269
 20
131.383309
 30
0.0
  0
VERTEX
  5
79D
330
78C
100
AcDbEntity
  8
002
 62
     3
370
     9
100
AcDbVertex
100
AcDb2dVertex
 10
673.382269
 20
131.047309
 30
0.0
  0
VERTEX
  5
79E
330
78C
100
AcDbEntity
  8
002
 62
     3
370
     9
100
AcDbVertex
100
AcDb2dVertex
 10
671.482269
 20
131.383309
 30
0.0
  0
VERTEX
  5
79F
330
78C
100
AcDbEntity
  8
002
 62
     3
370
     9
100
AcDbVertex
100
AcDb2dVertex
 10
669.582269
 20
132.295309
 30
0.0
  0
VERTEX
  5
7A0
330
78C
100
AcDbEntity
  8
002
 62
     3
370
     9
100
AcDbVertex
100
AcDb2dVertex
 10
667.682269
 20
133.639309
 30
0.0
  0
VERTEX
  5
7A1
330
78C
100
AcDbEntity
  8
002
 62
     3
370
     9
100
AcDbVertex
100
AcDb2dVertex
 10
665.782269
 20
135.271309
 30
0.0
  0
VERTEX
  5
7A2
330
78C
100
AcDbEntity
  8
002
 62
     3
370
     9
100
AcDbVertex
100
AcDb2dVertex
 10
663.882269
 20
137.047309
 30
0.0
  0
SEQEND
  5
78D
330
78C
100
AcDbEntity
  8
002
370
     9
  0
LINE
  5
7A3
330
1F
100
AcDbEntity
  8
002
 62
     3
370
    30
100
AcDbLine
 10
663.882269
 20
185.547309
 30
0.0
 11
663.882269
 21
149.047309
 31
0.0
  0
LINE
  5
7A4
330
1F
100
AcDbEntity
  8
002
 62
     3
370
    30
100
AcDbLine
 10
663.882269
 20
137.047309
 30
0.0
 11
663.882269
 21
100.547309
 31
0.0
  0
LINE
  5
7A5
330
1F
100
AcDbEntity
  8
002
 62
     3
370
    30
100
AcDbLine
 10
701.882269
 20
100.547309
 30
0.0
 11
701.882269
 21
137.047309
 31
0.0
  0
LINE
  5
7A6
330
1F
100
AcDbEntity
  8
002
 62
     3
370
    30
100
AcDbLine
 10
701.882269
 20
149.047309
 30
0.0
 11
701.882269
 21
185.547309
 31
0.0
  0
POLYLINE
  5
7A7
330
1F
100
AcDbEntity
  8
002
 62
     3
370
     9
100
AcDb2dPolyline
 66
     1
 10
0.0
 20
0.0
 30
0.0
  0
VERTEX
  5
7A9
330
7A7
100
AcDbEntity
  8
002
 62
     3
370
     9
100
AcDbVertex
100
AcDb2dVertex
 10
430.31171
 20
149.047309
 30
0.0
  0
VERTEX
  5
7AA
330
7A7
100
AcDbEntity
  8
002
 62
     3
370
     9
100
AcDbVertex
100
AcDb2dVertex
 10
428.41171
 20
150.823309
 30
0.0
  0
VERTEX
  5
7AB
330
7A7
100
AcDbEntity
  8
002
 62
     3
370
     9
100
AcDbVertex
100
AcDb2dVertex
 10
426.51171
 20
152.455309
 30
0.0
  0
VERTEX
  5
7AC
330
7A7
100
AcDbEntity
  8
002
 62
     3
370
     9
100
AcDbVertex
100
AcDb2dVertex
 10
424.61171
 20
153.799309
 30
0.0
  0
VERTEX
  5
7AD
330
7A7
100
AcDbEntity
  8
002
 62
     3
370
     9
100
AcDbVertex
100
AcDb2dVertex
 10
422.71171
 20
154.711309
 30
0.0
  0
VERTEX
  5
7AE
330
7A7
100
AcDbEntity
  8
002
 62
     3
370
     9
100
AcDbVertex
100
AcDb2dVertex
 10
420.81171
 20
155.047309
 30
0.0
  0
VERTEX
  5
7AF
330
7A7
100
AcDbEntity
  8
002
 62
     3
370
     9
100
AcDbVertex
100
AcDb2dVertex
 10
418.91171
 20
154.711309
 30
0.0
  0
VERTEX
  5
7B0
330
7A7
100
AcDbEntity
  8
002
 62
     3
370
     9
100
AcDbVertex
100
AcDb2dVertex
 10
417.01171
 20
153.799309
 30
0.0
  0
VERTEX
  5
7B1
330
7A7
100
AcDbEntity
  8
002
 62
     3
370
     9
100
AcDbVertex
100
AcDb2dVertex
 10
415.11171
 20
152.455309
 30
0.0
  0
VERTEX
  5
7B2
330
7A7
100
AcDbEntity
  8
002
 62
     3
370
     9
100
AcDbVertex
100
AcDb2dVertex
 10
413.21171
 20
150.823309
 30
0.0
  0
VERTEX
  5
7B3
330
7A7
100
AcDbEntity
  8
002
 62
     3
370
     9
100
AcDbVertex
100
AcDb2dVertex
 10
411.31171
 20
149.047309
 30
0.0
  0
VERTEX
  5
7B4
330
7A7
100
AcDbEntity
  8
002
 62
     3
370
     9
100
AcDbVertex
100
AcDb2dVertex
 10
409.41171
 20
147.271309
 30
0.0
  0
VERTEX
  5
7B5
330
7A7
100
AcDbEntity
  8
002
 62
     3
370
     9
100
AcDbVertex
100
AcDb2dVertex
 10
407.51171
 20
145.639309
 30
0.0
  0
VERTEX
  5
7B6
330
7A7
100
AcDbEntity
  8
002
 62
     3
370
     9
100
AcDbVertex
100
AcDb2dVertex
 10
405.61171
 20
144.295309
 30
0.0
  0
VERTEX
  5
7B7
330
7A7
100
AcDbEntity
  8
002
 62
     3
370
     9
100
AcDbVertex
100
AcDb2dVertex
 10
403.71171
 20
143.383309
 30
0.0
  0
VERTEX
  5
7B8
330
7A7
100
AcDbEntity
  8
002
 62
     3
370
     9
100
AcDbVertex
100
AcDb2dVertex
 10
401.81171
 20
143.047309
 30
0.0
  0
VERTEX
  5
7B9
330
7A7
100
AcDbEntity
  8
002
 62
     3
370
     9
100
AcDbVertex
100
AcDb2dVertex
 10
399.91171
 20
143.383309
 30
0.0
  0
VERTEX
  5
7BA
330
7A7
100
AcDbEntity
  8
002
 62
     3
370
     9
100
AcDbVertex
100
AcDb2dVertex
 10
398.01171
 20
144.295309
 30
0.0
  0
VERTEX
  5
7BB
330
7A7
100
AcDbEntity
  8
002
 62
     3
370
     9
100
AcDbVertex
100
AcDb2dVertex
 10
396.11171
 20
145.639309
 30
0.0
  0
VERTEX
  5
7BC
330
7A7
100
AcDbEntity
  8
002
 62
     3
370
     9
100
AcDbVertex
100
AcDb2dVertex
 10
394.21171
 20
147.271309
 30
0.0
  0
VERTEX
  5
7BD
330
7A7
100
AcDbEntity
  8
002
 62
     3
370
     9
100
AcDbVertex
100
AcDb2dVertex
 10
392.31171
 20
149.047309
 30
0.0
  0
SEQEND
  5
7A8
330
7A7
100
AcDbEntity
  8
002
370
     9
  0
POLYLINE
  5
7BE
330
1F
100
AcDbEntity
  8
002
 62
     3
370
     9
100
AcDb2dPolyline
 66
     1
 10
0.0
 20
0.0
 30
0.0
  0
VERTEX
  5
7C0
330
7BE
100
AcDbEntity
  8
002
 62
     3
370
     9
100
AcDbVertex
100
AcDb2dVertex
 10
430.31171
 20
137.047309
 30
0.0
  0
VERTEX
  5
7C1
330
7BE
100
AcDbEntity
  8
002
 62
     3
370
     9
100
AcDbVertex
100
AcDb2dVertex
 10
428.41171
 20
138.823309
 30
0.0
  0
VERTEX
  5
7C2
330
7BE
100
AcDbEntity
  8
002
 62
     3
370
     9
100
AcDbVertex
100
AcDb2dVertex
 10
426.51171
 20
140.455309
 30
0.0
  0
VERTEX
  5
7C3
330
7BE
100
AcDbEntity
  8
002
 62
     3
370
     9
100
AcDbVertex
100
AcDb2dVertex
 10
424.61171
 20
141.799309
 30
0.0
  0
VERTEX
  5
7C4
330
7BE
100
AcDbEntity
  8
002
 62
     3
370
     9
100
AcDbVertex
100
AcDb2dVertex
 10
422.71171
 20
142.711309
 30
0.0
  0
VERTEX
  5
7C5
330
7BE
100
AcDbEntity
  8
002
 62
     3
370
     9
100
AcDbVertex
100
AcDb2dVertex
 10
420.81171
 20
143.047309
 30
0.0
  0
VERTEX
  5
7C6
330
7BE
100
AcDbEntity
  8
002
 62
     3
370
     9
100
AcDbVertex
100
AcDb2dVertex
 10
418.91171
 20
142.711309
 30
0.0
  0
VERTEX
  5
7C7
330
7BE
100
AcDbEntity
  8
002
 62
     3
370
     9
100
AcDbVertex
100
AcDb2dVertex
 10
417.01171
 20
141.799309
 30
0.0
  0
VERTEX
  5
7C8
330
7BE
100
AcDbEntity
  8
002
 62
     3
370
     9
100
AcDbVertex
100
AcDb2dVertex
 10
415.11171
 20
140.455309
 30
0.0
  0
VERTEX
  5
7C9
330
7BE
100
AcDbEntity
  8
002
 62
     3
370
     9
100
AcDbVertex
100
AcDb2dVertex
 10
413.21171
 20
138.823309
 30
0.0
  0
VERTEX
  5
7CA
330
7BE
100
AcDbEntity
  8
002
 62
     3
370
     9
100
AcDbVertex
100
AcDb2dVertex
 10
411.31171
 20
137.047309
 30
0.0
  0
VERTEX
  5
7CB
330
7BE
100
AcDbEntity
  8
002
 62
     3
370
     9
100
AcDbVertex
100
AcDb2dVertex
 10
409.41171
 20
135.271309
 30
0.0
  0
VERTEX
  5
7CC
330
7BE
100
AcDbEntity
  8
002
 62
     3
370
     9
100
AcDbVertex
100
AcDb2dVertex
 10
407.51171
 20
133.639309
 30
0.0
  0
VERTEX
  5
7CD
330
7BE
100
AcDbEntity
  8
002
 62
     3
370
     9
100
AcDbVertex
100
AcDb2dVertex
 10
405.61171
 20
132.295309
 30
0.0
  0
VERTEX
  5
7CE
330
7BE
100
AcDbEntity
  8
002
 62
     3
370
     9
100
AcDbVertex
100
AcDb2dVertex
 10
403.71171
 20
131.383309
 30
0.0
  0
VERTEX
  5
7CF
330
7BE
100
AcDbEntity
  8
002
 62
     3
370
     9
100
AcDbVertex
100
AcDb2dVertex
 10
401.81171
 20
131.047309
 30
0.0
  0
VERTEX
  5
7D0
330
7BE
100
AcDbEntity
  8
002
 62
     3
370
     9
100
AcDbVertex
100
AcDb2dVertex
 10
399.91171
 20
131.383309
 30
0.0
  0
VERTEX
  5
7D1
330
7BE
100
AcDbEntity
  8
002
 62
     3
370
     9
100
AcDbVertex
100
AcDb2dVertex
 10
398.01171
 20
132.295309
 30
0.0
  0
VERTEX
  5
7D2
330
7BE
100
AcDbEntity
  8
002
 62
     3
370
     9
100
AcDbVertex
100
AcDb2dVertex
 10
396.11171
 20
133.639309
 30
0.0
  0
VERTEX
  5
7D3
330
7BE
100
AcDbEntity
  8
002
 62
     3
370
     9
100
AcDbVertex
100
AcDb2dVertex
 10
394.21171
 20
135.271309
 30
0.0
  0
VERTEX
  5
7D4
330
7BE
100
AcDbEntity
  8
002
 62
     3
370
     9
100
AcDbVertex
100
AcDb2dVertex
 10
392.31171
 20
137.047309
 30
0.0
  0
SEQEND
  5
7BF
330
7BE
100
AcDbEntity
  8
002
370
     9
  0
LINE
  5
7D5
330
1F
100
AcDbEntity
  8
002
 62
     3
370
    30
100
AcDbLine
 10
392.31171
 20
185.547309
 30
0.0
 11
392.31171
 21
149.047309
 31
0.0
  0
LINE
  5
7D6
330
1F
100
AcDbEntity
  8
002
 62
     3
370
    30
100
AcDbLine
 10
392.31171
 20
137.047309
 30
0.0
 11
392.31171
 21
100.547309
 31
0.0
  0
LINE
  5
7D7
330
1F
100
AcDbEntity
  8
002
 62
     3
370
    30
100
AcDbLine
 10
430.31171
 20
100.547309
 30
0.0
 11
430.31171
 21
137.047309
 31
0.0
  0
LINE
  5
7D8
330
1F
100
AcDbEntity
  8
002
 62
     3
370
    30
100
AcDbLine
 10
430.31171
 20
149.047309
 30
0.0
 11
430.31171
 21
185.547309
 31
0.0
  0
POLYLINE
  5
7D9
330
1F
100
AcDbEntity
  8
002
 62
     3
370
     9
100
AcDb2dPolyline
 66
     1
 10
0.0
 20
0.0
 30
0.0
  0
VERTEX
  5
7DB
330
7D9
100
AcDbEntity
  8
002
 62
     3
370
     9
100
AcDbVertex
100
AcDb2dVertex
 10
199.04471
 20
149.047309
 30
0.0
  0
VERTEX
  5
7DC
330
7D9
100
AcDbEntity
  8
002
 62
     3
370
     9
100
AcDbVertex
100
AcDb2dVertex
 10
197.14471
 20
150.823309
 30
0.0
  0
VERTEX
  5
7DD
330
7D9
100
AcDbEntity
  8
002
 62
     3
370
     9
100
AcDbVertex
100
AcDb2dVertex
 10
195.24471
 20
152.455309
 30
0.0
  0
VERTEX
  5
7DE
330
7D9
100
AcDbEntity
  8
002
 62
     3
370
     9
100
AcDbVertex
100
AcDb2dVertex
 10
193.34471
 20
153.799309
 30
0.0
  0
VERTEX
  5
7DF
330
7D9
100
AcDbEntity
  8
002
 62
     3
370
     9
100
AcDbVertex
100
AcDb2dVertex
 10
191.44471
 20
154.711309
 30
0.0
  0
VERTEX
  5
7E0
330
7D9
100
AcDbEntity
  8
002
 62
     3
370
     9
100
AcDbVertex
100
AcDb2dVertex
 10
189.54471
 20
155.047309
 30
0.0
  0
VERTEX
  5
7E1
330
7D9
100
AcDbEntity
  8
002
 62
     3
370
     9
100
AcDbVertex
100
AcDb2dVertex
 10
187.64471
 20
154.711309
 30
0.0
  0
VERTEX
  5
7E2
330
7D9
100
AcDbEntity
  8
002
 62
     3
370
     9
100
AcDbVertex
100
AcDb2dVertex
 10
185.74471
 20
153.799309
 30
0.0
  0
VERTEX
  5
7E3
330
7D9
100
AcDbEntity
  8
002
 62
     3
370
     9
100
AcDbVertex
100
AcDb2dVertex
 10
183.84471
 20
152.455309
 30
0.0
  0
VERTEX
  5
7E4
330
7D9
100
AcDbEntity
  8
002
 62
     3
370
     9
100
AcDbVertex
100
AcDb2dVertex
 10
181.94471
 20
150.823309
 30
0.0
  0
VERTEX
  5
7E5
330
7D9
100
AcDbEntity
  8
002
 62
     3
370
     9
100
AcDbVertex
100
AcDb2dVertex
 10
180.04471
 20
149.047309
 30
0.0
  0
VERTEX
  5
7E6
330
7D9
100
AcDbEntity
  8
002
 62
     3
370
     9
100
AcDbVertex
100
AcDb2dVertex
 10
178.14471
 20
147.271309
 30
0.0
  0
VERTEX
  5
7E7
330
7D9
100
AcDbEntity
  8
002
 62
     3
370
     9
100
AcDbVertex
100
AcDb2dVertex
 10
176.24471
 20
145.639309
 30
0.0
  0
VERTEX
  5
7E8
330
7D9
100
AcDbEntity
  8
002
 62
     3
370
     9
100
AcDbVertex
100
AcDb2dVertex
 10
174.34471
 20
144.295309
 30
0.0
  0
VERTEX
  5
7E9
330
7D9
100
AcDbEntity
  8
002
 62
     3
370
     9
100
AcDbVertex
100
AcDb2dVertex
 10
172.44471
 20
143.383309
 30
0.0
  0
VERTEX
  5
7EA
330
7D9
100
AcDbEntity
  8
002
 62
     3
370
     9
100
AcDbVertex
100
AcDb2dVertex
 10
170.54471
 20
143.047309
 30
0.0
  0
VERTEX
  5
7EB
330
7D9
100
AcDbEntity
  8
002
 62
     3
370
     9
100
AcDbVertex
100
AcDb2dVertex
 10
168.64471
 20
143.383309
 30
0.0
  0
VERTEX
  5
7EC
330
7D9
100
AcDbEntity
  8
002
 62
     3
370
     9
100
AcDbVertex
100
AcDb2dVertex
 10
166.74471
 20
144.295309
 30
0.0
  0
VERTEX
  5
7ED
330
7D9
100
AcDbEntity
  8
002
 62
     3
370
     9
100
AcDbVertex
100
AcDb2dVertex
 10
164.84471
 20
145.639309
 30
0.0
  0
VERTEX
  5
7EE
330
7D9
100
AcDbEntity
  8
002
 62
     3
370
     9
100
AcDbVertex
100
AcDb2dVertex
 10
162.94471
 20
147.271309
 30
0.0
  0
VERTEX
  5
7EF
330
7D9
100
AcDbEntity
  8
002
 62
     3
370
     9
100
AcDbVertex
100
AcDb2dVertex
 10
161.04471
 20
149.047309
 30
0.0
  0
SEQEND
  5
7DA
330
7D9
100
AcDbEntity
  8
002
370
     9
  0
POLYLINE
  5
7F0
330
1F
100
AcDbEntity
  8
002
 62
     3
370
     9
100
AcDb2dPolyline
 66
     1
 10
0.0
 20
0.0
 30
0.0
  0
VERTEX
  5
7F2
330
7F0
100
AcDbEntity
  8
002
 62
     3
370
     9
100
AcDbVertex
100
AcDb2dVertex
 10
199.04471
 20
137.047309
 30
0.0
  0
VERTEX
  5
7F3
330
7F0
100
AcDbEntity
  8
002
 62
     3
370
     9
100
AcDbVertex
100
AcDb2dVertex
 10
197.14471
 20
138.823309
 30
0.0
  0
VERTEX
  5
7F4
330
7F0
100
AcDbEntity
  8
002
 62
     3
370
     9
100
AcDbVertex
100
AcDb2dVertex
 10
195.24471
 20
140.455309
 30
0.0
  0
VERTEX
  5
7F5
330
7F0
100
AcDbEntity
  8
002
 62
     3
370
     9
100
AcDbVertex
100
AcDb2dVertex
 10
193.34471
 20
141.799309
 30
0.0
  0
VERTEX
  5
7F6
330
7F0
100
AcDbEntity
  8
002
 62
     3
370
     9
100
AcDbVertex
100
AcDb2dVertex
 10
191.44471
 20
142.711309
 30
0.0
  0
VERTEX
  5
7F7
330
7F0
100
AcDbEntity
  8
002
 62
     3
370
     9
100
AcDbVertex
100
AcDb2dVertex
 10
189.54471
 20
143.047309
 30
0.0
  0
VERTEX
  5
7F8
330
7F0
100
AcDbEntity
  8
002
 62
     3
370
     9
100
AcDbVertex
100
AcDb2dVertex
 10
187.64471
 20
142.711309
 30
0.0
  0
VERTEX
  5
7F9
330
7F0
100
AcDbEntity
  8
002
 62
     3
370
     9
100
AcDbVertex
100
AcDb2dVertex
 10
185.74471
 20
141.799309
 30
0.0
  0
VERTEX
  5
7FA
330
7F0
100
AcDbEntity
  8
002
 62
     3
370
     9
100
AcDbVertex
100
AcDb2dVertex
 10
183.84471
 20
140.455309
 30
0.0
  0
VERTEX
  5
7FB
330
7F0
100
AcDbEntity
  8
002
 62
     3
370
     9
100
AcDbVertex
100
AcDb2dVertex
 10
181.94471
 20
138.823309
 30
0.0
  0
VERTEX
  5
7FC
330
7F0
100
AcDbEntity
  8
002
 62
     3
370
     9
100
AcDbVertex
100
AcDb2dVertex
 10
180.04471
 20
137.047309
 30
0.0
  0
VERTEX
  5
7FD
330
7F0
100
AcDbEntity
  8
002
 62
     3
370
     9
100
AcDbVertex
100
AcDb2dVertex
 10
178.14471
 20
135.271309
 30
0.0
  0
VERTEX
  5
7FE
330
7F0
100
AcDbEntity
  8
002
 62
     3
370
     9
100
AcDbVertex
100
AcDb2dVertex
 10
176.24471
 20
133.639309
 30
0.0
  0
VERTEX
  5
7FF
330
7F0
100
AcDbEntity
  8
002
 62
     3
370
     9
100
AcDbVertex
100
AcDb2dVertex
 10
174.34471
 20
132.295309
 30
0.0
  0
VERTEX
  5
800
330
7F0
100
AcDbEntity
  8
002
 62
     3
370
     9
100
AcDbVertex
100
AcDb2dVertex
 10
172.44471
 20
131.383309
 30
0.0
  0
VERTEX
  5
801
330
7F0
100
AcDbEntity
  8
002
 62
     3
370
     9
100
AcDbVertex
100
AcDb2dVertex
 10
170.54471
 20
131.047309
 30
0.0
  0
VERTEX
  5
802
330
7F0
100
AcDbEntity
  8
002
 62
     3
370
     9
100
AcDbVertex
100
AcDb2dVertex
 10
168.64471
 20
131.383309
 30
0.0
  0
VERTEX
  5
803
330
7F0
100
AcDbEntity
  8
002
 62
     3
370
     9
100
AcDbVertex
100
AcDb2dVertex
 10
166.74471
 20
132.295309
 30
0.0
  0
VERTEX
  5
804
330
7F0
100
AcDbEntity
  8
002
 62
     3
370
     9
100
AcDbVertex
100
AcDb2dVertex
 10
164.84471
 20
133.639309
 30
0.0
  0
VERTEX
  5
805
330
7F0
100
AcDbEntity
  8
002
 62
     3
370
     9
100
AcDbVertex
100
AcDb2dVertex
 10
162.94471
 20
135.271309
 30
0.0
  0
VERTEX
  5
806
330
7F0
100
AcDbEntity
  8
002
 62
     3
370
     9
100
AcDbVertex
100
AcDb2dVertex
 10
161.04471
 20
137.047309
 30
0.0
  0
SEQEND
  5
7F1
330
7F0
100
AcDbEntity
  8
002
370
     9
  0
LINE
  5
807
330
1F
100
AcDbEntity
  8
002
 62
     3
370
    30
100
AcDbLine
 10
161.04471
 20
185.547309
 30
0.0
 11
161.04471
 21
149.047309
 31
0.0
  0
LINE
  5
808
330
1F
100
AcDbEntity
  8
002
 62
     3
370
    30
100
AcDbLine
 10
161.04471
 20
137.047309
 30
0.0
 11
161.04471
 21
100.547309
 31
0.0
  0
LINE
  5
809
330
1F
100
AcDbEntity
  8
002
 62
     3
370
    30
100
AcDbLine
 10
199.04471
 20
100.547309
 30
0.0
 11
199.04471
 21
137.047309
 31
0.0
  0
LINE
  5
80A
330
1F
100
AcDbEntity
  8
002
 62
     3
370
    30
100
AcDbLine
 10
199.04471
 20
149.047309
 30
0.0
 11
199.04471
 21
185.547309
 31
0.0
  0
LINE
  5
80B
330
1F
100
AcDbEntity
  8
002
  6
CENTER
 62
    40
370
     9
100
AcDbLine
 10
180.04471
 20
550.52299
 30
0.0
 11
180.04471
 21
67.752173
 31
0.0
  0
LINE
  5
80C
330
1F
100
AcDbEntity
  8
003
  6
CENTER
 62
    40
370
     9
100
AcDbLine
 10
411.31171
 20
69.552586
 30
0.0
 11
411.31171
 21
557.223639
 31
0.0
  0
LINE
  5
80D
330
1F
100
AcDbEntity
  8
002
  6
CENTER
 62
    40
370
     9
100
AcDbLine
 10
682.882269
 20
560.247309
 30
0.0
 11
682.882269
 21
63.222719
 31
0.0
  0
LINE
  5
80E
330
1F
100
AcDbEntity
  8
002
  6
CENTER
 62
    40
370
     9
100
AcDbLine
 10
894.715417
 20
566.232249
 30
0.0
 11
894.715417
 21
82.560062
 31
0.0
  0
LINE
  5
80F
330
1F
100
AcDbEntity
  8
002
  6
CENTER
 62
    40
370
     9
100
AcDbLine
 10
1104.715417
 20
566.232249
 30
0.0
 11
1104.715417
 21
83.217153
 31
0.0
  0
LINE
  5
810
330
1F
100
AcDbEntity
  8
002
 62
     3
370
    30
100
AcDbLine
 10
243.49621
 20
1013.622371
 30
0.0
 11
243.49621
 21
1011.622371
 31
0.0
  0
LINE
  5
811
330
1F
100
AcDbEntity
  8
002
 62
     3
370
    30
100
AcDbLine
 10
205.49621
 20
1013.622371
 30
0.0
 11
205.49621
 21
1011.622371
 31
0.0
  0
LINE
  5
812
330
1F
100
AcDbEntity
  8
002
 62
     3
370
    30
100
AcDbLine
 10
205.49621
 20
1013.622371
 30
0.0
 11
243.49621
 21
1013.622371
 31
0.0
  0
LINE
  5
813
330
1F
100
AcDbEntity
  8
002
  6
CENTER
 62
    40
370
     9
100
AcDbLine
 10
244.29521
 20
1014.978032
 30
0.0
 11
244.29521
 21
1004.210436
 31
0.0
  0
LINE
  5
814
330
1F
100
AcDbEntity
  8
002
  6
CENTER
 62
    40
370
     9
100
AcDbLine
 10
204.69721
 20
1014.978032
 30
0.0
 11
204.69721
 21
1004.210436
 31
0.0
  0
LINE
  5
815
330
1F
100
AcDbEntity
  8
002
 62
     3
370
    30
100
AcDbLine
 10
216.49621
 20
1016.622371
 30
0.0
 11
216.49621
 21
1013.622371
 31
0.0
  0
LINE
  5
816
330
1F
100
AcDbEntity
  8
002
 62
     3
370
    30
100
AcDbLine
 10
232.49621
 20
1013.622371
 30
0.0
 11
232.49621
 21
1016.622371
 31
0.0
  0
LINE
  5
817
330
1F
100
AcDbEntity
  8
002
 62
     3
370
    30
100
AcDbLine
 10
243.49621
 20
889.622371
 30
0.0
 11
243.49621
 21
891.622371
 31
0.0
  0
LINE
  5
818
330
1F
100
AcDbEntity
  8
002
 62
     3
370
    30
100
AcDbLine
 10
205.49621
 20
889.622371
 30
0.0
 11
205.49621
 21
891.622371
 31
0.0
  0
LINE
  5
819
330
1F
100
AcDbEntity
  8
002
 62
     3
370
    30
100
AcDbLine
 10
205.49621
 20
889.622371
 30
0.0
 11
243.49621
 21
889.622371
 31
0.0
  0
LINE
  5
81A
330
1F
100
AcDbEntity
  8
002
  6
CENTER
 62
    40
370
     9
100
AcDbLine
 10
244.29521
 20
888.266709
 30
0.0
 11
244.29521
 21
899.034305
 31
0.0
  0
LINE
  5
81B
330
1F
100
AcDbEntity
  8
002
  6
CENTER
 62
    40
370
     9
100
AcDbLine
 10
204.69721
 20
888.266709
 30
0.0
 11
204.69721
 21
899.034305
 31
0.0
  0
LINE
  5
81C
330
1F
100
AcDbEntity
  8
002
 62
     3
370
    30
100
AcDbLine
 10
232.49621
 20
889.622371
 30
0.0
 11
232.49621
 21
886.622371
 31
0.0
  0
LINE
  5
81D
330
1F
100
AcDbEntity
  8
002
 62
     3
370
    30
100
AcDbLine
 10
216.49621
 20
886.622371
 30
0.0
 11
216.49621
 21
889.622371
 31
0.0
  0
LINE
  5
81E
330
1F
100
AcDbEntity
  8
002
 62
     3
370
    30
100
AcDbLine
 10
349.31171
 20
261.547309
 30
0.0
 11
351.31171
 21
261.547309
 31
0.0
  0
LINE
  5
81F
330
1F
100
AcDbEntity
  8
002
 62
     3
370
    30
100
AcDbLine
 10
349.31171
 20
299.547309
 30
0.0
 11
351.31171
 21
299.547309
 31
0.0
  0
LINE
  5
820
330
1F
100
AcDbEntity
  8
002
 62
     3
370
    30
100
AcDbLine
 10
349.31171
 20
299.547309
 30
0.0
 11
349.31171
 21
261.547309
 31
0.0
  0
LINE
  5
821
330
1F
100
AcDbEntity
  8
002
  6
CENTER
 62
    40
370
     9
100
AcDbLine
 10
347.956049
 20
260.748309
 30
0.0
 11
358.723645
 21
260.748309
 31
0.0
  0
LINE
  5
822
330
1F
100
AcDbEntity
  8
002
  6
CENTER
 62
    40
370
     9
100
AcDbLine
 10
347.956049
 20
300.346309
 30
0.0
 11
358.723645
 21
300.346309
 31
0.0
  0
LINE
  5
823
330
1F
100
AcDbEntity
  8
002
 62
     3
370
    30
100
AcDbLine
 10
346.31171
 20
288.547309
 30
0.0
 11
349.31171
 21
288.547309
 31
0.0
  0
LINE
  5
824
330
1F
100
AcDbEntity
  8
002
 62
     3
370
    30
100
AcDbLine
 10
349.31171
 20
272.547309
 30
0.0
 11
346.31171
 21
272.547309
 31
0.0
  0
LINE
  5
825
330
1F
100
AcDbEntity
  8
002
 62
     3
370
    30
100
AcDbLine
 10
473.31171
 20
261.547309
 30
0.0
 11
471.31171
 21
261.547309
 31
0.0
  0
LINE
  5
826
330
1F
100
AcDbEntity
  8
002
 62
     3
370
    30
100
AcDbLine
 10
473.31171
 20
299.547309
 30
0.0
 11
471.31171
 21
299.547309
 31
0.0
  0
LINE
  5
827
330
1F
100
AcDbEntity
  8
002
 62
     3
370
    30
100
AcDbLine
 10
473.31171
 20
299.547309
 30
0.0
 11
473.31171
 21
261.547309
 31
0.0
  0
LINE
  5
828
330
1F
100
AcDbEntity
  8
002
  6
CENTER
 62
    40
370
     9
100
AcDbLine
 10
474.667371
 20
260.748309
 30
0.0
 11
463.899776
 21
260.748309
 31
0.0
  0
LINE
  5
829
330
1F
100
AcDbEntity
  8
002
  6
CENTER
 62
    40
370
     9
100
AcDbLine
 10
474.667371
 20
300.346309
 30
0.0
 11
463.899776
 21
300.346309
 31
0.0
  0
LINE
  5
82A
330
1F
100
AcDbEntity
  8
002
 62
     3
370
    30
100
AcDbLine
 10
476.31171
 20
288.547309
 30
0.0
 11
473.31171
 21
288.547309
 31
0.0
  0
LINE
  5
82B
330
1F
100
AcDbEntity
  8
002
 62
     3
370
    30
100
AcDbLine
 10
473.31171
 20
272.547309
 30
0.0
 11
476.31171
 21
272.547309
 31
0.0
  0
CIRCLE
  5
82C
330
1F
100
AcDbEntity
  8
002
  6
CENTER
 62
    40
370
     9
100
AcDbCircle
 10
224.49671
 20
280.547309
 30
0.0
 40
28.0
  0
CIRCLE
  5
82D
330
1F
100
AcDbEntity
  8
002
 62
     3
370
    30
100
AcDbCircle
 10
224.49671
 20
280.547309
 30
0.0
 40
19.0
  0
CIRCLE
  5
82E
330
1F
100
AcDbEntity
  8
002
  6
CENTER
 62
    40
370
     9
100
AcDbCircle
 10
727.334269
 20
280.547309
 30
0.0
 40
28.0
  0
CIRCLE
  5
82F
330
1F
100
AcDbEntity
  8
002
 62
     3
370
    30
100
AcDbCircle
 10
727.334269
 20
280.547309
 30
0.0
 40
19.0
  0
CIRCLE
  5
830
330
1F
100
AcDbEntity
  8
002
  6
CENTER
 62
    40
370
     9
100
AcDbCircle
 10
939.167417
 20
280.547309
 30
0.0
 40
28.0
  0
CIRCLE
  5
831
330
1F
100
AcDbEntity
  8
002
 62
     3
370
    30
100
AcDbCircle
 10
939.167417
 20
280.547309
 30
0.0
 40
19.0
  0
CIRCLE
  5
832
330
1F
100
AcDbEntity
  8
002
  6
CENTER
 62
    40
370
     9
100
AcDbCircle
 10
1149.167417
 20
280.547309
 30
0.0
 40
28.0
  0
CIRCLE
  5
833
330
1F
100
AcDbEntity
  8
002
 62
     3
370
    30
100
AcDbCircle
 10
1149.167417
 20
280.547309
 30
0.0
 40
19.0
  0
ENDSEC
  0
SECTION
  2
OBJECTS
  0
DICTIONARY
  5
C
330
0
100
AcDbDictionary
281
     1
  3
ACAD_GROUP
350
D
  3
ACAD_LAYOUT
350
1A
  3
ACAD_MLEADERSTYLE
350
836
  3
ACAD_MLINESTYLE
350
17
  3
ACAD_PLOTSETTINGS
350
19
  3
ACAD_PLOTSTYLENAME
350
E
  3
ACAD_VISUALSTYLE
350
2A
  3
AcDbVariableDictionary
350
834
  0
DICTIONARY
  5
D
102
{ACAD_REACTORS
330
C
102
}
330
C
100
AcDbDictionary
281
     1
  0
DICTIONARY
  5
1A
102
{ACAD_REACTORS
330
C
102
}
330
C
100
AcDbDictionary
281
     1
  3
Layout1
350
1E
  3
Layout2
350
26
  3
Model
350
22
  0
DICTIONARY
  5
836
102
{ACAD_REACTORS
330
C
102
}
330
C
100
AcDbDictionary
281
     1
  0
DICTIONARY
  5
17
102
{ACAD_REACTORS
330
C
102
}
330
C
100
AcDbDictionary
281
     1
  3
Standard
350
18
  0
DICTIONARY
  5
19
102
{ACAD_REACTORS
330
C
102
}
330
C
100
AcDbDictionary
281
     1
  0
ACDBDICTIONARYWDFLT
  5
E
102
{ACAD_REACTORS
330
C
102
}
330
C
100
AcDbDictionary
281
     1
  3
Normal
350
F
100
AcDbDictionaryWithDefault
340
F
  0
DICTIONARY
  5
2A
102
{ACAD_REACTORS
330
C
102
}
330
C
100
AcDbDictionary
281
     1
  3
2dWireframe
350
2F
  3
3D Hidden
350
31
  3
3dWireframe
350
30
  3
Basic
350
32
  3
Brighten
350
36
  3
ColorChange
350
3A
  3
Conceptual
350
34
  3
Dim
350
35
  3
Facepattern
350
39
  3
Flat
350
2B
  3
FlatWithEdges
350
2C
  3
Gouraud
350
2D
  3
GouraudWithEdges
350
2E
  3
Linepattern
350
38
  3
Realistic
350
33
  3
Thicken
350
37
  0
DICTIONARY
  5
834
102
{ACAD_REACTORS
330
C
102
}
330
C
100
AcDbDictionary
281
     1
  3
PSOLHEIGHT
350
838
  3
PSOLWIDTH
350
837
  0
LAYOUT
  5
1E
102
{ACAD_REACTORS
330
1A
102
}
330
1A
100
AcDbPlotSettings
  1

  2
none_device
  4

  6

 40
0.0
 41
0.0
 42
0.0
 43
0.0
 44
0.0
 45
0.0
 46
0.0
 47
0.0
 48
0.0
 49
0.0
140
0.0
141
0.0
142
1.0
143
1.0
 70
   688
 72
     0
 73
     0
 74
     5
  7

 75
    16
147
1.0
148
0.0
149
0.0
100
AcDbLayout
  1
Layout1
 70
     1
 71
     1
 10
0.0
 20
0.0
 11
12.0
 21
9.0
 12
0.0
 22
0.0
 32
0.0
 14
1.000000E+20
 24
1.000000E+20
 34
0.0
 15
-1.000000E+20
 25
-1.000000E+20
 35
0.0
146
0.0
 13
0.0
 23
0.0
 33
0.0
 16
1.0
 26
0.0
 36
0.0
 17
0.0
 27
1.0
 37
0.0
 76
     0
330
1B
  0
LAYOUT
  5
26
102
{ACAD_REACTORS
330
1A
102
}
330
1A
100
AcDbPlotSettings
  1

  2
none_device
  4

  6

 40
0.0
 41
0.0
 42
0.0
 43
0.0
 44
0.0
 45
0.0
 46
0.0
 47
0.0
 48
0.0
 49
0.0
140
0.0
141
0.0
142
1.0
143
1.0
 70
   688
 72
     0
 73
     0
 74
     5
  7

 75
    16
147
1.0
148
0.0
149
0.0
100
AcDbLayout
  1
Layout2
 70
     1
 71
     2
 10
0.0
 20
0.0
 11
0.0
 21
0.0
 12
0.0
 22
0.0
 32
0.0
 14
0.0
 24
0.0
 34
0.0
 15
0.0
 25
0.0
 35
0.0
146
0.0
 13
0.0
 23
0.0
 33
0.0
 16
1.0
 26
0.0
 36
0.0
 17
0.0
 27
1.0
 37
0.0
 76
     0
330
23
  0
LAYOUT
  5
22
102
{ACAD_REACTORS
330
1A
102
}
330
1A
100
AcDbPlotSettings
  1

  2
none_device
  4

  6

 40
0.0
 41
0.0
 42
0.0
 43
0.0
 44
0.0
 45
0.0
 46
0.0
 47
0.0
 48
0.0
 49
0.0
140
0.0
141
0.0
142
1.0
143
1.0
 70
  1712
 72
     0
 73
     0
 74
     0
  7

 75
     0
147
1.0
148
0.0
149
0.0
100
AcDbLayout
  1
Model
 70
     1
 71
     0
 10
0.0
 20
0.0
 11
12.0
 21
9.0
 12
0.0
 22
0.0
 32
0.0
 14
102.474731
 24
63.222687
 34
0.0
 15
1203.167358
 25
1048.972412
 35
0.0
146
0.0
 13
0.0
 23
0.0
 33
0.0
 16
1.0
 26
0.0
 36
0.0
 17
0.0
 27
1.0
 37
0.0
 76
     0
330
1F
331
29
  0
MLINESTYLE
  5
18
102
{ACAD_REACTORS
330
17
102
}
330
17
100
AcDbMlineStyle
  2
Standard
 70
     0
  3

 62
   256
 51
90.0
 52
90.0
 71
     2
 49
0.5
 62
   256
  6
BYLAYER
 49
-0.5
 62
   256
  6
BYLAYER
  0
ACDBPLACEHOLDER
  5
F
102
{ACAD_REACTORS
330
E
102
}
330
E
  0
VISUALSTYLE
  5
2F
102
{ACAD_REACTORS
330
2A
102
}
330
2A
100
AcDbVisualStyle
  2
2dWireframe
 70
     4
 71
     0
 72
     2
 73
     0
 90
        0
 40
-0.6
 41
-30.0
 62
     5
 63
     7
 74
     1
 91
        4
 64
     7
 65
   257
 75
     1
175
     1
 42
1.0
 92
        0
 66
   257
 43
1.0
 76
     1
 77
     6
 78
     2
 67
     7
 79
     5
170
     0
171
     0
290
     0
174
     0
 93
        1
 44
0.0
173
     0
291
     0
 45
0.0
1001
ACAD
1000
AcDbSavedByObjectVersion
1070
     0
  0
VISUALSTYLE
  5
31
102
{ACAD_REACTORS
330
2A
102
}
330
2A
100
AcDbVisualStyle
  2
3D Hidden
 70
     6
 71
     1
 72
     2
 73
     2
 90
        0
 40
-0.6
 41
-30.0
 62
     5
 63
     7
 74
     2
 91
        2
 64
     7
 65
   257
 75
     2
175
     1
 42
40.0
 92
        0
 66
   257
 43
1.0
 76
     1
 77
     6
 78
     2
 67
     7
 79
     3
170
     0
171
     0
290
     0
174
     0
 93
        1
 44
0.0
173
     0
291
     0
 45
0.0
1001
ACAD
1000
AcDbSavedByObjectVersion
1070
     0
  0
VISUALSTYLE
  5
30
102
{ACAD_REACTORS
330
2A
102
}
330
2A
100
AcDbVisualStyle
  2
3dWireframe
 70
     5
 71
     0
 72
     2
 73
     0
 90
        0
 40
-0.6
 41
-30.0
 62
     5
 63
     7
 74
     1
 91
        4
 64
     7
 65
   257
 75
     1
175
     1
 42
1.0
 92
        0
 66
   257
 43
1.0
 76
     1
 77
     6
 78
     2
 67
     7
 79
     5
170
     0
171
     0
290
     0
174
     0
 93
        1
 44
0.0
173
     0
291
     0
 45
0.0
1001
ACAD
1000
AcDbSavedByObjectVersion
1070
     0
  0
VISUALSTYLE
  5
32
102
{ACAD_REACTORS
330
2A
102
}
330
2A
100
AcDbVisualStyle
  2
Basic
 70
     7
 71
     1
 72
     0
 73
     1
 90
        0
 40
-0.6
 41
-30.0
 62
     5
 63
     7
 74
     0
 91
        4
 64
     7
 65
   257
 75
     1
175
     1
 42
1.0
 92
        8
 66
     7
 43
1.0
 76
     1
 77
     6
 78
     2
 67
     7
 79
     5
170
     0
171
     0
290
     0
174
     0
 93
        1
 44
0.0
173
     0
291
     1
 45
0.0
1001
ACAD
1000
AcDbSavedByObjectVersion
1070
     0
  0
VISUALSTYLE
  5
36
102
{ACAD_REACTORS
330
2A
102
}
330
2A
100
AcDbVisualStyle
  2
Brighten
 70
    12
 71
     2
 72
     2
 73
     0
 90
        0
 40
-0.6
 41
-30.0
 62
     5
 63
     7
 74
     1
 91
        4
 64
     7
 65
   257
 75
     1
175
     1
 42
1.0
 92
        8
 66
     7
 43
1.0
 76
     1
 77
     6
 78
     2
 67
     7
 79
     5
170
     0
171
     0
290
     0
174
     0
 93
        1
 44
50.0
173
     0
291
     1
 45
0.0
1001
ACAD
1000
AcDbSavedByObjectVersion
1070
     0
  0
VISUALSTYLE
  5
3A
102
{ACAD_REACTORS
330
2A
102
}
330
2A
100
AcDbVisualStyle
  2
ColorChange
 70
    16
 71
     2
 72
     2
 73
     3
 90
        0
 40
-0.6
 41
-30.0
 62
     5
 63
     8
 74
     1
 91
        4
 64
     7
 65
   257
 75
     1
175
     1
 42
1.0
 92
        8
 66
     8
 43
1.0
 76
     1
 77
     6
 78
     2
 67
     7
 79
     5
170
     0
171
     0
290
     0
174
     0
 93
        1
 44
0.0
173
     0
291
     1
 45
0.0
1001
ACAD
1000
AcDbSavedByObjectVersion
1070
     0
  0
VISUALSTYLE
  5
34
102
{ACAD_REACTORS
330
2A
102
}
330
2A
100
AcDbVisualStyle
  2
Conceptual
 70
     9
 71
     3
 72
     2
 73
     0
 90
        0
 40
-0.6
 41
-30.0
 62
     5
 63
     7
 74
     2
 91
        2
 64
     7
 65
   257
 75
     1
175
     1
 42
40.0
 92
        8
 66
     7
 43
1.0
 76
     1
 77
     6
 78
     2
 67
     7
 79
     3
170
     0
171
     0
290
     0
174
     0
 93
        1
 44
0.0
173
     0
291
     0
 45
0.0
1001
ACAD
1000
AcDbSavedByObjectVersion
1070
     0
  0
VISUALSTYLE
  5
35
102
{ACAD_REACTORS
330
2A
102
}
330
2A
100
AcDbVisualStyle
  2
Dim
 70
    11
 71
     2
 72
     2
 73
     0
 90
        0
 40
-0.6
 41
-30.0
 62
     5
 63
     7
 74
     1
 91
        4
 64
     7
 65
   257
 75
     1
175
     1
 42
1.0
 92
        8
 66
     7
 43
1.0
 76
     1
 77
     6
 78
     2
 67
     7
 79
     5
170
     0
171
     0
290
     0
174
     0
 93
        1
 44
-50.0
173
     0
291
     1
 45
0.0
1001
ACAD
1000
AcDbSavedByObjectVersion
1070
     0
  0
VISUALSTYLE
  5
39
102
{ACAD_REACTORS
330
2A
102
}
330
2A
100
AcDbVisualStyle
  2
Facepattern
 70
    15
 71
     2
 72
     2
 73
     0
 90
        0
 40
-0.6
 41
-30.0
 62
     5
 63
     7
 74
     1
 91
        4
 64
     7
 65
   257
 75
     1
175
     1
 42
1.0
 92
        8
 66
     7
 43
1.0
 76
     1
 77
     6
 78
     2
 67
     7
 79
     5
170
     0
171
     0
290
     0
174
     0
 93
        1
 44
0.0
173
     0
291
     1
 45
0.0
1001
ACAD
1000
AcDbSavedByObjectVersion
1070
     0
  0
VISUALSTYLE
  5
2B
102
{ACAD_REACTORS
330
2A
102
}
330
2A
100
AcDbVisualStyle
  2
Flat
 70
     0
 71
     2
 72
     1
 73
     1
 90
        2
 40
-0.6
 41
30.0
 62
     5
 63
     7
 74
     0
 91
        4
 64
     7
 65
   257
 75
     1
175
     1
 42
1.0
 92
        8
 66
     7
 43
1.0
 76
     1
 77
     6
 78
     2
 67
     7
 79
     5
170
     0
171
     0
290
     0
174
     0
 93
       13
 44
0.0
173
     0
291
     1
 45
0.0
1001
ACAD
1000
AcDbSavedByObjectVersion
1070
     0
  0
VISUALSTYLE
  5
2C
102
{ACAD_REACTORS
330
2A
102
}
330
2A
100
AcDbVisualStyle
  2
FlatWithEdges
 70
     1
 71
     2
 72
     1
 73
     1
 90
        2
 40
-0.6
 41
30.0
 62
     5
 63
     7
 74
     1
 91
        4
 64
     7
 65
   257
 75
     1
175
     1
 42
1.0
 92
        0
 66
   257
 43
1.0
 76
     1
 77
     6
 78
     2
 67
     7
 79
     5
170
     0
171
     0
290
     0
174
     0
 93
       13
 44
0.0
173
     0
291
     1
 45
0.0
1001
ACAD
1000
AcDbSavedByObjectVersion
1070
     0
  0
VISUALSTYLE
  5
2D
102
{ACAD_REACTORS
330
2A
102
}
330
2A
100
AcDbVisualStyle
  2
Gouraud
 70
     2
 71
     2
 72
     2
 73
     1
 90
        2
 40
-0.6
 41
30.0
 62
     5
 63
     7
 74
     0
 91
        4
 64
     7
 65
   257
 75
     1
175
     1
 42
1.0
 92
        0
 66
     7
 43
1.0
 76
     1
 77
     6
 78
     2
 67
     7
 79
     5
170
     0
171
     0
290
     0
174
     0
 93
       13
 44
0.0
173
     0
291
     1
 45
0.0
1001
ACAD
1000
AcDbSavedByObjectVersion
1070
     0
  0
VISUALSTYLE
  5
2E
102
{ACAD_REACTORS
330
2A
102
}
330
2A
100
AcDbVisualStyle
  2
GouraudWithEdges
 70
     3
 71
     2
 72
     2
 73
     1
 90
        2
 40
-0.6
 41
30.0
 62
     5
 63
     7
 74
     1
 91
        4
 64
     7
 65
   257
 75
     1
175
     1
 42
1.0
 92
        0
 66
   257
 43
1.0
 76
     1
 77
     6
 78
     2
 67
     7
 79
     5
170
     0
171
     0
290
     0
174
     0
 93
       13
 44
0.0
173
     0
291
     1
 45
0.0
1001
ACAD
1000
AcDbSavedByObjectVersion
1070
     0
  0
VISUALSTYLE
  5
38
102
{ACAD_REACTORS
330
2A
102
}
330
2A
100
AcDbVisualStyle
  2
Linepattern
 70
    14
 71
     2
 72
     2
 73
     0
 90
        0
 40
-0.6
 41
-30.0
 62
     5
 63
     7
 74
     1
 91
        4
 64
     7
 65
   257
 75
     7
175
     7
 42
1.0
 92
        8
 66
     7
 43
1.0
 76
     1
 77
     6
 78
     2
 67
     7
 79
     5
170
     0
171
     0
290
     0
174
     0
 93
        1
 44
0.0
173
     0
291
     1
 45
0.0
1001
ACAD
1000
AcDbSavedByObjectVersion
1070
     0
  0
VISUALSTYLE
  5
33
102
{ACAD_REACTORS
330
2A
102
}
330
2A
100
AcDbVisualStyle
  2
Realistic
 70
     8
 71
     2
 72
     2
 73
     0
 90
        0
 40
-0.6
 41
-30.0
 62
     5
 63
     7
 74
     1
 91
        0
 64
     7
 65
   257
 75
     1
175
     1
 42
1.0
 92
        8
 66
     8
 43
1.0
 76
     1
 77
     6
 78
     2
 67
     7
 79
     5
170
     0
171
     0
290
     0
174
     0
 93
       13
 44
0.0
173
     0
291
     0
 45
0.0
1001
ACAD
1000
AcDbSavedByObjectVersion
1070
     0
  0
VISUALSTYLE
  5
37
102
{ACAD_REACTORS
330
2A
102
}
330
2A
100
AcDbVisualStyle
  2
Thicken
 70
    13
 71
     2
 72
     2
 73
     0
 90
        0
 40
-0.6
 41
-30.0
 62
     5
 63
     7
 74
     1
 91
        4
 64
     7
 65
   257
 75
     1
175
     1
 42
1.0
 92
       12
 66
     7
 43
1.0
 76
     1
 77
     6
 78
     2
 67
     7
 79
     5
170
     0
171
     0
290
     0
174
     0
 93
        1
 44
0.0
173
     0
291
     1
 45
0.0
1001
ACAD
1000
AcDbSavedByObjectVersion
1070
     0
  0
DICTIONARYVAR
  5
838
102
{ACAD_REACTORS
330
834
102
}
330
834
100
DictionaryVariables
280
     0
  1
80.000000
  0
DICTIONARYVAR
  5
837
102
{ACAD_REACTORS
330
834
102
}
330
834
100
DictionaryVariables
280
     0
  1
5.000000
  0
ENDSEC
  0
EOF
