  0
SECTION
  2
HEADER
  9
$ACADVER
  1
AC1015
  9
$ACADMAINTVER
 70
     6
  9
$DWGCODEPAGE
  3
ANSI_932
  9
$INSBASE
 10
0.0
 20
0.0
 30
0.0
  9
$EXTMIN
 10
129.173462
 20
70.526855
 30
0.0
  9
$EXTMAX
 10
1243.324097
 20
1160.68042
 30
0.0
  9
$LIMMIN
 10
0.0
 20
0.0
  9
$LIMMAX
 10
12.0
 20
9.0
  9
$ORTHOMODE
 70
     0
  9
$REGENMODE
 70
     1
  9
$FILLMODE
 70
     1
  9
$QTEXTMODE
 70
     0
  9
$MIRRTEXT
 70
     1
  9
$LTSCALE
 40
15.587708
  9
$ATTMODE
 70
     1
  9
$TEXTSIZE
 40
3.2
  9
$TRACEWID
 40
1.0
  9
$TEXTSTYLE
  7
Standard
  9
$CLAYER
  8
0
  9
$CELTYPE
  6
ByLayer
  9
$CECOLOR
 62
   256
  9
$CELTSCALE
 40
1.0
  9
$DISPSILH
 70
     0
  9
$DIMSCALE
 40
1.0
  9
$DIMASZ
 40
2.5
  9
$DIMEXO
 40
0.625
  9
$DIMDLI
 40
3.75
  9
$DIMRND
 40
0.0
  9
$DIMDLE
 40
0.0
  9
$DIMEXE
 40
1.25
  9
$DIMTP
 40
0.0
  9
$DIMTM
 40
0.0
  9
$DIMTXT
 40
2.5
  9
$DIMCEN
 40
0.09
  9
$DIMTSZ
 40
0.0
  9
$DIMTOL
 70
     0
  9
$DIMLIM
 70
     0
  9
$DIMTIH
 70
     0
  9
$DIMTOH
 70
     0
  9
$DIMSE1
 70
     0
  9
$DIMSE2
 70
     0
  9
$DIMTAD
 70
     0
  9
$DIMZIN
 70
     8
  9
$DIMBLK
  1

  9
$DIMASO
 70
     1
  9
$DIMSHO
 70
     0
  9
$DIMPOST
  1

  9
$DIMAPOST
  1

  9
$DIMALT
 70
     0
  9
$DIMALTD
 70
     3
  9
$DIMALTF
 40
0.03937
  9
$DIMLFAC
 40
1.0
  9
$DIMTOFL
 70
     1
  9
$DIMTVP
 40
0.0
  9
$DIMTIX
 70
     0
  9
$DIMSOXD
 70
     0
  9
$DIMSAH
 70
     0
  9
$DIMBLK1
  1

  9
$DIMBLK2
  1

  9
$DIMSTYLE
  2
ISO-25
  9
$DIMCLRD
 70
     0
  9
$DIMCLRE
 70
     0
  9
$DIMCLRT
 70
     0
  9
$DIMTFAC
 40
1.0
  9
$DIMGAP
 40
0.625
  9
$DIMJUST
 70
     0
  9
$DIMSD1
 70
     0
  9
$DIMSD2
 70
     0
  9
$DIMTOLJ
 70
     0
  9
$DIMTZIN
 70
     8
  9
$DIMALTZ
 70
     0
  9
$DIMALTTZ
 70
     0
  9
$DIMUPT
 70
     0
  9
$DIMDEC
 70
     2
  9
$DIMTDEC
 70
     2
  9
$DIMALTU
 70
     2
  9
$DIMALTTD
 70
     3
  9
$DIMTXSTY
  7
Standard
  9
$DIMAUNIT
 70
     0
  9
$DIMADEC
 70
     0
  9
$DIMALTRND
 40
0.0
  9
$DIMAZIN
 70
     0
  9
$DIMDSEP
 70
    44
  9
$DIMATFIT
 70
     3
  9
$DIMFRAC
 70
     0
  9
$DIMLDRBLK
  1

  9
$DIMLUNIT
 70
     2
  9
$DIMLWD
 70
    -2
  9
$DIMLWE
 70
    -2
  9
$DIMTMOVE
 70
     0
  9
$LUNITS
 70
     2
  9
$LUPREC
 70
     4
  9
$SKETCHINC
 40
1.0
  9
$FILLETRAD
 40
0.0
  9
$AUNITS
 70
     0
  9
$AUPREC
 70
     0
  9
$MENU
  1
.
  9
$ELEVATION
 40
0.0
  9
$PELEVATION
 40
0.0
  9
$THICKNESS
 40
0.0
  9
$LIMCHECK
 70
     0
  9
$CHAMFERA
 40
10.0
  9
$CHAMFERB
 40
10.0
  9
$CHAMFERC
 40
20.0
  9
$CHAMFERD
 40
0.0
  9
$SKPOLY
 70
     0
  9
$TDCREATE
 40
2455649.657125648
  9
$TDUCREATE
 40
2455649.282125648
  9
$TDUPDATE
 40
2455649.65712566
  9
$TDUUPDATE
 40
2455649.28212566
  9
$TDINDWG
 40
0.0000000116
  9
$TDUSRTIMER
 40
0.0000000116
  9
$USRTIMER
 70
     1
  9
$ANGBASE
 50
0.0
  9
$ANGDIR
 70
     0
  9
$PDMODE
 70
     0
  9
$PDSIZE
 40
0.0
  9
$PLINEWID
 40
0.0
  9
$SPLFRAME
 70
     0
  9
$SPLINETYPE
 70
     6
  9
$SPLINESEGS
 70
     8
  9
$HANDSEED
  5
752
  9
$SURFTAB1
 70
     6
  9
$SURFTAB2
 70
     6
  9
$SURFTYPE
 70
     6
  9
$SURFU
 70
     6
  9
$SURFV
 70
     6
  9
$UCSBASE
  2

  9
$UCSNAME
  2

  9
$UCSORG
 10
0.0
 20
0.0
 30
0.0
  9
$UCSXDIR
 10
1.0
 20
0.0
 30
0.0
  9
$UCSYDIR
 10
0.0
 20
1.0
 30
0.0
  9
$UCSORTHOREF
  2

  9
$UCSORTHOVIEW
 70
     0
  9
$UCSORGTOP
 10
0.0
 20
0.0
 30
0.0
  9
$UCSORGBOTTOM
 10
0.0
 20
0.0
 30
0.0
  9
$UCSORGLEFT
 10
0.0
 20
0.0
 30
0.0
  9
$UCSORGRIGHT
 10
0.0
 20
0.0
 30
0.0
  9
$UCSORGFRONT
 10
0.0
 20
0.0
 30
0.0
  9
$UCSORGBACK
 10
0.0
 20
0.0
 30
0.0
  9
$PUCSBASE
  2

  9
$PUCSNAME
  2

  9
$PUCSORG
 10
0.0
 20
0.0
 30
0.0
  9
$PUCSXDIR
 10
1.0
 20
0.0
 30
0.0
  9
$PUCSYDIR
 10
0.0
 20
1.0
 30
0.0
  9
$PUCSORTHOREF
  2

  9
$PUCSORTHOVIEW
 70
     0
  9
$PUCSORGTOP
 10
0.0
 20
0.0
 30
0.0
  9
$PUCSORGBOTTOM
 10
0.0
 20
0.0
 30
0.0
  9
$PUCSORGLEFT
 10
0.0
 20
0.0
 30
0.0
  9
$PUCSORGRIGHT
 10
0.0
 20
0.0
 30
0.0
  9
$PUCSORGFRONT
 10
0.0
 20
0.0
 30
0.0
  9
$PUCSORGBACK
 10
0.0
 20
0.0
 30
0.0
  9
$USERI1
 70
     0
  9
$USERI2
 70
     0
  9
$USERI3
 70
     0
  9
$USERI4
 70
     0
  9
$USERI5
 70
     0
  9
$USERR1
 40
0.0
  9
$USERR2
 40
0.0
  9
$USERR3
 40
0.0
  9
$USERR4
 40
0.0
  9
$USERR5
 40
0.0
  9
$WORLDVIEW
 70
     1
  9
$SHADEDGE
 70
     3
  9
$SHADEDIF
 70
    70
  9
$TILEMODE
 70
     1
  9
$MAXACTVP
 70
    64
  9
$PINSBASE
 10
0.0
 20
0.0
 30
0.0
  9
$PLIMCHECK
 70
     0
  9
$PEXTMIN
 10
1.000000E+20
 20
1.000000E+20
 30
0.0
  9
$PEXTMAX
 10
-1.000000E+20
 20
-1.000000E+20
 30
0.0
  9
$PLIMMIN
 10
0.0
 20
0.0
  9
$PLIMMAX
 10
12.0
 20
9.0
  9
$UNITMODE
 70
     0
  9
$VISRETAIN
 70
     1
  9
$PLINEGEN
 70
     0
  9
$PSLTSCALE
 70
     1
  9
$TREEDEPTH
 70
  3020
  9
$CMLSTYLE
  2
Standard
  9
$CMLJUST
 70
     0
  9
$CMLSCALE
 40
20.0
  9
$PROXYGRAPHICS
 70
     1
  9
$MEASUREMENT
 70
     1
  9
$CELWEIGHT
370
    -1
  9
$ENDCAPS
280
     0
  9
$JOINSTYLE
280
     0
  9
$LWDISPLAY
290
     0
  9
$INSUNITS
 70
     4
  9
$HYPERLINKBASE
  1

  9
$STYLESHEET
  1

  9
$XEDIT
290
     1
  9
$CEPSNTYPE
380
     0
  9
$PSTYLEMODE
290
     1
  9
$FINGERPRINTGUID
  2
{3CDCB8F3-F692-48A7-81A9-E8D6687E9ECF}
  9
$VERSIONGUID
  2
{FAEB1C32-E019-11D5-929B-00C0DF256EC4}
  9
$EXTNAMES
290
     1
  9
$PSVPSCALE
 40
0.0
  9
$OLESTARTUP
290
     0
  0
ENDSEC
  0
SECTION
  2
CLASSES
  0
CLASS
  1
ACDBDICTIONARYWDFLT
  2
AcDbDictionaryWithDefault
  3
ObjectDBX Classes
 90
        0
280
     0
281
     0
  0
CLASS
  1
VISUALSTYLE
  2
AcDbVisualStyle
  3
ObjectDBX Classes
 90
     4095
280
     0
281
     0
  0
CLASS
  1
DICTIONARYVAR
  2
AcDbDictionaryVar
  3
ObjectDBX Classes
 90
        0
280
     0
281
     0
  0
CLASS
  1
ACDBPLACEHOLDER
  2
AcDbPlaceHolder
  3
ObjectDBX Classes
 90
        0
280
     0
281
     0
  0
CLASS
  1
LAYOUT
  2
AcDbLayout
  3
ObjectDBX Classes
 90
        0
280
     0
281
     0
  0
ENDSEC
  0
SECTION
  2
TABLES
  0
TABLE
  2
VPORT
  5
8
330
0
100
AcDbSymbolTable
 70
     1
  0
VPORT
  5
29
330
8
100
AcDbSymbolTableRecord
100
AcDbViewportTableRecord
  2
*Active
 70
     0
 10
0.0
 20
0.0
 11
1.0
 21
1.0
 12
686.248779
 22
615.603638
 13
0.0
 23
0.0
 14
1.0
 24
1.0
 15
0.0
 25
0.0
 16
0.0
 26
0.0
 36
1.0
 17
0.0
 27
0.0
 37
0.0
 40
1101.0551
 41
1.691288
 42
50.0
 43
0.0
 44
0.0
 50
0.0
 51
0.0
 71
     0
 72
   100
 73
     1
 74
     3
 75
     0
 76
     0
 77
     0
 78
     0
281
     0
 65
     1
110
0.0
120
0.0
130
0.0
111
1.0
121
0.0
131
0.0
112
0.0
122
1.0
132
0.0
 79
     0
146
0.0
  0
ENDTAB
  0
TABLE
  2
LTYPE
  5
5
330
0
100
AcDbSymbolTable
 70
     5
  0
LTYPE
  5
14
330
5
100
AcDbSymbolTableRecord
100
AcDbLinetypeTableRecord
  2
ByBlock
 70
     0
  3

 72
    65
 73
     0
 40
0.0
  0
LTYPE
  5
15
330
5
100
AcDbSymbolTableRecord
100
AcDbLinetypeTableRecord
  2
ByLayer
 70
     0
  3

 72
    65
 73
     0
 40
0.0
  0
LTYPE
  5
16
330
5
100
AcDbSymbolTableRecord
100
AcDbLinetypeTableRecord
  2
Continuous
 70
     0
  3
Solid line
 72
    65
 73
     0
 40
0.0
  0
LTYPE
  5
3B
330
5
100
AcDbSymbolTableRecord
100
AcDbLinetypeTableRecord
  2
DASHED
 70
     0
  3
DASHED
 72
    83
 73
     2
 40
0.75
 49
0.5
 74
     0
 49
-0.25
 74
     0
  0
LTYPE
  5
3C
330
5
100
AcDbSymbolTableRecord
100
AcDbLinetypeTableRecord
  2
HIDDEN
 70
     0
  3
HIDDEN
 72
    83
 73
     2
 40
0.375
 49
0.25
 74
     0
 49
-0.125
 74
     0
  0
LTYPE
  5
3D
330
5
100
AcDbSymbolTableRecord
100
AcDbLinetypeTableRecord
  2
CENTER
 70
     0
  3
CENTER
 72
    83
 73
     4
 40
2.0
 49
1.25
 74
     0
 49
-0.25
 74
     0
 49
0.25
 74
     0
 49
-0.25
 74
     0
  0
LTYPE
  5
3E
330
5
100
AcDbSymbolTableRecord
100
AcDbLinetypeTableRecord
  2
PHANTOM
 70
     0
  3
PHANTOM
 72
    83
 73
     6
 40
2.5
 49
1.25
 74
     0
 49
-0.25
 74
     0
 49
0.25
 74
     0
 49
-0.25
 74
     0
 49
0.25
 74
     0
 49
-0.25
 74
     0
  0
ENDTAB
  0
TABLE
  2
LAYER
  5
2
330
0
100
AcDbSymbolTable
 70
     4
  0
LAYER
  5
10
330
2
100
AcDbSymbolTableRecord
100
AcDbLayerTableRecord
  2
0
 70
     0
 62
     7
  6
Continuous
370
    -3
390
F
  0
LAYER
  5
3F
330
2
100
AcDbSymbolTableRecord
100
AcDbLayerTableRecord
  2
001
 70
     0
 62
     7
  6
Continuous
370
    -3
390
F
  0
LAYER
  5
40
330
2
100
AcDbSymbolTableRecord
100
AcDbLayerTableRecord
  2
002
 70
     0
 62
     7
  6
Continuous
370
    -3
390
F
  0
LAYER
  5
41
330
2
100
AcDbSymbolTableRecord
100
AcDbLayerTableRecord
  2
003
 70
     0
 62
     7
  6
Continuous
370
    -3
390
F
  0
ENDTAB
  0
TABLE
  2
STYLE
  5
3
330
0
100
AcDbSymbolTable
 70
     2
  0
STYLE
  5
11
330
3
100
AcDbSymbolTableRecord
100
AcDbTextStyleTableRecord
  2
Standard
 70
     0
 40
0.0
 41
1.0
 50
0.0
 71
     0
 42
0.2
  3
TXT
  4
BIGFONT
  0
STYLE
  5
42
330
3
100
AcDbSymbolTableRecord
100
AcDbTextStyleTableRecord
  2
TATEGAKI
 70
     4
 40
1.0
 41
1.0
 50
0.0
 71
     0
 42
0.2
  3
TXT
  4
BIGFONT
  0
ENDTAB
  0
TABLE
  2
VIEW
  5
6
330
0
100
AcDbSymbolTable
 70
     0
  0
ENDTAB
  0
TABLE
  2
UCS
  5
7
330
0
100
AcDbSymbolTable
 70
     0
  0
ENDTAB
  0
TABLE
  2
APPID
  5
9
330
0
100
AcDbSymbolTable
 70
     1
  0
APPID
  5
12
330
9
100
AcDbSymbolTableRecord
100
AcDbRegAppTableRecord
  2
ACAD
 70
     0
  0
ENDTAB
  0
TABLE
  2
DIMSTYLE
  5
A
330
0
100
AcDbSymbolTable
 70
     2
100
AcDbDimStyleTable
  0
DIMSTYLE
105
27
330
A
100
AcDbSymbolTableRecord
100
AcDbDimStyleTableRecord
  2
ISO-25
 70
     0
 41
2.5
 42
0.625
 43
3.75
 44
1.25
 73
     0
 74
     0
 77
     1
 78
     8
140
2.5
141
2.5
143
0.03937
147
0.625
171
     3
172
     1
271
     2
272
     2
274
     3
278
    44
283
     0
284
     8
340
11
  0
DIMSTYLE
105
43
330
A
100
AcDbSymbolTableRecord
100
AcDbDimStyleTableRecord
  2
Standard
 70
     0
 41
3.0
 42
0.5
 44
0.7
 73
     0
 74
     0
 77
     1
 78
     8
 79
     2
140
4.0
146
0.65
147
1.0
172
     1
179
     3
271
     3
283
     2
340
11
  0
ENDTAB
  0
TABLE
  2
BLOCK_RECORD
  5
1
330
0
100
AcDbSymbolTable
 70
    31
  0
BLOCK_RECORD
  5
1F
330
1
100
AcDbSymbolTableRecord
100
AcDbBlockTableRecord
  2
*Model_Space
340
22
  0
BLOCK_RECORD
  5
1B
330
1
100
AcDbSymbolTableRecord
100
AcDbBlockTableRecord
  2
*Paper_Space
340
1E
  0
BLOCK_RECORD
  5
23
330
1
100
AcDbSymbolTableRecord
100
AcDbBlockTableRecord
  2
*Paper_Space0
340
26
  0
BLOCK_RECORD
  5
44
330
1
100
AcDbSymbolTableRecord
100
AcDbBlockTableRecord
  2
JZB-1
340
0
102
{BLKREFS
331
1AA
102
}
  0
BLOCK_RECORD
  5
4F
330
1
100
AcDbSymbolTableRecord
100
AcDbBlockTableRecord
  2
JZB-2
340
0
102
{BLKREFS
331
1AB
102
}
  0
BLOCK_RECORD
  5
5A
330
1
100
AcDbSymbolTableRecord
100
AcDbBlockTableRecord
  2
JZB-3
340
0
102
{BLKREFS
331
1AC
102
}
  0
BLOCK_RECORD
  5
65
330
1
100
AcDbSymbolTableRecord
100
AcDbBlockTableRecord
  2
JZB-4
340
0
102
{BLKREFS
331
1AD
102
}
  0
BLOCK_RECORD
  5
70
330
1
100
AcDbSymbolTableRecord
100
AcDbBlockTableRecord
  2
JZB-5
340
0
102
{BLKREFS
331
1AE
102
}
  0
BLOCK_RECORD
  5
7B
330
1
100
AcDbSymbolTableRecord
100
AcDbBlockTableRecord
  2
JZB-6
340
0
102
{BLKREFS
331
1AF
102
}
  0
BLOCK_RECORD
  5
86
330
1
100
AcDbSymbolTableRecord
100
AcDbBlockTableRecord
  2
JZB-7
340
0
102
{BLKREFS
331
1B0
102
}
  0
BLOCK_RECORD
  5
91
330
1
100
AcDbSymbolTableRecord
100
AcDbBlockTableRecord
  2
JZB-8
340
0
102
{BLKREFS
331
1B1
102
}
  0
BLOCK_RECORD
  5
9C
330
1
100
AcDbSymbolTableRecord
100
AcDbBlockTableRecord
  2
JZB-9
340
0
102
{BLKREFS
331
1B2
102
}
  0
BLOCK_RECORD
  5
A7
330
1
100
AcDbSymbolTableRecord
100
AcDbBlockTableRecord
  2
JZB-10
340
0
102
{BLKREFS
331
1B3
102
}
  0
BLOCK_RECORD
  5
B2
330
1
100
AcDbSymbolTableRecord
100
AcDbBlockTableRecord
  2
JZB-11
340
0
102
{BLKREFS
331
1B4
102
}
  0
BLOCK_RECORD
  5
BD
330
1
100
AcDbSymbolTableRecord
100
AcDbBlockTableRecord
  2
JZB-12
340
0
102
{BLKREFS
331
1B5
102
}
  0
BLOCK_RECORD
  5
C8
330
1
100
AcDbSymbolTableRecord
100
AcDbBlockTableRecord
  2
JZB-13
340
0
102
{BLKREFS
331
1B6
102
}
  0
BLOCK_RECORD
  5
D3
330
1
100
AcDbSymbolTableRecord
100
AcDbBlockTableRecord
  2
JZB-14
340
0
102
{BLKREFS
331
1B7
102
}
  0
BLOCK_RECORD
  5
DE
330
1
100
AcDbSymbolTableRecord
100
AcDbBlockTableRecord
  2
JZB-15
340
0
102
{BLKREFS
331
1B8
102
}
  0
BLOCK_RECORD
  5
E9
330
1
100
AcDbSymbolTableRecord
100
AcDbBlockTableRecord
  2
JZB-16
340
0
102
{BLKREFS
331
1B9
102
}
  0
BLOCK_RECORD
  5
F4
330
1
100
AcDbSymbolTableRecord
100
AcDbBlockTableRecord
  2
JZB-17
340
0
102
{BLKREFS
331
1BA
102
}
  0
BLOCK_RECORD
  5
105
330
1
100
AcDbSymbolTableRecord
100
AcDbBlockTableRecord
  2
JZB-18
340
0
102
{BLKREFS
331
1BB
102
}
  0
BLOCK_RECORD
  5
116
330
1
100
AcDbSymbolTableRecord
100
AcDbBlockTableRecord
  2
JZB-19
340
0
102
{BLKREFS
331
1BC
102
}
  0
BLOCK_RECORD
  5
127
330
1
100
AcDbSymbolTableRecord
100
AcDbBlockTableRecord
  2
JZB-20
340
0
102
{BLKREFS
331
1BD
102
}
  0
BLOCK_RECORD
  5
138
330
1
100
AcDbSymbolTableRecord
100
AcDbBlockTableRecord
  2
JZB-21
340
0
102
{BLKREFS
331
1BE
102
}
  0
BLOCK_RECORD
  5
149
330
1
100
AcDbSymbolTableRecord
100
AcDbBlockTableRecord
  2
JZB-22
340
0
102
{BLKREFS
331
1BF
102
}
  0
BLOCK_RECORD
  5
15A
330
1
100
AcDbSymbolTableRecord
100
AcDbBlockTableRecord
  2
JZB-23
340
0
102
{BLKREFS
331
1C0
102
}
  0
BLOCK_RECORD
  5
16B
330
1
100
AcDbSymbolTableRecord
100
AcDbBlockTableRecord
  2
JZB-24
340
0
102
{BLKREFS
331
1C1
102
}
  0
BLOCK_RECORD
  5
17C
330
1
100
AcDbSymbolTableRecord
100
AcDbBlockTableRecord
  2
ETC-25
340
0
102
{BLKREFS
331
1C2
102
}
  0
BLOCK_RECORD
  5
183
330
1
100
AcDbSymbolTableRecord
100
AcDbBlockTableRecord
  2
ETC-26
340
0
102
{BLKREFS
331
1C3
102
}
  0
BLOCK_RECORD
  5
18A
330
1
100
AcDbSymbolTableRecord
100
AcDbBlockTableRecord
  2
ETC-27
340
0
102
{BLKREFS
331
1C4
102
}
  0
BLOCK_RECORD
  5
193
330
1
100
AcDbSymbolTableRecord
100
AcDbBlockTableRecord
  2
ETC-28
340
0
102
{BLKREFS
331
1C5
102
}
  0
BLOCK_RECORD
  5
19A
330
1
100
AcDbSymbolTableRecord
100
AcDbBlockTableRecord
  2
ETC-29
340
0
102
{BLKREFS
331
1C6
102
}
  0
BLOCK_RECORD
  5
1A1
330
1
100
AcDbSymbolTableRecord
100
AcDbBlockTableRecord
  2
ETC-30
340
0
102
{BLKREFS
331
1C7
102
}
  0
ENDTAB
  0
ENDSEC
  0
SECTION
  2
BLOCKS
  0
BLOCK
  5
20
330
1F
100
AcDbEntity
  8
0
100
AcDbBlockBegin
  2
*Model_Space
 70
     0
 10
0.0
 20
0.0
 30
0.0
  3
*Model_Space
  1

  0
ENDBLK
  5
21
330
1F
100
AcDbEntity
  8
0
100
AcDbBlockEnd
  0
BLOCK
  5
1C
330
1B
100
AcDbEntity
 67
     1
  8
0
100
AcDbBlockBegin
  2
*Paper_Space
 70
     0
 10
0.0
 20
0.0
 30
0.0
  3
*Paper_Space
  1

  0
ENDBLK
  5
1D
330
1B
100
AcDbEntity
 67
     1
  8
0
100
AcDbBlockEnd
  0
BLOCK
  5
24
330
23
100
AcDbEntity
  8
0
100
AcDbBlockBegin
  2
*Paper_Space0
 70
     0
 10
0.0
 20
0.0
 30
0.0
  3
*Paper_Space0
  1

  0
ENDBLK
  5
25
330
23
100
AcDbEntity
  8
0
100
AcDbBlockEnd
  0
BLOCK
  5
45
330
44
100
AcDbEntity
  8
0
100
AcDbBlockBegin
  2
JZB-1
 70
     0
 10
0.0
 20
0.0
 30
0.0
  3
JZB-1
  1

  0
LINE
  5
47
330
44
100
AcDbEntity
  8
003
 62
     3
370
    30
100
AcDbLine
 10
276.571273
 20
209.879408
 30
0.0
 11
275.07698
 21
215.456183
 31
0.0
  0
LINE
  5
48
330
44
100
AcDbEntity
  8
003
 62
     3
370
    30
100
AcDbLine
 10
266.912014
 20
207.291217
 30
0.0
 11
265.417722
 21
212.867993
 31
0.0
  0
LINE
  5
49
330
44
100
AcDbEntity
  8
003
 62
     3
370
    30
100
AcDbLine
 10
272.48879
 20
205.796925
 30
0.0
 11
266.912014
 21
207.291217
 31
0.0
  0
LINE
  5
4A
330
44
100
AcDbEntity
  8
003
 62
     3
370
    30
100
AcDbLine
 10
269.500205
 20
216.950476
 30
0.0
 11
275.07698
 21
215.456183
 31
0.0
  0
LINE
  5
4B
330
44
100
AcDbEntity
  8
003
 62
     3
370
    30
100
AcDbLine
 10
265.417722
 20
212.867993
 30
0.0
 11
269.500205
 21
216.950476
 31
0.0
  0
LINE
  5
4C
330
44
100
AcDbEntity
  8
003
 62
     3
370
    30
100
AcDbLine
 10
276.571273
 20
209.879408
 30
0.0
 11
272.48879
 21
205.796925
 31
0.0
  0
CIRCLE
  5
4D
330
44
100
AcDbEntity
  8
003
 62
     3
370
    30
100
AcDbCircle
 10
270.994497
 20
211.3737
 30
0.0
 40
4.999999999999998
  0
LINE
  5
4E
330
44
100
AcDbEntity
  8
003
  6
CENTER
 62
    40
370
     9
100
AcDbLine
 10
275.346528
 20
215.725731
 30
0.0
 11
266.642467
 21
207.02167
 31
0.0
  0
ENDBLK
  5
46
330
44
100
AcDbEntity
  8
0
100
AcDbBlockEnd
  0
BLOCK
  5
50
330
4F
100
AcDbEntity
  8
0
100
AcDbBlockBegin
  2
JZB-2
 70
     0
 10
0.0
 20
0.0
 30
0.0
  3
JZB-2
  1

  0
LINE
  5
52
330
4F
100
AcDbEntity
  8
003
 62
     3
370
    30
100
AcDbLine
 10
269.500205
 20
166.198945
 30
0.0
 11
275.07698
 21
167.693238
 31
0.0
  0
LINE
  5
53
330
4F
100
AcDbEntity
  8
003
 62
     3
370
    30
100
AcDbLine
 10
266.912014
 20
175.858203
 30
0.0
 11
272.48879
 21
177.352496
 31
0.0
  0
LINE
  5
54
330
4F
100
AcDbEntity
  8
003
 62
     3
370
    30
100
AcDbLine
 10
265.417722
 20
170.281428
 30
0.0
 11
266.912014
 21
175.858203
 31
0.0
  0
LINE
  5
55
330
4F
100
AcDbEntity
  8
003
 62
     3
370
    30
100
AcDbLine
 10
276.571273
 20
173.270013
 30
0.0
 11
275.07698
 21
167.693238
 31
0.0
  0
LINE
  5
56
330
4F
100
AcDbEntity
  8
003
 62
     3
370
    30
100
AcDbLine
 10
272.48879
 20
177.352496
 30
0.0
 11
276.571273
 21
173.270013
 31
0.0
  0
LINE
  5
57
330
4F
100
AcDbEntity
  8
003
 62
     3
370
    30
100
AcDbLine
 10
269.500205
 20
166.198945
 30
0.0
 11
265.417722
 21
170.281428
 31
0.0
  0
CIRCLE
  5
58
330
4F
100
AcDbEntity
  8
003
 62
     3
370
    30
100
AcDbCircle
 10
270.994497
 20
171.77572
 30
0.0
 40
4.999999999999998
  0
LINE
  5
59
330
4F
100
AcDbEntity
  8
003
  6
CENTER
 62
    40
370
     9
100
AcDbLine
 10
275.346528
 20
167.42369
 30
0.0
 11
266.642467
 21
176.127751
 31
0.0
  0
ENDBLK
  5
51
330
4F
100
AcDbEntity
  8
0
100
AcDbBlockEnd
  0
BLOCK
  5
5B
330
5A
100
AcDbEntity
  8
0
100
AcDbBlockBegin
  2
JZB-3
 70
     0
 10
0.0
 20
0.0
 30
0.0
  3
JZB-3
  1

  0
LINE
  5
5D
330
5A
100
AcDbEntity
  8
003
 62
     3
370
    30
100
AcDbLine
 10
225.819742
 20
173.270013
 30
0.0
 11
227.314035
 21
167.693238
 31
0.0
  0
LINE
  5
5E
330
5A
100
AcDbEntity
  8
003
 62
     3
370
    30
100
AcDbLine
 10
235.479001
 20
175.858203
 30
0.0
 11
236.973293
 21
170.281428
 31
0.0
  0
LINE
  5
5F
330
5A
100
AcDbEntity
  8
003
 62
     3
370
    30
100
AcDbLine
 10
229.902225
 20
177.352496
 30
0.0
 11
235.479001
 21
175.858203
 31
0.0
  0
LINE
  5
60
330
5A
100
AcDbEntity
  8
003
 62
     3
370
    30
100
AcDbLine
 10
232.89081
 20
166.198945
 30
0.0
 11
227.314035
 21
167.693238
 31
0.0
  0
LINE
  5
61
330
5A
100
AcDbEntity
  8
003
 62
     3
370
    30
100
AcDbLine
 10
236.973293
 20
170.281428
 30
0.0
 11
232.89081
 21
166.198945
 31
0.0
  0
LINE
  5
62
330
5A
100
AcDbEntity
  8
003
 62
     3
370
    30
100
AcDbLine
 10
225.819742
 20
173.270013
 30
0.0
 11
229.902225
 21
177.352496
 31
0.0
  0
CIRCLE
  5
63
330
5A
100
AcDbEntity
  8
003
 62
     3
370
    30
100
AcDbCircle
 10
231.396518
 20
171.77572
 30
0.0
 40
4.999999999999998
  0
LINE
  5
64
330
5A
100
AcDbEntity
  8
003
  6
CENTER
 62
    40
370
     9
100
AcDbLine
 10
227.044487
 20
167.42369
 30
0.0
 11
235.748548
 21
176.127751
 31
0.0
  0
ENDBLK
  5
5C
330
5A
100
AcDbEntity
  8
0
100
AcDbBlockEnd
  0
BLOCK
  5
66
330
65
100
AcDbEntity
  8
0
100
AcDbBlockBegin
  2
JZB-4
 70
     0
 10
0.0
 20
0.0
 30
0.0
  3
JZB-4
  1

  0
LINE
  5
68
330
65
100
AcDbEntity
  8
003
 62
     3
370
    30
100
AcDbLine
 10
232.89081
 20
216.950476
 30
0.0
 11
227.314035
 21
215.456183
 31
0.0
  0
LINE
  5
69
330
65
100
AcDbEntity
  8
003
 62
     3
370
    30
100
AcDbLine
 10
235.479
 20
207.291217
 30
0.0
 11
229.902225
 21
205.796925
 31
0.0
  0
LINE
  5
6A
330
65
100
AcDbEntity
  8
003
 62
     3
370
    30
100
AcDbLine
 10
236.973293
 20
212.867993
 30
0.0
 11
235.479
 21
207.291217
 31
0.0
  0
LINE
  5
6B
330
65
100
AcDbEntity
  8
003
 62
     3
370
    30
100
AcDbLine
 10
225.819742
 20
209.879408
 30
0.0
 11
227.314035
 21
215.456183
 31
0.0
  0
LINE
  5
6C
330
65
100
AcDbEntity
  8
003
 62
     3
370
    30
100
AcDbLine
 10
229.902225
 20
205.796925
 30
0.0
 11
225.819742
 21
209.879408
 31
0.0
  0
LINE
  5
6D
330
65
100
AcDbEntity
  8
003
 62
     3
370
    30
100
AcDbLine
 10
232.89081
 20
216.950476
 30
0.0
 11
236.973293
 21
212.867993
 31
0.0
  0
CIRCLE
  5
6E
330
65
100
AcDbEntity
  8
003
 62
     3
370
    30
100
AcDbCircle
 10
231.396518
 20
211.3737
 30
0.0
 40
4.999999999999998
  0
LINE
  5
6F
330
65
100
AcDbEntity
  8
003
  6
CENTER
 62
    40
370
     9
100
AcDbLine
 10
227.044487
 20
215.725731
 30
0.0
 11
235.748548
 21
207.02167
 31
0.0
  0
ENDBLK
  5
67
330
65
100
AcDbEntity
  8
0
100
AcDbBlockEnd
  0
BLOCK
  5
71
330
70
100
AcDbEntity
  8
0
100
AcDbBlockBegin
  2
JZB-5
 70
     0
 10
0.0
 20
0.0
 30
0.0
  3
JZB-5
  1

  0
LINE
  5
73
330
70
100
AcDbEntity
  8
003
 62
     3
370
    30
100
AcDbLine
 10
732.406273
 20
209.879408
 30
0.0
 11
730.91198
 21
215.456183
 31
0.0
  0
LINE
  5
74
330
70
100
AcDbEntity
  8
003
 62
     3
370
    30
100
AcDbLine
 10
722.747014
 20
207.291217
 30
0.0
 11
721.252722
 21
212.867993
 31
0.0
  0
LINE
  5
75
330
70
100
AcDbEntity
  8
003
 62
     3
370
    30
100
AcDbLine
 10
728.32379
 20
205.796925
 30
0.0
 11
722.747014
 21
207.291217
 31
0.0
  0
LINE
  5
76
330
70
100
AcDbEntity
  8
003
 62
     3
370
    30
100
AcDbLine
 10
725.335205
 20
216.950476
 30
0.0
 11
730.91198
 21
215.456183
 31
0.0
  0
LINE
  5
77
330
70
100
AcDbEntity
  8
003
 62
     3
370
    30
100
AcDbLine
 10
721.252722
 20
212.867993
 30
0.0
 11
725.335205
 21
216.950476
 31
0.0
  0
LINE
  5
78
330
70
100
AcDbEntity
  8
003
 62
     3
370
    30
100
AcDbLine
 10
732.406273
 20
209.879408
 30
0.0
 11
728.32379
 21
205.796925
 31
0.0
  0
CIRCLE
  5
79
330
70
100
AcDbEntity
  8
003
 62
     3
370
    30
100
AcDbCircle
 10
726.829497
 20
211.3737
 30
0.0
 40
4.999999999999998
  0
LINE
  5
7A
330
70
100
AcDbEntity
  8
003
  6
CENTER
 62
    40
370
     9
100
AcDbLine
 10
731.181528
 20
215.725731
 30
0.0
 11
722.477467
 21
207.02167
 31
0.0
  0
ENDBLK
  5
72
330
70
100
AcDbEntity
  8
0
100
AcDbBlockEnd
  0
BLOCK
  5
7C
330
7B
100
AcDbEntity
  8
0
100
AcDbBlockBegin
  2
JZB-6
 70
     0
 10
0.0
 20
0.0
 30
0.0
  3
JZB-6
  1

  0
LINE
  5
7E
330
7B
100
AcDbEntity
  8
003
 62
     3
370
    30
100
AcDbLine
 10
725.335205
 20
166.198945
 30
0.0
 11
730.91198
 21
167.693238
 31
0.0
  0
LINE
  5
7F
330
7B
100
AcDbEntity
  8
003
 62
     3
370
    30
100
AcDbLine
 10
722.747014
 20
175.858203
 30
0.0
 11
728.32379
 21
177.352496
 31
0.0
  0
LINE
  5
80
330
7B
100
AcDbEntity
  8
003
 62
     3
370
    30
100
AcDbLine
 10
721.252722
 20
170.281428
 30
0.0
 11
722.747014
 21
175.858203
 31
0.0
  0
LINE
  5
81
330
7B
100
AcDbEntity
  8
003
 62
     3
370
    30
100
AcDbLine
 10
732.406273
 20
173.270013
 30
0.0
 11
730.91198
 21
167.693238
 31
0.0
  0
LINE
  5
82
330
7B
100
AcDbEntity
  8
003
 62
     3
370
    30
100
AcDbLine
 10
728.32379
 20
177.352496
 30
0.0
 11
732.406273
 21
173.270013
 31
0.0
  0
LINE
  5
83
330
7B
100
AcDbEntity
  8
003
 62
     3
370
    30
100
AcDbLine
 10
725.335205
 20
166.198945
 30
0.0
 11
721.252722
 21
170.281428
 31
0.0
  0
CIRCLE
  5
84
330
7B
100
AcDbEntity
  8
003
 62
     3
370
    30
100
AcDbCircle
 10
726.829497
 20
171.77572
 30
0.0
 40
4.999999999999998
  0
LINE
  5
85
330
7B
100
AcDbEntity
  8
003
  6
CENTER
 62
    40
370
     9
100
AcDbLine
 10
731.181528
 20
167.42369
 30
0.0
 11
722.477467
 21
176.127751
 31
0.0
  0
ENDBLK
  5
7D
330
7B
100
AcDbEntity
  8
0
100
AcDbBlockEnd
  0
BLOCK
  5
87
330
86
100
AcDbEntity
  8
0
100
AcDbBlockBegin
  2
JZB-7
 70
     0
 10
0.0
 20
0.0
 30
0.0
  3
JZB-7
  1

  0
LINE
  5
89
330
86
100
AcDbEntity
  8
003
 62
     3
370
    30
100
AcDbLine
 10
681.654742
 20
173.270013
 30
0.0
 11
683.149035
 21
167.693238
 31
0.0
  0
LINE
  5
8A
330
86
100
AcDbEntity
  8
003
 62
     3
370
    30
100
AcDbLine
 10
691.314001
 20
175.858203
 30
0.0
 11
692.808293
 21
170.281428
 31
0.0
  0
LINE
  5
8B
330
86
100
AcDbEntity
  8
003
 62
     3
370
    30
100
AcDbLine
 10
685.737225
 20
177.352496
 30
0.0
 11
691.314001
 21
175.858203
 31
0.0
  0
LINE
  5
8C
330
86
100
AcDbEntity
  8
003
 62
     3
370
    30
100
AcDbLine
 10
688.72581
 20
166.198945
 30
0.0
 11
683.149035
 21
167.693238
 31
0.0
  0
LINE
  5
8D
330
86
100
AcDbEntity
  8
003
 62
     3
370
    30
100
AcDbLine
 10
692.808293
 20
170.281428
 30
0.0
 11
688.72581
 21
166.198945
 31
0.0
  0
LINE
  5
8E
330
86
100
AcDbEntity
  8
003
 62
     3
370
    30
100
AcDbLine
 10
681.654742
 20
173.270013
 30
0.0
 11
685.737225
 21
177.352496
 31
0.0
  0
CIRCLE
  5
8F
330
86
100
AcDbEntity
  8
003
 62
     3
370
    30
100
AcDbCircle
 10
687.231518
 20
171.77572
 30
0.0
 40
4.999999999999998
  0
LINE
  5
90
330
86
100
AcDbEntity
  8
003
  6
CENTER
 62
    40
370
     9
100
AcDbLine
 10
682.879487
 20
167.42369
 30
0.0
 11
691.583548
 21
176.127751
 31
0.0
  0
ENDBLK
  5
88
330
86
100
AcDbEntity
  8
0
100
AcDbBlockEnd
  0
BLOCK
  5
92
330
91
100
AcDbEntity
  8
0
100
AcDbBlockBegin
  2
JZB-8
 70
     0
 10
0.0
 20
0.0
 30
0.0
  3
JZB-8
  1

  0
LINE
  5
94
330
91
100
AcDbEntity
  8
003
 62
     3
370
    30
100
AcDbLine
 10
688.72581
 20
216.950476
 30
0.0
 11
683.149035
 21
215.456183
 31
0.0
  0
LINE
  5
95
330
91
100
AcDbEntity
  8
003
 62
     3
370
    30
100
AcDbLine
 10
691.314
 20
207.291217
 30
0.0
 11
685.737225
 21
205.796925
 31
0.0
  0
LINE
  5
96
330
91
100
AcDbEntity
  8
003
 62
     3
370
    30
100
AcDbLine
 10
692.808293
 20
212.867993
 30
0.0
 11
691.314
 21
207.291217
 31
0.0
  0
LINE
  5
97
330
91
100
AcDbEntity
  8
003
 62
     3
370
    30
100
AcDbLine
 10
681.654742
 20
209.879408
 30
0.0
 11
683.149035
 21
215.456183
 31
0.0
  0
LINE
  5
98
330
91
100
AcDbEntity
  8
003
 62
     3
370
    30
100
AcDbLine
 10
685.737225
 20
205.796925
 30
0.0
 11
681.654742
 21
209.879408
 31
0.0
  0
LINE
  5
99
330
91
100
AcDbEntity
  8
003
 62
     3
370
    30
100
AcDbLine
 10
688.72581
 20
216.950476
 30
0.0
 11
692.808293
 21
212.867993
 31
0.0
  0
CIRCLE
  5
9A
330
91
100
AcDbEntity
  8
003
 62
     3
370
    30
100
AcDbCircle
 10
687.231518
 20
211.3737
 30
0.0
 40
4.999999999999998
  0
LINE
  5
9B
330
91
100
AcDbEntity
  8
003
  6
CENTER
 62
    40
370
     9
100
AcDbLine
 10
682.879487
 20
215.725731
 30
0.0
 11
691.583548
 21
207.02167
 31
0.0
  0
ENDBLK
  5
93
330
91
100
AcDbEntity
  8
0
100
AcDbBlockEnd
  0
BLOCK
  5
9D
330
9C
100
AcDbEntity
  8
0
100
AcDbBlockBegin
  2
JZB-9
 70
     0
 10
0.0
 20
0.0
 30
0.0
  3
JZB-9
  1

  0
LINE
  5
9F
330
9C
100
AcDbEntity
  8
003
 62
     3
370
    30
100
AcDbLine
 10
1014.699819
 20
398.954108
 30
0.0
 11
1013.205527
 21
404.530883
 31
0.0
  0
LINE
  5
A0
330
9C
100
AcDbEntity
  8
003
 62
     3
370
    30
100
AcDbLine
 10
1005.040561
 20
396.365917
 30
0.0
 11
1003.546269
 21
401.942693
 31
0.0
  0
LINE
  5
A1
330
9C
100
AcDbEntity
  8
003
 62
     3
370
    30
100
AcDbLine
 10
1010.617337
 20
394.871625
 30
0.0
 11
1005.040561
 21
396.365917
 31
0.0
  0
LINE
  5
A2
330
9C
100
AcDbEntity
  8
003
 62
     3
370
    30
100
AcDbLine
 10
1007.628752
 20
406.025176
 30
0.0
 11
1013.205527
 21
404.530883
 31
0.0
  0
LINE
  5
A3
330
9C
100
AcDbEntity
  8
003
 62
     3
370
    30
100
AcDbLine
 10
1003.546269
 20
401.942693
 30
0.0
 11
1007.628752
 21
406.025176
 31
0.0
  0
LINE
  5
A4
330
9C
100
AcDbEntity
  8
003
 62
     3
370
    30
100
AcDbLine
 10
1014.699819
 20
398.954108
 30
0.0
 11
1010.617337
 21
394.871625
 31
0.0
  0
CIRCLE
  5
A5
330
9C
100
AcDbEntity
  8
003
 62
     3
370
    30
100
AcDbCircle
 10
1009.123044
 20
400.4484
 30
0.0
 40
4.999999999999998
  0
LINE
  5
A6
330
9C
100
AcDbEntity
  8
003
  6
CENTER
 62
    40
370
     9
100
AcDbLine
 10
1013.475075
 20
404.800431
 30
0.0
 11
1004.771014
 21
396.09637
 31
0.0
  0
ENDBLK
  5
9E
330
9C
100
AcDbEntity
  8
0
100
AcDbBlockEnd
  0
BLOCK
  5
A8
330
A7
100
AcDbEntity
  8
0
100
AcDbBlockBegin
  2
JZB-10
 70
     0
 10
0.0
 20
0.0
 30
0.0
  3
JZB-10
  1

  0
LINE
  5
AA
330
A7
100
AcDbEntity
  8
003
 62
     3
370
    30
100
AcDbLine
 10
1007.628752
 20
355.273645
 30
0.0
 11
1013.205527
 21
356.767938
 31
0.0
  0
LINE
  5
AB
330
A7
100
AcDbEntity
  8
003
 62
     3
370
    30
100
AcDbLine
 10
1005.040561
 20
364.932904
 30
0.0
 11
1010.617337
 21
366.427196
 31
0.0
  0
LINE
  5
AC
330
A7
100
AcDbEntity
  8
003
 62
     3
370
    30
100
AcDbLine
 10
1003.546269
 20
359.356128
 30
0.0
 11
1005.040561
 21
364.932904
 31
0.0
  0
LINE
  5
AD
330
A7
100
AcDbEntity
  8
003
 62
     3
370
    30
100
AcDbLine
 10
1014.699819
 20
362.344713
 30
0.0
 11
1013.205527
 21
356.767938
 31
0.0
  0
LINE
  5
AE
330
A7
100
AcDbEntity
  8
003
 62
     3
370
    30
100
AcDbLine
 10
1010.617337
 20
366.427196
 30
0.0
 11
1014.699819
 21
362.344713
 31
0.0
  0
LINE
  5
AF
330
A7
100
AcDbEntity
  8
003
 62
     3
370
    30
100
AcDbLine
 10
1007.628752
 20
355.273645
 30
0.0
 11
1003.546269
 21
359.356128
 31
0.0
  0
CIRCLE
  5
B0
330
A7
100
AcDbEntity
  8
003
 62
     3
370
    30
100
AcDbCircle
 10
1009.123044
 20
360.850421
 30
0.0
 40
4.999999999999998
  0
LINE
  5
B1
330
A7
100
AcDbEntity
  8
003
  6
CENTER
 62
    40
370
     9
100
AcDbLine
 10
1013.475075
 20
356.49839
 30
0.0
 11
1004.771014
 21
365.202451
 31
0.0
  0
ENDBLK
  5
A9
330
A7
100
AcDbEntity
  8
0
100
AcDbBlockEnd
  0
BLOCK
  5
B3
330
B2
100
AcDbEntity
  8
0
100
AcDbBlockBegin
  2
JZB-11
 70
     0
 10
0.0
 20
0.0
 30
0.0
  3
JZB-11
  1

  0
LINE
  5
B5
330
B2
100
AcDbEntity
  8
003
 62
     3
370
    30
100
AcDbLine
 10
963.948289
 20
362.344713
 30
0.0
 11
965.442581
 21
356.767938
 31
0.0
  0
LINE
  5
B6
330
B2
100
AcDbEntity
  8
003
 62
     3
370
    30
100
AcDbLine
 10
973.607547
 20
364.932904
 30
0.0
 11
975.10184
 21
359.356128
 31
0.0
  0
LINE
  5
B7
330
B2
100
AcDbEntity
  8
003
 62
     3
370
    30
100
AcDbLine
 10
968.030772
 20
366.427196
 30
0.0
 11
973.607547
 21
364.932904
 31
0.0
  0
LINE
  5
B8
330
B2
100
AcDbEntity
  8
003
 62
     3
370
    30
100
AcDbLine
 10
971.019357
 20
355.273645
 30
0.0
 11
965.442581
 21
356.767938
 31
0.0
  0
LINE
  5
B9
330
B2
100
AcDbEntity
  8
003
 62
     3
370
    30
100
AcDbLine
 10
975.10184
 20
359.356128
 30
0.0
 11
971.019357
 21
355.273645
 31
0.0
  0
LINE
  5
BA
330
B2
100
AcDbEntity
  8
003
 62
     3
370
    30
100
AcDbLine
 10
963.948289
 20
362.344713
 30
0.0
 11
968.030772
 21
366.427196
 31
0.0
  0
CIRCLE
  5
BB
330
B2
100
AcDbEntity
  8
003
 62
     3
370
    30
100
AcDbCircle
 10
969.525064
 20
360.850421
 30
0.0
 40
4.999999999999998
  0
LINE
  5
BC
330
B2
100
AcDbEntity
  8
003
  6
CENTER
 62
    40
370
     9
100
AcDbLine
 10
965.173034
 20
356.49839
 30
0.0
 11
973.877095
 21
365.202451
 31
0.0
  0
ENDBLK
  5
B4
330
B2
100
AcDbEntity
  8
0
100
AcDbBlockEnd
  0
BLOCK
  5
BE
330
BD
100
AcDbEntity
  8
0
100
AcDbBlockBegin
  2
JZB-12
 70
     0
 10
0.0
 20
0.0
 30
0.0
  3
JZB-12
  1

  0
LINE
  5
C0
330
BD
100
AcDbEntity
  8
003
 62
     3
370
    30
100
AcDbLine
 10
971.019357
 20
406.025176
 30
0.0
 11
965.442581
 21
404.530883
 31
0.0
  0
LINE
  5
C1
330
BD
100
AcDbEntity
  8
003
 62
     3
370
    30
100
AcDbLine
 10
973.607547
 20
396.365917
 30
0.0
 11
968.030772
 21
394.871625
 31
0.0
  0
LINE
  5
C2
330
BD
100
AcDbEntity
  8
003
 62
     3
370
    30
100
AcDbLine
 10
975.10184
 20
401.942693
 30
0.0
 11
973.607547
 21
396.365917
 31
0.0
  0
LINE
  5
C3
330
BD
100
AcDbEntity
  8
003
 62
     3
370
    30
100
AcDbLine
 10
963.948289
 20
398.954108
 30
0.0
 11
965.442581
 21
404.530883
 31
0.0
  0
LINE
  5
C4
330
BD
100
AcDbEntity
  8
003
 62
     3
370
    30
100
AcDbLine
 10
968.030772
 20
394.871625
 30
0.0
 11
963.948289
 21
398.954108
 31
0.0
  0
LINE
  5
C5
330
BD
100
AcDbEntity
  8
003
 62
     3
370
    30
100
AcDbLine
 10
971.019357
 20
406.025176
 30
0.0
 11
975.10184
 21
401.942693
 31
0.0
  0
CIRCLE
  5
C6
330
BD
100
AcDbEntity
  8
003
 62
     3
370
    30
100
AcDbCircle
 10
969.525064
 20
400.4484
 30
0.0
 40
4.999999999999998
  0
LINE
  5
C7
330
BD
100
AcDbEntity
  8
003
  6
CENTER
 62
    40
370
     9
100
AcDbLine
 10
965.173034
 20
404.800431
 30
0.0
 11
973.877095
 21
396.09637
 31
0.0
  0
ENDBLK
  5
BF
330
BD
100
AcDbEntity
  8
0
100
AcDbBlockEnd
  0
BLOCK
  5
C9
330
C8
100
AcDbEntity
  8
0
100
AcDbBlockBegin
  2
JZB-13
 70
     0
 10
0.0
 20
0.0
 30
0.0
  3
JZB-13
  1

  0
LINE
  5
CB
330
C8
100
AcDbEntity
  8
003
 62
     3
370
    30
100
AcDbLine
 10
1214.699819
 20
398.954108
 30
0.0
 11
1213.205527
 21
404.530883
 31
0.0
  0
LINE
  5
CC
330
C8
100
AcDbEntity
  8
003
 62
     3
370
    30
100
AcDbLine
 10
1205.040561
 20
396.365917
 30
0.0
 11
1203.546269
 21
401.942693
 31
0.0
  0
LINE
  5
CD
330
C8
100
AcDbEntity
  8
003
 62
     3
370
    30
100
AcDbLine
 10
1210.617337
 20
394.871625
 30
0.0
 11
1205.040561
 21
396.365917
 31
0.0
  0
LINE
  5
CE
330
C8
100
AcDbEntity
  8
003
 62
     3
370
    30
100
AcDbLine
 10
1207.628752
 20
406.025176
 30
0.0
 11
1213.205527
 21
404.530883
 31
0.0
  0
LINE
  5
CF
330
C8
100
AcDbEntity
  8
003
 62
     3
370
    30
100
AcDbLine
 10
1203.546269
 20
401.942693
 30
0.0
 11
1207.628752
 21
406.025176
 31
0.0
  0
LINE
  5
D0
330
C8
100
AcDbEntity
  8
003
 62
     3
370
    30
100
AcDbLine
 10
1214.699819
 20
398.954108
 30
0.0
 11
1210.617337
 21
394.871625
 31
0.0
  0
CIRCLE
  5
D1
330
C8
100
AcDbEntity
  8
003
 62
     3
370
    30
100
AcDbCircle
 10
1209.123044
 20
400.4484
 30
0.0
 40
4.999999999999998
  0
LINE
  5
D2
330
C8
100
AcDbEntity
  8
003
  6
CENTER
 62
    40
370
     9
100
AcDbLine
 10
1213.475075
 20
404.800431
 30
0.0
 11
1204.771014
 21
396.09637
 31
0.0
  0
ENDBLK
  5
CA
330
C8
100
AcDbEntity
  8
0
100
AcDbBlockEnd
  0
BLOCK
  5
D4
330
D3
100
AcDbEntity
  8
0
100
AcDbBlockBegin
  2
JZB-14
 70
     0
 10
0.0
 20
0.0
 30
0.0
  3
JZB-14
  1

  0
LINE
  5
D6
330
D3
100
AcDbEntity
  8
003
 62
     3
370
    30
100
AcDbLine
 10
1207.628752
 20
355.273645
 30
0.0
 11
1213.205527
 21
356.767938
 31
0.0
  0
LINE
  5
D7
330
D3
100
AcDbEntity
  8
003
 62
     3
370
    30
100
AcDbLine
 10
1205.040561
 20
364.932904
 30
0.0
 11
1210.617337
 21
366.427196
 31
0.0
  0
LINE
  5
D8
330
D3
100
AcDbEntity
  8
003
 62
     3
370
    30
100
AcDbLine
 10
1203.546269
 20
359.356128
 30
0.0
 11
1205.040561
 21
364.932904
 31
0.0
  0
LINE
  5
D9
330
D3
100
AcDbEntity
  8
003
 62
     3
370
    30
100
AcDbLine
 10
1214.699819
 20
362.344713
 30
0.0
 11
1213.205527
 21
356.767938
 31
0.0
  0
LINE
  5
DA
330
D3
100
AcDbEntity
  8
003
 62
     3
370
    30
100
AcDbLine
 10
1210.617337
 20
366.427196
 30
0.0
 11
1214.699819
 21
362.344713
 31
0.0
  0
LINE
  5
DB
330
D3
100
AcDbEntity
  8
003
 62
     3
370
    30
100
AcDbLine
 10
1207.628752
 20
355.273645
 30
0.0
 11
1203.546269
 21
359.356128
 31
0.0
  0
CIRCLE
  5
DC
330
D3
100
AcDbEntity
  8
003
 62
     3
370
    30
100
AcDbCircle
 10
1209.123044
 20
360.850421
 30
0.0
 40
4.999999999999998
  0
LINE
  5
DD
330
D3
100
AcDbEntity
  8
003
  6
CENTER
 62
    40
370
     9
100
AcDbLine
 10
1213.475075
 20
356.49839
 30
0.0
 11
1204.771014
 21
365.202451
 31
0.0
  0
ENDBLK
  5
D5
330
D3
100
AcDbEntity
  8
0
100
AcDbBlockEnd
  0
BLOCK
  5
DF
330
DE
100
AcDbEntity
  8
0
100
AcDbBlockBegin
  2
JZB-15
 70
     0
 10
0.0
 20
0.0
 30
0.0
  3
JZB-15
  1

  0
LINE
  5
E1
330
DE
100
AcDbEntity
  8
003
 62
     3
370
    30
100
AcDbLine
 10
1163.948289
 20
362.344713
 30
0.0
 11
1165.442581
 21
356.767938
 31
0.0
  0
LINE
  5
E2
330
DE
100
AcDbEntity
  8
003
 62
     3
370
    30
100
AcDbLine
 10
1173.607547
 20
364.932904
 30
0.0
 11
1175.10184
 21
359.356128
 31
0.0
  0
LINE
  5
E3
330
DE
100
AcDbEntity
  8
003
 62
     3
370
    30
100
AcDbLine
 10
1168.030772
 20
366.427196
 30
0.0
 11
1173.607547
 21
364.932904
 31
0.0
  0
LINE
  5
E4
330
DE
100
AcDbEntity
  8
003
 62
     3
370
    30
100
AcDbLine
 10
1171.019357
 20
355.273645
 30
0.0
 11
1165.442581
 21
356.767938
 31
0.0
  0
LINE
  5
E5
330
DE
100
AcDbEntity
  8
003
 62
     3
370
    30
100
AcDbLine
 10
1175.10184
 20
359.356128
 30
0.0
 11
1171.019357
 21
355.273645
 31
0.0
  0
LINE
  5
E6
330
DE
100
AcDbEntity
  8
003
 62
     3
370
    30
100
AcDbLine
 10
1163.948289
 20
362.344713
 30
0.0
 11
1168.030772
 21
366.427196
 31
0.0
  0
CIRCLE
  5
E7
330
DE
100
AcDbEntity
  8
003
 62
     3
370
    30
100
AcDbCircle
 10
1169.525064
 20
360.850421
 30
0.0
 40
4.999999999999998
  0
LINE
  5
E8
330
DE
100
AcDbEntity
  8
003
  6
CENTER
 62
    40
370
     9
100
AcDbLine
 10
1165.173034
 20
356.49839
 30
0.0
 11
1173.877095
 21
365.202451
 31
0.0
  0
ENDBLK
  5
E0
330
DE
100
AcDbEntity
  8
0
100
AcDbBlockEnd
  0
BLOCK
  5
EA
330
E9
100
AcDbEntity
  8
0
100
AcDbBlockBegin
  2
JZB-16
 70
     0
 10
0.0
 20
0.0
 30
0.0
  3
JZB-16
  1

  0
LINE
  5
EC
330
E9
100
AcDbEntity
  8
003
 62
     3
370
    30
100
AcDbLine
 10
1171.019357
 20
406.025176
 30
0.0
 11
1165.442581
 21
404.530883
 31
0.0
  0
LINE
  5
ED
330
E9
100
AcDbEntity
  8
003
 62
     3
370
    30
100
AcDbLine
 10
1173.607547
 20
396.365917
 30
0.0
 11
1168.030772
 21
394.871625
 31
0.0
  0
LINE
  5
EE
330
E9
100
AcDbEntity
  8
003
 62
     3
370
    30
100
AcDbLine
 10
1175.10184
 20
401.942693
 30
0.0
 11
1173.607547
 21
396.365917
 31
0.0
  0
LINE
  5
EF
330
E9
100
AcDbEntity
  8
003
 62
     3
370
    30
100
AcDbLine
 10
1163.948289
 20
398.954108
 30
0.0
 11
1165.442581
 21
404.530883
 31
0.0
  0
LINE
  5
F0
330
E9
100
AcDbEntity
  8
003
 62
     3
370
    30
100
AcDbLine
 10
1168.030772
 20
394.871625
 30
0.0
 11
1163.948289
 21
398.954108
 31
0.0
  0
LINE
  5
F1
330
E9
100
AcDbEntity
  8
003
 62
     3
370
    30
100
AcDbLine
 10
1171.019357
 20
406.025176
 30
0.0
 11
1175.10184
 21
401.942693
 31
0.0
  0
CIRCLE
  5
F2
330
E9
100
AcDbEntity
  8
003
 62
     3
370
    30
100
AcDbCircle
 10
1169.525064
 20
400.4484
 30
0.0
 40
4.999999999999998
  0
LINE
  5
F3
330
E9
100
AcDbEntity
  8
003
  6
CENTER
 62
    40
370
     9
100
AcDbLine
 10
1165.173034
 20
404.800431
 30
0.0
 11
1173.877095
 21
396.09637
 31
0.0
  0
ENDBLK
  5
EB
330
E9
100
AcDbEntity
  8
0
100
AcDbBlockEnd
  0
BLOCK
  5
F5
330
F4
100
AcDbEntity
  8
0
100
AcDbBlockBegin
  2
JZB-17
 70
     0
 10
0.0
 20
0.0
 30
0.0
  3
JZB-17
  1

  0
LINE
  5
F7
330
F4
100
AcDbEntity
  8
002
 62
     3
370
    30
100
AcDbLine
 10
276.744007
 20
1122.839703
 30
0.0
 11
276.744007
 21
1119.330462
 31
0.0
  0
LINE
  5
F8
330
F4
100
AcDbEntity
  8
002
 62
     3
370
    30
100
AcDbLine
 10
275.894007
 20
1123.330451
 30
0.0
 11
266.094007
 21
1123.330451
 31
0.0
  0
LINE
  5
F9
330
F4
100
AcDbEntity
  8
002
 62
     3
370
    30
100
AcDbLine
 10
276.744007
 20
1119.330462
 30
0.0
 11
265.244007
 21
1119.330462
 31
0.0
  0
LINE
  5
FA
330
F4
100
AcDbEntity
  8
002
 62
     3
370
    30
100
AcDbLine
 10
275.894007
 20
1123.330451
 30
0.0
 11
276.744007
 21
1122.839703
 31
0.0
  0
LINE
  5
FB
330
F4
100
AcDbEntity
  8
002
 62
     3
370
    30
100
AcDbLine
 10
266.094007
 20
1123.330451
 30
0.0
 11
265.244007
 21
1122.839703
 31
0.0
  0
LINE
  5
FC
330
F4
100
AcDbEntity
  8
002
 62
     3
370
    30
100
AcDbLine
 10
265.244007
 20
1122.839703
 30
0.0
 11
265.244007
 21
1119.330462
 31
0.0
  0
LINE
  5
FD
330
F4
100
AcDbEntity
  8
002
 62
     3
370
    30
100
AcDbLine
 10
273.869007
 20
1119.330462
 30
0.0
 11
273.869007
 21
1122.839703
 31
0.0
  0
LINE
  5
FE
330
F4
100
AcDbEntity
  8
002
 62
     3
370
    30
100
AcDbLine
 10
268.119007
 20
1119.330462
 30
0.0
 11
268.119007
 21
1122.839703
 31
0.0
  0
ARC
  5
FF
330
F4
100
AcDbEntity
  8
002
 62
     3
370
    30
100
AcDbCircle
 10
266.681507
 20
1120.979712
 30
0.0
 40
2.35073893151023
100
AcDbArc
 50
52.301245
 51
90.0
  0
ARC
  5
100
330
F4
100
AcDbEntity
  8
002
 62
     3
370
    30
100
AcDbCircle
 10
275.306507
 20
1120.979712
 30
0.0
 40
2.35073893151023
100
AcDbArc
 50
90.0
 51
127.698755
  0
ARC
  5
101
330
F4
100
AcDbEntity
  8
002
 62
     3
370
    30
100
AcDbCircle
 10
270.994007
 20
1114.663616
 30
0.0
 40
8.666834132824174
100
AcDbArc
 50
70.626529
 51
109.373471
  0
LINE
  5
102
330
F4
100
AcDbEntity
  8
002
 62
     3
370
    30
100
AcDbLine
 10
270.994002
 20
1119.330451
 30
0.0
 11
270.994002
 21
1119.330462
 31
0.0
  0
LINE
  5
103
330
F4
100
AcDbEntity
  8
002
 62
     3
370
    30
100
AcDbLine
 10
270.994002
 20
1119.330451
 30
0.0
 11
270.994013
 21
1119.330451
 31
0.0
  0
LINE
  5
104
330
F4
100
AcDbEntity
  8
002
 62
     3
370
    30
100
AcDbLine
 10
270.994013
 20
1119.330451
 30
0.0
 11
270.994013
 21
1119.330462
 31
0.0
  0
ENDBLK
  5
F6
330
F4
100
AcDbEntity
  8
0
100
AcDbBlockEnd
  0
BLOCK
  5
106
330
105
100
AcDbEntity
  8
0
100
AcDbBlockBegin
  2
JZB-18
 70
     0
 10
0.0
 20
0.0
 30
0.0
  3
JZB-18
  1

  0
LINE
  5
108
330
105
100
AcDbEntity
  8
002
 62
     3
370
    30
100
AcDbLine
 10
226.496007
 20
1123.330451
 30
0.0
 11
236.296007
 21
1123.330451
 31
0.0
  0
LINE
  5
109
330
105
100
AcDbEntity
  8
002
 62
     3
370
    30
100
AcDbLine
 10
226.496007
 20
1123.330451
 30
0.0
 11
225.646007
 21
1122.839703
 31
0.0
  0
LINE
  5
10A
330
105
100
AcDbEntity
  8
002
 62
     3
370
    30
100
AcDbLine
 10
236.296007
 20
1123.330451
 30
0.0
 11
237.146007
 21
1122.839703
 31
0.0
  0
LINE
  5
10B
330
105
100
AcDbEntity
  8
002
 62
     3
370
    30
100
AcDbLine
 10
237.146007
 20
1122.839703
 30
0.0
 11
237.146007
 21
1119.330462
 31
0.0
  0
LINE
  5
10C
330
105
100
AcDbEntity
  8
002
 62
     3
370
    30
100
AcDbLine
 10
228.521007
 20
1119.330462
 30
0.0
 11
228.521007
 21
1122.839703
 31
0.0
  0
LINE
  5
10D
330
105
100
AcDbEntity
  8
002
 62
     3
370
    30
100
AcDbLine
 10
234.271007
 20
1119.330462
 30
0.0
 11
234.271007
 21
1122.839703
 31
0.0
  0
ARC
  5
10E
330
105
100
AcDbEntity
  8
002
 62
     3
370
    30
100
AcDbCircle
 10
235.708507
 20
1120.979712
 30
0.0
 40
2.35073893151023
100
AcDbArc
 50
90.0
 51
127.698755
  0
ARC
  5
10F
330
105
100
AcDbEntity
  8
002
 62
     3
370
    30
100
AcDbCircle
 10
227.083507
 20
1120.979712
 30
0.0
 40
2.35073893151023
100
AcDbArc
 50
52.301245
 51
90.0
  0
ARC
  5
110
330
105
100
AcDbEntity
  8
002
 62
     3
370
    30
100
AcDbCircle
 10
231.396007
 20
1114.663616
 30
0.0
 40
8.666834132824174
100
AcDbArc
 50
70.626529
 51
109.373471
  0
LINE
  5
111
330
105
100
AcDbEntity
  8
002
 62
     3
370
    30
100
AcDbLine
 10
231.396013
 20
1119.330451
 30
0.0
 11
231.396013
 21
1119.330462
 31
0.0
  0
LINE
  5
112
330
105
100
AcDbEntity
  8
002
 62
     3
370
    30
100
AcDbLine
 10
231.396013
 20
1119.330451
 30
0.0
 11
231.396002
 21
1119.330451
 31
0.0
  0
LINE
  5
113
330
105
100
AcDbEntity
  8
002
 62
     3
370
    30
100
AcDbLine
 10
231.396002
 20
1119.330451
 30
0.0
 11
231.396002
 21
1119.330462
 31
0.0
  0
LINE
  5
114
330
105
100
AcDbEntity
  8
002
 62
     3
370
    30
100
AcDbLine
 10
225.646007
 20
1122.839703
 30
0.0
 11
225.646007
 21
1120.275121
 31
0.0
  0
LINE
  5
115
330
105
100
AcDbEntity
  8
002
 62
     3
370
    30
100
AcDbLine
 10
228.521007
 20
1119.330462
 30
0.0
 11
237.146007
 21
1119.330462
 31
0.0
  0
ENDBLK
  5
107
330
105
100
AcDbEntity
  8
0
100
AcDbBlockEnd
  0
BLOCK
  5
117
330
116
100
AcDbEntity
  8
0
100
AcDbBlockBegin
  2
JZB-19
 70
     0
 10
0.0
 20
0.0
 30
0.0
  3
JZB-19
  1

  0
LINE
  5
119
330
116
100
AcDbEntity
  8
002
 62
     3
370
    30
100
AcDbLine
 10
276.744007
 20
1003.821198
 30
0.0
 11
276.744007
 21
1007.33044
 31
0.0
  0
LINE
  5
11A
330
116
100
AcDbEntity
  8
002
 62
     3
370
    30
100
AcDbLine
 10
275.894007
 20
1003.330451
 30
0.0
 11
266.094007
 21
1003.330451
 31
0.0
  0
LINE
  5
11B
330
116
100
AcDbEntity
  8
002
 62
     3
370
    30
100
AcDbLine
 10
276.744007
 20
1007.33044
 30
0.0
 11
265.244007
 21
1007.33044
 31
0.0
  0
LINE
  5
11C
330
116
100
AcDbEntity
  8
002
 62
     3
370
    30
100
AcDbLine
 10
275.894007
 20
1003.330451
 30
0.0
 11
276.744007
 21
1003.821198
 31
0.0
  0
LINE
  5
11D
330
116
100
AcDbEntity
  8
002
 62
     3
370
    30
100
AcDbLine
 10
266.094007
 20
1003.330451
 30
0.0
 11
265.244007
 21
1003.821198
 31
0.0
  0
LINE
  5
11E
330
116
100
AcDbEntity
  8
002
 62
     3
370
    30
100
AcDbLine
 10
265.244007
 20
1003.821198
 30
0.0
 11
265.244007
 21
1007.33044
 31
0.0
  0
LINE
  5
11F
330
116
100
AcDbEntity
  8
002
 62
     3
370
    30
100
AcDbLine
 10
273.869007
 20
1007.33044
 30
0.0
 11
273.869007
 21
1003.821198
 31
0.0
  0
LINE
  5
120
330
116
100
AcDbEntity
  8
002
 62
     3
370
    30
100
AcDbLine
 10
268.119007
 20
1007.33044
 30
0.0
 11
268.119007
 21
1003.821198
 31
0.0
  0
ARC
  5
121
330
116
100
AcDbEntity
  8
002
 62
     3
370
    30
100
AcDbCircle
 10
266.681507
 20
1005.681189
 30
0.0
 40
2.35073893151023
100
AcDbArc
 50
270.0
 51
307.698755
  0
ARC
  5
122
330
116
100
AcDbEntity
  8
002
 62
     3
370
    30
100
AcDbCircle
 10
275.306507
 20
1005.681189
 30
0.0
 40
2.35073893151023
100
AcDbArc
 50
232.301245
 51
270.0
  0
ARC
  5
123
330
116
100
AcDbEntity
  8
002
 62
     3
370
    30
100
AcDbCircle
 10
270.994007
 20
1011.997285
 30
0.0
 40
8.666834132824174
100
AcDbArc
 50
250.626529
 51
289.373471
  0
LINE
  5
124
330
116
100
AcDbEntity
  8
002
 62
     3
370
    30
100
AcDbLine
 10
270.994002
 20
1007.330451
 30
0.0
 11
270.994002
 21
1007.33044
 31
0.0
  0
LINE
  5
125
330
116
100
AcDbEntity
  8
002
 62
     3
370
    30
100
AcDbLine
 10
270.994002
 20
1007.330451
 30
0.0
 11
270.994013
 21
1007.330451
 31
0.0
  0
LINE
  5
126
330
116
100
AcDbEntity
  8
002
 62
     3
370
    30
100
AcDbLine
 10
270.994013
 20
1007.330451
 30
0.0
 11
270.994013
 21
1007.33044
 31
0.0
  0
ENDBLK
  5
118
330
116
100
AcDbEntity
  8
0
100
AcDbBlockEnd
  0
BLOCK
  5
128
330
127
100
AcDbEntity
  8
0
100
AcDbBlockBegin
  2
JZB-20
 70
     0
 10
0.0
 20
0.0
 30
0.0
  3
JZB-20
  1

  0
LINE
  5
12A
330
127
100
AcDbEntity
  8
002
 62
     3
370
    30
100
AcDbLine
 10
226.496007
 20
1003.330451
 30
0.0
 11
236.296007
 21
1003.330451
 31
0.0
  0
LINE
  5
12B
330
127
100
AcDbEntity
  8
002
 62
     3
370
    30
100
AcDbLine
 10
226.496007
 20
1003.330451
 30
0.0
 11
225.646007
 21
1003.821198
 31
0.0
  0
LINE
  5
12C
330
127
100
AcDbEntity
  8
002
 62
     3
370
    30
100
AcDbLine
 10
236.296007
 20
1003.330451
 30
0.0
 11
237.146007
 21
1003.821198
 31
0.0
  0
LINE
  5
12D
330
127
100
AcDbEntity
  8
002
 62
     3
370
    30
100
AcDbLine
 10
237.146007
 20
1003.821198
 30
0.0
 11
237.146007
 21
1007.33044
 31
0.0
  0
LINE
  5
12E
330
127
100
AcDbEntity
  8
002
 62
     3
370
    30
100
AcDbLine
 10
228.521007
 20
1007.33044
 30
0.0
 11
228.521007
 21
1003.821198
 31
0.0
  0
LINE
  5
12F
330
127
100
AcDbEntity
  8
002
 62
     3
370
    30
100
AcDbLine
 10
234.271007
 20
1007.33044
 30
0.0
 11
234.271007
 21
1003.821198
 31
0.0
  0
ARC
  5
130
330
127
100
AcDbEntity
  8
002
 62
     3
370
    30
100
AcDbCircle
 10
235.708507
 20
1005.681189
 30
0.0
 40
2.35073893151023
100
AcDbArc
 50
232.301245
 51
270.0
  0
ARC
  5
131
330
127
100
AcDbEntity
  8
002
 62
     3
370
    30
100
AcDbCircle
 10
227.083507
 20
1005.681189
 30
0.0
 40
2.35073893151023
100
AcDbArc
 50
270.0
 51
307.698755
  0
ARC
  5
132
330
127
100
AcDbEntity
  8
002
 62
     3
370
    30
100
AcDbCircle
 10
231.396007
 20
1011.997285
 30
0.0
 40
8.666834132824174
100
AcDbArc
 50
250.626529
 51
289.373471
  0
LINE
  5
133
330
127
100
AcDbEntity
  8
002
 62
     3
370
    30
100
AcDbLine
 10
231.396013
 20
1007.330451
 30
0.0
 11
231.396013
 21
1007.33044
 31
0.0
  0
LINE
  5
134
330
127
100
AcDbEntity
  8
002
 62
     3
370
    30
100
AcDbLine
 10
231.396013
 20
1007.330451
 30
0.0
 11
231.396002
 21
1007.330451
 31
0.0
  0
LINE
  5
135
330
127
100
AcDbEntity
  8
002
 62
     3
370
    30
100
AcDbLine
 10
231.396002
 20
1007.330451
 30
0.0
 11
231.396002
 21
1007.33044
 31
0.0
  0
LINE
  5
136
330
127
100
AcDbEntity
  8
002
 62
     3
370
    30
100
AcDbLine
 10
225.646007
 20
1003.821198
 30
0.0
 11
225.646007
 21
1006.38578
 31
0.0
  0
LINE
  5
137
330
127
100
AcDbEntity
  8
002
 62
     3
370
    30
100
AcDbLine
 10
228.521007
 20
1007.33044
 30
0.0
 11
237.146007
 21
1007.33044
 31
0.0
  0
ENDBLK
  5
129
330
127
100
AcDbEntity
  8
0
100
AcDbBlockEnd
  0
BLOCK
  5
139
330
138
100
AcDbEntity
  8
0
100
AcDbBlockBegin
  2
JZB-21
 70
     0
 10
0.0
 20
0.0
 30
0.0
  3
JZB-21
  1

  0
LINE
  5
13B
330
138
100
AcDbEntity
  8
002
 62
     3
370
    30
100
AcDbLine
 10
507.51976
 20
166.02571
 30
0.0
 11
504.010518
 21
166.02571
 31
0.0
  0
LINE
  5
13C
330
138
100
AcDbEntity
  8
002
 62
     3
370
    30
100
AcDbLine
 10
508.010507
 20
166.87571
 30
0.0
 11
508.010507
 21
176.67571
 31
0.0
  0
LINE
  5
13D
330
138
100
AcDbEntity
  8
002
 62
     3
370
    30
100
AcDbLine
 10
504.010518
 20
166.02571
 30
0.0
 11
504.010518
 21
177.52571
 31
0.0
  0
LINE
  5
13E
330
138
100
AcDbEntity
  8
002
 62
     3
370
    30
100
AcDbLine
 10
508.010507
 20
166.87571
 30
0.0
 11
507.51976
 21
166.02571
 31
0.0
  0
LINE
  5
13F
330
138
100
AcDbEntity
  8
002
 62
     3
370
    30
100
AcDbLine
 10
508.010507
 20
176.67571
 30
0.0
 11
507.51976
 21
177.52571
 31
0.0
  0
LINE
  5
140
330
138
100
AcDbEntity
  8
002
 62
     3
370
    30
100
AcDbLine
 10
507.51976
 20
177.52571
 30
0.0
 11
504.010518
 21
177.52571
 31
0.0
  0
LINE
  5
141
330
138
100
AcDbEntity
  8
002
 62
     3
370
    30
100
AcDbLine
 10
504.010518
 20
168.90071
 30
0.0
 11
507.51976
 21
168.90071
 31
0.0
  0
LINE
  5
142
330
138
100
AcDbEntity
  8
002
 62
     3
370
    30
100
AcDbLine
 10
504.010518
 20
174.65071
 30
0.0
 11
507.51976
 21
174.65071
 31
0.0
  0
ARC
  5
143
330
138
100
AcDbEntity
  8
002
 62
     3
370
    30
100
AcDbCircle
 10
505.659769
 20
176.08821
 30
0.0
 40
2.35073893151023
100
AcDbArc
 50
322.301245
 51
0.0
  0
ARC
  5
144
330
138
100
AcDbEntity
  8
002
 62
     3
370
    30
100
AcDbCircle
 10
505.659769
 20
167.46321
 30
0.0
 40
2.35073893151023
100
AcDbArc
 50
0.0
 51
37.698755
  0
ARC
  5
145
330
138
100
AcDbEntity
  8
002
 62
     3
370
    30
100
AcDbCircle
 10
499.343673
 20
171.77571
 30
0.0
 40
8.666834132824174
100
AcDbArc
 50
340.626529
 51
19.373471
  0
LINE
  5
146
330
138
100
AcDbEntity
  8
002
 62
     3
370
    30
100
AcDbLine
 10
504.010507
 20
171.775716
 30
0.0
 11
504.010518
 21
171.775716
 31
0.0
  0
LINE
  5
147
330
138
100
AcDbEntity
  8
002
 62
     3
370
    30
100
AcDbLine
 10
504.010507
 20
171.775716
 30
0.0
 11
504.010507
 21
171.775705
 31
0.0
  0
LINE
  5
148
330
138
100
AcDbEntity
  8
002
 62
     3
370
    30
100
AcDbLine
 10
504.010507
 20
171.775705
 30
0.0
 11
504.010518
 21
171.775705
 31
0.0
  0
ENDBLK
  5
13A
330
138
100
AcDbEntity
  8
0
100
AcDbBlockEnd
  0
BLOCK
  5
14A
330
149
100
AcDbEntity
  8
0
100
AcDbBlockBegin
  2
JZB-22
 70
     0
 10
0.0
 20
0.0
 30
0.0
  3
JZB-22
  1

  0
LINE
  5
14C
330
149
100
AcDbEntity
  8
002
 62
     3
370
    30
100
AcDbLine
 10
508.010507
 20
216.27371
 30
0.0
 11
508.010507
 21
206.47371
 31
0.0
  0
LINE
  5
14D
330
149
100
AcDbEntity
  8
002
 62
     3
370
    30
100
AcDbLine
 10
508.010507
 20
216.27371
 30
0.0
 11
507.51976
 21
217.12371
 31
0.0
  0
LINE
  5
14E
330
149
100
AcDbEntity
  8
002
 62
     3
370
    30
100
AcDbLine
 10
508.010507
 20
206.47371
 30
0.0
 11
507.51976
 21
205.62371
 31
0.0
  0
LINE
  5
14F
330
149
100
AcDbEntity
  8
002
 62
     3
370
    30
100
AcDbLine
 10
507.51976
 20
205.62371
 30
0.0
 11
504.010518
 21
205.62371
 31
0.0
  0
LINE
  5
150
330
149
100
AcDbEntity
  8
002
 62
     3
370
    30
100
AcDbLine
 10
504.010518
 20
214.24871
 30
0.0
 11
507.51976
 21
214.24871
 31
0.0
  0
LINE
  5
151
330
149
100
AcDbEntity
  8
002
 62
     3
370
    30
100
AcDbLine
 10
504.010518
 20
208.49871
 30
0.0
 11
507.51976
 21
208.49871
 31
0.0
  0
ARC
  5
152
330
149
100
AcDbEntity
  8
002
 62
     3
370
    30
100
AcDbCircle
 10
505.659769
 20
207.06121
 30
0.0
 40
2.35073893151023
100
AcDbArc
 50
0.0
 51
37.698755
  0
ARC
  5
153
330
149
100
AcDbEntity
  8
002
 62
     3
370
    30
100
AcDbCircle
 10
505.659769
 20
215.68621
 30
0.0
 40
2.35073893151023
100
AcDbArc
 50
322.301245
 51
0.0
  0
ARC
  5
154
330
149
100
AcDbEntity
  8
002
 62
     3
370
    30
100
AcDbCircle
 10
499.343673
 20
211.37371
 30
0.0
 40
8.666834132824174
100
AcDbArc
 50
340.626529
 51
19.373471
  0
LINE
  5
155
330
149
100
AcDbEntity
  8
002
 62
     3
370
    30
100
AcDbLine
 10
504.010507
 20
211.373705
 30
0.0
 11
504.010518
 21
211.373705
 31
0.0
  0
LINE
  5
156
330
149
100
AcDbEntity
  8
002
 62
     3
370
    30
100
AcDbLine
 10
504.010507
 20
211.373705
 30
0.0
 11
504.010507
 21
211.373716
 31
0.0
  0
LINE
  5
157
330
149
100
AcDbEntity
  8
002
 62
     3
370
    30
100
AcDbLine
 10
504.010507
 20
211.373716
 30
0.0
 11
504.010518
 21
211.373716
 31
0.0
  0
LINE
  5
158
330
149
100
AcDbEntity
  8
002
 62
     3
370
    30
100
AcDbLine
 10
504.010518
 20
214.24871
 30
0.0
 11
504.010518
 21
205.62371
 31
0.0
  0
LINE
  5
159
330
149
100
AcDbEntity
  8
002
 62
     3
370
    30
100
AcDbLine
 10
507.51976
 20
217.12371
 30
0.0
 11
504.010507
 21
217.12371
 31
0.0
  0
ENDBLK
  5
14B
330
149
100
AcDbEntity
  8
0
100
AcDbBlockEnd
  0
BLOCK
  5
15B
330
15A
100
AcDbEntity
  8
0
100
AcDbBlockBegin
  2
JZB-23
 70
     0
 10
0.0
 20
0.0
 30
0.0
  3
JZB-23
  1

  0
LINE
  5
15D
330
15A
100
AcDbEntity
  8
002
 62
     3
370
    30
100
AcDbLine
 10
388.501255
 20
166.02571
 30
0.0
 11
392.010496
 21
166.02571
 31
0.0
  0
LINE
  5
15E
330
15A
100
AcDbEntity
  8
002
 62
     3
370
    30
100
AcDbLine
 10
388.010507
 20
166.87571
 30
0.0
 11
388.010507
 21
176.67571
 31
0.0
  0
LINE
  5
15F
330
15A
100
AcDbEntity
  8
002
 62
     3
370
    30
100
AcDbLine
 10
392.010496
 20
166.02571
 30
0.0
 11
392.010496
 21
177.52571
 31
0.0
  0
LINE
  5
160
330
15A
100
AcDbEntity
  8
002
 62
     3
370
    30
100
AcDbLine
 10
388.010507
 20
166.87571
 30
0.0
 11
388.501255
 21
166.02571
 31
0.0
  0
LINE
  5
161
330
15A
100
AcDbEntity
  8
002
 62
     3
370
    30
100
AcDbLine
 10
388.010507
 20
176.67571
 30
0.0
 11
388.501255
 21
177.52571
 31
0.0
  0
LINE
  5
162
330
15A
100
AcDbEntity
  8
002
 62
     3
370
    30
100
AcDbLine
 10
388.501255
 20
177.52571
 30
0.0
 11
392.010496
 21
177.52571
 31
0.0
  0
LINE
  5
163
330
15A
100
AcDbEntity
  8
002
 62
     3
370
    30
100
AcDbLine
 10
392.010496
 20
168.90071
 30
0.0
 11
388.501255
 21
168.90071
 31
0.0
  0
LINE
  5
164
330
15A
100
AcDbEntity
  8
002
 62
     3
370
    30
100
AcDbLine
 10
392.010496
 20
174.65071
 30
0.0
 11
388.501255
 21
174.65071
 31
0.0
  0
ARC
  5
165
330
15A
100
AcDbEntity
  8
002
 62
     3
370
    30
100
AcDbCircle
 10
390.361246
 20
176.08821
 30
0.0
 40
2.35073893151023
100
AcDbArc
 50
180.0
 51
217.698755
  0
ARC
  5
166
330
15A
100
AcDbEntity
  8
002
 62
     3
370
    30
100
AcDbCircle
 10
390.361246
 20
167.46321
 30
0.0
 40
2.35073893151023
100
AcDbArc
 50
142.301245
 51
180.0
  0
ARC
  5
167
330
15A
100
AcDbEntity
  8
002
 62
     3
370
    30
100
AcDbCircle
 10
396.677342
 20
171.77571
 30
0.0
 40
8.666834132824174
100
AcDbArc
 50
160.626529
 51
199.373471
  0
LINE
  5
168
330
15A
100
AcDbEntity
  8
002
 62
     3
370
    30
100
AcDbLine
 10
392.010507
 20
171.775716
 30
0.0
 11
392.010496
 21
171.775716
 31
0.0
  0
LINE
  5
169
330
15A
100
AcDbEntity
  8
002
 62
     3
370
    30
100
AcDbLine
 10
392.010507
 20
171.775716
 30
0.0
 11
392.010507
 21
171.775705
 31
0.0
  0
LINE
  5
16A
330
15A
100
AcDbEntity
  8
002
 62
     3
370
    30
100
AcDbLine
 10
392.010507
 20
171.775705
 30
0.0
 11
392.010496
 21
171.775705
 31
0.0
  0
ENDBLK
  5
15C
330
15A
100
AcDbEntity
  8
0
100
AcDbBlockEnd
  0
BLOCK
  5
16C
330
16B
100
AcDbEntity
  8
0
100
AcDbBlockBegin
  2
JZB-24
 70
     0
 10
0.0
 20
0.0
 30
0.0
  3
JZB-24
  1

  0
LINE
  5
16E
330
16B
100
AcDbEntity
  8
002
 62
     3
370
    30
100
AcDbLine
 10
388.501255
 20
217.12371
 30
0.0
 11
392.010496
 21
217.12371
 31
0.0
  0
LINE
  5
16F
330
16B
100
AcDbEntity
  8
002
 62
     3
370
    30
100
AcDbLine
 10
388.010507
 20
216.27371
 30
0.0
 11
388.010507
 21
206.47371
 31
0.0
  0
LINE
  5
170
330
16B
100
AcDbEntity
  8
002
 62
     3
370
    30
100
AcDbLine
 10
392.010496
 20
217.12371
 30
0.0
 11
392.010496
 21
205.62371
 31
0.0
  0
LINE
  5
171
330
16B
100
AcDbEntity
  8
002
 62
     3
370
    30
100
AcDbLine
 10
388.010507
 20
216.27371
 30
0.0
 11
388.501255
 21
217.12371
 31
0.0
  0
LINE
  5
172
330
16B
100
AcDbEntity
  8
002
 62
     3
370
    30
100
AcDbLine
 10
388.010507
 20
206.47371
 30
0.0
 11
388.501255
 21
205.62371
 31
0.0
  0
LINE
  5
173
330
16B
100
AcDbEntity
  8
002
 62
     3
370
    30
100
AcDbLine
 10
388.501255
 20
205.62371
 30
0.0
 11
392.010496
 21
205.62371
 31
0.0
  0
LINE
  5
174
330
16B
100
AcDbEntity
  8
002
 62
     3
370
    30
100
AcDbLine
 10
392.010496
 20
214.24871
 30
0.0
 11
388.501255
 21
214.24871
 31
0.0
  0
LINE
  5
175
330
16B
100
AcDbEntity
  8
002
 62
     3
370
    30
100
AcDbLine
 10
392.010496
 20
208.49871
 30
0.0
 11
388.501255
 21
208.49871
 31
0.0
  0
ARC
  5
176
330
16B
100
AcDbEntity
  8
002
 62
     3
370
    30
100
AcDbCircle
 10
390.361246
 20
207.06121
 30
0.0
 40
2.35073893151023
100
AcDbArc
 50
142.301245
 51
180.0
  0
ARC
  5
177
330
16B
100
AcDbEntity
  8
002
 62
     3
370
    30
100
AcDbCircle
 10
390.361246
 20
215.68621
 30
0.0
 40
2.35073893151023
100
AcDbArc
 50
180.0
 51
217.698755
  0
ARC
  5
178
330
16B
100
AcDbEntity
  8
002
 62
     3
370
    30
100
AcDbCircle
 10
396.677342
 20
211.37371
 30
0.0
 40
8.666834132824174
100
AcDbArc
 50
160.626529
 51
199.373471
  0
LINE
  5
179
330
16B
100
AcDbEntity
  8
002
 62
     3
370
    30
100
AcDbLine
 10
392.010507
 20
211.373705
 30
0.0
 11
392.010496
 21
211.373705
 31
0.0
  0
LINE
  5
17A
330
16B
100
AcDbEntity
  8
002
 62
     3
370
    30
100
AcDbLine
 10
392.010507
 20
211.373705
 30
0.0
 11
392.010507
 21
211.373716
 31
0.0
  0
LINE
  5
17B
330
16B
100
AcDbEntity
  8
002
 62
     3
370
    30
100
AcDbLine
 10
392.010507
 20
211.373716
 30
0.0
 11
392.010496
 21
211.373716
 31
0.0
  0
ENDBLK
  5
16D
330
16B
100
AcDbEntity
  8
0
100
AcDbBlockEnd
  0
BLOCK
  5
17D
330
17C
100
AcDbEntity
  8
0
100
AcDbBlockBegin
  2
ETC-25
 70
     0
 10
0.0
 20
0.0
 30
0.0
  3
ETC-25
  1

  0
LINE
  5
17F
330
17C
100
AcDbEntity
  8
002
 62
     3
370
    30
100
AcDbLine
 10
210.785057
 20
668.003924
 30
0.0
 11
210.297566
 21
668.226367
 31
0.0
  0
LINE
  5
180
330
17C
100
AcDbEntity
  8
002
 62
     3
370
    30
100
AcDbLine
 10
210.297566
 20
668.226367
 30
0.0
 11
209.774666
 21
668.316592
 31
0.0
  0
LINE
  5
181
330
17C
100
AcDbEntity
  8
002
 62
     3
370
    30
100
AcDbLine
 10
209.774666
 20
668.316592
 30
0.0
 11
209.251774
 21
668.226336
 31
0.0
  0
LINE
  5
182
330
17C
100
AcDbEntity
  8
002
 62
     3
370
    30
100
AcDbLine
 10
209.251774
 20
668.226336
 30
0.0
 11
208.76429
 21
668.003894
 31
0.0
  0
ENDBLK
  5
17E
330
17C
100
AcDbEntity
  8
0
100
AcDbBlockEnd
  0
BLOCK
  5
184
330
183
100
AcDbEntity
  8
0
100
AcDbBlockBegin
  2
ETC-26
 70
     0
 10
0.0
 20
0.0
 30
0.0
  3
ETC-26
  1

  0
LINE
  5
186
330
183
100
AcDbEntity
  8
002
 62
     3
370
    30
100
AcDbLine
 10
202.701973
 20
668.003924
 30
0.0
 11
203.189463
 21
668.226367
 31
0.0
  0
LINE
  5
187
330
183
100
AcDbEntity
  8
002
 62
     3
370
    30
100
AcDbLine
 10
203.189463
 20
668.226367
 30
0.0
 11
203.712364
 21
668.316592
 31
0.0
  0
LINE
  5
188
330
183
100
AcDbEntity
  8
002
 62
     3
370
    30
100
AcDbLine
 10
203.712364
 20
668.316592
 30
0.0
 11
204.235249
 21
668.226336
 31
0.0
  0
LINE
  5
189
330
183
100
AcDbEntity
  8
002
 62
     3
370
    30
100
AcDbLine
 10
204.235249
 20
668.226336
 30
0.0
 11
204.722725
 21
668.003894
 31
0.0
  0
ENDBLK
  5
185
330
183
100
AcDbEntity
  8
0
100
AcDbBlockEnd
  0
BLOCK
  5
18B
330
18A
100
AcDbEntity
  8
0
100
AcDbBlockBegin
  2
ETC-27
 70
     0
 10
0.0
 20
0.0
 30
0.0
  3
ETC-27
  1

  0
LINE
  5
18D
330
18A
100
AcDbEntity
  8
002
 62
     3
370
    30
100
AcDbLine
 10
204.722725
 20
668.003894
 30
0.0
 11
205.385921
 21
668.168978
 31
0.0
  0
LINE
  5
18E
330
18A
100
AcDbEntity
  8
002
 62
     3
370
    30
100
AcDbLine
 10
205.385921
 20
668.168978
 30
0.0
 11
206.061602
 21
668.277545
 31
0.0
  0
LINE
  5
18F
330
18A
100
AcDbEntity
  8
002
 62
     3
370
    30
100
AcDbLine
 10
206.061602
 20
668.277545
 30
0.0
 11
206.743523
 21
668.316607
 31
0.0
  0
LINE
  5
190
330
18A
100
AcDbEntity
  8
002
 62
     3
370
    30
100
AcDbLine
 10
206.743523
 20
668.316607
 30
0.0
 11
207.425433
 21
668.27756
 31
0.0
  0
LINE
  5
191
330
18A
100
AcDbEntity
  8
002
 62
     3
370
    30
100
AcDbLine
 10
207.425433
 20
668.27756
 30
0.0
 11
208.101101
 21
668.169024
 31
0.0
  0
LINE
  5
192
330
18A
100
AcDbEntity
  8
002
 62
     3
370
    30
100
AcDbLine
 10
208.101101
 20
668.169024
 30
0.0
 11
208.76429
 21
668.003939
 31
0.0
  0
ENDBLK
  5
18C
330
18A
100
AcDbEntity
  8
0
100
AcDbBlockEnd
  0
BLOCK
  5
194
330
193
100
AcDbEntity
  8
0
100
AcDbBlockBegin
  2
ETC-28
 70
     0
 10
0.0
 20
0.0
 30
0.0
  3
ETC-28
  1

  0
LINE
  5
196
330
193
100
AcDbEntity
  8
002
 62
     3
370
    30
100
AcDbLine
 10
210.784996
 20
618.144549
 30
0.0
 11
210.297505
 21
617.922106
 31
0.0
  0
LINE
  5
197
330
193
100
AcDbEntity
  8
002
 62
     3
370
    30
100
AcDbLine
 10
210.297505
 20
617.922106
 30
0.0
 11
209.774605
 21
617.831881
 31
0.0
  0
LINE
  5
198
330
193
100
AcDbEntity
  8
002
 62
     3
370
    30
100
AcDbLine
 10
209.774605
 20
617.831881
 30
0.0
 11
209.251713
 21
617.922129
 31
0.0
  0
LINE
  5
199
330
193
100
AcDbEntity
  8
002
 62
     3
370
    30
100
AcDbLine
 10
209.251713
 20
617.922129
 30
0.0
 11
208.764229
 21
618.14458
 31
0.0
  0
ENDBLK
  5
195
330
193
100
AcDbEntity
  8
0
100
AcDbBlockEnd
  0
BLOCK
  5
19B
330
19A
100
AcDbEntity
  8
0
100
AcDbBlockBegin
  2
ETC-29
 70
     0
 10
0.0
 20
0.0
 30
0.0
  3
ETC-29
  1

  0
LINE
  5
19D
330
19A
100
AcDbEntity
  8
002
 62
     3
370
    30
100
AcDbLine
 10
202.701912
 20
618.144549
 30
0.0
 11
203.189402
 21
617.922106
 31
0.0
  0
LINE
  5
19E
330
19A
100
AcDbEntity
  8
002
 62
     3
370
    30
100
AcDbLine
 10
203.189402
 20
617.922106
 30
0.0
 11
203.712303
 21
617.831881
 31
0.0
  0
LINE
  5
19F
330
19A
100
AcDbEntity
  8
002
 62
     3
370
    30
100
AcDbLine
 10
203.712303
 20
617.831881
 30
0.0
 11
204.235188
 21
617.922129
 31
0.0
  0
LINE
  5
1A0
330
19A
100
AcDbEntity
  8
002
 62
     3
370
    30
100
AcDbLine
 10
204.235188
 20
617.922129
 30
0.0
 11
204.722664
 21
618.14458
 31
0.0
  0
ENDBLK
  5
19C
330
19A
100
AcDbEntity
  8
0
100
AcDbBlockEnd
  0
BLOCK
  5
1A2
330
1A1
100
AcDbEntity
  8
0
100
AcDbBlockBegin
  2
ETC-30
 70
     0
 10
0.0
 20
0.0
 30
0.0
  3
ETC-30
  1

  0
LINE
  5
1A4
330
1A1
100
AcDbEntity
  8
002
 62
     3
370
    30
100
AcDbLine
 10
208.764229
 20
618.14458
 30
0.0
 11
208.101035
 21
617.979487
 31
0.0
  0
LINE
  5
1A5
330
1A1
100
AcDbEntity
  8
002
 62
     3
370
    30
100
AcDbLine
 10
208.101035
 20
617.979487
 30
0.0
 11
207.425361
 21
617.870936
 31
0.0
  0
LINE
  5
1A6
330
1A1
100
AcDbEntity
  8
002
 62
     3
370
    30
100
AcDbLine
 10
207.425361
 20
617.870936
 30
0.0
 11
206.743446
 21
617.831866
 31
0.0
  0
LINE
  5
1A7
330
1A1
100
AcDbEntity
  8
002
 62
     3
370
    30
100
AcDbLine
 10
206.743446
 20
617.831866
 30
0.0
 11
206.061532
 21
617.870913
 31
0.0
  0
LINE
  5
1A8
330
1A1
100
AcDbEntity
  8
002
 62
     3
370
    30
100
AcDbLine
 10
206.061532
 20
617.870913
 30
0.0
 11
205.385857
 21
617.979449
 31
0.0
  0
LINE
  5
1A9
330
1A1
100
AcDbEntity
  8
002
 62
     3
370
    30
100
AcDbLine
 10
205.385857
 20
617.979449
 30
0.0
 11
204.722664
 21
618.144534
 31
0.0
  0
ENDBLK
  5
1A3
330
1A1
100
AcDbEntity
  8
0
100
AcDbBlockEnd
  0
ENDSEC
  0
SECTION
  2
ENTITIES
  0
INSERT
  5
1AA
330
1F
100
AcDbEntity
  8
003
  6
ByBlock
 62
     0
370
    -2
100
AcDbBlockReference
  2
JZB-1
 10
0.0
 20
0.0
 30
0.0
  0
INSERT
  5
1AB
330
1F
100
AcDbEntity
  8
003
  6
ByBlock
 62
     0
370
    -2
100
AcDbBlockReference
  2
JZB-2
 10
0.0
 20
0.0
 30
0.0
  0
INSERT
  5
1AC
330
1F
100
AcDbEntity
  8
003
  6
ByBlock
 62
     0
370
    -2
100
AcDbBlockReference
  2
JZB-3
 10
0.0
 20
0.0
 30
0.0
  0
INSERT
  5
1AD
330
1F
100
AcDbEntity
  8
003
  6
ByBlock
 62
     0
370
    -2
100
AcDbBlockReference
  2
JZB-4
 10
0.0
 20
0.0
 30
0.0
  0
INSERT
  5
1AE
330
1F
100
AcDbEntity
  8
003
  6
ByBlock
 62
     0
370
    -2
100
AcDbBlockReference
  2
JZB-5
 10
0.0
 20
0.0
 30
0.0
  0
INSERT
  5
1AF
330
1F
100
AcDbEntity
  8
003
  6
ByBlock
 62
     0
370
    -2
100
AcDbBlockReference
  2
JZB-6
 10
0.0
 20
0.0
 30
0.0
  0
INSERT
  5
1B0
330
1F
100
AcDbEntity
  8
003
  6
ByBlock
 62
     0
370
    -2
100
AcDbBlockReference
  2
JZB-7
 10
0.0
 20
0.0
 30
0.0
  0
INSERT
  5
1B1
330
1F
100
AcDbEntity
  8
003
  6
ByBlock
 62
     0
370
    -2
100
AcDbBlockReference
  2
JZB-8
 10
0.0
 20
0.0
 30
0.0
  0
INSERT
  5
1B2
330
1F
100
AcDbEntity
  8
003
  6
ByBlock
 62
     0
370
    -2
100
AcDbBlockReference
  2
JZB-9
 10
0.0
 20
0.0
 30
0.0
  0
INSERT
  5
1B3
330
1F
100
AcDbEntity
  8
003
  6
ByBlock
 62
     0
370
    -2
100
AcDbBlockReference
  2
JZB-10
 10
0.0
 20
0.0
 30
0.0
  0
INSERT
  5
1B4
330
1F
100
AcDbEntity
  8
003
  6
ByBlock
 62
     0
370
    -2
100
AcDbBlockReference
  2
JZB-11
 10
0.0
 20
0.0
 30
0.0
  0
INSERT
  5
1B5
330
1F
100
AcDbEntity
  8
003
  6
ByBlock
 62
     0
370
    -2
100
AcDbBlockReference
  2
JZB-12
 10
0.0
 20
0.0
 30
0.0
  0
INSERT
  5
1B6
330
1F
100
AcDbEntity
  8
003
  6
ByBlock
 62
     0
370
    -2
100
AcDbBlockReference
  2
JZB-13
 10
0.0
 20
0.0
 30
0.0
  0
INSERT
  5
1B7
330
1F
100
AcDbEntity
  8
003
  6
ByBlock
 62
     0
370
    -2
100
AcDbBlockReference
  2
JZB-14
 10
0.0
 20
0.0
 30
0.0
  0
INSERT
  5
1B8
330
1F
100
AcDbEntity
  8
003
  6
ByBlock
 62
     0
370
    -2
100
AcDbBlockReference
  2
JZB-15
 10
0.0
 20
0.0
 30
0.0
  0
INSERT
  5
1B9
330
1F
100
AcDbEntity
  8
003
  6
ByBlock
 62
     0
370
    -2
100
AcDbBlockReference
  2
JZB-16
 10
0.0
 20
0.0
 30
0.0
  0
INSERT
  5
1BA
330
1F
100
AcDbEntity
  8
002
  6
ByBlock
 62
     0
370
    -2
100
AcDbBlockReference
  2
JZB-17
 10
0.0
 20
0.0
 30
0.0
  0
INSERT
  5
1BB
330
1F
100
AcDbEntity
  8
002
  6
ByBlock
 62
     0
370
    -2
100
AcDbBlockReference
  2
JZB-18
 10
0.0
 20
0.0
 30
0.0
  0
INSERT
  5
1BC
330
1F
100
AcDbEntity
  8
002
  6
ByBlock
 62
     0
370
    -2
100
AcDbBlockReference
  2
JZB-19
 10
0.0
 20
0.0
 30
0.0
  0
INSERT
  5
1BD
330
1F
100
AcDbEntity
  8
002
  6
ByBlock
 62
     0
370
    -2
100
AcDbBlockReference
  2
JZB-20
 10
0.0
 20
0.0
 30
0.0
  0
INSERT
  5
1BE
330
1F
100
AcDbEntity
  8
002
  6
ByBlock
 62
     0
370
    -2
100
AcDbBlockReference
  2
JZB-21
 10
0.0
 20
0.0
 30
0.0
  0
INSERT
  5
1BF
330
1F
100
AcDbEntity
  8
002
  6
ByBlock
 62
     0
370
    -2
100
AcDbBlockReference
  2
JZB-22
 10
0.0
 20
0.0
 30
0.0
  0
INSERT
  5
1C0
330
1F
100
AcDbEntity
  8
002
  6
ByBlock
 62
     0
370
    -2
100
AcDbBlockReference
  2
JZB-23
 10
0.0
 20
0.0
 30
0.0
  0
INSERT
  5
1C1
330
1F
100
AcDbEntity
  8
002
  6
ByBlock
 62
     0
370
    -2
100
AcDbBlockReference
  2
JZB-24
 10
0.0
 20
0.0
 30
0.0
  0
INSERT
  5
1C2
330
1F
100
AcDbEntity
  8
002
  6
ByBlock
 62
     0
370
    -2
100
AcDbBlockReference
  2
ETC-25
 10
0.0
 20
0.0
 30
0.0
  0
INSERT
  5
1C3
330
1F
100
AcDbEntity
  8
002
  6
ByBlock
 62
     0
370
    -2
100
AcDbBlockReference
  2
ETC-26
 10
0.0
 20
0.0
 30
0.0
  0
INSERT
  5
1C4
330
1F
100
AcDbEntity
  8
002
  6
ByBlock
 62
     0
370
    -2
100
AcDbBlockReference
  2
ETC-27
 10
0.0
 20
0.0
 30
0.0
  0
INSERT
  5
1C5
330
1F
100
AcDbEntity
  8
002
  6
ByBlock
 62
     0
370
    -2
100
AcDbBlockReference
  2
ETC-28
 10
0.0
 20
0.0
 30
0.0
  0
INSERT
  5
1C6
330
1F
100
AcDbEntity
  8
002
  6
ByBlock
 62
     0
370
    -2
100
AcDbBlockReference
  2
ETC-29
 10
0.0
 20
0.0
 30
0.0
  0
INSERT
  5
1C7
330
1F
100
AcDbEntity
  8
002
  6
ByBlock
 62
     0
370
    -2
100
AcDbBlockReference
  2
ETC-30
 10
0.0
 20
0.0
 30
0.0
  0
LINE
  5
1C8
330
1F
100
AcDbEntity
  8
002
 62
     3
370
    30
100
AcDbLine
 10
253.445507
 20
792.830551
 30
0.0
 11
248.945507
 21
792.830551
 31
0.0
  0
LINE
  5
1C9
330
1F
100
AcDbEntity
  8
002
 62
     3
370
    30
100
AcDbLine
 10
248.945507
 20
792.830551
 30
0.0
 11
248.695507
 21
792.580551
 31
0.0
  0
LINE
  5
1CA
330
1F
100
AcDbEntity
  8
002
 62
     3
370
    30
100
AcDbLine
 10
248.695507
 20
792.580551
 30
0.0
 11
248.695507
 21
788.080551
 31
0.0
  0
LINE
  5
1CB
330
1F
100
AcDbEntity
  8
002
 62
     3
370
    30
100
AcDbLine
 10
248.695507
 20
788.080551
 30
0.0
 11
248.945507
 21
787.830551
 31
0.0
  0
LINE
  5
1CC
330
1F
100
AcDbEntity
  8
002
 62
     3
370
    30
100
AcDbLine
 10
248.945507
 20
787.830551
 30
0.0
 11
253.445507
 21
787.830551
 31
0.0
  0
LINE
  5
1CD
330
1F
100
AcDbEntity
  8
002
 62
     3
370
    30
100
AcDbLine
 10
253.445507
 20
787.830551
 30
0.0
 11
253.695507
 21
788.080551
 31
0.0
  0
LINE
  5
1CE
330
1F
100
AcDbEntity
  8
002
 62
     3
370
    30
100
AcDbLine
 10
253.695507
 20
788.080551
 30
0.0
 11
253.695507
 21
792.580551
 31
0.0
  0
LINE
  5
1CF
330
1F
100
AcDbEntity
  8
002
 62
     3
370
    30
100
AcDbLine
 10
253.695507
 20
792.580551
 30
0.0
 11
253.445507
 21
792.830551
 31
0.0
  0
ARC
  5
1D0
330
1F
100
AcDbEntity
  8
002
 62
     3
370
    30
100
AcDbCircle
 10
253.495507
 20
788.030551
 30
0.0
 40
0.1999999999999318
100
AcDbArc
 50
270.0
 51
0.0
  0
ARC
  5
1D1
330
1F
100
AcDbEntity
  8
002
 62
     3
370
    30
100
AcDbCircle
 10
248.895507
 20
788.030551
 30
0.0
 40
0.2000000000000455
100
AcDbArc
 50
180.0
 51
270.0
  0
ARC
  5
1D2
330
1F
100
AcDbEntity
  8
002
 62
     3
370
    30
100
AcDbCircle
 10
251.195507
 20
783.330551
 30
0.0
 40
7.499936066394084
100
AcDbArc
 50
109.471393
 51
70.528607
  0
LINE
  5
1D3
330
1F
100
AcDbEntity
  8
002
  6
CENTER
 62
    40
370
     9
100
AcDbLine
 10
251.195507
 20
795.142551
 30
0.0
 11
251.195507
 21
773.207551
 31
0.0
  0
LINE
  5
1D4
330
1F
100
AcDbEntity
  8
002
  6
CENTER
 62
    40
370
     9
100
AcDbLine
 10
240.396607
 20
783.330551
 30
0.0
 11
262.929807
 21
783.330551
 31
0.0
  0
LINE
  5
1D5
330
1F
100
AcDbEntity
  8
002
 62
     3
370
    30
100
AcDbLine
 10
1043.324054
 20
345.64941
 30
0.0
 11
1043.324054
 21
335.64941
 31
0.0
  0
LINE
  5
1D6
330
1F
100
AcDbEntity
  8
002
 62
     3
370
    30
100
AcDbLine
 10
1043.324054
 20
335.64941
 30
0.0
 11
883.324054
 21
335.64941
 31
0.0
  0
LINE
  5
1D7
330
1F
100
AcDbEntity
  8
002
 62
     3
370
    30
100
AcDbLine
 10
883.324054
 20
335.64941
 30
0.0
 11
883.324054
 21
345.64941
 31
0.0
  0
ARC
  5
1D8
330
1F
100
AcDbEntity
  8
002
 62
     3
370
    30
100
AcDbCircle
 10
886.324054
 20
345.64941
 30
0.0
 40
3.0
100
AcDbArc
 50
90.0
 51
180.0
  0
LINE
  5
1D9
330
1F
100
AcDbEntity
  8
002
 62
     3
370
    30
100
AcDbLine
 10
886.324054
 20
348.64941
 30
0.0
 11
1040.324054
 21
348.64941
 31
0.0
  0
ARC
  5
1DA
330
1F
100
AcDbEntity
  8
002
 62
     3
370
    30
100
AcDbCircle
 10
1040.324054
 20
345.64941
 30
0.0
 40
3.0
100
AcDbArc
 50
0.0
 51
90.0
  0
LINE
  5
1DB
330
1F
100
AcDbEntity
  8
002
 62
     3
370
    30
100
AcDbLine
 10
1040.840054
 20
348.60461
 30
0.0
 11
1019.011054
 21
407.39001
 31
0.0
  0
LINE
  5
1DC
330
1F
100
AcDbEntity
  8
002
 62
     3
370
    30
100
AcDbLine
 10
1019.324054
 20
405.64941
 30
0.0
 11
1019.324054
 21
355.64941
 31
0.0
  0
ARC
  5
1DD
330
1F
100
AcDbEntity
  8
002
 62
     3
370
    30
100
AcDbCircle
 10
1014.324054
 20
355.64941
 30
0.0
 40
5.0
100
AcDbArc
 50
270.0
 51
0.0
  0
LINE
  5
1DE
330
1F
100
AcDbEntity
  8
002
 62
     3
370
    30
100
AcDbLine
 10
1014.324054
 20
350.64941
 30
0.0
 11
964.324054
 21
350.64941
 31
0.0
  0
ARC
  5
1DF
330
1F
100
AcDbEntity
  8
002
 62
     3
370
    30
100
AcDbCircle
 10
964.324054
 20
355.64941
 30
0.0
 40
5.0
100
AcDbArc
 50
180.0
 51
270.0
  0
LINE
  5
1E0
330
1F
100
AcDbEntity
  8
002
 62
     3
370
    30
100
AcDbLine
 10
959.324054
 20
355.64941
 30
0.0
 11
959.324054
 21
405.64941
 31
0.0
  0
ARC
  5
1E1
330
1F
100
AcDbEntity
  8
002
 62
     3
370
    30
100
AcDbCircle
 10
964.324054
 20
405.64941
 30
0.0
 40
5.0
100
AcDbArc
 50
90.0
 51
180.0
  0
LINE
  5
1E2
330
1F
100
AcDbEntity
  8
002
 62
     3
370
    30
100
AcDbLine
 10
964.324054
 20
410.64941
 30
0.0
 11
1014.324054
 21
410.64941
 31
0.0
  0
ARC
  5
1E3
330
1F
100
AcDbEntity
  8
002
 62
     3
370
    30
100
AcDbCircle
 10
1014.324054
 20
405.64941
 30
0.0
 40
5.0
100
AcDbArc
 50
0.0
 51
90.0
  0
LINE
  5
1E4
330
1F
100
AcDbEntity
  8
002
 62
     3
370
    30
100
AcDbLine
 10
1016.324054
 20
405.64941
 30
0.0
 11
1016.324054
 21
355.64941
 31
0.0
  0
ARC
  5
1E5
330
1F
100
AcDbEntity
  8
002
 62
     3
370
    30
100
AcDbCircle
 10
1011.324054
 20
355.64941
 30
0.0
 40
5.0
100
AcDbArc
 50
270.0
 51
0.0
  0
LINE
  5
1E6
330
1F
100
AcDbEntity
  8
002
 62
     3
370
    30
100
AcDbLine
 10
1011.324054
 20
353.64941
 30
0.0
 11
967.324054
 21
353.64941
 31
0.0
  0
ARC
  5
1E7
330
1F
100
AcDbEntity
  8
002
 62
     3
370
    30
100
AcDbCircle
 10
967.324054
 20
358.64941
 30
0.0
 40
5.0
100
AcDbArc
 50
180.0
 51
270.0
  0
LINE
  5
1E8
330
1F
100
AcDbEntity
  8
002
 62
     3
370
    30
100
AcDbLine
 10
962.324054
 20
358.64941
 30
0.0
 11
962.324054
 21
402.64941
 31
0.0
  0
ARC
  5
1E9
330
1F
100
AcDbEntity
  8
002
 62
     3
370
    30
100
AcDbCircle
 10
967.324054
 20
402.64941
 30
0.0
 40
5.0
100
AcDbArc
 50
90.0
 51
180.0
  0
LINE
  5
1EA
330
1F
100
AcDbEntity
  8
002
 62
     3
370
    30
100
AcDbLine
 10
967.324054
 20
407.64941
 30
0.0
 11
1011.324054
 21
407.64941
 31
0.0
  0
ARC
  5
1EB
330
1F
100
AcDbEntity
  8
002
 62
     3
370
    30
100
AcDbCircle
 10
1011.324054
 20
402.64941
 30
0.0
 40
5.0
100
AcDbArc
 50
0.0
 51
90.0
  0
LINE
  5
1EC
330
1F
100
AcDbEntity
  8
002
 62
     3
370
    30
100
AcDbLine
 10
1004.872054
 20
410.64941
 30
0.0
 11
1004.872054
 21
425.64941
 31
0.0
  0
LINE
  5
1ED
330
1F
100
AcDbEntity
  8
002
 62
     3
370
    30
100
AcDbLine
 10
1004.872054
 20
425.64941
 30
0.0
 11
884.872054
 21
425.64941
 31
0.0
  0
LINE
  5
1EE
330
1F
100
AcDbEntity
  8
002
 62
     3
370
    30
100
AcDbLine
 10
884.872054
 20
425.64941
 30
0.0
 11
884.872054
 21
401.34231
 31
0.0
  0
LINE
  5
1EF
330
1F
100
AcDbEntity
  8
002
 62
     3
370
    30
100
AcDbLine
 10
888.324054
 20
397.64941
 30
0.0
 11
959.324054
 21
397.64941
 31
0.0
  0
LINE
  5
1F0
330
1F
100
AcDbEntity
  8
002
 62
     3
370
    30
100
AcDbLine
 10
959.324054
 20
393.64941
 30
0.0
 11
955.872054
 21
393.64941
 31
0.0
  0
LINE
  5
1F1
330
1F
100
AcDbEntity
  8
002
 62
     3
370
    30
100
AcDbLine
 10
955.872054
 20
394.57251
 30
0.0
 11
955.985054
 21
394.57251
 31
0.0
  0
LINE
  5
1F2
330
1F
100
AcDbEntity
  8
002
 62
     3
370
    30
100
AcDbLine
 10
952.872054
 20
391.57251
 30
0.0
 11
952.872054
 21
380.64941
 31
0.0
  0
ARC
  5
1F3
330
1F
100
AcDbEntity
  8
002
 62
     3
370
    30
100
AcDbCircle
 10
944.872054
 20
380.64941
 30
0.0
 40
8.0
100
AcDbArc
 50
180.0
 51
0.0
  0
LINE
  5
1F4
330
1F
100
AcDbEntity
  8
002
 62
     3
370
    30
100
AcDbLine
 10
936.872054
 20
380.64941
 30
0.0
 11
936.872054
 21
391.57251
 31
0.0
  0
LINE
  5
1F5
330
1F
100
AcDbEntity
  8
002
 62
     3
370
    30
100
AcDbLine
 10
933.872054
 20
393.64941
 30
0.0
 11
897.872054
 21
393.64941
 31
0.0
  0
ARC
  5
1F6
330
1F
100
AcDbEntity
  8
002
 62
     3
370
    30
100
AcDbCircle
 10
894.872054
 20
391.43371
 30
0.0
 40
3.0
100
AcDbArc
 50
0.0
 51
72.901764
  0
LINE
  5
1F7
330
1F
100
AcDbEntity
  8
002
 62
     3
370
    30
100
AcDbLine
 10
897.872054
 20
391.43371
 30
0.0
 11
897.872054
 21
348.64941
 31
0.0
  0
LINE
  5
1F8
330
1F
100
AcDbEntity
  8
002
 62
     3
370
    30
100
AcDbLine
 10
894.166054
 20
364.49881
 30
0.0
 11
889.872054
 21
365.64941
 31
0.0
  0
LINE
  5
1F9
330
1F
100
AcDbEntity
  8
002
 62
     3
370
    30
100
AcDbLine
 10
889.872054
 20
365.64941
 30
0.0
 11
889.872054
 21
393.92611
 31
0.0
  0
LINE
  5
1FA
330
1F
100
AcDbEntity
  8
002
 62
     3
370
    30
100
AcDbLine
 10
888.401054
 20
396.56341
 30
0.0
 11
895.754054
 21
394.30101
 31
0.0
  0
LINE
  5
1FB
330
1F
100
AcDbEntity
  8
002
 62
     3
370
    30
100
AcDbLine
 10
889.872054
 20
390.87691
 30
0.0
 11
881.872054
 21
391.12691
 31
0.0
  0
LINE
  5
1FC
330
1F
100
AcDbEntity
  8
002
 62
     3
370
    30
100
AcDbLine
 10
881.872054
 20
391.12691
 30
0.0
 11
881.872054
 21
370.17191
 31
0.0
  0
LINE
  5
1FD
330
1F
100
AcDbEntity
  8
002
 62
     3
370
    30
100
AcDbLine
 10
881.872054
 20
370.17191
 30
0.0
 11
889.872054
 21
370.42191
 31
0.0
  0
ARC
  5
1FE
330
1F
100
AcDbEntity
  8
002
 62
     3
370
    30
100
AcDbCircle
 10
892.872054
 20
359.66921
 30
0.0
 40
5.0
100
AcDbArc
 50
0.0
 51
75.000968
  0
LINE
  5
1FF
330
1F
100
AcDbEntity
  8
002
 62
     3
370
    30
100
AcDbLine
 10
881.872054
 20
373.64941
 30
0.0
 11
871.872054
 21
374.14941
 31
0.0
  0
LINE
  5
200
330
1F
100
AcDbEntity
  8
002
 62
     3
370
    30
100
AcDbLine
 10
871.872054
 20
374.14941
 30
0.0
 11
871.872054
 21
387.14941
 31
0.0
  0
LINE
  5
201
330
1F
100
AcDbEntity
  8
002
 62
     3
370
    30
100
AcDbLine
 10
871.872054
 20
387.14941
 30
0.0
 11
881.872054
 21
387.64941
 31
0.0
  0
ARC
  5
202
330
1F
100
AcDbEntity
  8
002
 62
     3
370
    30
100
AcDbCircle
 10
886.872054
 20
393.92611
 30
0.0
 40
3.0
100
AcDbArc
 50
0.0
 51
67.97587
  0
ARC
  5
203
330
1F
100
AcDbEntity
  8
002
 62
     3
370
    30
100
AcDbCircle
 10
889.872054
 20
401.34231
 30
0.0
 40
5.0
100
AcDbArc
 50
180.0
 51
252.891037
  0
LINE
  5
204
330
1F
100
AcDbEntity
  8
002
 62
     3
370
    30
100
AcDbLine
 10
884.872054
 20
415.64941
 30
0.0
 11
1004.872054
 21
415.64941
 31
0.0
  0
ARC
  5
205
330
1F
100
AcDbEntity
  8
002
 62
     3
370
    30
100
AcDbCircle
 10
1011.324054
 20
405.64941
 30
0.0
 40
5.0
100
AcDbArc
 50
0.0
 51
90.0
  0
LINE
  5
206
330
1F
100
AcDbEntity
  8
002
 62
     3
370
    30
100
AcDbLine
 10
1022.675054
 20
397.52361
 30
0.0
 11
1023.612054
 21
397.87171
 31
0.0
  0
LINE
  5
207
330
1F
100
AcDbEntity
  8
002
 62
     3
370
    30
100
AcDbLine
 10
1023.612054
 20
397.87171
 30
0.0
 11
1036.144054
 21
364.12341
 31
0.0
  0
LINE
  5
208
330
1F
100
AcDbEntity
  8
002
 62
     3
370
    30
100
AcDbLine
 10
1036.144054
 20
364.12341
 30
0.0
 11
1035.207054
 21
363.77531
 31
0.0
  0
ARC
  5
209
330
1F
100
AcDbEntity
  8
002
 62
     3
370
    30
100
AcDbCircle
 10
1011.324054
 20
358.64941
 30
0.0
 40
5.0
100
AcDbArc
 50
270.0
 51
0.0
  0
LINE
  5
20A
330
1F
100
AcDbEntity
  8
002
 62
     3
370
    30
100
AcDbLine
 10
991.424054
 20
385.14941
 30
0.0
 11
991.824054
 21
385.54941
 31
0.0
  0
LINE
  5
20B
330
1F
100
AcDbEntity
  8
002
 62
     3
370
    30
100
AcDbLine
 10
991.824054
 20
385.54941
 30
0.0
 11
991.824054
 21
389.74941
 31
0.0
  0
LINE
  5
20C
330
1F
100
AcDbEntity
  8
002
 62
     3
370
    30
100
AcDbLine
 10
991.824054
 20
389.74941
 30
0.0
 11
991.424054
 21
390.14941
 31
0.0
  0
LINE
  5
20D
330
1F
100
AcDbEntity
  8
002
 62
     3
370
    30
100
AcDbLine
 10
991.424054
 20
390.14941
 30
0.0
 11
987.224054
 21
390.14941
 31
0.0
  0
LINE
  5
20E
330
1F
100
AcDbEntity
  8
002
 62
     3
370
    30
100
AcDbLine
 10
987.224054
 20
390.14941
 30
0.0
 11
986.824054
 21
389.74941
 31
0.0
  0
LINE
  5
20F
330
1F
100
AcDbEntity
  8
002
 62
     3
370
    30
100
AcDbLine
 10
986.824054
 20
389.74941
 30
0.0
 11
986.824054
 21
385.54941
 31
0.0
  0
LINE
  5
210
330
1F
100
AcDbEntity
  8
002
 62
     3
370
    30
100
AcDbLine
 10
986.824054
 20
385.54941
 30
0.0
 11
987.224054
 21
385.14941
 31
0.0
  0
LINE
  5
211
330
1F
100
AcDbEntity
  8
002
 62
     3
370
    30
100
AcDbLine
 10
987.224054
 20
385.14941
 30
0.0
 11
991.424054
 21
385.14941
 31
0.0
  0
ARC
  5
212
330
1F
100
AcDbEntity
  8
002
 62
     3
370
    30
100
AcDbCircle
 10
991.424054
 20
385.54941
 30
0.0
 40
0.3999999999999773
100
AcDbArc
 50
270.0
 51
0.0
  0
ARC
  5
213
330
1F
100
AcDbEntity
  8
002
 62
     3
370
    30
100
AcDbCircle
 10
989.324054
 20
380.64941
 30
0.0
 40
7.500030347271937
100
AcDbArc
 50
109.471139
 51
70.528861
  0
ARC
  5
214
330
1F
100
AcDbEntity
  8
002
 62
     3
370
    30
100
AcDbCircle
 10
987.224054
 20
385.54941
 30
0.0
 40
0.3999999999998636
100
AcDbArc
 50
180.0
 51
270.0
  0
ARC
  5
215
330
1F
100
AcDbEntity
  8
002
 62
     3
370
    30
100
AcDbCircle
 10
989.324054
 20
380.64941
 30
0.0
 40
8.00005502231084
100
AcDbArc
 50
108.209827
 51
71.790173
  0
CIRCLE
  5
216
330
1F
100
AcDbEntity
  8
002
 62
     3
370
    30
100
AcDbCircle
 10
989.324054
 20
380.64941
 30
0.0
 40
13.0
  0
LINE
  5
217
330
1F
100
AcDbEntity
  8
002
 62
     3
370
    30
100
AcDbLine
 10
949.872054
 20
377.76271
 30
0.0
 11
949.872054
 21
383.53621
 31
0.0
  0
LINE
  5
218
330
1F
100
AcDbEntity
  8
002
 62
     3
370
    30
100
AcDbLine
 10
949.872054
 20
383.53621
 30
0.0
 11
944.872054
 21
386.42291
 31
0.0
  0
LINE
  5
219
330
1F
100
AcDbEntity
  8
002
 62
     3
370
    30
100
AcDbLine
 10
944.872054
 20
386.42291
 30
0.0
 11
939.872054
 21
383.53621
 31
0.0
  0
LINE
  5
21A
330
1F
100
AcDbEntity
  8
002
 62
     3
370
    30
100
AcDbLine
 10
939.872054
 20
383.53621
 30
0.0
 11
939.872054
 21
377.76271
 31
0.0
  0
LINE
  5
21B
330
1F
100
AcDbEntity
  8
002
 62
     3
370
    30
100
AcDbLine
 10
939.872054
 20
377.76271
 30
0.0
 11
944.872054
 21
374.87591
 31
0.0
  0
LINE
  5
21C
330
1F
100
AcDbEntity
  8
002
 62
     3
370
    30
100
AcDbLine
 10
944.872054
 20
374.87591
 30
0.0
 11
949.872054
 21
377.76271
 31
0.0
  0
CIRCLE
  5
21D
330
1F
100
AcDbEntity
  8
002
 62
     3
370
    30
100
AcDbCircle
 10
944.872054
 20
380.64941
 30
0.0
 40
0.75
  0
CIRCLE
  5
21E
330
1F
100
AcDbEntity
  8
002
 62
     3
370
    30
100
AcDbCircle
 10
944.872054
 20
380.64941
 30
0.0
 40
2.5
  0
CIRCLE
  5
21F
330
1F
100
AcDbEntity
  8
002
 62
     3
370
    30
100
AcDbCircle
 10
944.872054
 20
380.64941
 30
0.0
 40
3.25
  0
CIRCLE
  5
220
330
1F
100
AcDbEntity
  8
002
 62
     3
370
    30
100
AcDbCircle
 10
944.872054
 20
380.64941
 30
0.0
 40
5.0
  0
ARC
  5
221
330
1F
100
AcDbEntity
  8
002
 62
     3
370
    30
100
AcDbCircle
 10
933.872054
 20
390.64941
 30
0.0
 40
3.0
100
AcDbArc
 50
0.0
 51
90.0
  0
LINE
  5
222
330
1F
100
AcDbEntity
  8
002
 62
     3
370
    30
100
AcDbLine
 10
933.872054
 20
394.57251
 30
0.0
 11
933.758054
 21
394.57251
 31
0.0
  0
ARC
  5
223
330
1F
100
AcDbEntity
  8
002
 62
     3
370
    30
100
AcDbCircle
 10
933.872054
 20
391.57251
 30
0.0
 40
3.0
100
AcDbArc
 50
0.0
 51
90.0
  0
ARC
  5
224
330
1F
100
AcDbEntity
  8
002
 62
     3
370
    30
100
AcDbCircle
 10
955.872054
 20
391.57251
 30
0.0
 40
3.0
100
AcDbArc
 50
90.0
 51
180.0
  0
ARC
  5
225
330
1F
100
AcDbEntity
  8
002
 62
     3
370
    30
100
AcDbCircle
 10
955.872054
 20
390.64941
 30
0.0
 40
3.0
100
AcDbArc
 50
90.0
 51
180.0
  0
LINE
  5
226
330
1F
100
AcDbEntity
  8
002
 62
     3
370
    30
100
AcDbLine
 10
982.972054
 20
425.64941
 30
0.0
 11
982.972054
 21
433.64941
 31
0.0
  0
LINE
  5
227
330
1F
100
AcDbEntity
  8
002
 62
     3
370
    30
100
AcDbLine
 10
982.972054
 20
433.64941
 30
0.0
 11
995.972054
 21
433.64941
 31
0.0
  0
LINE
  5
228
330
1F
100
AcDbEntity
  8
002
 62
     3
370
    30
100
AcDbLine
 10
985.587054
 20
433.64941
 30
0.0
 11
982.372054
 21
445.64941
 31
0.0
  0
LINE
  5
229
330
1F
100
AcDbEntity
  8
002
 62
     3
370
    30
100
AcDbLine
 10
982.372054
 20
445.64941
 30
0.0
 11
907.372054
 21
445.64941
 31
0.0
  0
LINE
  5
22A
330
1F
100
AcDbEntity
  8
002
 62
     3
370
    30
100
AcDbLine
 10
907.372054
 20
445.64941
 30
0.0
 11
904.156054
 21
433.64941
 31
0.0
  0
LINE
  5
22B
330
1F
100
AcDbEntity
  8
002
 62
     3
370
    30
100
AcDbLine
 10
906.771054
 20
433.64941
 30
0.0
 11
893.771054
 21
433.64941
 31
0.0
  0
LINE
  5
22C
330
1F
100
AcDbEntity
  8
002
 62
     3
370
    30
100
AcDbLine
 10
906.771054
 20
433.64941
 30
0.0
 11
906.771054
 21
425.64941
 31
0.0
  0
LINE
  5
22D
330
1F
100
AcDbEntity
  8
002
 62
     3
370
    30
100
AcDbLine
 10
906.771054
 20
426.64941
 30
0.0
 11
938.372054
 21
426.64941
 31
0.0
  0
LINE
  5
22E
330
1F
100
AcDbEntity
  8
002
 62
     3
370
    30
100
AcDbLine
 10
938.372054
 20
425.64941
 30
0.0
 11
938.372054
 21
433.64941
 31
0.0
  0
LINE
  5
22F
330
1F
100
AcDbEntity
  8
002
 62
     3
370
    30
100
AcDbLine
 10
951.372054
 20
433.64941
 30
0.0
 11
951.372054
 21
425.64941
 31
0.0
  0
LINE
  5
230
330
1F
100
AcDbEntity
  8
002
 62
     3
370
    30
100
AcDbLine
 10
951.372054
 20
426.64941
 30
0.0
 11
982.972054
 21
426.64941
 31
0.0
  0
LINE
  5
231
330
1F
100
AcDbEntity
  8
002
 62
     3
370
    30
100
AcDbLine
 10
995.972054
 20
425.64941
 30
0.0
 11
995.972054
 21
433.64941
 31
0.0
  0
LINE
  5
232
330
1F
100
AcDbEntity
  8
002
 62
     3
370
    30
100
AcDbLine
 10
982.372054
 20
445.64941
 30
0.0
 11
982.372054
 21
456.64941
 31
0.0
  0
LINE
  5
233
330
1F
100
AcDbEntity
  8
002
 62
     3
370
    30
100
AcDbLine
 10
982.372054
 20
456.64941
 30
0.0
 11
907.372054
 21
456.64941
 31
0.0
  0
LINE
  5
234
330
1F
100
AcDbEntity
  8
002
 62
     3
370
    30
100
AcDbLine
 10
907.372054
 20
456.64941
 30
0.0
 11
907.372054
 21
445.64941
 31
0.0
  0
LINE
  5
235
330
1F
100
AcDbEntity
  8
002
 62
     3
370
    30
100
AcDbLine
 10
907.372054
 20
450.64941
 30
0.0
 11
982.372054
 21
450.64941
 31
0.0
  0
LINE
  5
236
330
1F
100
AcDbEntity
  8
002
 62
     3
370
    30
100
AcDbLine
 10
979.122054
 20
456.64941
 30
0.0
 11
979.122054
 21
461.64941
 31
0.0
  0
LINE
  5
237
330
1F
100
AcDbEntity
  8
002
 62
     3
370
    30
100
AcDbLine
 10
979.122054
 20
461.64941
 30
0.0
 11
970.622054
 21
461.64941
 31
0.0
  0
LINE
  5
238
330
1F
100
AcDbEntity
  8
002
 62
     3
370
    30
100
AcDbLine
 10
970.622054
 20
461.64941
 30
0.0
 11
970.622054
 21
456.64941
 31
0.0
  0
LINE
  5
239
330
1F
100
AcDbEntity
  8
002
 62
     3
370
    30
100
AcDbLine
 10
969.172054
 20
456.64941
 30
0.0
 11
969.172054
 21
505.64941
 31
0.0
  0
LINE
  5
23A
330
1F
100
AcDbEntity
  8
002
 62
     3
370
    30
100
AcDbLine
 10
969.172054
 20
505.64941
 30
0.0
 11
920.572054
 21
505.64941
 31
0.0
  0
LINE
  5
23B
330
1F
100
AcDbEntity
  8
002
 62
     3
370
    30
100
AcDbLine
 10
920.572054
 20
505.64941
 30
0.0
 11
920.572054
 21
456.64941
 31
0.0
  0
LINE
  5
23C
330
1F
100
AcDbEntity
  8
002
 62
     3
370
    30
100
AcDbLine
 10
919.122054
 20
456.64941
 30
0.0
 11
919.122054
 21
461.64941
 31
0.0
  0
LINE
  5
23D
330
1F
100
AcDbEntity
  8
002
 62
     3
370
    30
100
AcDbLine
 10
919.122054
 20
461.64941
 30
0.0
 11
910.622054
 21
461.64941
 31
0.0
  0
LINE
  5
23E
330
1F
100
AcDbEntity
  8
002
 62
     3
370
    30
100
AcDbLine
 10
910.622054
 20
461.64941
 30
0.0
 11
910.622054
 21
456.64941
 31
0.0
  0
LINE
  5
23F
330
1F
100
AcDbEntity
  8
002
 62
     3
370
    30
100
AcDbLine
 10
940.622054
 20
461.64941
 30
0.0
 11
949.122054
 21
461.64941
 31
0.0
  0
LINE
  5
240
330
1F
100
AcDbEntity
  8
002
 62
     3
370
    30
100
AcDbLine
 10
949.122054
 20
461.64941
 30
0.0
 11
949.122054
 21
456.64941
 31
0.0
  0
LINE
  5
241
330
1F
100
AcDbEntity
  8
002
 62
     3
370
    30
100
AcDbLine
 10
940.622054
 20
461.64941
 30
0.0
 11
940.622054
 21
456.64941
 31
0.0
  0
LINE
  5
242
330
1F
100
AcDbEntity
  8
002
 62
     3
370
    30
100
AcDbLine
 10
938.372054
 20
433.64941
 30
0.0
 11
951.372054
 21
433.64941
 31
0.0
  0
LINE
  5
243
330
1F
100
AcDbEntity
  8
002
 62
     3
370
    30
100
AcDbLine
 10
893.771054
 20
433.64941
 30
0.0
 11
893.771054
 21
425.64941
 31
0.0
  0
LINE
  5
244
330
1F
100
AcDbEntity
  8
002
 62
     3
370
    30
100
AcDbLine
 10
928.872054
 20
335.64941
 30
0.0
 11
928.872054
 21
323.64941
 31
0.0
  0
LINE
  5
245
330
1F
100
AcDbEntity
  8
002
 62
     3
370
    30
100
AcDbLine
 10
928.872054
 20
323.64941
 30
0.0
 11
960.872054
 21
323.64941
 31
0.0
  0
LINE
  5
246
330
1F
100
AcDbEntity
  8
002
 62
     3
370
    30
100
AcDbLine
 10
960.872054
 20
323.64941
 30
0.0
 11
960.872054
 21
335.64941
 31
0.0
  0
LINE
  5
247
330
1F
100
AcDbEntity
  8
002
  6
CENTER
 62
    40
370
     9
100
AcDbLine
 10
897.324054
 20
328.24891
 30
0.0
 11
897.324054
 21
356.17761
 31
0.0
  0
LINE
  5
248
330
1F
100
AcDbEntity
  8
002
 62
    40
370
     9
100
AcDbLine
 10
889.872054
 20
371.58391
 30
0.0
 11
881.872054
 21
371.33391
 31
0.0
  0
LINE
  5
249
330
1F
100
AcDbEntity
  8
002
 62
    40
370
     9
100
AcDbLine
 10
881.872054
 20
373.64941
 30
0.0
 11
871.872054
 21
387.14941
 31
0.0
  0
LINE
  5
24A
330
1F
100
AcDbEntity
  8
002
  6
CENTER
 62
    40
370
     9
100
AcDbLine
 10
868.945054
 20
380.64941
 30
0.0
 11
1026.764054
 21
380.64941
 31
0.0
  0
LINE
  5
24B
330
1F
100
AcDbEntity
  8
002
  6
CENTER
 62
    40
370
     9
100
AcDbLine
 10
1029.324054
 20
356.17761
 30
0.0
 11
1029.324054
 21
328.24891
 31
0.0
  0
LINE
  5
24C
330
1F
100
AcDbEntity
  8
002
  6
CENTER
 62
    40
370
     9
100
AcDbLine
 10
989.324054
 20
348.64941
 30
0.0
 11
989.324054
 21
412.39821
 31
0.0
  0
LINE
  5
24D
330
1F
100
AcDbEntity
  8
002
  6
CENTER
 62
    40
370
     9
100
AcDbLine
 10
974.872054
 20
440.71431
 30
0.0
 11
974.872054
 21
464.62081
 31
0.0
  0
LINE
  5
24E
330
1F
100
AcDbEntity
  8
002
  6
CENTER
 62
    40
370
     9
100
AcDbLine
 10
914.872054
 20
464.62081
 30
0.0
 11
914.872054
 21
440.71431
 31
0.0
  0
LINE
  5
24F
330
1F
100
AcDbEntity
  8
002
  6
CENTER
 62
    40
370
     9
100
AcDbLine
 10
900.271054
 20
435.66081
 30
0.0
 11
900.271054
 21
409.26091
 31
0.0
  0
LINE
  5
250
330
1F
100
AcDbEntity
  8
002
 62
    40
370
     9
100
AcDbLine
 10
889.872054
 20
389.71491
 30
0.0
 11
881.872054
 21
389.96491
 31
0.0
  0
LINE
  5
251
330
1F
100
AcDbEntity
  8
002
 62
    40
370
     9
100
AcDbLine
 10
881.872054
 20
387.64941
 30
0.0
 11
871.872054
 21
374.14941
 31
0.0
  0
LINE
  5
252
330
1F
100
AcDbEntity
  8
002
  6
HIDDEN
 62
    40
370
     9
100
AcDbLine
 10
1034.824054
 20
335.64941
 30
0.0
 11
1034.824054
 21
347.64941
 31
0.0
  0
LINE
  5
253
330
1F
100
AcDbEntity
  8
002
  6
HIDDEN
 62
    40
370
     9
100
AcDbLine
 10
1023.824054
 20
347.64941
 30
0.0
 11
1023.824054
 21
335.64941
 31
0.0
  0
LINE
  5
254
330
1F
100
AcDbEntity
  8
002
  6
HIDDEN
 62
    40
370
     9
100
AcDbLine
 10
1040.324054
 20
347.64941
 30
0.0
 11
1018.324054
 21
347.64941
 31
0.0
  0
LINE
  5
255
330
1F
100
AcDbEntity
  8
002
  6
HIDDEN
 62
    40
370
     9
100
AcDbLine
 10
1018.324054
 20
347.64941
 30
0.0
 11
1018.324054
 21
348.64941
 31
0.0
  0
LINE
  5
256
330
1F
100
AcDbEntity
  8
002
  6
HIDDEN
 62
    40
370
     9
100
AcDbLine
 10
1040.324054
 20
347.64941
 30
0.0
 11
1040.324054
 21
348.64941
 31
0.0
  0
LINE
  5
257
330
1F
100
AcDbEntity
  8
002
  6
HIDDEN
 62
    40
370
     9
100
AcDbLine
 10
891.824054
 20
347.64941
 30
0.0
 11
891.824054
 21
335.64941
 31
0.0
  0
LINE
  5
258
330
1F
100
AcDbEntity
  8
002
  6
HIDDEN
 62
    40
370
     9
100
AcDbLine
 10
902.824054
 20
335.64941
 30
0.0
 11
902.824054
 21
347.64941
 31
0.0
  0
LINE
  5
259
330
1F
100
AcDbEntity
  8
002
  6
HIDDEN
 62
    40
370
     9
100
AcDbLine
 10
908.324054
 20
347.64941
 30
0.0
 11
886.324054
 21
347.64941
 31
0.0
  0
LINE
  5
25A
330
1F
100
AcDbEntity
  8
002
  6
HIDDEN
 62
    40
370
     9
100
AcDbLine
 10
908.324054
 20
348.64941
 30
0.0
 11
908.324054
 21
347.64941
 31
0.0
  0
LINE
  5
25B
330
1F
100
AcDbEntity
  8
002
  6
HIDDEN
 62
    40
370
     9
100
AcDbLine
 10
886.324054
 20
347.64941
 30
0.0
 11
886.324054
 21
348.64941
 31
0.0
  0
LINE
  5
25C
330
1F
100
AcDbEntity
  8
002
 62
     3
370
    30
100
AcDbLine
 10
957.372054
 20
103.64971
 30
0.0
 11
932.372054
 21
103.64971
 31
0.0
  0
LINE
  5
25D
330
1F
100
AcDbEntity
  8
002
 62
     3
370
    30
100
AcDbLine
 10
936.373054
 20
103.64971
 30
0.0
 11
936.373054
 21
75.64961
 31
0.0
  0
LINE
  5
25E
330
1F
100
AcDbEntity
  8
002
 62
     3
370
    30
100
AcDbLine
 10
936.373054
 20
75.64961
 30
0.0
 11
953.373054
 21
75.64961
 31
0.0
  0
LINE
  5
25F
330
1F
100
AcDbEntity
  8
002
 62
     3
370
    30
100
AcDbLine
 10
953.373054
 20
75.64961
 30
0.0
 11
953.373054
 21
103.64971
 31
0.0
  0
LINE
  5
260
330
1F
100
AcDbEntity
  8
002
 62
     3
370
    30
100
AcDbLine
 10
305.195507
 20
146.57471
 30
0.0
 11
145.195507
 21
146.57471
 31
0.0
  0
LINE
  5
261
330
1F
100
AcDbEntity
  8
002
 62
     3
370
    30
100
AcDbLine
 10
145.195507
 20
146.57471
 30
0.0
 11
145.195507
 21
156.57471
 31
0.0
  0
LINE
  5
262
330
1F
100
AcDbEntity
  8
002
 62
     3
370
    30
100
AcDbLine
 10
148.195507
 20
159.57471
 30
0.0
 11
302.195507
 21
159.57471
 31
0.0
  0
LINE
  5
263
330
1F
100
AcDbEntity
  8
002
 62
     3
370
    30
100
AcDbLine
 10
302.712107
 20
159.52981
 30
0.0
 11
280.882807
 21
218.31521
 31
0.0
  0
LINE
  5
264
330
1F
100
AcDbEntity
  8
002
 62
     3
370
    30
100
AcDbLine
 10
281.195507
 20
216.57471
 30
0.0
 11
281.195507
 21
166.57471
 31
0.0
  0
LINE
  5
265
330
1F
100
AcDbEntity
  8
002
 62
     3
370
    30
100
AcDbLine
 10
278.195507
 20
166.57471
 30
0.0
 11
278.195507
 21
216.57471
 31
0.0
  0
ARC
  5
266
330
1F
100
AcDbEntity
  8
002
 62
     3
370
    30
100
AcDbCircle
 10
273.195507
 20
216.57471
 30
0.0
 40
5.0
100
AcDbArc
 50
0.0
 51
90.0
  0
LINE
  5
267
330
1F
100
AcDbEntity
  8
002
 62
     3
370
    30
100
AcDbLine
 10
276.195507
 20
221.57471
 30
0.0
 11
226.195507
 21
221.57471
 31
0.0
  0
ARC
  5
268
330
1F
100
AcDbEntity
  8
002
 62
     3
370
    30
100
AcDbCircle
 10
226.195507
 20
216.57471
 30
0.0
 40
5.0
100
AcDbArc
 50
90.0
 51
180.0
  0
LINE
  5
269
330
1F
100
AcDbEntity
  8
002
 62
     3
370
    30
100
AcDbLine
 10
221.195507
 20
216.57471
 30
0.0
 11
221.195507
 21
166.57471
 31
0.0
  0
ARC
  5
26A
330
1F
100
AcDbEntity
  8
002
 62
     3
370
    30
100
AcDbCircle
 10
226.195507
 20
166.57471
 30
0.0
 40
5.0
100
AcDbArc
 50
180.0
 51
270.0
  0
LINE
  5
26B
330
1F
100
AcDbEntity
  8
002
 62
     3
370
    30
100
AcDbLine
 10
226.195507
 20
161.57471
 30
0.0
 11
276.195507
 21
161.57471
 31
0.0
  0
ARC
  5
26C
330
1F
100
AcDbEntity
  8
002
 62
     3
370
    30
100
AcDbCircle
 10
276.195507
 20
166.57471
 30
0.0
 40
5.0
100
AcDbArc
 50
270.0
 51
0.0
  0
LINE
  5
26D
330
1F
100
AcDbEntity
  8
002
 62
     3
370
    30
100
AcDbLine
 10
273.195507
 20
164.57471
 30
0.0
 11
229.195507
 21
164.57471
 31
0.0
  0
LINE
  5
26E
330
1F
100
AcDbEntity
  8
002
 62
     3
370
    30
100
AcDbLine
 10
224.195507
 20
169.57471
 30
0.0
 11
224.195507
 21
213.57471
 31
0.0
  0
LINE
  5
26F
330
1F
100
AcDbEntity
  8
002
 62
     3
370
    30
100
AcDbLine
 10
229.195507
 20
218.57471
 30
0.0
 11
273.195507
 21
218.57471
 31
0.0
  0
ARC
  5
270
330
1F
100
AcDbEntity
  8
002
 62
     3
370
    30
100
AcDbCircle
 10
273.195507
 20
213.57471
 30
0.0
 40
5.0
100
AcDbArc
 50
0.0
 51
90.0
  0
LINE
  5
271
330
1F
100
AcDbEntity
  8
002
 62
     3
370
    30
100
AcDbLine
 10
266.743507
 20
221.57471
 30
0.0
 11
266.743507
 21
236.57471
 31
0.0
  0
LINE
  5
272
330
1F
100
AcDbEntity
  8
002
 62
     3
370
    30
100
AcDbLine
 10
266.743507
 20
236.57471
 30
0.0
 11
146.743507
 21
236.57471
 31
0.0
  0
LINE
  5
273
330
1F
100
AcDbEntity
  8
002
 62
     3
370
    30
100
AcDbLine
 10
146.743507
 20
236.57471
 30
0.0
 11
146.743507
 21
212.26751
 31
0.0
  0
ARC
  5
274
330
1F
100
AcDbEntity
  8
002
 62
     3
370
    30
100
AcDbCircle
 10
151.743507
 20
212.26751
 30
0.0
 40
4.999996136998452
100
AcDbArc
 50
180.0
 51
252.897608
  0
LINE
  5
275
330
1F
100
AcDbEntity
  8
002
 62
     3
370
    30
100
AcDbLine
 10
150.273107
 20
207.48861
 30
0.0
 11
157.625707
 21
205.22631
 31
0.0
  0
LINE
  5
276
330
1F
100
AcDbEntity
  8
002
 62
     3
370
    30
100
AcDbLine
 10
159.743507
 20
204.57471
 30
0.0
 11
195.743507
 21
204.57471
 31
0.0
  0
LINE
  5
277
330
1F
100
AcDbEntity
  8
002
 62
     3
370
    30
100
AcDbLine
 10
195.743507
 20
205.49771
 30
0.0
 11
195.630107
 21
205.49771
 31
0.0
  0
ARC
  5
278
330
1F
100
AcDbEntity
  8
002
 62
     3
370
    30
100
AcDbCircle
 10
195.743507
 20
202.49771
 30
0.0
 40
3.0
100
AcDbArc
 50
0.0
 51
90.0
  0
LINE
  5
279
330
1F
100
AcDbEntity
  8
002
 62
     3
370
    30
100
AcDbLine
 10
198.743507
 20
202.49771
 30
0.0
 11
198.743507
 21
191.57471
 31
0.0
  0
ARC
  5
27A
330
1F
100
AcDbEntity
  8
002
 62
     3
370
    30
100
AcDbCircle
 10
206.743507
 20
191.57471
 30
0.0
 40
8.0
100
AcDbArc
 50
180.0
 51
0.0
  0
LINE
  5
27B
330
1F
100
AcDbEntity
  8
002
 62
     3
370
    30
100
AcDbLine
 10
214.743507
 20
191.57471
 30
0.0
 11
214.743507
 21
202.49771
 31
0.0
  0
LINE
  5
27C
330
1F
100
AcDbEntity
  8
002
 62
     3
370
    30
100
AcDbLine
 10
217.743507
 20
204.57471
 30
0.0
 11
221.195507
 21
204.57471
 31
0.0
  0
ARC
  5
27D
330
1F
100
AcDbEntity
  8
002
 62
     3
370
    30
100
AcDbCircle
 10
217.743507
 20
201.57471
 30
0.0
 40
3.0
100
AcDbArc
 50
90.0
 51
180.0
  0
LINE
  5
27E
330
1F
100
AcDbEntity
  8
002
 62
     3
370
    30
100
AcDbLine
 10
217.743507
 20
205.49771
 30
0.0
 11
217.856907
 21
205.49771
 31
0.0
  0
ARC
  5
27F
330
1F
100
AcDbEntity
  8
002
 62
     3
370
    30
100
AcDbCircle
 10
217.743507
 20
202.49771
 30
0.0
 40
3.0
100
AcDbArc
 50
90.0
 51
180.0
  0
LINE
  5
280
330
1F
100
AcDbEntity
  8
002
 62
     3
370
    30
100
AcDbLine
 10
211.743507
 20
194.46141
 30
0.0
 11
211.743507
 21
188.68791
 31
0.0
  0
LINE
  5
281
330
1F
100
AcDbEntity
  8
002
 62
     3
370
    30
100
AcDbLine
 10
211.743507
 20
188.68791
 30
0.0
 11
206.743507
 21
185.80111
 31
0.0
  0
LINE
  5
282
330
1F
100
AcDbEntity
  8
002
 62
     3
370
    30
100
AcDbLine
 10
206.743507
 20
185.80111
 30
0.0
 11
201.743507
 21
188.68791
 31
0.0
  0
LINE
  5
283
330
1F
100
AcDbEntity
  8
002
 62
     3
370
    30
100
AcDbLine
 10
201.743507
 20
188.68791
 30
0.0
 11
201.743507
 21
194.46141
 31
0.0
  0
LINE
  5
284
330
1F
100
AcDbEntity
  8
002
 62
     3
370
    30
100
AcDbLine
 10
201.743507
 20
194.46141
 30
0.0
 11
206.743507
 21
197.34821
 31
0.0
  0
LINE
  5
285
330
1F
100
AcDbEntity
  8
002
 62
     3
370
    30
100
AcDbLine
 10
206.743507
 20
197.34821
 30
0.0
 11
211.743507
 21
194.46141
 31
0.0
  0
CIRCLE
  5
286
330
1F
100
AcDbEntity
  8
002
 62
     3
370
    30
100
AcDbCircle
 10
206.743507
 20
191.57471
 30
0.0
 40
5.0
  0
CIRCLE
  5
287
330
1F
100
AcDbEntity
  8
002
 62
     3
370
    30
100
AcDbCircle
 10
206.743507
 20
191.57471
 30
0.0
 40
3.25
  0
CIRCLE
  5
288
330
1F
100
AcDbEntity
  8
002
 62
     3
370
    30
100
AcDbCircle
 10
206.743507
 20
191.57471
 30
0.0
 40
2.5
  0
CIRCLE
  5
289
330
1F
100
AcDbEntity
  8
002
 62
     3
370
    30
100
AcDbCircle
 10
206.743507
 20
191.57471
 30
0.0
 40
0.75
  0
ARC
  5
28A
330
1F
100
AcDbEntity
  8
002
 62
     3
370
    30
100
AcDbCircle
 10
195.743507
 20
201.57471
 30
0.0
 40
3.0
100
AcDbArc
 50
0.0
 51
90.0
  0
LINE
  5
28B
330
1F
100
AcDbEntity
  8
002
 62
     3
370
    30
100
AcDbLine
 10
221.195507
 20
208.57471
 30
0.0
 11
150.195507
 21
208.57471
 31
0.0
  0
LINE
  5
28C
330
1F
100
AcDbEntity
  8
002
 62
     3
370
    30
100
AcDbLine
 10
151.743507
 20
204.85131
 30
0.0
 11
151.743507
 21
176.57471
 31
0.0
  0
LINE
  5
28D
330
1F
100
AcDbEntity
  8
002
 62
     3
370
    30
100
AcDbLine
 10
151.743507
 20
176.57471
 30
0.0
 11
156.037607
 21
175.42411
 31
0.0
  0
ARC
  5
28E
330
1F
100
AcDbEntity
  8
002
 62
     3
370
    30
100
AcDbCircle
 10
154.743507
 20
170.59441
 30
0.0
 40
5.000069689514357
100
AcDbArc
 50
0.0
 51
75.000157
  0
LINE
  5
28F
330
1F
100
AcDbEntity
  8
002
 62
     3
370
    30
100
AcDbLine
 10
151.743507
 20
181.34721
 30
0.0
 11
143.743507
 21
181.09721
 31
0.0
  0
LINE
  5
290
330
1F
100
AcDbEntity
  8
002
 62
     3
370
    30
100
AcDbLine
 10
143.743507
 20
181.09721
 30
0.0
 11
143.743507
 21
202.05221
 31
0.0
  0
LINE
  5
291
330
1F
100
AcDbEntity
  8
002
 62
     3
370
    30
100
AcDbLine
 10
143.743507
 20
202.05221
 30
0.0
 11
151.743507
 21
201.80221
 31
0.0
  0
ARC
  5
292
330
1F
100
AcDbEntity
  8
002
 62
     3
370
    30
100
AcDbCircle
 10
148.743507
 20
204.85131
 30
0.0
 40
3.000023701573074
100
AcDbArc
 50
0.0
 51
67.97587
  0
LINE
  5
293
330
1F
100
AcDbEntity
  8
002
 62
     3
370
    30
100
AcDbLine
 10
143.743507
 20
198.57471
 30
0.0
 11
133.743507
 21
198.07471
 31
0.0
  0
LINE
  5
294
330
1F
100
AcDbEntity
  8
002
 62
     3
370
    30
100
AcDbLine
 10
133.743507
 20
198.07471
 30
0.0
 11
133.743507
 21
185.07471
 31
0.0
  0
LINE
  5
295
330
1F
100
AcDbEntity
  8
002
 62
     3
370
    30
100
AcDbLine
 10
133.743507
 20
185.07471
 30
0.0
 11
143.743507
 21
184.57471
 31
0.0
  0
LINE
  5
296
330
1F
100
AcDbEntity
  8
002
 62
     3
370
    30
100
AcDbLine
 10
159.743507
 20
202.35891
 30
0.0
 11
159.743507
 21
159.57471
 31
0.0
  0
ARC
  5
297
330
1F
100
AcDbEntity
  8
002
 62
     3
370
    30
100
AcDbCircle
 10
148.195507
 20
156.57471
 30
0.0
 40
3.0
100
AcDbArc
 50
90.0
 51
180.0
  0
LINE
  5
298
330
1F
100
AcDbEntity
  8
002
 62
     3
370
    30
100
AcDbLine
 10
169.243507
 20
146.57471
 30
0.0
 11
169.243507
 21
140.57471
 31
0.0
  0
LINE
  5
299
330
1F
100
AcDbEntity
  8
002
 62
     3
370
    30
100
AcDbLine
 10
169.243507
 20
140.57471
 30
0.0
 11
244.243507
 21
140.57471
 31
0.0
  0
LINE
  5
29A
330
1F
100
AcDbEntity
  8
002
 62
     3
370
    30
100
AcDbLine
 10
244.243507
 20
140.57471
 30
0.0
 11
244.243507
 21
146.57471
 31
0.0
  0
LINE
  5
29B
330
1F
100
AcDbEntity
  8
002
 62
     3
370
    30
100
AcDbLine
 10
240.993507
 20
140.57471
 30
0.0
 11
240.993507
 21
135.57471
 31
0.0
  0
LINE
  5
29C
330
1F
100
AcDbEntity
  8
002
 62
     3
370
    30
100
AcDbLine
 10
240.993507
 20
135.57471
 30
0.0
 11
232.493507
 21
135.57471
 31
0.0
  0
LINE
  5
29D
330
1F
100
AcDbEntity
  8
002
 62
     3
370
    30
100
AcDbLine
 10
232.493507
 20
135.57471
 30
0.0
 11
232.493507
 21
140.57471
 31
0.0
  0
LINE
  5
29E
330
1F
100
AcDbEntity
  8
002
 62
     3
370
    30
100
AcDbLine
 10
231.043507
 20
140.57471
 30
0.0
 11
231.043507
 21
91.57471
 31
0.0
  0
LINE
  5
29F
330
1F
100
AcDbEntity
  8
002
 62
     3
370
    30
100
AcDbLine
 10
231.043507
 20
91.57471
 30
0.0
 11
182.443507
 21
91.57471
 31
0.0
  0
LINE
  5
2A0
330
1F
100
AcDbEntity
  8
002
 62
     3
370
    30
100
AcDbLine
 10
182.443507
 20
91.57471
 30
0.0
 11
182.443507
 21
140.57471
 31
0.0
  0
LINE
  5
2A1
330
1F
100
AcDbEntity
  8
002
 62
     3
370
    30
100
AcDbLine
 10
180.993507
 20
140.57471
 30
0.0
 11
180.993507
 21
135.57471
 31
0.0
  0
LINE
  5
2A2
330
1F
100
AcDbEntity
  8
002
 62
     3
370
    30
100
AcDbLine
 10
180.993507
 20
135.57471
 30
0.0
 11
172.493507
 21
135.57471
 31
0.0
  0
LINE
  5
2A3
330
1F
100
AcDbEntity
  8
002
 62
     3
370
    30
100
AcDbLine
 10
172.493507
 20
135.57471
 30
0.0
 11
172.493507
 21
140.57471
 31
0.0
  0
LINE
  5
2A4
330
1F
100
AcDbEntity
  8
002
 62
     3
370
    30
100
AcDbLine
 10
202.493507
 20
135.57471
 30
0.0
 11
210.993507
 21
135.57471
 31
0.0
  0
LINE
  5
2A5
330
1F
100
AcDbEntity
  8
002
 62
     3
370
    30
100
AcDbLine
 10
210.993507
 20
135.57471
 30
0.0
 11
210.993507
 21
140.57471
 31
0.0
  0
LINE
  5
2A6
330
1F
100
AcDbEntity
  8
002
 62
     3
370
    30
100
AcDbLine
 10
202.493507
 20
135.57471
 30
0.0
 11
202.493507
 21
140.57471
 31
0.0
  0
ARC
  5
2A7
330
1F
100
AcDbEntity
  8
002
 62
     3
370
    30
100
AcDbCircle
 10
229.195507
 20
169.57471
 30
0.0
 40
5.0
100
AcDbArc
 50
180.0
 51
270.0
  0
LINE
  5
2A8
330
1F
100
AcDbEntity
  8
002
 62
     3
370
    30
100
AcDbLine
 10
249.095507
 20
196.07471
 30
0.0
 11
253.295507
 21
196.07471
 31
0.0
  0
LINE
  5
2A9
330
1F
100
AcDbEntity
  8
002
 62
     3
370
    30
100
AcDbLine
 10
253.295507
 20
196.07471
 30
0.0
 11
253.695507
 21
196.47471
 31
0.0
  0
LINE
  5
2AA
330
1F
100
AcDbEntity
  8
002
 62
     3
370
    30
100
AcDbLine
 10
253.695507
 20
196.47471
 30
0.0
 11
253.695507
 21
200.67471
 31
0.0
  0
LINE
  5
2AB
330
1F
100
AcDbEntity
  8
002
 62
     3
370
    30
100
AcDbLine
 10
253.695507
 20
200.67471
 30
0.0
 11
253.295507
 21
201.07471
 31
0.0
  0
LINE
  5
2AC
330
1F
100
AcDbEntity
  8
002
 62
     3
370
    30
100
AcDbLine
 10
253.295507
 20
201.07471
 30
0.0
 11
249.095507
 21
201.07471
 31
0.0
  0
LINE
  5
2AD
330
1F
100
AcDbEntity
  8
002
 62
     3
370
    30
100
AcDbLine
 10
249.095507
 20
201.07471
 30
0.0
 11
248.695507
 21
200.67471
 31
0.0
  0
LINE
  5
2AE
330
1F
100
AcDbEntity
  8
002
 62
     3
370
    30
100
AcDbLine
 10
248.695507
 20
200.67471
 30
0.0
 11
248.695507
 21
196.47471
 31
0.0
  0
LINE
  5
2AF
330
1F
100
AcDbEntity
  8
002
 62
     3
370
    30
100
AcDbLine
 10
248.695507
 20
196.47471
 30
0.0
 11
249.095507
 21
196.07471
 31
0.0
  0
ARC
  5
2B0
330
1F
100
AcDbEntity
  8
002
 62
     3
370
    30
100
AcDbCircle
 10
249.095507
 20
196.47471
 30
0.0
 40
0.3999999999999773
100
AcDbArc
 50
180.0
 51
270.0
  0
ARC
  5
2B1
330
1F
100
AcDbEntity
  8
002
 62
     3
370
    30
100
AcDbCircle
 10
251.195507
 20
191.57471
 30
0.0
 40
7.499936066394138
100
AcDbArc
 50
109.471393
 51
70.528607
  0
ARC
  5
2B2
330
1F
100
AcDbEntity
  8
002
 62
     3
370
    30
100
AcDbCircle
 10
253.295507
 20
196.47471
 30
0.0
 40
0.3999999999999773
100
AcDbArc
 50
270.0
 51
0.0
  0
ARC
  5
2B3
330
1F
100
AcDbEntity
  8
002
 62
     3
370
    30
100
AcDbCircle
 10
251.195507
 20
191.57471
 30
0.0
 40
7.999960030525125
100
AcDbArc
 50
108.210051
 51
71.789949
  0
CIRCLE
  5
2B4
330
1F
100
AcDbEntity
  8
002
 62
     3
370
    30
100
AcDbCircle
 10
251.195507
 20
191.57471
 30
0.0
 40
13.0
  0
LINE
  5
2B5
330
1F
100
AcDbEntity
  8
002
 62
     3
370
    30
100
AcDbLine
 10
284.546607
 20
208.44881
 30
0.0
 11
285.484007
 21
208.79691
 31
0.0
  0
LINE
  5
2B6
330
1F
100
AcDbEntity
  8
002
 62
     3
370
    30
100
AcDbLine
 10
285.484007
 20
208.79691
 30
0.0
 11
298.016107
 21
175.04861
 31
0.0
  0
LINE
  5
2B7
330
1F
100
AcDbEntity
  8
002
 62
     3
370
    30
100
AcDbLine
 10
298.016107
 20
175.04861
 30
0.0
 11
297.078607
 21
174.70051
 31
0.0
  0
LINE
  5
2B8
330
1F
100
AcDbEntity
  8
002
 62
     3
370
    30
100
AcDbLine
 10
305.195507
 20
156.57471
 30
0.0
 11
305.195507
 21
146.57471
 31
0.0
  0
ARC
  5
2B9
330
1F
100
AcDbEntity
  8
002
 62
     3
370
    30
100
AcDbCircle
 10
302.195507
 20
156.57471
 30
0.0
 40
3.0
100
AcDbArc
 50
0.0
 51
90.0
  0
ARC
  5
2BA
330
1F
100
AcDbEntity
  8
002
 62
     3
370
    30
100
AcDbCircle
 10
273.195507
 20
166.57471
 30
0.0
 40
5.0
100
AcDbArc
 50
270.0
 51
0.0
  0
ARC
  5
2BB
330
1F
100
AcDbEntity
  8
002
 62
     3
370
    30
100
AcDbCircle
 10
273.195507
 20
169.57471
 30
0.0
 40
5.0
100
AcDbArc
 50
270.0
 51
0.0
  0
ARC
  5
2BC
330
1F
100
AcDbEntity
  8
002
 62
     3
370
    30
100
AcDbCircle
 10
276.195507
 20
216.57471
 30
0.0
 40
5.0
100
AcDbArc
 50
0.0
 51
90.0
  0
LINE
  5
2BD
330
1F
100
AcDbEntity
  8
002
 62
     3
370
    30
100
AcDbLine
 10
266.743507
 20
226.57471
 30
0.0
 11
146.743507
 21
226.57471
 31
0.0
  0
LINE
  5
2BE
330
1F
100
AcDbEntity
  8
002
 62
     3
370
    30
100
AcDbLine
 10
155.643207
 20
236.57471
 30
0.0
 11
155.643207
 21
244.57471
 31
0.0
  0
LINE
  5
2BF
330
1F
100
AcDbEntity
  8
002
 62
     3
370
    30
100
AcDbLine
 10
155.643207
 20
244.57471
 30
0.0
 11
168.643207
 21
244.57471
 31
0.0
  0
LINE
  5
2C0
330
1F
100
AcDbEntity
  8
002
 62
     3
370
    30
100
AcDbLine
 10
168.643207
 20
244.57471
 30
0.0
 11
168.643207
 21
236.57471
 31
0.0
  0
LINE
  5
2C1
330
1F
100
AcDbEntity
  8
002
 62
     3
370
    30
100
AcDbLine
 10
168.643207
 20
237.57471
 30
0.0
 11
200.243507
 21
237.57471
 31
0.0
  0
LINE
  5
2C2
330
1F
100
AcDbEntity
  8
002
 62
     3
370
    30
100
AcDbLine
 10
200.243507
 20
236.57471
 30
0.0
 11
200.243507
 21
244.57471
 31
0.0
  0
LINE
  5
2C3
330
1F
100
AcDbEntity
  8
002
 62
     3
370
    30
100
AcDbLine
 10
200.243507
 20
244.57471
 30
0.0
 11
213.243507
 21
244.57471
 31
0.0
  0
LINE
  5
2C4
330
1F
100
AcDbEntity
  8
002
 62
     3
370
    30
100
AcDbLine
 10
213.243507
 20
244.57471
 30
0.0
 11
213.243507
 21
236.57471
 31
0.0
  0
LINE
  5
2C5
330
1F
100
AcDbEntity
  8
002
 62
     3
370
    30
100
AcDbLine
 10
213.243507
 20
237.57471
 30
0.0
 11
244.843807
 21
237.57471
 31
0.0
  0
LINE
  5
2C6
330
1F
100
AcDbEntity
  8
002
 62
     3
370
    30
100
AcDbLine
 10
244.843807
 20
236.57471
 30
0.0
 11
244.843807
 21
244.57471
 31
0.0
  0
LINE
  5
2C7
330
1F
100
AcDbEntity
  8
002
 62
     3
370
    30
100
AcDbLine
 10
257.843807
 20
244.57471
 30
0.0
 11
257.843807
 21
236.57471
 31
0.0
  0
LINE
  5
2C8
330
1F
100
AcDbEntity
  8
002
 62
     3
370
    30
100
AcDbLine
 10
257.843807
 20
244.57471
 30
0.0
 11
244.843807
 21
244.57471
 31
0.0
  0
LINE
  5
2C9
330
1F
100
AcDbEntity
  8
002
 62
     3
370
    30
100
AcDbLine
 10
247.458907
 20
244.57471
 30
0.0
 11
244.243507
 21
256.57471
 31
0.0
  0
LINE
  5
2CA
330
1F
100
AcDbEntity
  8
002
 62
     3
370
    30
100
AcDbLine
 10
244.243507
 20
256.57471
 30
0.0
 11
169.243507
 21
256.57471
 31
0.0
  0
LINE
  5
2CB
330
1F
100
AcDbEntity
  8
002
 62
     3
370
    30
100
AcDbLine
 10
169.243507
 20
256.57471
 30
0.0
 11
166.028107
 21
244.57471
 31
0.0
  0
LINE
  5
2CC
330
1F
100
AcDbEntity
  8
002
 62
     3
370
    30
100
AcDbLine
 10
169.243507
 20
256.57471
 30
0.0
 11
169.243507
 21
261.57471
 31
0.0
  0
LINE
  5
2CD
330
1F
100
AcDbEntity
  8
002
 62
     3
370
    30
100
AcDbLine
 10
169.243507
 20
261.57471
 30
0.0
 11
244.243507
 21
261.57471
 31
0.0
  0
LINE
  5
2CE
330
1F
100
AcDbEntity
  8
002
 62
     3
370
    30
100
AcDbLine
 10
244.243507
 20
261.57471
 30
0.0
 11
244.243507
 21
256.57471
 31
0.0
  0
ARC
  5
2CF
330
1F
100
AcDbEntity
  8
002
 62
     3
370
    30
100
AcDbCircle
 10
229.195507
 20
213.57471
 30
0.0
 40
5.0
100
AcDbArc
 50
90.0
 51
180.0
  0
ARC
  5
2D0
330
1F
100
AcDbEntity
  8
002
 62
     3
370
    30
100
AcDbCircle
 10
156.743507
 20
202.35891
 30
0.0
 40
3.00004326635465
100
AcDbArc
 50
0.0
 51
72.898675
  0
LINE
  5
2D1
330
1F
100
AcDbEntity
  8
002
  6
CENTER
 62
    40
370
     9
100
AcDbLine
 10
291.195507
 20
139.17421
 30
0.0
 11
291.195507
 21
167.10291
 31
0.0
  0
LINE
  5
2D2
330
1F
100
AcDbEntity
  8
002
  6
CENTER
 62
    40
370
     9
100
AcDbLine
 10
288.636007
 20
191.57471
 30
0.0
 11
130.784507
 21
191.57471
 31
0.0
  0
LINE
  5
2D3
330
1F
100
AcDbEntity
  8
002
 62
    40
370
     9
100
AcDbLine
 10
133.743507
 20
198.07471
 30
0.0
 11
143.743507
 21
184.57471
 31
0.0
  0
LINE
  5
2D4
330
1F
100
AcDbEntity
  8
002
 62
    40
370
     9
100
AcDbLine
 10
143.743507
 20
182.25921
 30
0.0
 11
151.743507
 21
182.50921
 31
0.0
  0
LINE
  5
2D5
330
1F
100
AcDbEntity
  8
002
  6
CENTER
 62
    40
370
     9
100
AcDbLine
 10
159.195507
 20
167.10291
 30
0.0
 11
159.195507
 21
139.17421
 31
0.0
  0
LINE
  5
2D6
330
1F
100
AcDbEntity
  8
002
  6
CENTER
 62
    40
370
     9
100
AcDbLine
 10
176.743507
 20
156.50981
 30
0.0
 11
176.743507
 21
136.42061
 31
0.0
  0
LINE
  5
2D7
330
1F
100
AcDbEntity
  8
002
 62
    40
370
     9
100
AcDbLine
 10
133.743507
 20
185.07471
 30
0.0
 11
143.743507
 21
198.57471
 31
0.0
  0
LINE
  5
2D8
330
1F
100
AcDbEntity
  8
002
 62
    40
370
     9
100
AcDbLine
 10
143.743507
 20
200.89021
 30
0.0
 11
151.743507
 21
200.64021
 31
0.0
  0
LINE
  5
2D9
330
1F
100
AcDbEntity
  8
002
  6
CENTER
 62
    40
370
     9
100
AcDbLine
 10
162.143207
 20
220.18611
 30
0.0
 11
162.143207
 21
246.58601
 31
0.0
  0
LINE
  5
2DA
330
1F
100
AcDbEntity
  8
002
  6
CENTER
 62
    40
370
     9
100
AcDbLine
 10
251.195507
 20
223.32351
 30
0.0
 11
251.195507
 21
154.63241
 31
0.0
  0
LINE
  5
2DB
330
1F
100
AcDbEntity
  8
002
  6
CENTER
 62
    40
370
     9
100
AcDbLine
 10
236.743507
 20
156.50981
 30
0.0
 11
236.743507
 21
136.42061
 31
0.0
  0
LINE
  5
2DC
330
1F
100
AcDbEntity
  8
002
  6
CENTER
 62
    40
370
     9
100
AcDbLine
 10
251.343807
 20
226.57471
 30
0.0
 11
251.343807
 21
246.58601
 31
0.0
  0
LINE
  5
2DD
330
1F
100
AcDbEntity
  8
002
  6
HIDDEN
 62
    40
370
     9
100
AcDbLine
 10
153.695507
 20
146.57471
 30
0.0
 11
153.695507
 21
158.57471
 31
0.0
  0
LINE
  5
2DE
330
1F
100
AcDbEntity
  8
002
  6
HIDDEN
 62
    40
370
     9
100
AcDbLine
 10
164.695507
 20
158.57471
 30
0.0
 11
164.695507
 21
146.57471
 31
0.0
  0
LINE
  5
2DF
330
1F
100
AcDbEntity
  8
002
  6
HIDDEN
 62
    40
370
     9
100
AcDbLine
 10
148.195507
 20
158.57471
 30
0.0
 11
170.195507
 21
158.57471
 31
0.0
  0
LINE
  5
2E0
330
1F
100
AcDbEntity
  8
002
  6
HIDDEN
 62
    40
370
     9
100
AcDbLine
 10
170.195507
 20
158.57471
 30
0.0
 11
170.195507
 21
159.57471
 31
0.0
  0
LINE
  5
2E1
330
1F
100
AcDbEntity
  8
002
  6
HIDDEN
 62
    40
370
     9
100
AcDbLine
 10
148.195507
 20
158.57471
 30
0.0
 11
148.195507
 21
159.57471
 31
0.0
  0
LINE
  5
2E2
330
1F
100
AcDbEntity
  8
002
  6
HIDDEN
 62
    40
370
     9
100
AcDbLine
 10
296.695507
 20
158.57471
 30
0.0
 11
296.695507
 21
146.57471
 31
0.0
  0
LINE
  5
2E3
330
1F
100
AcDbEntity
  8
002
  6
HIDDEN
 62
    40
370
     9
100
AcDbLine
 10
280.195507
 20
158.57471
 30
0.0
 11
302.195507
 21
158.57471
 31
0.0
  0
LINE
  5
2E4
330
1F
100
AcDbEntity
  8
002
  6
HIDDEN
 62
    40
370
     9
100
AcDbLine
 10
302.195507
 20
158.57471
 30
0.0
 11
302.195507
 21
159.57471
 31
0.0
  0
LINE
  5
2E5
330
1F
100
AcDbEntity
  8
002
  6
HIDDEN
 62
    40
370
     9
100
AcDbLine
 10
280.195507
 20
158.57471
 30
0.0
 11
280.195507
 21
159.57471
 31
0.0
  0
LINE
  5
2E6
330
1F
100
AcDbEntity
  8
002
  6
HIDDEN
 62
    40
370
     9
100
AcDbLine
 10
285.695507
 20
146.57471
 30
0.0
 11
285.695507
 21
158.57471
 31
0.0
  0
LINE
  5
2E7
330
1F
100
AcDbEntity
  8
002
 62
     3
370
    30
100
AcDbLine
 10
194.243907
 20
468.57441
 30
0.0
 11
219.243907
 21
468.57441
 31
0.0
  0
LINE
  5
2E8
330
1F
100
AcDbEntity
  8
002
 62
     3
370
    30
100
AcDbLine
 10
198.244707
 20
468.57441
 30
0.0
 11
198.244707
 21
496.57451
 31
0.0
  0
LINE
  5
2E9
330
1F
100
AcDbEntity
  8
002
 62
     3
370
    30
100
AcDbLine
 10
198.244707
 20
496.57451
 30
0.0
 11
215.244707
 21
496.57451
 31
0.0
  0
LINE
  5
2EA
330
1F
100
AcDbEntity
  8
002
 62
     3
370
    30
100
AcDbLine
 10
215.244707
 20
496.57451
 30
0.0
 11
215.244707
 21
468.57441
 31
0.0
  0
LINE
  5
2EB
330
1F
100
AcDbEntity
  8
002
  6
CENTER
 62
    40
370
     9
100
AcDbLine
 10
162.243546
 20
643.07471
 30
0.0
 11
251.243476
 21
643.07471
 31
0.0
  0
LINE
  5
2EC
330
1F
100
AcDbEntity
  8
002
  6
CENTER
 62
    40
370
     9
100
AcDbLine
 10
206.743507
 20
598.57501
 30
0.0
 11
206.743507
 21
687.57481
 31
0.0
  0
ARC
  5
2ED
330
1F
100
AcDbEntity
  8
002
  6
CENTER
 62
    40
370
     9
100
AcDbCircle
 10
206.743507
 20
643.07471
 30
0.0
 40
29.999969
100
AcDbArc
 50
135.638439
 51
233.545051
  0
LINE
  5
2EE
330
1F
100
AcDbEntity
  8
002
  6
CENTER
 62
    40
370
     9
100
AcDbLine
 10
174.9175
 20
624.699893
 30
0.0
 11
185.959322
 21
631.074893
 31
0.0
  0
LINE
  5
2EF
330
1F
100
AcDbEntity
  8
002
  6
CENTER
 62
    40
370
     9
100
AcDbLine
 10
174.917204
 20
661.44974
 30
0.0
 11
185.959028
 21
655.074748
 31
0.0
  0
ARC
  5
2F0
330
1F
100
AcDbEntity
  8
002
  6
CENTER
 62
    40
370
     9
100
AcDbCircle
 10
206.743507
 20
643.07471
 30
0.0
 40
29.999969
100
AcDbArc
 50
315.639084
 51
54.099645
  0
LINE
  5
2F1
330
1F
100
AcDbEntity
  8
002
  6
CENTER
 62
    40
370
     9
100
AcDbLine
 10
227.527706
 20
631.0749
 30
0.0
 11
238.56953
 21
624.6999
 31
0.0
  0
LINE
  5
2F2
330
1F
100
AcDbEntity
  8
002
  6
CENTER
 62
    40
370
     9
100
AcDbLine
 10
227.527983
 20
655.074763
 30
0.0
 11
238.569805
 21
661.449755
 31
0.0
  0
CIRCLE
  5
2F3
330
1F
100
AcDbEntity
  8
002
 62
    40
370
     9
100
AcDbCircle
 10
206.743477
 20
643.074221
 30
0.0
 40
10.96199799999999
  0
CIRCLE
  5
2F4
330
1F
100
AcDbEntity
  8
002
 62
     3
370
    30
100
AcDbCircle
 10
180.762779
 20
658.07471
 30
0.0
 40
4.499998000000005
  0
CIRCLE
  5
2F5
330
1F
100
AcDbEntity
  8
002
 62
     3
370
    30
100
AcDbCircle
 10
180.762779
 20
628.074954
 30
0.0
 40
4.499998000000005
  0
CIRCLE
  5
2F6
330
1F
100
AcDbEntity
  8
002
 62
     3
370
    30
100
AcDbCircle
 10
206.743507
 20
643.07471
 30
0.0
 40
38.99996899999999
  0
CIRCLE
  5
2F7
330
1F
100
AcDbEntity
  8
002
 62
     3
370
    30
100
AcDbCircle
 10
232.724251
 20
628.074954
 30
0.0
 40
4.499998000000005
  0
CIRCLE
  5
2F8
330
1F
100
AcDbEntity
  8
002
 62
     3
370
    30
100
AcDbCircle
 10
232.724251
 20
658.07471
 30
0.0
 40
4.499998000000005
  0
LINE
  5
2F9
330
1F
100
AcDbEntity
  8
002
 62
     3
370
    30
100
AcDbLine
 10
208.76429
 20
668.003924
 30
0.0
 11
208.76429
 21
665.574252
 31
0.0
  0
LINE
  5
2FA
330
1F
100
AcDbEntity
  8
002
 62
     3
370
    30
100
AcDbLine
 10
211.743462
 20
672.074465
 30
0.0
 11
211.743462
 21
664.574465
 31
0.0
  0
LINE
  5
2FB
330
1F
100
AcDbEntity
  8
002
 62
     3
370
    30
100
AcDbLine
 10
210.785057
 20
668.003894
 30
0.0
 11
210.785057
 21
665.574252
 31
0.0
  0
LINE
  5
2FC
330
1F
100
AcDbEntity
  8
002
 62
     3
370
    30
100
AcDbLine
 10
210.143584
 20
668.374255
 30
0.0
 11
210.785082
 21
668.003894
 31
0.0
  0
ARC
  5
2FD
330
1F
100
AcDbEntity
  8
002
 62
     3
370
    30
100
AcDbCircle
 10
208.353477
 20
660.074481
 30
0.0
 40
10.999999
100
AcDbArc
 50
5.547363
 51
72.050323
  0
LINE
  5
2FE
330
1F
100
AcDbEntity
  8
002
 62
     3
370
    30
100
AcDbLine
 10
201.743462
 20
672.074465
 30
0.0
 11
201.743462
 21
664.574465
 31
0.0
  0
LINE
  5
2FF
330
1F
100
AcDbEntity
  8
002
 62
     3
370
    30
100
AcDbLine
 10
202.701973
 20
665.574252
 30
0.0
 11
202.701973
 21
668.003894
 31
0.0
  0
LINE
  5
300
330
1F
100
AcDbEntity
  8
002
 62
     3
370
    30
100
AcDbLine
 10
204.722725
 20
665.574252
 30
0.0
 11
204.722725
 21
668.003924
 31
0.0
  0
LINE
  5
301
330
1F
100
AcDbEntity
  8
002
 62
     3
370
    30
100
AcDbLine
 10
202.701981
 20
668.003909
 30
0.0
 11
203.343479
 21
668.37427
 31
0.0
  0
ARC
  5
302
330
1F
100
AcDbEntity
  8
002
 62
     3
370
    30
100
AcDbCircle
 10
205.133507
 20
660.074465
 30
0.0
 40
11.0
100
AcDbArc
 50
107.949743
 51
174.452713
  0
LINE
  5
303
330
1F
100
AcDbEntity
  8
002
 62
     3
370
    30
100
AcDbLine
 10
211.743492
 20
664.574557
 30
0.0
 11
201.743492
 21
664.574557
 31
0.0
  0
LINE
  5
304
330
1F
100
AcDbEntity
  8
002
 62
     3
370
    30
100
AcDbLine
 10
211.743492
 20
672.074557
 30
0.0
 11
201.743492
 21
672.074557
 31
0.0
  0
LINE
  5
305
330
1F
100
AcDbEntity
  8
002
 62
     3
370
    30
100
AcDbLine
 10
211.743492
 20
665.574313
 30
0.0
 11
201.743492
 21
665.574313
 31
0.0
  0
LINE
  5
306
330
1F
100
AcDbEntity
  8
002
 62
     3
370
    30
100
AcDbLine
 10
202.701973
 20
665.574252
 30
0.0
 11
210.785057
 21
665.574252
 31
0.0
  0
LINE
  5
307
330
1F
100
AcDbEntity
  8
002
 62
     3
370
    30
100
AcDbLine
 10
203.343452
 20
668.37427
 30
0.0
 11
210.143547
 21
668.37427
 31
0.0
  0
LINE
  5
308
330
1F
100
AcDbEntity
  8
002
 62
     3
370
    30
100
AcDbLine
 10
211.743462
 20
614.073977
 30
0.0
 11
211.743462
 21
621.573977
 31
0.0
  0
LINE
  5
309
330
1F
100
AcDbEntity
  8
002
 62
     3
370
    30
100
AcDbLine
 10
210.784996
 20
620.574221
 30
0.0
 11
210.784996
 21
618.14458
 31
0.0
  0
LINE
  5
30A
330
1F
100
AcDbEntity
  8
002
 62
     3
370
    30
100
AcDbLine
 10
208.764244
 20
620.574221
 30
0.0
 11
208.764244
 21
618.144549
 31
0.0
  0
LINE
  5
30B
330
1F
100
AcDbEntity
  8
002
 62
     3
370
    30
100
AcDbLine
 10
210.784988
 20
618.144587
 30
0.0
 11
210.143477
 21
617.774211
 31
0.0
  0
ARC
  5
30C
330
1F
100
AcDbEntity
  8
002
 62
     3
370
    30
100
AcDbCircle
 10
208.353447
 20
626.073977
 30
0.0
 40
10.999999
100
AcDbArc
 50
287.949722
 51
354.452728
  0
ARC
  5
30D
330
1F
100
AcDbEntity
  8
002
 62
     3
370
    30
100
AcDbCircle
 10
206.743477
 20
643.074221
 30
0.0
 40
21.999989
100
AcDbArc
 50
282.2388
 51
77.7612
  0
LINE
  5
30E
330
1F
100
AcDbEntity
  8
002
 62
     3
370
    30
100
AcDbLine
 10
201.743462
 20
614.073977
 30
0.0
 11
201.743462
 21
621.573977
 31
0.0
  0
LINE
  5
30F
330
1F
100
AcDbEntity
  8
002
 62
     3
370
    30
100
AcDbLine
 10
202.701912
 20
618.14458
 30
0.0
 11
202.701912
 21
620.574221
 31
0.0
  0
LINE
  5
310
330
1F
100
AcDbEntity
  8
002
 62
     3
370
    30
100
AcDbLine
 10
204.722679
 20
618.144549
 30
0.0
 11
204.722679
 21
620.574221
 31
0.0
  0
LINE
  5
311
330
1F
100
AcDbEntity
  8
002
 62
     3
370
    30
100
AcDbLine
 10
203.343415
 20
617.774226
 30
0.0
 11
202.701904
 21
618.144602
 31
0.0
  0
ARC
  5
312
330
1F
100
AcDbEntity
  8
002
 62
     3
370
    30
100
AcDbCircle
 10
205.133476
 20
626.073977
 30
0.0
 40
10.99999799999999
100
AcDbArc
 50
185.547287
 51
252.050278
  0
ARC
  5
313
330
1F
100
AcDbEntity
  8
002
 62
     3
370
    30
100
AcDbCircle
 10
206.743477
 20
643.074221
 30
0.0
 40
21.999985
100
AcDbArc
 50
102.238753
 51
257.7612
  0
LINE
  5
314
330
1F
100
AcDbEntity
  8
002
 62
     3
370
    30
100
AcDbLine
 10
201.743462
 20
621.573977
 30
0.0
 11
211.743462
 21
621.573977
 31
0.0
  0
LINE
  5
315
330
1F
100
AcDbEntity
  8
002
 62
     3
370
    30
100
AcDbLine
 10
201.743462
 20
614.073977
 30
0.0
 11
211.743462
 21
614.073977
 31
0.0
  0
LINE
  5
316
330
1F
100
AcDbEntity
  8
002
 62
     3
370
    30
100
AcDbLine
 10
201.743462
 20
620.574221
 30
0.0
 11
211.743462
 21
620.574221
 31
0.0
  0
LINE
  5
317
330
1F
100
AcDbEntity
  8
002
 62
     3
370
    30
100
AcDbLine
 10
210.784996
 20
620.574221
 30
0.0
 11
202.701912
 21
620.574221
 31
0.0
  0
LINE
  5
318
330
1F
100
AcDbEntity
  8
002
 62
     3
370
    30
100
AcDbLine
 10
210.143517
 20
617.774203
 30
0.0
 11
203.343422
 21
617.774203
 31
0.0
  0
CIRCLE
  5
319
330
1F
100
AcDbEntity
  8
002
 62
     3
370
    30
100
AcDbCircle
 10
206.743477
 20
643.074221
 30
0.0
 40
12.49999800000001
  0
CIRCLE
  5
31A
330
1F
100
AcDbEntity
  8
002
 62
     3
370
    30
100
AcDbCircle
 10
206.743477
 20
643.074221
 30
0.0
 40
13.49999899999999
  0
CIRCLE
  5
31B
330
1F
100
AcDbEntity
  8
002
 62
    40
370
     9
100
AcDbCircle
 10
206.743477
 20
643.074221
 30
0.0
 40
15.037997
  0
LINE
  5
31C
330
1F
100
AcDbEntity
  8
001
 62
     3
370
    30
100
AcDbLine
 10
201.743607
 20
402.609394
 30
0.0
 11
201.743607
 21
352.609394
 31
0.0
  0
LINE
  5
31D
330
1F
100
AcDbEntity
  8
002
 62
     3
370
    30
100
AcDbLine
 10
167.744095
 20
343.608906
 30
0.0
 11
167.744095
 21
331.608906
 31
0.0
  0
LINE
  5
31E
330
1F
100
AcDbEntity
  8
002
  6
CENTER
 62
    40
370
     9
100
AcDbLine
 10
176.744095
 20
347.358906
 30
0.0
 11
176.744095
 21
327.858906
 31
0.0
  0
LINE
  5
31F
330
1F
100
AcDbEntity
  8
002
  6
CENTER
 62
    40
370
     9
100
AcDbLine
 10
236.744095
 20
347.358906
 30
0.0
 11
236.744095
 21
327.858906
 31
0.0
  0
CIRCLE
  5
320
330
1F
100
AcDbEntity
  8
002
 62
    40
370
     9
100
AcDbCircle
 10
206.743607
 20
402.609394
 30
0.0
 40
2.0
  0
CIRCLE
  5
321
330
1F
100
AcDbEntity
  8
002
 62
    40
370
     9
100
AcDbCircle
 10
206.743607
 20
352.608906
 30
0.0
 40
2.0
  0
LINE
  5
322
330
1F
100
AcDbEntity
  8
002
 62
     3
370
    30
100
AcDbLine
 10
184.743637
 20
412.608662
 30
0.0
 11
228.743378
 21
412.608662
 31
0.0
  0
LINE
  5
323
330
1F
100
AcDbEntity
  8
002
 62
     3
370
    30
100
AcDbLine
 10
228.743378
 20
412.608662
 30
0.0
 11
228.743378
 21
343.608906
 31
0.0
  0
ARC
  5
324
330
1F
100
AcDbEntity
  8
002
 62
     3
370
    30
100
AcDbCircle
 10
206.743607
 20
390.108418
 30
0.0
 40
22.000259
100
AcDbArc
 50
77.761444
 51
102.238609
  0
CIRCLE
  5
325
330
1F
100
AcDbEntity
  8
002
 62
     3
370
    30
100
AcDbCircle
 10
206.743607
 20
402.609394
 30
0.0
 40
1.474999
  0
LINE
  5
326
330
1F
100
AcDbEntity
  8
002
 62
     3
370
    30
100
AcDbLine
 10
210.785011
 20
402.609352
 30
0.0
 11
208.764244
 21
406.109424
 31
0.0
  0
LINE
  5
327
330
1F
100
AcDbEntity
  8
002
 62
     3
370
    30
100
AcDbLine
 10
204.72287
 20
406.109394
 30
0.0
 11
208.764115
 21
406.109394
 31
0.0
  0
CIRCLE
  5
328
330
1F
100
AcDbEntity
  8
002
 62
     3
370
    30
100
AcDbCircle
 10
206.743607
 20
402.609394
 30
0.0
 40
3.399998
  0
LINE
  5
329
330
1F
100
AcDbEntity
  8
002
 62
     3
370
    30
100
AcDbLine
 10
208.764409
 20
399.109582
 30
0.0
 11
210.785039
 21
402.609415
 31
0.0
  0
LINE
  5
32A
330
1F
100
AcDbEntity
  8
002
 62
     3
370
    30
100
AcDbLine
 10
204.722626
 20
399.10941
 30
0.0
 11
208.764115
 21
399.10941
 31
0.0
  0
LINE
  5
32B
330
1F
100
AcDbEntity
  8
002
 62
     3
370
    30
100
AcDbLine
 10
211.407425
 20
411.60915
 30
0.0
 11
211.407425
 21
404.412129
 31
0.0
  0
ARC
  5
32C
330
1F
100
AcDbEntity
  8
002
 62
     3
370
    30
100
AcDbCircle
 10
206.743607
 20
402.609394
 30
0.0
 40
4.999998
100
AcDbArc
 50
0.0
 51
179.999893
  0
LINE
  5
32D
330
1F
100
AcDbEntity
  8
002
 62
     3
370
    30
100
AcDbLine
 10
211.743622
 20
352.60915
 30
0.0
 11
211.743622
 21
402.608906
 31
0.0
  0
LINE
  5
32E
330
1F
100
AcDbEntity
  8
002
 62
     3
370
    30
100
AcDbLine
 10
201.743493
 20
398.77345
 30
0.0
 11
211.743489
 21
376.892624
 31
0.0
  0
LINE
  5
32F
330
1F
100
AcDbEntity
  8
002
 62
     3
370
    30
100
AcDbLine
 10
219.559523
 20
357.385926
 30
0.0
 11
211.743301
 21
374.488472
 31
0.0
  0
LINE
  5
330
330
1F
100
AcDbEntity
  8
002
 62
     3
370
    30
100
AcDbLine
 10
213.648116
 20
354.684288
 30
0.0
 11
211.744032
 21
358.850582
 31
0.0
  0
LINE
  5
331
330
1F
100
AcDbEntity
  8
002
 62
     3
370
    30
100
AcDbLine
 10
217.954742
 20
353.079178
 30
0.0
 11
211.743296
 21
366.670342
 31
0.0
  0
ARC
  5
332
330
1F
100
AcDbEntity
  8
002
 62
     3
370
    30
100
AcDbCircle
 10
216.60347
 20
356.034932
 30
0.0
 40
3.249996999999999
100
AcDbArc
 50
204.561279
 51
24.56134
  0
LINE
  5
333
330
1F
100
AcDbEntity
  8
002
 62
     3
370
    30
100
AcDbLine
 10
211.743594
 20
356.444603
 30
0.0
 11
201.743611
 21
378.325402
 31
0.0
  0
LINE
  5
334
330
1F
100
AcDbEntity
  8
002
 62
     3
370
    30
100
AcDbLine
 10
202.080033
 20
411.609394
 30
0.0
 11
202.080033
 21
404.412129
 31
0.0
  0
ARC
  5
335
330
1F
100
AcDbEntity
  8
002
 62
     3
370
    30
100
AcDbCircle
 10
196.883743
 20
399.183369
 30
0.0
 40
3.249997000000001
100
AcDbArc
 50
24.561371
 51
204.561386
  0
LINE
  5
336
330
1F
100
AcDbEntity
  8
002
 62
     3
370
    30
100
AcDbLine
 10
199.839198
 20
400.53387
 30
0.0
 11
201.74327
 21
396.367604
 31
0.0
  0
LINE
  5
337
330
1F
100
AcDbEntity
  8
002
 62
     3
370
    30
100
AcDbLine
 10
195.532333
 20
402.138903
 30
0.0
 11
201.743792
 21
388.547715
 31
0.0
  0
LINE
  5
338
330
1F
100
AcDbEntity
  8
002
 62
     3
370
    30
100
AcDbLine
 10
193.927568
 20
397.832114
 30
0.0
 11
201.743804
 21
380.729538
 31
0.0
  0
LINE
  5
339
330
1F
100
AcDbEntity
  8
002
 62
     3
370
    30
100
AcDbLine
 10
202.702091
 20
352.608818
 30
0.0
 11
204.722843
 21
356.108864
 31
0.0
  0
LINE
  5
33A
330
1F
100
AcDbEntity
  8
002
 62
     3
370
    30
100
AcDbLine
 10
204.72287
 20
356.108906
 30
0.0
 11
208.764115
 21
356.108906
 31
0.0
  0
CIRCLE
  5
33B
330
1F
100
AcDbEntity
  8
002
 62
     3
370
    30
100
AcDbCircle
 10
206.743607
 20
352.608906
 30
0.0
 40
3.399998000000004
  0
LINE
  5
33C
330
1F
100
AcDbEntity
  8
002
 62
     3
370
    30
100
AcDbLine
 10
210.785134
 20
352.608921
 30
0.0
 11
208.764367
 21
356.108994
 31
0.0
  0
LINE
  5
33D
330
1F
100
AcDbEntity
  8
002
 62
     3
370
    30
100
AcDbLine
 10
208.76438
 20
349.109036
 30
0.0
 11
210.78501
 21
352.608868
 31
0.0
  0
LINE
  5
33E
330
1F
100
AcDbEntity
  8
002
 62
     3
370
    30
100
AcDbLine
 10
204.722626
 20
349.10915
 30
0.0
 11
208.764115
 21
349.10915
 31
0.0
  0
LINE
  5
33F
330
1F
100
AcDbEntity
  8
002
 62
     3
370
    30
100
AcDbLine
 10
204.722927
 20
349.108994
 30
0.0
 11
202.702236
 21
352.608933
 31
0.0
  0
CIRCLE
  5
340
330
1F
100
AcDbEntity
  8
002
 62
     3
370
    30
100
AcDbCircle
 10
206.743607
 20
352.608906
 30
0.0
 40
1.474998999999997
  0
LINE
  5
341
330
1F
100
AcDbEntity
  8
002
 62
     3
370
    30
100
AcDbLine
 10
202.079788
 20
343.608906
 30
0.0
 11
202.079788
 21
350.806172
 31
0.0
  0
ARC
  5
342
330
1F
100
AcDbEntity
  8
002
 62
     3
370
    30
100
AcDbCircle
 10
206.743607
 20
352.608906
 30
0.0
 40
4.999998
100
AcDbArc
 50
179.999916
 51
359.999908
  0
LINE
  5
343
330
1F
100
AcDbEntity
  8
002
 62
     3
370
    30
100
AcDbLine
 10
211.407181
 20
343.608906
 30
0.0
 11
211.407181
 21
350.806172
 31
0.0
  0
LINE
  5
344
330
1F
100
AcDbEntity
  8
002
 62
     3
370
    30
100
AcDbLine
 10
167.744095
 20
343.608906
 30
0.0
 11
245.744095
 21
343.608906
 31
0.0
  0
LINE
  5
345
330
1F
100
AcDbEntity
  8
002
 62
     3
370
    30
100
AcDbLine
 10
184.743637
 20
412.608662
 30
0.0
 11
184.743637
 21
343.608906
 31
0.0
  0
LINE
  5
346
330
1F
100
AcDbEntity
  8
002
 62
     3
370
    30
100
AcDbLine
 10
245.744095
 20
343.608906
 30
0.0
 11
245.744095
 21
331.608906
 31
0.0
  0
LINE
  5
347
330
1F
100
AcDbEntity
  8
002
 62
     3
370
    30
100
AcDbLine
 10
167.744095
 20
331.608906
 30
0.0
 11
245.744095
 21
331.608906
 31
0.0
  0
LINE
  5
348
330
1F
100
AcDbEntity
  8
002
 62
     3
370
    30
100
AcDbLine
 10
202.70211
 20
402.609334
 30
0.0
 11
204.722862
 21
406.109379
 31
0.0
  0
LINE
  5
349
330
1F
100
AcDbEntity
  8
002
 62
     3
370
    30
100
AcDbLine
 10
204.722809
 20
399.109417
 30
0.0
 11
202.702118
 21
402.609356
 31
0.0
  0
LINE
  5
34A
330
1F
100
AcDbEntity
  8
002
 62
     3
370
    30
100
AcDbLine
 10
194.243907
 20
412.608662
 30
0.0
 11
194.243907
 21
468.57441
 31
0.0
  0
LINE
  5
34B
330
1F
100
AcDbEntity
  8
002
 62
     3
370
    30
100
AcDbLine
 10
219.243907
 20
468.57441
 30
0.0
 11
219.243907
 21
412.608662
 31
0.0
  0
LINE
  5
34C
330
1F
100
AcDbEntity
  8
001
 62
     3
370
    30
100
AcDbLine
 10
939.872154
 20
247.969618
 30
0.0
 11
939.872154
 21
197.969618
 31
0.0
  0
LINE
  5
34D
330
1F
100
AcDbEntity
  8
002
 62
     3
370
    30
100
AcDbLine
 10
905.872642
 20
188.96913
 30
0.0
 11
905.872642
 21
176.96913
 31
0.0
  0
LINE
  5
34E
330
1F
100
AcDbEntity
  8
002
  6
CENTER
 62
    40
370
     9
100
AcDbLine
 10
914.872642
 20
192.71913
 30
0.0
 11
914.872642
 21
173.21913
 31
0.0
  0
LINE
  5
34F
330
1F
100
AcDbEntity
  8
002
  6
CENTER
 62
    40
370
     9
100
AcDbLine
 10
974.872642
 20
192.71913
 30
0.0
 11
974.872642
 21
173.21913
 31
0.0
  0
CIRCLE
  5
350
330
1F
100
AcDbEntity
  8
002
 62
    40
370
     9
100
AcDbCircle
 10
944.872154
 20
247.969618
 30
0.0
 40
2.0
  0
CIRCLE
  5
351
330
1F
100
AcDbEntity
  8
002
 62
    40
370
     9
100
AcDbCircle
 10
944.872154
 20
197.96913
 30
0.0
 40
2.0
  0
LINE
  5
352
330
1F
100
AcDbEntity
  8
002
 62
     3
370
    30
100
AcDbLine
 10
922.872184
 20
257.968886
 30
0.0
 11
966.871925
 21
257.968886
 31
0.0
  0
LINE
  5
353
330
1F
100
AcDbEntity
  8
002
 62
     3
370
    30
100
AcDbLine
 10
966.871925
 20
257.968886
 30
0.0
 11
966.871925
 21
188.96913
 31
0.0
  0
ARC
  5
354
330
1F
100
AcDbEntity
  8
002
 62
     3
370
    30
100
AcDbCircle
 10
944.872154
 20
235.468642
 30
0.0
 40
22.000259
100
AcDbArc
 50
77.761444
 51
102.238609
  0
CIRCLE
  5
355
330
1F
100
AcDbEntity
  8
002
 62
     3
370
    30
100
AcDbCircle
 10
944.872154
 20
247.969618
 30
0.0
 40
1.474999
  0
LINE
  5
356
330
1F
100
AcDbEntity
  8
002
 62
     3
370
    30
100
AcDbLine
 10
948.913558
 20
247.969576
 30
0.0
 11
946.892791
 21
251.469648
 31
0.0
  0
LINE
  5
357
330
1F
100
AcDbEntity
  8
002
 62
     3
370
    30
100
AcDbLine
 10
942.851417
 20
251.469618
 30
0.0
 11
946.892662
 21
251.469618
 31
0.0
  0
CIRCLE
  5
358
330
1F
100
AcDbEntity
  8
002
 62
     3
370
    30
100
AcDbCircle
 10
944.872154
 20
247.969618
 30
0.0
 40
3.399998
  0
LINE
  5
359
330
1F
100
AcDbEntity
  8
002
 62
     3
370
    30
100
AcDbLine
 10
946.892956
 20
244.469806
 30
0.0
 11
948.913586
 21
247.969639
 31
0.0
  0
LINE
  5
35A
330
1F
100
AcDbEntity
  8
002
 62
     3
370
    30
100
AcDbLine
 10
942.851173
 20
244.469634
 30
0.0
 11
946.892662
 21
244.469634
 31
0.0
  0
LINE
  5
35B
330
1F
100
AcDbEntity
  8
002
 62
     3
370
    30
100
AcDbLine
 10
949.535972
 20
256.969374
 30
0.0
 11
949.535972
 21
249.772353
 31
0.0
  0
ARC
  5
35C
330
1F
100
AcDbEntity
  8
002
 62
     3
370
    30
100
AcDbCircle
 10
944.872154
 20
247.969618
 30
0.0
 40
4.999998
100
AcDbArc
 50
0.0
 51
179.999893
  0
LINE
  5
35D
330
1F
100
AcDbEntity
  8
002
 62
     3
370
    30
100
AcDbLine
 10
949.872169
 20
197.969374
 30
0.0
 11
949.872169
 21
247.96913
 31
0.0
  0
LINE
  5
35E
330
1F
100
AcDbEntity
  8
002
 62
     3
370
    30
100
AcDbLine
 10
939.87204
 20
244.133674
 30
0.0
 11
949.872036
 21
222.252848
 31
0.0
  0
LINE
  5
35F
330
1F
100
AcDbEntity
  8
002
 62
     3
370
    30
100
AcDbLine
 10
957.68807
 20
202.74615
 30
0.0
 11
949.871848
 21
219.848696
 31
0.0
  0
LINE
  5
360
330
1F
100
AcDbEntity
  8
002
 62
     3
370
    30
100
AcDbLine
 10
951.776663
 20
200.044512
 30
0.0
 11
949.872579
 21
204.210806
 31
0.0
  0
LINE
  5
361
330
1F
100
AcDbEntity
  8
002
 62
     3
370
    30
100
AcDbLine
 10
956.083289
 20
198.439402
 30
0.0
 11
949.871843
 21
212.030566
 31
0.0
  0
ARC
  5
362
330
1F
100
AcDbEntity
  8
002
 62
     3
370
    30
100
AcDbCircle
 10
954.732017
 20
201.395156
 30
0.0
 40
3.249996999999999
100
AcDbArc
 50
204.561279
 51
24.56134
  0
LINE
  5
363
330
1F
100
AcDbEntity
  8
002
 62
     3
370
    30
100
AcDbLine
 10
949.872141
 20
201.804827
 30
0.0
 11
939.872158
 21
223.685626
 31
0.0
  0
LINE
  5
364
330
1F
100
AcDbEntity
  8
002
 62
     3
370
    30
100
AcDbLine
 10
940.20858
 20
256.969618
 30
0.0
 11
940.20858
 21
249.772353
 31
0.0
  0
ARC
  5
365
330
1F
100
AcDbEntity
  8
002
 62
     3
370
    30
100
AcDbCircle
 10
935.01229
 20
244.543593
 30
0.0
 40
3.249997000000001
100
AcDbArc
 50
24.561371
 51
204.561386
  0
LINE
  5
366
330
1F
100
AcDbEntity
  8
002
 62
     3
370
    30
100
AcDbLine
 10
937.967745
 20
245.894094
 30
0.0
 11
939.871817
 21
241.727828
 31
0.0
  0
LINE
  5
367
330
1F
100
AcDbEntity
  8
002
 62
     3
370
    30
100
AcDbLine
 10
933.66088
 20
247.499127
 30
0.0
 11
939.872339
 21
233.907939
 31
0.0
  0
LINE
  5
368
330
1F
100
AcDbEntity
  8
002
 62
     3
370
    30
100
AcDbLine
 10
932.056115
 20
243.192338
 30
0.0
 11
939.872351
 21
226.089762
 31
0.0
  0
LINE
  5
369
330
1F
100
AcDbEntity
  8
002
 62
     3
370
    30
100
AcDbLine
 10
940.830638
 20
197.969042
 30
0.0
 11
942.85139
 21
201.469088
 31
0.0
  0
LINE
  5
36A
330
1F
100
AcDbEntity
  8
002
 62
     3
370
    30
100
AcDbLine
 10
942.851417
 20
201.46913
 30
0.0
 11
946.892662
 21
201.46913
 31
0.0
  0
CIRCLE
  5
36B
330
1F
100
AcDbEntity
  8
002
 62
     3
370
    30
100
AcDbCircle
 10
944.872154
 20
197.96913
 30
0.0
 40
3.399998000000004
  0
LINE
  5
36C
330
1F
100
AcDbEntity
  8
002
 62
     3
370
    30
100
AcDbLine
 10
948.913681
 20
197.969145
 30
0.0
 11
946.892914
 21
201.469218
 31
0.0
  0
LINE
  5
36D
330
1F
100
AcDbEntity
  8
002
 62
     3
370
    30
100
AcDbLine
 10
946.892927
 20
194.46926
 30
0.0
 11
948.913557
 21
197.969092
 31
0.0
  0
LINE
  5
36E
330
1F
100
AcDbEntity
  8
002
 62
     3
370
    30
100
AcDbLine
 10
942.851173
 20
194.469374
 30
0.0
 11
946.892662
 21
194.469374
 31
0.0
  0
LINE
  5
36F
330
1F
100
AcDbEntity
  8
002
 62
     3
370
    30
100
AcDbLine
 10
942.851474
 20
194.469218
 30
0.0
 11
940.830783
 21
197.969157
 31
0.0
  0
CIRCLE
  5
370
330
1F
100
AcDbEntity
  8
002
 62
     3
370
    30
100
AcDbCircle
 10
944.872154
 20
197.96913
 30
0.0
 40
1.474998999999997
  0
LINE
  5
371
330
1F
100
AcDbEntity
  8
002
 62
     3
370
    30
100
AcDbLine
 10
940.208335
 20
188.96913
 30
0.0
 11
940.208335
 21
196.166396
 31
0.0
  0
ARC
  5
372
330
1F
100
AcDbEntity
  8
002
 62
     3
370
    30
100
AcDbCircle
 10
944.872154
 20
197.96913
 30
0.0
 40
4.999998
100
AcDbArc
 50
179.999916
 51
359.999908
  0
LINE
  5
373
330
1F
100
AcDbEntity
  8
002
 62
     3
370
    30
100
AcDbLine
 10
949.535728
 20
188.96913
 30
0.0
 11
949.535728
 21
196.166396
 31
0.0
  0
LINE
  5
374
330
1F
100
AcDbEntity
  8
002
 62
     3
370
    30
100
AcDbLine
 10
905.872642
 20
188.96913
 30
0.0
 11
983.872642
 21
188.96913
 31
0.0
  0
LINE
  5
375
330
1F
100
AcDbEntity
  8
002
 62
     3
370
    30
100
AcDbLine
 10
922.872184
 20
257.968886
 30
0.0
 11
922.872184
 21
188.96913
 31
0.0
  0
LINE
  5
376
330
1F
100
AcDbEntity
  8
002
 62
     3
370
    30
100
AcDbLine
 10
983.872642
 20
188.96913
 30
0.0
 11
983.872642
 21
176.96913
 31
0.0
  0
LINE
  5
377
330
1F
100
AcDbEntity
  8
002
 62
     3
370
    30
100
AcDbLine
 10
905.872642
 20
176.96913
 30
0.0
 11
983.872642
 21
176.96913
 31
0.0
  0
LINE
  5
378
330
1F
100
AcDbEntity
  8
002
 62
     3
370
    30
100
AcDbLine
 10
940.830657
 20
247.969558
 30
0.0
 11
942.851409
 21
251.469603
 31
0.0
  0
LINE
  5
379
330
1F
100
AcDbEntity
  8
002
 62
     3
370
    30
100
AcDbLine
 10
942.851356
 20
244.469641
 30
0.0
 11
940.830665
 21
247.96958
 31
0.0
  0
LINE
  5
37A
330
1F
100
AcDbEntity
  8
002
 62
     3
370
    30
100
AcDbLine
 10
932.372054
 20
103.64971
 30
0.0
 11
932.372054
 21
176.96913
 31
0.0
  0
LINE
  5
37B
330
1F
100
AcDbEntity
  8
002
 62
     3
370
    30
100
AcDbLine
 10
957.372054
 20
176.96913
 30
0.0
 11
957.372054
 21
103.64971
 31
0.0
  0
LINE
  5
37C
330
1F
100
AcDbEntity
  8
002
 62
    40
370
     9
100
AcDbLine
 10
955.822054
 20
103.64971
 30
0.0
 11
955.822054
 21
176.96913
 31
0.0
  0
LINE
  5
37D
330
1F
100
AcDbEntity
  8
002
 62
    40
370
     9
100
AcDbLine
 10
933.922054
 20
176.96913
 30
0.0
 11
933.922054
 21
103.64971
 31
0.0
  0
LINE
  5
37E
330
1F
100
AcDbEntity
  8
002
 62
    40
370
     9
100
AcDbLine
 10
217.693907
 20
412.608662
 30
0.0
 11
217.693907
 21
468.57441
 31
0.0
  0
LINE
  5
37F
330
1F
100
AcDbEntity
  8
002
 62
    40
370
     9
100
AcDbLine
 10
195.793907
 20
468.37041
 30
0.0
 11
195.793907
 21
412.608662
 31
0.0
  0
CIRCLE
  5
380
330
1F
100
AcDbEntity
  8
002
 62
     3
370
    30
100
AcDbCircle
 10
206.743507
 20
1063.330451
 30
0.0
 40
42.5
  0
LINE
  5
381
330
1F
100
AcDbEntity
  8
002
 62
     3
370
    30
100
AcDbLine
 10
209.743074
 20
1010.097851
 30
0.0
 11
209.743118
 21
1013.561928
 31
0.0
  0
LINE
  5
382
330
1F
100
AcDbEntity
  8
002
 62
     3
370
    30
100
AcDbLine
 10
209.743118
 20
1013.561928
 30
0.0
 11
206.743206
 21
1015.293928
 31
0.0
  0
LINE
  5
383
330
1F
100
AcDbEntity
  8
002
 62
     3
370
    30
100
AcDbLine
 10
206.743206
 20
1015.293928
 30
0.0
 11
203.74325
 21
1013.561851
 31
0.0
  0
LINE
  5
384
330
1F
100
AcDbEntity
  8
002
 62
     3
370
    30
100
AcDbLine
 10
203.74325
 20
1013.561851
 30
0.0
 11
203.743206
 21
1010.097775
 31
0.0
  0
LINE
  5
385
330
1F
100
AcDbEntity
  8
002
 62
     3
370
    30
100
AcDbLine
 10
203.743206
 20
1010.097775
 30
0.0
 11
206.743118
 21
1008.365775
 31
0.0
  0
LINE
  5
386
330
1F
100
AcDbEntity
  8
002
 62
     3
370
    30
100
AcDbLine
 10
206.743118
 20
1008.365775
 30
0.0
 11
209.743074
 21
1010.097851
 31
0.0
  0
CIRCLE
  5
387
330
1F
100
AcDbEntity
  8
002
 62
     3
370
    30
100
AcDbCircle
 10
206.743162
 20
1011.829851
 30
0.0
 40
6.5
  0
LINE
  5
388
330
1F
100
AcDbEntity
  8
002
 62
     3
370
    30
100
AcDbLine
 10
209.743074
 20
1116.56305
 30
0.0
 11
209.743118
 21
1113.098973
 31
0.0
  0
LINE
  5
389
330
1F
100
AcDbEntity
  8
002
 62
     3
370
    30
100
AcDbLine
 10
209.743118
 20
1113.098973
 30
0.0
 11
206.743206
 21
1111.366973
 31
0.0
  0
LINE
  5
38A
330
1F
100
AcDbEntity
  8
002
 62
     3
370
    30
100
AcDbLine
 10
206.743206
 20
1111.366973
 30
0.0
 11
203.74325
 21
1113.09905
 31
0.0
  0
LINE
  5
38B
330
1F
100
AcDbEntity
  8
002
 62
     3
370
    30
100
AcDbLine
 10
203.74325
 20
1113.09905
 30
0.0
 11
203.743206
 21
1116.563126
 31
0.0
  0
LINE
  5
38C
330
1F
100
AcDbEntity
  8
002
 62
     3
370
    30
100
AcDbLine
 10
203.743206
 20
1116.563126
 30
0.0
 11
206.743118
 21
1118.295126
 31
0.0
  0
LINE
  5
38D
330
1F
100
AcDbEntity
  8
002
 62
     3
370
    30
100
AcDbLine
 10
206.743118
 20
1118.295126
 30
0.0
 11
209.743074
 21
1116.56305
 31
0.0
  0
CIRCLE
  5
38E
330
1F
100
AcDbEntity
  8
002
 62
     3
370
    30
100
AcDbCircle
 10
206.743162
 20
1114.83105
 30
0.0
 40
6.5
  0
ARC
  5
38F
330
1F
100
AcDbEntity
  8
002
 62
     3
370
    30
100
AcDbCircle
 10
302.212007
 20
1032.830451
 30
0.0
 40
3.0
100
AcDbArc
 50
0.0
 51
90.0
  0
LINE
  5
390
330
1F
100
AcDbEntity
  8
002
 62
     3
370
    30
100
AcDbLine
 10
302.212007
 20
1035.830451
 30
0.0
 11
284.195007
 21
1035.830451
 31
0.0
  0
ARC
  5
391
330
1F
100
AcDbEntity
  8
002
 62
     3
370
    30
100
AcDbCircle
 10
284.195007
 20
1032.830451
 30
0.0
 40
3.0
100
AcDbArc
 50
90.0
 51
180.0
  0
LINE
  5
392
330
1F
100
AcDbEntity
  8
002
 62
     3
370
    30
100
AcDbLine
 10
281.195007
 20
1032.830451
 30
0.0
 11
281.195007
 21
1031.636451
 31
0.0
  0
ARC
  5
393
330
1F
100
AcDbEntity
  8
002
 62
     3
370
    30
100
AcDbCircle
 10
291.195007
 20
1023.330451
 30
0.0
 40
13.0
100
AcDbArc
 50
140.286978
 51
180.0
  0
LINE
  5
394
330
1F
100
AcDbEntity
  8
002
 62
     3
370
    30
100
AcDbLine
 10
278.195007
 20
1023.330451
 30
0.0
 11
278.195007
 21
1007.330451
 31
0.0
  0
LINE
  5
395
330
1F
100
AcDbEntity
  8
002
 62
     3
370
    30
100
AcDbLine
 10
278.195007
 20
1007.330451
 30
0.0
 11
228.283507
 21
1007.330451
 31
0.0
  0
LINE
  5
396
330
1F
100
AcDbEntity
  8
002
 62
     3
370
    30
100
AcDbLine
 10
278.195007
 20
1012.330451
 30
0.0
 11
238.349507
 21
1012.330451
 31
0.0
  0
LINE
  5
397
330
1F
100
AcDbEntity
  8
002
 62
     3
370
    30
100
AcDbLine
 10
258.695007
 20
998.330451
 30
0.0
 11
258.695007
 21
974.330151
 31
0.0
  0
LINE
  5
398
330
1F
100
AcDbEntity
  8
002
 62
     3
370
    30
100
AcDbLine
 10
258.695007
 20
974.330151
 30
0.0
 11
253.695007
 21
974.330151
 31
0.0
  0
LINE
  5
399
330
1F
100
AcDbEntity
  8
002
 62
     3
370
    30
100
AcDbLine
 10
253.695007
 20
973.330151
 30
0.0
 11
253.695007
 21
994.830451
 31
0.0
  0
LINE
  5
39A
330
1F
100
AcDbEntity
  8
002
 62
     3
370
    30
100
AcDbLine
 10
253.695007
 20
994.830451
 30
0.0
 11
248.695007
 21
994.830451
 31
0.0
  0
LINE
  5
39B
330
1F
100
AcDbEntity
  8
002
 62
     3
370
    30
100
AcDbLine
 10
248.695007
 20
994.830451
 30
0.0
 11
248.695007
 21
973.330151
 31
0.0
  0
LINE
  5
39C
330
1F
100
AcDbEntity
  8
002
 62
     3
370
    30
100
AcDbLine
 10
248.695007
 20
974.330151
 30
0.0
 11
243.695007
 21
974.330151
 31
0.0
  0
LINE
  5
39D
330
1F
100
AcDbEntity
  8
002
 62
     3
370
    30
100
AcDbLine
 10
243.695007
 20
974.330151
 30
0.0
 11
244.695007
 21
973.330151
 31
0.0
  0
LINE
  5
39E
330
1F
100
AcDbEntity
  8
002
 62
     3
370
    30
100
AcDbLine
 10
244.695007
 20
973.330151
 30
0.0
 11
257.695007
 21
973.330151
 31
0.0
  0
LINE
  5
39F
330
1F
100
AcDbEntity
  8
002
 62
     3
370
    30
100
AcDbLine
 10
257.695007
 20
973.330151
 30
0.0
 11
258.695007
 21
974.330151
 31
0.0
  0
LINE
  5
3A0
330
1F
100
AcDbEntity
  8
002
 62
     3
370
    30
100
AcDbLine
 10
243.695007
 20
974.330151
 30
0.0
 11
243.695007
 21
998.330451
 31
0.0
  0
ARC
  5
3A1
330
1F
100
AcDbEntity
  8
002
 62
     3
370
    30
100
AcDbCircle
 10
251.195007
 20
994.830451
 30
0.0
 40
2.5
100
AcDbArc
 50
0.0
 51
180.0
  0
LINE
  5
3A2
330
1F
100
AcDbEntity
  8
002
 62
     3
370
    30
100
AcDbLine
 10
278.195007
 20
1014.330451
 30
0.0
 11
280.641207
 21
1014.330451
 31
0.0
  0
ARC
  5
3A3
330
1F
100
AcDbEntity
  8
002
 62
     3
370
    30
100
AcDbCircle
 10
280.641207
 20
1011.330451
 30
0.0
 40
2.999999999999886
100
AcDbArc
 50
49.402641
 51
90.0
  0
ARC
  5
3A4
330
1F
100
AcDbEntity
  8
002
 62
     3
370
    30
100
AcDbCircle
 10
291.510107
 20
1024.011451
 30
0.0
 40
13.70183378274599
100
AcDbArc
 50
229.399522
 51
357.151147
  0
LINE
  5
3A5
330
1F
100
AcDbEntity
  8
002
 62
     3
370
    30
100
AcDbLine
 10
305.195007
 20
1023.330451
 30
0.0
 11
305.195007
 21
1103.330451
 31
0.0
  0
ARC
  5
3A6
330
1F
100
AcDbEntity
  8
002
 62
     3
370
    30
100
AcDbCircle
 10
291.510107
 20
1102.648451
 30
0.0
 40
13.70215207768474
100
AcDbArc
 50
2.853029
 51
130.597757
  0
LINE
  5
3A7
330
1F
100
AcDbEntity
  8
002
 62
     3
370
    30
100
AcDbLine
 10
280.641207
 20
1112.330451
 30
0.0
 11
278.195007
 21
1112.330451
 31
0.0
  0
LINE
  5
3A8
330
1F
100
AcDbEntity
  8
002
 62
     3
370
    30
100
AcDbLine
 10
278.195007
 20
1114.330451
 30
0.0
 11
238.349507
 21
1114.330451
 31
0.0
  0
LINE
  5
3A9
330
1F
100
AcDbEntity
  8
002
 62
     3
370
    30
100
AcDbLine
 10
278.195007
 20
1119.330451
 30
0.0
 11
278.195007
 21
1103.330451
 31
0.0
  0
ARC
  5
3AA
330
1F
100
AcDbEntity
  8
002
 62
     3
370
    30
100
AcDbCircle
 10
291.195007
 20
1103.330451
 30
0.0
 40
13.00024034393212
100
AcDbArc
 50
180.0
 51
219.716412
  0
LINE
  5
3AB
330
1F
100
AcDbEntity
  8
002
 62
     3
370
    30
100
AcDbLine
 10
281.195007
 20
1095.023451
 30
0.0
 11
281.195007
 21
1093.830451
 31
0.0
  0
ARC
  5
3AC
330
1F
100
AcDbEntity
  8
002
 62
     3
370
    30
100
AcDbCircle
 10
284.195007
 20
1093.830451
 30
0.0
 40
3.0
100
AcDbArc
 50
180.0
 51
270.0
  0
LINE
  5
3AD
330
1F
100
AcDbEntity
  8
002
 62
     3
370
    30
100
AcDbLine
 10
284.195007
 20
1090.830451
 30
0.0
 11
302.212007
 21
1090.830451
 31
0.0
  0
ARC
  5
3AE
330
1F
100
AcDbEntity
  8
002
 62
     3
370
    30
100
AcDbCircle
 10
302.212007
 20
1093.830451
 30
0.0
 40
3.0
100
AcDbArc
 50
270.0
 51
0.0
  0
LINE
  5
3AF
330
1F
100
AcDbEntity
  8
002
 62
     3
370
    30
100
AcDbLine
 10
302.695007
 20
1089.830451
 30
0.0
 11
302.695007
 21
1036.830451
 31
0.0
  0
LINE
  5
3B0
330
1F
100
AcDbEntity
  8
002
 62
     3
370
    30
100
AcDbLine
 10
298.015607
 20
1039.830451
 30
0.0
 11
298.015607
 21
1086.830451
 31
0.0
  0
ARC
  5
3B1
330
1F
100
AcDbEntity
  8
002
 62
     3
370
    30
100
AcDbCircle
 10
295.015607
 20
1086.830451
 30
0.0
 40
3.0
100
AcDbArc
 50
0.0
 51
90.0
  0
LINE
  5
3B2
330
1F
100
AcDbEntity
  8
002
 62
     3
370
    30
100
AcDbLine
 10
295.015607
 20
1089.830451
 30
0.0
 11
287.546107
 21
1089.830451
 31
0.0
  0
ARC
  5
3B3
330
1F
100
AcDbEntity
  8
002
 62
     3
370
    30
100
AcDbCircle
 10
287.546107
 20
1086.830451
 30
0.0
 40
3.0
100
AcDbArc
 50
90.0
 51
180.0
  0
LINE
  5
3B4
330
1F
100
AcDbEntity
  8
002
 62
     3
370
    30
100
AcDbLine
 10
284.546107
 20
1086.830451
 30
0.0
 11
284.546107
 21
1039.830451
 31
0.0
  0
ARC
  5
3B5
330
1F
100
AcDbEntity
  8
002
 62
     3
370
    30
100
AcDbCircle
 10
287.546107
 20
1039.830451
 30
0.0
 40
3.0
100
AcDbArc
 50
180.0
 51
270.0
  0
LINE
  5
3B6
330
1F
100
AcDbEntity
  8
002
 62
     3
370
    30
100
AcDbLine
 10
288.483507
 20
1036.830451
 30
0.0
 11
295.015607
 21
1036.830451
 31
0.0
  0
ARC
  5
3B7
330
1F
100
AcDbEntity
  8
002
 62
     3
370
    30
100
AcDbCircle
 10
295.015607
 20
1039.830451
 30
0.0
 40
3.0
100
AcDbArc
 50
270.0
 51
0.0
  0
CIRCLE
  5
3B8
330
1F
100
AcDbEntity
  8
002
 62
     3
370
    30
100
AcDbCircle
 10
291.195007
 20
1023.330451
 30
0.0
 40
11.0
  0
CIRCLE
  5
3B9
330
1F
100
AcDbEntity
  8
002
 62
     3
370
    30
100
AcDbCircle
 10
291.195007
 20
1023.330451
 30
0.0
 40
5.5
  0
LINE
  5
3BA
330
1F
100
AcDbEntity
  8
002
 62
     3
370
    30
100
AcDbLine
 10
281.195007
 20
1035.830451
 30
0.0
 11
281.195007
 21
1090.830451
 31
0.0
  0
LINE
  5
3BB
330
1F
100
AcDbEntity
  8
002
 62
     3
370
    30
100
AcDbLine
 10
285.483507
 20
1086.830451
 30
0.0
 11
285.483507
 21
1039.830451
 31
0.0
  0
ARC
  5
3BC
330
1F
100
AcDbEntity
  8
002
 62
     3
370
    30
100
AcDbCircle
 10
288.483507
 20
1039.830451
 30
0.0
 40
3.0
100
AcDbArc
 50
180.0
 51
270.0
  0
LINE
  5
3BD
330
1F
100
AcDbEntity
  8
002
 62
     3
370
    30
100
AcDbLine
 10
254.343307
 20
1035.848451
 30
0.0
 11
254.343307
 21
1039.312451
 31
0.0
  0
LINE
  5
3BE
330
1F
100
AcDbEntity
  8
002
 62
     3
370
    30
100
AcDbLine
 10
254.343307
 20
1039.312451
 30
0.0
 11
251.343307
 21
1041.044451
 31
0.0
  0
LINE
  5
3BF
330
1F
100
AcDbEntity
  8
002
 62
     3
370
    30
100
AcDbLine
 10
251.343307
 20
1041.044451
 30
0.0
 11
248.343307
 21
1039.312451
 31
0.0
  0
LINE
  5
3C0
330
1F
100
AcDbEntity
  8
002
 62
     3
370
    30
100
AcDbLine
 10
248.343307
 20
1039.312451
 30
0.0
 11
248.343307
 21
1035.848451
 31
0.0
  0
LINE
  5
3C1
330
1F
100
AcDbEntity
  8
002
 62
     3
370
    30
100
AcDbLine
 10
248.343307
 20
1035.848451
 30
0.0
 11
251.343307
 21
1034.116451
 31
0.0
  0
LINE
  5
3C2
330
1F
100
AcDbEntity
  8
002
 62
     3
370
    30
100
AcDbLine
 10
251.343307
 20
1034.116451
 30
0.0
 11
254.343307
 21
1035.848451
 31
0.0
  0
CIRCLE
  5
3C3
330
1F
100
AcDbEntity
  8
002
 62
     3
370
    30
100
AcDbCircle
 10
251.343307
 20
1037.580451
 30
0.0
 40
6.5
  0
CIRCLE
  5
3C4
330
1F
100
AcDbEntity
  8
002
 62
     3
370
    30
100
AcDbCircle
 10
206.743507
 20
1063.330451
 30
0.0
 40
60.0
  0
LINE
  5
3C5
330
1F
100
AcDbEntity
  8
002
 62
     3
370
    30
100
AcDbLine
 10
228.283507
 20
1119.330451
 30
0.0
 11
278.195007
 21
1119.330451
 31
0.0
  0
LINE
  5
3C6
330
1F
100
AcDbEntity
  8
002
 62
     3
370
    30
100
AcDbLine
 10
259.195007
 20
1128.330451
 30
0.0
 11
243.195007
 21
1128.330451
 31
0.0
  0
LINE
  5
3C7
330
1F
100
AcDbEntity
  8
002
 62
     3
370
    30
100
AcDbLine
 10
243.695007
 20
1128.330451
 30
0.0
 11
243.695007
 21
1152.330451
 31
0.0
  0
LINE
  5
3C8
330
1F
100
AcDbEntity
  8
002
 62
     3
370
    30
100
AcDbLine
 10
243.695007
 20
1152.330451
 30
0.0
 11
244.695007
 21
1153.330451
 31
0.0
  0
LINE
  5
3C9
330
1F
100
AcDbEntity
  8
002
 62
     3
370
    30
100
AcDbLine
 10
244.695007
 20
1153.330451
 30
0.0
 11
257.695007
 21
1153.330451
 31
0.0
  0
LINE
  5
3CA
330
1F
100
AcDbEntity
  8
002
 62
     3
370
    30
100
AcDbLine
 10
257.695007
 20
1153.330451
 30
0.0
 11
258.695007
 21
1152.330451
 31
0.0
  0
LINE
  5
3CB
330
1F
100
AcDbEntity
  8
002
 62
     3
370
    30
100
AcDbLine
 10
258.695007
 20
1152.330451
 30
0.0
 11
258.695007
 21
1128.330451
 31
0.0
  0
LINE
  5
3CC
330
1F
100
AcDbEntity
  8
002
 62
     3
370
    30
100
AcDbLine
 10
248.695007
 20
1131.830451
 30
0.0
 11
248.695007
 21
1153.330451
 31
0.0
  0
LINE
  5
3CD
330
1F
100
AcDbEntity
  8
002
 62
     3
370
    30
100
AcDbLine
 10
248.695007
 20
1152.330451
 30
0.0
 11
243.695007
 21
1152.330451
 31
0.0
  0
LINE
  5
3CE
330
1F
100
AcDbEntity
  8
002
 62
     3
370
    30
100
AcDbLine
 10
253.695007
 20
1152.330451
 30
0.0
 11
258.695007
 21
1152.330451
 31
0.0
  0
LINE
  5
3CF
330
1F
100
AcDbEntity
  8
002
 62
     3
370
    30
100
AcDbLine
 10
253.695007
 20
1153.330451
 30
0.0
 11
253.695007
 21
1131.830451
 31
0.0
  0
LINE
  5
3D0
330
1F
100
AcDbEntity
  8
002
 62
     3
370
    30
100
AcDbLine
 10
253.695007
 20
1131.830451
 30
0.0
 11
248.695007
 21
1131.830451
 31
0.0
  0
ARC
  5
3D1
330
1F
100
AcDbEntity
  8
002
 62
     3
370
    30
100
AcDbCircle
 10
251.195007
 20
1131.830451
 30
0.0
 40
2.5
100
AcDbArc
 50
180.0
 51
0.0
  0
ARC
  5
3D2
330
1F
100
AcDbEntity
  8
002
 62
     3
370
    30
100
AcDbCircle
 10
280.641207
 20
1115.330451
 30
0.0
 40
3.000126545664405
100
AcDbArc
 50
270.0
 51
310.597359
  0
CIRCLE
  5
3D3
330
1F
100
AcDbEntity
  8
002
 62
     3
370
    30
100
AcDbCircle
 10
291.195007
 20
1103.330451
 30
0.0
 40
11.0
  0
CIRCLE
  5
3D4
330
1F
100
AcDbEntity
  8
002
 62
     3
370
    30
100
AcDbCircle
 10
291.195007
 20
1103.330451
 30
0.0
 40
5.5
  0
ARC
  5
3D5
330
1F
100
AcDbEntity
  8
002
 62
     3
370
    30
100
AcDbCircle
 10
288.483507
 20
1086.830451
 30
0.0
 40
3.0
100
AcDbArc
 50
90.0
 51
180.0
  0
LINE
  5
3D6
330
1F
100
AcDbEntity
  8
002
 62
     3
370
    30
100
AcDbLine
 10
254.343307
 20
1087.348451
 30
0.0
 11
254.343307
 21
1090.812451
 31
0.0
  0
LINE
  5
3D7
330
1F
100
AcDbEntity
  8
002
 62
     3
370
    30
100
AcDbLine
 10
254.343307
 20
1090.812451
 30
0.0
 11
251.343307
 21
1092.544451
 31
0.0
  0
LINE
  5
3D8
330
1F
100
AcDbEntity
  8
002
 62
     3
370
    30
100
AcDbLine
 10
251.343307
 20
1092.544451
 30
0.0
 11
248.343307
 21
1090.812451
 31
0.0
  0
LINE
  5
3D9
330
1F
100
AcDbEntity
  8
002
 62
     3
370
    30
100
AcDbLine
 10
248.343307
 20
1090.812451
 30
0.0
 11
248.343307
 21
1087.348451
 31
0.0
  0
LINE
  5
3DA
330
1F
100
AcDbEntity
  8
002
 62
     3
370
    30
100
AcDbLine
 10
248.343307
 20
1087.348451
 30
0.0
 11
251.343307
 21
1085.616451
 31
0.0
  0
LINE
  5
3DB
330
1F
100
AcDbEntity
  8
002
 62
     3
370
    30
100
AcDbLine
 10
251.343307
 20
1085.616451
 30
0.0
 11
254.343307
 21
1087.348451
 31
0.0
  0
CIRCLE
  5
3DC
330
1F
100
AcDbEntity
  8
002
 62
     3
370
    30
100
AcDbCircle
 10
251.343307
 20
1089.080451
 30
0.0
 40
6.5
  0
LINE
  5
3DD
330
1F
100
AcDbEntity
  8
002
 62
     3
370
    30
100
AcDbLine
 10
172.116507
 20
1014.330451
 30
0.0
 11
169.778507
 21
1014.330451
 31
0.0
  0
ARC
  5
3DE
330
1F
100
AcDbEntity
  8
002
 62
     3
370
    30
100
AcDbCircle
 10
169.778507
 20
1011.330451
 30
0.0
 40
3.000454132294061
100
AcDbArc
 50
90.0
 51
131.419454
  0
ARC
  5
3DF
330
1F
100
AcDbEntity
  8
002
 62
     3
370
    30
100
AcDbCircle
 10
159.195507
 20
1023.330451
 30
0.0
 40
5.49951143284552
100
AcDbArc
 50
104.875053
 51
335.266335
  0
LINE
  5
3E0
330
1F
100
AcDbEntity
  8
002
 62
     3
370
    30
100
AcDbLine
 10
162.142507
 20
1034.116451
 30
0.0
 11
165.142507
 21
1035.848451
 31
0.0
  0
LINE
  5
3E1
330
1F
100
AcDbEntity
  8
002
 62
     3
370
    30
100
AcDbLine
 10
165.142507
 20
1035.848451
 30
0.0
 11
165.142507
 21
1039.312451
 31
0.0
  0
LINE
  5
3E2
330
1F
100
AcDbEntity
  8
002
 62
     3
370
    30
100
AcDbLine
 10
165.142507
 20
1039.312451
 30
0.0
 11
162.142507
 21
1041.044451
 31
0.0
  0
LINE
  5
3E3
330
1F
100
AcDbEntity
  8
002
 62
     3
370
    30
100
AcDbLine
 10
162.142507
 20
1041.044451
 30
0.0
 11
159.142507
 21
1039.312451
 31
0.0
  0
LINE
  5
3E4
330
1F
100
AcDbEntity
  8
002
 62
     3
370
    30
100
AcDbLine
 10
159.142507
 20
1039.312451
 30
0.0
 11
159.142507
 21
1035.848451
 31
0.0
  0
LINE
  5
3E5
330
1F
100
AcDbEntity
  8
002
 62
     3
370
    30
100
AcDbLine
 10
159.142507
 20
1035.848451
 30
0.0
 11
162.142507
 21
1034.116451
 31
0.0
  0
ARC
  5
3E6
330
1F
100
AcDbEntity
  8
002
 62
     3
370
    30
100
AcDbCircle
 10
159.195507
 20
1023.330451
 30
0.0
 40
10.99970567788074
100
AcDbArc
 50
113.857244
 51
326.288262
  0
CIRCLE
  5
3E7
330
1F
100
AcDbEntity
  8
002
 62
     3
370
    30
100
AcDbCircle
 10
162.142507
 20
1089.080451
 30
0.0
 40
6.5
  0
LINE
  5
3E8
330
1F
100
AcDbEntity
  8
002
 62
     3
370
    30
100
AcDbLine
 10
162.142507
 20
1092.544451
 30
0.0
 11
159.142507
 21
1090.812451
 31
0.0
  0
LINE
  5
3E9
330
1F
100
AcDbEntity
  8
002
 62
     3
370
    30
100
AcDbLine
 10
159.142507
 20
1090.812451
 30
0.0
 11
159.142507
 21
1087.348451
 31
0.0
  0
LINE
  5
3EA
330
1F
100
AcDbEntity
  8
002
 62
     3
370
    30
100
AcDbLine
 10
159.142507
 20
1087.348451
 30
0.0
 11
162.142507
 21
1085.616451
 31
0.0
  0
LINE
  5
3EB
330
1F
100
AcDbEntity
  8
002
 62
     3
370
    30
100
AcDbLine
 10
162.142507
 20
1085.616451
 30
0.0
 11
165.142507
 21
1087.348451
 31
0.0
  0
LINE
  5
3EC
330
1F
100
AcDbEntity
  8
002
 62
     3
370
    30
100
AcDbLine
 10
165.142507
 20
1087.348451
 30
0.0
 11
165.142507
 21
1090.812451
 31
0.0
  0
LINE
  5
3ED
330
1F
100
AcDbEntity
  8
002
 62
     3
370
    30
100
AcDbLine
 10
165.142507
 20
1090.812451
 30
0.0
 11
162.142507
 21
1092.544451
 31
0.0
  0
ARC
  5
3EE
330
1F
100
AcDbEntity
  8
002
 62
     3
370
    30
100
AcDbCircle
 10
159.195507
 20
1103.330451
 30
0.0
 40
5.500327262990851
100
AcDbArc
 50
24.724201
 51
255.124947
  0
ARC
  5
3EF
330
1F
100
AcDbEntity
  8
002
 62
     3
370
    30
100
AcDbCircle
 10
159.195507
 20
1103.330451
 30
0.0
 40
11.00078733545918
100
AcDbArc
 50
33.707404
 51
246.144863
  0
LINE
  5
3F0
330
1F
100
AcDbEntity
  8
002
 62
     3
370
    30
100
AcDbLine
 10
147.665318
 20
1073.807451
 30
0.0
 11
143.743507
 21
1073.807451
 31
0.0
  0
LINE
  5
3F1
330
1F
100
AcDbEntity
  8
002
 62
     3
370
    30
100
AcDbLine
 10
143.743507
 20
1073.807451
 30
0.0
 11
143.743507
 21
1052.852451
 31
0.0
  0
LINE
  5
3F2
330
1F
100
AcDbEntity
  8
002
 62
     3
370
    30
100
AcDbLine
 10
143.743507
 20
1052.852451
 30
0.0
 11
147.665495
 21
1052.852451
 31
0.0
  0
LINE
  5
3F3
330
1F
100
AcDbEntity
  8
002
 62
     3
370
    30
100
AcDbLine
 10
143.743507
 20
1056.330451
 30
0.0
 11
133.743507
 21
1056.330451
 31
0.0
  0
LINE
  5
3F4
330
1F
100
AcDbEntity
  8
002
 62
     3
370
    30
100
AcDbLine
 10
133.743507
 20
1056.330451
 30
0.0
 11
133.743507
 21
1070.330451
 31
0.0
  0
LINE
  5
3F5
330
1F
100
AcDbEntity
  8
002
 62
     3
370
    30
100
AcDbLine
 10
133.743507
 20
1070.330451
 30
0.0
 11
143.743507
 21
1070.330451
 31
0.0
  0
CIRCLE
  5
3F6
330
1F
100
AcDbEntity
  8
002
 62
     3
370
    30
100
AcDbCircle
 10
162.142507
 20
1037.580451
 30
0.0
 40
6.5
  0
LINE
  5
3F7
330
1F
100
AcDbEntity
  8
002
 62
     3
370
    30
100
AcDbLine
 10
172.116507
 20
1112.330451
 30
0.0
 11
169.778507
 21
1112.330451
 31
0.0
  0
ARC
  5
3F8
330
1F
100
AcDbEntity
  8
002
 62
     3
370
    30
100
AcDbCircle
 10
169.778507
 20
1115.330451
 30
0.0
 40
3.0
100
AcDbArc
 50
228.580546
 51
270.0
  0
ARC
  5
3F9
330
1F
100
AcDbEntity
  8
002
 62
     3
370
    30
100
AcDbCircle
 10
158.899507
 20
1102.631451
 30
0.0
 40
13.72181536823749
100
AcDbArc
 50
49.596172
 51
177.080044
  0
ARC
  5
3FA
330
1F
100
AcDbEntity
  8
002
 62
     3
370
    30
100
AcDbCircle
 10
158.899507
 20
1024.029451
 30
0.0
 40
13.72169220613839
100
AcDbArc
 50
182.919956
 51
310.403828
  0
CIRCLE
  5
3FB
330
1F
100
AcDbEntity
  8
002
 62
     3
370
    30
100
AcDbCircle
 10
206.743507
 20
1063.330451
 30
0.0
 40
38.0
  0
CIRCLE
  5
3FC
330
1F
100
AcDbEntity
  8
002
 62
     3
370
    30
100
AcDbCircle
 10
206.743507
 20
1063.330451
 30
0.0
 40
12.5
  0
CIRCLE
  5
3FD
330
1F
100
AcDbEntity
  8
002
 62
     3
370
    30
100
AcDbCircle
 10
206.743507
 20
1063.330451
 30
0.0
 40
9.0
  0
LINE
  5
3FE
330
1F
100
AcDbEntity
  8
002
  6
CENTER
 62
    40
370
     9
100
AcDbLine
 10
311.977181
 20
1063.330451
 30
0.0
 11
129.173507
 21
1063.330451
 31
0.0
  0
LINE
  5
3FF
330
1F
100
AcDbEntity
  8
002
  6
CENTER
 62
    40
370
     9
100
AcDbLine
 10
206.743507
 20
1131.831451
 30
0.0
 11
206.743507
 21
997.57471
 31
0.0
  0
CIRCLE
  5
400
330
1F
100
AcDbEntity
  8
002
 62
    40
370
     9
100
AcDbCircle
 10
206.743507
 20
1063.330451
 30
0.0
 40
8.25
  0
LINE
  5
401
330
1F
100
AcDbEntity
  8
002
  6
CENTER
 62
    40
370
     9
100
AcDbLine
 10
243.549107
 20
1042.080451
 30
0.0
 11
258.704607
 21
1033.330451
 31
0.0
  0
CIRCLE
  5
402
330
1F
100
AcDbEntity
  8
002
  6
CENTER
 62
    40
370
     9
100
AcDbCircle
 10
206.743507
 20
1063.330451
 30
0.0
 40
51.5
  0
LINE
  5
403
330
1F
100
AcDbEntity
  8
002
  6
CENTER
 62
    40
370
     9
100
AcDbLine
 10
243.549107
 20
1084.580451
 30
0.0
 11
258.704607
 21
1093.330451
 31
0.0
  0
LINE
  5
404
330
1F
100
AcDbEntity
  8
002
  6
CENTER
 62
    40
370
     9
100
AcDbLine
 10
169.936507
 20
1084.580451
 30
0.0
 11
154.781507
 21
1093.330451
 31
0.0
  0
LINE
  5
405
330
1F
100
AcDbEntity
  8
002
  6
CENTER
 62
    40
370
     9
100
AcDbLine
 10
168.952507
 20
1023.330451
 30
0.0
 11
145.195507
 21
1023.330451
 31
0.0
  0
LINE
  5
406
330
1F
100
AcDbEntity
  8
002
  6
CENTER
 62
    40
370
     9
100
AcDbLine
 10
159.195507
 20
1033.227451
 30
0.0
 11
159.195507
 21
1009.156451
 31
0.0
  0
LINE
  5
407
330
1F
100
AcDbEntity
  8
002
  6
CENTER
 62
    40
370
     9
100
AcDbLine
 10
154.781507
 20
1033.330451
 30
0.0
 11
169.936507
 21
1042.080451
 31
0.0
  0
LINE
  5
408
330
1F
100
AcDbEntity
  8
002
  6
CENTER
 62
    40
370
     9
100
AcDbLine
 10
159.195507
 20
1093.432451
 30
0.0
 11
159.195507
 21
1117.504451
 31
0.0
  0
LINE
  5
409
330
1F
100
AcDbEntity
  8
002
  6
CENTER
 62
    40
370
     9
100
AcDbLine
 10
168.952507
 20
1103.330451
 30
0.0
 11
145.195507
 21
1103.330451
 31
0.0
  0
LINE
  5
40A
330
1F
100
AcDbEntity
  8
002
 62
    40
370
     9
100
AcDbLine
 10
133.743507
 20
1070.330451
 30
0.0
 11
143.743507
 21
1056.330451
 31
0.0
  0
LINE
  5
40B
330
1F
100
AcDbEntity
  8
002
 62
    40
370
     9
100
AcDbLine
 10
133.743507
 20
1056.330451
 30
0.0
 11
143.743507
 21
1070.330451
 31
0.0
  0
LINE
  5
40C
330
1F
100
AcDbEntity
  8
002
 62
    40
370
     9
100
AcDbLine
 10
143.743507
 20
1054.014451
 30
0.0
 11
147.471152
 21
1054.014451
 31
0.0
  0
LINE
  5
40D
330
1F
100
AcDbEntity
  8
002
 62
    40
370
     9
100
AcDbLine
 10
143.743507
 20
1072.645451
 30
0.0
 11
147.470995
 21
1072.645451
 31
0.0
  0
LINE
  5
40E
330
1F
100
AcDbEntity
  8
002
  6
CENTER
 62
    40
370
     9
100
AcDbLine
 10
251.195007
 20
965.944451
 30
0.0
 11
251.195007
 21
1160.680451
 31
0.0
  0
LINE
  5
40F
330
1F
100
AcDbEntity
  8
002
  6
CENTER
 62
    40
370
     9
100
AcDbLine
 10
291.195007
 20
1035.830451
 30
0.0
 11
291.195007
 21
1008.649451
 31
0.0
  0
LINE
  5
410
330
1F
100
AcDbEntity
  8
002
  6
CENTER
 62
    40
370
     9
100
AcDbLine
 10
277.151007
 20
1023.330451
 30
0.0
 11
307.221907
 21
1023.330451
 31
0.0
  0
LINE
  5
411
330
1F
100
AcDbEntity
  8
002
  6
CENTER
 62
    40
370
     9
100
AcDbLine
 10
291.195007
 20
1089.830451
 30
0.0
 11
291.195007
 21
1117.569451
 31
0.0
  0
LINE
  5
412
330
1F
100
AcDbEntity
  8
002
  6
CENTER
 62
    40
370
     9
100
AcDbLine
 10
276.014407
 20
1103.330451
 30
0.0
 11
307.177807
 21
1103.330451
 31
0.0
  0
LINE
  5
413
330
1F
100
AcDbEntity
  8
002
 62
     3
370
    30
100
AcDbLine
 10
145.195507
 20
1023.330451
 30
0.0
 11
145.195507
 21
1052.852451
 31
0.0
  0
LINE
  5
414
330
1F
100
AcDbEntity
  8
002
 62
     3
370
    30
100
AcDbLine
 10
145.195507
 20
1073.807451
 30
0.0
 11
145.195507
 21
1103.330451
 31
0.0
  0
LINE
  5
415
330
1F
100
AcDbEntity
  8
002
 62
     3
370
    30
100
AcDbLine
 10
259.195007
 20
998.330451
 30
0.0
 11
243.195007
 21
998.330451
 31
0.0
  0
LINE
  5
416
330
1F
100
AcDbEntity
  8
002
 62
     3
370
    30
100
AcDbLine
 10
392.010507
 20
218.57471
 30
0.0
 11
392.010507
 21
164.57471
 31
0.0
  0
LINE
  5
417
330
1F
100
AcDbEntity
  8
002
 62
     3
370
    30
100
AcDbLine
 10
392.010507
 20
164.57471
 30
0.0
 11
397.010507
 21
164.57471
 31
0.0
  0
LINE
  5
418
330
1F
100
AcDbEntity
  8
002
 62
     3
370
    30
100
AcDbLine
 10
397.010507
 20
164.57471
 30
0.0
 11
397.010507
 21
218.57471
 31
0.0
  0
LINE
  5
419
330
1F
100
AcDbEntity
  8
002
 62
     3
370
    30
100
AcDbLine
 10
388.010507
 20
218.57471
 30
0.0
 11
388.010507
 21
236.57471
 31
0.0
  0
LINE
  5
41A
330
1F
100
AcDbEntity
  8
002
 62
     3
370
    30
100
AcDbLine
 10
508.010507
 20
236.57471
 30
0.0
 11
508.010507
 21
218.57471
 31
0.0
  0
LINE
  5
41B
330
1F
100
AcDbEntity
  8
002
 62
     3
370
    30
100
AcDbLine
 10
508.010507
 20
218.57471
 30
0.0
 11
388.010507
 21
218.57471
 31
0.0
  0
LINE
  5
41C
330
1F
100
AcDbEntity
  8
002
 62
     3
370
    30
100
AcDbLine
 10
388.010507
 20
226.57471
 30
0.0
 11
508.010507
 21
226.57471
 31
0.0
  0
LINE
  5
41D
330
1F
100
AcDbEntity
  8
002
 62
     3
370
    30
100
AcDbLine
 10
504.010507
 20
218.57471
 30
0.0
 11
504.010507
 21
164.57471
 31
0.0
  0
LINE
  5
41E
330
1F
100
AcDbEntity
  8
002
 62
     3
370
    30
100
AcDbLine
 10
504.010507
 20
164.57471
 30
0.0
 11
499.010507
 21
164.57471
 31
0.0
  0
ARC
  5
41F
330
1F
100
AcDbEntity
  8
002
 62
     3
370
    30
100
AcDbCircle
 10
499.010507
 20
162.57471
 30
0.0
 40
2.0
100
AcDbArc
 50
90.0
 51
180.0
  0
ARC
  5
420
330
1F
100
AcDbEntity
  8
002
 62
     3
370
    30
100
AcDbCircle
 10
500.010507
 20
162.57471
 30
0.0
 40
3.0
100
AcDbArc
 50
180.0
 51
270.0
  0
LINE
  5
421
330
1F
100
AcDbEntity
  8
002
 62
     3
370
    30
100
AcDbLine
 10
501.030507
 20
159.57471
 30
0.0
 11
394.989507
 21
159.57471
 31
0.0
  0
LINE
  5
422
330
1F
100
AcDbEntity
  8
002
 62
     3
370
    30
100
AcDbLine
 10
394.989507
 20
159.57471
 30
0.0
 11
394.989507
 21
146.57471
 31
0.0
  0
LINE
  5
423
330
1F
100
AcDbEntity
  8
002
 62
     3
370
    30
100
AcDbLine
 10
394.989507
 20
146.57471
 30
0.0
 11
501.030507
 21
146.57471
 31
0.0
  0
LINE
  5
424
330
1F
100
AcDbEntity
  8
002
 62
     3
370
    30
100
AcDbLine
 10
501.030507
 20
146.57471
 30
0.0
 11
501.030507
 21
159.57471
 31
0.0
  0
LINE
  5
425
330
1F
100
AcDbEntity
  8
002
 62
     3
370
    30
100
AcDbLine
 10
499.010507
 20
164.57471
 30
0.0
 11
499.010507
 21
218.57471
 31
0.0
  0
ARC
  5
426
330
1F
100
AcDbEntity
  8
002
 62
     3
370
    30
100
AcDbCircle
 10
482.703507
 20
215.57471
 30
0.0
 40
3.0
100
AcDbArc
 50
90.0
 51
180.0
  0
LINE
  5
427
330
1F
100
AcDbEntity
  8
002
 62
     3
370
    30
100
AcDbLine
 10
479.703507
 20
215.57471
 30
0.0
 11
479.703507
 21
162.57471
 31
0.0
  0
ARC
  5
428
330
1F
100
AcDbEntity
  8
002
 62
     3
370
    30
100
AcDbCircle
 10
482.703507
 20
162.57471
 30
0.0
 40
3.0
100
AcDbArc
 50
180.0
 51
270.0
  0
LINE
  5
429
330
1F
100
AcDbEntity
  8
002
 62
     3
370
    30
100
AcDbLine
 10
475.510507
 20
162.57471
 30
0.0
 11
475.510507
 21
215.57471
 31
0.0
  0
ARC
  5
42A
330
1F
100
AcDbEntity
  8
002
 62
     3
370
    30
100
AcDbCircle
 10
478.510507
 20
215.57471
 30
0.0
 40
3.0
100
AcDbArc
 50
90.0
 51
180.0
  0
LINE
  5
42B
330
1F
100
AcDbEntity
  8
002
 62
     3
370
    30
100
AcDbLine
 10
471.510507
 20
208.79691
 30
0.0
 11
424.510507
 21
208.79691
 31
0.0
  0
ARC
  5
42C
330
1F
100
AcDbEntity
  8
002
 62
     3
370
    30
100
AcDbCircle
 10
424.510507
 20
205.79691
 30
0.0
 40
3.0
100
AcDbArc
 50
90.0
 51
180.0
  0
LINE
  5
42D
330
1F
100
AcDbEntity
  8
002
 62
     3
370
    30
100
AcDbLine
 10
421.510507
 20
205.79691
 30
0.0
 11
421.510507
 21
178.04861
 31
0.0
  0
ARC
  5
42E
330
1F
100
AcDbEntity
  8
002
 62
     3
370
    30
100
AcDbCircle
 10
424.510507
 20
178.04861
 30
0.0
 40
3.0
100
AcDbArc
 50
180.0
 51
270.0
  0
LINE
  5
42F
330
1F
100
AcDbEntity
  8
002
 62
     3
370
    30
100
AcDbLine
 10
424.510507
 20
175.04861
 30
0.0
 11
471.510507
 21
175.04861
 31
0.0
  0
ARC
  5
430
330
1F
100
AcDbEntity
  8
002
 62
     3
370
    30
100
AcDbCircle
 10
471.510507
 20
178.04861
 30
0.0
 40
3.0
100
AcDbArc
 50
270.0
 51
0.0
  0
LINE
  5
431
330
1F
100
AcDbEntity
  8
002
 62
     3
370
    30
100
AcDbLine
 10
474.510507
 20
178.04861
 30
0.0
 11
474.510507
 21
205.79691
 31
0.0
  0
ARC
  5
432
330
1F
100
AcDbEntity
  8
002
 62
     3
370
    30
100
AcDbCircle
 10
471.510507
 20
205.79691
 30
0.0
 40
3.0
100
AcDbArc
 50
0.0
 51
90.0
  0
LINE
  5
433
330
1F
100
AcDbEntity
  8
002
 62
     3
370
    30
100
AcDbLine
 10
416.316507
 20
215.57471
 30
0.0
 11
416.316507
 21
162.57471
 31
0.0
  0
ARC
  5
434
330
1F
100
AcDbEntity
  8
002
 62
     3
370
    30
100
AcDbCircle
 10
417.510507
 20
162.57471
 30
0.0
 40
3.0
100
AcDbArc
 50
270.0
 51
0.0
  0
LINE
  5
435
330
1F
100
AcDbEntity
  8
002
 62
     3
370
    30
100
AcDbLine
 10
420.510507
 20
162.57471
 30
0.0
 11
420.510507
 21
215.57471
 31
0.0
  0
ARC
  5
436
330
1F
100
AcDbEntity
  8
002
 62
     3
370
    30
100
AcDbCircle
 10
417.510507
 20
215.57471
 30
0.0
 40
3.0
100
AcDbArc
 50
0.0
 51
90.0
  0
ARC
  5
437
330
1F
100
AcDbEntity
  8
002
 62
     3
370
    30
100
AcDbCircle
 10
413.316507
 20
215.57471
 30
0.0
 40
3.0
100
AcDbArc
 50
0.0
 51
90.0
  0
ARC
  5
438
330
1F
100
AcDbEntity
  8
002
 62
     3
370
    30
100
AcDbCircle
 10
396.010507
 20
162.57471
 30
0.0
 40
2.999999999999886
100
AcDbArc
 50
270.0
 51
0.0
  0
ARC
  5
439
330
1F
100
AcDbEntity
  8
002
 62
     3
370
    30
100
AcDbCircle
 10
397.010507
 20
162.57471
 30
0.0
 40
2.0
100
AcDbArc
 50
0.0
 51
90.0
  0
ARC
  5
43A
330
1F
100
AcDbEntity
  8
002
 62
     3
370
    30
100
AcDbCircle
 10
413.316507
 20
162.57471
 30
0.0
 40
3.0
100
AcDbArc
 50
270.0
 51
0.0
  0
ARC
  5
43B
330
1F
100
AcDbEntity
  8
002
 62
     3
370
    30
100
AcDbCircle
 10
478.510507
 20
162.57471
 30
0.0
 40
3.0
100
AcDbArc
 50
180.0
 51
270.0
  0
LINE
  5
43C
330
1F
100
AcDbEntity
  8
003
  6
CENTER
 62
    40
370
     9
100
AcDbLine
 10
543.703507
 20
191.57471
 30
0.0
 11
348.636007
 21
191.57471
 31
0.0
  0
LINE
  5
43D
330
1F
100
AcDbEntity
  8
003
  6
HIDDEN
 62
    40
370
     9
100
AcDbLine
 10
499.010507
 20
159.57471
 30
0.0
 11
499.010507
 21
158.57471
 31
0.0
  0
LINE
  5
43E
330
1F
100
AcDbEntity
  8
003
  6
HIDDEN
 62
    40
370
     9
100
AcDbLine
 10
499.010507
 20
158.57471
 30
0.0
 11
477.010507
 21
158.57471
 31
0.0
  0
LINE
  5
43F
330
1F
100
AcDbEntity
  8
003
  6
HIDDEN
 62
    40
370
     9
100
AcDbLine
 10
477.010507
 20
158.57471
 30
0.0
 11
477.010507
 21
159.57471
 31
0.0
  0
LINE
  5
440
330
1F
100
AcDbEntity
  8
003
  6
HIDDEN
 62
    40
370
     9
100
AcDbLine
 10
482.510507
 20
158.57471
 30
0.0
 11
482.510507
 21
146.57471
 31
0.0
  0
LINE
  5
441
330
1F
100
AcDbEntity
  8
003
  6
CENTER
 62
    40
370
     9
100
AcDbLine
 10
488.010507
 20
139.17421
 30
0.0
 11
488.010507
 21
167.10291
 31
0.0
  0
LINE
  5
442
330
1F
100
AcDbEntity
  8
003
  6
HIDDEN
 62
    40
370
     9
100
AcDbLine
 10
493.510507
 20
158.57471
 30
0.0
 11
493.510507
 21
146.57471
 31
0.0
  0
LINE
  5
443
330
1F
100
AcDbEntity
  8
003
  6
HIDDEN
 62
    40
370
     9
100
AcDbLine
 10
413.510507
 20
146.57471
 30
0.0
 11
413.510507
 21
158.57471
 31
0.0
  0
LINE
  5
444
330
1F
100
AcDbEntity
  8
003
  6
HIDDEN
 62
    40
370
     9
100
AcDbLine
 10
419.010507
 20
158.57471
 30
0.0
 11
397.010507
 21
158.57471
 31
0.0
  0
LINE
  5
445
330
1F
100
AcDbEntity
  8
003
  6
HIDDEN
 62
    40
370
     9
100
AcDbLine
 10
397.010507
 20
158.57471
 30
0.0
 11
397.010507
 21
159.57471
 31
0.0
  0
LINE
  5
446
330
1F
100
AcDbEntity
  8
003
  6
HIDDEN
 62
    40
370
     9
100
AcDbLine
 10
402.510507
 20
158.57471
 30
0.0
 11
402.510507
 21
146.57471
 31
0.0
  0
LINE
  5
447
330
1F
100
AcDbEntity
  8
003
  6
CENTER
 62
    40
370
     9
100
AcDbLine
 10
408.010507
 20
139.17421
 30
0.0
 11
408.010507
 21
167.10291
 31
0.0
  0
LINE
  5
448
330
1F
100
AcDbEntity
  8
003
  6
HIDDEN
 62
    40
370
     9
100
AcDbLine
 10
419.010507
 20
159.57471
 30
0.0
 11
419.010507
 21
158.57471
 31
0.0
  0
LINE
  5
449
330
1F
100
AcDbEntity
  8
002
 62
     3
370
    30
100
AcDbLine
 10
403.010507
 20
244.57471
 30
0.0
 11
403.010507
 21
236.57471
 31
0.0
  0
LINE
  5
44A
330
1F
100
AcDbEntity
  8
002
 62
     3
370
    30
100
AcDbLine
 10
390.010507
 20
244.57471
 30
0.0
 11
403.010507
 21
244.57471
 31
0.0
  0
LINE
  5
44B
330
1F
100
AcDbEntity
  8
002
 62
     3
370
    30
100
AcDbLine
 10
390.010507
 20
244.57471
 30
0.0
 11
390.010507
 21
236.57471
 31
0.0
  0
LINE
  5
44C
330
1F
100
AcDbEntity
  8
002
 62
     3
370
    30
100
AcDbLine
 10
388.010507
 20
236.57471
 30
0.0
 11
508.010507
 21
236.57471
 31
0.0
  0
LINE
  5
44D
330
1F
100
AcDbEntity
  8
002
  6
CENTER
 62
    40
370
     9
100
AcDbLine
 10
396.510507
 20
220.18611
 30
0.0
 11
396.510507
 21
246.58611
 31
0.0
  0
LINE
  5
44E
330
1F
100
AcDbEntity
  8
002
 62
     3
370
    30
100
AcDbLine
 10
428.760312
 20
244.57471
 30
0.0
 11
428.760312
 21
236.57471
 31
0.0
  0
LINE
  5
44F
330
1F
100
AcDbEntity
  8
002
 62
     3
370
    30
100
AcDbLine
 10
415.760312
 20
244.57471
 30
0.0
 11
428.760312
 21
244.57471
 31
0.0
  0
LINE
  5
450
330
1F
100
AcDbEntity
  8
002
 62
     3
370
    30
100
AcDbLine
 10
415.760312
 20
244.57471
 30
0.0
 11
415.760312
 21
236.57471
 31
0.0
  0
LINE
  5
451
330
1F
100
AcDbEntity
  8
002
  6
CENTER
 62
    40
370
     9
100
AcDbLine
 10
422.260312
 20
220.18611
 30
0.0
 11
422.260312
 21
246.58611
 31
0.0
  0
LINE
  5
452
330
1F
100
AcDbEntity
  8
002
 62
     3
370
    30
100
AcDbLine
 10
493.010507
 20
244.57471
 30
0.0
 11
493.010507
 21
236.57471
 31
0.0
  0
LINE
  5
453
330
1F
100
AcDbEntity
  8
002
 62
     3
370
    30
100
AcDbLine
 10
506.010507
 20
244.57471
 30
0.0
 11
493.010507
 21
244.57471
 31
0.0
  0
LINE
  5
454
330
1F
100
AcDbEntity
  8
002
 62
     3
370
    30
100
AcDbLine
 10
506.010507
 20
244.57471
 30
0.0
 11
506.010507
 21
236.57471
 31
0.0
  0
LINE
  5
455
330
1F
100
AcDbEntity
  8
002
  6
CENTER
 62
    40
370
     9
100
AcDbLine
 10
499.510507
 20
220.18611
 30
0.0
 11
499.510507
 21
246.58611
 31
0.0
  0
LINE
  5
456
330
1F
100
AcDbEntity
  8
002
 62
     3
370
    30
100
AcDbLine
 10
467.260703
 20
244.57471
 30
0.0
 11
467.260703
 21
236.57471
 31
0.0
  0
LINE
  5
457
330
1F
100
AcDbEntity
  8
002
 62
     3
370
    30
100
AcDbLine
 10
480.260703
 20
244.57471
 30
0.0
 11
467.260703
 21
244.57471
 31
0.0
  0
LINE
  5
458
330
1F
100
AcDbEntity
  8
002
 62
     3
370
    30
100
AcDbLine
 10
480.260703
 20
244.57471
 30
0.0
 11
480.260703
 21
236.57471
 31
0.0
  0
LINE
  5
459
330
1F
100
AcDbEntity
  8
002
  6
CENTER
 62
    40
370
     9
100
AcDbLine
 10
473.760703
 20
220.18611
 30
0.0
 11
473.760703
 21
246.58611
 31
0.0
  0
LINE
  5
45A
330
1F
100
AcDbEntity
  8
003
 62
     3
370
    30
100
AcDbLine
 10
405.510507
 20
236.57471
 30
0.0
 11
405.510507
 21
238.36801
 31
0.0
  0
LINE
  5
45B
330
1F
100
AcDbEntity
  8
003
 62
     3
370
    30
100
AcDbLine
 10
490.510507
 20
236.57471
 30
0.0
 11
490.510507
 21
238.36801
 31
0.0
  0
LINE
  5
45C
330
1F
100
AcDbEntity
  8
002
 62
     3
370
    30
100
AcDbLine
 10
480.260703
 20
238.36801
 30
0.0
 11
490.510507
 21
238.36801
 31
0.0
  0
LINE
  5
45D
330
1F
100
AcDbEntity
  8
002
 62
     3
370
    30
100
AcDbLine
 10
405.510507
 20
238.36801
 30
0.0
 11
415.760312
 21
238.36801
 31
0.0
  0
LINE
  5
45E
330
1F
100
AcDbEntity
  8
002
 62
     3
370
    30
100
AcDbLine
 10
428.760312
 20
238.36801
 30
0.0
 11
467.260703
 21
238.36801
 31
0.0
  0
LINE
  5
45F
330
1F
100
AcDbEntity
  8
002
 62
     3
370
    30
100
AcDbLine
 10
383.010507
 20
184.07471
 30
0.0
 11
359.010207
 21
184.07471
 31
0.0
  0
LINE
  5
460
330
1F
100
AcDbEntity
  8
002
 62
     3
370
    30
100
AcDbLine
 10
359.010207
 20
184.07471
 30
0.0
 11
359.010207
 21
189.07471
 31
0.0
  0
LINE
  5
461
330
1F
100
AcDbEntity
  8
002
 62
     3
370
    30
100
AcDbLine
 10
358.010207
 20
189.07471
 30
0.0
 11
379.510507
 21
189.07471
 31
0.0
  0
LINE
  5
462
330
1F
100
AcDbEntity
  8
002
 62
     3
370
    30
100
AcDbLine
 10
379.510507
 20
189.07471
 30
0.0
 11
379.510507
 21
194.07471
 31
0.0
  0
LINE
  5
463
330
1F
100
AcDbEntity
  8
002
 62
     3
370
    30
100
AcDbLine
 10
379.510507
 20
194.07471
 30
0.0
 11
358.010207
 21
194.07471
 31
0.0
  0
LINE
  5
464
330
1F
100
AcDbEntity
  8
002
 62
     3
370
    30
100
AcDbLine
 10
359.010207
 20
194.07471
 30
0.0
 11
359.010207
 21
199.07471
 31
0.0
  0
LINE
  5
465
330
1F
100
AcDbEntity
  8
002
 62
     3
370
    30
100
AcDbLine
 10
359.010207
 20
199.07471
 30
0.0
 11
358.010207
 21
198.07471
 31
0.0
  0
LINE
  5
466
330
1F
100
AcDbEntity
  8
002
 62
     3
370
    30
100
AcDbLine
 10
358.010207
 20
198.07471
 30
0.0
 11
358.010207
 21
185.07471
 31
0.0
  0
LINE
  5
467
330
1F
100
AcDbEntity
  8
002
 62
     3
370
    30
100
AcDbLine
 10
358.010207
 20
185.07471
 30
0.0
 11
359.010207
 21
184.07471
 31
0.0
  0
LINE
  5
468
330
1F
100
AcDbEntity
  8
002
 62
     3
370
    30
100
AcDbLine
 10
359.010207
 20
199.07471
 30
0.0
 11
383.010507
 21
199.07471
 31
0.0
  0
ARC
  5
469
330
1F
100
AcDbEntity
  8
002
 62
     3
370
    30
100
AcDbCircle
 10
379.510507
 20
191.57471
 30
0.0
 40
2.5
100
AcDbArc
 50
270.0
 51
90.0
  0
LINE
  5
46A
330
1F
100
AcDbEntity
  8
002
 62
     3
370
    30
100
AcDbLine
 10
383.010507
 20
183.57471
 30
0.0
 11
383.010507
 21
199.57471
 31
0.0
  0
LINE
  5
46B
330
1F
100
AcDbEntity
  8
002
 62
     3
370
    30
100
AcDbLine
 10
513.010507
 20
184.07471
 30
0.0
 11
537.010807
 21
184.07471
 31
0.0
  0
LINE
  5
46C
330
1F
100
AcDbEntity
  8
002
 62
     3
370
    30
100
AcDbLine
 10
537.010807
 20
184.07471
 30
0.0
 11
537.010807
 21
189.07471
 31
0.0
  0
LINE
  5
46D
330
1F
100
AcDbEntity
  8
002
 62
     3
370
    30
100
AcDbLine
 10
538.010807
 20
189.07471
 30
0.0
 11
516.510507
 21
189.07471
 31
0.0
  0
LINE
  5
46E
330
1F
100
AcDbEntity
  8
002
 62
     3
370
    30
100
AcDbLine
 10
516.510507
 20
189.07471
 30
0.0
 11
516.510507
 21
194.07471
 31
0.0
  0
LINE
  5
46F
330
1F
100
AcDbEntity
  8
002
 62
     3
370
    30
100
AcDbLine
 10
516.510507
 20
194.07471
 30
0.0
 11
538.010807
 21
194.07471
 31
0.0
  0
LINE
  5
470
330
1F
100
AcDbEntity
  8
002
 62
     3
370
    30
100
AcDbLine
 10
537.010807
 20
194.07471
 30
0.0
 11
537.010807
 21
199.07471
 31
0.0
  0
LINE
  5
471
330
1F
100
AcDbEntity
  8
002
 62
     3
370
    30
100
AcDbLine
 10
537.010807
 20
199.07471
 30
0.0
 11
538.010807
 21
198.07471
 31
0.0
  0
LINE
  5
472
330
1F
100
AcDbEntity
  8
002
 62
     3
370
    30
100
AcDbLine
 10
538.010807
 20
198.07471
 30
0.0
 11
538.010807
 21
185.07471
 31
0.0
  0
LINE
  5
473
330
1F
100
AcDbEntity
  8
002
 62
     3
370
    30
100
AcDbLine
 10
538.010807
 20
185.07471
 30
0.0
 11
537.010807
 21
184.07471
 31
0.0
  0
LINE
  5
474
330
1F
100
AcDbEntity
  8
002
 62
     3
370
    30
100
AcDbLine
 10
537.010807
 20
199.07471
 30
0.0
 11
513.010507
 21
199.07471
 31
0.0
  0
ARC
  5
475
330
1F
100
AcDbEntity
  8
002
 62
     3
370
    30
100
AcDbCircle
 10
516.510507
 20
191.57471
 30
0.0
 40
2.5
100
AcDbArc
 50
90.0
 51
270.0
  0
LINE
  5
476
330
1F
100
AcDbEntity
  8
002
 62
     3
370
    30
100
AcDbLine
 10
513.010507
 20
183.57471
 30
0.0
 11
513.010507
 21
199.57471
 31
0.0
  0
LINE
  5
477
330
1F
100
AcDbEntity
  8
002
 62
     3
370
    30
100
AcDbLine
 10
410.510507
 20
146.57471
 30
0.0
 11
410.510507
 21
140.57471
 31
0.0
  0
LINE
  5
478
330
1F
100
AcDbEntity
  8
002
 62
     3
370
    30
100
AcDbLine
 10
410.510507
 20
140.57471
 30
0.0
 11
485.510507
 21
140.57471
 31
0.0
  0
LINE
  5
479
330
1F
100
AcDbEntity
  8
002
 62
     3
370
    30
100
AcDbLine
 10
485.510507
 20
140.57471
 30
0.0
 11
485.510507
 21
146.57471
 31
0.0
  0
LINE
  5
47A
330
1F
100
AcDbEntity
  8
002
 62
     3
370
    30
100
AcDbLine
 10
482.260507
 20
140.57471
 30
0.0
 11
482.260507
 21
135.57471
 31
0.0
  0
LINE
  5
47B
330
1F
100
AcDbEntity
  8
002
 62
     3
370
    30
100
AcDbLine
 10
482.260507
 20
135.57471
 30
0.0
 11
473.760507
 21
135.57471
 31
0.0
  0
LINE
  5
47C
330
1F
100
AcDbEntity
  8
002
 62
     3
370
    30
100
AcDbLine
 10
473.760507
 20
135.57471
 30
0.0
 11
473.760507
 21
140.57471
 31
0.0
  0
LINE
  5
47D
330
1F
100
AcDbEntity
  8
002
 62
     3
370
    30
100
AcDbLine
 10
472.310507
 20
140.57471
 30
0.0
 11
472.310507
 21
91.57471
 31
0.0
  0
LINE
  5
47E
330
1F
100
AcDbEntity
  8
002
 62
     3
370
    30
100
AcDbLine
 10
472.310507
 20
91.57471
 30
0.0
 11
423.710507
 21
91.57471
 31
0.0
  0
LINE
  5
47F
330
1F
100
AcDbEntity
  8
002
 62
     3
370
    30
100
AcDbLine
 10
423.710507
 20
91.57471
 30
0.0
 11
423.710507
 21
140.57471
 31
0.0
  0
LINE
  5
480
330
1F
100
AcDbEntity
  8
002
 62
     3
370
    30
100
AcDbLine
 10
422.260507
 20
140.57471
 30
0.0
 11
422.260507
 21
135.57471
 31
0.0
  0
LINE
  5
481
330
1F
100
AcDbEntity
  8
002
 62
     3
370
    30
100
AcDbLine
 10
422.260507
 20
135.57471
 30
0.0
 11
413.760507
 21
135.57471
 31
0.0
  0
LINE
  5
482
330
1F
100
AcDbEntity
  8
002
 62
     3
370
    30
100
AcDbLine
 10
413.760507
 20
135.57471
 30
0.0
 11
413.760507
 21
140.57471
 31
0.0
  0
LINE
  5
483
330
1F
100
AcDbEntity
  8
002
 62
     3
370
    30
100
AcDbLine
 10
443.760507
 20
135.57471
 30
0.0
 11
452.260507
 21
135.57471
 31
0.0
  0
LINE
  5
484
330
1F
100
AcDbEntity
  8
002
 62
     3
370
    30
100
AcDbLine
 10
452.260507
 20
135.57471
 30
0.0
 11
452.260507
 21
140.57471
 31
0.0
  0
LINE
  5
485
330
1F
100
AcDbEntity
  8
002
 62
     3
370
    30
100
AcDbLine
 10
443.760507
 20
135.57471
 30
0.0
 11
443.760507
 21
140.57471
 31
0.0
  0
LINE
  5
486
330
1F
100
AcDbEntity
  8
002
 62
     3
370
    30
100
AcDbLine
 10
485.510507
 20
256.57471
 30
0.0
 11
410.510507
 21
256.57471
 31
0.0
  0
LINE
  5
487
330
1F
100
AcDbEntity
  8
002
 62
     3
370
    30
100
AcDbLine
 10
410.510507
 20
256.57471
 30
0.0
 11
410.510507
 21
261.57471
 31
0.0
  0
LINE
  5
488
330
1F
100
AcDbEntity
  8
002
 62
     3
370
    30
100
AcDbLine
 10
410.510507
 20
261.57471
 30
0.0
 11
485.510507
 21
261.57471
 31
0.0
  0
LINE
  5
489
330
1F
100
AcDbEntity
  8
002
 62
     3
370
    30
100
AcDbLine
 10
485.510507
 20
261.57471
 30
0.0
 11
485.510507
 21
256.57471
 31
0.0
  0
LINE
  5
48A
330
1F
100
AcDbEntity
  8
002
  6
CENTER
 62
    40
370
     9
100
AcDbLine
 10
418.010507
 20
156.50981
 30
0.0
 11
418.010507
 21
136.42061
 31
0.0
  0
LINE
  5
48B
330
1F
100
AcDbEntity
  8
002
  6
CENTER
 62
    40
370
     9
100
AcDbLine
 10
478.010507
 20
156.50981
 30
0.0
 11
478.010507
 21
136.42061
 31
0.0
  0
LINE
  5
48C
330
1F
100
AcDbEntity
  8
002
 62
    40
370
     9
100
AcDbLine
 10
458.960907
 20
412.608662
 30
0.0
 11
458.960907
 21
468.57441
 31
0.0
  0
LINE
  5
48D
330
1F
100
AcDbEntity
  8
002
 62
    40
370
     9
100
AcDbLine
 10
437.060907
 20
468.37041
 30
0.0
 11
437.060907
 21
412.608662
 31
0.0
  0
LINE
  5
48E
330
1F
100
AcDbEntity
  8
001
 62
     3
370
    30
100
AcDbLine
 10
443.010607
 20
402.609394
 30
0.0
 11
443.010607
 21
352.609394
 31
0.0
  0
LINE
  5
48F
330
1F
100
AcDbEntity
  8
002
 62
     3
370
    30
100
AcDbLine
 10
409.011095
 20
343.608906
 30
0.0
 11
409.011095
 21
331.608906
 31
0.0
  0
LINE
  5
490
330
1F
100
AcDbEntity
  8
002
  6
CENTER
 62
    40
370
     9
100
AcDbLine
 10
418.011095
 20
347.358906
 30
0.0
 11
418.011095
 21
327.858906
 31
0.0
  0
LINE
  5
491
330
1F
100
AcDbEntity
  8
002
  6
CENTER
 62
    40
370
     9
100
AcDbLine
 10
478.011095
 20
347.358906
 30
0.0
 11
478.011095
 21
327.858906
 31
0.0
  0
CIRCLE
  5
492
330
1F
100
AcDbEntity
  8
002
 62
    40
370
     9
100
AcDbCircle
 10
448.010607
 20
402.609394
 30
0.0
 40
2.0
  0
CIRCLE
  5
493
330
1F
100
AcDbEntity
  8
002
 62
    40
370
     9
100
AcDbCircle
 10
448.010607
 20
352.608906
 30
0.0
 40
2.0
  0
LINE
  5
494
330
1F
100
AcDbEntity
  8
002
 62
     3
370
    30
100
AcDbLine
 10
426.010637
 20
412.608662
 30
0.0
 11
470.010378
 21
412.608662
 31
0.0
  0
LINE
  5
495
330
1F
100
AcDbEntity
  8
002
 62
     3
370
    30
100
AcDbLine
 10
470.010378
 20
412.608662
 30
0.0
 11
470.010378
 21
343.608906
 31
0.0
  0
ARC
  5
496
330
1F
100
AcDbEntity
  8
002
 62
     3
370
    30
100
AcDbCircle
 10
448.010607
 20
390.108418
 30
0.0
 40
22.000259
100
AcDbArc
 50
77.761444
 51
102.238609
  0
CIRCLE
  5
497
330
1F
100
AcDbEntity
  8
002
 62
     3
370
    30
100
AcDbCircle
 10
448.010607
 20
402.609394
 30
0.0
 40
1.474999
  0
LINE
  5
498
330
1F
100
AcDbEntity
  8
002
 62
     3
370
    30
100
AcDbLine
 10
452.052011
 20
402.609352
 30
0.0
 11
450.031244
 21
406.109424
 31
0.0
  0
LINE
  5
499
330
1F
100
AcDbEntity
  8
002
 62
     3
370
    30
100
AcDbLine
 10
445.98987
 20
406.109394
 30
0.0
 11
450.031115
 21
406.109394
 31
0.0
  0
CIRCLE
  5
49A
330
1F
100
AcDbEntity
  8
002
 62
     3
370
    30
100
AcDbCircle
 10
448.010607
 20
402.609394
 30
0.0
 40
3.399998
  0
LINE
  5
49B
330
1F
100
AcDbEntity
  8
002
 62
     3
370
    30
100
AcDbLine
 10
450.031409
 20
399.109582
 30
0.0
 11
452.052039
 21
402.609415
 31
0.0
  0
LINE
  5
49C
330
1F
100
AcDbEntity
  8
002
 62
     3
370
    30
100
AcDbLine
 10
445.989626
 20
399.10941
 30
0.0
 11
450.031115
 21
399.10941
 31
0.0
  0
LINE
  5
49D
330
1F
100
AcDbEntity
  8
002
 62
     3
370
    30
100
AcDbLine
 10
452.674425
 20
411.60915
 30
0.0
 11
452.674425
 21
404.412129
 31
0.0
  0
ARC
  5
49E
330
1F
100
AcDbEntity
  8
002
 62
     3
370
    30
100
AcDbCircle
 10
448.010607
 20
402.609394
 30
0.0
 40
4.999998
100
AcDbArc
 50
0.0
 51
179.999893
  0
LINE
  5
49F
330
1F
100
AcDbEntity
  8
002
 62
     3
370
    30
100
AcDbLine
 10
453.010622
 20
352.60915
 30
0.0
 11
453.010622
 21
402.608906
 31
0.0
  0
LINE
  5
4A0
330
1F
100
AcDbEntity
  8
002
 62
     3
370
    30
100
AcDbLine
 10
443.010493
 20
398.77345
 30
0.0
 11
453.010489
 21
376.892624
 31
0.0
  0
LINE
  5
4A1
330
1F
100
AcDbEntity
  8
002
 62
     3
370
    30
100
AcDbLine
 10
460.826523
 20
357.385926
 30
0.0
 11
453.010301
 21
374.488472
 31
0.0
  0
LINE
  5
4A2
330
1F
100
AcDbEntity
  8
002
 62
     3
370
    30
100
AcDbLine
 10
454.915116
 20
354.684288
 30
0.0
 11
453.011032
 21
358.850582
 31
0.0
  0
LINE
  5
4A3
330
1F
100
AcDbEntity
  8
002
 62
     3
370
    30
100
AcDbLine
 10
459.221742
 20
353.079178
 30
0.0
 11
453.010296
 21
366.670342
 31
0.0
  0
ARC
  5
4A4
330
1F
100
AcDbEntity
  8
002
 62
     3
370
    30
100
AcDbCircle
 10
457.87047
 20
356.034932
 30
0.0
 40
3.249996999999999
100
AcDbArc
 50
204.561279
 51
24.56134
  0
LINE
  5
4A5
330
1F
100
AcDbEntity
  8
002
 62
     3
370
    30
100
AcDbLine
 10
453.010594
 20
356.444603
 30
0.0
 11
443.010611
 21
378.325402
 31
0.0
  0
LINE
  5
4A6
330
1F
100
AcDbEntity
  8
002
 62
     3
370
    30
100
AcDbLine
 10
443.347033
 20
411.609394
 30
0.0
 11
443.347033
 21
404.412129
 31
0.0
  0
ARC
  5
4A7
330
1F
100
AcDbEntity
  8
002
 62
     3
370
    30
100
AcDbCircle
 10
438.150743
 20
399.183369
 30
0.0
 40
3.249997000000001
100
AcDbArc
 50
24.561371
 51
204.561386
  0
LINE
  5
4A8
330
1F
100
AcDbEntity
  8
002
 62
     3
370
    30
100
AcDbLine
 10
441.106198
 20
400.53387
 30
0.0
 11
443.01027
 21
396.367604
 31
0.0
  0
LINE
  5
4A9
330
1F
100
AcDbEntity
  8
002
 62
     3
370
    30
100
AcDbLine
 10
436.799333
 20
402.138903
 30
0.0
 11
443.010792
 21
388.547715
 31
0.0
  0
LINE
  5
4AA
330
1F
100
AcDbEntity
  8
002
 62
     3
370
    30
100
AcDbLine
 10
435.194568
 20
397.832114
 30
0.0
 11
443.010804
 21
380.729538
 31
0.0
  0
LINE
  5
4AB
330
1F
100
AcDbEntity
  8
002
 62
     3
370
    30
100
AcDbLine
 10
443.969091
 20
352.608818
 30
0.0
 11
445.989843
 21
356.108864
 31
0.0
  0
LINE
  5
4AC
330
1F
100
AcDbEntity
  8
002
 62
     3
370
    30
100
AcDbLine
 10
445.98987
 20
356.108906
 30
0.0
 11
450.031115
 21
356.108906
 31
0.0
  0
CIRCLE
  5
4AD
330
1F
100
AcDbEntity
  8
002
 62
     3
370
    30
100
AcDbCircle
 10
448.010607
 20
352.608906
 30
0.0
 40
3.399998000000004
  0
LINE
  5
4AE
330
1F
100
AcDbEntity
  8
002
 62
     3
370
    30
100
AcDbLine
 10
452.052134
 20
352.608921
 30
0.0
 11
450.031367
 21
356.108994
 31
0.0
  0
LINE
  5
4AF
330
1F
100
AcDbEntity
  8
002
 62
     3
370
    30
100
AcDbLine
 10
450.03138
 20
349.109036
 30
0.0
 11
452.05201
 21
352.608868
 31
0.0
  0
LINE
  5
4B0
330
1F
100
AcDbEntity
  8
002
 62
     3
370
    30
100
AcDbLine
 10
445.989626
 20
349.10915
 30
0.0
 11
450.031115
 21
349.10915
 31
0.0
  0
LINE
  5
4B1
330
1F
100
AcDbEntity
  8
002
 62
     3
370
    30
100
AcDbLine
 10
445.989927
 20
349.108994
 30
0.0
 11
443.969236
 21
352.608933
 31
0.0
  0
CIRCLE
  5
4B2
330
1F
100
AcDbEntity
  8
002
 62
     3
370
    30
100
AcDbCircle
 10
448.010607
 20
352.608906
 30
0.0
 40
1.474998999999997
  0
LINE
  5
4B3
330
1F
100
AcDbEntity
  8
002
 62
     3
370
    30
100
AcDbLine
 10
443.346788
 20
343.608906
 30
0.0
 11
443.346788
 21
350.806172
 31
0.0
  0
ARC
  5
4B4
330
1F
100
AcDbEntity
  8
002
 62
     3
370
    30
100
AcDbCircle
 10
448.010607
 20
352.608906
 30
0.0
 40
4.999998
100
AcDbArc
 50
179.999916
 51
359.999908
  0
LINE
  5
4B5
330
1F
100
AcDbEntity
  8
002
 62
     3
370
    30
100
AcDbLine
 10
452.674181
 20
343.608906
 30
0.0
 11
452.674181
 21
350.806172
 31
0.0
  0
LINE
  5
4B6
330
1F
100
AcDbEntity
  8
002
 62
     3
370
    30
100
AcDbLine
 10
409.011095
 20
343.608906
 30
0.0
 11
487.011095
 21
343.608906
 31
0.0
  0
LINE
  5
4B7
330
1F
100
AcDbEntity
  8
002
 62
     3
370
    30
100
AcDbLine
 10
426.010637
 20
412.608662
 30
0.0
 11
426.010637
 21
343.608906
 31
0.0
  0
LINE
  5
4B8
330
1F
100
AcDbEntity
  8
002
 62
     3
370
    30
100
AcDbLine
 10
487.011095
 20
343.608906
 30
0.0
 11
487.011095
 21
331.608906
 31
0.0
  0
LINE
  5
4B9
330
1F
100
AcDbEntity
  8
002
 62
     3
370
    30
100
AcDbLine
 10
409.011095
 20
331.608906
 30
0.0
 11
487.011095
 21
331.608906
 31
0.0
  0
LINE
  5
4BA
330
1F
100
AcDbEntity
  8
002
 62
     3
370
    30
100
AcDbLine
 10
443.96911
 20
402.609334
 30
0.0
 11
445.989862
 21
406.109379
 31
0.0
  0
LINE
  5
4BB
330
1F
100
AcDbEntity
  8
002
 62
     3
370
    30
100
AcDbLine
 10
445.989809
 20
399.109417
 30
0.0
 11
443.969118
 21
402.609356
 31
0.0
  0
LINE
  5
4BC
330
1F
100
AcDbEntity
  8
002
 62
     3
370
    30
100
AcDbLine
 10
435.510907
 20
412.608662
 30
0.0
 11
435.510907
 21
468.57441
 31
0.0
  0
LINE
  5
4BD
330
1F
100
AcDbEntity
  8
002
 62
     3
370
    30
100
AcDbLine
 10
460.510907
 20
468.57441
 30
0.0
 11
460.510907
 21
412.608662
 31
0.0
  0
LINE
  5
4BE
330
1F
100
AcDbEntity
  8
002
 62
     3
370
    30
100
AcDbLine
 10
435.510907
 20
468.57441
 30
0.0
 11
460.510907
 21
468.57441
 31
0.0
  0
LINE
  5
4BF
330
1F
100
AcDbEntity
  8
002
 62
     3
370
    30
100
AcDbLine
 10
439.511707
 20
468.57441
 30
0.0
 11
439.511707
 21
496.57451
 31
0.0
  0
LINE
  5
4C0
330
1F
100
AcDbEntity
  8
002
 62
     3
370
    30
100
AcDbLine
 10
439.511707
 20
496.57451
 30
0.0
 11
456.511707
 21
496.57451
 31
0.0
  0
LINE
  5
4C1
330
1F
100
AcDbEntity
  8
002
 62
     3
370
    30
100
AcDbLine
 10
456.511707
 20
496.57451
 30
0.0
 11
456.511707
 21
468.57441
 31
0.0
  0
LINE
  5
4C2
330
1F
100
AcDbEntity
  8
002
 62
     3
370
    30
100
AcDbLine
 10
410.510507
 20
256.57471
 30
0.0
 11
405.632022
 21
238.36801
 31
0.0
  0
LINE
  5
4C3
330
1F
100
AcDbEntity
  8
002
 62
     3
370
    30
100
AcDbLine
 10
490.388993
 20
238.36801
 30
0.0
 11
485.510507
 21
256.57471
 31
0.0
  0
LINE
  5
4C4
330
1F
100
AcDbEntity
  8
002
 62
    40
370
     9
100
AcDbLine
 10
673.528907
 20
412.608662
 30
0.0
 11
673.528907
 21
468.57441
 31
0.0
  0
LINE
  5
4C5
330
1F
100
AcDbEntity
  8
002
 62
    40
370
     9
100
AcDbLine
 10
651.628907
 20
468.37041
 30
0.0
 11
651.628907
 21
412.608662
 31
0.0
  0
LINE
  5
4C6
330
1F
100
AcDbEntity
  8
001
 62
     3
370
    30
100
AcDbLine
 10
667.578408
 20
341.608174
 30
0.0
 11
667.578408
 21
391.608174
 31
0.0
  0
LINE
  5
4C7
330
1F
100
AcDbEntity
  8
002
 62
     3
370
    30
100
AcDbLine
 10
701.57792
 20
400.608662
 30
0.0
 11
701.57792
 21
412.608662
 31
0.0
  0
LINE
  5
4C8
330
1F
100
AcDbEntity
  8
002
  6
CENTER
 62
    40
370
     9
100
AcDbLine
 10
692.57792
 20
396.858662
 30
0.0
 11
692.57792
 21
416.358662
 31
0.0
  0
LINE
  5
4C9
330
1F
100
AcDbEntity
  8
002
  6
CENTER
 62
    40
370
     9
100
AcDbLine
 10
632.57792
 20
396.858662
 30
0.0
 11
632.57792
 21
416.358662
 31
0.0
  0
CIRCLE
  5
4CA
330
1F
100
AcDbEntity
  8
002
 62
    40
370
     9
100
AcDbCircle
 10
662.578408
 20
341.608174
 30
0.0
 40
2.0
  0
CIRCLE
  5
4CB
330
1F
100
AcDbEntity
  8
002
 62
    40
370
     9
100
AcDbCircle
 10
662.578408
 20
391.608662
 30
0.0
 40
2.0
  0
LINE
  5
4CC
330
1F
100
AcDbEntity
  8
002
 62
     3
370
    30
100
AcDbLine
 10
684.578378
 20
331.608906
 30
0.0
 11
640.578637
 21
331.608906
 31
0.0
  0
LINE
  5
4CD
330
1F
100
AcDbEntity
  8
002
 62
     3
370
    30
100
AcDbLine
 10
640.578637
 20
331.608906
 30
0.0
 11
640.578637
 21
400.608662
 31
0.0
  0
ARC
  5
4CE
330
1F
100
AcDbEntity
  8
002
 62
     3
370
    30
100
AcDbCircle
 10
662.578408
 20
354.10915
 30
0.0
 40
22.000259
100
AcDbArc
 50
257.761444
 51
282.238609
  0
CIRCLE
  5
4CF
330
1F
100
AcDbEntity
  8
002
 62
     3
370
    30
100
AcDbCircle
 10
662.578408
 20
341.608174
 30
0.0
 40
1.474999
  0
LINE
  5
4D0
330
1F
100
AcDbEntity
  8
002
 62
     3
370
    30
100
AcDbLine
 10
658.537004
 20
341.608216
 30
0.0
 11
660.557771
 21
338.108144
 31
0.0
  0
LINE
  5
4D1
330
1F
100
AcDbEntity
  8
002
 62
     3
370
    30
100
AcDbLine
 10
664.599145
 20
338.108174
 30
0.0
 11
660.5579
 21
338.108174
 31
0.0
  0
CIRCLE
  5
4D2
330
1F
100
AcDbEntity
  8
002
 62
     3
370
    30
100
AcDbCircle
 10
662.578408
 20
341.608174
 30
0.0
 40
3.399998
  0
LINE
  5
4D3
330
1F
100
AcDbEntity
  8
002
 62
     3
370
    30
100
AcDbLine
 10
660.557606
 20
345.107986
 30
0.0
 11
658.536976
 21
341.608153
 31
0.0
  0
LINE
  5
4D4
330
1F
100
AcDbEntity
  8
002
 62
     3
370
    30
100
AcDbLine
 10
664.599389
 20
345.108158
 30
0.0
 11
660.5579
 21
345.108158
 31
0.0
  0
LINE
  5
4D5
330
1F
100
AcDbEntity
  8
002
 62
     3
370
    30
100
AcDbLine
 10
657.91459
 20
332.608418
 30
0.0
 11
657.91459
 21
339.805439
 31
0.0
  0
ARC
  5
4D6
330
1F
100
AcDbEntity
  8
002
 62
     3
370
    30
100
AcDbCircle
 10
662.578408
 20
341.608174
 30
0.0
 40
4.999998
100
AcDbArc
 50
180.0
 51
359.999893
  0
LINE
  5
4D7
330
1F
100
AcDbEntity
  8
002
 62
     3
370
    30
100
AcDbLine
 10
657.578393
 20
391.608418
 30
0.0
 11
657.578393
 21
341.608662
 31
0.0
  0
LINE
  5
4D8
330
1F
100
AcDbEntity
  8
002
 62
     3
370
    30
100
AcDbLine
 10
667.578522
 20
345.444118
 30
0.0
 11
657.578526
 21
367.324944
 31
0.0
  0
LINE
  5
4D9
330
1F
100
AcDbEntity
  8
002
 62
     3
370
    30
100
AcDbLine
 10
649.762492
 20
386.831642
 30
0.0
 11
657.578714
 21
369.729096
 31
0.0
  0
LINE
  5
4DA
330
1F
100
AcDbEntity
  8
002
 62
     3
370
    30
100
AcDbLine
 10
655.673899
 20
389.53328
 30
0.0
 11
657.577983
 21
385.366986
 31
0.0
  0
LINE
  5
4DB
330
1F
100
AcDbEntity
  8
002
 62
     3
370
    30
100
AcDbLine
 10
651.367273
 20
391.13839
 30
0.0
 11
657.578719
 21
377.547226
 31
0.0
  0
ARC
  5
4DC
330
1F
100
AcDbEntity
  8
002
 62
     3
370
    30
100
AcDbCircle
 10
652.718545
 20
388.182636
 30
0.0
 40
3.249996999999999
100
AcDbArc
 50
24.561279
 51
204.56134
  0
LINE
  5
4DD
330
1F
100
AcDbEntity
  8
002
 62
     3
370
    30
100
AcDbLine
 10
657.578421
 20
387.772965
 30
0.0
 11
667.578404
 21
365.892166
 31
0.0
  0
LINE
  5
4DE
330
1F
100
AcDbEntity
  8
002
 62
     3
370
    30
100
AcDbLine
 10
667.241982
 20
332.608174
 30
0.0
 11
667.241982
 21
339.805439
 31
0.0
  0
ARC
  5
4DF
330
1F
100
AcDbEntity
  8
002
 62
     3
370
    30
100
AcDbCircle
 10
672.438272
 20
345.034199
 30
0.0
 40
3.249997000000001
100
AcDbArc
 50
204.561371
 51
24.561386
  0
LINE
  5
4E0
330
1F
100
AcDbEntity
  8
002
 62
     3
370
    30
100
AcDbLine
 10
669.482817
 20
343.683698
 30
0.0
 11
667.578745
 21
347.849964
 31
0.0
  0
LINE
  5
4E1
330
1F
100
AcDbEntity
  8
002
 62
     3
370
    30
100
AcDbLine
 10
673.789682
 20
342.078665
 30
0.0
 11
667.578223
 21
355.669853
 31
0.0
  0
LINE
  5
4E2
330
1F
100
AcDbEntity
  8
002
 62
     3
370
    30
100
AcDbLine
 10
675.394447
 20
346.385454
 30
0.0
 11
667.578211
 21
363.48803
 31
0.0
  0
LINE
  5
4E3
330
1F
100
AcDbEntity
  8
002
 62
     3
370
    30
100
AcDbLine
 10
666.619924
 20
391.60875
 30
0.0
 11
664.599172
 21
388.108704
 31
0.0
  0
LINE
  5
4E4
330
1F
100
AcDbEntity
  8
002
 62
     3
370
    30
100
AcDbLine
 10
664.599145
 20
388.108662
 30
0.0
 11
660.5579
 21
388.108662
 31
0.0
  0
CIRCLE
  5
4E5
330
1F
100
AcDbEntity
  8
002
 62
     3
370
    30
100
AcDbCircle
 10
662.578408
 20
391.608662
 30
0.0
 40
3.399998000000004
  0
LINE
  5
4E6
330
1F
100
AcDbEntity
  8
002
 62
     3
370
    30
100
AcDbLine
 10
658.536881
 20
391.608647
 30
0.0
 11
660.557648
 21
388.108574
 31
0.0
  0
LINE
  5
4E7
330
1F
100
AcDbEntity
  8
002
 62
     3
370
    30
100
AcDbLine
 10
660.557635
 20
395.108532
 30
0.0
 11
658.537005
 21
391.6087
 31
0.0
  0
LINE
  5
4E8
330
1F
100
AcDbEntity
  8
002
 62
     3
370
    30
100
AcDbLine
 10
664.599389
 20
395.108418
 30
0.0
 11
660.5579
 21
395.108418
 31
0.0
  0
LINE
  5
4E9
330
1F
100
AcDbEntity
  8
002
 62
     3
370
    30
100
AcDbLine
 10
664.599088
 20
395.108574
 30
0.0
 11
666.619779
 21
391.608635
 31
0.0
  0
CIRCLE
  5
4EA
330
1F
100
AcDbEntity
  8
002
 62
     3
370
    30
100
AcDbCircle
 10
662.578408
 20
391.608662
 30
0.0
 40
1.474998999999997
  0
LINE
  5
4EB
330
1F
100
AcDbEntity
  8
002
 62
     3
370
    30
100
AcDbLine
 10
667.242227
 20
400.608662
 30
0.0
 11
667.242227
 21
393.411396
 31
0.0
  0
ARC
  5
4EC
330
1F
100
AcDbEntity
  8
002
 62
     3
370
    30
100
AcDbCircle
 10
662.578408
 20
391.608662
 30
0.0
 40
4.999998
100
AcDbArc
 50
359.999916
 51
179.999908
  0
LINE
  5
4ED
330
1F
100
AcDbEntity
  8
002
 62
     3
370
    30
100
AcDbLine
 10
657.914834
 20
400.608662
 30
0.0
 11
657.914834
 21
393.411396
 31
0.0
  0
LINE
  5
4EE
330
1F
100
AcDbEntity
  8
002
 62
     3
370
    30
100
AcDbLine
 10
701.57792
 20
400.608662
 30
0.0
 11
623.57792
 21
400.608662
 31
0.0
  0
LINE
  5
4EF
330
1F
100
AcDbEntity
  8
002
 62
     3
370
    30
100
AcDbLine
 10
684.578378
 20
331.608906
 30
0.0
 11
684.578378
 21
400.608662
 31
0.0
  0
LINE
  5
4F0
330
1F
100
AcDbEntity
  8
002
 62
     3
370
    30
100
AcDbLine
 10
623.57792
 20
400.608662
 30
0.0
 11
623.57792
 21
412.608662
 31
0.0
  0
LINE
  5
4F1
330
1F
100
AcDbEntity
  8
002
 62
     3
370
    30
100
AcDbLine
 10
701.57792
 20
412.608662
 30
0.0
 11
623.57792
 21
412.608662
 31
0.0
  0
LINE
  5
4F2
330
1F
100
AcDbEntity
  8
002
 62
     3
370
    30
100
AcDbLine
 10
666.619905
 20
341.608234
 30
0.0
 11
664.599153
 21
338.108189
 31
0.0
  0
LINE
  5
4F3
330
1F
100
AcDbEntity
  8
002
 62
     3
370
    30
100
AcDbLine
 10
664.599206
 20
345.108151
 30
0.0
 11
666.619897
 21
341.608212
 31
0.0
  0
LINE
  5
4F4
330
1F
100
AcDbEntity
  8
002
 62
     3
370
    30
100
AcDbLine
 10
650.078907
 20
412.608662
 30
0.0
 11
650.078907
 21
468.57441
 31
0.0
  0
LINE
  5
4F5
330
1F
100
AcDbEntity
  8
002
 62
     3
370
    30
100
AcDbLine
 10
675.078907
 20
468.57441
 30
0.0
 11
675.078907
 21
412.608662
 31
0.0
  0
LINE
  5
4F6
330
1F
100
AcDbEntity
  8
002
 62
     3
370
    30
100
AcDbLine
 10
761.030507
 20
146.57471
 30
0.0
 11
601.030507
 21
146.57471
 31
0.0
  0
LINE
  5
4F7
330
1F
100
AcDbEntity
  8
002
 62
     3
370
    30
100
AcDbLine
 10
601.030507
 20
146.57471
 30
0.0
 11
601.030507
 21
156.57471
 31
0.0
  0
LINE
  5
4F8
330
1F
100
AcDbEntity
  8
002
 62
     3
370
    30
100
AcDbLine
 10
604.030507
 20
159.57471
 30
0.0
 11
758.030507
 21
159.57471
 31
0.0
  0
LINE
  5
4F9
330
1F
100
AcDbEntity
  8
002
 62
     3
370
    30
100
AcDbLine
 10
758.547107
 20
159.52981
 30
0.0
 11
736.717807
 21
218.31521
 31
0.0
  0
LINE
  5
4FA
330
1F
100
AcDbEntity
  8
002
 62
     3
370
    30
100
AcDbLine
 10
737.030507
 20
216.57471
 30
0.0
 11
737.030507
 21
166.57471
 31
0.0
  0
LINE
  5
4FB
330
1F
100
AcDbEntity
  8
002
 62
     3
370
    30
100
AcDbLine
 10
734.030507
 20
166.57471
 30
0.0
 11
734.030507
 21
216.57471
 31
0.0
  0
ARC
  5
4FC
330
1F
100
AcDbEntity
  8
002
 62
     3
370
    30
100
AcDbCircle
 10
729.030507
 20
216.57471
 30
0.0
 40
5.0
100
AcDbArc
 50
0.0
 51
90.0
  0
LINE
  5
4FD
330
1F
100
AcDbEntity
  8
002
 62
     3
370
    30
100
AcDbLine
 10
732.030507
 20
221.57471
 30
0.0
 11
682.030507
 21
221.57471
 31
0.0
  0
ARC
  5
4FE
330
1F
100
AcDbEntity
  8
002
 62
     3
370
    30
100
AcDbCircle
 10
682.030507
 20
216.57471
 30
0.0
 40
5.0
100
AcDbArc
 50
90.0
 51
180.0
  0
LINE
  5
4FF
330
1F
100
AcDbEntity
  8
002
 62
     3
370
    30
100
AcDbLine
 10
677.030507
 20
216.57471
 30
0.0
 11
677.030507
 21
166.57471
 31
0.0
  0
ARC
  5
500
330
1F
100
AcDbEntity
  8
002
 62
     3
370
    30
100
AcDbCircle
 10
682.030507
 20
166.57471
 30
0.0
 40
5.0
100
AcDbArc
 50
180.0
 51
270.0
  0
LINE
  5
501
330
1F
100
AcDbEntity
  8
002
 62
     3
370
    30
100
AcDbLine
 10
682.030507
 20
161.57471
 30
0.0
 11
732.030507
 21
161.57471
 31
0.0
  0
ARC
  5
502
330
1F
100
AcDbEntity
  8
002
 62
     3
370
    30
100
AcDbCircle
 10
732.030507
 20
166.57471
 30
0.0
 40
5.0
100
AcDbArc
 50
270.0
 51
0.0
  0
LINE
  5
503
330
1F
100
AcDbEntity
  8
002
 62
     3
370
    30
100
AcDbLine
 10
729.030507
 20
164.57471
 30
0.0
 11
685.030507
 21
164.57471
 31
0.0
  0
LINE
  5
504
330
1F
100
AcDbEntity
  8
002
 62
     3
370
    30
100
AcDbLine
 10
680.030507
 20
169.57471
 30
0.0
 11
680.030507
 21
213.57471
 31
0.0
  0
LINE
  5
505
330
1F
100
AcDbEntity
  8
002
 62
     3
370
    30
100
AcDbLine
 10
685.030507
 20
218.57471
 30
0.0
 11
729.030507
 21
218.57471
 31
0.0
  0
ARC
  5
506
330
1F
100
AcDbEntity
  8
002
 62
     3
370
    30
100
AcDbCircle
 10
729.030507
 20
213.57471
 30
0.0
 40
5.0
100
AcDbArc
 50
0.0
 51
90.0
  0
LINE
  5
507
330
1F
100
AcDbEntity
  8
002
 62
     3
370
    30
100
AcDbLine
 10
722.578507
 20
221.57471
 30
0.0
 11
722.578507
 21
236.57471
 31
0.0
  0
LINE
  5
508
330
1F
100
AcDbEntity
  8
002
 62
     3
370
    30
100
AcDbLine
 10
722.578507
 20
236.57471
 30
0.0
 11
602.578507
 21
236.57471
 31
0.0
  0
LINE
  5
509
330
1F
100
AcDbEntity
  8
002
 62
     3
370
    30
100
AcDbLine
 10
602.578507
 20
236.57471
 30
0.0
 11
602.578507
 21
212.26751
 31
0.0
  0
ARC
  5
50A
330
1F
100
AcDbEntity
  8
002
 62
     3
370
    30
100
AcDbCircle
 10
607.578507
 20
212.26751
 30
0.0
 40
4.999996136998452
100
AcDbArc
 50
180.0
 51
252.897608
  0
LINE
  5
50B
330
1F
100
AcDbEntity
  8
002
 62
     3
370
    30
100
AcDbLine
 10
606.108107
 20
207.48861
 30
0.0
 11
613.460707
 21
205.22631
 31
0.0
  0
LINE
  5
50C
330
1F
100
AcDbEntity
  8
002
 62
     3
370
    30
100
AcDbLine
 10
615.578507
 20
204.57471
 30
0.0
 11
651.578507
 21
204.57471
 31
0.0
  0
LINE
  5
50D
330
1F
100
AcDbEntity
  8
002
 62
     3
370
    30
100
AcDbLine
 10
651.578507
 20
205.49771
 30
0.0
 11
651.465107
 21
205.49771
 31
0.0
  0
ARC
  5
50E
330
1F
100
AcDbEntity
  8
002
 62
     3
370
    30
100
AcDbCircle
 10
651.578507
 20
202.49771
 30
0.0
 40
3.0
100
AcDbArc
 50
0.0
 51
90.0
  0
LINE
  5
50F
330
1F
100
AcDbEntity
  8
002
 62
     3
370
    30
100
AcDbLine
 10
654.578507
 20
202.49771
 30
0.0
 11
654.578507
 21
191.57471
 31
0.0
  0
ARC
  5
510
330
1F
100
AcDbEntity
  8
002
 62
     3
370
    30
100
AcDbCircle
 10
662.578507
 20
191.57471
 30
0.0
 40
8.0
100
AcDbArc
 50
180.0
 51
0.0
  0
LINE
  5
511
330
1F
100
AcDbEntity
  8
002
 62
     3
370
    30
100
AcDbLine
 10
670.578507
 20
191.57471
 30
0.0
 11
670.578507
 21
202.49771
 31
0.0
  0
LINE
  5
512
330
1F
100
AcDbEntity
  8
002
 62
     3
370
    30
100
AcDbLine
 10
673.578507
 20
204.57471
 30
0.0
 11
677.030507
 21
204.57471
 31
0.0
  0
ARC
  5
513
330
1F
100
AcDbEntity
  8
002
 62
     3
370
    30
100
AcDbCircle
 10
673.578507
 20
201.57471
 30
0.0
 40
3.0
100
AcDbArc
 50
90.0
 51
180.0
  0
LINE
  5
514
330
1F
100
AcDbEntity
  8
002
 62
     3
370
    30
100
AcDbLine
 10
673.578507
 20
205.49771
 30
0.0
 11
673.691907
 21
205.49771
 31
0.0
  0
ARC
  5
515
330
1F
100
AcDbEntity
  8
002
 62
     3
370
    30
100
AcDbCircle
 10
673.578507
 20
202.49771
 30
0.0
 40
3.0
100
AcDbArc
 50
90.0
 51
180.0
  0
LINE
  5
516
330
1F
100
AcDbEntity
  8
002
 62
     3
370
    30
100
AcDbLine
 10
667.578507
 20
194.46141
 30
0.0
 11
667.578507
 21
188.68791
 31
0.0
  0
LINE
  5
517
330
1F
100
AcDbEntity
  8
002
 62
     3
370
    30
100
AcDbLine
 10
667.578507
 20
188.68791
 30
0.0
 11
662.578507
 21
185.80111
 31
0.0
  0
LINE
  5
518
330
1F
100
AcDbEntity
  8
002
 62
     3
370
    30
100
AcDbLine
 10
662.578507
 20
185.80111
 30
0.0
 11
657.578507
 21
188.68791
 31
0.0
  0
LINE
  5
519
330
1F
100
AcDbEntity
  8
002
 62
     3
370
    30
100
AcDbLine
 10
657.578507
 20
188.68791
 30
0.0
 11
657.578507
 21
194.46141
 31
0.0
  0
LINE
  5
51A
330
1F
100
AcDbEntity
  8
002
 62
     3
370
    30
100
AcDbLine
 10
657.578507
 20
194.46141
 30
0.0
 11
662.578507
 21
197.34821
 31
0.0
  0
LINE
  5
51B
330
1F
100
AcDbEntity
  8
002
 62
     3
370
    30
100
AcDbLine
 10
662.578507
 20
197.34821
 30
0.0
 11
667.578507
 21
194.46141
 31
0.0
  0
CIRCLE
  5
51C
330
1F
100
AcDbEntity
  8
002
 62
     3
370
    30
100
AcDbCircle
 10
662.578507
 20
191.57471
 30
0.0
 40
5.0
  0
CIRCLE
  5
51D
330
1F
100
AcDbEntity
  8
002
 62
     3
370
    30
100
AcDbCircle
 10
662.578507
 20
191.57471
 30
0.0
 40
3.25
  0
CIRCLE
  5
51E
330
1F
100
AcDbEntity
  8
002
 62
     3
370
    30
100
AcDbCircle
 10
662.578507
 20
191.57471
 30
0.0
 40
2.5
  0
CIRCLE
  5
51F
330
1F
100
AcDbEntity
  8
002
 62
     3
370
    30
100
AcDbCircle
 10
662.578507
 20
191.57471
 30
0.0
 40
0.75
  0
ARC
  5
520
330
1F
100
AcDbEntity
  8
002
 62
     3
370
    30
100
AcDbCircle
 10
651.578507
 20
201.57471
 30
0.0
 40
3.0
100
AcDbArc
 50
0.0
 51
90.0
  0
LINE
  5
521
330
1F
100
AcDbEntity
  8
002
 62
     3
370
    30
100
AcDbLine
 10
677.030507
 20
208.57471
 30
0.0
 11
606.030507
 21
208.57471
 31
0.0
  0
LINE
  5
522
330
1F
100
AcDbEntity
  8
002
 62
     3
370
    30
100
AcDbLine
 10
607.578507
 20
204.85131
 30
0.0
 11
607.578507
 21
176.57471
 31
0.0
  0
LINE
  5
523
330
1F
100
AcDbEntity
  8
002
 62
     3
370
    30
100
AcDbLine
 10
607.578507
 20
176.57471
 30
0.0
 11
611.872607
 21
175.42411
 31
0.0
  0
ARC
  5
524
330
1F
100
AcDbEntity
  8
002
 62
     3
370
    30
100
AcDbCircle
 10
610.578507
 20
170.59441
 30
0.0
 40
5.000069689514357
100
AcDbArc
 50
0.0
 51
75.000157
  0
LINE
  5
525
330
1F
100
AcDbEntity
  8
002
 62
     3
370
    30
100
AcDbLine
 10
607.578507
 20
181.34721
 30
0.0
 11
599.578507
 21
181.09721
 31
0.0
  0
LINE
  5
526
330
1F
100
AcDbEntity
  8
002
 62
     3
370
    30
100
AcDbLine
 10
599.578507
 20
181.09721
 30
0.0
 11
599.578507
 21
202.05221
 31
0.0
  0
LINE
  5
527
330
1F
100
AcDbEntity
  8
002
 62
     3
370
    30
100
AcDbLine
 10
599.578507
 20
202.05221
 30
0.0
 11
607.578507
 21
201.80221
 31
0.0
  0
ARC
  5
528
330
1F
100
AcDbEntity
  8
002
 62
     3
370
    30
100
AcDbCircle
 10
604.578507
 20
204.85131
 30
0.0
 40
3.000023701573074
100
AcDbArc
 50
0.0
 51
67.97587
  0
LINE
  5
529
330
1F
100
AcDbEntity
  8
002
 62
     3
370
    30
100
AcDbLine
 10
599.578507
 20
198.57471
 30
0.0
 11
589.578507
 21
198.07471
 31
0.0
  0
LINE
  5
52A
330
1F
100
AcDbEntity
  8
002
 62
     3
370
    30
100
AcDbLine
 10
589.578507
 20
198.07471
 30
0.0
 11
589.578507
 21
185.07471
 31
0.0
  0
LINE
  5
52B
330
1F
100
AcDbEntity
  8
002
 62
     3
370
    30
100
AcDbLine
 10
589.578507
 20
185.07471
 30
0.0
 11
599.578507
 21
184.57471
 31
0.0
  0
LINE
  5
52C
330
1F
100
AcDbEntity
  8
002
 62
     3
370
    30
100
AcDbLine
 10
615.578507
 20
202.35891
 30
0.0
 11
615.578507
 21
159.57471
 31
0.0
  0
ARC
  5
52D
330
1F
100
AcDbEntity
  8
002
 62
     3
370
    30
100
AcDbCircle
 10
604.030507
 20
156.57471
 30
0.0
 40
3.0
100
AcDbArc
 50
90.0
 51
180.0
  0
LINE
  5
52E
330
1F
100
AcDbEntity
  8
002
 62
     3
370
    30
100
AcDbLine
 10
625.078507
 20
146.57471
 30
0.0
 11
625.078507
 21
140.57471
 31
0.0
  0
LINE
  5
52F
330
1F
100
AcDbEntity
  8
002
 62
     3
370
    30
100
AcDbLine
 10
625.078507
 20
140.57471
 30
0.0
 11
700.078507
 21
140.57471
 31
0.0
  0
LINE
  5
530
330
1F
100
AcDbEntity
  8
002
 62
     3
370
    30
100
AcDbLine
 10
700.078507
 20
140.57471
 30
0.0
 11
700.078507
 21
146.57471
 31
0.0
  0
LINE
  5
531
330
1F
100
AcDbEntity
  8
002
 62
     3
370
    30
100
AcDbLine
 10
696.828507
 20
140.57471
 30
0.0
 11
696.828507
 21
135.57471
 31
0.0
  0
LINE
  5
532
330
1F
100
AcDbEntity
  8
002
 62
     3
370
    30
100
AcDbLine
 10
696.828507
 20
135.57471
 30
0.0
 11
688.328507
 21
135.57471
 31
0.0
  0
LINE
  5
533
330
1F
100
AcDbEntity
  8
002
 62
     3
370
    30
100
AcDbLine
 10
688.328507
 20
135.57471
 30
0.0
 11
688.328507
 21
140.57471
 31
0.0
  0
LINE
  5
534
330
1F
100
AcDbEntity
  8
002
 62
     3
370
    30
100
AcDbLine
 10
686.878507
 20
140.57471
 30
0.0
 11
686.878507
 21
91.57471
 31
0.0
  0
LINE
  5
535
330
1F
100
AcDbEntity
  8
002
 62
     3
370
    30
100
AcDbLine
 10
686.878507
 20
91.57471
 30
0.0
 11
638.278507
 21
91.57471
 31
0.0
  0
LINE
  5
536
330
1F
100
AcDbEntity
  8
002
 62
     3
370
    30
100
AcDbLine
 10
638.278507
 20
91.57471
 30
0.0
 11
638.278507
 21
140.57471
 31
0.0
  0
LINE
  5
537
330
1F
100
AcDbEntity
  8
002
 62
     3
370
    30
100
AcDbLine
 10
636.828507
 20
140.57471
 30
0.0
 11
636.828507
 21
135.57471
 31
0.0
  0
LINE
  5
538
330
1F
100
AcDbEntity
  8
002
 62
     3
370
    30
100
AcDbLine
 10
636.828507
 20
135.57471
 30
0.0
 11
628.328507
 21
135.57471
 31
0.0
  0
LINE
  5
539
330
1F
100
AcDbEntity
  8
002
 62
     3
370
    30
100
AcDbLine
 10
628.328507
 20
135.57471
 30
0.0
 11
628.328507
 21
140.57471
 31
0.0
  0
LINE
  5
53A
330
1F
100
AcDbEntity
  8
002
 62
     3
370
    30
100
AcDbLine
 10
658.328507
 20
135.57471
 30
0.0
 11
666.828507
 21
135.57471
 31
0.0
  0
LINE
  5
53B
330
1F
100
AcDbEntity
  8
002
 62
     3
370
    30
100
AcDbLine
 10
666.828507
 20
135.57471
 30
0.0
 11
666.828507
 21
140.57471
 31
0.0
  0
LINE
  5
53C
330
1F
100
AcDbEntity
  8
002
 62
     3
370
    30
100
AcDbLine
 10
658.328507
 20
135.57471
 30
0.0
 11
658.328507
 21
140.57471
 31
0.0
  0
ARC
  5
53D
330
1F
100
AcDbEntity
  8
002
 62
     3
370
    30
100
AcDbCircle
 10
685.030507
 20
169.57471
 30
0.0
 40
5.0
100
AcDbArc
 50
180.0
 51
270.0
  0
LINE
  5
53E
330
1F
100
AcDbEntity
  8
002
 62
     3
370
    30
100
AcDbLine
 10
704.930507
 20
196.07471
 30
0.0
 11
709.130507
 21
196.07471
 31
0.0
  0
LINE
  5
53F
330
1F
100
AcDbEntity
  8
002
 62
     3
370
    30
100
AcDbLine
 10
709.130507
 20
196.07471
 30
0.0
 11
709.530507
 21
196.47471
 31
0.0
  0
LINE
  5
540
330
1F
100
AcDbEntity
  8
002
 62
     3
370
    30
100
AcDbLine
 10
709.530507
 20
196.47471
 30
0.0
 11
709.530507
 21
200.67471
 31
0.0
  0
LINE
  5
541
330
1F
100
AcDbEntity
  8
002
 62
     3
370
    30
100
AcDbLine
 10
709.530507
 20
200.67471
 30
0.0
 11
709.130507
 21
201.07471
 31
0.0
  0
LINE
  5
542
330
1F
100
AcDbEntity
  8
002
 62
     3
370
    30
100
AcDbLine
 10
709.130507
 20
201.07471
 30
0.0
 11
704.930507
 21
201.07471
 31
0.0
  0
LINE
  5
543
330
1F
100
AcDbEntity
  8
002
 62
     3
370
    30
100
AcDbLine
 10
704.930507
 20
201.07471
 30
0.0
 11
704.530507
 21
200.67471
 31
0.0
  0
LINE
  5
544
330
1F
100
AcDbEntity
  8
002
 62
     3
370
    30
100
AcDbLine
 10
704.530507
 20
200.67471
 30
0.0
 11
704.530507
 21
196.47471
 31
0.0
  0
LINE
  5
545
330
1F
100
AcDbEntity
  8
002
 62
     3
370
    30
100
AcDbLine
 10
704.530507
 20
196.47471
 30
0.0
 11
704.930507
 21
196.07471
 31
0.0
  0
ARC
  5
546
330
1F
100
AcDbEntity
  8
002
 62
     3
370
    30
100
AcDbCircle
 10
704.930507
 20
196.47471
 30
0.0
 40
0.3999999999999773
100
AcDbArc
 50
180.0
 51
270.0
  0
ARC
  5
547
330
1F
100
AcDbEntity
  8
002
 62
     3
370
    30
100
AcDbCircle
 10
707.030507
 20
191.57471
 30
0.0
 40
7.499936066394138
100
AcDbArc
 50
109.471393
 51
70.528607
  0
ARC
  5
548
330
1F
100
AcDbEntity
  8
002
 62
     3
370
    30
100
AcDbCircle
 10
709.130507
 20
196.47471
 30
0.0
 40
0.3999999999999773
100
AcDbArc
 50
270.0
 51
0.0
  0
ARC
  5
549
330
1F
100
AcDbEntity
  8
002
 62
     3
370
    30
100
AcDbCircle
 10
707.030507
 20
191.57471
 30
0.0
 40
7.999960030525125
100
AcDbArc
 50
108.210051
 51
71.789949
  0
CIRCLE
  5
54A
330
1F
100
AcDbEntity
  8
002
 62
     3
370
    30
100
AcDbCircle
 10
707.030507
 20
191.57471
 30
0.0
 40
13.0
  0
LINE
  5
54B
330
1F
100
AcDbEntity
  8
002
 62
     3
370
    30
100
AcDbLine
 10
740.381607
 20
208.44881
 30
0.0
 11
741.319007
 21
208.79691
 31
0.0
  0
LINE
  5
54C
330
1F
100
AcDbEntity
  8
002
 62
     3
370
    30
100
AcDbLine
 10
741.319007
 20
208.79691
 30
0.0
 11
753.851107
 21
175.04861
 31
0.0
  0
LINE
  5
54D
330
1F
100
AcDbEntity
  8
002
 62
     3
370
    30
100
AcDbLine
 10
753.851107
 20
175.04861
 30
0.0
 11
752.913607
 21
174.70051
 31
0.0
  0
LINE
  5
54E
330
1F
100
AcDbEntity
  8
002
 62
     3
370
    30
100
AcDbLine
 10
761.030507
 20
156.57471
 30
0.0
 11
761.030507
 21
146.57471
 31
0.0
  0
ARC
  5
54F
330
1F
100
AcDbEntity
  8
002
 62
     3
370
    30
100
AcDbCircle
 10
758.030507
 20
156.57471
 30
0.0
 40
3.0
100
AcDbArc
 50
0.0
 51
90.0
  0
ARC
  5
550
330
1F
100
AcDbEntity
  8
002
 62
     3
370
    30
100
AcDbCircle
 10
729.030507
 20
166.57471
 30
0.0
 40
5.0
100
AcDbArc
 50
270.0
 51
0.0
  0
ARC
  5
551
330
1F
100
AcDbEntity
  8
002
 62
     3
370
    30
100
AcDbCircle
 10
729.030507
 20
169.57471
 30
0.0
 40
5.0
100
AcDbArc
 50
270.0
 51
0.0
  0
ARC
  5
552
330
1F
100
AcDbEntity
  8
002
 62
     3
370
    30
100
AcDbCircle
 10
732.030507
 20
216.57471
 30
0.0
 40
5.0
100
AcDbArc
 50
0.0
 51
90.0
  0
LINE
  5
553
330
1F
100
AcDbEntity
  8
002
 62
     3
370
    30
100
AcDbLine
 10
722.578507
 20
226.57471
 30
0.0
 11
602.578507
 21
226.57471
 31
0.0
  0
LINE
  5
554
330
1F
100
AcDbEntity
  8
002
 62
     3
370
    30
100
AcDbLine
 10
611.478207
 20
236.57471
 30
0.0
 11
611.478207
 21
244.57471
 31
0.0
  0
LINE
  5
555
330
1F
100
AcDbEntity
  8
002
 62
     3
370
    30
100
AcDbLine
 10
611.478207
 20
244.57471
 30
0.0
 11
624.478207
 21
244.57471
 31
0.0
  0
LINE
  5
556
330
1F
100
AcDbEntity
  8
002
 62
     3
370
    30
100
AcDbLine
 10
624.478207
 20
244.57471
 30
0.0
 11
624.478207
 21
236.57471
 31
0.0
  0
LINE
  5
557
330
1F
100
AcDbEntity
  8
002
 62
     3
370
    30
100
AcDbLine
 10
624.478207
 20
237.57471
 30
0.0
 11
656.078507
 21
237.57471
 31
0.0
  0
LINE
  5
558
330
1F
100
AcDbEntity
  8
002
 62
     3
370
    30
100
AcDbLine
 10
656.078507
 20
236.57471
 30
0.0
 11
656.078507
 21
244.57471
 31
0.0
  0
LINE
  5
559
330
1F
100
AcDbEntity
  8
002
 62
     3
370
    30
100
AcDbLine
 10
656.078507
 20
244.57471
 30
0.0
 11
669.078507
 21
244.57471
 31
0.0
  0
LINE
  5
55A
330
1F
100
AcDbEntity
  8
002
 62
     3
370
    30
100
AcDbLine
 10
669.078507
 20
244.57471
 30
0.0
 11
669.078507
 21
236.57471
 31
0.0
  0
LINE
  5
55B
330
1F
100
AcDbEntity
  8
002
 62
     3
370
    30
100
AcDbLine
 10
669.078507
 20
237.57471
 30
0.0
 11
700.678807
 21
237.57471
 31
0.0
  0
LINE
  5
55C
330
1F
100
AcDbEntity
  8
002
 62
     3
370
    30
100
AcDbLine
 10
700.678807
 20
236.57471
 30
0.0
 11
700.678807
 21
244.57471
 31
0.0
  0
LINE
  5
55D
330
1F
100
AcDbEntity
  8
002
 62
     3
370
    30
100
AcDbLine
 10
713.678807
 20
244.57471
 30
0.0
 11
713.678807
 21
236.57471
 31
0.0
  0
LINE
  5
55E
330
1F
100
AcDbEntity
  8
002
 62
     3
370
    30
100
AcDbLine
 10
713.678807
 20
244.57471
 30
0.0
 11
700.678807
 21
244.57471
 31
0.0
  0
LINE
  5
55F
330
1F
100
AcDbEntity
  8
002
 62
     3
370
    30
100
AcDbLine
 10
703.293907
 20
244.57471
 30
0.0
 11
700.078507
 21
256.57471
 31
0.0
  0
LINE
  5
560
330
1F
100
AcDbEntity
  8
002
 62
     3
370
    30
100
AcDbLine
 10
700.078507
 20
256.57471
 30
0.0
 11
625.078507
 21
256.57471
 31
0.0
  0
LINE
  5
561
330
1F
100
AcDbEntity
  8
002
 62
     3
370
    30
100
AcDbLine
 10
625.078507
 20
256.57471
 30
0.0
 11
621.863107
 21
244.57471
 31
0.0
  0
LINE
  5
562
330
1F
100
AcDbEntity
  8
002
 62
     3
370
    30
100
AcDbLine
 10
625.078507
 20
256.57471
 30
0.0
 11
625.078507
 21
261.57471
 31
0.0
  0
LINE
  5
563
330
1F
100
AcDbEntity
  8
002
 62
     3
370
    30
100
AcDbLine
 10
625.078507
 20
261.57471
 30
0.0
 11
700.078507
 21
261.57471
 31
0.0
  0
LINE
  5
564
330
1F
100
AcDbEntity
  8
002
 62
     3
370
    30
100
AcDbLine
 10
700.078507
 20
261.57471
 30
0.0
 11
700.078507
 21
256.57471
 31
0.0
  0
ARC
  5
565
330
1F
100
AcDbEntity
  8
002
 62
     3
370
    30
100
AcDbCircle
 10
685.030507
 20
213.57471
 30
0.0
 40
5.0
100
AcDbArc
 50
90.0
 51
180.0
  0
ARC
  5
566
330
1F
100
AcDbEntity
  8
002
 62
     3
370
    30
100
AcDbCircle
 10
612.578507
 20
202.35891
 30
0.0
 40
3.00004326635465
100
AcDbArc
 50
0.0
 51
72.898675
  0
LINE
  5
567
330
1F
100
AcDbEntity
  8
002
  6
CENTER
 62
    40
370
     9
100
AcDbLine
 10
747.030507
 20
139.17421
 30
0.0
 11
747.030507
 21
167.10291
 31
0.0
  0
LINE
  5
568
330
1F
100
AcDbEntity
  8
002
  6
CENTER
 62
    40
370
     9
100
AcDbLine
 10
744.471007
 20
191.57471
 30
0.0
 11
586.619507
 21
191.57471
 31
0.0
  0
LINE
  5
569
330
1F
100
AcDbEntity
  8
002
 62
    40
370
     9
100
AcDbLine
 10
589.578507
 20
198.07471
 30
0.0
 11
599.578507
 21
184.57471
 31
0.0
  0
LINE
  5
56A
330
1F
100
AcDbEntity
  8
002
 62
    40
370
     9
100
AcDbLine
 10
599.578507
 20
182.25921
 30
0.0
 11
607.578507
 21
182.50921
 31
0.0
  0
LINE
  5
56B
330
1F
100
AcDbEntity
  8
002
  6
CENTER
 62
    40
370
     9
100
AcDbLine
 10
615.030507
 20
167.10291
 30
0.0
 11
615.030507
 21
139.17421
 31
0.0
  0
LINE
  5
56C
330
1F
100
AcDbEntity
  8
002
  6
CENTER
 62
    40
370
     9
100
AcDbLine
 10
632.578507
 20
156.50981
 30
0.0
 11
632.578507
 21
136.42061
 31
0.0
  0
LINE
  5
56D
330
1F
100
AcDbEntity
  8
002
 62
    40
370
     9
100
AcDbLine
 10
589.578507
 20
185.07471
 30
0.0
 11
599.578507
 21
198.57471
 31
0.0
  0
LINE
  5
56E
330
1F
100
AcDbEntity
  8
002
 62
    40
370
     9
100
AcDbLine
 10
599.578507
 20
200.89021
 30
0.0
 11
607.578507
 21
200.64021
 31
0.0
  0
LINE
  5
56F
330
1F
100
AcDbEntity
  8
002
  6
CENTER
 62
    40
370
     9
100
AcDbLine
 10
617.978207
 20
220.18611
 30
0.0
 11
617.978207
 21
246.58601
 31
0.0
  0
LINE
  5
570
330
1F
100
AcDbEntity
  8
002
  6
CENTER
 62
    40
370
     9
100
AcDbLine
 10
707.030507
 20
223.32351
 30
0.0
 11
707.030507
 21
154.63241
 31
0.0
  0
LINE
  5
571
330
1F
100
AcDbEntity
  8
002
  6
CENTER
 62
    40
370
     9
100
AcDbLine
 10
692.578507
 20
156.50981
 30
0.0
 11
692.578507
 21
136.42061
 31
0.0
  0
LINE
  5
572
330
1F
100
AcDbEntity
  8
002
  6
CENTER
 62
    40
370
     9
100
AcDbLine
 10
707.178807
 20
226.57471
 30
0.0
 11
707.178807
 21
246.58601
 31
0.0
  0
LINE
  5
573
330
1F
100
AcDbEntity
  8
002
  6
HIDDEN
 62
    40
370
     9
100
AcDbLine
 10
609.530507
 20
146.57471
 30
0.0
 11
609.530507
 21
158.57471
 31
0.0
  0
LINE
  5
574
330
1F
100
AcDbEntity
  8
002
  6
HIDDEN
 62
    40
370
     9
100
AcDbLine
 10
620.530507
 20
158.57471
 30
0.0
 11
620.530507
 21
146.57471
 31
0.0
  0
LINE
  5
575
330
1F
100
AcDbEntity
  8
002
  6
HIDDEN
 62
    40
370
     9
100
AcDbLine
 10
604.030507
 20
158.57471
 30
0.0
 11
626.030507
 21
158.57471
 31
0.0
  0
LINE
  5
576
330
1F
100
AcDbEntity
  8
002
  6
HIDDEN
 62
    40
370
     9
100
AcDbLine
 10
626.030507
 20
158.57471
 30
0.0
 11
626.030507
 21
159.57471
 31
0.0
  0
LINE
  5
577
330
1F
100
AcDbEntity
  8
002
  6
HIDDEN
 62
    40
370
     9
100
AcDbLine
 10
604.030507
 20
158.57471
 30
0.0
 11
604.030507
 21
159.57471
 31
0.0
  0
LINE
  5
578
330
1F
100
AcDbEntity
  8
002
  6
HIDDEN
 62
    40
370
     9
100
AcDbLine
 10
752.530507
 20
158.57471
 30
0.0
 11
752.530507
 21
146.57471
 31
0.0
  0
LINE
  5
579
330
1F
100
AcDbEntity
  8
002
  6
HIDDEN
 62
    40
370
     9
100
AcDbLine
 10
736.030507
 20
158.57471
 30
0.0
 11
758.030507
 21
158.57471
 31
0.0
  0
LINE
  5
57A
330
1F
100
AcDbEntity
  8
002
  6
HIDDEN
 62
    40
370
     9
100
AcDbLine
 10
758.030507
 20
158.57471
 30
0.0
 11
758.030507
 21
159.57471
 31
0.0
  0
LINE
  5
57B
330
1F
100
AcDbEntity
  8
002
  6
HIDDEN
 62
    40
370
     9
100
AcDbLine
 10
736.030507
 20
158.57471
 30
0.0
 11
736.030507
 21
159.57471
 31
0.0
  0
LINE
  5
57C
330
1F
100
AcDbEntity
  8
002
  6
HIDDEN
 62
    40
370
     9
100
AcDbLine
 10
741.530507
 20
146.57471
 30
0.0
 11
741.530507
 21
158.57471
 31
0.0
  0
LINE
  5
57D
330
1F
100
AcDbEntity
  8
002
 62
     3
370
    30
100
AcDbLine
 10
650.078907
 20
468.57441
 30
0.0
 11
675.078907
 21
468.57441
 31
0.0
  0
LINE
  5
57E
330
1F
100
AcDbEntity
  8
002
 62
     3
370
    30
100
AcDbLine
 10
654.079707
 20
468.57441
 30
0.0
 11
654.079707
 21
496.57451
 31
0.0
  0
LINE
  5
57F
330
1F
100
AcDbEntity
  8
002
 62
     3
370
    30
100
AcDbLine
 10
654.079707
 20
496.57451
 30
0.0
 11
671.079707
 21
496.57451
 31
0.0
  0
LINE
  5
580
330
1F
100
AcDbEntity
  8
002
 62
     3
370
    30
100
AcDbLine
 10
671.079707
 20
496.57451
 30
0.0
 11
671.079707
 21
468.57441
 31
0.0
  0
LINE
  5
581
330
1F
100
AcDbEntity
  8
002
 62
     3
370
    30
100
AcDbLine
 10
1243.324054
 20
345.64941
 30
0.0
 11
1243.324054
 21
335.64941
 31
0.0
  0
LINE
  5
582
330
1F
100
AcDbEntity
  8
002
 62
     3
370
    30
100
AcDbLine
 10
1243.324054
 20
335.64941
 30
0.0
 11
1083.324054
 21
335.64941
 31
0.0
  0
LINE
  5
583
330
1F
100
AcDbEntity
  8
002
 62
     3
370
    30
100
AcDbLine
 10
1083.324054
 20
335.64941
 30
0.0
 11
1083.324054
 21
345.64941
 31
0.0
  0
LINE
  5
584
330
1F
100
AcDbEntity
  8
002
 62
    40
370
     9
100
AcDbLine
 10
1155.822054
 20
103.64971
 30
0.0
 11
1155.822054
 21
176.96913
 31
0.0
  0
LINE
  5
585
330
1F
100
AcDbEntity
  8
002
 62
    40
370
     9
100
AcDbLine
 10
1133.922054
 20
176.96913
 30
0.0
 11
1133.922054
 21
103.64971
 31
0.0
  0
ARC
  5
586
330
1F
100
AcDbEntity
  8
002
 62
     3
370
    30
100
AcDbCircle
 10
1086.324054
 20
345.64941
 30
0.0
 40
3.0
100
AcDbArc
 50
90.0
 51
180.0
  0
LINE
  5
587
330
1F
100
AcDbEntity
  8
002
 62
     3
370
    30
100
AcDbLine
 10
1086.324054
 20
348.64941
 30
0.0
 11
1240.324054
 21
348.64941
 31
0.0
  0
ARC
  5
588
330
1F
100
AcDbEntity
  8
002
 62
     3
370
    30
100
AcDbCircle
 10
1240.324054
 20
345.64941
 30
0.0
 40
3.0
100
AcDbArc
 50
0.0
 51
90.0
  0
LINE
  5
589
330
1F
100
AcDbEntity
  8
002
 62
     3
370
    30
100
AcDbLine
 10
1240.840054
 20
348.60461
 30
0.0
 11
1219.011054
 21
407.39001
 31
0.0
  0
LINE
  5
58A
330
1F
100
AcDbEntity
  8
001
 62
     3
370
    30
100
AcDbLine
 10
1149.871955
 20
186.968398
 30
0.0
 11
1149.871955
 21
236.968398
 31
0.0
  0
LINE
  5
58B
330
1F
100
AcDbEntity
  8
002
 62
     3
370
    30
100
AcDbLine
 10
1183.871467
 20
245.968886
 30
0.0
 11
1183.871467
 21
257.968886
 31
0.0
  0
LINE
  5
58C
330
1F
100
AcDbEntity
  8
002
  6
CENTER
 62
    40
370
     9
100
AcDbLine
 10
1174.871467
 20
242.218886
 30
0.0
 11
1174.871467
 21
261.718886
 31
0.0
  0
LINE
  5
58D
330
1F
100
AcDbEntity
  8
002
  6
CENTER
 62
    40
370
     9
100
AcDbLine
 10
1114.871467
 20
242.218886
 30
0.0
 11
1114.871467
 21
261.718886
 31
0.0
  0
CIRCLE
  5
58E
330
1F
100
AcDbEntity
  8
002
 62
    40
370
     9
100
AcDbCircle
 10
1144.871955
 20
186.968398
 30
0.0
 40
2.0
  0
CIRCLE
  5
58F
330
1F
100
AcDbEntity
  8
002
 62
    40
370
     9
100
AcDbCircle
 10
1144.871955
 20
236.968886
 30
0.0
 40
2.0
  0
LINE
  5
590
330
1F
100
AcDbEntity
  8
002
 62
     3
370
    30
100
AcDbLine
 10
1166.871925
 20
176.96913
 30
0.0
 11
1122.872184
 21
176.96913
 31
0.0
  0
LINE
  5
591
330
1F
100
AcDbEntity
  8
002
 62
     3
370
    30
100
AcDbLine
 10
1122.872184
 20
176.96913
 30
0.0
 11
1122.872184
 21
245.968886
 31
0.0
  0
ARC
  5
592
330
1F
100
AcDbEntity
  8
002
 62
     3
370
    30
100
AcDbCircle
 10
1144.871955
 20
199.469374
 30
0.0
 40
22.000259
100
AcDbArc
 50
257.761444
 51
282.238609
  0
CIRCLE
  5
593
330
1F
100
AcDbEntity
  8
002
 62
     3
370
    30
100
AcDbCircle
 10
1144.871955
 20
186.968398
 30
0.0
 40
1.474999
  0
LINE
  5
594
330
1F
100
AcDbEntity
  8
002
 62
     3
370
    30
100
AcDbLine
 10
1140.830551
 20
186.96844
 30
0.0
 11
1142.851318
 21
183.468368
 31
0.0
  0
LINE
  5
595
330
1F
100
AcDbEntity
  8
002
 62
     3
370
    30
100
AcDbLine
 10
1146.892692
 20
183.468398
 30
0.0
 11
1142.851447
 21
183.468398
 31
0.0
  0
CIRCLE
  5
596
330
1F
100
AcDbEntity
  8
002
 62
     3
370
    30
100
AcDbCircle
 10
1144.871955
 20
186.968398
 30
0.0
 40
3.399998
  0
LINE
  5
597
330
1F
100
AcDbEntity
  8
002
 62
     3
370
    30
100
AcDbLine
 10
1142.851153
 20
190.46821
 30
0.0
 11
1140.830523
 21
186.968377
 31
0.0
  0
LINE
  5
598
330
1F
100
AcDbEntity
  8
002
 62
     3
370
    30
100
AcDbLine
 10
1146.892936
 20
190.468382
 30
0.0
 11
1142.851447
 21
190.468382
 31
0.0
  0
LINE
  5
599
330
1F
100
AcDbEntity
  8
002
 62
     3
370
    30
100
AcDbLine
 10
1140.208137
 20
177.968642
 30
0.0
 11
1140.208137
 21
185.165663
 31
0.0
  0
ARC
  5
59A
330
1F
100
AcDbEntity
  8
002
 62
     3
370
    30
100
AcDbCircle
 10
1144.871955
 20
186.968398
 30
0.0
 40
4.999998
100
AcDbArc
 50
180.0
 51
359.999893
  0
LINE
  5
59B
330
1F
100
AcDbEntity
  8
002
 62
     3
370
    30
100
AcDbLine
 10
1139.87194
 20
236.968642
 30
0.0
 11
1139.87194
 21
186.968886
 31
0.0
  0
LINE
  5
59C
330
1F
100
AcDbEntity
  8
002
 62
     3
370
    30
100
AcDbLine
 10
1149.872069
 20
190.804342
 30
0.0
 11
1139.872073
 21
212.685168
 31
0.0
  0
LINE
  5
59D
330
1F
100
AcDbEntity
  8
002
 62
     3
370
    30
100
AcDbLine
 10
1132.056039
 20
232.191866
 30
0.0
 11
1139.872261
 21
215.08932
 31
0.0
  0
LINE
  5
59E
330
1F
100
AcDbEntity
  8
002
 62
     3
370
    30
100
AcDbLine
 10
1137.967446
 20
234.893504
 30
0.0
 11
1139.87153
 21
230.72721
 31
0.0
  0
LINE
  5
59F
330
1F
100
AcDbEntity
  8
002
 62
     3
370
    30
100
AcDbLine
 10
1133.66082
 20
236.498614
 30
0.0
 11
1139.872266
 21
222.90745
 31
0.0
  0
ARC
  5
5A0
330
1F
100
AcDbEntity
  8
002
 62
     3
370
    30
100
AcDbCircle
 10
1135.012092
 20
233.54286
 30
0.0
 40
3.249996999999999
100
AcDbArc
 50
24.561279
 51
204.56134
  0
LINE
  5
5A1
330
1F
100
AcDbEntity
  8
002
 62
     3
370
    30
100
AcDbLine
 10
1139.871968
 20
233.133189
 30
0.0
 11
1149.871951
 21
211.25239
 31
0.0
  0
LINE
  5
5A2
330
1F
100
AcDbEntity
  8
002
 62
     3
370
    30
100
AcDbLine
 10
1149.535529
 20
177.968398
 30
0.0
 11
1149.535529
 21
185.165663
 31
0.0
  0
ARC
  5
5A3
330
1F
100
AcDbEntity
  8
002
 62
     3
370
    30
100
AcDbCircle
 10
1154.731819
 20
190.394423
 30
0.0
 40
3.249997000000001
100
AcDbArc
 50
204.561371
 51
24.561386
  0
LINE
  5
5A4
330
1F
100
AcDbEntity
  8
002
 62
     3
370
    30
100
AcDbLine
 10
1151.776364
 20
189.043922
 30
0.0
 11
1149.872292
 21
193.210188
 31
0.0
  0
LINE
  5
5A5
330
1F
100
AcDbEntity
  8
002
 62
     3
370
    30
100
AcDbLine
 10
1156.083229
 20
187.438889
 30
0.0
 11
1149.87177
 21
201.030077
 31
0.0
  0
LINE
  5
5A6
330
1F
100
AcDbEntity
  8
002
 62
     3
370
    30
100
AcDbLine
 10
1157.687994
 20
191.745678
 30
0.0
 11
1149.871758
 21
208.848254
 31
0.0
  0
LINE
  5
5A7
330
1F
100
AcDbEntity
  8
002
 62
     3
370
    30
100
AcDbLine
 10
1148.913471
 20
236.968974
 30
0.0
 11
1146.892719
 21
233.468928
 31
0.0
  0
LINE
  5
5A8
330
1F
100
AcDbEntity
  8
002
 62
     3
370
    30
100
AcDbLine
 10
1146.892692
 20
233.468886
 30
0.0
 11
1142.851447
 21
233.468886
 31
0.0
  0
CIRCLE
  5
5A9
330
1F
100
AcDbEntity
  8
002
 62
     3
370
    30
100
AcDbCircle
 10
1144.871955
 20
236.968886
 30
0.0
 40
3.399998000000004
  0
LINE
  5
5AA
330
1F
100
AcDbEntity
  8
002
 62
     3
370
    30
100
AcDbLine
 10
1140.830428
 20
236.968871
 30
0.0
 11
1142.851195
 21
233.468798
 31
0.0
  0
LINE
  5
5AB
330
1F
100
AcDbEntity
  8
002
 62
     3
370
    30
100
AcDbLine
 10
1142.851182
 20
240.468756
 30
0.0
 11
1140.830552
 21
236.968924
 31
0.0
  0
LINE
  5
5AC
330
1F
100
AcDbEntity
  8
002
 62
     3
370
    30
100
AcDbLine
 10
1146.892936
 20
240.468642
 30
0.0
 11
1142.851447
 21
240.468642
 31
0.0
  0
LINE
  5
5AD
330
1F
100
AcDbEntity
  8
002
 62
     3
370
    30
100
AcDbLine
 10
1146.892635
 20
240.468798
 30
0.0
 11
1148.913326
 21
236.968859
 31
0.0
  0
CIRCLE
  5
5AE
330
1F
100
AcDbEntity
  8
002
 62
     3
370
    30
100
AcDbCircle
 10
1144.871955
 20
236.968886
 30
0.0
 40
1.474998999999997
  0
LINE
  5
5AF
330
1F
100
AcDbEntity
  8
002
 62
     3
370
    30
100
AcDbLine
 10
1149.535774
 20
245.968886
 30
0.0
 11
1149.535774
 21
238.77162
 31
0.0
  0
ARC
  5
5B0
330
1F
100
AcDbEntity
  8
002
 62
     3
370
    30
100
AcDbCircle
 10
1144.871955
 20
236.968886
 30
0.0
 40
4.999998
100
AcDbArc
 50
359.999916
 51
179.999908
  0
LINE
  5
5B1
330
1F
100
AcDbEntity
  8
002
 62
     3
370
    30
100
AcDbLine
 10
1140.208381
 20
245.968886
 30
0.0
 11
1140.208381
 21
238.77162
 31
0.0
  0
LINE
  5
5B2
330
1F
100
AcDbEntity
  8
002
 62
     3
370
    30
100
AcDbLine
 10
1183.871467
 20
245.968886
 30
0.0
 11
1105.871467
 21
245.968886
 31
0.0
  0
LINE
  5
5B3
330
1F
100
AcDbEntity
  8
002
 62
     3
370
    30
100
AcDbLine
 10
1166.871925
 20
176.96913
 30
0.0
 11
1166.871925
 21
245.968886
 31
0.0
  0
LINE
  5
5B4
330
1F
100
AcDbEntity
  8
002
 62
     3
370
    30
100
AcDbLine
 10
1105.871467
 20
245.968886
 30
0.0
 11
1105.871467
 21
257.968886
 31
0.0
  0
LINE
  5
5B5
330
1F
100
AcDbEntity
  8
002
 62
     3
370
    30
100
AcDbLine
 10
1183.871467
 20
257.968886
 30
0.0
 11
1105.871467
 21
257.968886
 31
0.0
  0
LINE
  5
5B6
330
1F
100
AcDbEntity
  8
002
 62
     3
370
    30
100
AcDbLine
 10
1148.913452
 20
186.968458
 30
0.0
 11
1146.8927
 21
183.468413
 31
0.0
  0
LINE
  5
5B7
330
1F
100
AcDbEntity
  8
002
 62
     3
370
    30
100
AcDbLine
 10
1146.892753
 20
190.468375
 30
0.0
 11
1148.913444
 21
186.968436
 31
0.0
  0
LINE
  5
5B8
330
1F
100
AcDbEntity
  8
002
 62
     3
370
    30
100
AcDbLine
 10
1132.372054
 20
103.64971
 30
0.0
 11
1132.372054
 21
176.96913
 31
0.0
  0
LINE
  5
5B9
330
1F
100
AcDbEntity
  8
002
 62
     3
370
    30
100
AcDbLine
 10
1157.372054
 20
176.96913
 30
0.0
 11
1157.372054
 21
103.64971
 31
0.0
  0
LINE
  5
5BA
330
1F
100
AcDbEntity
  8
002
 62
     3
370
    30
100
AcDbLine
 10
1219.324054
 20
405.64941
 30
0.0
 11
1219.324054
 21
355.64941
 31
0.0
  0
ARC
  5
5BB
330
1F
100
AcDbEntity
  8
002
 62
     3
370
    30
100
AcDbCircle
 10
1214.324054
 20
355.64941
 30
0.0
 40
5.0
100
AcDbArc
 50
270.0
 51
0.0
  0
LINE
  5
5BC
330
1F
100
AcDbEntity
  8
002
 62
     3
370
    30
100
AcDbLine
 10
1214.324054
 20
350.64941
 30
0.0
 11
1164.324054
 21
350.64941
 31
0.0
  0
ARC
  5
5BD
330
1F
100
AcDbEntity
  8
002
 62
     3
370
    30
100
AcDbCircle
 10
1164.324054
 20
355.64941
 30
0.0
 40
5.0
100
AcDbArc
 50
180.0
 51
270.0
  0
LINE
  5
5BE
330
1F
100
AcDbEntity
  8
002
 62
     3
370
    30
100
AcDbLine
 10
1159.324054
 20
355.64941
 30
0.0
 11
1159.324054
 21
405.64941
 31
0.0
  0
ARC
  5
5BF
330
1F
100
AcDbEntity
  8
002
 62
     3
370
    30
100
AcDbCircle
 10
1164.324054
 20
405.64941
 30
0.0
 40
5.0
100
AcDbArc
 50
90.0
 51
180.0
  0
LINE
  5
5C0
330
1F
100
AcDbEntity
  8
002
 62
     3
370
    30
100
AcDbLine
 10
1164.324054
 20
410.64941
 30
0.0
 11
1214.324054
 21
410.64941
 31
0.0
  0
ARC
  5
5C1
330
1F
100
AcDbEntity
  8
002
 62
     3
370
    30
100
AcDbCircle
 10
1214.324054
 20
405.64941
 30
0.0
 40
5.0
100
AcDbArc
 50
0.0
 51
90.0
  0
LINE
  5
5C2
330
1F
100
AcDbEntity
  8
002
 62
     3
370
    30
100
AcDbLine
 10
1216.324054
 20
405.64941
 30
0.0
 11
1216.324054
 21
355.64941
 31
0.0
  0
ARC
  5
5C3
330
1F
100
AcDbEntity
  8
002
 62
     3
370
    30
100
AcDbCircle
 10
1211.324054
 20
355.64941
 30
0.0
 40
5.0
100
AcDbArc
 50
270.0
 51
0.0
  0
LINE
  5
5C4
330
1F
100
AcDbEntity
  8
002
 62
     3
370
    30
100
AcDbLine
 10
1211.324054
 20
353.64941
 30
0.0
 11
1167.324054
 21
353.64941
 31
0.0
  0
ARC
  5
5C5
330
1F
100
AcDbEntity
  8
002
 62
     3
370
    30
100
AcDbCircle
 10
1167.324054
 20
358.64941
 30
0.0
 40
5.0
100
AcDbArc
 50
180.0
 51
270.0
  0
LINE
  5
5C6
330
1F
100
AcDbEntity
  8
002
 62
     3
370
    30
100
AcDbLine
 10
1162.324054
 20
358.64941
 30
0.0
 11
1162.324054
 21
402.64941
 31
0.0
  0
ARC
  5
5C7
330
1F
100
AcDbEntity
  8
002
 62
     3
370
    30
100
AcDbCircle
 10
1167.324054
 20
402.64941
 30
0.0
 40
5.0
100
AcDbArc
 50
90.0
 51
180.0
  0
LINE
  5
5C8
330
1F
100
AcDbEntity
  8
002
 62
     3
370
    30
100
AcDbLine
 10
1167.324054
 20
407.64941
 30
0.0
 11
1211.324054
 21
407.64941
 31
0.0
  0
ARC
  5
5C9
330
1F
100
AcDbEntity
  8
002
 62
     3
370
    30
100
AcDbCircle
 10
1211.324054
 20
402.64941
 30
0.0
 40
5.0
100
AcDbArc
 50
0.0
 51
90.0
  0
LINE
  5
5CA
330
1F
100
AcDbEntity
  8
002
 62
     3
370
    30
100
AcDbLine
 10
1204.872054
 20
410.64941
 30
0.0
 11
1204.872054
 21
425.64941
 31
0.0
  0
LINE
  5
5CB
330
1F
100
AcDbEntity
  8
002
 62
     3
370
    30
100
AcDbLine
 10
1204.872054
 20
425.64941
 30
0.0
 11
1084.872054
 21
425.64941
 31
0.0
  0
LINE
  5
5CC
330
1F
100
AcDbEntity
  8
002
 62
     3
370
    30
100
AcDbLine
 10
1084.872054
 20
425.64941
 30
0.0
 11
1084.872054
 21
401.34231
 31
0.0
  0
LINE
  5
5CD
330
1F
100
AcDbEntity
  8
002
 62
     3
370
    30
100
AcDbLine
 10
1088.324054
 20
397.64941
 30
0.0
 11
1159.324054
 21
397.64941
 31
0.0
  0
LINE
  5
5CE
330
1F
100
AcDbEntity
  8
002
 62
     3
370
    30
100
AcDbLine
 10
1159.324054
 20
393.64941
 30
0.0
 11
1155.872054
 21
393.64941
 31
0.0
  0
LINE
  5
5CF
330
1F
100
AcDbEntity
  8
002
 62
     3
370
    30
100
AcDbLine
 10
1155.872054
 20
394.57251
 30
0.0
 11
1155.985054
 21
394.57251
 31
0.0
  0
LINE
  5
5D0
330
1F
100
AcDbEntity
  8
002
 62
     3
370
    30
100
AcDbLine
 10
1152.872054
 20
391.57251
 30
0.0
 11
1152.872054
 21
380.64941
 31
0.0
  0
ARC
  5
5D1
330
1F
100
AcDbEntity
  8
002
 62
     3
370
    30
100
AcDbCircle
 10
1144.872054
 20
380.64941
 30
0.0
 40
8.0
100
AcDbArc
 50
180.0
 51
0.0
  0
LINE
  5
5D2
330
1F
100
AcDbEntity
  8
002
 62
     3
370
    30
100
AcDbLine
 10
1136.872054
 20
380.64941
 30
0.0
 11
1136.872054
 21
391.57251
 31
0.0
  0
LINE
  5
5D3
330
1F
100
AcDbEntity
  8
002
 62
     3
370
    30
100
AcDbLine
 10
1133.872054
 20
393.64941
 30
0.0
 11
1097.872054
 21
393.64941
 31
0.0
  0
ARC
  5
5D4
330
1F
100
AcDbEntity
  8
002
 62
     3
370
    30
100
AcDbCircle
 10
1094.872054
 20
391.43371
 30
0.0
 40
3.0
100
AcDbArc
 50
0.0
 51
72.901764
  0
LINE
  5
5D5
330
1F
100
AcDbEntity
  8
002
 62
     3
370
    30
100
AcDbLine
 10
1097.872054
 20
391.43371
 30
0.0
 11
1097.872054
 21
348.64941
 31
0.0
  0
LINE
  5
5D6
330
1F
100
AcDbEntity
  8
002
 62
     3
370
    30
100
AcDbLine
 10
1094.166054
 20
364.49881
 30
0.0
 11
1089.872054
 21
365.64941
 31
0.0
  0
LINE
  5
5D7
330
1F
100
AcDbEntity
  8
002
 62
     3
370
    30
100
AcDbLine
 10
1089.872054
 20
365.64941
 30
0.0
 11
1089.872054
 21
393.92611
 31
0.0
  0
LINE
  5
5D8
330
1F
100
AcDbEntity
  8
002
 62
     3
370
    30
100
AcDbLine
 10
1088.401054
 20
396.56341
 30
0.0
 11
1095.754054
 21
394.30101
 31
0.0
  0
LINE
  5
5D9
330
1F
100
AcDbEntity
  8
002
 62
     3
370
    30
100
AcDbLine
 10
1089.872054
 20
390.87691
 30
0.0
 11
1081.872054
 21
391.12691
 31
0.0
  0
LINE
  5
5DA
330
1F
100
AcDbEntity
  8
002
 62
     3
370
    30
100
AcDbLine
 10
1081.872054
 20
391.12691
 30
0.0
 11
1081.872054
 21
370.17191
 31
0.0
  0
LINE
  5
5DB
330
1F
100
AcDbEntity
  8
002
 62
     3
370
    30
100
AcDbLine
 10
1081.872054
 20
370.17191
 30
0.0
 11
1089.872054
 21
370.42191
 31
0.0
  0
ARC
  5
5DC
330
1F
100
AcDbEntity
  8
002
 62
     3
370
    30
100
AcDbCircle
 10
1092.872054
 20
359.66921
 30
0.0
 40
5.0
100
AcDbArc
 50
0.0
 51
75.000968
  0
LINE
  5
5DD
330
1F
100
AcDbEntity
  8
002
 62
     3
370
    30
100
AcDbLine
 10
1081.872054
 20
373.64941
 30
0.0
 11
1071.872054
 21
374.14941
 31
0.0
  0
LINE
  5
5DE
330
1F
100
AcDbEntity
  8
002
 62
     3
370
    30
100
AcDbLine
 10
1071.872054
 20
374.14941
 30
0.0
 11
1071.872054
 21
387.14941
 31
0.0
  0
LINE
  5
5DF
330
1F
100
AcDbEntity
  8
002
 62
     3
370
    30
100
AcDbLine
 10
1071.872054
 20
387.14941
 30
0.0
 11
1081.872054
 21
387.64941
 31
0.0
  0
ARC
  5
5E0
330
1F
100
AcDbEntity
  8
002
 62
     3
370
    30
100
AcDbCircle
 10
1086.872054
 20
393.92611
 30
0.0
 40
3.0
100
AcDbArc
 50
0.0
 51
67.97587
  0
ARC
  5
5E1
330
1F
100
AcDbEntity
  8
002
 62
     3
370
    30
100
AcDbCircle
 10
1089.872054
 20
401.34231
 30
0.0
 40
5.0
100
AcDbArc
 50
180.0
 51
252.891037
  0
LINE
  5
5E2
330
1F
100
AcDbEntity
  8
002
 62
     3
370
    30
100
AcDbLine
 10
1084.872054
 20
415.64941
 30
0.0
 11
1204.872054
 21
415.64941
 31
0.0
  0
ARC
  5
5E3
330
1F
100
AcDbEntity
  8
002
 62
     3
370
    30
100
AcDbCircle
 10
1211.324054
 20
405.64941
 30
0.0
 40
5.0
100
AcDbArc
 50
0.0
 51
90.0
  0
LINE
  5
5E4
330
1F
100
AcDbEntity
  8
002
 62
     3
370
    30
100
AcDbLine
 10
1222.675054
 20
397.52361
 30
0.0
 11
1223.612054
 21
397.87171
 31
0.0
  0
LINE
  5
5E5
330
1F
100
AcDbEntity
  8
002
 62
     3
370
    30
100
AcDbLine
 10
1223.612054
 20
397.87171
 30
0.0
 11
1236.144054
 21
364.12341
 31
0.0
  0
LINE
  5
5E6
330
1F
100
AcDbEntity
  8
002
 62
     3
370
    30
100
AcDbLine
 10
1236.144054
 20
364.12341
 30
0.0
 11
1235.207054
 21
363.77531
 31
0.0
  0
ARC
  5
5E7
330
1F
100
AcDbEntity
  8
002
 62
     3
370
    30
100
AcDbCircle
 10
1211.324054
 20
358.64941
 30
0.0
 40
5.0
100
AcDbArc
 50
270.0
 51
0.0
  0
LINE
  5
5E8
330
1F
100
AcDbEntity
  8
002
 62
     3
370
    30
100
AcDbLine
 10
1191.424054
 20
385.14941
 30
0.0
 11
1191.824054
 21
385.54941
 31
0.0
  0
LINE
  5
5E9
330
1F
100
AcDbEntity
  8
002
 62
     3
370
    30
100
AcDbLine
 10
1191.824054
 20
385.54941
 30
0.0
 11
1191.824054
 21
389.74941
 31
0.0
  0
LINE
  5
5EA
330
1F
100
AcDbEntity
  8
002
 62
     3
370
    30
100
AcDbLine
 10
1191.824054
 20
389.74941
 30
0.0
 11
1191.424054
 21
390.14941
 31
0.0
  0
LINE
  5
5EB
330
1F
100
AcDbEntity
  8
002
 62
     3
370
    30
100
AcDbLine
 10
1191.424054
 20
390.14941
 30
0.0
 11
1187.224054
 21
390.14941
 31
0.0
  0
LINE
  5
5EC
330
1F
100
AcDbEntity
  8
002
 62
     3
370
    30
100
AcDbLine
 10
1187.224054
 20
390.14941
 30
0.0
 11
1186.824054
 21
389.74941
 31
0.0
  0
LINE
  5
5ED
330
1F
100
AcDbEntity
  8
002
 62
     3
370
    30
100
AcDbLine
 10
1186.824054
 20
389.74941
 30
0.0
 11
1186.824054
 21
385.54941
 31
0.0
  0
LINE
  5
5EE
330
1F
100
AcDbEntity
  8
002
 62
     3
370
    30
100
AcDbLine
 10
1186.824054
 20
385.54941
 30
0.0
 11
1187.224054
 21
385.14941
 31
0.0
  0
LINE
  5
5EF
330
1F
100
AcDbEntity
  8
002
 62
     3
370
    30
100
AcDbLine
 10
1187.224054
 20
385.14941
 30
0.0
 11
1191.424054
 21
385.14941
 31
0.0
  0
ARC
  5
5F0
330
1F
100
AcDbEntity
  8
002
 62
     3
370
    30
100
AcDbCircle
 10
1191.424054
 20
385.54941
 30
0.0
 40
0.3999999999999773
100
AcDbArc
 50
270.0
 51
0.0
  0
ARC
  5
5F1
330
1F
100
AcDbEntity
  8
002
 62
     3
370
    30
100
AcDbCircle
 10
1189.324054
 20
380.64941
 30
0.0
 40
7.500030347271937
100
AcDbArc
 50
109.471139
 51
70.528861
  0
ARC
  5
5F2
330
1F
100
AcDbEntity
  8
002
 62
     3
370
    30
100
AcDbCircle
 10
1187.224054
 20
385.54941
 30
0.0
 40
0.3999999999998636
100
AcDbArc
 50
180.0
 51
270.0
  0
ARC
  5
5F3
330
1F
100
AcDbEntity
  8
002
 62
     3
370
    30
100
AcDbCircle
 10
1189.324054
 20
380.64941
 30
0.0
 40
8.00005502231084
100
AcDbArc
 50
108.209827
 51
71.790173
  0
CIRCLE
  5
5F4
330
1F
100
AcDbEntity
  8
002
 62
     3
370
    30
100
AcDbCircle
 10
1189.324054
 20
380.64941
 30
0.0
 40
13.0
  0
LINE
  5
5F5
330
1F
100
AcDbEntity
  8
002
 62
     3
370
    30
100
AcDbLine
 10
1149.872054
 20
377.76271
 30
0.0
 11
1149.872054
 21
383.53621
 31
0.0
  0
LINE
  5
5F6
330
1F
100
AcDbEntity
  8
002
 62
     3
370
    30
100
AcDbLine
 10
1149.872054
 20
383.53621
 30
0.0
 11
1144.872054
 21
386.42291
 31
0.0
  0
LINE
  5
5F7
330
1F
100
AcDbEntity
  8
002
 62
     3
370
    30
100
AcDbLine
 10
1144.872054
 20
386.42291
 30
0.0
 11
1139.872054
 21
383.53621
 31
0.0
  0
LINE
  5
5F8
330
1F
100
AcDbEntity
  8
002
 62
     3
370
    30
100
AcDbLine
 10
1139.872054
 20
383.53621
 30
0.0
 11
1139.872054
 21
377.76271
 31
0.0
  0
LINE
  5
5F9
330
1F
100
AcDbEntity
  8
002
 62
     3
370
    30
100
AcDbLine
 10
1139.872054
 20
377.76271
 30
0.0
 11
1144.872054
 21
374.87591
 31
0.0
  0
LINE
  5
5FA
330
1F
100
AcDbEntity
  8
002
 62
     3
370
    30
100
AcDbLine
 10
1144.872054
 20
374.87591
 30
0.0
 11
1149.872054
 21
377.76271
 31
0.0
  0
CIRCLE
  5
5FB
330
1F
100
AcDbEntity
  8
002
 62
     3
370
    30
100
AcDbCircle
 10
1144.872054
 20
380.64941
 30
0.0
 40
0.75
  0
CIRCLE
  5
5FC
330
1F
100
AcDbEntity
  8
002
 62
     3
370
    30
100
AcDbCircle
 10
1144.872054
 20
380.64941
 30
0.0
 40
2.5
  0
CIRCLE
  5
5FD
330
1F
100
AcDbEntity
  8
002
 62
     3
370
    30
100
AcDbCircle
 10
1144.872054
 20
380.64941
 30
0.0
 40
3.25
  0
CIRCLE
  5
5FE
330
1F
100
AcDbEntity
  8
002
 62
     3
370
    30
100
AcDbCircle
 10
1144.872054
 20
380.64941
 30
0.0
 40
5.0
  0
ARC
  5
5FF
330
1F
100
AcDbEntity
  8
002
 62
     3
370
    30
100
AcDbCircle
 10
1133.872054
 20
390.64941
 30
0.0
 40
3.0
100
AcDbArc
 50
0.0
 51
90.0
  0
LINE
  5
600
330
1F
100
AcDbEntity
  8
002
 62
     3
370
    30
100
AcDbLine
 10
1133.872054
 20
394.57251
 30
0.0
 11
1133.758054
 21
394.57251
 31
0.0
  0
ARC
  5
601
330
1F
100
AcDbEntity
  8
002
 62
     3
370
    30
100
AcDbCircle
 10
1133.872054
 20
391.57251
 30
0.0
 40
3.0
100
AcDbArc
 50
0.0
 51
90.0
  0
ARC
  5
602
330
1F
100
AcDbEntity
  8
002
 62
     3
370
    30
100
AcDbCircle
 10
1155.872054
 20
391.57251
 30
0.0
 40
3.0
100
AcDbArc
 50
90.0
 51
180.0
  0
ARC
  5
603
330
1F
100
AcDbEntity
  8
002
 62
     3
370
    30
100
AcDbCircle
 10
1155.872054
 20
390.64941
 30
0.0
 40
3.0
100
AcDbArc
 50
90.0
 51
180.0
  0
LINE
  5
604
330
1F
100
AcDbEntity
  8
002
 62
     3
370
    30
100
AcDbLine
 10
1182.972054
 20
425.64941
 30
0.0
 11
1182.972054
 21
433.64941
 31
0.0
  0
LINE
  5
605
330
1F
100
AcDbEntity
  8
002
 62
     3
370
    30
100
AcDbLine
 10
1182.972054
 20
433.64941
 30
0.0
 11
1195.972054
 21
433.64941
 31
0.0
  0
LINE
  5
606
330
1F
100
AcDbEntity
  8
002
 62
     3
370
    30
100
AcDbLine
 10
1185.587054
 20
433.64941
 30
0.0
 11
1182.372054
 21
445.64941
 31
0.0
  0
LINE
  5
607
330
1F
100
AcDbEntity
  8
002
 62
     3
370
    30
100
AcDbLine
 10
1182.372054
 20
445.64941
 30
0.0
 11
1107.372054
 21
445.64941
 31
0.0
  0
LINE
  5
608
330
1F
100
AcDbEntity
  8
002
 62
     3
370
    30
100
AcDbLine
 10
1107.372054
 20
445.64941
 30
0.0
 11
1104.156054
 21
433.64941
 31
0.0
  0
LINE
  5
609
330
1F
100
AcDbEntity
  8
002
 62
     3
370
    30
100
AcDbLine
 10
1106.771054
 20
433.64941
 30
0.0
 11
1093.771054
 21
433.64941
 31
0.0
  0
LINE
  5
60A
330
1F
100
AcDbEntity
  8
002
 62
     3
370
    30
100
AcDbLine
 10
1106.771054
 20
433.64941
 30
0.0
 11
1106.771054
 21
425.64941
 31
0.0
  0
LINE
  5
60B
330
1F
100
AcDbEntity
  8
002
 62
     3
370
    30
100
AcDbLine
 10
1106.771054
 20
426.64941
 30
0.0
 11
1138.372054
 21
426.64941
 31
0.0
  0
LINE
  5
60C
330
1F
100
AcDbEntity
  8
002
 62
     3
370
    30
100
AcDbLine
 10
1138.372054
 20
425.64941
 30
0.0
 11
1138.372054
 21
433.64941
 31
0.0
  0
LINE
  5
60D
330
1F
100
AcDbEntity
  8
002
 62
     3
370
    30
100
AcDbLine
 10
1151.372054
 20
433.64941
 30
0.0
 11
1151.372054
 21
425.64941
 31
0.0
  0
LINE
  5
60E
330
1F
100
AcDbEntity
  8
002
 62
     3
370
    30
100
AcDbLine
 10
1151.372054
 20
426.64941
 30
0.0
 11
1182.972054
 21
426.64941
 31
0.0
  0
LINE
  5
60F
330
1F
100
AcDbEntity
  8
002
 62
     3
370
    30
100
AcDbLine
 10
1195.972054
 20
425.64941
 30
0.0
 11
1195.972054
 21
433.64941
 31
0.0
  0
LINE
  5
610
330
1F
100
AcDbEntity
  8
002
 62
     3
370
    30
100
AcDbLine
 10
1182.372054
 20
445.64941
 30
0.0
 11
1182.372054
 21
456.64941
 31
0.0
  0
LINE
  5
611
330
1F
100
AcDbEntity
  8
002
 62
     3
370
    30
100
AcDbLine
 10
1182.372054
 20
456.64941
 30
0.0
 11
1107.372054
 21
456.64941
 31
0.0
  0
LINE
  5
612
330
1F
100
AcDbEntity
  8
002
 62
     3
370
    30
100
AcDbLine
 10
1107.372054
 20
456.64941
 30
0.0
 11
1107.372054
 21
445.64941
 31
0.0
  0
LINE
  5
613
330
1F
100
AcDbEntity
  8
002
 62
     3
370
    30
100
AcDbLine
 10
1107.372054
 20
450.64941
 30
0.0
 11
1182.372054
 21
450.64941
 31
0.0
  0
LINE
  5
614
330
1F
100
AcDbEntity
  8
002
 62
     3
370
    30
100
AcDbLine
 10
1179.122054
 20
456.64941
 30
0.0
 11
1179.122054
 21
461.64941
 31
0.0
  0
LINE
  5
615
330
1F
100
AcDbEntity
  8
002
 62
     3
370
    30
100
AcDbLine
 10
1179.122054
 20
461.64941
 30
0.0
 11
1170.622054
 21
461.64941
 31
0.0
  0
LINE
  5
616
330
1F
100
AcDbEntity
  8
002
 62
     3
370
    30
100
AcDbLine
 10
1170.622054
 20
461.64941
 30
0.0
 11
1170.622054
 21
456.64941
 31
0.0
  0
LINE
  5
617
330
1F
100
AcDbEntity
  8
002
 62
     3
370
    30
100
AcDbLine
 10
1169.172054
 20
456.64941
 30
0.0
 11
1169.172054
 21
505.64941
 31
0.0
  0
LINE
  5
618
330
1F
100
AcDbEntity
  8
002
 62
     3
370
    30
100
AcDbLine
 10
1169.172054
 20
505.64941
 30
0.0
 11
1120.572054
 21
505.64941
 31
0.0
  0
LINE
  5
619
330
1F
100
AcDbEntity
  8
002
 62
     3
370
    30
100
AcDbLine
 10
1120.572054
 20
505.64941
 30
0.0
 11
1120.572054
 21
456.64941
 31
0.0
  0
LINE
  5
61A
330
1F
100
AcDbEntity
  8
002
 62
     3
370
    30
100
AcDbLine
 10
1119.122054
 20
456.64941
 30
0.0
 11
1119.122054
 21
461.64941
 31
0.0
  0
LINE
  5
61B
330
1F
100
AcDbEntity
  8
002
 62
     3
370
    30
100
AcDbLine
 10
1119.122054
 20
461.64941
 30
0.0
 11
1110.622054
 21
461.64941
 31
0.0
  0
LINE
  5
61C
330
1F
100
AcDbEntity
  8
002
 62
     3
370
    30
100
AcDbLine
 10
1110.622054
 20
461.64941
 30
0.0
 11
1110.622054
 21
456.64941
 31
0.0
  0
LINE
  5
61D
330
1F
100
AcDbEntity
  8
002
 62
     3
370
    30
100
AcDbLine
 10
1140.622054
 20
461.64941
 30
0.0
 11
1149.122054
 21
461.64941
 31
0.0
  0
LINE
  5
61E
330
1F
100
AcDbEntity
  8
002
 62
     3
370
    30
100
AcDbLine
 10
1149.122054
 20
461.64941
 30
0.0
 11
1149.122054
 21
456.64941
 31
0.0
  0
LINE
  5
61F
330
1F
100
AcDbEntity
  8
002
 62
     3
370
    30
100
AcDbLine
 10
1140.622054
 20
461.64941
 30
0.0
 11
1140.622054
 21
456.64941
 31
0.0
  0
LINE
  5
620
330
1F
100
AcDbEntity
  8
002
 62
     3
370
    30
100
AcDbLine
 10
1138.372054
 20
433.64941
 30
0.0
 11
1151.372054
 21
433.64941
 31
0.0
  0
LINE
  5
621
330
1F
100
AcDbEntity
  8
002
 62
     3
370
    30
100
AcDbLine
 10
1093.771054
 20
433.64941
 30
0.0
 11
1093.771054
 21
425.64941
 31
0.0
  0
LINE
  5
622
330
1F
100
AcDbEntity
  8
002
 62
     3
370
    30
100
AcDbLine
 10
1128.872054
 20
335.64941
 30
0.0
 11
1128.872054
 21
323.64941
 31
0.0
  0
LINE
  5
623
330
1F
100
AcDbEntity
  8
002
 62
     3
370
    30
100
AcDbLine
 10
1128.872054
 20
323.64941
 30
0.0
 11
1160.872054
 21
323.64941
 31
0.0
  0
LINE
  5
624
330
1F
100
AcDbEntity
  8
002
 62
     3
370
    30
100
AcDbLine
 10
1160.872054
 20
323.64941
 30
0.0
 11
1160.872054
 21
335.64941
 31
0.0
  0
LINE
  5
625
330
1F
100
AcDbEntity
  8
002
  6
CENTER
 62
    40
370
     9
100
AcDbLine
 10
1097.324054
 20
328.24891
 30
0.0
 11
1097.324054
 21
356.17761
 31
0.0
  0
LINE
  5
626
330
1F
100
AcDbEntity
  8
002
 62
    40
370
     9
100
AcDbLine
 10
1089.872054
 20
371.58391
 30
0.0
 11
1081.872054
 21
371.33391
 31
0.0
  0
LINE
  5
627
330
1F
100
AcDbEntity
  8
002
 62
    40
370
     9
100
AcDbLine
 10
1081.872054
 20
373.64941
 30
0.0
 11
1071.872054
 21
387.14941
 31
0.0
  0
LINE
  5
628
330
1F
100
AcDbEntity
  8
002
  6
CENTER
 62
    40
370
     9
100
AcDbLine
 10
1068.945054
 20
380.64941
 30
0.0
 11
1226.764054
 21
380.64941
 31
0.0
  0
LINE
  5
629
330
1F
100
AcDbEntity
  8
002
  6
CENTER
 62
    40
370
     9
100
AcDbLine
 10
1229.324054
 20
356.17761
 30
0.0
 11
1229.324054
 21
328.24891
 31
0.0
  0
LINE
  5
62A
330
1F
100
AcDbEntity
  8
002
  6
CENTER
 62
    40
370
     9
100
AcDbLine
 10
1189.324054
 20
348.64941
 30
0.0
 11
1189.324054
 21
412.39821
 31
0.0
  0
LINE
  5
62B
330
1F
100
AcDbEntity
  8
002
  6
CENTER
 62
    40
370
     9
100
AcDbLine
 10
1174.872054
 20
440.71431
 30
0.0
 11
1174.872054
 21
464.62081
 31
0.0
  0
LINE
  5
62C
330
1F
100
AcDbEntity
  8
002
  6
CENTER
 62
    40
370
     9
100
AcDbLine
 10
1114.872054
 20
464.62081
 30
0.0
 11
1114.872054
 21
440.71431
 31
0.0
  0
LINE
  5
62D
330
1F
100
AcDbEntity
  8
002
  6
CENTER
 62
    40
370
     9
100
AcDbLine
 10
1100.271054
 20
435.66081
 30
0.0
 11
1100.271054
 21
409.26091
 31
0.0
  0
LINE
  5
62E
330
1F
100
AcDbEntity
  8
002
 62
    40
370
     9
100
AcDbLine
 10
1089.872054
 20
389.71491
 30
0.0
 11
1081.872054
 21
389.96491
 31
0.0
  0
LINE
  5
62F
330
1F
100
AcDbEntity
  8
002
 62
    40
370
     9
100
AcDbLine
 10
1081.872054
 20
387.64941
 30
0.0
 11
1071.872054
 21
374.14941
 31
0.0
  0
LINE
  5
630
330
1F
100
AcDbEntity
  8
002
  6
HIDDEN
 62
    40
370
     9
100
AcDbLine
 10
1234.824054
 20
335.64941
 30
0.0
 11
1234.824054
 21
347.64941
 31
0.0
  0
LINE
  5
631
330
1F
100
AcDbEntity
  8
002
  6
HIDDEN
 62
    40
370
     9
100
AcDbLine
 10
1223.824054
 20
347.64941
 30
0.0
 11
1223.824054
 21
335.64941
 31
0.0
  0
LINE
  5
632
330
1F
100
AcDbEntity
  8
002
  6
HIDDEN
 62
    40
370
     9
100
AcDbLine
 10
1240.324054
 20
347.64941
 30
0.0
 11
1218.324054
 21
347.64941
 31
0.0
  0
LINE
  5
633
330
1F
100
AcDbEntity
  8
002
  6
HIDDEN
 62
    40
370
     9
100
AcDbLine
 10
1218.324054
 20
347.64941
 30
0.0
 11
1218.324054
 21
348.64941
 31
0.0
  0
LINE
  5
634
330
1F
100
AcDbEntity
  8
002
  6
HIDDEN
 62
    40
370
     9
100
AcDbLine
 10
1240.324054
 20
347.64941
 30
0.0
 11
1240.324054
 21
348.64941
 31
0.0
  0
LINE
  5
635
330
1F
100
AcDbEntity
  8
002
  6
HIDDEN
 62
    40
370
     9
100
AcDbLine
 10
1091.824054
 20
347.64941
 30
0.0
 11
1091.824054
 21
335.64941
 31
0.0
  0
LINE
  5
636
330
1F
100
AcDbEntity
  8
002
  6
HIDDEN
 62
    40
370
     9
100
AcDbLine
 10
1102.824054
 20
335.64941
 30
0.0
 11
1102.824054
 21
347.64941
 31
0.0
  0
LINE
  5
637
330
1F
100
AcDbEntity
  8
002
  6
HIDDEN
 62
    40
370
     9
100
AcDbLine
 10
1108.324054
 20
347.64941
 30
0.0
 11
1086.324054
 21
347.64941
 31
0.0
  0
LINE
  5
638
330
1F
100
AcDbEntity
  8
002
  6
HIDDEN
 62
    40
370
     9
100
AcDbLine
 10
1108.324054
 20
348.64941
 30
0.0
 11
1108.324054
 21
347.64941
 31
0.0
  0
LINE
  5
639
330
1F
100
AcDbEntity
  8
002
  6
HIDDEN
 62
    40
370
     9
100
AcDbLine
 10
1086.324054
 20
347.64941
 30
0.0
 11
1086.324054
 21
348.64941
 31
0.0
  0
LINE
  5
63A
330
1F
100
AcDbEntity
  8
002
 62
     3
370
    30
100
AcDbLine
 10
1157.372054
 20
103.64971
 30
0.0
 11
1132.372054
 21
103.64971
 31
0.0
  0
LINE
  5
63B
330
1F
100
AcDbEntity
  8
002
 62
     3
370
    30
100
AcDbLine
 10
1136.373054
 20
103.64971
 30
0.0
 11
1136.373054
 21
75.64961
 31
0.0
  0
LINE
  5
63C
330
1F
100
AcDbEntity
  8
002
 62
     3
370
    30
100
AcDbLine
 10
1136.373054
 20
75.64961
 30
0.0
 11
1153.373054
 21
75.64961
 31
0.0
  0
LINE
  5
63D
330
1F
100
AcDbEntity
  8
002
 62
     3
370
    30
100
AcDbLine
 10
1153.373054
 20
75.64961
 30
0.0
 11
1153.373054
 21
103.64971
 31
0.0
  0
POLYLINE
  5
63E
330
1F
100
AcDbEntity
  8
002
 62
     3
370
     9
100
AcDb2dPolyline
 66
     1
 10
0.0
 20
0.0
 30
0.0
  0
VERTEX
  5
640
330
63E
100
AcDbEntity
  8
002
 62
     3
370
     9
100
AcDbVertex
100
AcDb2dVertex
 10
194.243907
 20
290.591808
 30
0.0
  0
VERTEX
  5
641
330
63E
100
AcDbEntity
  8
002
 62
     3
370
     9
100
AcDbVertex
100
AcDb2dVertex
 10
195.806407
 20
288.388683
 30
0.0
  0
VERTEX
  5
642
330
63E
100
AcDbEntity
  8
002
 62
     3
370
     9
100
AcDbVertex
100
AcDb2dVertex
 10
197.368907
 20
286.466808
 30
0.0
  0
VERTEX
  5
643
330
63E
100
AcDbEntity
  8
002
 62
     3
370
     9
100
AcDbVertex
100
AcDb2dVertex
 10
198.931407
 20
285.107433
 30
0.0
  0
VERTEX
  5
644
330
63E
100
AcDbEntity
  8
002
 62
     3
370
     9
100
AcDbVertex
100
AcDb2dVertex
 10
200.493907
 20
284.591808
 30
0.0
  0
VERTEX
  5
645
330
63E
100
AcDbEntity
  8
002
 62
     3
370
     9
100
AcDbVertex
100
AcDb2dVertex
 10
202.056407
 20
285.107433
 30
0.0
  0
VERTEX
  5
646
330
63E
100
AcDbEntity
  8
002
 62
     3
370
     9
100
AcDbVertex
100
AcDb2dVertex
 10
203.618907
 20
286.466808
 30
0.0
  0
VERTEX
  5
647
330
63E
100
AcDbEntity
  8
002
 62
     3
370
     9
100
AcDbVertex
100
AcDb2dVertex
 10
205.181407
 20
288.388683
 30
0.0
  0
VERTEX
  5
648
330
63E
100
AcDbEntity
  8
002
 62
     3
370
     9
100
AcDbVertex
100
AcDb2dVertex
 10
206.743907
 20
290.591808
 30
0.0
  0
VERTEX
  5
649
330
63E
100
AcDbEntity
  8
002
 62
     3
370
     9
100
AcDbVertex
100
AcDb2dVertex
 10
208.306407
 20
292.794933
 30
0.0
  0
VERTEX
  5
64A
330
63E
100
AcDbEntity
  8
002
 62
     3
370
     9
100
AcDbVertex
100
AcDb2dVertex
 10
209.868907
 20
294.716808
 30
0.0
  0
VERTEX
  5
64B
330
63E
100
AcDbEntity
  8
002
 62
     3
370
     9
100
AcDbVertex
100
AcDb2dVertex
 10
211.431407
 20
296.076183
 30
0.0
  0
VERTEX
  5
64C
330
63E
100
AcDbEntity
  8
002
 62
     3
370
     9
100
AcDbVertex
100
AcDb2dVertex
 10
212.993907
 20
296.591808
 30
0.0
  0
VERTEX
  5
64D
330
63E
100
AcDbEntity
  8
002
 62
     3
370
     9
100
AcDbVertex
100
AcDb2dVertex
 10
214.556407
 20
296.076183
 30
0.0
  0
VERTEX
  5
64E
330
63E
100
AcDbEntity
  8
002
 62
     3
370
     9
100
AcDbVertex
100
AcDb2dVertex
 10
216.118907
 20
294.716808
 30
0.0
  0
VERTEX
  5
64F
330
63E
100
AcDbEntity
  8
002
 62
     3
370
     9
100
AcDbVertex
100
AcDb2dVertex
 10
217.681407
 20
292.794933
 30
0.0
  0
VERTEX
  5
650
330
63E
100
AcDbEntity
  8
002
 62
     3
370
     9
100
AcDbVertex
100
AcDb2dVertex
 10
219.243907
 20
290.591808
 30
0.0
  0
SEQEND
  5
63F
330
63E
100
AcDbEntity
  8
002
370
     9
  0
POLYLINE
  5
651
330
1F
100
AcDbEntity
  8
002
 62
     3
370
     9
100
AcDb2dPolyline
 66
     1
 10
0.0
 20
0.0
 30
0.0
  0
VERTEX
  5
653
330
651
100
AcDbEntity
  8
002
 62
     3
370
     9
100
AcDbVertex
100
AcDb2dVertex
 10
194.243907
 20
302.591808
 30
0.0
  0
VERTEX
  5
654
330
651
100
AcDbEntity
  8
002
 62
     3
370
     9
100
AcDbVertex
100
AcDb2dVertex
 10
195.806407
 20
300.388683
 30
0.0
  0
VERTEX
  5
655
330
651
100
AcDbEntity
  8
002
 62
     3
370
     9
100
AcDbVertex
100
AcDb2dVertex
 10
197.368907
 20
298.466808
 30
0.0
  0
VERTEX
  5
656
330
651
100
AcDbEntity
  8
002
 62
     3
370
     9
100
AcDbVertex
100
AcDb2dVertex
 10
198.931407
 20
297.107433
 30
0.0
  0
VERTEX
  5
657
330
651
100
AcDbEntity
  8
002
 62
     3
370
     9
100
AcDbVertex
100
AcDb2dVertex
 10
200.493907
 20
296.591808
 30
0.0
  0
VERTEX
  5
658
330
651
100
AcDbEntity
  8
002
 62
     3
370
     9
100
AcDbVertex
100
AcDb2dVertex
 10
202.056407
 20
297.107433
 30
0.0
  0
VERTEX
  5
659
330
651
100
AcDbEntity
  8
002
 62
     3
370
     9
100
AcDbVertex
100
AcDb2dVertex
 10
203.618907
 20
298.466808
 30
0.0
  0
VERTEX
  5
65A
330
651
100
AcDbEntity
  8
002
 62
     3
370
     9
100
AcDbVertex
100
AcDb2dVertex
 10
205.181407
 20
300.388683
 30
0.0
  0
VERTEX
  5
65B
330
651
100
AcDbEntity
  8
002
 62
     3
370
     9
100
AcDbVertex
100
AcDb2dVertex
 10
206.743907
 20
302.591808
 30
0.0
  0
VERTEX
  5
65C
330
651
100
AcDbEntity
  8
002
 62
     3
370
     9
100
AcDbVertex
100
AcDb2dVertex
 10
208.306407
 20
304.794933
 30
0.0
  0
VERTEX
  5
65D
330
651
100
AcDbEntity
  8
002
 62
     3
370
     9
100
AcDbVertex
100
AcDb2dVertex
 10
209.868907
 20
306.716808
 30
0.0
  0
VERTEX
  5
65E
330
651
100
AcDbEntity
  8
002
 62
     3
370
     9
100
AcDbVertex
100
AcDb2dVertex
 10
211.431407
 20
308.076183
 30
0.0
  0
VERTEX
  5
65F
330
651
100
AcDbEntity
  8
002
 62
     3
370
     9
100
AcDbVertex
100
AcDb2dVertex
 10
212.993907
 20
308.591808
 30
0.0
  0
VERTEX
  5
660
330
651
100
AcDbEntity
  8
002
 62
     3
370
     9
100
AcDbVertex
100
AcDb2dVertex
 10
214.556407
 20
308.076183
 30
0.0
  0
VERTEX
  5
661
330
651
100
AcDbEntity
  8
002
 62
     3
370
     9
100
AcDbVertex
100
AcDb2dVertex
 10
216.118907
 20
306.716808
 30
0.0
  0
VERTEX
  5
662
330
651
100
AcDbEntity
  8
002
 62
     3
370
     9
100
AcDbVertex
100
AcDb2dVertex
 10
217.681407
 20
304.794933
 30
0.0
  0
VERTEX
  5
663
330
651
100
AcDbEntity
  8
002
 62
     3
370
     9
100
AcDbVertex
100
AcDb2dVertex
 10
219.243907
 20
302.591808
 30
0.0
  0
SEQEND
  5
652
330
651
100
AcDbEntity
  8
002
370
     9
  0
LINE
  5
664
330
1F
100
AcDbEntity
  8
002
 62
     3
370
    30
100
AcDbLine
 10
219.243907
 20
261.57471
 30
0.0
 11
219.243907
 21
290.591808
 31
0.0
  0
LINE
  5
665
330
1F
100
AcDbEntity
  8
002
 62
     3
370
    30
100
AcDbLine
 10
219.243907
 20
302.591808
 30
0.0
 11
219.243907
 21
331.608906
 31
0.0
  0
LINE
  5
666
330
1F
100
AcDbEntity
  8
002
 62
     3
370
    30
100
AcDbLine
 10
194.243907
 20
331.608906
 30
0.0
 11
194.243907
 21
302.591808
 31
0.0
  0
LINE
  5
667
330
1F
100
AcDbEntity
  8
002
 62
     3
370
    30
100
AcDbLine
 10
194.243907
 20
290.591808
 30
0.0
 11
194.243907
 21
261.57471
 31
0.0
  0
LINE
  5
668
330
1F
100
AcDbEntity
  8
002
 62
    40
370
     9
100
AcDbLine
 10
217.693907
 20
331.608906
 30
0.0
 11
217.693907
 21
304.778049
 31
0.0
  0
LINE
  5
669
330
1F
100
AcDbEntity
  8
002
 62
    40
370
     9
100
AcDbLine
 10
217.693907
 20
292.778049
 30
0.0
 11
217.693907
 21
261.57471
 31
0.0
  0
LINE
  5
66A
330
1F
100
AcDbEntity
  8
002
 62
    40
370
     9
100
AcDbLine
 10
195.793907
 20
261.57471
 30
0.0
 11
195.793907
 21
288.405567
 31
0.0
  0
LINE
  5
66B
330
1F
100
AcDbEntity
  8
002
 62
    40
370
     9
100
AcDbLine
 10
195.793907
 20
300.405567
 30
0.0
 11
195.793907
 21
331.608906
 31
0.0
  0
POLYLINE
  5
66C
330
1F
100
AcDbEntity
  8
002
 62
     3
370
     9
100
AcDb2dPolyline
 66
     1
 10
0.0
 20
0.0
 30
0.0
  0
VERTEX
  5
66E
330
66C
100
AcDbEntity
  8
002
 62
     3
370
     9
100
AcDbVertex
100
AcDb2dVertex
 10
435.510907
 20
290.591808
 30
0.0
  0
VERTEX
  5
66F
330
66C
100
AcDbEntity
  8
002
 62
     3
370
     9
100
AcDbVertex
100
AcDb2dVertex
 10
437.073407
 20
288.388683
 30
0.0
  0
VERTEX
  5
670
330
66C
100
AcDbEntity
  8
002
 62
     3
370
     9
100
AcDbVertex
100
AcDb2dVertex
 10
438.635907
 20
286.466808
 30
0.0
  0
VERTEX
  5
671
330
66C
100
AcDbEntity
  8
002
 62
     3
370
     9
100
AcDbVertex
100
AcDb2dVertex
 10
440.198407
 20
285.107433
 30
0.0
  0
VERTEX
  5
672
330
66C
100
AcDbEntity
  8
002
 62
     3
370
     9
100
AcDbVertex
100
AcDb2dVertex
 10
441.760907
 20
284.591808
 30
0.0
  0
VERTEX
  5
673
330
66C
100
AcDbEntity
  8
002
 62
     3
370
     9
100
AcDbVertex
100
AcDb2dVertex
 10
443.323407
 20
285.107433
 30
0.0
  0
VERTEX
  5
674
330
66C
100
AcDbEntity
  8
002
 62
     3
370
     9
100
AcDbVertex
100
AcDb2dVertex
 10
444.885907
 20
286.466808
 30
0.0
  0
VERTEX
  5
675
330
66C
100
AcDbEntity
  8
002
 62
     3
370
     9
100
AcDbVertex
100
AcDb2dVertex
 10
446.448407
 20
288.388683
 30
0.0
  0
VERTEX
  5
676
330
66C
100
AcDbEntity
  8
002
 62
     3
370
     9
100
AcDbVertex
100
AcDb2dVertex
 10
448.010907
 20
290.591808
 30
0.0
  0
VERTEX
  5
677
330
66C
100
AcDbEntity
  8
002
 62
     3
370
     9
100
AcDbVertex
100
AcDb2dVertex
 10
449.573407
 20
292.794933
 30
0.0
  0
VERTEX
  5
678
330
66C
100
AcDbEntity
  8
002
 62
     3
370
     9
100
AcDbVertex
100
AcDb2dVertex
 10
451.135907
 20
294.716808
 30
0.0
  0
VERTEX
  5
679
330
66C
100
AcDbEntity
  8
002
 62
     3
370
     9
100
AcDbVertex
100
AcDb2dVertex
 10
452.698407
 20
296.076183
 30
0.0
  0
VERTEX
  5
67A
330
66C
100
AcDbEntity
  8
002
 62
     3
370
     9
100
AcDbVertex
100
AcDb2dVertex
 10
454.260907
 20
296.591808
 30
0.0
  0
VERTEX
  5
67B
330
66C
100
AcDbEntity
  8
002
 62
     3
370
     9
100
AcDbVertex
100
AcDb2dVertex
 10
455.823407
 20
296.076183
 30
0.0
  0
VERTEX
  5
67C
330
66C
100
AcDbEntity
  8
002
 62
     3
370
     9
100
AcDbVertex
100
AcDb2dVertex
 10
457.385907
 20
294.716808
 30
0.0
  0
VERTEX
  5
67D
330
66C
100
AcDbEntity
  8
002
 62
     3
370
     9
100
AcDbVertex
100
AcDb2dVertex
 10
458.948407
 20
292.794933
 30
0.0
  0
VERTEX
  5
67E
330
66C
100
AcDbEntity
  8
002
 62
     3
370
     9
100
AcDbVertex
100
AcDb2dVertex
 10
460.510907
 20
290.591808
 30
0.0
  0
SEQEND
  5
66D
330
66C
100
AcDbEntity
  8
002
370
     9
  0
POLYLINE
  5
67F
330
1F
100
AcDbEntity
  8
002
 62
     3
370
     9
100
AcDb2dPolyline
 66
     1
 10
0.0
 20
0.0
 30
0.0
  0
VERTEX
  5
681
330
67F
100
AcDbEntity
  8
002
 62
     3
370
     9
100
AcDbVertex
100
AcDb2dVertex
 10
435.510907
 20
302.591808
 30
0.0
  0
VERTEX
  5
682
330
67F
100
AcDbEntity
  8
002
 62
     3
370
     9
100
AcDbVertex
100
AcDb2dVertex
 10
437.073407
 20
300.388683
 30
0.0
  0
VERTEX
  5
683
330
67F
100
AcDbEntity
  8
002
 62
     3
370
     9
100
AcDbVertex
100
AcDb2dVertex
 10
438.635907
 20
298.466808
 30
0.0
  0
VERTEX
  5
684
330
67F
100
AcDbEntity
  8
002
 62
     3
370
     9
100
AcDbVertex
100
AcDb2dVertex
 10
440.198407
 20
297.107433
 30
0.0
  0
VERTEX
  5
685
330
67F
100
AcDbEntity
  8
002
 62
     3
370
     9
100
AcDbVertex
100
AcDb2dVertex
 10
441.760907
 20
296.591808
 30
0.0
  0
VERTEX
  5
686
330
67F
100
AcDbEntity
  8
002
 62
     3
370
     9
100
AcDbVertex
100
AcDb2dVertex
 10
443.323407
 20
297.107433
 30
0.0
  0
VERTEX
  5
687
330
67F
100
AcDbEntity
  8
002
 62
     3
370
     9
100
AcDbVertex
100
AcDb2dVertex
 10
444.885907
 20
298.466808
 30
0.0
  0
VERTEX
  5
688
330
67F
100
AcDbEntity
  8
002
 62
     3
370
     9
100
AcDbVertex
100
AcDb2dVertex
 10
446.448407
 20
300.388683
 30
0.0
  0
VERTEX
  5
689
330
67F
100
AcDbEntity
  8
002
 62
     3
370
     9
100
AcDbVertex
100
AcDb2dVertex
 10
448.010907
 20
302.591808
 30
0.0
  0
VERTEX
  5
68A
330
67F
100
AcDbEntity
  8
002
 62
     3
370
     9
100
AcDbVertex
100
AcDb2dVertex
 10
449.573407
 20
304.794933
 30
0.0
  0
VERTEX
  5
68B
330
67F
100
AcDbEntity
  8
002
 62
     3
370
     9
100
AcDbVertex
100
AcDb2dVertex
 10
451.135907
 20
306.716808
 30
0.0
  0
VERTEX
  5
68C
330
67F
100
AcDbEntity
  8
002
 62
     3
370
     9
100
AcDbVertex
100
AcDb2dVertex
 10
452.698407
 20
308.076183
 30
0.0
  0
VERTEX
  5
68D
330
67F
100
AcDbEntity
  8
002
 62
     3
370
     9
100
AcDbVertex
100
AcDb2dVertex
 10
454.260907
 20
308.591808
 30
0.0
  0
VERTEX
  5
68E
330
67F
100
AcDbEntity
  8
002
 62
     3
370
     9
100
AcDbVertex
100
AcDb2dVertex
 10
455.823407
 20
308.076183
 30
0.0
  0
VERTEX
  5
68F
330
67F
100
AcDbEntity
  8
002
 62
     3
370
     9
100
AcDbVertex
100
AcDb2dVertex
 10
457.385907
 20
306.716808
 30
0.0
  0
VERTEX
  5
690
330
67F
100
AcDbEntity
  8
002
 62
     3
370
     9
100
AcDbVertex
100
AcDb2dVertex
 10
458.948407
 20
304.794933
 30
0.0
  0
VERTEX
  5
691
330
67F
100
AcDbEntity
  8
002
 62
     3
370
     9
100
AcDbVertex
100
AcDb2dVertex
 10
460.510907
 20
302.591808
 30
0.0
  0
SEQEND
  5
680
330
67F
100
AcDbEntity
  8
002
370
     9
  0
LINE
  5
692
330
1F
100
AcDbEntity
  8
002
 62
    40
370
     9
100
AcDbLine
 10
458.960907
 20
331.608906
 30
0.0
 11
458.960907
 21
304.778049
 31
0.0
  0
LINE
  5
693
330
1F
100
AcDbEntity
  8
002
 62
    40
370
     9
100
AcDbLine
 10
458.960907
 20
292.778049
 30
0.0
 11
458.960907
 21
261.57471
 31
0.0
  0
LINE
  5
694
330
1F
100
AcDbEntity
  8
002
 62
    40
370
     9
100
AcDbLine
 10
437.060907
 20
261.57471
 30
0.0
 11
437.060907
 21
288.405567
 31
0.0
  0
LINE
  5
695
330
1F
100
AcDbEntity
  8
002
 62
    40
370
     9
100
AcDbLine
 10
437.060907
 20
300.405567
 30
0.0
 11
437.060907
 21
331.608906
 31
0.0
  0
LINE
  5
696
330
1F
100
AcDbEntity
  8
002
 62
     3
370
    30
100
AcDbLine
 10
460.510907
 20
261.57471
 30
0.0
 11
460.510907
 21
290.591808
 31
0.0
  0
LINE
  5
697
330
1F
100
AcDbEntity
  8
002
 62
     3
370
    30
100
AcDbLine
 10
460.510907
 20
302.591808
 30
0.0
 11
460.510907
 21
331.608906
 31
0.0
  0
LINE
  5
698
330
1F
100
AcDbEntity
  8
002
 62
     3
370
    30
100
AcDbLine
 10
435.510907
 20
331.608906
 30
0.0
 11
435.510907
 21
302.591808
 31
0.0
  0
LINE
  5
699
330
1F
100
AcDbEntity
  8
002
 62
     3
370
    30
100
AcDbLine
 10
435.510907
 20
290.591808
 30
0.0
 11
435.510907
 21
261.57471
 31
0.0
  0
POLYLINE
  5
69A
330
1F
100
AcDbEntity
  8
002
 62
     3
370
     9
100
AcDb2dPolyline
 66
     1
 10
0.0
 20
0.0
 30
0.0
  0
VERTEX
  5
69C
330
69A
100
AcDbEntity
  8
002
 62
     3
370
     9
100
AcDbVertex
100
AcDb2dVertex
 10
650.078907
 20
290.591808
 30
0.0
  0
VERTEX
  5
69D
330
69A
100
AcDbEntity
  8
002
 62
     3
370
     9
100
AcDbVertex
100
AcDb2dVertex
 10
651.641407
 20
288.388683
 30
0.0
  0
VERTEX
  5
69E
330
69A
100
AcDbEntity
  8
002
 62
     3
370
     9
100
AcDbVertex
100
AcDb2dVertex
 10
653.203907
 20
286.466808
 30
0.0
  0
VERTEX
  5
69F
330
69A
100
AcDbEntity
  8
002
 62
     3
370
     9
100
AcDbVertex
100
AcDb2dVertex
 10
654.766407
 20
285.107433
 30
0.0
  0
VERTEX
  5
6A0
330
69A
100
AcDbEntity
  8
002
 62
     3
370
     9
100
AcDbVertex
100
AcDb2dVertex
 10
656.328907
 20
284.591808
 30
0.0
  0
VERTEX
  5
6A1
330
69A
100
AcDbEntity
  8
002
 62
     3
370
     9
100
AcDbVertex
100
AcDb2dVertex
 10
657.891407
 20
285.107433
 30
0.0
  0
VERTEX
  5
6A2
330
69A
100
AcDbEntity
  8
002
 62
     3
370
     9
100
AcDbVertex
100
AcDb2dVertex
 10
659.453907
 20
286.466808
 30
0.0
  0
VERTEX
  5
6A3
330
69A
100
AcDbEntity
  8
002
 62
     3
370
     9
100
AcDbVertex
100
AcDb2dVertex
 10
661.016407
 20
288.388683
 30
0.0
  0
VERTEX
  5
6A4
330
69A
100
AcDbEntity
  8
002
 62
     3
370
     9
100
AcDbVertex
100
AcDb2dVertex
 10
662.578907
 20
290.591808
 30
0.0
  0
VERTEX
  5
6A5
330
69A
100
AcDbEntity
  8
002
 62
     3
370
     9
100
AcDbVertex
100
AcDb2dVertex
 10
664.141407
 20
292.794933
 30
0.0
  0
VERTEX
  5
6A6
330
69A
100
AcDbEntity
  8
002
 62
     3
370
     9
100
AcDbVertex
100
AcDb2dVertex
 10
665.703907
 20
294.716808
 30
0.0
  0
VERTEX
  5
6A7
330
69A
100
AcDbEntity
  8
002
 62
     3
370
     9
100
AcDbVertex
100
AcDb2dVertex
 10
667.266407
 20
296.076183
 30
0.0
  0
VERTEX
  5
6A8
330
69A
100
AcDbEntity
  8
002
 62
     3
370
     9
100
AcDbVertex
100
AcDb2dVertex
 10
668.828907
 20
296.591808
 30
0.0
  0
VERTEX
  5
6A9
330
69A
100
AcDbEntity
  8
002
 62
     3
370
     9
100
AcDbVertex
100
AcDb2dVertex
 10
670.391407
 20
296.076183
 30
0.0
  0
VERTEX
  5
6AA
330
69A
100
AcDbEntity
  8
002
 62
     3
370
     9
100
AcDbVertex
100
AcDb2dVertex
 10
671.953907
 20
294.716808
 30
0.0
  0
VERTEX
  5
6AB
330
69A
100
AcDbEntity
  8
002
 62
     3
370
     9
100
AcDbVertex
100
AcDb2dVertex
 10
673.516407
 20
292.794933
 30
0.0
  0
VERTEX
  5
6AC
330
69A
100
AcDbEntity
  8
002
 62
     3
370
     9
100
AcDbVertex
100
AcDb2dVertex
 10
675.078907
 20
290.591808
 30
0.0
  0
SEQEND
  5
69B
330
69A
100
AcDbEntity
  8
002
370
     9
  0
POLYLINE
  5
6AD
330
1F
100
AcDbEntity
  8
002
 62
     3
370
     9
100
AcDb2dPolyline
 66
     1
 10
0.0
 20
0.0
 30
0.0
  0
VERTEX
  5
6AF
330
6AD
100
AcDbEntity
  8
002
 62
     3
370
     9
100
AcDbVertex
100
AcDb2dVertex
 10
650.078907
 20
302.591808
 30
0.0
  0
VERTEX
  5
6B0
330
6AD
100
AcDbEntity
  8
002
 62
     3
370
     9
100
AcDbVertex
100
AcDb2dVertex
 10
651.641407
 20
300.388683
 30
0.0
  0
VERTEX
  5
6B1
330
6AD
100
AcDbEntity
  8
002
 62
     3
370
     9
100
AcDbVertex
100
AcDb2dVertex
 10
653.203907
 20
298.466808
 30
0.0
  0
VERTEX
  5
6B2
330
6AD
100
AcDbEntity
  8
002
 62
     3
370
     9
100
AcDbVertex
100
AcDb2dVertex
 10
654.766407
 20
297.107433
 30
0.0
  0
VERTEX
  5
6B3
330
6AD
100
AcDbEntity
  8
002
 62
     3
370
     9
100
AcDbVertex
100
AcDb2dVertex
 10
656.328907
 20
296.591808
 30
0.0
  0
VERTEX
  5
6B4
330
6AD
100
AcDbEntity
  8
002
 62
     3
370
     9
100
AcDbVertex
100
AcDb2dVertex
 10
657.891407
 20
297.107433
 30
0.0
  0
VERTEX
  5
6B5
330
6AD
100
AcDbEntity
  8
002
 62
     3
370
     9
100
AcDbVertex
100
AcDb2dVertex
 10
659.453907
 20
298.466808
 30
0.0
  0
VERTEX
  5
6B6
330
6AD
100
AcDbEntity
  8
002
 62
     3
370
     9
100
AcDbVertex
100
AcDb2dVertex
 10
661.016407
 20
300.388683
 30
0.0
  0
VERTEX
  5
6B7
330
6AD
100
AcDbEntity
  8
002
 62
     3
370
     9
100
AcDbVertex
100
AcDb2dVertex
 10
662.578907
 20
302.591808
 30
0.0
  0
VERTEX
  5
6B8
330
6AD
100
AcDbEntity
  8
002
 62
     3
370
     9
100
AcDbVertex
100
AcDb2dVertex
 10
664.141407
 20
304.794933
 30
0.0
  0
VERTEX
  5
6B9
330
6AD
100
AcDbEntity
  8
002
 62
     3
370
     9
100
AcDbVertex
100
AcDb2dVertex
 10
665.703907
 20
306.716808
 30
0.0
  0
VERTEX
  5
6BA
330
6AD
100
AcDbEntity
  8
002
 62
     3
370
     9
100
AcDbVertex
100
AcDb2dVertex
 10
667.266407
 20
308.076183
 30
0.0
  0
VERTEX
  5
6BB
330
6AD
100
AcDbEntity
  8
002
 62
     3
370
     9
100
AcDbVertex
100
AcDb2dVertex
 10
668.828907
 20
308.591808
 30
0.0
  0
VERTEX
  5
6BC
330
6AD
100
AcDbEntity
  8
002
 62
     3
370
     9
100
AcDbVertex
100
AcDb2dVertex
 10
670.391407
 20
308.076183
 30
0.0
  0
VERTEX
  5
6BD
330
6AD
100
AcDbEntity
  8
002
 62
     3
370
     9
100
AcDbVertex
100
AcDb2dVertex
 10
671.953907
 20
306.716808
 30
0.0
  0
VERTEX
  5
6BE
330
6AD
100
AcDbEntity
  8
002
 62
     3
370
     9
100
AcDbVertex
100
AcDb2dVertex
 10
673.516407
 20
304.794933
 30
0.0
  0
VERTEX
  5
6BF
330
6AD
100
AcDbEntity
  8
002
 62
     3
370
     9
100
AcDbVertex
100
AcDb2dVertex
 10
675.078907
 20
302.591808
 30
0.0
  0
SEQEND
  5
6AE
330
6AD
100
AcDbEntity
  8
002
370
     9
  0
LINE
  5
6C0
330
1F
100
AcDbEntity
  8
002
 62
    40
370
     9
100
AcDbLine
 10
673.528907
 20
331.608906
 30
0.0
 11
673.528907
 21
304.778049
 31
0.0
  0
LINE
  5
6C1
330
1F
100
AcDbEntity
  8
002
 62
    40
370
     9
100
AcDbLine
 10
673.528907
 20
292.778049
 30
0.0
 11
673.528907
 21
261.57471
 31
0.0
  0
LINE
  5
6C2
330
1F
100
AcDbEntity
  8
002
 62
    40
370
     9
100
AcDbLine
 10
651.628907
 20
261.57471
 30
0.0
 11
651.628907
 21
288.405567
 31
0.0
  0
LINE
  5
6C3
330
1F
100
AcDbEntity
  8
002
 62
    40
370
     9
100
AcDbLine
 10
651.628907
 20
300.405567
 30
0.0
 11
651.628907
 21
331.608906
 31
0.0
  0
LINE
  5
6C4
330
1F
100
AcDbEntity
  8
002
 62
     3
370
    30
100
AcDbLine
 10
675.078907
 20
261.57471
 30
0.0
 11
675.078907
 21
290.591808
 31
0.0
  0
LINE
  5
6C5
330
1F
100
AcDbEntity
  8
002
 62
     3
370
    30
100
AcDbLine
 10
675.078907
 20
302.591808
 30
0.0
 11
675.078907
 21
331.608906
 31
0.0
  0
LINE
  5
6C6
330
1F
100
AcDbEntity
  8
002
 62
     3
370
    30
100
AcDbLine
 10
650.078907
 20
331.608906
 30
0.0
 11
650.078907
 21
302.591808
 31
0.0
  0
LINE
  5
6C7
330
1F
100
AcDbEntity
  8
002
 62
     3
370
    30
100
AcDbLine
 10
650.078907
 20
290.591808
 30
0.0
 11
650.078907
 21
261.57471
 31
0.0
  0
POLYLINE
  5
6C8
330
1F
100
AcDbEntity
  8
002
 62
     3
370
     9
100
AcDb2dPolyline
 66
     1
 10
0.0
 20
0.0
 30
0.0
  0
VERTEX
  5
6CA
330
6C8
100
AcDbEntity
  8
002
 62
     3
370
     9
100
AcDbVertex
100
AcDb2dVertex
 10
957.372054
 20
296.809148
 30
0.0
  0
VERTEX
  5
6CB
330
6C8
100
AcDbEntity
  8
002
 62
     3
370
     9
100
AcDbVertex
100
AcDb2dVertex
 10
955.809554
 20
299.012273
 30
0.0
  0
VERTEX
  5
6CC
330
6C8
100
AcDbEntity
  8
002
 62
     3
370
     9
100
AcDbVertex
100
AcDb2dVertex
 10
954.247054
 20
300.934148
 30
0.0
  0
VERTEX
  5
6CD
330
6C8
100
AcDbEntity
  8
002
 62
     3
370
     9
100
AcDbVertex
100
AcDb2dVertex
 10
952.684554
 20
302.293523
 30
0.0
  0
VERTEX
  5
6CE
330
6C8
100
AcDbEntity
  8
002
 62
     3
370
     9
100
AcDbVertex
100
AcDb2dVertex
 10
951.122054
 20
302.809148
 30
0.0
  0
VERTEX
  5
6CF
330
6C8
100
AcDbEntity
  8
002
 62
     3
370
     9
100
AcDbVertex
100
AcDb2dVertex
 10
949.559554
 20
302.293523
 30
0.0
  0
VERTEX
  5
6D0
330
6C8
100
AcDbEntity
  8
002
 62
     3
370
     9
100
AcDbVertex
100
AcDb2dVertex
 10
947.997054
 20
300.934148
 30
0.0
  0
VERTEX
  5
6D1
330
6C8
100
AcDbEntity
  8
002
 62
     3
370
     9
100
AcDbVertex
100
AcDb2dVertex
 10
946.434554
 20
299.012273
 30
0.0
  0
VERTEX
  5
6D2
330
6C8
100
AcDbEntity
  8
002
 62
     3
370
     9
100
AcDbVertex
100
AcDb2dVertex
 10
944.872054
 20
296.809148
 30
0.0
  0
VERTEX
  5
6D3
330
6C8
100
AcDbEntity
  8
002
 62
     3
370
     9
100
AcDbVertex
100
AcDb2dVertex
 10
943.309554
 20
294.606023
 30
0.0
  0
VERTEX
  5
6D4
330
6C8
100
AcDbEntity
  8
002
 62
     3
370
     9
100
AcDbVertex
100
AcDb2dVertex
 10
941.747054
 20
292.684148
 30
0.0
  0
VERTEX
  5
6D5
330
6C8
100
AcDbEntity
  8
002
 62
     3
370
     9
100
AcDbVertex
100
AcDb2dVertex
 10
940.184554
 20
291.324773
 30
0.0
  0
VERTEX
  5
6D6
330
6C8
100
AcDbEntity
  8
002
 62
     3
370
     9
100
AcDbVertex
100
AcDb2dVertex
 10
938.622054
 20
290.809148
 30
0.0
  0
VERTEX
  5
6D7
330
6C8
100
AcDbEntity
  8
002
 62
     3
370
     9
100
AcDbVertex
100
AcDb2dVertex
 10
937.059554
 20
291.324773
 30
0.0
  0
VERTEX
  5
6D8
330
6C8
100
AcDbEntity
  8
002
 62
     3
370
     9
100
AcDbVertex
100
AcDb2dVertex
 10
935.497054
 20
292.684148
 30
0.0
  0
VERTEX
  5
6D9
330
6C8
100
AcDbEntity
  8
002
 62
     3
370
     9
100
AcDbVertex
100
AcDb2dVertex
 10
933.934554
 20
294.606023
 30
0.0
  0
VERTEX
  5
6DA
330
6C8
100
AcDbEntity
  8
002
 62
     3
370
     9
100
AcDbVertex
100
AcDb2dVertex
 10
932.372054
 20
296.809148
 30
0.0
  0
SEQEND
  5
6C9
330
6C8
100
AcDbEntity
  8
002
370
     9
  0
POLYLINE
  5
6DB
330
1F
100
AcDbEntity
  8
002
 62
     3
370
     9
100
AcDb2dPolyline
 66
     1
 10
0.0
 20
0.0
 30
0.0
  0
VERTEX
  5
6DD
330
6DB
100
AcDbEntity
  8
002
 62
     3
370
     9
100
AcDbVertex
100
AcDb2dVertex
 10
957.372054
 20
284.809148
 30
0.0
  0
VERTEX
  5
6DE
330
6DB
100
AcDbEntity
  8
002
 62
     3
370
     9
100
AcDbVertex
100
AcDb2dVertex
 10
955.809554
 20
287.012273
 30
0.0
  0
VERTEX
  5
6DF
330
6DB
100
AcDbEntity
  8
002
 62
     3
370
     9
100
AcDbVertex
100
AcDb2dVertex
 10
954.247054
 20
288.934148
 30
0.0
  0
VERTEX
  5
6E0
330
6DB
100
AcDbEntity
  8
002
 62
     3
370
     9
100
AcDbVertex
100
AcDb2dVertex
 10
952.684554
 20
290.293523
 30
0.0
  0
VERTEX
  5
6E1
330
6DB
100
AcDbEntity
  8
002
 62
     3
370
     9
100
AcDbVertex
100
AcDb2dVertex
 10
951.122054
 20
290.809148
 30
0.0
  0
VERTEX
  5
6E2
330
6DB
100
AcDbEntity
  8
002
 62
     3
370
     9
100
AcDbVertex
100
AcDb2dVertex
 10
949.559554
 20
290.293523
 30
0.0
  0
VERTEX
  5
6E3
330
6DB
100
AcDbEntity
  8
002
 62
     3
370
     9
100
AcDbVertex
100
AcDb2dVertex
 10
947.997054
 20
288.934148
 30
0.0
  0
VERTEX
  5
6E4
330
6DB
100
AcDbEntity
  8
002
 62
     3
370
     9
100
AcDbVertex
100
AcDb2dVertex
 10
946.434554
 20
287.012273
 30
0.0
  0
VERTEX
  5
6E5
330
6DB
100
AcDbEntity
  8
002
 62
     3
370
     9
100
AcDbVertex
100
AcDb2dVertex
 10
944.872054
 20
284.809148
 30
0.0
  0
VERTEX
  5
6E6
330
6DB
100
AcDbEntity
  8
002
 62
     3
370
     9
100
AcDbVertex
100
AcDb2dVertex
 10
943.309554
 20
282.606023
 30
0.0
  0
VERTEX
  5
6E7
330
6DB
100
AcDbEntity
  8
002
 62
     3
370
     9
100
AcDbVertex
100
AcDb2dVertex
 10
941.747054
 20
280.684148
 30
0.0
  0
VERTEX
  5
6E8
330
6DB
100
AcDbEntity
  8
002
 62
     3
370
     9
100
AcDbVertex
100
AcDb2dVertex
 10
940.184554
 20
279.324773
 30
0.0
  0
VERTEX
  5
6E9
330
6DB
100
AcDbEntity
  8
002
 62
     3
370
     9
100
AcDbVertex
100
AcDb2dVertex
 10
938.622054
 20
278.809148
 30
0.0
  0
VERTEX
  5
6EA
330
6DB
100
AcDbEntity
  8
002
 62
     3
370
     9
100
AcDbVertex
100
AcDb2dVertex
 10
937.059554
 20
279.324773
 30
0.0
  0
VERTEX
  5
6EB
330
6DB
100
AcDbEntity
  8
002
 62
     3
370
     9
100
AcDbVertex
100
AcDb2dVertex
 10
935.497054
 20
280.684148
 30
0.0
  0
VERTEX
  5
6EC
330
6DB
100
AcDbEntity
  8
002
 62
     3
370
     9
100
AcDbVertex
100
AcDb2dVertex
 10
933.934554
 20
282.606023
 30
0.0
  0
VERTEX
  5
6ED
330
6DB
100
AcDbEntity
  8
002
 62
     3
370
     9
100
AcDbVertex
100
AcDb2dVertex
 10
932.372054
 20
284.809148
 30
0.0
  0
SEQEND
  5
6DC
330
6DB
100
AcDbEntity
  8
002
370
     9
  0
LINE
  5
6EE
330
1F
100
AcDbEntity
  8
002
 62
     3
370
    30
100
AcDbLine
 10
932.372054
 20
257.968886
 30
0.0
 11
932.372054
 21
284.809148
 31
0.0
  0
LINE
  5
6EF
330
1F
100
AcDbEntity
  8
002
 62
     3
370
    30
100
AcDbLine
 10
932.372054
 20
296.809148
 30
0.0
 11
932.372054
 21
323.64941
 31
0.0
  0
LINE
  5
6F0
330
1F
100
AcDbEntity
  8
002
 62
     3
370
    30
100
AcDbLine
 10
957.372054
 20
323.64941
 30
0.0
 11
957.372054
 21
296.809148
 31
0.0
  0
LINE
  5
6F1
330
1F
100
AcDbEntity
  8
002
 62
     3
370
    30
100
AcDbLine
 10
957.372054
 20
284.809148
 30
0.0
 11
957.372054
 21
257.968886
 31
0.0
  0
LINE
  5
6F2
330
1F
100
AcDbEntity
  8
002
 62
    40
370
     9
100
AcDbLine
 10
955.822054
 20
257.968886
 30
0.0
 11
955.822054
 21
286.995389
 31
0.0
  0
LINE
  5
6F3
330
1F
100
AcDbEntity
  8
002
 62
    40
370
     9
100
AcDbLine
 10
955.822054
 20
298.995389
 30
0.0
 11
955.822054
 21
323.64941
 31
0.0
  0
LINE
  5
6F4
330
1F
100
AcDbEntity
  8
002
 62
    40
370
     9
100
AcDbLine
 10
933.922054
 20
323.64941
 30
0.0
 11
933.922054
 21
294.622907
 31
0.0
  0
LINE
  5
6F5
330
1F
100
AcDbEntity
  8
002
 62
    40
370
     9
100
AcDbLine
 10
933.922054
 20
282.622907
 30
0.0
 11
933.922054
 21
257.968886
 31
0.0
  0
POLYLINE
  5
6F6
330
1F
100
AcDbEntity
  8
002
 62
     3
370
     9
100
AcDb2dPolyline
 66
     1
 10
0.0
 20
0.0
 30
0.0
  0
VERTEX
  5
6F8
330
6F6
100
AcDbEntity
  8
002
 62
     3
370
     9
100
AcDbVertex
100
AcDb2dVertex
 10
1157.372054
 20
296.809148
 30
0.0
  0
VERTEX
  5
6F9
330
6F6
100
AcDbEntity
  8
002
 62
     3
370
     9
100
AcDbVertex
100
AcDb2dVertex
 10
1155.809554
 20
299.012273
 30
0.0
  0
VERTEX
  5
6FA
330
6F6
100
AcDbEntity
  8
002
 62
     3
370
     9
100
AcDbVertex
100
AcDb2dVertex
 10
1154.247054
 20
300.934148
 30
0.0
  0
VERTEX
  5
6FB
330
6F6
100
AcDbEntity
  8
002
 62
     3
370
     9
100
AcDbVertex
100
AcDb2dVertex
 10
1152.684554
 20
302.293523
 30
0.0
  0
VERTEX
  5
6FC
330
6F6
100
AcDbEntity
  8
002
 62
     3
370
     9
100
AcDbVertex
100
AcDb2dVertex
 10
1151.122054
 20
302.809148
 30
0.0
  0
VERTEX
  5
6FD
330
6F6
100
AcDbEntity
  8
002
 62
     3
370
     9
100
AcDbVertex
100
AcDb2dVertex
 10
1149.559554
 20
302.293523
 30
0.0
  0
VERTEX
  5
6FE
330
6F6
100
AcDbEntity
  8
002
 62
     3
370
     9
100
AcDbVertex
100
AcDb2dVertex
 10
1147.997054
 20
300.934148
 30
0.0
  0
VERTEX
  5
6FF
330
6F6
100
AcDbEntity
  8
002
 62
     3
370
     9
100
AcDbVertex
100
AcDb2dVertex
 10
1146.434554
 20
299.012273
 30
0.0
  0
VERTEX
  5
700
330
6F6
100
AcDbEntity
  8
002
 62
     3
370
     9
100
AcDbVertex
100
AcDb2dVertex
 10
1144.872054
 20
296.809148
 30
0.0
  0
VERTEX
  5
701
330
6F6
100
AcDbEntity
  8
002
 62
     3
370
     9
100
AcDbVertex
100
AcDb2dVertex
 10
1143.309554
 20
294.606023
 30
0.0
  0
VERTEX
  5
702
330
6F6
100
AcDbEntity
  8
002
 62
     3
370
     9
100
AcDbVertex
100
AcDb2dVertex
 10
1141.747054
 20
292.684148
 30
0.0
  0
VERTEX
  5
703
330
6F6
100
AcDbEntity
  8
002
 62
     3
370
     9
100
AcDbVertex
100
AcDb2dVertex
 10
1140.184554
 20
291.324773
 30
0.0
  0
VERTEX
  5
704
330
6F6
100
AcDbEntity
  8
002
 62
     3
370
     9
100
AcDbVertex
100
AcDb2dVertex
 10
1138.622054
 20
290.809148
 30
0.0
  0
VERTEX
  5
705
330
6F6
100
AcDbEntity
  8
002
 62
     3
370
     9
100
AcDbVertex
100
AcDb2dVertex
 10
1137.059554
 20
291.324773
 30
0.0
  0
VERTEX
  5
706
330
6F6
100
AcDbEntity
  8
002
 62
     3
370
     9
100
AcDbVertex
100
AcDb2dVertex
 10
1135.497054
 20
292.684148
 30
0.0
  0
VERTEX
  5
707
330
6F6
100
AcDbEntity
  8
002
 62
     3
370
     9
100
AcDbVertex
100
AcDb2dVertex
 10
1133.934554
 20
294.606023
 30
0.0
  0
VERTEX
  5
708
330
6F6
100
AcDbEntity
  8
002
 62
     3
370
     9
100
AcDbVertex
100
AcDb2dVertex
 10
1132.372054
 20
296.809148
 30
0.0
  0
SEQEND
  5
6F7
330
6F6
100
AcDbEntity
  8
002
370
     9
  0
POLYLINE
  5
709
330
1F
100
AcDbEntity
  8
002
 62
     3
370
     9
100
AcDb2dPolyline
 66
     1
 10
0.0
 20
0.0
 30
0.0
  0
VERTEX
  5
70B
330
709
100
AcDbEntity
  8
002
 62
     3
370
     9
100
AcDbVertex
100
AcDb2dVertex
 10
1157.372054
 20
284.809148
 30
0.0
  0
VERTEX
  5
70C
330
709
100
AcDbEntity
  8
002
 62
     3
370
     9
100
AcDbVertex
100
AcDb2dVertex
 10
1155.809554
 20
287.012273
 30
0.0
  0
VERTEX
  5
70D
330
709
100
AcDbEntity
  8
002
 62
     3
370
     9
100
AcDbVertex
100
AcDb2dVertex
 10
1154.247054
 20
288.934148
 30
0.0
  0
VERTEX
  5
70E
330
709
100
AcDbEntity
  8
002
 62
     3
370
     9
100
AcDbVertex
100
AcDb2dVertex
 10
1152.684554
 20
290.293523
 30
0.0
  0
VERTEX
  5
70F
330
709
100
AcDbEntity
  8
002
 62
     3
370
     9
100
AcDbVertex
100
AcDb2dVertex
 10
1151.122054
 20
290.809148
 30
0.0
  0
VERTEX
  5
710
330
709
100
AcDbEntity
  8
002
 62
     3
370
     9
100
AcDbVertex
100
AcDb2dVertex
 10
1149.559554
 20
290.293523
 30
0.0
  0
VERTEX
  5
711
330
709
100
AcDbEntity
  8
002
 62
     3
370
     9
100
AcDbVertex
100
AcDb2dVertex
 10
1147.997054
 20
288.934148
 30
0.0
  0
VERTEX
  5
712
330
709
100
AcDbEntity
  8
002
 62
     3
370
     9
100
AcDbVertex
100
AcDb2dVertex
 10
1146.434554
 20
287.012273
 30
0.0
  0
VERTEX
  5
713
330
709
100
AcDbEntity
  8
002
 62
     3
370
     9
100
AcDbVertex
100
AcDb2dVertex
 10
1144.872054
 20
284.809148
 30
0.0
  0
VERTEX
  5
714
330
709
100
AcDbEntity
  8
002
 62
     3
370
     9
100
AcDbVertex
100
AcDb2dVertex
 10
1143.309554
 20
282.606023
 30
0.0
  0
VERTEX
  5
715
330
709
100
AcDbEntity
  8
002
 62
     3
370
     9
100
AcDbVertex
100
AcDb2dVertex
 10
1141.747054
 20
280.684148
 30
0.0
  0
VERTEX
  5
716
330
709
100
AcDbEntity
  8
002
 62
     3
370
     9
100
AcDbVertex
100
AcDb2dVertex
 10
1140.184554
 20
279.324773
 30
0.0
  0
VERTEX
  5
717
330
709
100
AcDbEntity
  8
002
 62
     3
370
     9
100
AcDbVertex
100
AcDb2dVertex
 10
1138.622054
 20
278.809148
 30
0.0
  0
VERTEX
  5
718
330
709
100
AcDbEntity
  8
002
 62
     3
370
     9
100
AcDbVertex
100
AcDb2dVertex
 10
1137.059554
 20
279.324773
 30
0.0
  0
VERTEX
  5
719
330
709
100
AcDbEntity
  8
002
 62
     3
370
     9
100
AcDbVertex
100
AcDb2dVertex
 10
1135.497054
 20
280.684148
 30
0.0
  0
VERTEX
  5
71A
330
709
100
AcDbEntity
  8
002
 62
     3
370
     9
100
AcDbVertex
100
AcDb2dVertex
 10
1133.934554
 20
282.606023
 30
0.0
  0
VERTEX
  5
71B
330
709
100
AcDbEntity
  8
002
 62
     3
370
     9
100
AcDbVertex
100
AcDb2dVertex
 10
1132.372054
 20
284.809148
 30
0.0
  0
SEQEND
  5
70A
330
709
100
AcDbEntity
  8
002
370
     9
  0
LINE
  5
71C
330
1F
100
AcDbEntity
  8
002
 62
    40
370
     9
100
AcDbLine
 10
1155.822054
 20
257.968886
 30
0.0
 11
1155.822054
 21
286.995389
 31
0.0
  0
LINE
  5
71D
330
1F
100
AcDbEntity
  8
002
 62
    40
370
     9
100
AcDbLine
 10
1155.822054
 20
298.995389
 30
0.0
 11
1155.822054
 21
323.64941
 31
0.0
  0
LINE
  5
71E
330
1F
100
AcDbEntity
  8
002
 62
    40
370
     9
100
AcDbLine
 10
1133.922054
 20
323.64941
 30
0.0
 11
1133.922054
 21
294.622907
 31
0.0
  0
LINE
  5
71F
330
1F
100
AcDbEntity
  8
002
 62
    40
370
     9
100
AcDbLine
 10
1133.922054
 20
282.622907
 30
0.0
 11
1133.922054
 21
257.968886
 31
0.0
  0
LINE
  5
720
330
1F
100
AcDbEntity
  8
002
 62
     3
370
    30
100
AcDbLine
 10
1132.372054
 20
257.968886
 30
0.0
 11
1132.372054
 21
284.809148
 31
0.0
  0
LINE
  5
721
330
1F
100
AcDbEntity
  8
002
 62
     3
370
    30
100
AcDbLine
 10
1132.372054
 20
296.809148
 30
0.0
 11
1132.372054
 21
323.64941
 31
0.0
  0
LINE
  5
722
330
1F
100
AcDbEntity
  8
002
 62
     3
370
    30
100
AcDbLine
 10
1157.372054
 20
323.64941
 30
0.0
 11
1157.372054
 21
296.809148
 31
0.0
  0
LINE
  5
723
330
1F
100
AcDbEntity
  8
002
 62
     3
370
    30
100
AcDbLine
 10
1157.372054
 20
284.809148
 30
0.0
 11
1157.372054
 21
257.968886
 31
0.0
  0
CIRCLE
  5
724
330
1F
100
AcDbEntity
  8
002
  6
CENTER
 62
    40
370
     9
100
AcDbCircle
 10
251.195507
 20
191.57471
 30
0.0
 40
28.0
  0
CIRCLE
  5
725
330
1F
100
AcDbEntity
  8
002
 62
     3
370
    30
100
AcDbCircle
 10
251.195507
 20
191.57471
 30
0.0
 40
19.0
  0
CIRCLE
  5
726
330
1F
100
AcDbEntity
  8
002
  6
CENTER
 62
    40
370
     9
100
AcDbCircle
 10
707.030507
 20
191.57471
 30
0.0
 40
28.0
  0
CIRCLE
  5
727
330
1F
100
AcDbEntity
  8
002
 62
     3
370
    30
100
AcDbCircle
 10
707.030507
 20
191.57471
 30
0.0
 40
19.0
  0
CIRCLE
  5
728
330
1F
100
AcDbEntity
  8
002
  6
CENTER
 62
    40
370
     9
100
AcDbCircle
 10
989.324054
 20
380.64941
 30
0.0
 40
28.0
  0
CIRCLE
  5
729
330
1F
100
AcDbEntity
  8
002
 62
     3
370
    30
100
AcDbCircle
 10
989.324054
 20
380.64941
 30
0.0
 40
19.0
  0
CIRCLE
  5
72A
330
1F
100
AcDbEntity
  8
002
  6
CENTER
 62
    40
370
     9
100
AcDbCircle
 10
1189.324054
 20
380.64941
 30
0.0
 40
28.0
  0
CIRCLE
  5
72B
330
1F
100
AcDbEntity
  8
002
 62
     3
370
    30
100
AcDbCircle
 10
1189.324054
 20
380.64941
 30
0.0
 40
19.0
  0
LINE
  5
72C
330
1F
100
AcDbEntity
  8
002
 62
     3
370
    30
100
AcDbLine
 10
270.195007
 20
1125.330451
 30
0.0
 11
270.195007
 21
1123.330451
 31
0.0
  0
LINE
  5
72D
330
1F
100
AcDbEntity
  8
002
 62
     3
370
    30
100
AcDbLine
 10
232.195007
 20
1125.330451
 30
0.0
 11
232.195007
 21
1123.330451
 31
0.0
  0
LINE
  5
72E
330
1F
100
AcDbEntity
  8
002
 62
     3
370
    30
100
AcDbLine
 10
232.195007
 20
1125.330451
 30
0.0
 11
270.195007
 21
1125.330451
 31
0.0
  0
LINE
  5
72F
330
1F
100
AcDbEntity
  8
002
  6
CENTER
 62
    40
370
     9
100
AcDbLine
 10
270.994007
 20
1126.686112
 30
0.0
 11
270.994007
 21
1115.918516
 31
0.0
  0
LINE
  5
730
330
1F
100
AcDbEntity
  8
002
  6
CENTER
 62
    40
370
     9
100
AcDbLine
 10
231.396007
 20
1126.686112
 30
0.0
 11
231.396007
 21
1115.918516
 31
0.0
  0
LINE
  5
731
330
1F
100
AcDbEntity
  8
002
 62
     3
370
    30
100
AcDbLine
 10
243.195007
 20
1128.330451
 30
0.0
 11
243.195007
 21
1125.330451
 31
0.0
  0
LINE
  5
732
330
1F
100
AcDbEntity
  8
002
 62
     3
370
    30
100
AcDbLine
 10
259.195007
 20
1125.330451
 30
0.0
 11
259.195007
 21
1128.330451
 31
0.0
  0
LINE
  5
733
330
1F
100
AcDbEntity
  8
002
 62
     3
370
    30
100
AcDbLine
 10
270.195007
 20
1001.330451
 30
0.0
 11
270.195007
 21
1003.330451
 31
0.0
  0
LINE
  5
734
330
1F
100
AcDbEntity
  8
002
 62
     3
370
    30
100
AcDbLine
 10
232.195007
 20
1001.330451
 30
0.0
 11
232.195007
 21
1003.330451
 31
0.0
  0
LINE
  5
735
330
1F
100
AcDbEntity
  8
002
 62
     3
370
    30
100
AcDbLine
 10
232.195007
 20
1001.330451
 30
0.0
 11
270.195007
 21
1001.330451
 31
0.0
  0
LINE
  5
736
330
1F
100
AcDbEntity
  8
002
  6
CENTER
 62
    40
370
     9
100
AcDbLine
 10
270.994007
 20
999.974789
 30
0.0
 11
270.994007
 21
1010.742385
 31
0.0
  0
LINE
  5
737
330
1F
100
AcDbEntity
  8
002
  6
CENTER
 62
    40
370
     9
100
AcDbLine
 10
231.396007
 20
999.974789
 30
0.0
 11
231.396007
 21
1010.742385
 31
0.0
  0
LINE
  5
738
330
1F
100
AcDbEntity
  8
002
 62
     3
370
    30
100
AcDbLine
 10
259.195007
 20
1001.330451
 30
0.0
 11
259.195007
 21
998.330451
 31
0.0
  0
LINE
  5
739
330
1F
100
AcDbEntity
  8
002
 62
     3
370
    30
100
AcDbLine
 10
243.195007
 20
998.330451
 30
0.0
 11
243.195007
 21
1001.330451
 31
0.0
  0
LINE
  5
73A
330
1F
100
AcDbEntity
  8
002
 62
     3
370
    30
100
AcDbLine
 10
510.010507
 20
172.57471
 30
0.0
 11
508.010507
 21
172.57471
 31
0.0
  0
LINE
  5
73B
330
1F
100
AcDbEntity
  8
002
 62
     3
370
    30
100
AcDbLine
 10
510.010507
 20
210.57471
 30
0.0
 11
508.010507
 21
210.57471
 31
0.0
  0
LINE
  5
73C
330
1F
100
AcDbEntity
  8
002
 62
     3
370
    30
100
AcDbLine
 10
510.010507
 20
210.57471
 30
0.0
 11
510.010507
 21
172.57471
 31
0.0
  0
LINE
  5
73D
330
1F
100
AcDbEntity
  8
002
  6
CENTER
 62
    40
370
     9
100
AcDbLine
 10
511.366169
 20
171.77571
 30
0.0
 11
500.598573
 21
171.77571
 31
0.0
  0
LINE
  5
73E
330
1F
100
AcDbEntity
  8
002
  6
CENTER
 62
    40
370
     9
100
AcDbLine
 10
511.366169
 20
211.37371
 30
0.0
 11
500.598573
 21
211.37371
 31
0.0
  0
LINE
  5
73F
330
1F
100
AcDbEntity
  8
002
 62
     3
370
    30
100
AcDbLine
 10
513.010507
 20
199.57471
 30
0.0
 11
510.010507
 21
199.57471
 31
0.0
  0
LINE
  5
740
330
1F
100
AcDbEntity
  8
002
 62
     3
370
    30
100
AcDbLine
 10
510.010507
 20
183.57471
 30
0.0
 11
513.010507
 21
183.57471
 31
0.0
  0
LINE
  5
741
330
1F
100
AcDbEntity
  8
002
 62
     3
370
    30
100
AcDbLine
 10
386.010507
 20
172.57471
 30
0.0
 11
388.010507
 21
172.57471
 31
0.0
  0
LINE
  5
742
330
1F
100
AcDbEntity
  8
002
 62
     3
370
    30
100
AcDbLine
 10
386.010507
 20
210.57471
 30
0.0
 11
388.010507
 21
210.57471
 31
0.0
  0
LINE
  5
743
330
1F
100
AcDbEntity
  8
002
 62
     3
370
    30
100
AcDbLine
 10
386.010507
 20
210.57471
 30
0.0
 11
386.010507
 21
172.57471
 31
0.0
  0
LINE
  5
744
330
1F
100
AcDbEntity
  8
002
  6
CENTER
 62
    40
370
     9
100
AcDbLine
 10
384.654846
 20
171.77571
 30
0.0
 11
395.422442
 21
171.77571
 31
0.0
  0
LINE
  5
745
330
1F
100
AcDbEntity
  8
002
  6
CENTER
 62
    40
370
     9
100
AcDbLine
 10
384.654846
 20
211.37371
 30
0.0
 11
395.422442
 21
211.37371
 31
0.0
  0
LINE
  5
746
330
1F
100
AcDbEntity
  8
002
 62
     3
370
    30
100
AcDbLine
 10
383.010507
 20
199.57471
 30
0.0
 11
386.010507
 21
199.57471
 31
0.0
  0
LINE
  5
747
330
1F
100
AcDbEntity
  8
002
 62
     3
370
    30
100
AcDbLine
 10
386.010507
 20
183.57471
 30
0.0
 11
383.010507
 21
183.57471
 31
0.0
  0
LINE
  5
748
330
1F
100
AcDbEntity
  8
003
  6
CENTER
 62
    40
370
     9
100
AcDbLine
 10
448.010507
 20
84.202668
 30
0.0
 11
448.010507
 21
509.575063
 31
0.0
  0
LINE
  5
749
330
1F
100
AcDbEntity
  8
002
  6
CENTER
 62
    40
370
     9
100
AcDbLine
 10
206.743507
 20
86.57471
 30
0.0
 11
206.743507
 21
501.57451
 31
0.0
  0
LINE
  5
74A
330
1F
100
AcDbEntity
  8
002
  6
CENTER
 62
    40
370
     9
100
AcDbLine
 10
662.578507
 20
86.57471
 30
0.0
 11
662.578507
 21
501.57451
 31
0.0
  0
LINE
  5
74B
330
1F
100
AcDbEntity
  8
002
  6
CENTER
 62
    40
370
     9
100
AcDbLine
 10
944.872054
 20
510.64941
 30
0.0
 11
944.872054
 21
70.52692
 31
0.0
  0
LINE
  5
74C
330
1F
100
AcDbEntity
  8
002
  6
CENTER
 62
    40
370
     9
100
AcDbLine
 10
1144.872054
 20
510.64941
 30
0.0
 11
1144.872054
 21
70.52692
 31
0.0
  0
ENDSEC
  0
SECTION
  2
OBJECTS
  0
DICTIONARY
  5
C
330
0
100
AcDbDictionary
281
     1
  3
ACAD_GROUP
350
D
  3
ACAD_LAYOUT
350
1A
  3
ACAD_MLEADERSTYLE
350
74F
  3
ACAD_MLINESTYLE
350
17
  3
ACAD_PLOTSETTINGS
350
19
  3
ACAD_PLOTSTYLENAME
350
E
  3
ACAD_VISUALSTYLE
350
2A
  3
AcDbVariableDictionary
350
74D
  0
DICTIONARY
  5
D
102
{ACAD_REACTORS
330
C
102
}
330
C
100
AcDbDictionary
281
     1
  0
DICTIONARY
  5
1A
102
{ACAD_REACTORS
330
C
102
}
330
C
100
AcDbDictionary
281
     1
  3
Layout1
350
1E
  3
Layout2
350
26
  3
Model
350
22
  0
DICTIONARY
  5
74F
102
{ACAD_REACTORS
330
C
102
}
330
C
100
AcDbDictionary
281
     1
  0
DICTIONARY
  5
17
102
{ACAD_REACTORS
330
C
102
}
330
C
100
AcDbDictionary
281
     1
  3
Standard
350
18
  0
DICTIONARY
  5
19
102
{ACAD_REACTORS
330
C
102
}
330
C
100
AcDbDictionary
281
     1
  0
ACDBDICTIONARYWDFLT
  5
E
102
{ACAD_REACTORS
330
C
102
}
330
C
100
AcDbDictionary
281
     1
  3
Normal
350
F
100
AcDbDictionaryWithDefault
340
F
  0
DICTIONARY
  5
2A
102
{ACAD_REACTORS
330
C
102
}
330
C
100
AcDbDictionary
281
     1
  3
2dWireframe
350
2F
  3
3D Hidden
350
31
  3
3dWireframe
350
30
  3
Basic
350
32
  3
Brighten
350
36
  3
ColorChange
350
3A
  3
Conceptual
350
34
  3
Dim
350
35
  3
Facepattern
350
39
  3
Flat
350
2B
  3
FlatWithEdges
350
2C
  3
Gouraud
350
2D
  3
GouraudWithEdges
350
2E
  3
Linepattern
350
38
  3
Realistic
350
33
  3
Thicken
350
37
  0
DICTIONARY
  5
74D
102
{ACAD_REACTORS
330
C
102
}
330
C
100
AcDbDictionary
281
     1
  3
PSOLHEIGHT
350
751
  3
PSOLWIDTH
350
750
  0
LAYOUT
  5
1E
102
{ACAD_REACTORS
330
1A
102
}
330
1A
100
AcDbPlotSettings
  1

  2
none_device
  4

  6

 40
0.0
 41
0.0
 42
0.0
 43
0.0
 44
0.0
 45
0.0
 46
0.0
 47
0.0
 48
0.0
 49
0.0
140
0.0
141
0.0
142
1.0
143
1.0
 70
   688
 72
     0
 73
     0
 74
     5
  7

 75
    16
147
1.0
148
0.0
149
0.0
100
AcDbLayout
  1
Layout1
 70
     1
 71
     1
 10
0.0
 20
0.0
 11
12.0
 21
9.0
 12
0.0
 22
0.0
 32
0.0
 14
1.000000E+20
 24
1.000000E+20
 34
0.0
 15
-1.000000E+20
 25
-1.000000E+20
 35
0.0
146
0.0
 13
0.0
 23
0.0
 33
0.0
 16
1.0
 26
0.0
 36
0.0
 17
0.0
 27
1.0
 37
0.0
 76
     0
330
1B
  0
LAYOUT
  5
26
102
{ACAD_REACTORS
330
1A
102
}
330
1A
100
AcDbPlotSettings
  1

  2
none_device
  4

  6

 40
0.0
 41
0.0
 42
0.0
 43
0.0
 44
0.0
 45
0.0
 46
0.0
 47
0.0
 48
0.0
 49
0.0
140
0.0
141
0.0
142
1.0
143
1.0
 70
   688
 72
     0
 73
     0
 74
     5
  7

 75
    16
147
1.0
148
0.0
149
0.0
100
AcDbLayout
  1
Layout2
 70
     1
 71
     2
 10
0.0
 20
0.0
 11
0.0
 21
0.0
 12
0.0
 22
0.0
 32
0.0
 14
0.0
 24
0.0
 34
0.0
 15
0.0
 25
0.0
 35
0.0
146
0.0
 13
0.0
 23
0.0
 33
0.0
 16
1.0
 26
0.0
 36
0.0
 17
0.0
 27
1.0
 37
0.0
 76
     0
330
23
  0
LAYOUT
  5
22
102
{ACAD_REACTORS
330
1A
102
}
330
1A
100
AcDbPlotSettings
  1

  2
none_device
  4

  6

 40
0.0
 41
0.0
 42
0.0
 43
0.0
 44
0.0
 45
0.0
 46
0.0
 47
0.0
 48
0.0
 49
0.0
140
0.0
141
0.0
142
1.0
143
1.0
 70
  1712
 72
     0
 73
     0
 74
     0
  7

 75
     0
147
1.0
148
0.0
149
0.0
100
AcDbLayout
  1
Model
 70
     1
 71
     0
 10
0.0
 20
0.0
 11
12.0
 21
9.0
 12
0.0
 22
0.0
 32
0.0
 14
129.173462
 24
70.526855
 34
0.0
 15
1243.324097
 25
1160.68042
 35
0.0
146
0.0
 13
0.0
 23
0.0
 33
0.0
 16
1.0
 26
0.0
 36
0.0
 17
0.0
 27
1.0
 37
0.0
 76
     0
330
1F
331
29
  0
MLINESTYLE
  5
18
102
{ACAD_REACTORS
330
17
102
}
330
17
100
AcDbMlineStyle
  2
Standard
 70
     0
  3

 62
   256
 51
90.0
 52
90.0
 71
     2
 49
0.5
 62
   256
  6
BYLAYER
 49
-0.5
 62
   256
  6
BYLAYER
  0
ACDBPLACEHOLDER
  5
F
102
{ACAD_REACTORS
330
E
102
}
330
E
  0
VISUALSTYLE
  5
2F
102
{ACAD_REACTORS
330
2A
102
}
330
2A
100
AcDbVisualStyle
  2
2dWireframe
 70
     4
 71
     0
 72
     2
 73
     0
 90
        0
 40
-0.6
 41
-30.0
 62
     5
 63
     7
 74
     1
 91
        4
 64
     7
 65
   257
 75
     1
175
     1
 42
1.0
 92
        0
 66
   257
 43
1.0
 76
     1
 77
     6
 78
     2
 67
     7
 79
     5
170
     0
171
     0
290
     0
174
     0
 93
        1
 44
0.0
173
     0
291
     0
 45
0.0
1001
ACAD
1000
AcDbSavedByObjectVersion
1070
     0
  0
VISUALSTYLE
  5
31
102
{ACAD_REACTORS
330
2A
102
}
330
2A
100
AcDbVisualStyle
  2
3D Hidden
 70
     6
 71
     1
 72
     2
 73
     2
 90
        0
 40
-0.6
 41
-30.0
 62
     5
 63
     7
 74
     2
 91
        2
 64
     7
 65
   257
 75
     2
175
     1
 42
40.0
 92
        0
 66
   257
 43
1.0
 76
     1
 77
     6
 78
     2
 67
     7
 79
     3
170
     0
171
     0
290
     0
174
     0
 93
        1
 44
0.0
173
     0
291
     0
 45
0.0
1001
ACAD
1000
AcDbSavedByObjectVersion
1070
     0
  0
VISUALSTYLE
  5
30
102
{ACAD_REACTORS
330
2A
102
}
330
2A
100
AcDbVisualStyle
  2
3dWireframe
 70
     5
 71
     0
 72
     2
 73
     0
 90
        0
 40
-0.6
 41
-30.0
 62
     5
 63
     7
 74
     1
 91
        4
 64
     7
 65
   257
 75
     1
175
     1
 42
1.0
 92
        0
 66
   257
 43
1.0
 76
     1
 77
     6
 78
     2
 67
     7
 79
     5
170
     0
171
     0
290
     0
174
     0
 93
        1
 44
0.0
173
     0
291
     0
 45
0.0
1001
ACAD
1000
AcDbSavedByObjectVersion
1070
     0
  0
VISUALSTYLE
  5
32
102
{ACAD_REACTORS
330
2A
102
}
330
2A
100
AcDbVisualStyle
  2
Basic
 70
     7
 71
     1
 72
     0
 73
     1
 90
        0
 40
-0.6
 41
-30.0
 62
     5
 63
     7
 74
     0
 91
        4
 64
     7
 65
   257
 75
     1
175
     1
 42
1.0
 92
        8
 66
     7
 43
1.0
 76
     1
 77
     6
 78
     2
 67
     7
 79
     5
170
     0
171
     0
290
     0
174
     0
 93
        1
 44
0.0
173
     0
291
     1
 45
0.0
1001
ACAD
1000
AcDbSavedByObjectVersion
1070
     0
  0
VISUALSTYLE
  5
36
102
{ACAD_REACTORS
330
2A
102
}
330
2A
100
AcDbVisualStyle
  2
Brighten
 70
    12
 71
     2
 72
     2
 73
     0
 90
        0
 40
-0.6
 41
-30.0
 62
     5
 63
     7
 74
     1
 91
        4
 64
     7
 65
   257
 75
     1
175
     1
 42
1.0
 92
        8
 66
     7
 43
1.0
 76
     1
 77
     6
 78
     2
 67
     7
 79
     5
170
     0
171
     0
290
     0
174
     0
 93
        1
 44
50.0
173
     0
291
     1
 45
0.0
1001
ACAD
1000
AcDbSavedByObjectVersion
1070
     0
  0
VISUALSTYLE
  5
3A
102
{ACAD_REACTORS
330
2A
102
}
330
2A
100
AcDbVisualStyle
  2
ColorChange
 70
    16
 71
     2
 72
     2
 73
     3
 90
        0
 40
-0.6
 41
-30.0
 62
     5
 63
     8
 74
     1
 91
        4
 64
     7
 65
   257
 75
     1
175
     1
 42
1.0
 92
        8
 66
     8
 43
1.0
 76
     1
 77
     6
 78
     2
 67
     7
 79
     5
170
     0
171
     0
290
     0
174
     0
 93
        1
 44
0.0
173
     0
291
     1
 45
0.0
1001
ACAD
1000
AcDbSavedByObjectVersion
1070
     0
  0
VISUALSTYLE
  5
34
102
{ACAD_REACTORS
330
2A
102
}
330
2A
100
AcDbVisualStyle
  2
Conceptual
 70
     9
 71
     3
 72
     2
 73
     0
 90
        0
 40
-0.6
 41
-30.0
 62
     5
 63
     7
 74
     2
 91
        2
 64
     7
 65
   257
 75
     1
175
     1
 42
40.0
 92
        8
 66
     7
 43
1.0
 76
     1
 77
     6
 78
     2
 67
     7
 79
     3
170
     0
171
     0
290
     0
174
     0
 93
        1
 44
0.0
173
     0
291
     0
 45
0.0
1001
ACAD
1000
AcDbSavedByObjectVersion
1070
     0
  0
VISUALSTYLE
  5
35
102
{ACAD_REACTORS
330
2A
102
}
330
2A
100
AcDbVisualStyle
  2
Dim
 70
    11
 71
     2
 72
     2
 73
     0
 90
        0
 40
-0.6
 41
-30.0
 62
     5
 63
     7
 74
     1
 91
        4
 64
     7
 65
   257
 75
     1
175
     1
 42
1.0
 92
        8
 66
     7
 43
1.0
 76
     1
 77
     6
 78
     2
 67
     7
 79
     5
170
     0
171
     0
290
     0
174
     0
 93
        1
 44
-50.0
173
     0
291
     1
 45
0.0
1001
ACAD
1000
AcDbSavedByObjectVersion
1070
     0
  0
VISUALSTYLE
  5
39
102
{ACAD_REACTORS
330
2A
102
}
330
2A
100
AcDbVisualStyle
  2
Facepattern
 70
    15
 71
     2
 72
     2
 73
     0
 90
        0
 40
-0.6
 41
-30.0
 62
     5
 63
     7
 74
     1
 91
        4
 64
     7
 65
   257
 75
     1
175
     1
 42
1.0
 92
        8
 66
     7
 43
1.0
 76
     1
 77
     6
 78
     2
 67
     7
 79
     5
170
     0
171
     0
290
     0
174
     0
 93
        1
 44
0.0
173
     0
291
     1
 45
0.0
1001
ACAD
1000
AcDbSavedByObjectVersion
1070
     0
  0
VISUALSTYLE
  5
2B
102
{ACAD_REACTORS
330
2A
102
}
330
2A
100
AcDbVisualStyle
  2
Flat
 70
     0
 71
     2
 72
     1
 73
     1
 90
        2
 40
-0.6
 41
30.0
 62
     5
 63
     7
 74
     0
 91
        4
 64
     7
 65
   257
 75
     1
175
     1
 42
1.0
 92
        8
 66
     7
 43
1.0
 76
     1
 77
     6
 78
     2
 67
     7
 79
     5
170
     0
171
     0
290
     0
174
     0
 93
       13
 44
0.0
173
     0
291
     1
 45
0.0
1001
ACAD
1000
AcDbSavedByObjectVersion
1070
     0
  0
VISUALSTYLE
  5
2C
102
{ACAD_REACTORS
330
2A
102
}
330
2A
100
AcDbVisualStyle
  2
FlatWithEdges
 70
     1
 71
     2
 72
     1
 73
     1
 90
        2
 40
-0.6
 41
30.0
 62
     5
 63
     7
 74
     1
 91
        4
 64
     7
 65
   257
 75
     1
175
     1
 42
1.0
 92
        0
 66
   257
 43
1.0
 76
     1
 77
     6
 78
     2
 67
     7
 79
     5
170
     0
171
     0
290
     0
174
     0
 93
       13
 44
0.0
173
     0
291
     1
 45
0.0
1001
ACAD
1000
AcDbSavedByObjectVersion
1070
     0
  0
VISUALSTYLE
  5
2D
102
{ACAD_REACTORS
330
2A
102
}
330
2A
100
AcDbVisualStyle
  2
Gouraud
 70
     2
 71
     2
 72
     2
 73
     1
 90
        2
 40
-0.6
 41
30.0
 62
     5
 63
     7
 74
     0
 91
        4
 64
     7
 65
   257
 75
     1
175
     1
 42
1.0
 92
        0
 66
     7
 43
1.0
 76
     1
 77
     6
 78
     2
 67
     7
 79
     5
170
     0
171
     0
290
     0
174
     0
 93
       13
 44
0.0
173
     0
291
     1
 45
0.0
1001
ACAD
1000
AcDbSavedByObjectVersion
1070
     0
  0
VISUALSTYLE
  5
2E
102
{ACAD_REACTORS
330
2A
102
}
330
2A
100
AcDbVisualStyle
  2
GouraudWithEdges
 70
     3
 71
     2
 72
     2
 73
     1
 90
        2
 40
-0.6
 41
30.0
 62
     5
 63
     7
 74
     1
 91
        4
 64
     7
 65
   257
 75
     1
175
     1
 42
1.0
 92
        0
 66
   257
 43
1.0
 76
     1
 77
     6
 78
     2
 67
     7
 79
     5
170
     0
171
     0
290
     0
174
     0
 93
       13
 44
0.0
173
     0
291
     1
 45
0.0
1001
ACAD
1000
AcDbSavedByObjectVersion
1070
     0
  0
VISUALSTYLE
  5
38
102
{ACAD_REACTORS
330
2A
102
}
330
2A
100
AcDbVisualStyle
  2
Linepattern
 70
    14
 71
     2
 72
     2
 73
     0
 90
        0
 40
-0.6
 41
-30.0
 62
     5
 63
     7
 74
     1
 91
        4
 64
     7
 65
   257
 75
     7
175
     7
 42
1.0
 92
        8
 66
     7
 43
1.0
 76
     1
 77
     6
 78
     2
 67
     7
 79
     5
170
     0
171
     0
290
     0
174
     0
 93
        1
 44
0.0
173
     0
291
     1
 45
0.0
1001
ACAD
1000
AcDbSavedByObjectVersion
1070
     0
  0
VISUALSTYLE
  5
33
102
{ACAD_REACTORS
330
2A
102
}
330
2A
100
AcDbVisualStyle
  2
Realistic
 70
     8
 71
     2
 72
     2
 73
     0
 90
        0
 40
-0.6
 41
-30.0
 62
     5
 63
     7
 74
     1
 91
        0
 64
     7
 65
   257
 75
     1
175
     1
 42
1.0
 92
        8
 66
     8
 43
1.0
 76
     1
 77
     6
 78
     2
 67
     7
 79
     5
170
     0
171
     0
290
     0
174
     0
 93
       13
 44
0.0
173
     0
291
     0
 45
0.0
1001
ACAD
1000
AcDbSavedByObjectVersion
1070
     0
  0
VISUALSTYLE
  5
37
102
{ACAD_REACTORS
330
2A
102
}
330
2A
100
AcDbVisualStyle
  2
Thicken
 70
    13
 71
     2
 72
     2
 73
     0
 90
        0
 40
-0.6
 41
-30.0
 62
     5
 63
     7
 74
     1
 91
        4
 64
     7
 65
   257
 75
     1
175
     1
 42
1.0
 92
       12
 66
     7
 43
1.0
 76
     1
 77
     6
 78
     2
 67
     7
 79
     5
170
     0
171
     0
290
     0
174
     0
 93
        1
 44
0.0
173
     0
291
     1
 45
0.0
1001
ACAD
1000
AcDbSavedByObjectVersion
1070
     0
  0
DICTIONARYVAR
  5
751
102
{ACAD_REACTORS
330
74D
102
}
330
74D
100
DictionaryVariables
280
     0
  1
80.000000
  0
DICTIONARYVAR
  5
750
102
{ACAD_REACTORS
330
74D
102
}
330
74D
100
DictionaryVariables
280
     0
  1
5.000000
  0
ENDSEC
  0
EOF
