  0
SECTION
  2
HEADER
  9
$ACADVER
  1
AC1015
  9
$ACADMAINTVER
 70
     6
  9
$DWGCODEPAGE
  3
ANSI_932
  9
$INSBASE
 10
0.0
 20
0.0
 30
0.0
  9
$EXTMIN
 10
222.01416
 20
55.464478
 30
0.0
  9
$EXTMAX
 10
1499.608643
 20
1633.950073
 30
0.0
  9
$LIMMIN
 10
0.0
 20
0.0
  9
$LIMMAX
 10
12.0
 20
9.0
  9
$ORTHOMODE
 70
     0
  9
$REGENMODE
 70
     1
  9
$FILLMODE
 70
     1
  9
$QTEXTMODE
 70
     0
  9
$MIRRTEXT
 70
     1
  9
$LTSCALE
 40
20.3073
  9
$ATTMODE
 70
     1
  9
$TEXTSIZE
 40
3.2
  9
$TRACEWID
 40
1.0
  9
$TEXTSTYLE
  7
Standard
  9
$CLAYER
  8
0
  9
$CELTYPE
  6
ByLayer
  9
$CECOLOR
 62
   256
  9
$CELTSCALE
 40
1.0
  9
$DISPSILH
 70
     0
  9
$DIMSCALE
 40
1.0
  9
$DIMASZ
 40
2.5
  9
$DIMEXO
 40
0.625
  9
$DIMDLI
 40
3.75
  9
$DIMRND
 40
0.0
  9
$DIMDLE
 40
0.0
  9
$DIMEXE
 40
1.25
  9
$DIMTP
 40
0.0
  9
$DIMTM
 40
0.0
  9
$DIMTXT
 40
2.5
  9
$DIMCEN
 40
0.09
  9
$DIMTSZ
 40
0.0
  9
$DIMTOL
 70
     0
  9
$DIMLIM
 70
     0
  9
$DIMTIH
 70
     0
  9
$DIMTOH
 70
     0
  9
$DIMSE1
 70
     0
  9
$DIMSE2
 70
     0
  9
$DIMTAD
 70
     0
  9
$DIMZIN
 70
     8
  9
$DIMBLK
  1

  9
$DIMASO
 70
     1
  9
$DIMSHO
 70
     0
  9
$DIMPOST
  1

  9
$DIMAPOST
  1

  9
$DIMALT
 70
     0
  9
$DIMALTD
 70
     3
  9
$DIMALTF
 40
0.03937
  9
$DIMLFAC
 40
1.0
  9
$DIMTOFL
 70
     1
  9
$DIMTVP
 40
0.0
  9
$DIMTIX
 70
     0
  9
$DIMSOXD
 70
     0
  9
$DIMSAH
 70
     0
  9
$DIMBLK1
  1

  9
$DIMBLK2
  1

  9
$DIMSTYLE
  2
ISO-25
  9
$DIMCLRD
 70
     0
  9
$DIMCLRE
 70
     0
  9
$DIMCLRT
 70
     0
  9
$DIMTFAC
 40
1.0
  9
$DIMGAP
 40
0.625
  9
$DIMJUST
 70
     0
  9
$DIMSD1
 70
     0
  9
$DIMSD2
 70
     0
  9
$DIMTOLJ
 70
     0
  9
$DIMTZIN
 70
     8
  9
$DIMALTZ
 70
     0
  9
$DIMALTTZ
 70
     0
  9
$DIMUPT
 70
     0
  9
$DIMDEC
 70
     2
  9
$DIMTDEC
 70
     2
  9
$DIMALTU
 70
     2
  9
$DIMALTTD
 70
     3
  9
$DIMTXSTY
  7
Standard
  9
$DIMAUNIT
 70
     0
  9
$DIMADEC
 70
     0
  9
$DIMALTRND
 40
0.0
  9
$DIMAZIN
 70
     0
  9
$DIMDSEP
 70
    44
  9
$DIMATFIT
 70
     3
  9
$DIMFRAC
 70
     0
  9
$DIMLDRBLK
  1

  9
$DIMLUNIT
 70
     2
  9
$DIMLWD
 70
    -2
  9
$DIMLWE
 70
    -2
  9
$DIMTMOVE
 70
     0
  9
$LUNITS
 70
     2
  9
$LUPREC
 70
     4
  9
$SKETCHINC
 40
1.0
  9
$FILLETRAD
 40
0.0
  9
$AUNITS
 70
     0
  9
$AUPREC
 70
     0
  9
$MENU
  1
.
  9
$ELEVATION
 40
0.0
  9
$PELEVATION
 40
0.0
  9
$THICKNESS
 40
0.0
  9
$LIMCHECK
 70
     0
  9
$CHAMFERA
 40
10.0
  9
$CHAMFERB
 40
10.0
  9
$CHAMFERC
 40
20.0
  9
$CHAMFERD
 40
0.0
  9
$SKPOLY
 70
     0
  9
$TDCREATE
 40
2455649.657139213
  9
$TDUCREATE
 40
2455649.282139213
  9
$TDUPDATE
 40
2455649.657139224
  9
$TDUUPDATE
 40
2455649.282139224
  9
$TDINDWG
 40
0.0000000116
  9
$TDUSRTIMER
 40
0.0000000116
  9
$USRTIMER
 70
     1
  9
$ANGBASE
 50
0.0
  9
$ANGDIR
 70
     0
  9
$PDMODE
 70
     0
  9
$PDSIZE
 40
0.0
  9
$PLINEWID
 40
0.0
  9
$SPLFRAME
 70
     0
  9
$SPLINETYPE
 70
     6
  9
$SPLINESEGS
 70
     8
  9
$HANDSEED
  5
7AC
  9
$SURFTAB1
 70
     6
  9
$SURFTAB2
 70
     6
  9
$SURFTYPE
 70
     6
  9
$SURFU
 70
     6
  9
$SURFV
 70
     6
  9
$UCSBASE
  2

  9
$UCSNAME
  2

  9
$UCSORG
 10
0.0
 20
0.0
 30
0.0
  9
$UCSXDIR
 10
1.0
 20
0.0
 30
0.0
  9
$UCSYDIR
 10
0.0
 20
1.0
 30
0.0
  9
$UCSORTHOREF
  2

  9
$UCSORTHOVIEW
 70
     0
  9
$UCSORGTOP
 10
0.0
 20
0.0
 30
0.0
  9
$UCSORGBOTTOM
 10
0.0
 20
0.0
 30
0.0
  9
$UCSORGLEFT
 10
0.0
 20
0.0
 30
0.0
  9
$UCSORGRIGHT
 10
0.0
 20
0.0
 30
0.0
  9
$UCSORGFRONT
 10
0.0
 20
0.0
 30
0.0
  9
$UCSORGBACK
 10
0.0
 20
0.0
 30
0.0
  9
$PUCSBASE
  2

  9
$PUCSNAME
  2

  9
$PUCSORG
 10
0.0
 20
0.0
 30
0.0
  9
$PUCSXDIR
 10
1.0
 20
0.0
 30
0.0
  9
$PUCSYDIR
 10
0.0
 20
1.0
 30
0.0
  9
$PUCSORTHOREF
  2

  9
$PUCSORTHOVIEW
 70
     0
  9
$PUCSORGTOP
 10
0.0
 20
0.0
 30
0.0
  9
$PUCSORGBOTTOM
 10
0.0
 20
0.0
 30
0.0
  9
$PUCSORGLEFT
 10
0.0
 20
0.0
 30
0.0
  9
$PUCSORGRIGHT
 10
0.0
 20
0.0
 30
0.0
  9
$PUCSORGFRONT
 10
0.0
 20
0.0
 30
0.0
  9
$PUCSORGBACK
 10
0.0
 20
0.0
 30
0.0
  9
$USERI1
 70
     0
  9
$USERI2
 70
     0
  9
$USERI3
 70
     0
  9
$USERI4
 70
     0
  9
$USERI5
 70
     0
  9
$USERR1
 40
0.0
  9
$USERR2
 40
0.0
  9
$USERR3
 40
0.0
  9
$USERR4
 40
0.0
  9
$USERR5
 40
0.0
  9
$WORLDVIEW
 70
     1
  9
$SHADEDGE
 70
     3
  9
$SHADEDIF
 70
    70
  9
$TILEMODE
 70
     1
  9
$MAXACTVP
 70
    64
  9
$PINSBASE
 10
0.0
 20
0.0
 30
0.0
  9
$PLIMCHECK
 70
     0
  9
$PEXTMIN
 10
1.000000E+20
 20
1.000000E+20
 30
0.0
  9
$PEXTMAX
 10
-1.000000E+20
 20
-1.000000E+20
 30
0.0
  9
$PLIMMIN
 10
0.0
 20
0.0
  9
$PLIMMAX
 10
12.0
 20
9.0
  9
$UNITMODE
 70
     0
  9
$VISRETAIN
 70
     1
  9
$PLINEGEN
 70
     0
  9
$PSLTSCALE
 70
     1
  9
$TREEDEPTH
 70
  3020
  9
$CMLSTYLE
  2
Standard
  9
$CMLJUST
 70
     0
  9
$CMLSCALE
 40
20.0
  9
$PROXYGRAPHICS
 70
     1
  9
$MEASUREMENT
 70
     1
  9
$CELWEIGHT
370
    -1
  9
$ENDCAPS
280
     0
  9
$JOINSTYLE
280
     0
  9
$LWDISPLAY
290
     0
  9
$INSUNITS
 70
     4
  9
$HYPERLINKBASE
  1

  9
$STYLESHEET
  1

  9
$XEDIT
290
     1
  9
$CEPSNTYPE
380
     0
  9
$PSTYLEMODE
290
     1
  9
$FINGERPRINTGUID
  2
{F263175E-82A0-4ECA-89DE-1EB7B24236B6}
  9
$VERSIONGUID
  2
{FAEB1C32-E019-11D5-929B-00C0DF256EC4}
  9
$EXTNAMES
290
     1
  9
$PSVPSCALE
 40
0.0
  9
$OLESTARTUP
290
     0
  0
ENDSEC
  0
SECTION
  2
CLASSES
  0
CLASS
  1
ACDBDICTIONARYWDFLT
  2
AcDbDictionaryWithDefault
  3
ObjectDBX Classes
 90
        0
280
     0
281
     0
  0
CLASS
  1
VISUALSTYLE
  2
AcDbVisualStyle
  3
ObjectDBX Classes
 90
     4095
280
     0
281
     0
  0
CLASS
  1
DICTIONARYVAR
  2
AcDbDictionaryVar
  3
ObjectDBX Classes
 90
        0
280
     0
281
     0
  0
CLASS
  1
ACDBPLACEHOLDER
  2
AcDbPlaceHolder
  3
ObjectDBX Classes
 90
        0
280
     0
281
     0
  0
CLASS
  1
LAYOUT
  2
AcDbLayout
  3
ObjectDBX Classes
 90
        0
280
     0
281
     0
  0
ENDSEC
  0
SECTION
  2
TABLES
  0
TABLE
  2
VPORT
  5
8
330
0
100
AcDbSymbolTable
 70
     1
  0
VPORT
  5
29
330
8
100
AcDbSymbolTableRecord
100
AcDbViewportTableRecord
  2
*Active
 70
     0
 10
0.0
 20
0.0
 11
1.0
 21
1.0
 12
860.811401
 22
844.707275
 13
0.0
 23
0.0
 14
1.0
 24
1.0
 15
0.0
 25
0.0
 16
0.0
 26
0.0
 36
1.0
 17
0.0
 27
0.0
 37
0.0
 40
1594.270452
 41
1.691288
 42
50.0
 43
0.0
 44
0.0
 50
0.0
 51
0.0
 71
     0
 72
   100
 73
     1
 74
     3
 75
     0
 76
     0
 77
     0
 78
     0
281
     0
 65
     1
110
0.0
120
0.0
130
0.0
111
1.0
121
0.0
131
0.0
112
0.0
122
1.0
132
0.0
 79
     0
146
0.0
  0
ENDTAB
  0
TABLE
  2
LTYPE
  5
5
330
0
100
AcDbSymbolTable
 70
     5
  0
LTYPE
  5
14
330
5
100
AcDbSymbolTableRecord
100
AcDbLinetypeTableRecord
  2
ByBlock
 70
     0
  3

 72
    65
 73
     0
 40
0.0
  0
LTYPE
  5
15
330
5
100
AcDbSymbolTableRecord
100
AcDbLinetypeTableRecord
  2
ByLayer
 70
     0
  3

 72
    65
 73
     0
 40
0.0
  0
LTYPE
  5
16
330
5
100
AcDbSymbolTableRecord
100
AcDbLinetypeTableRecord
  2
Continuous
 70
     0
  3
Solid line
 72
    65
 73
     0
 40
0.0
  0
LTYPE
  5
3B
330
5
100
AcDbSymbolTableRecord
100
AcDbLinetypeTableRecord
  2
DASHED
 70
     0
  3
DASHED
 72
    83
 73
     2
 40
0.75
 49
0.5
 74
     0
 49
-0.25
 74
     0
  0
LTYPE
  5
3C
330
5
100
AcDbSymbolTableRecord
100
AcDbLinetypeTableRecord
  2
HIDDEN
 70
     0
  3
HIDDEN
 72
    83
 73
     2
 40
0.375
 49
0.25
 74
     0
 49
-0.125
 74
     0
  0
LTYPE
  5
3D
330
5
100
AcDbSymbolTableRecord
100
AcDbLinetypeTableRecord
  2
CENTER
 70
     0
  3
CENTER
 72
    83
 73
     4
 40
2.0
 49
1.25
 74
     0
 49
-0.25
 74
     0
 49
0.25
 74
     0
 49
-0.25
 74
     0
  0
LTYPE
  5
3E
330
5
100
AcDbSymbolTableRecord
100
AcDbLinetypeTableRecord
  2
PHANTOM
 70
     0
  3
PHANTOM
 72
    83
 73
     6
 40
2.5
 49
1.25
 74
     0
 49
-0.25
 74
     0
 49
0.25
 74
     0
 49
-0.25
 74
     0
 49
0.25
 74
     0
 49
-0.25
 74
     0
  0
ENDTAB
  0
TABLE
  2
LAYER
  5
2
330
0
100
AcDbSymbolTable
 70
     5
  0
LAYER
  5
10
330
2
100
AcDbSymbolTableRecord
100
AcDbLayerTableRecord
  2
0
 70
     0
 62
     7
  6
Continuous
370
    -3
390
F
  0
LAYER
  5
3F
330
2
100
AcDbSymbolTableRecord
100
AcDbLayerTableRecord
  2
001
 70
     0
 62
     7
  6
Continuous
370
    -3
390
F
  0
LAYER
  5
40
330
2
100
AcDbSymbolTableRecord
100
AcDbLayerTableRecord
  2
002
 70
     0
 62
     7
  6
Continuous
370
    -3
390
F
  0
LAYER
  5
41
330
2
100
AcDbSymbolTableRecord
100
AcDbLayerTableRecord
  2
003
 70
     0
 62
     7
  6
Continuous
370
    -3
390
F
  0
LAYER
  5
42
330
2
100
AcDbSymbolTableRecord
100
AcDbLayerTableRecord
  2
004
 70
     0
 62
     7
  6
Continuous
370
    -3
390
F
  0
ENDTAB
  0
TABLE
  2
STYLE
  5
3
330
0
100
AcDbSymbolTable
 70
     2
  0
STYLE
  5
11
330
3
100
AcDbSymbolTableRecord
100
AcDbTextStyleTableRecord
  2
Standard
 70
     0
 40
0.0
 41
1.0
 50
0.0
 71
     0
 42
0.2
  3
TXT
  4
BIGFONT
  0
STYLE
  5
43
330
3
100
AcDbSymbolTableRecord
100
AcDbTextStyleTableRecord
  2
TATEGAKI
 70
     4
 40
1.0
 41
1.0
 50
0.0
 71
     0
 42
0.2
  3
TXT
  4
BIGFONT
  0
ENDTAB
  0
TABLE
  2
VIEW
  5
6
330
0
100
AcDbSymbolTable
 70
     0
  0
ENDTAB
  0
TABLE
  2
UCS
  5
7
330
0
100
AcDbSymbolTable
 70
     0
  0
ENDTAB
  0
TABLE
  2
APPID
  5
9
330
0
100
AcDbSymbolTable
 70
     1
  0
APPID
  5
12
330
9
100
AcDbSymbolTableRecord
100
AcDbRegAppTableRecord
  2
ACAD
 70
     0
  0
ENDTAB
  0
TABLE
  2
DIMSTYLE
  5
A
330
0
100
AcDbSymbolTable
 70
     2
100
AcDbDimStyleTable
  0
DIMSTYLE
105
27
330
A
100
AcDbSymbolTableRecord
100
AcDbDimStyleTableRecord
  2
ISO-25
 70
     0
 41
2.5
 42
0.625
 43
3.75
 44
1.25
 73
     0
 74
     0
 77
     1
 78
     8
140
2.5
141
2.5
143
0.03937
147
0.625
171
     3
172
     1
271
     2
272
     2
274
     3
278
    44
283
     0
284
     8
340
11
  0
DIMSTYLE
105
44
330
A
100
AcDbSymbolTableRecord
100
AcDbDimStyleTableRecord
  2
Standard
 70
     0
 41
3.0
 42
0.5
 44
0.7
 73
     0
 74
     0
 77
     1
 78
     8
 79
     2
140
4.0
146
0.65
147
1.0
172
     1
179
     3
271
     3
283
     2
340
11
  0
ENDTAB
  0
TABLE
  2
BLOCK_RECORD
  5
1
330
0
100
AcDbSymbolTable
 70
    25
  0
BLOCK_RECORD
  5
1F
330
1
100
AcDbSymbolTableRecord
100
AcDbBlockTableRecord
  2
*Model_Space
340
22
  0
BLOCK_RECORD
  5
1B
330
1
100
AcDbSymbolTableRecord
100
AcDbBlockTableRecord
  2
*Paper_Space
340
1E
  0
BLOCK_RECORD
  5
23
330
1
100
AcDbSymbolTableRecord
100
AcDbBlockTableRecord
  2
*Paper_Space0
340
26
  0
BLOCK_RECORD
  5
45
330
1
100
AcDbSymbolTableRecord
100
AcDbBlockTableRecord
  2
JZB-1
340
0
102
{BLKREFS
331
17D
102
}
  0
BLOCK_RECORD
  5
56
330
1
100
AcDbSymbolTableRecord
100
AcDbBlockTableRecord
  2
JZB-2
340
0
102
{BLKREFS
331
17E
102
}
  0
BLOCK_RECORD
  5
67
330
1
100
AcDbSymbolTableRecord
100
AcDbBlockTableRecord
  2
JZB-3
340
0
102
{BLKREFS
331
17F
102
}
  0
BLOCK_RECORD
  5
78
330
1
100
AcDbSymbolTableRecord
100
AcDbBlockTableRecord
  2
JZB-4
340
0
102
{BLKREFS
331
180
102
}
  0
BLOCK_RECORD
  5
89
330
1
100
AcDbSymbolTableRecord
100
AcDbBlockTableRecord
  2
JZB-5
340
0
102
{BLKREFS
331
181
102
}
  0
BLOCK_RECORD
  5
94
330
1
100
AcDbSymbolTableRecord
100
AcDbBlockTableRecord
  2
JZB-6
340
0
102
{BLKREFS
331
182
102
}
  0
BLOCK_RECORD
  5
9F
330
1
100
AcDbSymbolTableRecord
100
AcDbBlockTableRecord
  2
JZB-7
340
0
102
{BLKREFS
331
183
102
}
  0
BLOCK_RECORD
  5
AA
330
1
100
AcDbSymbolTableRecord
100
AcDbBlockTableRecord
  2
JZB-8
340
0
102
{BLKREFS
331
184
102
}
  0
BLOCK_RECORD
  5
B5
330
1
100
AcDbSymbolTableRecord
100
AcDbBlockTableRecord
  2
JZB-9
340
0
102
{BLKREFS
331
185
102
}
  0
BLOCK_RECORD
  5
C0
330
1
100
AcDbSymbolTableRecord
100
AcDbBlockTableRecord
  2
JZB-10
340
0
102
{BLKREFS
331
186
102
}
  0
BLOCK_RECORD
  5
CB
330
1
100
AcDbSymbolTableRecord
100
AcDbBlockTableRecord
  2
JZB-11
340
0
102
{BLKREFS
331
187
102
}
  0
BLOCK_RECORD
  5
D6
330
1
100
AcDbSymbolTableRecord
100
AcDbBlockTableRecord
  2
JZB-12
340
0
102
{BLKREFS
331
188
102
}
  0
BLOCK_RECORD
  5
E1
330
1
100
AcDbSymbolTableRecord
100
AcDbBlockTableRecord
  2
JZB-13
340
0
102
{BLKREFS
331
189
102
}
  0
BLOCK_RECORD
  5
EC
330
1
100
AcDbSymbolTableRecord
100
AcDbBlockTableRecord
  2
JZB-14
340
0
102
{BLKREFS
331
18A
102
}
  0
BLOCK_RECORD
  5
F7
330
1
100
AcDbSymbolTableRecord
100
AcDbBlockTableRecord
  2
JZB-15
340
0
102
{BLKREFS
331
18B
102
}
  0
BLOCK_RECORD
  5
102
330
1
100
AcDbSymbolTableRecord
100
AcDbBlockTableRecord
  2
JZB-16
340
0
102
{BLKREFS
331
18C
102
}
  0
BLOCK_RECORD
  5
10D
330
1
100
AcDbSymbolTableRecord
100
AcDbBlockTableRecord
  2
JZB-17
340
0
102
{BLKREFS
331
18D
102
}
  0
BLOCK_RECORD
  5
118
330
1
100
AcDbSymbolTableRecord
100
AcDbBlockTableRecord
  2
JZB-18
340
0
102
{BLKREFS
331
18E
102
}
  0
BLOCK_RECORD
  5
123
330
1
100
AcDbSymbolTableRecord
100
AcDbBlockTableRecord
  2
JZB-19
340
0
102
{BLKREFS
331
18F
102
}
  0
BLOCK_RECORD
  5
12E
330
1
100
AcDbSymbolTableRecord
100
AcDbBlockTableRecord
  2
JZB-20
340
0
102
{BLKREFS
331
190
102
}
  0
BLOCK_RECORD
  5
139
330
1
100
AcDbSymbolTableRecord
100
AcDbBlockTableRecord
  2
JZB-21
340
0
102
{BLKREFS
331
191
102
}
  0
BLOCK_RECORD
  5
14A
330
1
100
AcDbSymbolTableRecord
100
AcDbBlockTableRecord
  2
JZB-22
340
0
102
{BLKREFS
331
192
102
}
  0
BLOCK_RECORD
  5
15B
330
1
100
AcDbSymbolTableRecord
100
AcDbBlockTableRecord
  2
JZB-23
340
0
102
{BLKREFS
331
193
102
}
  0
BLOCK_RECORD
  5
16C
330
1
100
AcDbSymbolTableRecord
100
AcDbBlockTableRecord
  2
JZB-24
340
0
102
{BLKREFS
331
194
102
}
  0
ENDTAB
  0
ENDSEC
  0
SECTION
  2
BLOCKS
  0
BLOCK
  5
20
330
1F
100
AcDbEntity
  8
0
100
AcDbBlockBegin
  2
*Model_Space
 70
     0
 10
0.0
 20
0.0
 30
0.0
  3
*Model_Space
  1

  0
ENDBLK
  5
21
330
1F
100
AcDbEntity
  8
0
100
AcDbBlockEnd
  0
BLOCK
  5
1C
330
1B
100
AcDbEntity
 67
     1
  8
0
100
AcDbBlockBegin
  2
*Paper_Space
 70
     0
 10
0.0
 20
0.0
 30
0.0
  3
*Paper_Space
  1

  0
ENDBLK
  5
1D
330
1B
100
AcDbEntity
 67
     1
  8
0
100
AcDbBlockEnd
  0
BLOCK
  5
24
330
23
100
AcDbEntity
  8
0
100
AcDbBlockBegin
  2
*Paper_Space0
 70
     0
 10
0.0
 20
0.0
 30
0.0
  3
*Paper_Space0
  1

  0
ENDBLK
  5
25
330
23
100
AcDbEntity
  8
0
100
AcDbBlockEnd
  0
BLOCK
  5
46
330
45
100
AcDbEntity
  8
0
100
AcDbBlockBegin
  2
JZB-1
 70
     0
 10
0.0
 20
0.0
 30
0.0
  3
JZB-1
  1

  0
LINE
  5
48
330
45
100
AcDbEntity
  8
004
 62
     3
370
    30
100
AcDbLine
 10
349.777157
 20
1595.00228
 30
0.0
 11
349.777157
 21
1590.195112
 31
0.0
  0
LINE
  5
49
330
45
100
AcDbEntity
  8
004
 62
     3
370
    30
100
AcDbLine
 10
348.577157
 20
1595.695101
 30
0.0
 11
335.977157
 21
1595.695101
 31
0.0
  0
LINE
  5
4A
330
45
100
AcDbEntity
  8
004
 62
     3
370
    30
100
AcDbLine
 10
349.777157
 20
1590.195112
 30
0.0
 11
334.777157
 21
1590.195112
 31
0.0
  0
LINE
  5
4B
330
45
100
AcDbEntity
  8
004
 62
     3
370
    30
100
AcDbLine
 10
348.577157
 20
1595.695101
 30
0.0
 11
349.777157
 21
1595.00228
 31
0.0
  0
LINE
  5
4C
330
45
100
AcDbEntity
  8
004
 62
     3
370
    30
100
AcDbLine
 10
335.977157
 20
1595.695101
 30
0.0
 11
334.777157
 21
1595.00228
 31
0.0
  0
LINE
  5
4D
330
45
100
AcDbEntity
  8
004
 62
     3
370
    30
100
AcDbLine
 10
334.777157
 20
1595.00228
 30
0.0
 11
334.777157
 21
1590.195112
 31
0.0
  0
LINE
  5
4E
330
45
100
AcDbEntity
  8
004
 62
     3
370
    30
100
AcDbLine
 10
346.027157
 20
1590.195112
 30
0.0
 11
346.027157
 21
1595.00228
 31
0.0
  0
LINE
  5
4F
330
45
100
AcDbEntity
  8
004
 62
     3
370
    30
100
AcDbLine
 10
338.527157
 20
1590.195112
 30
0.0
 11
338.527157
 21
1595.00228
 31
0.0
  0
ARC
  5
50
330
45
100
AcDbEntity
  8
004
 62
     3
370
    30
100
AcDbCircle
 10
336.652157
 20
1592.811507
 30
0.0
 40
2.883593961663491
100
AcDbArc
 50
49.441037
 51
90.0
  0
ARC
  5
51
330
45
100
AcDbEntity
  8
004
 62
     3
370
    30
100
AcDbCircle
 10
347.902157
 20
1592.811507
 30
0.0
 40
2.883593961663491
100
AcDbArc
 50
90.0
 51
130.558963
  0
ARC
  5
52
330
45
100
AcDbEntity
  8
004
 62
     3
370
    30
100
AcDbCircle
 10
342.277157
 20
1585.199955
 30
0.0
 40
10.49514536211251
100
AcDbArc
 50
69.065034
 51
110.934966
  0
LINE
  5
53
330
45
100
AcDbEntity
  8
004
 62
     3
370
    30
100
AcDbLine
 10
342.277152
 20
1590.195101
 30
0.0
 11
342.277152
 21
1590.195112
 31
0.0
  0
LINE
  5
54
330
45
100
AcDbEntity
  8
004
 62
     3
370
    30
100
AcDbLine
 10
342.277152
 20
1590.195101
 30
0.0
 11
342.277163
 21
1590.195101
 31
0.0
  0
LINE
  5
55
330
45
100
AcDbEntity
  8
004
 62
     3
370
    30
100
AcDbLine
 10
342.277163
 20
1590.195101
 30
0.0
 11
342.277163
 21
1590.195112
 31
0.0
  0
ENDBLK
  5
47
330
45
100
AcDbEntity
  8
0
100
AcDbBlockEnd
  0
BLOCK
  5
57
330
56
100
AcDbEntity
  8
0
100
AcDbBlockBegin
  2
JZB-2
 70
     0
 10
0.0
 20
0.0
 30
0.0
  3
JZB-2
  1

  0
LINE
  5
59
330
56
100
AcDbEntity
  8
004
 62
     3
370
    30
100
AcDbLine
 10
384.275157
 20
1595.00228
 30
0.0
 11
384.275157
 21
1590.195112
 31
0.0
  0
LINE
  5
5A
330
56
100
AcDbEntity
  8
004
 62
     3
370
    30
100
AcDbLine
 10
385.475157
 20
1595.695101
 30
0.0
 11
398.075157
 21
1595.695101
 31
0.0
  0
LINE
  5
5B
330
56
100
AcDbEntity
  8
004
 62
     3
370
    30
100
AcDbLine
 10
384.275157
 20
1590.195112
 30
0.0
 11
399.275157
 21
1590.195112
 31
0.0
  0
LINE
  5
5C
330
56
100
AcDbEntity
  8
004
 62
     3
370
    30
100
AcDbLine
 10
385.475157
 20
1595.695101
 30
0.0
 11
384.275157
 21
1595.00228
 31
0.0
  0
LINE
  5
5D
330
56
100
AcDbEntity
  8
004
 62
     3
370
    30
100
AcDbLine
 10
398.075157
 20
1595.695101
 30
0.0
 11
399.275157
 21
1595.00228
 31
0.0
  0
LINE
  5
5E
330
56
100
AcDbEntity
  8
004
 62
     3
370
    30
100
AcDbLine
 10
399.275157
 20
1595.00228
 30
0.0
 11
399.275157
 21
1590.195112
 31
0.0
  0
LINE
  5
5F
330
56
100
AcDbEntity
  8
004
 62
     3
370
    30
100
AcDbLine
 10
388.025157
 20
1590.195112
 30
0.0
 11
388.025157
 21
1595.00228
 31
0.0
  0
LINE
  5
60
330
56
100
AcDbEntity
  8
004
 62
     3
370
    30
100
AcDbLine
 10
395.525157
 20
1590.195112
 30
0.0
 11
395.525157
 21
1595.00228
 31
0.0
  0
ARC
  5
61
330
56
100
AcDbEntity
  8
004
 62
     3
370
    30
100
AcDbCircle
 10
397.400157
 20
1592.811507
 30
0.0
 40
2.883593961663491
100
AcDbArc
 50
90.0
 51
130.558963
  0
ARC
  5
62
330
56
100
AcDbEntity
  8
004
 62
     3
370
    30
100
AcDbCircle
 10
386.150157
 20
1592.811507
 30
0.0
 40
2.883593961663491
100
AcDbArc
 50
49.441037
 51
90.0
  0
ARC
  5
63
330
56
100
AcDbEntity
  8
004
 62
     3
370
    30
100
AcDbCircle
 10
391.775157
 20
1585.199955
 30
0.0
 40
10.49514536211251
100
AcDbArc
 50
69.065034
 51
110.934966
  0
LINE
  5
64
330
56
100
AcDbEntity
  8
004
 62
     3
370
    30
100
AcDbLine
 10
391.775163
 20
1590.195101
 30
0.0
 11
391.775163
 21
1590.195112
 31
0.0
  0
LINE
  5
65
330
56
100
AcDbEntity
  8
004
 62
     3
370
    30
100
AcDbLine
 10
391.775163
 20
1590.195101
 30
0.0
 11
391.775152
 21
1590.195101
 31
0.0
  0
LINE
  5
66
330
56
100
AcDbEntity
  8
004
 62
     3
370
    30
100
AcDbLine
 10
391.775152
 20
1590.195101
 30
0.0
 11
391.775152
 21
1590.195112
 31
0.0
  0
ENDBLK
  5
58
330
56
100
AcDbEntity
  8
0
100
AcDbBlockEnd
  0
BLOCK
  5
68
330
67
100
AcDbEntity
  8
0
100
AcDbBlockBegin
  2
JZB-3
 70
     0
 10
0.0
 20
0.0
 30
0.0
  3
JZB-3
  1

  0
LINE
  5
6A
330
67
100
AcDbEntity
  8
004
 62
     3
370
    30
100
AcDbLine
 10
349.777157
 20
1427.887921
 30
0.0
 11
349.777157
 21
1432.69509
 31
0.0
  0
LINE
  5
6B
330
67
100
AcDbEntity
  8
004
 62
     3
370
    30
100
AcDbLine
 10
348.577157
 20
1427.195101
 30
0.0
 11
335.977157
 21
1427.195101
 31
0.0
  0
LINE
  5
6C
330
67
100
AcDbEntity
  8
004
 62
     3
370
    30
100
AcDbLine
 10
349.777157
 20
1432.69509
 30
0.0
 11
334.777157
 21
1432.69509
 31
0.0
  0
LINE
  5
6D
330
67
100
AcDbEntity
  8
004
 62
     3
370
    30
100
AcDbLine
 10
348.577157
 20
1427.195101
 30
0.0
 11
349.777157
 21
1427.887921
 31
0.0
  0
LINE
  5
6E
330
67
100
AcDbEntity
  8
004
 62
     3
370
    30
100
AcDbLine
 10
335.977157
 20
1427.195101
 30
0.0
 11
334.777157
 21
1427.887921
 31
0.0
  0
LINE
  5
6F
330
67
100
AcDbEntity
  8
004
 62
     3
370
    30
100
AcDbLine
 10
334.777157
 20
1427.887921
 30
0.0
 11
334.777157
 21
1432.69509
 31
0.0
  0
LINE
  5
70
330
67
100
AcDbEntity
  8
004
 62
     3
370
    30
100
AcDbLine
 10
346.027157
 20
1432.69509
 30
0.0
 11
346.027157
 21
1427.887921
 31
0.0
  0
LINE
  5
71
330
67
100
AcDbEntity
  8
004
 62
     3
370
    30
100
AcDbLine
 10
338.527157
 20
1432.69509
 30
0.0
 11
338.527157
 21
1427.887921
 31
0.0
  0
ARC
  5
72
330
67
100
AcDbEntity
  8
004
 62
     3
370
    30
100
AcDbCircle
 10
336.652157
 20
1430.078695
 30
0.0
 40
2.883593961663491
100
AcDbArc
 50
270.0
 51
310.558963
  0
ARC
  5
73
330
67
100
AcDbEntity
  8
004
 62
     3
370
    30
100
AcDbCircle
 10
347.902157
 20
1430.078695
 30
0.0
 40
2.883593961663491
100
AcDbArc
 50
229.441037
 51
270.0
  0
ARC
  5
74
330
67
100
AcDbEntity
  8
004
 62
     3
370
    30
100
AcDbCircle
 10
342.277157
 20
1437.690246
 30
0.0
 40
10.49514536211251
100
AcDbArc
 50
249.065034
 51
290.934966
  0
LINE
  5
75
330
67
100
AcDbEntity
  8
004
 62
     3
370
    30
100
AcDbLine
 10
342.277152
 20
1432.695101
 30
0.0
 11
342.277152
 21
1432.69509
 31
0.0
  0
LINE
  5
76
330
67
100
AcDbEntity
  8
004
 62
     3
370
    30
100
AcDbLine
 10
342.277152
 20
1432.695101
 30
0.0
 11
342.277163
 21
1432.695101
 31
0.0
  0
LINE
  5
77
330
67
100
AcDbEntity
  8
004
 62
     3
370
    30
100
AcDbLine
 10
342.277163
 20
1432.695101
 30
0.0
 11
342.277163
 21
1432.69509
 31
0.0
  0
ENDBLK
  5
69
330
67
100
AcDbEntity
  8
0
100
AcDbBlockEnd
  0
BLOCK
  5
79
330
78
100
AcDbEntity
  8
0
100
AcDbBlockBegin
  2
JZB-4
 70
     0
 10
0.0
 20
0.0
 30
0.0
  3
JZB-4
  1

  0
LINE
  5
7B
330
78
100
AcDbEntity
  8
004
 62
     3
370
    30
100
AcDbLine
 10
384.275157
 20
1427.887921
 30
0.0
 11
384.275157
 21
1432.69509
 31
0.0
  0
LINE
  5
7C
330
78
100
AcDbEntity
  8
004
 62
     3
370
    30
100
AcDbLine
 10
385.475157
 20
1427.195101
 30
0.0
 11
398.075157
 21
1427.195101
 31
0.0
  0
LINE
  5
7D
330
78
100
AcDbEntity
  8
004
 62
     3
370
    30
100
AcDbLine
 10
384.275157
 20
1432.69509
 30
0.0
 11
399.275157
 21
1432.69509
 31
0.0
  0
LINE
  5
7E
330
78
100
AcDbEntity
  8
004
 62
     3
370
    30
100
AcDbLine
 10
385.475157
 20
1427.195101
 30
0.0
 11
384.275157
 21
1427.887921
 31
0.0
  0
LINE
  5
7F
330
78
100
AcDbEntity
  8
004
 62
     3
370
    30
100
AcDbLine
 10
398.075157
 20
1427.195101
 30
0.0
 11
399.275157
 21
1427.887921
 31
0.0
  0
LINE
  5
80
330
78
100
AcDbEntity
  8
004
 62
     3
370
    30
100
AcDbLine
 10
399.275157
 20
1427.887921
 30
0.0
 11
399.275157
 21
1432.69509
 31
0.0
  0
LINE
  5
81
330
78
100
AcDbEntity
  8
004
 62
     3
370
    30
100
AcDbLine
 10
388.025157
 20
1432.69509
 30
0.0
 11
388.025157
 21
1427.887921
 31
0.0
  0
LINE
  5
82
330
78
100
AcDbEntity
  8
004
 62
     3
370
    30
100
AcDbLine
 10
395.525157
 20
1432.69509
 30
0.0
 11
395.525157
 21
1427.887921
 31
0.0
  0
ARC
  5
83
330
78
100
AcDbEntity
  8
004
 62
     3
370
    30
100
AcDbCircle
 10
397.400157
 20
1430.078695
 30
0.0
 40
2.883593961663491
100
AcDbArc
 50
229.441037
 51
270.0
  0
ARC
  5
84
330
78
100
AcDbEntity
  8
004
 62
     3
370
    30
100
AcDbCircle
 10
386.150157
 20
1430.078695
 30
0.0
 40
2.883593961663491
100
AcDbArc
 50
270.0
 51
310.558963
  0
ARC
  5
85
330
78
100
AcDbEntity
  8
004
 62
     3
370
    30
100
AcDbCircle
 10
391.775157
 20
1437.690246
 30
0.0
 40
10.49514536211251
100
AcDbArc
 50
249.065034
 51
290.934966
  0
LINE
  5
86
330
78
100
AcDbEntity
  8
004
 62
     3
370
    30
100
AcDbLine
 10
391.775163
 20
1432.695101
 30
0.0
 11
391.775163
 21
1432.69509
 31
0.0
  0
LINE
  5
87
330
78
100
AcDbEntity
  8
004
 62
     3
370
    30
100
AcDbLine
 10
391.775163
 20
1432.695101
 30
0.0
 11
391.775152
 21
1432.695101
 31
0.0
  0
LINE
  5
88
330
78
100
AcDbEntity
  8
004
 62
     3
370
    30
100
AcDbLine
 10
391.775152
 20
1432.695101
 30
0.0
 11
391.775152
 21
1432.69509
 31
0.0
  0
ENDBLK
  5
7A
330
78
100
AcDbEntity
  8
0
100
AcDbBlockEnd
  0
BLOCK
  5
8A
330
89
100
AcDbEntity
  8
0
100
AcDbBlockBegin
  2
JZB-5
 70
     0
 10
0.0
 20
0.0
 30
0.0
  3
JZB-5
  1

  0
LINE
  5
8C
330
89
100
AcDbEntity
  8
004
 62
     3
370
    30
100
AcDbLine
 10
399.024703
 20
188.817772
 30
0.0
 11
397.082122
 21
181.567964
 31
0.0
  0
LINE
  5
8D
330
89
100
AcDbEntity
  8
004
 62
     3
370
    30
100
AcDbLine
 10
386.467667
 20
192.182419
 30
0.0
 11
384.525087
 21
184.932612
 31
0.0
  0
LINE
  5
8E
330
89
100
AcDbEntity
  8
004
 62
     3
370
    30
100
AcDbLine
 10
393.717475
 20
194.125
 30
0.0
 11
386.467667
 21
192.182419
 31
0.0
  0
LINE
  5
8F
330
89
100
AcDbEntity
  8
004
 62
     3
370
    30
100
AcDbLine
 10
389.832314
 20
179.625384
 30
0.0
 11
397.082122
 21
181.567964
 31
0.0
  0
LINE
  5
90
330
89
100
AcDbEntity
  8
004
 62
     3
370
    30
100
AcDbLine
 10
384.525087
 20
184.932612
 30
0.0
 11
389.832314
 21
179.625384
 31
0.0
  0
LINE
  5
91
330
89
100
AcDbEntity
  8
004
 62
     3
370
    30
100
AcDbLine
 10
399.024703
 20
188.817772
 30
0.0
 11
393.717475
 21
194.125
 31
0.0
  0
CIRCLE
  5
92
330
89
100
AcDbEntity
  8
004
 62
     3
370
    30
100
AcDbCircle
 10
391.774895
 20
186.875192
 30
0.0
 40
6.5
  0
LINE
  5
93
330
89
100
AcDbEntity
  8
004
  6
CENTER
 62
    40
370
     9
100
AcDbLine
 10
397.432534
 20
181.217552
 30
0.0
 11
386.117255
 21
192.532831
 31
0.0
  0
ENDBLK
  5
8B
330
89
100
AcDbEntity
  8
0
100
AcDbBlockEnd
  0
BLOCK
  5
95
330
94
100
AcDbEntity
  8
0
100
AcDbBlockBegin
  2
JZB-6
 70
     0
 10
0.0
 20
0.0
 30
0.0
  3
JZB-6
  1

  0
LINE
  5
97
330
94
100
AcDbEntity
  8
004
 62
     3
370
    30
100
AcDbLine
 10
389.832315
 20
243.622474
 30
0.0
 11
397.082122
 21
241.679894
 31
0.0
  0
LINE
  5
98
330
94
100
AcDbEntity
  8
004
 62
     3
370
    30
100
AcDbLine
 10
386.467667
 20
231.065439
 30
0.0
 11
393.717475
 21
229.122858
 31
0.0
  0
LINE
  5
99
330
94
100
AcDbEntity
  8
004
 62
     3
370
    30
100
AcDbLine
 10
384.525087
 20
238.315247
 30
0.0
 11
386.467667
 21
231.065439
 31
0.0
  0
LINE
  5
9A
330
94
100
AcDbEntity
  8
004
 62
     3
370
    30
100
AcDbLine
 10
399.024703
 20
234.430086
 30
0.0
 11
397.082122
 21
241.679894
 31
0.0
  0
LINE
  5
9B
330
94
100
AcDbEntity
  8
004
 62
     3
370
    30
100
AcDbLine
 10
393.717475
 20
229.122858
 30
0.0
 11
399.024703
 21
234.430086
 31
0.0
  0
LINE
  5
9C
330
94
100
AcDbEntity
  8
004
 62
     3
370
    30
100
AcDbLine
 10
389.832315
 20
243.622474
 30
0.0
 11
384.525087
 21
238.315247
 31
0.0
  0
CIRCLE
  5
9D
330
94
100
AcDbEntity
  8
004
 62
     3
370
    30
100
AcDbCircle
 10
391.774895
 20
236.372666
 30
0.0
 40
6.5
  0
LINE
  5
9E
330
94
100
AcDbEntity
  8
004
  6
CENTER
 62
    40
370
     9
100
AcDbLine
 10
397.432534
 20
242.030306
 30
0.0
 11
386.117255
 21
230.715027
 31
0.0
  0
ENDBLK
  5
96
330
94
100
AcDbEntity
  8
0
100
AcDbBlockEnd
  0
BLOCK
  5
A0
330
9F
100
AcDbEntity
  8
0
100
AcDbBlockBegin
  2
JZB-7
 70
     0
 10
0.0
 20
0.0
 30
0.0
  3
JZB-7
  1

  0
LINE
  5
A2
330
9F
100
AcDbEntity
  8
004
 62
     3
370
    30
100
AcDbLine
 10
335.027612
 20
234.430086
 30
0.0
 11
336.970192
 21
241.679894
 31
0.0
  0
LINE
  5
A3
330
9F
100
AcDbEntity
  8
004
 62
     3
370
    30
100
AcDbLine
 10
347.584648
 20
231.065439
 30
0.0
 11
349.527228
 21
238.315247
 31
0.0
  0
LINE
  5
A4
330
9F
100
AcDbEntity
  8
004
 62
     3
370
    30
100
AcDbLine
 10
340.33484
 20
229.122858
 30
0.0
 11
347.584648
 21
231.065439
 31
0.0
  0
LINE
  5
A5
330
9F
100
AcDbEntity
  8
004
 62
     3
370
    30
100
AcDbLine
 10
344.22
 20
243.622474
 30
0.0
 11
336.970192
 21
241.679894
 31
0.0
  0
LINE
  5
A6
330
9F
100
AcDbEntity
  8
004
 62
     3
370
    30
100
AcDbLine
 10
349.527228
 20
238.315247
 30
0.0
 11
344.22
 21
243.622474
 31
0.0
  0
LINE
  5
A7
330
9F
100
AcDbEntity
  8
004
 62
     3
370
    30
100
AcDbLine
 10
335.027612
 20
234.430086
 30
0.0
 11
340.33484
 21
229.122858
 31
0.0
  0
CIRCLE
  5
A8
330
9F
100
AcDbEntity
  8
004
 62
     3
370
    30
100
AcDbCircle
 10
342.27742
 20
236.372666
 30
0.0
 40
6.5
  0
LINE
  5
A9
330
9F
100
AcDbEntity
  8
004
  6
CENTER
 62
    40
370
     9
100
AcDbLine
 10
336.61978
 20
242.030306
 30
0.0
 11
347.93506
 21
230.715027
 31
0.0
  0
ENDBLK
  5
A1
330
9F
100
AcDbEntity
  8
0
100
AcDbBlockEnd
  0
BLOCK
  5
AB
330
AA
100
AcDbEntity
  8
0
100
AcDbBlockBegin
  2
JZB-8
 70
     0
 10
0.0
 20
0.0
 30
0.0
  3
JZB-8
  1

  0
LINE
  5
AD
330
AA
100
AcDbEntity
  8
004
 62
     3
370
    30
100
AcDbLine
 10
344.22
 20
179.625384
 30
0.0
 11
336.970192
 21
181.567964
 31
0.0
  0
LINE
  5
AE
330
AA
100
AcDbEntity
  8
004
 62
     3
370
    30
100
AcDbLine
 10
347.584648
 20
192.18242
 30
0.0
 11
340.33484
 21
194.125
 31
0.0
  0
LINE
  5
AF
330
AA
100
AcDbEntity
  8
004
 62
     3
370
    30
100
AcDbLine
 10
349.527228
 20
184.932612
 30
0.0
 11
347.584648
 21
192.18242
 31
0.0
  0
LINE
  5
B0
330
AA
100
AcDbEntity
  8
004
 62
     3
370
    30
100
AcDbLine
 10
335.027612
 20
188.817772
 30
0.0
 11
336.970192
 21
181.567964
 31
0.0
  0
LINE
  5
B1
330
AA
100
AcDbEntity
  8
004
 62
     3
370
    30
100
AcDbLine
 10
340.33484
 20
194.125
 30
0.0
 11
335.027612
 21
188.817772
 31
0.0
  0
LINE
  5
B2
330
AA
100
AcDbEntity
  8
004
 62
     3
370
    30
100
AcDbLine
 10
344.22
 20
179.625384
 30
0.0
 11
349.527228
 21
184.932612
 31
0.0
  0
CIRCLE
  5
B3
330
AA
100
AcDbEntity
  8
004
 62
     3
370
    30
100
AcDbCircle
 10
342.27742
 20
186.875192
 30
0.0
 40
6.5
  0
LINE
  5
B4
330
AA
100
AcDbEntity
  8
004
  6
CENTER
 62
    40
370
     9
100
AcDbLine
 10
336.61978
 20
181.217552
 30
0.0
 11
347.93506
 21
192.532831
 31
0.0
  0
ENDBLK
  5
AC
330
AA
100
AcDbEntity
  8
0
100
AcDbBlockEnd
  0
BLOCK
  5
B6
330
B5
100
AcDbEntity
  8
0
100
AcDbBlockBegin
  2
JZB-9
 70
     0
 10
0.0
 20
0.0
 30
0.0
  3
JZB-9
  1

  0
LINE
  5
B8
330
B5
100
AcDbEntity
  8
004
 62
     3
370
    30
100
AcDbLine
 10
914.024703
 20
188.817772
 30
0.0
 11
912.082122
 21
181.567964
 31
0.0
  0
LINE
  5
B9
330
B5
100
AcDbEntity
  8
004
 62
     3
370
    30
100
AcDbLine
 10
901.467667
 20
192.182419
 30
0.0
 11
899.525087
 21
184.932612
 31
0.0
  0
LINE
  5
BA
330
B5
100
AcDbEntity
  8
004
 62
     3
370
    30
100
AcDbLine
 10
908.717475
 20
194.125
 30
0.0
 11
901.467667
 21
192.182419
 31
0.0
  0
LINE
  5
BB
330
B5
100
AcDbEntity
  8
004
 62
     3
370
    30
100
AcDbLine
 10
904.832314
 20
179.625384
 30
0.0
 11
912.082122
 21
181.567964
 31
0.0
  0
LINE
  5
BC
330
B5
100
AcDbEntity
  8
004
 62
     3
370
    30
100
AcDbLine
 10
899.525087
 20
184.932612
 30
0.0
 11
904.832314
 21
179.625384
 31
0.0
  0
LINE
  5
BD
330
B5
100
AcDbEntity
  8
004
 62
     3
370
    30
100
AcDbLine
 10
914.024703
 20
188.817772
 30
0.0
 11
908.717475
 21
194.125
 31
0.0
  0
CIRCLE
  5
BE
330
B5
100
AcDbEntity
  8
004
 62
     3
370
    30
100
AcDbCircle
 10
906.774895
 20
186.875192
 30
0.0
 40
6.5
  0
LINE
  5
BF
330
B5
100
AcDbEntity
  8
004
  6
CENTER
 62
    40
370
     9
100
AcDbLine
 10
912.432534
 20
181.217552
 30
0.0
 11
901.117255
 21
192.532831
 31
0.0
  0
ENDBLK
  5
B7
330
B5
100
AcDbEntity
  8
0
100
AcDbBlockEnd
  0
BLOCK
  5
C1
330
C0
100
AcDbEntity
  8
0
100
AcDbBlockBegin
  2
JZB-10
 70
     0
 10
0.0
 20
0.0
 30
0.0
  3
JZB-10
  1

  0
LINE
  5
C3
330
C0
100
AcDbEntity
  8
004
 62
     3
370
    30
100
AcDbLine
 10
904.832315
 20
243.622474
 30
0.0
 11
912.082122
 21
241.679894
 31
0.0
  0
LINE
  5
C4
330
C0
100
AcDbEntity
  8
004
 62
     3
370
    30
100
AcDbLine
 10
901.467667
 20
231.065439
 30
0.0
 11
908.717475
 21
229.122858
 31
0.0
  0
LINE
  5
C5
330
C0
100
AcDbEntity
  8
004
 62
     3
370
    30
100
AcDbLine
 10
899.525087
 20
238.315247
 30
0.0
 11
901.467667
 21
231.065439
 31
0.0
  0
LINE
  5
C6
330
C0
100
AcDbEntity
  8
004
 62
     3
370
    30
100
AcDbLine
 10
914.024703
 20
234.430086
 30
0.0
 11
912.082122
 21
241.679894
 31
0.0
  0
LINE
  5
C7
330
C0
100
AcDbEntity
  8
004
 62
     3
370
    30
100
AcDbLine
 10
908.717475
 20
229.122858
 30
0.0
 11
914.024703
 21
234.430086
 31
0.0
  0
LINE
  5
C8
330
C0
100
AcDbEntity
  8
004
 62
     3
370
    30
100
AcDbLine
 10
904.832315
 20
243.622474
 30
0.0
 11
899.525087
 21
238.315247
 31
0.0
  0
CIRCLE
  5
C9
330
C0
100
AcDbEntity
  8
004
 62
     3
370
    30
100
AcDbCircle
 10
906.774895
 20
236.372666
 30
0.0
 40
6.5
  0
LINE
  5
CA
330
C0
100
AcDbEntity
  8
004
  6
CENTER
 62
    40
370
     9
100
AcDbLine
 10
912.432534
 20
242.030306
 30
0.0
 11
901.117255
 21
230.715027
 31
0.0
  0
ENDBLK
  5
C2
330
C0
100
AcDbEntity
  8
0
100
AcDbBlockEnd
  0
BLOCK
  5
CC
330
CB
100
AcDbEntity
  8
0
100
AcDbBlockBegin
  2
JZB-11
 70
     0
 10
0.0
 20
0.0
 30
0.0
  3
JZB-11
  1

  0
LINE
  5
CE
330
CB
100
AcDbEntity
  8
004
 62
     3
370
    30
100
AcDbLine
 10
850.027612
 20
234.430086
 30
0.0
 11
851.970192
 21
241.679894
 31
0.0
  0
LINE
  5
CF
330
CB
100
AcDbEntity
  8
004
 62
     3
370
    30
100
AcDbLine
 10
862.584648
 20
231.065439
 30
0.0
 11
864.527228
 21
238.315247
 31
0.0
  0
LINE
  5
D0
330
CB
100
AcDbEntity
  8
004
 62
     3
370
    30
100
AcDbLine
 10
855.33484
 20
229.122858
 30
0.0
 11
862.584648
 21
231.065439
 31
0.0
  0
LINE
  5
D1
330
CB
100
AcDbEntity
  8
004
 62
     3
370
    30
100
AcDbLine
 10
859.22
 20
243.622474
 30
0.0
 11
851.970192
 21
241.679894
 31
0.0
  0
LINE
  5
D2
330
CB
100
AcDbEntity
  8
004
 62
     3
370
    30
100
AcDbLine
 10
864.527228
 20
238.315247
 30
0.0
 11
859.22
 21
243.622474
 31
0.0
  0
LINE
  5
D3
330
CB
100
AcDbEntity
  8
004
 62
     3
370
    30
100
AcDbLine
 10
850.027612
 20
234.430086
 30
0.0
 11
855.33484
 21
229.122858
 31
0.0
  0
CIRCLE
  5
D4
330
CB
100
AcDbEntity
  8
004
 62
     3
370
    30
100
AcDbCircle
 10
857.27742
 20
236.372666
 30
0.0
 40
6.5
  0
LINE
  5
D5
330
CB
100
AcDbEntity
  8
004
  6
CENTER
 62
    40
370
     9
100
AcDbLine
 10
851.61978
 20
242.030306
 30
0.0
 11
862.93506
 21
230.715027
 31
0.0
  0
ENDBLK
  5
CD
330
CB
100
AcDbEntity
  8
0
100
AcDbBlockEnd
  0
BLOCK
  5
D7
330
D6
100
AcDbEntity
  8
0
100
AcDbBlockBegin
  2
JZB-12
 70
     0
 10
0.0
 20
0.0
 30
0.0
  3
JZB-12
  1

  0
LINE
  5
D9
330
D6
100
AcDbEntity
  8
004
 62
     3
370
    30
100
AcDbLine
 10
859.22
 20
179.625384
 30
0.0
 11
851.970192
 21
181.567964
 31
0.0
  0
LINE
  5
DA
330
D6
100
AcDbEntity
  8
004
 62
     3
370
    30
100
AcDbLine
 10
862.584648
 20
192.18242
 30
0.0
 11
855.33484
 21
194.125
 31
0.0
  0
LINE
  5
DB
330
D6
100
AcDbEntity
  8
004
 62
     3
370
    30
100
AcDbLine
 10
864.527228
 20
184.932612
 30
0.0
 11
862.584648
 21
192.18242
 31
0.0
  0
LINE
  5
DC
330
D6
100
AcDbEntity
  8
004
 62
     3
370
    30
100
AcDbLine
 10
850.027612
 20
188.817772
 30
0.0
 11
851.970192
 21
181.567964
 31
0.0
  0
LINE
  5
DD
330
D6
100
AcDbEntity
  8
004
 62
     3
370
    30
100
AcDbLine
 10
855.33484
 20
194.125
 30
0.0
 11
850.027612
 21
188.817772
 31
0.0
  0
LINE
  5
DE
330
D6
100
AcDbEntity
  8
004
 62
     3
370
    30
100
AcDbLine
 10
859.22
 20
179.625384
 30
0.0
 11
864.527228
 21
184.932612
 31
0.0
  0
CIRCLE
  5
DF
330
D6
100
AcDbEntity
  8
004
 62
     3
370
    30
100
AcDbCircle
 10
857.27742
 20
186.875192
 30
0.0
 40
6.5
  0
LINE
  5
E0
330
D6
100
AcDbEntity
  8
004
  6
CENTER
 62
    40
370
     9
100
AcDbLine
 10
851.61978
 20
181.217552
 30
0.0
 11
862.93506
 21
192.532831
 31
0.0
  0
ENDBLK
  5
D8
330
D6
100
AcDbEntity
  8
0
100
AcDbBlockEnd
  0
BLOCK
  5
E2
330
E1
100
AcDbEntity
  8
0
100
AcDbBlockBegin
  2
JZB-13
 70
     0
 10
0.0
 20
0.0
 30
0.0
  3
JZB-13
  1

  0
LINE
  5
E4
330
E1
100
AcDbEntity
  8
004
 62
     3
370
    30
100
AcDbLine
 10
1203.607244
 20
493.658278
 30
0.0
 11
1201.664664
 21
486.40847
 31
0.0
  0
LINE
  5
E5
330
E1
100
AcDbEntity
  8
004
 62
     3
370
    30
100
AcDbLine
 10
1191.050209
 20
497.022926
 30
0.0
 11
1189.107628
 21
489.773118
 31
0.0
  0
LINE
  5
E6
330
E1
100
AcDbEntity
  8
004
 62
     3
370
    30
100
AcDbLine
 10
1198.300017
 20
498.965506
 30
0.0
 11
1191.050209
 21
497.022926
 31
0.0
  0
LINE
  5
E7
330
E1
100
AcDbEntity
  8
004
 62
     3
370
    30
100
AcDbLine
 10
1194.414856
 20
484.46589
 30
0.0
 11
1201.664664
 21
486.40847
 31
0.0
  0
LINE
  5
E8
330
E1
100
AcDbEntity
  8
004
 62
     3
370
    30
100
AcDbLine
 10
1189.107628
 20
489.773118
 30
0.0
 11
1194.414856
 21
484.46589
 31
0.0
  0
LINE
  5
E9
330
E1
100
AcDbEntity
  8
004
 62
     3
370
    30
100
AcDbLine
 10
1203.607244
 20
493.658278
 30
0.0
 11
1198.300017
 21
498.965506
 31
0.0
  0
CIRCLE
  5
EA
330
E1
100
AcDbEntity
  8
004
 62
     3
370
    30
100
AcDbCircle
 10
1196.357436
 20
491.715698
 30
0.0
 40
6.5
  0
LINE
  5
EB
330
E1
100
AcDbEntity
  8
004
  6
CENTER
 62
    40
370
     9
100
AcDbLine
 10
1202.015076
 20
486.058058
 30
0.0
 11
1190.699797
 21
497.373338
 31
0.0
  0
ENDBLK
  5
E3
330
E1
100
AcDbEntity
  8
0
100
AcDbBlockEnd
  0
BLOCK
  5
ED
330
EC
100
AcDbEntity
  8
0
100
AcDbBlockBegin
  2
JZB-14
 70
     0
 10
0.0
 20
0.0
 30
0.0
  3
JZB-14
  1

  0
LINE
  5
EF
330
EC
100
AcDbEntity
  8
004
 62
     3
370
    30
100
AcDbLine
 10
1194.414856
 20
548.462981
 30
0.0
 11
1201.664664
 21
546.520401
 31
0.0
  0
LINE
  5
F0
330
EC
100
AcDbEntity
  8
004
 62
     3
370
    30
100
AcDbLine
 10
1191.050209
 20
535.905945
 30
0.0
 11
1198.300017
 21
533.963365
 31
0.0
  0
LINE
  5
F1
330
EC
100
AcDbEntity
  8
004
 62
     3
370
    30
100
AcDbLine
 10
1189.107629
 20
543.155753
 30
0.0
 11
1191.050209
 21
535.905945
 31
0.0
  0
LINE
  5
F2
330
EC
100
AcDbEntity
  8
004
 62
     3
370
    30
100
AcDbLine
 10
1203.607244
 20
539.270593
 30
0.0
 11
1201.664664
 21
546.520401
 31
0.0
  0
LINE
  5
F3
330
EC
100
AcDbEntity
  8
004
 62
     3
370
    30
100
AcDbLine
 10
1198.300017
 20
533.963365
 30
0.0
 11
1203.607244
 21
539.270593
 31
0.0
  0
LINE
  5
F4
330
EC
100
AcDbEntity
  8
004
 62
     3
370
    30
100
AcDbLine
 10
1194.414856
 20
548.462981
 30
0.0
 11
1189.107629
 21
543.155753
 31
0.0
  0
CIRCLE
  5
F5
330
EC
100
AcDbEntity
  8
004
 62
     3
370
    30
100
AcDbCircle
 10
1196.357436
 20
541.213173
 30
0.0
 40
6.5
  0
LINE
  5
F6
330
EC
100
AcDbEntity
  8
004
  6
CENTER
 62
    40
370
     9
100
AcDbLine
 10
1202.015076
 20
546.870813
 30
0.0
 11
1190.699797
 21
535.555533
 31
0.0
  0
ENDBLK
  5
EE
330
EC
100
AcDbEntity
  8
0
100
AcDbBlockEnd
  0
BLOCK
  5
F8
330
F7
100
AcDbEntity
  8
0
100
AcDbBlockBegin
  2
JZB-15
 70
     0
 10
0.0
 20
0.0
 30
0.0
  3
JZB-15
  1

  0
LINE
  5
FA
330
F7
100
AcDbEntity
  8
004
 62
     3
370
    30
100
AcDbLine
 10
1139.610154
 20
539.270593
 30
0.0
 11
1141.552734
 21
546.520401
 31
0.0
  0
LINE
  5
FB
330
F7
100
AcDbEntity
  8
004
 62
     3
370
    30
100
AcDbLine
 10
1152.16719
 20
535.905945
 30
0.0
 11
1154.10977
 21
543.155753
 31
0.0
  0
LINE
  5
FC
330
F7
100
AcDbEntity
  8
004
 62
     3
370
    30
100
AcDbLine
 10
1144.917382
 20
533.963365
 30
0.0
 11
1152.16719
 21
535.905945
 31
0.0
  0
LINE
  5
FD
330
F7
100
AcDbEntity
  8
004
 62
     3
370
    30
100
AcDbLine
 10
1148.802542
 20
548.462981
 30
0.0
 11
1141.552734
 21
546.520401
 31
0.0
  0
LINE
  5
FE
330
F7
100
AcDbEntity
  8
004
 62
     3
370
    30
100
AcDbLine
 10
1154.10977
 20
543.155753
 30
0.0
 11
1148.802542
 21
548.462981
 31
0.0
  0
LINE
  5
FF
330
F7
100
AcDbEntity
  8
004
 62
     3
370
    30
100
AcDbLine
 10
1139.610154
 20
539.270593
 30
0.0
 11
1144.917382
 21
533.963365
 31
0.0
  0
CIRCLE
  5
100
330
F7
100
AcDbEntity
  8
004
 62
     3
370
    30
100
AcDbCircle
 10
1146.859962
 20
541.213173
 30
0.0
 40
6.5
  0
LINE
  5
101
330
F7
100
AcDbEntity
  8
004
  6
CENTER
 62
    40
370
     9
100
AcDbLine
 10
1141.202322
 20
546.870813
 30
0.0
 11
1152.517601
 21
535.555533
 31
0.0
  0
ENDBLK
  5
F9
330
F7
100
AcDbEntity
  8
0
100
AcDbBlockEnd
  0
BLOCK
  5
103
330
102
100
AcDbEntity
  8
0
100
AcDbBlockBegin
  2
JZB-16
 70
     0
 10
0.0
 20
0.0
 30
0.0
  3
JZB-16
  1

  0
LINE
  5
105
330
102
100
AcDbEntity
  8
004
 62
     3
370
    30
100
AcDbLine
 10
1148.802542
 20
484.46589
 30
0.0
 11
1141.552734
 21
486.40847
 31
0.0
  0
LINE
  5
106
330
102
100
AcDbEntity
  8
004
 62
     3
370
    30
100
AcDbLine
 10
1152.16719
 20
497.022926
 30
0.0
 11
1144.917382
 21
498.965506
 31
0.0
  0
LINE
  5
107
330
102
100
AcDbEntity
  8
004
 62
     3
370
    30
100
AcDbLine
 10
1154.10977
 20
489.773118
 30
0.0
 11
1152.16719
 21
497.022926
 31
0.0
  0
LINE
  5
108
330
102
100
AcDbEntity
  8
004
 62
     3
370
    30
100
AcDbLine
 10
1139.610154
 20
493.658278
 30
0.0
 11
1141.552734
 21
486.40847
 31
0.0
  0
LINE
  5
109
330
102
100
AcDbEntity
  8
004
 62
     3
370
    30
100
AcDbLine
 10
1144.917382
 20
498.965506
 30
0.0
 11
1139.610154
 21
493.658278
 31
0.0
  0
LINE
  5
10A
330
102
100
AcDbEntity
  8
004
 62
     3
370
    30
100
AcDbLine
 10
1148.802542
 20
484.46589
 30
0.0
 11
1154.10977
 21
489.773118
 31
0.0
  0
CIRCLE
  5
10B
330
102
100
AcDbEntity
  8
004
 62
     3
370
    30
100
AcDbCircle
 10
1146.859962
 20
491.715698
 30
0.0
 40
6.5
  0
LINE
  5
10C
330
102
100
AcDbEntity
  8
004
  6
CENTER
 62
    40
370
     9
100
AcDbLine
 10
1141.202322
 20
486.058058
 30
0.0
 11
1152.517601
 21
497.373338
 31
0.0
  0
ENDBLK
  5
104
330
102
100
AcDbEntity
  8
0
100
AcDbBlockEnd
  0
BLOCK
  5
10E
330
10D
100
AcDbEntity
  8
0
100
AcDbBlockBegin
  2
JZB-17
 70
     0
 10
0.0
 20
0.0
 30
0.0
  3
JZB-17
  1

  0
LINE
  5
110
330
10D
100
AcDbEntity
  8
004
 62
     3
370
    30
100
AcDbLine
 10
1458.607244
 20
493.658278
 30
0.0
 11
1456.664664
 21
486.40847
 31
0.0
  0
LINE
  5
111
330
10D
100
AcDbEntity
  8
004
 62
     3
370
    30
100
AcDbLine
 10
1446.050209
 20
497.022926
 30
0.0
 11
1444.107628
 21
489.773118
 31
0.0
  0
LINE
  5
112
330
10D
100
AcDbEntity
  8
004
 62
     3
370
    30
100
AcDbLine
 10
1453.300017
 20
498.965506
 30
0.0
 11
1446.050209
 21
497.022926
 31
0.0
  0
LINE
  5
113
330
10D
100
AcDbEntity
  8
004
 62
     3
370
    30
100
AcDbLine
 10
1449.414856
 20
484.46589
 30
0.0
 11
1456.664664
 21
486.40847
 31
0.0
  0
LINE
  5
114
330
10D
100
AcDbEntity
  8
004
 62
     3
370
    30
100
AcDbLine
 10
1444.107628
 20
489.773118
 30
0.0
 11
1449.414856
 21
484.46589
 31
0.0
  0
LINE
  5
115
330
10D
100
AcDbEntity
  8
004
 62
     3
370
    30
100
AcDbLine
 10
1458.607244
 20
493.658278
 30
0.0
 11
1453.300017
 21
498.965506
 31
0.0
  0
CIRCLE
  5
116
330
10D
100
AcDbEntity
  8
004
 62
     3
370
    30
100
AcDbCircle
 10
1451.357436
 20
491.715698
 30
0.0
 40
6.5
  0
LINE
  5
117
330
10D
100
AcDbEntity
  8
004
  6
CENTER
 62
    40
370
     9
100
AcDbLine
 10
1457.015076
 20
486.058058
 30
0.0
 11
1445.699797
 21
497.373338
 31
0.0
  0
ENDBLK
  5
10F
330
10D
100
AcDbEntity
  8
0
100
AcDbBlockEnd
  0
BLOCK
  5
119
330
118
100
AcDbEntity
  8
0
100
AcDbBlockBegin
  2
JZB-18
 70
     0
 10
0.0
 20
0.0
 30
0.0
  3
JZB-18
  1

  0
LINE
  5
11B
330
118
100
AcDbEntity
  8
004
 62
     3
370
    30
100
AcDbLine
 10
1449.414856
 20
548.462981
 30
0.0
 11
1456.664664
 21
546.520401
 31
0.0
  0
LINE
  5
11C
330
118
100
AcDbEntity
  8
004
 62
     3
370
    30
100
AcDbLine
 10
1446.050209
 20
535.905945
 30
0.0
 11
1453.300017
 21
533.963365
 31
0.0
  0
LINE
  5
11D
330
118
100
AcDbEntity
  8
004
 62
     3
370
    30
100
AcDbLine
 10
1444.107629
 20
543.155753
 30
0.0
 11
1446.050209
 21
535.905945
 31
0.0
  0
LINE
  5
11E
330
118
100
AcDbEntity
  8
004
 62
     3
370
    30
100
AcDbLine
 10
1458.607244
 20
539.270593
 30
0.0
 11
1456.664664
 21
546.520401
 31
0.0
  0
LINE
  5
11F
330
118
100
AcDbEntity
  8
004
 62
     3
370
    30
100
AcDbLine
 10
1453.300017
 20
533.963365
 30
0.0
 11
1458.607244
 21
539.270593
 31
0.0
  0
LINE
  5
120
330
118
100
AcDbEntity
  8
004
 62
     3
370
    30
100
AcDbLine
 10
1449.414856
 20
548.462981
 30
0.0
 11
1444.107629
 21
543.155753
 31
0.0
  0
CIRCLE
  5
121
330
118
100
AcDbEntity
  8
004
 62
     3
370
    30
100
AcDbCircle
 10
1451.357436
 20
541.213173
 30
0.0
 40
6.5
  0
LINE
  5
122
330
118
100
AcDbEntity
  8
004
  6
CENTER
 62
    40
370
     9
100
AcDbLine
 10
1457.015076
 20
546.870813
 30
0.0
 11
1445.699797
 21
535.555533
 31
0.0
  0
ENDBLK
  5
11A
330
118
100
AcDbEntity
  8
0
100
AcDbBlockEnd
  0
BLOCK
  5
124
330
123
100
AcDbEntity
  8
0
100
AcDbBlockBegin
  2
JZB-19
 70
     0
 10
0.0
 20
0.0
 30
0.0
  3
JZB-19
  1

  0
LINE
  5
126
330
123
100
AcDbEntity
  8
004
 62
     3
370
    30
100
AcDbLine
 10
1394.610154
 20
539.270593
 30
0.0
 11
1396.552734
 21
546.520401
 31
0.0
  0
LINE
  5
127
330
123
100
AcDbEntity
  8
004
 62
     3
370
    30
100
AcDbLine
 10
1407.16719
 20
535.905945
 30
0.0
 11
1409.10977
 21
543.155753
 31
0.0
  0
LINE
  5
128
330
123
100
AcDbEntity
  8
004
 62
     3
370
    30
100
AcDbLine
 10
1399.917382
 20
533.963365
 30
0.0
 11
1407.16719
 21
535.905945
 31
0.0
  0
LINE
  5
129
330
123
100
AcDbEntity
  8
004
 62
     3
370
    30
100
AcDbLine
 10
1403.802542
 20
548.462981
 30
0.0
 11
1396.552734
 21
546.520401
 31
0.0
  0
LINE
  5
12A
330
123
100
AcDbEntity
  8
004
 62
     3
370
    30
100
AcDbLine
 10
1409.10977
 20
543.155753
 30
0.0
 11
1403.802542
 21
548.462981
 31
0.0
  0
LINE
  5
12B
330
123
100
AcDbEntity
  8
004
 62
     3
370
    30
100
AcDbLine
 10
1394.610154
 20
539.270593
 30
0.0
 11
1399.917382
 21
533.963365
 31
0.0
  0
CIRCLE
  5
12C
330
123
100
AcDbEntity
  8
004
 62
     3
370
    30
100
AcDbCircle
 10
1401.859962
 20
541.213173
 30
0.0
 40
6.5
  0
LINE
  5
12D
330
123
100
AcDbEntity
  8
004
  6
CENTER
 62
    40
370
     9
100
AcDbLine
 10
1396.202322
 20
546.870813
 30
0.0
 11
1407.517601
 21
535.555533
 31
0.0
  0
ENDBLK
  5
125
330
123
100
AcDbEntity
  8
0
100
AcDbBlockEnd
  0
BLOCK
  5
12F
330
12E
100
AcDbEntity
  8
0
100
AcDbBlockBegin
  2
JZB-20
 70
     0
 10
0.0
 20
0.0
 30
0.0
  3
JZB-20
  1

  0
LINE
  5
131
330
12E
100
AcDbEntity
  8
004
 62
     3
370
    30
100
AcDbLine
 10
1403.802542
 20
484.46589
 30
0.0
 11
1396.552734
 21
486.40847
 31
0.0
  0
LINE
  5
132
330
12E
100
AcDbEntity
  8
004
 62
     3
370
    30
100
AcDbLine
 10
1407.16719
 20
497.022926
 30
0.0
 11
1399.917382
 21
498.965506
 31
0.0
  0
LINE
  5
133
330
12E
100
AcDbEntity
  8
004
 62
     3
370
    30
100
AcDbLine
 10
1409.10977
 20
489.773118
 30
0.0
 11
1407.16719
 21
497.022926
 31
0.0
  0
LINE
  5
134
330
12E
100
AcDbEntity
  8
004
 62
     3
370
    30
100
AcDbLine
 10
1394.610154
 20
493.658278
 30
0.0
 11
1396.552734
 21
486.40847
 31
0.0
  0
LINE
  5
135
330
12E
100
AcDbEntity
  8
004
 62
     3
370
    30
100
AcDbLine
 10
1399.917382
 20
498.965506
 30
0.0
 11
1394.610154
 21
493.658278
 31
0.0
  0
LINE
  5
136
330
12E
100
AcDbEntity
  8
004
 62
     3
370
    30
100
AcDbLine
 10
1403.802542
 20
484.46589
 30
0.0
 11
1409.10977
 21
489.773118
 31
0.0
  0
CIRCLE
  5
137
330
12E
100
AcDbEntity
  8
004
 62
     3
370
    30
100
AcDbCircle
 10
1401.859962
 20
491.715698
 30
0.0
 40
6.5
  0
LINE
  5
138
330
12E
100
AcDbEntity
  8
004
  6
CENTER
 62
    40
370
     9
100
AcDbLine
 10
1396.202322
 20
486.058058
 30
0.0
 11
1407.517601
 21
497.373338
 31
0.0
  0
ENDBLK
  5
130
330
12E
100
AcDbEntity
  8
0
100
AcDbBlockEnd
  0
BLOCK
  5
13A
330
139
100
AcDbEntity
  8
0
100
AcDbBlockBegin
  2
JZB-21
 70
     0
 10
0.0
 20
0.0
 30
0.0
  3
JZB-21
  1

  0
LINE
  5
13C
330
139
100
AcDbEntity
  8
004
 62
     3
370
    30
100
AcDbLine
 10
668.583337
 20
228.872929
 30
0.0
 11
663.776168
 21
228.872929
 31
0.0
  0
LINE
  5
13D
330
139
100
AcDbEntity
  8
004
 62
     3
370
    30
100
AcDbLine
 10
669.276157
 20
230.072929
 30
0.0
 11
669.276157
 21
242.672929
 31
0.0
  0
LINE
  5
13E
330
139
100
AcDbEntity
  8
004
 62
     3
370
    30
100
AcDbLine
 10
663.776168
 20
228.872929
 30
0.0
 11
663.776168
 21
243.872929
 31
0.0
  0
LINE
  5
13F
330
139
100
AcDbEntity
  8
004
 62
     3
370
    30
100
AcDbLine
 10
669.276157
 20
230.072929
 30
0.0
 11
668.583337
 21
228.872929
 31
0.0
  0
LINE
  5
140
330
139
100
AcDbEntity
  8
004
 62
     3
370
    30
100
AcDbLine
 10
669.276157
 20
242.672929
 30
0.0
 11
668.583337
 21
243.872929
 31
0.0
  0
LINE
  5
141
330
139
100
AcDbEntity
  8
004
 62
     3
370
    30
100
AcDbLine
 10
668.583337
 20
243.872929
 30
0.0
 11
663.776168
 21
243.872929
 31
0.0
  0
LINE
  5
142
330
139
100
AcDbEntity
  8
004
 62
     3
370
    30
100
AcDbLine
 10
663.776168
 20
232.622929
 30
0.0
 11
668.583337
 21
232.622929
 31
0.0
  0
LINE
  5
143
330
139
100
AcDbEntity
  8
004
 62
     3
370
    30
100
AcDbLine
 10
663.776168
 20
240.122929
 30
0.0
 11
668.583337
 21
240.122929
 31
0.0
  0
ARC
  5
144
330
139
100
AcDbEntity
  8
004
 62
     3
370
    30
100
AcDbCircle
 10
666.392563
 20
241.997929
 30
0.0
 40
2.883593961663491
100
AcDbArc
 50
319.441037
 51
0.0
  0
ARC
  5
145
330
139
100
AcDbEntity
  8
004
 62
     3
370
    30
100
AcDbCircle
 10
666.392563
 20
230.747929
 30
0.0
 40
2.883593961663491
100
AcDbArc
 50
0.0
 51
40.558963
  0
ARC
  5
146
330
139
100
AcDbEntity
  8
004
 62
     3
370
    30
100
AcDbCircle
 10
658.781012
 20
236.372929
 30
0.0
 40
10.49514536211251
100
AcDbArc
 50
339.065034
 51
20.934966
  0
LINE
  5
147
330
139
100
AcDbEntity
  8
004
 62
     3
370
    30
100
AcDbLine
 10
663.776157
 20
236.372935
 30
0.0
 11
663.776168
 21
236.372935
 31
0.0
  0
LINE
  5
148
330
139
100
AcDbEntity
  8
004
 62
     3
370
    30
100
AcDbLine
 10
663.776157
 20
236.372935
 30
0.0
 11
663.776157
 21
236.372924
 31
0.0
  0
LINE
  5
149
330
139
100
AcDbEntity
  8
004
 62
     3
370
    30
100
AcDbLine
 10
663.776157
 20
236.372924
 30
0.0
 11
663.776168
 21
236.372924
 31
0.0
  0
ENDBLK
  5
13B
330
139
100
AcDbEntity
  8
0
100
AcDbBlockEnd
  0
BLOCK
  5
14B
330
14A
100
AcDbEntity
  8
0
100
AcDbBlockBegin
  2
JZB-22
 70
     0
 10
0.0
 20
0.0
 30
0.0
  3
JZB-22
  1

  0
LINE
  5
14D
330
14A
100
AcDbEntity
  8
004
 62
     3
370
    30
100
AcDbLine
 10
668.583337
 20
194.374929
 30
0.0
 11
663.776168
 21
194.374929
 31
0.0
  0
LINE
  5
14E
330
14A
100
AcDbEntity
  8
004
 62
     3
370
    30
100
AcDbLine
 10
669.276157
 20
193.174929
 30
0.0
 11
669.276157
 21
180.574929
 31
0.0
  0
LINE
  5
14F
330
14A
100
AcDbEntity
  8
004
 62
     3
370
    30
100
AcDbLine
 10
663.776168
 20
194.374929
 30
0.0
 11
663.776168
 21
179.374929
 31
0.0
  0
LINE
  5
150
330
14A
100
AcDbEntity
  8
004
 62
     3
370
    30
100
AcDbLine
 10
669.276157
 20
193.174929
 30
0.0
 11
668.583337
 21
194.374929
 31
0.0
  0
LINE
  5
151
330
14A
100
AcDbEntity
  8
004
 62
     3
370
    30
100
AcDbLine
 10
669.276157
 20
180.574929
 30
0.0
 11
668.583337
 21
179.374929
 31
0.0
  0
LINE
  5
152
330
14A
100
AcDbEntity
  8
004
 62
     3
370
    30
100
AcDbLine
 10
668.583337
 20
179.374929
 30
0.0
 11
663.776168
 21
179.374929
 31
0.0
  0
LINE
  5
153
330
14A
100
AcDbEntity
  8
004
 62
     3
370
    30
100
AcDbLine
 10
663.776168
 20
190.624929
 30
0.0
 11
668.583337
 21
190.624929
 31
0.0
  0
LINE
  5
154
330
14A
100
AcDbEntity
  8
004
 62
     3
370
    30
100
AcDbLine
 10
663.776168
 20
183.124929
 30
0.0
 11
668.583337
 21
183.124929
 31
0.0
  0
ARC
  5
155
330
14A
100
AcDbEntity
  8
004
 62
     3
370
    30
100
AcDbCircle
 10
666.392563
 20
181.249929
 30
0.0
 40
2.883593961663491
100
AcDbArc
 50
0.0
 51
40.558963
  0
ARC
  5
156
330
14A
100
AcDbEntity
  8
004
 62
     3
370
    30
100
AcDbCircle
 10
666.392563
 20
192.499929
 30
0.0
 40
2.883593961663491
100
AcDbArc
 50
319.441037
 51
0.0
  0
ARC
  5
157
330
14A
100
AcDbEntity
  8
004
 62
     3
370
    30
100
AcDbCircle
 10
658.781012
 20
186.874929
 30
0.0
 40
10.49514536211251
100
AcDbArc
 50
339.065034
 51
20.934966
  0
LINE
  5
158
330
14A
100
AcDbEntity
  8
004
 62
     3
370
    30
100
AcDbLine
 10
663.776157
 20
186.874924
 30
0.0
 11
663.776168
 21
186.874924
 31
0.0
  0
LINE
  5
159
330
14A
100
AcDbEntity
  8
004
 62
     3
370
    30
100
AcDbLine
 10
663.776157
 20
186.874924
 30
0.0
 11
663.776157
 21
186.874935
 31
0.0
  0
LINE
  5
15A
330
14A
100
AcDbEntity
  8
004
 62
     3
370
    30
100
AcDbLine
 10
663.776157
 20
186.874935
 30
0.0
 11
663.776168
 21
186.874935
 31
0.0
  0
ENDBLK
  5
14C
330
14A
100
AcDbEntity
  8
0
100
AcDbBlockEnd
  0
BLOCK
  5
15C
330
15B
100
AcDbEntity
  8
0
100
AcDbBlockBegin
  2
JZB-23
 70
     0
 10
0.0
 20
0.0
 30
0.0
  3
JZB-23
  1

  0
LINE
  5
15E
330
15B
100
AcDbEntity
  8
004
 62
     3
370
    30
100
AcDbLine
 10
501.468978
 20
228.872929
 30
0.0
 11
506.276146
 21
228.872929
 31
0.0
  0
LINE
  5
15F
330
15B
100
AcDbEntity
  8
004
 62
     3
370
    30
100
AcDbLine
 10
500.776157
 20
230.072929
 30
0.0
 11
500.776157
 21
242.672929
 31
0.0
  0
LINE
  5
160
330
15B
100
AcDbEntity
  8
004
 62
     3
370
    30
100
AcDbLine
 10
506.276146
 20
228.872929
 30
0.0
 11
506.276146
 21
243.872929
 31
0.0
  0
LINE
  5
161
330
15B
100
AcDbEntity
  8
004
 62
     3
370
    30
100
AcDbLine
 10
500.776157
 20
230.072929
 30
0.0
 11
501.468978
 21
228.872929
 31
0.0
  0
LINE
  5
162
330
15B
100
AcDbEntity
  8
004
 62
     3
370
    30
100
AcDbLine
 10
500.776157
 20
242.672929
 30
0.0
 11
501.468978
 21
243.872929
 31
0.0
  0
LINE
  5
163
330
15B
100
AcDbEntity
  8
004
 62
     3
370
    30
100
AcDbLine
 10
501.468978
 20
243.872929
 30
0.0
 11
506.276146
 21
243.872929
 31
0.0
  0
LINE
  5
164
330
15B
100
AcDbEntity
  8
004
 62
     3
370
    30
100
AcDbLine
 10
506.276146
 20
232.622929
 30
0.0
 11
501.468978
 21
232.622929
 31
0.0
  0
LINE
  5
165
330
15B
100
AcDbEntity
  8
004
 62
     3
370
    30
100
AcDbLine
 10
506.276146
 20
240.122929
 30
0.0
 11
501.468978
 21
240.122929
 31
0.0
  0
ARC
  5
166
330
15B
100
AcDbEntity
  8
004
 62
     3
370
    30
100
AcDbCircle
 10
503.659751
 20
241.997929
 30
0.0
 40
2.883593961663491
100
AcDbArc
 50
180.0
 51
220.558963
  0
ARC
  5
167
330
15B
100
AcDbEntity
  8
004
 62
     3
370
    30
100
AcDbCircle
 10
503.659751
 20
230.747929
 30
0.0
 40
2.883593961663491
100
AcDbArc
 50
139.441037
 51
180.0
  0
ARC
  5
168
330
15B
100
AcDbEntity
  8
004
 62
     3
370
    30
100
AcDbCircle
 10
511.271303
 20
236.372929
 30
0.0
 40
10.49514536211251
100
AcDbArc
 50
159.065034
 51
200.934966
  0
LINE
  5
169
330
15B
100
AcDbEntity
  8
004
 62
     3
370
    30
100
AcDbLine
 10
506.276157
 20
236.372935
 30
0.0
 11
506.276146
 21
236.372935
 31
0.0
  0
LINE
  5
16A
330
15B
100
AcDbEntity
  8
004
 62
     3
370
    30
100
AcDbLine
 10
506.276157
 20
236.372935
 30
0.0
 11
506.276157
 21
236.372924
 31
0.0
  0
LINE
  5
16B
330
15B
100
AcDbEntity
  8
004
 62
     3
370
    30
100
AcDbLine
 10
506.276157
 20
236.372924
 30
0.0
 11
506.276146
 21
236.372924
 31
0.0
  0
ENDBLK
  5
15D
330
15B
100
AcDbEntity
  8
0
100
AcDbBlockEnd
  0
BLOCK
  5
16D
330
16C
100
AcDbEntity
  8
0
100
AcDbBlockBegin
  2
JZB-24
 70
     0
 10
0.0
 20
0.0
 30
0.0
  3
JZB-24
  1

  0
LINE
  5
16F
330
16C
100
AcDbEntity
  8
004
 62
     3
370
    30
100
AcDbLine
 10
501.468978
 20
194.374929
 30
0.0
 11
506.276146
 21
194.374929
 31
0.0
  0
LINE
  5
170
330
16C
100
AcDbEntity
  8
004
 62
     3
370
    30
100
AcDbLine
 10
500.776157
 20
193.174929
 30
0.0
 11
500.776157
 21
180.574929
 31
0.0
  0
LINE
  5
171
330
16C
100
AcDbEntity
  8
004
 62
     3
370
    30
100
AcDbLine
 10
506.276146
 20
194.374929
 30
0.0
 11
506.276146
 21
179.374929
 31
0.0
  0
LINE
  5
172
330
16C
100
AcDbEntity
  8
004
 62
     3
370
    30
100
AcDbLine
 10
500.776157
 20
193.174929
 30
0.0
 11
501.468978
 21
194.374929
 31
0.0
  0
LINE
  5
173
330
16C
100
AcDbEntity
  8
004
 62
     3
370
    30
100
AcDbLine
 10
500.776157
 20
180.574929
 30
0.0
 11
501.468978
 21
179.374929
 31
0.0
  0
LINE
  5
174
330
16C
100
AcDbEntity
  8
004
 62
     3
370
    30
100
AcDbLine
 10
501.468978
 20
179.374929
 30
0.0
 11
506.276146
 21
179.374929
 31
0.0
  0
LINE
  5
175
330
16C
100
AcDbEntity
  8
004
 62
     3
370
    30
100
AcDbLine
 10
506.276146
 20
190.624929
 30
0.0
 11
501.468978
 21
190.624929
 31
0.0
  0
LINE
  5
176
330
16C
100
AcDbEntity
  8
004
 62
     3
370
    30
100
AcDbLine
 10
506.276146
 20
183.124929
 30
0.0
 11
501.468978
 21
183.124929
 31
0.0
  0
ARC
  5
177
330
16C
100
AcDbEntity
  8
004
 62
     3
370
    30
100
AcDbCircle
 10
503.659751
 20
181.249929
 30
0.0
 40
2.883593961663491
100
AcDbArc
 50
139.441037
 51
180.0
  0
ARC
  5
178
330
16C
100
AcDbEntity
  8
004
 62
     3
370
    30
100
AcDbCircle
 10
503.659751
 20
192.499929
 30
0.0
 40
2.883593961663491
100
AcDbArc
 50
180.0
 51
220.558963
  0
ARC
  5
179
330
16C
100
AcDbEntity
  8
004
 62
     3
370
    30
100
AcDbCircle
 10
511.271303
 20
186.874929
 30
0.0
 40
10.49514536211251
100
AcDbArc
 50
159.065034
 51
200.934966
  0
LINE
  5
17A
330
16C
100
AcDbEntity
  8
004
 62
     3
370
    30
100
AcDbLine
 10
506.276157
 20
186.874924
 30
0.0
 11
506.276146
 21
186.874924
 31
0.0
  0
LINE
  5
17B
330
16C
100
AcDbEntity
  8
004
 62
     3
370
    30
100
AcDbLine
 10
506.276157
 20
186.874924
 30
0.0
 11
506.276157
 21
186.874935
 31
0.0
  0
LINE
  5
17C
330
16C
100
AcDbEntity
  8
004
 62
     3
370
    30
100
AcDbLine
 10
506.276157
 20
186.874935
 30
0.0
 11
506.276146
 21
186.874935
 31
0.0
  0
ENDBLK
  5
16E
330
16C
100
AcDbEntity
  8
0
100
AcDbBlockEnd
  0
ENDSEC
  0
SECTION
  2
ENTITIES
  0
INSERT
  5
17D
330
1F
100
AcDbEntity
  8
004
  6
ByBlock
 62
     0
370
    -2
100
AcDbBlockReference
  2
JZB-1
 10
0.0
 20
0.0
 30
0.0
  0
INSERT
  5
17E
330
1F
100
AcDbEntity
  8
004
  6
ByBlock
 62
     0
370
    -2
100
AcDbBlockReference
  2
JZB-2
 10
0.0
 20
0.0
 30
0.0
  0
INSERT
  5
17F
330
1F
100
AcDbEntity
  8
004
  6
ByBlock
 62
     0
370
    -2
100
AcDbBlockReference
  2
JZB-3
 10
0.0
 20
0.0
 30
0.0
  0
INSERT
  5
180
330
1F
100
AcDbEntity
  8
004
  6
ByBlock
 62
     0
370
    -2
100
AcDbBlockReference
  2
JZB-4
 10
0.0
 20
0.0
 30
0.0
  0
INSERT
  5
181
330
1F
100
AcDbEntity
  8
004
  6
ByBlock
 62
     0
370
    -2
100
AcDbBlockReference
  2
JZB-5
 10
0.0
 20
0.0
 30
0.0
  0
INSERT
  5
182
330
1F
100
AcDbEntity
  8
004
  6
ByBlock
 62
     0
370
    -2
100
AcDbBlockReference
  2
JZB-6
 10
0.0
 20
0.0
 30
0.0
  0
INSERT
  5
183
330
1F
100
AcDbEntity
  8
004
  6
ByBlock
 62
     0
370
    -2
100
AcDbBlockReference
  2
JZB-7
 10
0.0
 20
0.0
 30
0.0
  0
INSERT
  5
184
330
1F
100
AcDbEntity
  8
004
  6
ByBlock
 62
     0
370
    -2
100
AcDbBlockReference
  2
JZB-8
 10
0.0
 20
0.0
 30
0.0
  0
INSERT
  5
185
330
1F
100
AcDbEntity
  8
004
  6
ByBlock
 62
     0
370
    -2
100
AcDbBlockReference
  2
JZB-9
 10
0.0
 20
0.0
 30
0.0
  0
INSERT
  5
186
330
1F
100
AcDbEntity
  8
004
  6
ByBlock
 62
     0
370
    -2
100
AcDbBlockReference
  2
JZB-10
 10
0.0
 20
0.0
 30
0.0
  0
INSERT
  5
187
330
1F
100
AcDbEntity
  8
004
  6
ByBlock
 62
     0
370
    -2
100
AcDbBlockReference
  2
JZB-11
 10
0.0
 20
0.0
 30
0.0
  0
INSERT
  5
188
330
1F
100
AcDbEntity
  8
004
  6
ByBlock
 62
     0
370
    -2
100
AcDbBlockReference
  2
JZB-12
 10
0.0
 20
0.0
 30
0.0
  0
INSERT
  5
189
330
1F
100
AcDbEntity
  8
004
  6
ByBlock
 62
     0
370
    -2
100
AcDbBlockReference
  2
JZB-13
 10
0.0
 20
0.0
 30
0.0
  0
INSERT
  5
18A
330
1F
100
AcDbEntity
  8
004
  6
ByBlock
 62
     0
370
    -2
100
AcDbBlockReference
  2
JZB-14
 10
0.0
 20
0.0
 30
0.0
  0
INSERT
  5
18B
330
1F
100
AcDbEntity
  8
004
  6
ByBlock
 62
     0
370
    -2
100
AcDbBlockReference
  2
JZB-15
 10
0.0
 20
0.0
 30
0.0
  0
INSERT
  5
18C
330
1F
100
AcDbEntity
  8
004
  6
ByBlock
 62
     0
370
    -2
100
AcDbBlockReference
  2
JZB-16
 10
0.0
 20
0.0
 30
0.0
  0
INSERT
  5
18D
330
1F
100
AcDbEntity
  8
004
  6
ByBlock
 62
     0
370
    -2
100
AcDbBlockReference
  2
JZB-17
 10
0.0
 20
0.0
 30
0.0
  0
INSERT
  5
18E
330
1F
100
AcDbEntity
  8
004
  6
ByBlock
 62
     0
370
    -2
100
AcDbBlockReference
  2
JZB-18
 10
0.0
 20
0.0
 30
0.0
  0
INSERT
  5
18F
330
1F
100
AcDbEntity
  8
004
  6
ByBlock
 62
     0
370
    -2
100
AcDbBlockReference
  2
JZB-19
 10
0.0
 20
0.0
 30
0.0
  0
INSERT
  5
190
330
1F
100
AcDbEntity
  8
004
  6
ByBlock
 62
     0
370
    -2
100
AcDbBlockReference
  2
JZB-20
 10
0.0
 20
0.0
 30
0.0
  0
INSERT
  5
191
330
1F
100
AcDbEntity
  8
004
  6
ByBlock
 62
     0
370
    -2
100
AcDbBlockReference
  2
JZB-21
 10
0.0
 20
0.0
 30
0.0
  0
INSERT
  5
192
330
1F
100
AcDbEntity
  8
004
  6
ByBlock
 62
     0
370
    -2
100
AcDbBlockReference
  2
JZB-22
 10
0.0
 20
0.0
 30
0.0
  0
INSERT
  5
193
330
1F
100
AcDbEntity
  8
004
  6
ByBlock
 62
     0
370
    -2
100
AcDbBlockReference
  2
JZB-23
 10
0.0
 20
0.0
 30
0.0
  0
INSERT
  5
194
330
1F
100
AcDbEntity
  8
004
  6
ByBlock
 62
     0
370
    -2
100
AcDbBlockReference
  2
JZB-24
 10
0.0
 20
0.0
 30
0.0
  0
LINE
  5
195
330
1F
100
AcDbEntity
  8
002
 62
     3
370
    30
100
AcDbLine
 10
1138.108699
 20
445.464435
 30
0.0
 11
1093.108699
 21
445.464435
 31
0.0
  0
LINE
  5
196
330
1F
100
AcDbEntity
  8
002
 62
     3
370
    30
100
AcDbLine
 10
1093.108699
 20
445.464435
 30
0.0
 11
1093.108699
 21
460.464435
 31
0.0
  0
LINE
  5
197
330
1F
100
AcDbEntity
  8
002
 62
     3
370
    30
100
AcDbLine
 10
1138.108699
 20
445.464435
 30
0.0
 11
1138.108699
 21
460.464435
 31
0.0
  0
LINE
  5
198
330
1F
100
AcDbEntity
  8
002
 62
     3
370
    30
100
AcDbLine
 10
1146.608699
 20
480.464435
 30
0.0
 11
1196.608699
 21
480.464435
 31
0.0
  0
ARC
  5
199
330
1F
100
AcDbEntity
  8
002
 62
     3
370
    30
100
AcDbCircle
 10
1196.608699
 20
491.464435
 30
0.0
 40
11.0
100
AcDbArc
 50
270.0
 51
0.0
  0
LINE
  5
19A
330
1F
100
AcDbEntity
  8
002
 62
     3
370
    30
100
AcDbLine
 10
1207.608699
 20
478.464435
 30
0.0
 11
1207.608699
 21
541.464435
 31
0.0
  0
LINE
  5
19B
330
1F
100
AcDbEntity
  8
002
 62
     3
370
    30
100
AcDbLine
 10
1206.569699
 20
546.130635
 30
0.0
 11
1239.259699
 21
476.343535
 31
0.0
  0
LINE
  5
19C
330
1F
100
AcDbEntity
  8
002
 62
     3
370
    30
100
AcDbLine
 10
1242.608699
 20
473.464435
 30
0.0
 11
1041.608699
 21
473.464435
 31
0.0
  0
LINE
  5
19D
330
1F
100
AcDbEntity
  8
002
 62
     3
370
    30
100
AcDbLine
 10
1039.608699
 20
471.464435
 30
0.0
 11
1039.608699
 21
460.464435
 31
0.0
  0
LINE
  5
19E
330
1F
100
AcDbEntity
  8
002
 62
     3
370
    30
100
AcDbLine
 10
1039.608699
 20
460.464435
 30
0.0
 11
1244.608699
 21
460.464435
 31
0.0
  0
LINE
  5
19F
330
1F
100
AcDbEntity
  8
002
 62
     3
370
    30
100
AcDbLine
 10
1244.608699
 20
460.464435
 30
0.0
 11
1244.608699
 21
471.464435
 31
0.0
  0
ARC
  5
1A0
330
1F
100
AcDbEntity
  8
002
 62
     3
370
    30
100
AcDbCircle
 10
1243.787699
 20
478.464435
 30
0.0
 40
5.00010007999842
100
AcDbArc
 50
205.098234
 51
270.0
  0
ARC
  5
1A1
330
1F
100
AcDbEntity
  8
002
 62
     3
370
    30
100
AcDbCircle
 10
1242.608699
 20
471.464435
 30
0.0
 40
2.0
100
AcDbArc
 50
0.0
 51
90.0
  0
ARC
  5
1A2
330
1F
100
AcDbEntity
  8
002
 62
     3
370
    30
100
AcDbCircle
 10
1230.760699
 20
499.201435
 30
0.0
 40
1.999796792176636
100
AcDbArc
 50
115.090109
 51
205.101702
  0
LINE
  5
1A3
330
1F
100
AcDbEntity
  8
002
 62
     3
370
    30
100
AcDbLine
 10
1229.912699
 20
501.012535
 30
0.0
 11
1214.641699
 21
533.613135
 31
0.0
  0
ARC
  5
1A4
330
1F
100
AcDbEntity
  8
002
 62
     3
370
    30
100
AcDbCircle
 10
1213.793699
 20
535.424235
 30
0.0
 40
2.000739085938105
100
AcDbArc
 50
205.08696
 51
295.090109
  0
ARC
  5
1A5
330
1F
100
AcDbEntity
  8
002
 62
     3
370
    30
100
AcDbCircle
 10
1190.608699
 20
557.464435
 30
0.0
 40
5.0
100
AcDbArc
 50
180.0
 51
270.0
  0
LINE
  5
1A6
330
1F
100
AcDbEntity
  8
002
 62
     3
370
    30
100
AcDbLine
 10
1185.608699
 20
557.464435
 30
0.0
 11
1185.608699
 21
572.464435
 31
0.0
  0
LINE
  5
1A7
330
1F
100
AcDbEntity
  8
002
 62
     3
370
    30
100
AcDbLine
 10
1185.608699
 20
572.464435
 30
0.0
 11
1045.608699
 21
572.464435
 31
0.0
  0
LINE
  5
1A8
330
1F
100
AcDbEntity
  8
002
 62
     3
370
    30
100
AcDbLine
 10
1045.608699
 20
572.464435
 30
0.0
 11
1045.608699
 21
560.464435
 31
0.0
  0
LINE
  5
1A9
330
1F
100
AcDbEntity
  8
002
 62
     3
370
    30
100
AcDbLine
 10
1045.608699
 20
560.464435
 30
0.0
 11
1185.608699
 21
560.464435
 31
0.0
  0
LINE
  5
1AA
330
1F
100
AcDbEntity
  8
002
 62
     3
370
    30
100
AcDbLine
 10
1196.608699
 20
552.464435
 30
0.0
 11
1090.608699
 21
552.464435
 31
0.0
  0
LINE
  5
1AB
330
1F
100
AcDbEntity
  8
002
 62
     3
370
    30
100
AcDbLine
 10
1085.608699
 20
547.464435
 30
0.0
 11
1085.608699
 21
478.464435
 31
0.0
  0
ARC
  5
1AC
330
1F
100
AcDbEntity
  8
002
 62
     3
370
    30
100
AcDbCircle
 10
1080.608699
 20
478.464435
 30
0.0
 40
5.0
100
AcDbArc
 50
270.0
 51
0.0
  0
LINE
  5
1AD
330
1F
100
AcDbEntity
  8
002
 62
     3
370
    30
100
AcDbLine
 10
1072.836699
 20
473.464435
 30
0.0
 11
1072.836699
 21
460.464435
 31
0.0
  0
LINE
  5
1AE
330
1F
100
AcDbEntity
  8
002
 62
     3
370
    30
100
AcDbLine
 10
1069.429699
 20
478.464435
 30
0.0
 11
1069.429699
 21
543.464435
 31
0.0
  0
ARC
  5
1AF
330
1F
100
AcDbEntity
  8
002
 62
     3
370
    30
100
AcDbCircle
 10
1064.429699
 20
543.464435
 30
0.0
 40
5.0
100
AcDbArc
 50
0.0
 51
90.0
  0
LINE
  5
1B0
330
1F
100
AcDbEntity
  8
002
 62
     3
370
    30
100
AcDbLine
 10
1080.608699
 20
548.464435
 30
0.0
 11
1054.608699
 21
548.464435
 31
0.0
  0
LINE
  5
1B1
330
1F
100
AcDbEntity
  8
002
 62
     3
370
    30
100
AcDbLine
 10
1054.608699
 20
560.464435
 30
0.0
 11
1054.608699
 21
478.464435
 31
0.0
  0
ARC
  5
1B2
330
1F
100
AcDbEntity
  8
002
 62
     3
370
    30
100
AcDbCircle
 10
1049.608699
 20
478.464435
 30
0.0
 40
5.0
100
AcDbArc
 50
270.0
 51
0.0
  0
ARC
  5
1B3
330
1F
100
AcDbEntity
  8
002
 62
     3
370
    30
100
AcDbCircle
 10
1041.608699
 20
471.464435
 30
0.0
 40
2.0
100
AcDbArc
 50
90.0
 51
180.0
  0
ARC
  5
1B4
330
1F
100
AcDbEntity
  8
002
 62
     3
370
    30
100
AcDbCircle
 10
1064.429699
 20
478.464435
 30
0.0
 40
5.0
100
AcDbArc
 50
270.0
 51
0.0
  0
LINE
  5
1B5
330
1F
100
AcDbEntity
  8
002
 62
     3
370
    30
100
AcDbLine
 10
1054.608699
 20
503.260535
 30
0.0
 11
1046.608699
 21
503.010535
 31
0.0
  0
LINE
  5
1B6
330
1F
100
AcDbEntity
  8
002
 62
     3
370
    30
100
AcDbLine
 10
1046.608699
 20
503.010535
 30
0.0
 11
1046.608699
 21
529.918435
 31
0.0
  0
LINE
  5
1B7
330
1F
100
AcDbEntity
  8
002
 62
     3
370
    30
100
AcDbLine
 10
1046.608699
 20
529.918435
 30
0.0
 11
1054.608699
 21
529.668435
 31
0.0
  0
LINE
  5
1B8
330
1F
100
AcDbEntity
  8
002
 62
     3
370
    30
100
AcDbLine
 10
1046.608699
 20
524.964435
 30
0.0
 11
1035.608699
 21
524.964435
 31
0.0
  0
LINE
  5
1B9
330
1F
100
AcDbEntity
  8
002
 62
     3
370
    30
100
AcDbLine
 10
1035.608699
 20
524.964435
 30
0.0
 11
1035.608699
 21
507.964435
 31
0.0
  0
LINE
  5
1BA
330
1F
100
AcDbEntity
  8
002
 62
     3
370
    30
100
AcDbLine
 10
1035.608699
 20
507.964435
 30
0.0
 11
1046.608699
 21
507.964435
 31
0.0
  0
ARC
  5
1BB
330
1F
100
AcDbEntity
  8
002
 62
     3
370
    30
100
AcDbCircle
 10
1080.608699
 20
543.464435
 30
0.0
 40
5.0
100
AcDbArc
 50
0.0
 51
90.0
  0
ARC
  5
1BC
330
1F
100
AcDbEntity
  8
002
 62
     3
370
    30
100
AcDbCircle
 10
1090.608699
 20
547.464435
 30
0.0
 40
5.0
100
AcDbArc
 50
90.0
 51
180.0
  0
LINE
  5
1BD
330
1F
100
AcDbEntity
  8
002
 62
     3
370
    30
100
AcDbLine
 10
1107.608699
 20
572.464435
 30
0.0
 11
1107.608699
 21
582.464435
 31
0.0
  0
LINE
  5
1BE
330
1F
100
AcDbEntity
  8
002
 62
     3
370
    30
100
AcDbLine
 10
1123.608699
 20
582.464435
 30
0.0
 11
1123.608699
 21
572.464435
 31
0.0
  0
LINE
  5
1BF
330
1F
100
AcDbEntity
  8
002
 62
     3
370
    30
100
AcDbLine
 10
1123.608699
 20
574.995235
 30
0.0
 11
1158.703699
 21
574.995235
 31
0.0
  0
LINE
  5
1C0
330
1F
100
AcDbEntity
  8
002
 62
     3
370
    30
100
AcDbLine
 10
1158.703699
 20
572.464435
 30
0.0
 11
1158.703699
 21
582.464435
 31
0.0
  0
LINE
  5
1C1
330
1F
100
AcDbEntity
  8
002
 62
     3
370
    30
100
AcDbLine
 10
1174.703699
 20
582.464435
 30
0.0
 11
1174.703699
 21
572.464435
 31
0.0
  0
LINE
  5
1C2
330
1F
100
AcDbEntity
  8
002
 62
     3
370
    30
100
AcDbLine
 10
1174.703699
 20
582.464435
 30
0.0
 11
1158.703699
 21
582.464435
 31
0.0
  0
LINE
  5
1C3
330
1F
100
AcDbEntity
  8
002
 62
     3
370
    30
100
AcDbLine
 10
1160.858699
 20
582.464435
 30
0.0
 11
1160.608699
 21
585.464435
 31
0.0
  0
LINE
  5
1C4
330
1F
100
AcDbEntity
  8
002
 62
     3
370
    30
100
AcDbLine
 10
1160.608699
 20
585.464435
 30
0.0
 11
1070.608699
 21
585.464435
 31
0.0
  0
LINE
  5
1C5
330
1F
100
AcDbEntity
  8
002
 62
     3
370
    30
100
AcDbLine
 10
1070.608699
 20
585.464435
 30
0.0
 11
1070.608699
 21
591.464435
 31
0.0
  0
LINE
  5
1C6
330
1F
100
AcDbEntity
  8
002
 62
     3
370
    30
100
AcDbLine
 10
1070.608699
 20
591.464435
 30
0.0
 11
1160.608699
 21
591.464435
 31
0.0
  0
LINE
  5
1C7
330
1F
100
AcDbEntity
  8
002
 62
     3
370
    30
100
AcDbLine
 10
1160.608699
 20
591.464435
 30
0.0
 11
1160.608699
 21
585.464435
 31
0.0
  0
LINE
  5
1C8
330
1F
100
AcDbEntity
  8
002
 62
     3
370
    30
100
AcDbLine
 10
1159.108699
 20
591.464435
 30
0.0
 11
1159.108699
 21
597.464435
 31
0.0
  0
LINE
  5
1C9
330
1F
100
AcDbEntity
  8
002
 62
     3
370
    30
100
AcDbLine
 10
1149.108699
 20
597.464435
 30
0.0
 11
1149.108699
 21
591.464435
 31
0.0
  0
LINE
  5
1CA
330
1F
100
AcDbEntity
  8
002
 62
     3
370
    30
100
AcDbLine
 10
1145.858699
 20
591.464435
 30
0.0
 11
1145.858699
 21
645.464435
 31
0.0
  0
LINE
  5
1CB
330
1F
100
AcDbEntity
  8
002
 62
     3
370
    30
100
AcDbLine
 10
1145.858699
 20
645.464435
 30
0.0
 11
1085.358699
 21
645.464435
 31
0.0
  0
LINE
  5
1CC
330
1F
100
AcDbEntity
  8
002
 62
     3
370
    30
100
AcDbLine
 10
1085.358699
 20
645.464435
 30
0.0
 11
1085.358699
 21
591.464435
 31
0.0
  0
LINE
  5
1CD
330
1F
100
AcDbEntity
  8
002
 62
     3
370
    30
100
AcDbLine
 10
1082.108699
 20
591.464435
 30
0.0
 11
1082.108699
 21
597.464435
 31
0.0
  0
LINE
  5
1CE
330
1F
100
AcDbEntity
  8
002
 62
     3
370
    30
100
AcDbLine
 10
1072.108699
 20
597.464435
 30
0.0
 11
1072.108699
 21
591.464435
 31
0.0
  0
LINE
  5
1CF
330
1F
100
AcDbEntity
  8
002
 62
     3
370
    30
100
AcDbLine
 10
1072.108699
 20
597.464435
 30
0.0
 11
1082.108699
 21
597.464435
 31
0.0
  0
LINE
  5
1D0
330
1F
100
AcDbEntity
  8
002
 62
     3
370
    30
100
AcDbLine
 10
1070.608699
 20
585.464435
 30
0.0
 11
1070.358699
 21
582.464435
 31
0.0
  0
LINE
  5
1D1
330
1F
100
AcDbEntity
  8
002
 62
     3
370
    30
100
AcDbLine
 10
1072.512699
 20
582.464435
 30
0.0
 11
1056.512699
 21
582.464435
 31
0.0
  0
LINE
  5
1D2
330
1F
100
AcDbEntity
  8
002
 62
     3
370
    30
100
AcDbLine
 10
1072.512699
 20
582.464435
 30
0.0
 11
1072.512699
 21
572.464435
 31
0.0
  0
LINE
  5
1D3
330
1F
100
AcDbEntity
  8
002
 62
     3
370
    30
100
AcDbLine
 10
1072.512699
 20
574.995235
 30
0.0
 11
1107.608699
 21
574.995235
 31
0.0
  0
LINE
  5
1D4
330
1F
100
AcDbEntity
  8
002
 62
     3
370
    30
100
AcDbLine
 10
1107.608699
 20
582.464435
 30
0.0
 11
1123.608699
 21
582.464435
 31
0.0
  0
LINE
  5
1D5
330
1F
100
AcDbEntity
  8
002
 62
     3
370
    30
100
AcDbLine
 10
1120.608699
 20
591.464435
 30
0.0
 11
1120.608699
 21
597.464435
 31
0.0
  0
LINE
  5
1D6
330
1F
100
AcDbEntity
  8
002
 62
     3
370
    30
100
AcDbLine
 10
1110.608699
 20
597.464435
 30
0.0
 11
1110.608699
 21
591.464435
 31
0.0
  0
LINE
  5
1D7
330
1F
100
AcDbEntity
  8
002
 62
     3
370
    30
100
AcDbLine
 10
1110.608699
 20
597.464435
 30
0.0
 11
1120.608699
 21
597.464435
 31
0.0
  0
LINE
  5
1D8
330
1F
100
AcDbEntity
  8
002
 62
     3
370
    30
100
AcDbLine
 10
1149.108699
 20
597.464435
 30
0.0
 11
1159.108699
 21
597.464435
 31
0.0
  0
LINE
  5
1D9
330
1F
100
AcDbEntity
  8
002
 62
     3
370
    30
100
AcDbLine
 10
1135.608699
 20
541.464435
 30
0.0
 11
1135.608699
 21
491.464435
 31
0.0
  0
ARC
  5
1DA
330
1F
100
AcDbEntity
  8
002
 62
     3
370
    30
100
AcDbCircle
 10
1146.608699
 20
491.464435
 30
0.0
 40
11.0
100
AcDbArc
 50
180.0
 51
270.0
  0
LINE
  5
1DB
330
1F
100
AcDbEntity
  8
002
 62
     3
370
    30
100
AcDbLine
 10
1118.494699
 20
511.464435
 30
0.0
 11
1121.381699
 21
516.464435
 31
0.0
  0
LINE
  5
1DC
330
1F
100
AcDbEntity
  8
002
 62
     3
370
    30
100
AcDbLine
 10
1121.381699
 20
516.464435
 30
0.0
 11
1118.494699
 21
521.464435
 31
0.0
  0
LINE
  5
1DD
330
1F
100
AcDbEntity
  8
002
 62
     3
370
    30
100
AcDbLine
 10
1118.494699
 20
521.464435
 30
0.0
 11
1112.721699
 21
521.464435
 31
0.0
  0
LINE
  5
1DE
330
1F
100
AcDbEntity
  8
002
 62
     3
370
    30
100
AcDbLine
 10
1112.721699
 20
521.464435
 30
0.0
 11
1109.834699
 21
516.464435
 31
0.0
  0
LINE
  5
1DF
330
1F
100
AcDbEntity
  8
002
 62
     3
370
    30
100
AcDbLine
 10
1109.834699
 20
516.464435
 30
0.0
 11
1112.721699
 21
511.464435
 31
0.0
  0
LINE
  5
1E0
330
1F
100
AcDbEntity
  8
002
 62
     3
370
    30
100
AcDbLine
 10
1112.721699
 20
511.464435
 30
0.0
 11
1118.494699
 21
511.464435
 31
0.0
  0
CIRCLE
  5
1E1
330
1F
100
AcDbEntity
  8
002
 62
     3
370
    30
100
AcDbCircle
 10
1115.608699
 20
516.464435
 30
0.0
 40
0.75
  0
CIRCLE
  5
1E2
330
1F
100
AcDbEntity
  8
002
 62
     3
370
    30
100
AcDbCircle
 10
1115.608699
 20
516.464435
 30
0.0
 40
2.5
  0
CIRCLE
  5
1E3
330
1F
100
AcDbEntity
  8
002
 62
     3
370
    30
100
AcDbCircle
 10
1115.608699
 20
516.464435
 30
0.0
 40
3.25
  0
CIRCLE
  5
1E4
330
1F
100
AcDbEntity
  8
002
 62
     3
370
    30
100
AcDbCircle
 10
1115.608699
 20
516.464435
 30
0.0
 40
5.0
  0
ARC
  5
1E5
330
1F
100
AcDbEntity
  8
002
 62
     3
370
    30
100
AcDbCircle
 10
1146.608699
 20
541.464435
 30
0.0
 40
11.0
100
AcDbArc
 50
90.0
 51
180.0
  0
ARC
  5
1E6
330
1F
100
AcDbEntity
  8
002
 62
     3
370
    30
100
AcDbCircle
 10
1196.608699
 20
541.464435
 30
0.0
 40
11.0
100
AcDbArc
 50
0.0
 51
90.0
  0
ARC
  5
1E7
330
1F
100
AcDbEntity
  8
002
 62
     3
370
    30
100
AcDbCircle
 10
1212.608699
 20
478.464435
 30
0.0
 40
5.0
100
AcDbArc
 50
180.0
 51
270.0
  0
LINE
  5
1E8
330
1F
100
AcDbEntity
  8
002
 62
     3
370
    30
100
AcDbLine
 10
1056.512699
 20
582.464435
 30
0.0
 11
1056.512699
 21
572.464435
 31
0.0
  0
LINE
  5
1E9
330
1F
100
AcDbEntity
  8
002
  6
CENTER
 62
    40
370
     9
100
AcDbLine
 10
1059.608699
 20
452.745935
 30
0.0
 11
1059.608699
 21
480.464435
 31
0.0
  0
LINE
  5
1EA
330
1F
100
AcDbEntity
  8
002
 62
    40
370
     9
100
AcDbLine
 10
1054.608699
 20
504.405935
 30
0.0
 11
1046.608699
 21
504.155935
 31
0.0
  0
LINE
  5
1EB
330
1F
100
AcDbEntity
  8
002
 62
    40
370
     9
100
AcDbLine
 10
1046.608699
 20
507.964435
 30
0.0
 11
1035.608699
 21
524.964435
 31
0.0
  0
LINE
  5
1EC
330
1F
100
AcDbEntity
  8
002
  6
CENTER
 62
    40
370
     9
100
AcDbLine
 10
1032.164699
 20
516.464435
 30
0.0
 11
1232.390699
 21
516.464435
 31
0.0
  0
LINE
  5
1ED
330
1F
100
AcDbEntity
  8
002
  6
CENTER
 62
    40
370
     9
100
AcDbLine
 10
1224.608699
 20
480.464435
 30
0.0
 11
1224.608699
 21
452.745935
 31
0.0
  0
LINE
  5
1EE
330
1F
100
AcDbEntity
  8
002
  6
CENTER
 62
    40
370
     9
100
AcDbLine
 10
1166.703699
 20
558.142435
 30
0.0
 11
1166.703699
 21
584.664635
 31
0.0
  0
LINE
  5
1EF
330
1F
100
AcDbEntity
  8
002
  6
CENTER
 62
    40
370
     9
100
AcDbLine
 10
1154.108699
 20
585.464435
 30
0.0
 11
1154.108699
 21
600.515635
 31
0.0
  0
LINE
  5
1F0
330
1F
100
AcDbEntity
  8
002
  6
CENTER
 62
    40
370
     9
100
AcDbLine
 10
1171.608699
 20
565.335235
 30
0.0
 11
1171.608699
 21
452.290035
 31
0.0
  0
LINE
  5
1F1
330
1F
100
AcDbEntity
  8
002
  6
CENTER
 62
    40
370
     9
100
AcDbLine
 10
1077.108699
 20
585.464435
 30
0.0
 11
1077.108699
 21
600.515635
 31
0.0
  0
LINE
  5
1F2
330
1F
100
AcDbEntity
  8
002
  6
CENTER
 62
    40
370
     9
100
AcDbLine
 10
1064.512699
 20
584.664635
 30
0.0
 11
1064.512699
 21
558.142435
 31
0.0
  0
LINE
  5
1F3
330
1F
100
AcDbEntity
  8
002
 62
    40
370
     9
100
AcDbLine
 10
1054.608699
 20
528.522935
 30
0.0
 11
1046.608699
 21
528.772935
 31
0.0
  0
LINE
  5
1F4
330
1F
100
AcDbEntity
  8
002
 62
    40
370
     9
100
AcDbLine
 10
1046.608699
 20
524.964435
 30
0.0
 11
1035.608699
 21
507.964435
 31
0.0
  0
LINE
  5
1F5
330
1F
100
AcDbEntity
  8
002
  6
HIDDEN
 62
    40
370
     9
100
AcDbLine
 10
1068.608699
 20
460.464435
 30
0.0
 11
1068.608699
 21
473.464435
 31
0.0
  0
LINE
  5
1F6
330
1F
100
AcDbEntity
  8
002
  6
HIDDEN
 62
    40
370
     9
100
AcDbLine
 10
1050.608699
 20
473.464435
 30
0.0
 11
1050.608699
 21
460.464435
 31
0.0
  0
LINE
  5
1F7
330
1F
100
AcDbEntity
  8
002
  6
HIDDEN
 62
    40
370
     9
100
AcDbLine
 10
1215.608699
 20
473.464435
 30
0.0
 11
1215.608699
 21
460.464435
 31
0.0
  0
LINE
  5
1F8
330
1F
100
AcDbEntity
  8
002
  6
HIDDEN
 62
    40
370
     9
100
AcDbLine
 10
1233.608699
 20
460.464435
 30
0.0
 11
1233.608699
 21
473.464435
 31
0.0
  0
LINE
  5
1F9
330
1F
100
AcDbEntity
  8
002
 62
     3
370
    30
100
AcDbLine
 10
1097.608699
 20
105.464435
 30
0.0
 11
1133.608699
 21
105.464435
 31
0.0
  0
LINE
  5
1FA
330
1F
100
AcDbEntity
  8
002
 62
     3
370
    30
100
AcDbLine
 10
1103.108699
 20
105.464435
 30
0.0
 11
1103.108699
 21
60.464435
 31
0.0
  0
LINE
  5
1FB
330
1F
100
AcDbEntity
  8
002
 62
     3
370
    30
100
AcDbLine
 10
1103.108699
 20
60.464435
 30
0.0
 11
1128.108699
 21
60.464435
 31
0.0
  0
LINE
  5
1FC
330
1F
100
AcDbEntity
  8
002
 62
     3
370
    30
100
AcDbLine
 10
1128.108699
 20
60.464435
 30
0.0
 11
1128.108699
 21
105.464435
 31
0.0
  0
LINE
  5
1FD
330
1F
100
AcDbEntity
  8
002
 62
     3
370
    30
100
AcDbLine
 10
231.026157
 20
203.123929
 30
0.0
 11
231.026157
 21
220.123929
 31
0.0
  0
LINE
  5
1FE
330
1F
100
AcDbEntity
  8
002
 62
     3
370
    30
100
AcDbLine
 10
231.026157
 20
220.123929
 30
0.0
 11
242.026157
 21
220.123929
 31
0.0
  0
LINE
  5
1FF
330
1F
100
AcDbEntity
  8
002
 62
     3
370
    30
100
AcDbLine
 10
242.026157
 20
225.077829
 30
0.0
 11
242.026157
 21
198.169929
 31
0.0
  0
LINE
  5
200
330
1F
100
AcDbEntity
  8
002
 62
     3
370
    30
100
AcDbLine
 10
242.026157
 20
198.169929
 30
0.0
 11
250.026157
 21
198.419929
 31
0.0
  0
LINE
  5
201
330
1F
100
AcDbEntity
  8
002
 62
     3
370
    30
100
AcDbLine
 10
242.026157
 20
203.123929
 30
0.0
 11
231.026157
 21
203.123929
 31
0.0
  0
LINE
  5
202
330
1F
100
AcDbEntity
  8
002
 62
     3
370
    30
100
AcDbLine
 10
242.026157
 20
225.077829
 30
0.0
 11
250.026157
 21
224.827829
 31
0.0
  0
LINE
  5
203
330
1F
100
AcDbEntity
  8
002
 62
     3
370
    30
100
AcDbLine
 10
250.026157
 20
243.623929
 30
0.0
 11
276.026157
 21
243.623929
 31
0.0
  0
LINE
  5
204
330
1F
100
AcDbEntity
  8
002
 62
     3
370
    30
100
AcDbLine
 10
281.026157
 20
242.623929
 30
0.0
 11
281.026157
 21
173.623929
 31
0.0
  0
LINE
  5
205
330
1F
100
AcDbEntity
  8
002
 62
     3
370
    30
100
AcDbLine
 10
276.026157
 20
168.623929
 30
0.0
 11
237.026157
 21
168.623929
 31
0.0
  0
ARC
  5
206
330
1F
100
AcDbEntity
  8
002
 62
     3
370
    30
100
AcDbCircle
 10
237.026157
 20
166.623929
 30
0.0
 40
2.0
100
AcDbArc
 50
90.0
 51
180.0
  0
LINE
  5
207
330
1F
100
AcDbEntity
  8
002
 62
     3
370
    30
100
AcDbLine
 10
235.026157
 20
166.623929
 30
0.0
 11
235.026157
 21
155.623929
 31
0.0
  0
LINE
  5
208
330
1F
100
AcDbEntity
  8
002
 62
     3
370
    30
100
AcDbLine
 10
235.026157
 20
155.623929
 30
0.0
 11
440.026157
 21
155.623929
 31
0.0
  0
LINE
  5
209
330
1F
100
AcDbEntity
  8
002
 62
     3
370
    30
100
AcDbLine
 10
440.026157
 20
155.623929
 30
0.0
 11
440.026157
 21
166.623929
 31
0.0
  0
ARC
  5
20A
330
1F
100
AcDbEntity
  8
002
 62
     3
370
    30
100
AcDbCircle
 10
438.026157
 20
166.623929
 30
0.0
 40
2.0
100
AcDbArc
 50
0.0
 51
90.0
  0
LINE
  5
20B
330
1F
100
AcDbEntity
  8
002
 62
     3
370
    30
100
AcDbLine
 10
438.026157
 20
168.623929
 30
0.0
 11
408.026157
 21
168.623929
 31
0.0
  0
LINE
  5
20C
330
1F
100
AcDbEntity
  8
002
 62
     3
370
    30
100
AcDbLine
 10
403.026157
 20
173.623929
 30
0.0
 11
403.026157
 21
236.623929
 31
0.0
  0
ARC
  5
20D
330
1F
100
AcDbEntity
  8
002
 62
     3
370
    30
100
AcDbCircle
 10
392.026157
 20
236.623929
 30
0.0
 40
11.0
100
AcDbArc
 50
0.0
 51
90.0
  0
LINE
  5
20E
330
1F
100
AcDbEntity
  8
002
 62
     3
370
    30
100
AcDbLine
 10
392.026157
 20
247.623929
 30
0.0
 11
286.026157
 21
247.623929
 31
0.0
  0
ARC
  5
20F
330
1F
100
AcDbEntity
  8
002
 62
     3
370
    30
100
AcDbCircle
 10
286.026157
 20
242.623929
 30
0.0
 40
5.0
100
AcDbArc
 50
90.0
 51
180.0
  0
ARC
  5
210
330
1F
100
AcDbEntity
  8
002
 62
     3
370
    30
100
AcDbCircle
 10
276.026157
 20
238.623929
 30
0.0
 40
5.0
100
AcDbArc
 50
0.0
 51
90.0
  0
LINE
  5
211
330
1F
100
AcDbEntity
  8
002
 62
     3
370
    30
100
AcDbLine
 10
264.847057
 20
238.623929
 30
0.0
 11
264.847057
 21
173.623929
 31
0.0
  0
LINE
  5
212
330
1F
100
AcDbEntity
  8
002
 62
     3
370
    30
100
AcDbLine
 10
268.254957
 20
168.623929
 30
0.0
 11
268.254957
 21
155.623929
 31
0.0
  0
LINE
  5
213
330
1F
100
AcDbEntity
  8
002
 62
     3
370
    30
100
AcDbLine
 10
266.026157
 20
155.623929
 30
0.0
 11
266.026157
 21
149.623929
 31
0.0
  0
LINE
  5
214
330
1F
100
AcDbEntity
  8
002
 62
     3
370
    30
100
AcDbLine
 10
266.026157
 20
149.623929
 30
0.0
 11
356.026157
 21
149.623929
 31
0.0
  0
LINE
  5
215
330
1F
100
AcDbEntity
  8
002
 62
     3
370
    30
100
AcDbLine
 10
356.026157
 20
149.623929
 30
0.0
 11
356.026157
 21
155.623929
 31
0.0
  0
LINE
  5
216
330
1F
100
AcDbEntity
  8
002
 62
     3
370
    30
100
AcDbLine
 10
354.526157
 20
149.623929
 30
0.0
 11
354.526157
 21
143.623929
 31
0.0
  0
LINE
  5
217
330
1F
100
AcDbEntity
  8
002
 62
     3
370
    30
100
AcDbLine
 10
344.526157
 20
143.623929
 30
0.0
 11
344.526157
 21
149.623929
 31
0.0
  0
LINE
  5
218
330
1F
100
AcDbEntity
  8
002
 62
     3
370
    30
100
AcDbLine
 10
341.276157
 20
149.623929
 30
0.0
 11
341.276157
 21
95.623929
 31
0.0
  0
LINE
  5
219
330
1F
100
AcDbEntity
  8
002
 62
     3
370
    30
100
AcDbLine
 10
341.276157
 20
95.623929
 30
0.0
 11
280.776157
 21
95.623929
 31
0.0
  0
LINE
  5
21A
330
1F
100
AcDbEntity
  8
002
 62
     3
370
    30
100
AcDbLine
 10
280.776157
 20
95.623929
 30
0.0
 11
280.776157
 21
149.623929
 31
0.0
  0
LINE
  5
21B
330
1F
100
AcDbEntity
  8
002
 62
     3
370
    30
100
AcDbLine
 10
277.526157
 20
149.623929
 30
0.0
 11
277.526157
 21
143.623929
 31
0.0
  0
LINE
  5
21C
330
1F
100
AcDbEntity
  8
002
 62
     3
370
    30
100
AcDbLine
 10
267.526157
 20
143.623929
 30
0.0
 11
267.526157
 21
149.623929
 31
0.0
  0
LINE
  5
21D
330
1F
100
AcDbEntity
  8
002
 62
     3
370
    30
100
AcDbLine
 10
267.526157
 20
143.623929
 30
0.0
 11
277.526157
 21
143.623929
 31
0.0
  0
ARC
  5
21E
330
1F
100
AcDbEntity
  8
002
 62
     3
370
    30
100
AcDbCircle
 10
276.026157
 20
173.623929
 30
0.0
 40
5.0
100
AcDbArc
 50
270.0
 51
0.0
  0
ARC
  5
21F
330
1F
100
AcDbEntity
  8
002
 62
     3
370
    30
100
AcDbCircle
 10
259.847057
 20
173.623929
 30
0.0
 40
5.0
100
AcDbArc
 50
270.0
 51
0.0
  0
LINE
  5
220
330
1F
100
AcDbEntity
  8
002
 62
     3
370
    30
100
AcDbLine
 10
250.026157
 20
173.623929
 30
0.0
 11
250.026157
 21
255.623929
 31
0.0
  0
LINE
  5
221
330
1F
100
AcDbEntity
  8
002
 62
     3
370
    30
100
AcDbLine
 10
241.026157
 20
255.623929
 30
0.0
 11
381.026157
 21
255.623929
 31
0.0
  0
LINE
  5
222
330
1F
100
AcDbEntity
  8
002
 62
     3
370
    30
100
AcDbLine
 10
381.026157
 20
252.623929
 30
0.0
 11
381.026157
 21
267.623929
 31
0.0
  0
LINE
  5
223
330
1F
100
AcDbEntity
  8
002
 62
     3
370
    30
100
AcDbLine
 10
381.026157
 20
267.623929
 30
0.0
 11
241.026157
 21
267.623929
 31
0.0
  0
LINE
  5
224
330
1F
100
AcDbEntity
  8
002
 62
     3
370
    30
100
AcDbLine
 10
241.026157
 20
267.623929
 30
0.0
 11
241.026157
 21
255.623929
 31
0.0
  0
LINE
  5
225
330
1F
100
AcDbEntity
  8
002
 62
     3
370
    30
100
AcDbLine
 10
251.930657
 20
267.623929
 30
0.0
 11
251.930657
 21
277.623929
 31
0.0
  0
LINE
  5
226
330
1F
100
AcDbEntity
  8
002
 62
     3
370
    30
100
AcDbLine
 10
267.930657
 20
277.623929
 30
0.0
 11
267.930657
 21
267.623929
 31
0.0
  0
LINE
  5
227
330
1F
100
AcDbEntity
  8
002
 62
     3
370
    30
100
AcDbLine
 10
267.930657
 20
270.154729
 30
0.0
 11
303.026157
 21
270.154729
 31
0.0
  0
LINE
  5
228
330
1F
100
AcDbEntity
  8
002
 62
     3
370
    30
100
AcDbLine
 10
303.026157
 20
267.623929
 30
0.0
 11
303.026157
 21
277.623929
 31
0.0
  0
LINE
  5
229
330
1F
100
AcDbEntity
  8
002
 62
     3
370
    30
100
AcDbLine
 10
319.026157
 20
277.623929
 30
0.0
 11
319.026157
 21
267.623929
 31
0.0
  0
LINE
  5
22A
330
1F
100
AcDbEntity
  8
002
 62
     3
370
    30
100
AcDbLine
 10
319.026157
 20
270.154729
 30
0.0
 11
354.121657
 21
270.154729
 31
0.0
  0
LINE
  5
22B
330
1F
100
AcDbEntity
  8
002
 62
     3
370
    30
100
AcDbLine
 10
354.121657
 20
267.623929
 30
0.0
 11
354.121657
 21
277.623929
 31
0.0
  0
LINE
  5
22C
330
1F
100
AcDbEntity
  8
002
 62
     3
370
    30
100
AcDbLine
 10
370.121657
 20
277.623929
 30
0.0
 11
354.121657
 21
277.623929
 31
0.0
  0
LINE
  5
22D
330
1F
100
AcDbEntity
  8
002
 62
     3
370
    30
100
AcDbLine
 10
356.276157
 20
277.623929
 30
0.0
 11
356.026157
 21
280.623929
 31
0.0
  0
LINE
  5
22E
330
1F
100
AcDbEntity
  8
002
 62
     3
370
    30
100
AcDbLine
 10
356.026157
 20
280.623929
 30
0.0
 11
266.026157
 21
280.623929
 31
0.0
  0
LINE
  5
22F
330
1F
100
AcDbEntity
  8
002
 62
     3
370
    30
100
AcDbLine
 10
266.026157
 20
280.623929
 30
0.0
 11
265.776157
 21
277.623929
 31
0.0
  0
LINE
  5
230
330
1F
100
AcDbEntity
  8
002
 62
     3
370
    30
100
AcDbLine
 10
267.930657
 20
277.623929
 30
0.0
 11
251.930657
 21
277.623929
 31
0.0
  0
LINE
  5
231
330
1F
100
AcDbEntity
  8
002
 62
     3
370
    30
100
AcDbLine
 10
288.526157
 20
280.623929
 30
0.0
 11
288.526157
 21
282.623929
 31
0.0
  0
LINE
  5
232
330
1F
100
AcDbEntity
  8
002
 62
     3
370
    30
100
AcDbLine
 10
288.526157
 20
282.623929
 30
0.0
 11
333.526157
 21
282.623929
 31
0.0
  0
LINE
  5
233
330
1F
100
AcDbEntity
  8
002
 62
     3
370
    30
100
AcDbLine
 10
333.526157
 20
282.623929
 30
0.0
 11
333.526157
 21
280.623929
 31
0.0
  0
LINE
  5
234
330
1F
100
AcDbEntity
  8
002
 62
     3
370
    30
100
AcDbLine
 10
303.026157
 20
277.623929
 30
0.0
 11
319.026157
 21
277.623929
 31
0.0
  0
ARC
  5
235
330
1F
100
AcDbEntity
  8
002
 62
     3
370
    30
100
AcDbCircle
 10
342.026157
 20
236.623929
 30
0.0
 40
11.0
100
AcDbArc
 50
90.0
 51
180.0
  0
LINE
  5
236
330
1F
100
AcDbEntity
  8
002
 62
     3
370
    30
100
AcDbLine
 10
331.026157
 20
236.623929
 30
0.0
 11
331.026157
 21
186.623929
 31
0.0
  0
ARC
  5
237
330
1F
100
AcDbEntity
  8
002
 62
     3
370
    30
100
AcDbCircle
 10
342.026157
 20
186.623929
 30
0.0
 40
11.0
100
AcDbArc
 50
180.0
 51
270.0
  0
LINE
  5
238
330
1F
100
AcDbEntity
  8
002
 62
     3
370
    30
100
AcDbLine
 10
342.026157
 20
175.623929
 30
0.0
 11
392.026157
 21
175.623929
 31
0.0
  0
ARC
  5
239
330
1F
100
AcDbEntity
  8
002
 62
     3
370
    30
100
AcDbCircle
 10
392.026157
 20
186.623929
 30
0.0
 40
11.0
100
AcDbArc
 50
270.0
 51
0.0
  0
ARC
  5
23A
330
1F
100
AcDbEntity
  8
002
 62
     3
370
    30
100
AcDbCircle
 10
408.026157
 20
173.623929
 30
0.0
 40
5.0
100
AcDbArc
 50
180.0
 51
270.0
  0
ARC
  5
23B
330
1F
100
AcDbEntity
  8
002
 62
     3
370
    30
100
AcDbCircle
 10
439.205457
 20
173.623929
 30
0.0
 40
5.0
100
AcDbArc
 50
205.099758
 51
270.0
  0
LINE
  5
23C
330
1F
100
AcDbEntity
  8
002
 62
     3
370
    30
100
AcDbLine
 10
434.677557
 20
171.502929
 30
0.0
 11
401.987457
 21
241.290029
 31
0.0
  0
ARC
  5
23D
330
1F
100
AcDbEntity
  8
002
 62
     3
370
    30
100
AcDbCircle
 10
409.211157
 20
230.583729
 30
0.0
 40
2.000056999187747
100
AcDbArc
 50
205.100487
 51
295.099272
  0
LINE
  5
23E
330
1F
100
AcDbEntity
  8
002
 62
     3
370
    30
100
AcDbLine
 10
410.059557
 20
228.772529
 30
0.0
 11
425.330457
 21
196.171929
 31
0.0
  0
ARC
  5
23F
330
1F
100
AcDbEntity
  8
002
 62
     3
370
    30
100
AcDbCircle
 10
426.178857
 20
194.360829
 30
0.0
 40
1.999966442218477
100
AcDbArc
 50
115.100487
 51
205.100487
  0
LINE
  5
240
330
1F
100
AcDbEntity
  8
002
 62
     3
370
    30
100
AcDbLine
 10
313.912957
 20
216.623929
 30
0.0
 11
316.799657
 21
211.623929
 31
0.0
  0
LINE
  5
241
330
1F
100
AcDbEntity
  8
002
 62
     3
370
    30
100
AcDbLine
 10
316.799657
 20
211.623929
 30
0.0
 11
313.912957
 21
206.623929
 31
0.0
  0
LINE
  5
242
330
1F
100
AcDbEntity
  8
002
 62
     3
370
    30
100
AcDbLine
 10
313.912957
 20
206.623929
 30
0.0
 11
308.139457
 21
206.623929
 31
0.0
  0
LINE
  5
243
330
1F
100
AcDbEntity
  8
002
 62
     3
370
    30
100
AcDbLine
 10
308.139457
 20
206.623929
 30
0.0
 11
305.252657
 21
211.623929
 31
0.0
  0
LINE
  5
244
330
1F
100
AcDbEntity
  8
002
 62
     3
370
    30
100
AcDbLine
 10
305.252657
 20
211.623929
 30
0.0
 11
308.139457
 21
216.623929
 31
0.0
  0
LINE
  5
245
330
1F
100
AcDbEntity
  8
002
 62
     3
370
    30
100
AcDbLine
 10
308.139457
 20
216.623929
 30
0.0
 11
313.912957
 21
216.623929
 31
0.0
  0
CIRCLE
  5
246
330
1F
100
AcDbEntity
  8
002
 62
     3
370
    30
100
AcDbCircle
 10
311.026157
 20
211.623929
 30
0.0
 40
3.25
  0
CIRCLE
  5
247
330
1F
100
AcDbEntity
  8
002
 62
     3
370
    30
100
AcDbCircle
 10
311.026157
 20
211.623929
 30
0.0
 40
2.5
  0
CIRCLE
  5
248
330
1F
100
AcDbEntity
  8
002
 62
     3
370
    30
100
AcDbCircle
 10
311.026157
 20
211.623929
 30
0.0
 40
0.75
  0
CIRCLE
  5
249
330
1F
100
AcDbEntity
  8
002
 62
     3
370
    30
100
AcDbCircle
 10
311.026157
 20
211.623929
 30
0.0
 40
5.0
  0
LINE
  5
24A
330
1F
100
AcDbEntity
  8
002
 62
     3
370
    30
100
AcDbLine
 10
344.526157
 20
143.623929
 30
0.0
 11
354.526157
 21
143.623929
 31
0.0
  0
LINE
  5
24B
330
1F
100
AcDbEntity
  8
002
 62
     3
370
    30
100
AcDbLine
 10
316.026157
 20
143.623929
 30
0.0
 11
316.026157
 21
149.623929
 31
0.0
  0
LINE
  5
24C
330
1F
100
AcDbEntity
  8
002
 62
     3
370
    30
100
AcDbLine
 10
306.026157
 20
143.623929
 30
0.0
 11
306.026157
 21
149.623929
 31
0.0
  0
LINE
  5
24D
330
1F
100
AcDbEntity
  8
002
 62
     3
370
    30
100
AcDbLine
 10
306.026157
 20
143.623929
 30
0.0
 11
316.026157
 21
143.623929
 31
0.0
  0
ARC
  5
24E
330
1F
100
AcDbEntity
  8
002
 62
     3
370
    30
100
AcDbCircle
 10
245.026157
 20
173.623929
 30
0.0
 40
5.0
100
AcDbArc
 50
270.0
 51
0.0
  0
ARC
  5
24F
330
1F
100
AcDbEntity
  8
002
 62
     3
370
    30
100
AcDbCircle
 10
259.847057
 20
238.623929
 30
0.0
 40
5.0
100
AcDbArc
 50
0.0
 51
90.0
  0
LINE
  5
250
330
1F
100
AcDbEntity
  8
002
 62
     3
370
    30
100
AcDbLine
 10
370.121657
 20
267.623929
 30
0.0
 11
370.121657
 21
277.623929
 31
0.0
  0
ARC
  5
251
330
1F
100
AcDbEntity
  8
002
 62
     3
370
    30
100
AcDbCircle
 10
386.026157
 20
252.623929
 30
0.0
 40
5.0
100
AcDbArc
 50
180.0
 51
270.0
  0
LINE
  5
252
330
1F
100
AcDbEntity
  8
002
  6
CENTER
 62
    40
370
     9
100
AcDbLine
 10
255.026157
 20
147.905329
 30
0.0
 11
255.026157
 21
175.623929
 31
0.0
  0
LINE
  5
253
330
1F
100
AcDbEntity
  8
002
  6
CENTER
 62
    40
370
     9
100
AcDbLine
 10
272.526157
 20
155.623929
 30
0.0
 11
272.526157
 21
140.572729
 31
0.0
  0
LINE
  5
254
330
1F
100
AcDbEntity
  8
002
 62
    40
370
     9
100
AcDbLine
 10
250.026157
 20
199.565429
 30
0.0
 11
242.026157
 21
199.315429
 31
0.0
  0
LINE
  5
255
330
1F
100
AcDbEntity
  8
002
 62
    40
370
     9
100
AcDbLine
 10
242.026157
 20
203.123929
 30
0.0
 11
231.026157
 21
220.123929
 31
0.0
  0
LINE
  5
256
330
1F
100
AcDbEntity
  8
002
  6
CENTER
 62
    40
370
     9
100
AcDbLine
 10
227.582557
 20
211.623929
 30
0.0
 11
427.808357
 21
211.623929
 31
0.0
  0
LINE
  5
257
330
1F
100
AcDbEntity
  8
002
  6
CENTER
 62
    40
370
     9
100
AcDbLine
 10
420.026157
 20
147.905329
 30
0.0
 11
420.026157
 21
175.623929
 31
0.0
  0
LINE
  5
258
330
1F
100
AcDbEntity
  8
002
  6
CENTER
 62
    40
370
     9
100
AcDbLine
 10
367.026157
 20
147.449429
 30
0.0
 11
367.026157
 21
260.494729
 31
0.0
  0
LINE
  5
259
330
1F
100
AcDbEntity
  8
002
  6
CENTER
 62
    40
370
     9
100
AcDbLine
 10
362.121657
 20
253.301829
 30
0.0
 11
362.121657
 21
279.824029
 31
0.0
  0
LINE
  5
25A
330
1F
100
AcDbEntity
  8
002
  6
CENTER
 62
    40
370
     9
100
AcDbLine
 10
259.930657
 20
279.824029
 30
0.0
 11
259.930657
 21
253.301829
 31
0.0
  0
LINE
  5
25B
330
1F
100
AcDbEntity
  8
002
 62
    40
370
     9
100
AcDbLine
 10
250.026157
 20
223.682429
 30
0.0
 11
242.026157
 21
223.932429
 31
0.0
  0
LINE
  5
25C
330
1F
100
AcDbEntity
  8
002
 62
    40
370
     9
100
AcDbLine
 10
242.026157
 20
220.123929
 30
0.0
 11
231.026157
 21
203.123929
 31
0.0
  0
LINE
  5
25D
330
1F
100
AcDbEntity
  8
002
  6
CENTER
 62
    40
370
     9
100
AcDbLine
 10
349.526157
 20
155.623929
 30
0.0
 11
349.526157
 21
140.572729
 31
0.0
  0
LINE
  5
25E
330
1F
100
AcDbEntity
  8
002
 62
     3
370
    30
100
AcDbLine
 10
329.026157
 20
635.624029
 30
0.0
 11
293.026257
 21
635.624029
 31
0.0
  0
LINE
  5
25F
330
1F
100
AcDbEntity
  8
002
 62
     3
370
    30
100
AcDbLine
 10
323.526157
 20
635.624029
 30
0.0
 11
323.526157
 21
680.623929
 31
0.0
  0
LINE
  5
260
330
1F
100
AcDbEntity
  8
002
 62
     3
370
    30
100
AcDbLine
 10
323.526157
 20
680.623929
 30
0.0
 11
298.526257
 21
680.623929
 31
0.0
  0
LINE
  5
261
330
1F
100
AcDbEntity
  8
002
 62
     3
370
    30
100
AcDbLine
 10
298.526257
 20
680.623929
 30
0.0
 11
298.526257
 21
635.624029
 31
0.0
  0
LINE
  5
262
330
1F
100
AcDbEntity
  8
002
  6
HIDDEN
 62
    40
370
     9
100
AcDbLine
 10
411.026157
 20
168.623929
 30
0.0
 11
411.026157
 21
155.623929
 31
0.0
  0
LINE
  5
263
330
1F
100
AcDbEntity
  8
002
  6
HIDDEN
 62
    40
370
     9
100
AcDbLine
 10
429.026157
 20
168.623929
 30
0.0
 11
429.026157
 21
155.623929
 31
0.0
  0
LINE
  5
264
330
1F
100
AcDbEntity
  8
002
  6
HIDDEN
 62
    40
370
     9
100
AcDbLine
 10
264.026157
 20
155.623929
 30
0.0
 11
264.026157
 21
168.623929
 31
0.0
  0
LINE
  5
265
330
1F
100
AcDbEntity
  8
002
  6
HIDDEN
 62
    40
370
     9
100
AcDbLine
 10
246.026157
 20
168.623929
 30
0.0
 11
246.026157
 21
155.623929
 31
0.0
  0
CIRCLE
  5
266
330
1F
100
AcDbEntity
  8
002
 62
     3
370
    30
100
AcDbCircle
 10
367.026157
 20
211.623929
 30
0.0
 40
19.0
  0
LINE
  5
267
330
1F
100
AcDbEntity
  8
002
 62
     3
370
    30
100
AcDbLine
 10
370.026157
 20
218.123873
 30
0.0
 11
364.026157
 21
218.123873
 31
0.0
  0
LINE
  5
268
330
1F
100
AcDbEntity
  8
002
 62
     3
370
    30
100
AcDbLine
 10
364.026157
 20
224.123873
 30
0.0
 11
370.026157
 21
224.123873
 31
0.0
  0
LINE
  5
269
330
1F
100
AcDbEntity
  8
002
 62
     3
370
    30
100
AcDbLine
 10
370.026157
 20
224.123873
 30
0.0
 11
370.026157
 21
218.123873
 31
0.0
  0
LINE
  5
26A
330
1F
100
AcDbEntity
  8
002
 62
     3
370
    30
100
AcDbLine
 10
364.026157
 20
224.123873
 30
0.0
 11
364.026157
 21
218.123873
 31
0.0
  0
ARC
  5
26B
330
1F
100
AcDbEntity
  8
002
 62
     3
370
    30
100
AcDbCircle
 10
367.026157
 20
211.623929
 30
0.0
 40
9.999943487840238
100
AcDbArc
 50
107.457705
 51
72.542295
  0
ARC
  5
26C
330
1F
100
AcDbEntity
  8
002
 62
     3
370
    30
100
AcDbCircle
 10
367.026157
 20
211.623929
 30
0.0
 40
10.9999584731034
100
AcDbArc
 50
105.826681
 51
74.173319
  0
CIRCLE
  5
26D
330
1F
100
AcDbEntity
  8
002
 62
     3
370
    30
100
AcDbCircle
 10
1171.608699
 20
516.464435
 30
0.0
 40
19.0
  0
LINE
  5
26E
330
1F
100
AcDbEntity
  8
002
 62
     3
370
    30
100
AcDbLine
 10
1174.608699
 20
522.964379
 30
0.0
 11
1168.608699
 21
522.964379
 31
0.0
  0
LINE
  5
26F
330
1F
100
AcDbEntity
  8
002
 62
     3
370
    30
100
AcDbLine
 10
1168.608699
 20
528.964379
 30
0.0
 11
1174.608699
 21
528.964379
 31
0.0
  0
LINE
  5
270
330
1F
100
AcDbEntity
  8
002
 62
     3
370
    30
100
AcDbLine
 10
1174.608699
 20
528.964379
 30
0.0
 11
1174.608699
 21
522.964379
 31
0.0
  0
LINE
  5
271
330
1F
100
AcDbEntity
  8
002
 62
     3
370
    30
100
AcDbLine
 10
1168.608699
 20
528.964379
 30
0.0
 11
1168.608699
 21
522.964379
 31
0.0
  0
ARC
  5
272
330
1F
100
AcDbEntity
  8
002
 62
     3
370
    30
100
AcDbCircle
 10
1171.608699
 20
516.464435
 30
0.0
 40
9.999943487840238
100
AcDbArc
 50
107.457705
 51
72.542295
  0
ARC
  5
273
330
1F
100
AcDbEntity
  8
002
 62
     3
370
    30
100
AcDbCircle
 10
1171.608699
 20
516.464435
 30
0.0
 40
10.9999584731034
100
AcDbArc
 50
105.826681
 51
74.173319
  0
LINE
  5
274
330
1F
100
AcDbEntity
  8
001
 62
     3
370
    30
100
AcDbLine
 10
314.826145
 20
894.655621
 30
0.0
 11
311.026157
 21
894.655621
 31
0.0
  0
LINE
  5
275
330
1F
100
AcDbEntity
  8
001
 62
     3
370
    30
100
AcDbLine
 10
314.826145
 20
950.654621
 30
0.0
 11
311.026157
 21
950.654621
 31
0.0
  0
LINE
  5
276
330
1F
100
AcDbEntity
  8
002
  6
CENTER
 62
    40
370
     9
100
AcDbLine
 10
256.488157
 20
922.655121
 30
0.0
 11
368.464451
 21
922.655121
 31
0.0
  0
LINE
  5
277
330
1F
100
AcDbEntity
  8
002
  6
CENTER
 62
    40
370
     9
100
AcDbLine
 10
311.026157
 20
868.481821
 30
0.0
 11
311.026157
 21
976.412021
 31
0.0
  0
LINE
  5
278
330
1F
100
AcDbEntity
  8
002
  6
CENTER
 62
    40
370
     9
100
AcDbLine
 10
283.313337
 20
938.655221
 30
0.0
 11
269.456957
 21
946.655221
 31
0.0
  0
LINE
  5
279
330
1F
100
AcDbEntity
  8
002
  6
CENTER
 62
    40
370
     9
100
AcDbLine
 10
269.457207
 20
898.655321
 30
0.0
 11
283.313627
 21
906.655321
 31
0.0
  0
LINE
  5
27A
330
1F
100
AcDbEntity
  8
002
  6
CENTER
 62
    40
370
     9
100
AcDbLine
 10
354.327367
 20
897.655221
 30
0.0
 11
338.738907
 21
906.655221
 31
0.0
  0
LINE
  5
27B
330
1F
100
AcDbEntity
  8
002
  6
CENTER
 62
    40
370
     9
100
AcDbLine
 10
338.738987
 20
938.655121
 30
0.0
 11
354.327447
 21
947.655121
 31
0.0
  0
LINE
  5
27C
330
1F
100
AcDbEntity
  8
002
 62
     3
370
    30
100
AcDbLine
 10
303.526187
 20
885.755221
 30
0.0
 11
318.526158
 21
885.755221
 31
0.0
  0
LINE
  5
27D
330
1F
100
AcDbEntity
  8
002
 62
     3
370
    30
100
AcDbLine
 10
318.526158
 20
885.755221
 30
0.0
 11
318.526158
 21
895.655621
 31
0.0
  0
LINE
  5
27E
330
1F
100
AcDbEntity
  8
002
 62
     3
370
    30
100
AcDbLine
 10
297.949467
 20
895.655621
 30
0.0
 11
324.102847
 21
895.655621
 31
0.0
  0
LINE
  5
27F
330
1F
100
AcDbEntity
  8
002
 62
     3
370
    30
100
AcDbLine
 10
310.448825
 20
894.655621
 30
0.0
 11
307.226169
 21
894.655621
 31
0.0
  0
LINE
  5
280
330
1F
100
AcDbEntity
  8
002
 62
     3
370
    30
100
AcDbLine
 10
307.226169
 20
893.655721
 30
0.0
 11
307.226169
 21
894.655621
 31
0.0
  0
LINE
  5
281
330
1F
100
AcDbEntity
  8
002
 62
     3
370
    30
100
AcDbLine
 10
303.526187
 20
894.655621
 30
0.0
 11
318.526158
 21
894.655621
 31
0.0
  0
LINE
  5
282
330
1F
100
AcDbEntity
  8
002
 62
     3
370
    30
100
AcDbLine
 10
311.026118
 20
894.655621
 30
0.0
 11
311.603465
 21
893.655621
 31
0.0
  0
LINE
  5
283
330
1F
100
AcDbEntity
  8
002
 62
     3
370
    30
100
AcDbLine
 10
311.026104
 20
893.655721
 30
0.0
 11
310.448772
 21
894.655621
 31
0.0
  0
LINE
  5
284
330
1F
100
AcDbEntity
  8
002
 62
     3
370
    30
100
AcDbLine
 10
314.826145
 20
893.655721
 30
0.0
 11
314.826145
 21
894.655621
 31
0.0
  0
ARC
  5
285
330
1F
100
AcDbEntity
  8
002
 62
     3
370
    30
100
AcDbCircle
 10
313.133121
 20
892.649321
 30
0.0
 40
1.299998435325598
100
AcDbArc
 50
285.87873
 51
354.995679
  0
LINE
  5
286
330
1F
100
AcDbEntity
  8
002
 62
     3
370
    30
100
AcDbLine
 10
314.826145
 20
893.655621
 30
0.0
 11
307.226169
 21
893.655621
 31
0.0
  0
LINE
  5
287
330
1F
100
AcDbEntity
  8
002
 62
     3
370
    30
100
AcDbLine
 10
314.5261
 20
893.655621
 30
0.0
 11
314.428135
 21
892.535921
 31
0.0
  0
ARC
  5
288
330
1F
100
AcDbEntity
  8
002
 62
     3
370
    30
100
AcDbCircle
 10
311.026157
 20
900.055321
 30
0.0
 40
8.999794048769992
100
AcDbArc
 50
274.616857
 51
285.880787
  0
LINE
  5
289
330
1F
100
AcDbEntity
  8
002
 62
     3
370
    30
100
AcDbLine
 10
311.476139
 20
891.280221
 30
0.0
 11
311.476139
 21
891.135421
 31
0.0
  0
ARC
  5
28A
330
1F
100
AcDbEntity
  8
002
 62
     3
370
    30
100
AcDbCircle
 10
311.026157
 20
900.055321
 30
0.0
 40
8.999802349025403
100
AcDbArc
 50
254.119201
 51
265.383131
  0
LINE
  5
28B
330
1F
100
AcDbEntity
  8
002
 62
     3
370
    30
100
AcDbLine
 10
310.576262
 20
891.135421
 30
0.0
 11
310.301821
 21
891.084421
 31
0.0
  0
ARC
  5
28C
330
1F
100
AcDbEntity
  8
002
 62
     3
370
    30
100
AcDbCircle
 10
308.919193
 20
892.649321
 30
0.0
 40
1.300004333783558
100
AcDbArc
 50
185.004333
 51
254.12127
  0
LINE
  5
28D
330
1F
100
AcDbEntity
  8
002
 62
     3
370
    30
100
AcDbLine
 10
307.624142
 20
892.535921
 30
0.0
 11
307.526177
 21
893.655621
 31
0.0
  0
LINE
  5
28E
330
1F
100
AcDbEntity
  8
002
 62
     3
370
    30
100
AcDbLine
 10
311.750522
 20
891.084421
 30
0.0
 11
311.476082
 21
891.135421
 31
0.0
  0
LINE
  5
28F
330
1F
100
AcDbEntity
  8
002
 62
     3
370
    30
100
AcDbLine
 10
311.476169
 20
891.280121
 30
0.0
 11
310.576206
 21
891.280121
 31
0.0
  0
LINE
  5
290
330
1F
100
AcDbEntity
  8
002
 62
     3
370
    30
100
AcDbLine
 10
310.576175
 20
891.135421
 30
0.0
 11
310.576175
 21
891.280221
 31
0.0
  0
ARC
  5
291
330
1F
100
AcDbEntity
  8
002
 62
     3
370
    30
100
AcDbCircle
 10
307.119174
 20
904.755221
 30
0.0
 40
17.99994930448641
100
AcDbArc
 50
189.055697
 51
258.485719
  0
LINE
  5
292
330
1F
100
AcDbEntity
  8
002
 62
     3
370
    30
100
AcDbLine
 10
303.526187
 20
885.755221
 30
0.0
 11
303.526187
 21
895.655621
 31
0.0
  0
CIRCLE
  5
293
330
1F
100
AcDbEntity
  8
002
 62
     3
370
    30
100
AcDbCircle
 10
311.026157
 20
922.655121
 30
0.0
 40
19.79999
  0
CIRCLE
  5
294
330
1F
100
AcDbEntity
  8
002
 62
     3
370
    30
100
AcDbCircle
 10
311.026157
 20
922.655121
 30
0.0
 40
18.0
  0
ARC
  5
295
330
1F
100
AcDbEntity
  8
002
 62
     3
370
    30
100
AcDbCircle
 10
314.93317
 20
904.755221
 30
0.0
 40
17.99999239904754
100
AcDbArc
 50
281.514287
 51
350.944303
  0
CIRCLE
  5
296
330
1F
100
AcDbEntity
  8
002
 62
     3
370
    30
100
AcDbCircle
 10
345.667147
 20
902.655621
 30
0.0
 40
5.499999
  0
CIRCLE
  5
297
330
1F
100
AcDbEntity
  8
002
 62
     3
370
    30
100
AcDbCircle
 10
276.385187
 20
902.655621
 30
0.0
 40
5.499999
  0
CIRCLE
  5
298
330
1F
100
AcDbEntity
  8
002
 62
     3
370
    30
100
AcDbCircle
 10
276.385187
 20
942.655121
 30
0.0
 40
5.499999
  0
CIRCLE
  5
299
330
1F
100
AcDbEntity
  8
002
 62
     3
370
    30
100
AcDbCircle
 10
345.667147
 20
942.655121
 30
0.0
 40
5.499999
  0
CIRCLE
  5
29A
330
1F
100
AcDbEntity
  8
002
 62
     3
370
    30
100
AcDbCircle
 10
311.026157
 20
922.655121
 30
0.0
 40
49.99998
  0
LINE
  5
29B
330
1F
100
AcDbEntity
  8
002
 62
     3
370
    30
100
AcDbLine
 10
303.526187
 20
959.555021
 30
0.0
 11
318.526158
 21
959.555021
 31
0.0
  0
LINE
  5
29C
330
1F
100
AcDbEntity
  8
002
 62
     3
370
    30
100
AcDbLine
 10
318.526158
 20
959.555021
 30
0.0
 11
318.526158
 21
949.654621
 31
0.0
  0
LINE
  5
29D
330
1F
100
AcDbEntity
  8
002
 62
     3
370
    30
100
AcDbLine
 10
297.949467
 20
949.654621
 30
0.0
 11
324.102847
 21
949.654621
 31
0.0
  0
LINE
  5
29E
330
1F
100
AcDbEntity
  8
002
 62
     3
370
    30
100
AcDbLine
 10
310.448825
 20
950.654621
 30
0.0
 11
307.226169
 21
950.654621
 31
0.0
  0
LINE
  5
29F
330
1F
100
AcDbEntity
  8
002
 62
     3
370
    30
100
AcDbLine
 10
307.226169
 20
951.654521
 30
0.0
 11
307.226169
 21
950.654621
 31
0.0
  0
LINE
  5
2A0
330
1F
100
AcDbEntity
  8
002
 62
     3
370
    30
100
AcDbLine
 10
303.526187
 20
950.654621
 30
0.0
 11
318.526158
 21
950.654621
 31
0.0
  0
LINE
  5
2A1
330
1F
100
AcDbEntity
  8
002
 62
     3
370
    30
100
AcDbLine
 10
311.026118
 20
950.654621
 30
0.0
 11
311.603465
 21
951.654621
 31
0.0
  0
LINE
  5
2A2
330
1F
100
AcDbEntity
  8
002
 62
     3
370
    30
100
AcDbLine
 10
311.026104
 20
951.654521
 30
0.0
 11
310.448772
 21
950.654621
 31
0.0
  0
LINE
  5
2A3
330
1F
100
AcDbEntity
  8
002
 62
     3
370
    30
100
AcDbLine
 10
314.826145
 20
951.654521
 30
0.0
 11
314.826145
 21
950.654621
 31
0.0
  0
ARC
  5
2A4
330
1F
100
AcDbEntity
  8
002
 62
     3
370
    30
100
AcDbCircle
 10
313.133121
 20
952.660921
 30
0.0
 40
1.299998435325598
100
AcDbArc
 50
5.004321
 51
74.12127
  0
LINE
  5
2A5
330
1F
100
AcDbEntity
  8
002
 62
     3
370
    30
100
AcDbLine
 10
314.826145
 20
951.654621
 30
0.0
 11
307.226169
 21
951.654621
 31
0.0
  0
LINE
  5
2A6
330
1F
100
AcDbEntity
  8
002
 62
     3
370
    30
100
AcDbLine
 10
314.5261
 20
951.654621
 30
0.0
 11
314.428135
 21
952.774321
 31
0.0
  0
ARC
  5
2A7
330
1F
100
AcDbEntity
  8
002
 62
     3
370
    30
100
AcDbCircle
 10
311.026157
 20
945.254921
 30
0.0
 40
8.999794048769992
100
AcDbArc
 50
74.119213
 51
85.383143
  0
LINE
  5
2A8
330
1F
100
AcDbEntity
  8
002
 62
     3
370
    30
100
AcDbLine
 10
311.476139
 20
954.030021
 30
0.0
 11
311.476139
 21
954.174821
 31
0.0
  0
ARC
  5
2A9
330
1F
100
AcDbEntity
  8
002
 62
     3
370
    30
100
AcDbCircle
 10
311.026157
 20
945.254921
 30
0.0
 40
8.999802349025403
100
AcDbArc
 50
94.616869
 51
105.880799
  0
LINE
  5
2AA
330
1F
100
AcDbEntity
  8
002
 62
     3
370
    30
100
AcDbLine
 10
310.576262
 20
954.174821
 30
0.0
 11
310.301821
 21
954.225821
 31
0.0
  0
ARC
  5
2AB
330
1F
100
AcDbEntity
  8
002
 62
     3
370
    30
100
AcDbCircle
 10
308.919193
 20
952.660921
 30
0.0
 40
1.300004333783558
100
AcDbArc
 50
105.87873
 51
174.995667
  0
LINE
  5
2AC
330
1F
100
AcDbEntity
  8
002
 62
     3
370
    30
100
AcDbLine
 10
307.624142
 20
952.774321
 30
0.0
 11
307.526177
 21
951.654621
 31
0.0
  0
LINE
  5
2AD
330
1F
100
AcDbEntity
  8
002
 62
     3
370
    30
100
AcDbLine
 10
311.750522
 20
954.225821
 30
0.0
 11
311.476082
 21
954.174821
 31
0.0
  0
LINE
  5
2AE
330
1F
100
AcDbEntity
  8
002
 62
     3
370
    30
100
AcDbLine
 10
311.476169
 20
954.030121
 30
0.0
 11
310.576206
 21
954.030121
 31
0.0
  0
LINE
  5
2AF
330
1F
100
AcDbEntity
  8
002
 62
     3
370
    30
100
AcDbLine
 10
310.576175
 20
954.174821
 30
0.0
 11
310.576175
 21
954.030021
 31
0.0
  0
ARC
  5
2B0
330
1F
100
AcDbEntity
  8
002
 62
     3
370
    30
100
AcDbCircle
 10
307.119174
 20
940.555021
 30
0.0
 40
17.99994930448641
100
AcDbArc
 50
101.514281
 51
170.944303
  0
LINE
  5
2B1
330
1F
100
AcDbEntity
  8
002
 62
     3
370
    30
100
AcDbLine
 10
303.526187
 20
959.555021
 30
0.0
 11
303.526187
 21
949.654621
 31
0.0
  0
ARC
  5
2B2
330
1F
100
AcDbEntity
  8
002
 62
     3
370
    30
100
AcDbCircle
 10
314.93317
 20
940.555021
 30
0.0
 40
17.99999239904754
100
AcDbArc
 50
9.055697
 51
78.485713
  0
ARC
  5
2B3
330
1F
100
AcDbEntity
  8
002
 62
     3
370
    30
100
AcDbCircle
 10
311.026157
 20
922.655121
 30
0.0
 40
29.99999601080641
100
AcDbArc
 50
295.841973
 51
64.155892
  0
ARC
  5
2B4
330
1F
100
AcDbEntity
  8
002
 62
     3
370
    30
100
AcDbCircle
 10
311.026157
 20
922.655121
 30
0.0
 40
29.99999601080641
100
AcDbArc
 50
115.844108
 51
244.155892
  0
CIRCLE
  5
2B5
330
1F
100
AcDbEntity
  8
002
 62
    40
370
     9
100
AcDbCircle
 10
311.026157
 20
922.655121
 30
0.0
 40
22.16099
  0
ARC
  5
2B6
330
1F
100
AcDbEntity
  8
002
  6
CENTER
 62
    40
370
     9
100
AcDbCircle
 10
311.026157
 20
922.655121
 30
0.0
 40
39.99992137210274
100
AcDbArc
 50
319.698785
 51
53.935132
  0
ARC
  5
2B7
330
1F
100
AcDbEntity
  8
002
  6
CENTER
 62
    40
370
     9
100
AcDbCircle
 10
311.026157
 20
922.655121
 30
0.0
 40
39.99992137210274
100
AcDbArc
 50
130.138019
 51
233.876574
  0
LINE
  5
2B8
330
1F
100
AcDbEntity
  8
001
 62
     3
370
    30
100
AcDbLine
 10
303.534614
 20
504.627073
 30
0.0
 11
318.534616
 21
482.603435
 31
0.0
  0
LINE
  5
2B9
330
1F
100
AcDbEntity
  8
001
 62
     3
370
    30
100
AcDbLine
 10
303.534614
 20
483.309861
 30
0.0
 11
318.534616
 21
461.286254
 31
0.0
  0
LINE
  5
2BA
330
1F
100
AcDbEntity
  8
002
  6
CENTER
 62
    40
370
     9
100
AcDbLine
 10
271.034645
 20
444.940524
 30
0.0
 11
271.034645
 21
416.940514
 31
0.0
  0
LINE
  5
2BB
330
1F
100
AcDbEntity
  8
002
  6
CENTER
 62
    40
370
     9
100
AcDbLine
 10
351.034615
 20
444.940524
 30
0.0
 11
351.034615
 21
416.940514
 31
0.0
  0
LINE
  5
2BC
330
1F
100
AcDbEntity
  8
002
 62
     3
370
    30
100
AcDbLine
 10
303.534614
 20
516.940494
 30
0.0
 11
303.534614
 21
448.940494
 31
0.0
  0
LINE
  5
2BD
330
1F
100
AcDbEntity
  8
002
 62
     3
370
    30
100
AcDbLine
 10
318.534616
 20
448.940494
 30
0.0
 11
318.534616
 21
516.940494
 31
0.0
  0
LINE
  5
2BE
330
1F
100
AcDbEntity
  8
002
 62
     3
370
    30
100
AcDbLine
 10
288.849522
 20
507.53576
 30
0.0
 11
303.534614
 21
485.974517
 31
0.0
  0
LINE
  5
2BF
330
1F
100
AcDbEntity
  8
002
 62
     3
370
    30
100
AcDbLine
 10
303.534614
 20
493.968437
 30
0.0
 11
290.035653
 21
513.788174
 31
0.0
  0
LINE
  5
2C0
330
1F
100
AcDbEntity
  8
002
 62
     3
370
    30
100
AcDbLine
 10
296.288108
 20
512.60204
 30
0.0
 11
303.534614
 21
501.962414
 31
0.0
  0
ARC
  5
2C1
330
1F
100
AcDbEntity
  8
002
 62
     3
370
    30
100
AcDbCircle
 10
292.568637
 20
510.068981
 30
0.0
 40
4.500000220055554
100
AcDbArc
 50
34.258265
 51
214.258342
  0
LINE
  5
2C2
330
1F
100
AcDbEntity
  8
002
 62
     3
370
    30
100
AcDbLine
 10
297.957925
 20
445.940524
 30
0.0
 11
297.957925
 21
494.162437
 31
0.0
  0
LINE
  5
2C3
330
1F
100
AcDbEntity
  8
002
 62
     3
370
    30
100
AcDbLine
 10
297.957925
 20
445.940524
 30
0.0
 11
324.111335
 21
445.940524
 31
0.0
  0
ARC
  5
2C4
330
1F
100
AcDbEntity
  8
002
 62
     3
370
    30
100
AcDbCircle
 10
305.534859
 20
448.940494
 30
0.0
 40
2.000000000001
100
AcDbArc
 50
180.0
 51
269.999943
  0
LINE
  5
2C5
330
1F
100
AcDbEntity
  8
002
 62
     3
370
    30
100
AcDbLine
 10
305.534859
 20
446.940494
 30
0.0
 11
316.534615
 21
446.940494
 31
0.0
  0
ARC
  5
2C6
330
1F
100
AcDbEntity
  8
002
 62
     3
370
    30
100
AcDbCircle
 10
316.534615
 20
448.940494
 30
0.0
 40
2.0
100
AcDbArc
 50
269.999943
 51
0.0
  0
LINE
  5
2C7
330
1F
100
AcDbEntity
  8
002
 62
     3
370
    30
100
AcDbLine
 10
324.111335
 20
445.940524
 30
0.0
 11
324.111335
 21
455.730475
 31
0.0
  0
LINE
  5
2C8
330
1F
100
AcDbEntity
  8
002
 62
     3
370
    30
100
AcDbLine
 10
325.781097
 20
453.278864
 30
0.0
 11
318.534616
 21
463.918438
 31
0.0
  0
LINE
  5
2C9
330
1F
100
AcDbEntity
  8
002
 62
     3
370
    30
100
AcDbLine
 10
318.534616
 20
471.912351
 30
0.0
 11
332.03352
 21
452.092698
 31
0.0
  0
LINE
  5
2CA
330
1F
100
AcDbEntity
  8
002
 62
     3
370
    30
100
AcDbLine
 10
333.219645
 20
458.345125
 30
0.0
 11
318.534616
 21
479.906271
 31
0.0
  0
ARC
  5
2CB
330
1F
100
AcDbEntity
  8
002
 62
     3
370
    30
100
AcDbCircle
 10
329.500619
 20
455.811979
 30
0.0
 40
4.500000220055554
100
AcDbArc
 50
214.258164
 51
34.258342
  0
LINE
  5
2CC
330
1F
100
AcDbEntity
  8
002
 62
     3
370
    30
100
AcDbLine
 10
311.484627
 20
450.940494
 30
0.0
 11
310.584603
 21
450.940494
 31
0.0
  0
LINE
  5
2CD
330
1F
100
AcDbEntity
  8
002
 62
     3
370
    30
100
AcDbLine
 10
311.484627
 20
451.740474
 30
0.0
 11
311.484627
 21
450.940494
 31
0.0
  0
LINE
  5
2CE
330
1F
100
AcDbEntity
  8
002
 62
     3
370
    30
100
AcDbLine
 10
310.584603
 20
450.940494
 30
0.0
 11
310.584603
 21
451.740474
 31
0.0
  0
LINE
  5
2CF
330
1F
100
AcDbEntity
  8
002
 62
     3
370
    30
100
AcDbLine
 10
310.584592
 20
451.740504
 30
0.0
 11
310.310079
 21
452.215974
 31
0.0
  0
LINE
  5
2D0
330
1F
100
AcDbEntity
  8
002
 62
     3
370
    30
100
AcDbLine
 10
310.310092
 20
452.215974
 30
0.0
 11
309.834621
 21
452.490484
 31
0.0
  0
LINE
  5
2D1
330
1F
100
AcDbEntity
  8
002
 62
     3
370
    30
100
AcDbLine
 10
309.834633
 20
452.490474
 30
0.0
 11
309.034615
 21
452.490474
 31
0.0
  0
LINE
  5
2D2
330
1F
100
AcDbEntity
  8
002
 62
     3
370
    30
100
AcDbLine
 10
309.034615
 20
452.490474
 30
0.0
 11
309.034615
 21
453.390504
 31
0.0
  0
LINE
  5
2D3
330
1F
100
AcDbEntity
  8
002
 62
     3
370
    30
100
AcDbLine
 10
309.034615
 20
453.390504
 30
0.0
 11
309.834603
 21
453.390504
 31
0.0
  0
LINE
  5
2D4
330
1F
100
AcDbEntity
  8
002
 62
     3
370
    30
100
AcDbLine
 10
309.834632
 20
453.390504
 30
0.0
 11
310.31009
 21
453.665004
 31
0.0
  0
LINE
  5
2D5
330
1F
100
AcDbEntity
  8
002
 62
     3
370
    30
100
AcDbLine
 10
310.310099
 20
453.665004
 30
0.0
 11
310.584605
 21
454.140454
 31
0.0
  0
LINE
  5
2D6
330
1F
100
AcDbEntity
  8
002
 62
     3
370
    30
100
AcDbLine
 10
310.584603
 20
454.140504
 30
0.0
 11
310.584603
 21
454.940494
 31
0.0
  0
LINE
  5
2D7
330
1F
100
AcDbEntity
  8
002
 62
     3
370
    30
100
AcDbLine
 10
310.584603
 20
454.940494
 30
0.0
 11
311.484627
 21
454.940494
 31
0.0
  0
LINE
  5
2D8
330
1F
100
AcDbEntity
  8
002
 62
     3
370
    30
100
AcDbLine
 10
311.484627
 20
454.940494
 30
0.0
 11
311.484627
 21
454.140504
 31
0.0
  0
LINE
  5
2D9
330
1F
100
AcDbEntity
  8
002
 62
     3
370
    30
100
AcDbLine
 10
311.484609
 20
454.140484
 30
0.0
 11
311.759122
 21
453.665014
 31
0.0
  0
LINE
  5
2DA
330
1F
100
AcDbEntity
  8
002
 62
     3
370
    30
100
AcDbLine
 10
311.759128
 20
453.665014
 30
0.0
 11
312.234599
 21
453.390504
 31
0.0
  0
LINE
  5
2DB
330
1F
100
AcDbEntity
  8
002
 62
     3
370
    30
100
AcDbLine
 10
312.234597
 20
453.390504
 30
0.0
 11
313.034615
 21
453.390504
 31
0.0
  0
LINE
  5
2DC
330
1F
100
AcDbEntity
  8
002
 62
     3
370
    30
100
AcDbLine
 10
313.034615
 20
453.390504
 30
0.0
 11
313.034615
 21
452.490474
 31
0.0
  0
LINE
  5
2DD
330
1F
100
AcDbEntity
  8
002
 62
     3
370
    30
100
AcDbLine
 10
313.034615
 20
452.490474
 30
0.0
 11
312.234597
 21
452.490474
 31
0.0
  0
LINE
  5
2DE
330
1F
100
AcDbEntity
  8
002
 62
     3
370
    30
100
AcDbLine
 10
312.234545
 20
452.490444
 30
0.0
 11
311.759087
 21
452.215934
 31
0.0
  0
LINE
  5
2DF
330
1F
100
AcDbEntity
  8
002
 62
     3
370
    30
100
AcDbLine
 10
311.759122
 20
452.215954
 30
0.0
 11
311.484616
 21
451.740504
 31
0.0
  0
CIRCLE
  5
2E0
330
1F
100
AcDbEntity
  8
002
 62
     3
370
    30
100
AcDbCircle
 10
311.034615
 20
452.940494
 30
0.0
 40
3.499999
  0
CIRCLE
  5
2E1
330
1F
100
AcDbEntity
  8
002
 62
     3
370
    30
100
AcDbCircle
 10
311.034615
 20
512.940494
 30
0.0
 40
3.499999
  0
LINE
  5
2E2
330
1F
100
AcDbEntity
  8
002
 62
     3
370
    30
100
AcDbLine
 10
310.584603
 20
514.940494
 30
0.0
 11
311.484627
 21
514.940494
 31
0.0
  0
LINE
  5
2E3
330
1F
100
AcDbEntity
  8
002
 62
     3
370
    30
100
AcDbLine
 10
310.584603
 20
514.140514
 30
0.0
 11
310.584603
 21
514.940494
 31
0.0
  0
LINE
  5
2E4
330
1F
100
AcDbEntity
  8
002
 62
     3
370
    30
100
AcDbLine
 10
310.310089
 20
513.664974
 30
0.0
 11
310.584595
 21
514.140424
 31
0.0
  0
LINE
  5
2E5
330
1F
100
AcDbEntity
  8
002
 62
     3
370
    30
100
AcDbLine
 10
309.834693
 20
513.390534
 30
0.0
 11
310.310151
 21
513.665034
 31
0.0
  0
LINE
  5
2E6
330
1F
100
AcDbEntity
  8
002
 62
     3
370
    30
100
AcDbLine
 10
309.034615
 20
513.390514
 30
0.0
 11
309.834603
 21
513.390514
 31
0.0
  0
LINE
  5
2E7
330
1F
100
AcDbEntity
  8
002
 62
     3
370
    30
100
AcDbLine
 10
309.034615
 20
512.490484
 30
0.0
 11
309.034615
 21
513.390514
 31
0.0
  0
LINE
  5
2E8
330
1F
100
AcDbEntity
  8
002
 62
     3
370
    30
100
AcDbLine
 10
309.834633
 20
512.490484
 30
0.0
 11
309.034615
 21
512.490484
 31
0.0
  0
LINE
  5
2E9
330
1F
100
AcDbEntity
  8
002
 62
     3
370
    30
100
AcDbLine
 10
310.310117
 20
512.215994
 30
0.0
 11
309.834646
 21
512.490514
 31
0.0
  0
LINE
  5
2EA
330
1F
100
AcDbEntity
  8
002
 62
     3
370
    30
100
AcDbLine
 10
310.584605
 20
511.740524
 30
0.0
 11
310.310085
 21
512.216004
 31
0.0
  0
LINE
  5
2EB
330
1F
100
AcDbEntity
  8
002
 62
     3
370
    30
100
AcDbLine
 10
310.584603
 20
510.940494
 30
0.0
 11
310.584603
 21
511.740484
 31
0.0
  0
LINE
  5
2EC
330
1F
100
AcDbEntity
  8
002
 62
     3
370
    30
100
AcDbLine
 10
311.484627
 20
510.940494
 30
0.0
 11
310.584603
 21
510.940494
 31
0.0
  0
LINE
  5
2ED
330
1F
100
AcDbEntity
  8
002
 62
     3
370
    30
100
AcDbLine
 10
311.484627
 20
511.740484
 30
0.0
 11
311.484627
 21
510.940494
 31
0.0
  0
LINE
  5
2EE
330
1F
100
AcDbEntity
  8
002
 62
     3
370
    30
100
AcDbLine
 10
311.759121
 20
512.215994
 30
0.0
 11
311.484615
 21
511.740534
 31
0.0
  0
LINE
  5
2EF
330
1F
100
AcDbEntity
  8
002
 62
     3
370
    30
100
AcDbLine
 10
312.234593
 20
512.490494
 30
0.0
 11
311.759135
 21
512.215994
 31
0.0
  0
LINE
  5
2F0
330
1F
100
AcDbEntity
  8
002
 62
     3
370
    30
100
AcDbLine
 10
313.034615
 20
512.490484
 30
0.0
 11
312.234597
 21
512.490484
 31
0.0
  0
LINE
  5
2F1
330
1F
100
AcDbEntity
  8
002
 62
     3
370
    30
100
AcDbLine
 10
313.034615
 20
513.390514
 30
0.0
 11
313.034615
 21
512.490484
 31
0.0
  0
LINE
  5
2F2
330
1F
100
AcDbEntity
  8
002
 62
     3
370
    30
100
AcDbLine
 10
312.234597
 20
513.390514
 30
0.0
 11
313.034615
 21
513.390514
 31
0.0
  0
LINE
  5
2F3
330
1F
100
AcDbEntity
  8
002
 62
     3
370
    30
100
AcDbLine
 10
311.759107
 20
513.664994
 30
0.0
 11
312.234578
 21
513.390484
 31
0.0
  0
LINE
  5
2F4
330
1F
100
AcDbEntity
  8
002
 62
     3
370
    30
100
AcDbLine
 10
311.48462
 20
514.140504
 30
0.0
 11
311.759141
 21
513.665024
 31
0.0
  0
LINE
  5
2F5
330
1F
100
AcDbEntity
  8
002
 62
     3
370
    30
100
AcDbLine
 10
311.484627
 20
514.940494
 30
0.0
 11
311.484627
 21
514.140514
 31
0.0
  0
LINE
  5
2F6
330
1F
100
AcDbEntity
  8
002
 62
     3
370
    30
100
AcDbLine
 10
261.034635
 20
439.940524
 30
0.0
 11
361.034625
 21
439.940524
 31
0.0
  0
LINE
  5
2F7
330
1F
100
AcDbEntity
  8
002
 62
     3
370
    30
100
AcDbLine
 10
316.534371
 20
518.940494
 30
0.0
 11
305.534615
 21
518.940494
 31
0.0
  0
LINE
  5
2F8
330
1F
100
AcDbEntity
  8
002
 62
     3
370
    30
100
AcDbLine
 10
324.111655
 20
518.940854
 30
0.0
 11
323.111655
 21
519.940864
 31
0.0
  0
LINE
  5
2F9
330
1F
100
AcDbEntity
  8
002
 62
     3
370
    30
100
AcDbLine
 10
324.111335
 20
471.718309
 30
0.0
 11
324.111335
 21
518.940494
 31
0.0
  0
LINE
  5
2FA
330
1F
100
AcDbEntity
  8
002
 62
     3
370
    30
100
AcDbLine
 10
297.957925
 20
510.150345
 30
0.0
 11
297.957925
 21
518.940494
 31
0.0
  0
LINE
  5
2FB
330
1F
100
AcDbEntity
  8
002
 62
     3
370
    30
100
AcDbLine
 10
297.957985
 20
518.940534
 30
0.0
 11
298.958225
 21
519.940774
 31
0.0
  0
LINE
  5
2FC
330
1F
100
AcDbEntity
  8
002
 62
     3
370
    30
100
AcDbLine
 10
281.034645
 20
531.940514
 30
0.0
 11
281.034645
 21
439.940524
 31
0.0
  0
ARC
  5
2FD
330
1F
100
AcDbEntity
  8
002
 62
     3
370
    30
100
AcDbCircle
 10
316.534371
 20
516.940494
 30
0.0
 40
2.0
100
AcDbArc
 50
0.0
 51
90.0
  0
ARC
  5
2FE
330
1F
100
AcDbEntity
  8
002
 62
     3
370
    30
100
AcDbCircle
 10
305.534615
 20
516.940494
 30
0.0
 40
2.0
100
AcDbArc
 50
90.0
 51
180.0
  0
LINE
  5
2FF
330
1F
100
AcDbEntity
  8
002
 62
     3
370
    30
100
AcDbLine
 10
281.034645
 20
531.940514
 30
0.0
 11
341.034615
 21
531.940514
 31
0.0
  0
LINE
  5
300
330
1F
100
AcDbEntity
  8
002
 62
     3
370
    30
100
AcDbLine
 10
341.034615
 20
531.940514
 30
0.0
 11
341.034615
 21
439.940524
 31
0.0
  0
LINE
  5
301
330
1F
100
AcDbEntity
  8
002
 62
     3
370
    30
100
AcDbLine
 10
261.034635
 20
421.940514
 30
0.0
 11
361.034625
 21
421.940514
 31
0.0
  0
LINE
  5
302
330
1F
100
AcDbEntity
  8
002
 62
     3
370
    30
100
AcDbLine
 10
261.034635
 20
439.940524
 30
0.0
 11
261.034635
 21
421.940514
 31
0.0
  0
LINE
  5
303
330
1F
100
AcDbEntity
  8
002
 62
     3
370
    30
100
AcDbLine
 10
361.034625
 20
439.940524
 30
0.0
 11
361.034625
 21
421.940514
 31
0.0
  0
LINE
  5
304
330
1F
100
AcDbEntity
  8
002
 62
     3
370
    30
100
AcDbLine
 10
298.958225
 20
519.940774
 30
0.0
 11
323.111745
 21
519.940774
 31
0.0
  0
LINE
  5
305
330
1F
100
AcDbEntity
  8
002
 62
     3
370
    30
100
AcDbLine
 10
293.026257
 20
635.624029
 30
0.0
 11
293.026257
 21
531.940514
 31
0.0
  0
LINE
  5
306
330
1F
100
AcDbEntity
  8
002
 62
     3
370
    30
100
AcDbLine
 10
329.026157
 20
531.940514
 30
0.0
 11
329.026157
 21
635.624029
 31
0.0
  0
LINE
  5
307
330
1F
100
AcDbEntity
  8
001
 62
     3
370
    30
100
AcDbLine
 10
1108.117155
 20
285.350935
 30
0.0
 11
1123.117157
 21
263.327298
 31
0.0
  0
LINE
  5
308
330
1F
100
AcDbEntity
  8
001
 62
     3
370
    30
100
AcDbLine
 10
1108.117155
 20
264.033723
 30
0.0
 11
1123.117157
 21
242.010116
 31
0.0
  0
LINE
  5
309
330
1F
100
AcDbEntity
  8
002
  6
CENTER
 62
    40
370
     9
100
AcDbLine
 10
1075.617186
 20
225.664386
 30
0.0
 11
1075.617186
 21
197.664376
 31
0.0
  0
LINE
  5
30A
330
1F
100
AcDbEntity
  8
002
  6
CENTER
 62
    40
370
     9
100
AcDbLine
 10
1155.617156
 20
225.664386
 30
0.0
 11
1155.617156
 21
197.664376
 31
0.0
  0
LINE
  5
30B
330
1F
100
AcDbEntity
  8
002
 62
     3
370
    30
100
AcDbLine
 10
1108.117155
 20
297.664356
 30
0.0
 11
1108.117155
 21
229.664356
 31
0.0
  0
LINE
  5
30C
330
1F
100
AcDbEntity
  8
002
 62
     3
370
    30
100
AcDbLine
 10
1123.117157
 20
229.664356
 30
0.0
 11
1123.117157
 21
297.664356
 31
0.0
  0
LINE
  5
30D
330
1F
100
AcDbEntity
  8
002
 62
     3
370
    30
100
AcDbLine
 10
1093.432064
 20
288.259622
 30
0.0
 11
1108.117155
 21
266.698379
 31
0.0
  0
LINE
  5
30E
330
1F
100
AcDbEntity
  8
002
 62
     3
370
    30
100
AcDbLine
 10
1108.117155
 20
274.692299
 30
0.0
 11
1094.618195
 21
294.512036
 31
0.0
  0
LINE
  5
30F
330
1F
100
AcDbEntity
  8
002
 62
     3
370
    30
100
AcDbLine
 10
1100.87065
 20
293.325902
 30
0.0
 11
1108.117155
 21
282.686276
 31
0.0
  0
ARC
  5
310
330
1F
100
AcDbEntity
  8
002
 62
     3
370
    30
100
AcDbCircle
 10
1097.151179
 20
290.792844
 30
0.0
 40
4.500000220055554
100
AcDbArc
 50
34.258265
 51
214.258342
  0
LINE
  5
311
330
1F
100
AcDbEntity
  8
002
 62
     3
370
    30
100
AcDbLine
 10
1102.540466
 20
226.664386
 30
0.0
 11
1102.540466
 21
274.886299
 31
0.0
  0
LINE
  5
312
330
1F
100
AcDbEntity
  8
002
 62
     3
370
    30
100
AcDbLine
 10
1102.540466
 20
226.664386
 30
0.0
 11
1128.693876
 21
226.664386
 31
0.0
  0
ARC
  5
313
330
1F
100
AcDbEntity
  8
002
 62
     3
370
    30
100
AcDbCircle
 10
1110.1174
 20
229.664356
 30
0.0
 40
2.000000000001
100
AcDbArc
 50
180.0
 51
269.999943
  0
LINE
  5
314
330
1F
100
AcDbEntity
  8
002
 62
     3
370
    30
100
AcDbLine
 10
1110.1174
 20
227.664356
 30
0.0
 11
1121.117156
 21
227.664356
 31
0.0
  0
ARC
  5
315
330
1F
100
AcDbEntity
  8
002
 62
     3
370
    30
100
AcDbCircle
 10
1121.117156
 20
229.664356
 30
0.0
 40
2.0
100
AcDbArc
 50
269.999943
 51
0.0
  0
LINE
  5
316
330
1F
100
AcDbEntity
  8
002
 62
     3
370
    30
100
AcDbLine
 10
1128.693876
 20
226.664386
 30
0.0
 11
1128.693876
 21
236.454337
 31
0.0
  0
LINE
  5
317
330
1F
100
AcDbEntity
  8
002
 62
     3
370
    30
100
AcDbLine
 10
1130.363638
 20
234.002726
 30
0.0
 11
1123.117157
 21
244.6423
 31
0.0
  0
LINE
  5
318
330
1F
100
AcDbEntity
  8
002
 62
     3
370
    30
100
AcDbLine
 10
1123.117157
 20
252.636213
 30
0.0
 11
1136.616062
 21
232.81656
 31
0.0
  0
LINE
  5
319
330
1F
100
AcDbEntity
  8
002
 62
     3
370
    30
100
AcDbLine
 10
1137.802186
 20
239.068987
 30
0.0
 11
1123.117157
 21
260.630133
 31
0.0
  0
ARC
  5
31A
330
1F
100
AcDbEntity
  8
002
 62
     3
370
    30
100
AcDbCircle
 10
1134.083161
 20
236.535841
 30
0.0
 40
4.500000220055554
100
AcDbArc
 50
214.258164
 51
34.258342
  0
LINE
  5
31B
330
1F
100
AcDbEntity
  8
002
 62
     3
370
    30
100
AcDbLine
 10
1116.067168
 20
231.664356
 30
0.0
 11
1115.167144
 21
231.664356
 31
0.0
  0
LINE
  5
31C
330
1F
100
AcDbEntity
  8
002
 62
     3
370
    30
100
AcDbLine
 10
1116.067168
 20
232.464336
 30
0.0
 11
1116.067168
 21
231.664356
 31
0.0
  0
LINE
  5
31D
330
1F
100
AcDbEntity
  8
002
 62
     3
370
    30
100
AcDbLine
 10
1115.167144
 20
231.664356
 30
0.0
 11
1115.167144
 21
232.464336
 31
0.0
  0
LINE
  5
31E
330
1F
100
AcDbEntity
  8
002
 62
     3
370
    30
100
AcDbLine
 10
1115.167133
 20
232.464366
 30
0.0
 11
1114.89262
 21
232.939836
 31
0.0
  0
LINE
  5
31F
330
1F
100
AcDbEntity
  8
002
 62
     3
370
    30
100
AcDbLine
 10
1114.892633
 20
232.939836
 30
0.0
 11
1114.417162
 21
233.214346
 31
0.0
  0
LINE
  5
320
330
1F
100
AcDbEntity
  8
002
 62
     3
370
    30
100
AcDbLine
 10
1114.417174
 20
233.214336
 30
0.0
 11
1113.617156
 21
233.214336
 31
0.0
  0
LINE
  5
321
330
1F
100
AcDbEntity
  8
002
 62
     3
370
    30
100
AcDbLine
 10
1113.617156
 20
233.214336
 30
0.0
 11
1113.617156
 21
234.114366
 31
0.0
  0
LINE
  5
322
330
1F
100
AcDbEntity
  8
002
 62
     3
370
    30
100
AcDbLine
 10
1113.617156
 20
234.114366
 30
0.0
 11
1114.417144
 21
234.114366
 31
0.0
  0
LINE
  5
323
330
1F
100
AcDbEntity
  8
002
 62
     3
370
    30
100
AcDbLine
 10
1114.417173
 20
234.114366
 30
0.0
 11
1114.892631
 21
234.388866
 31
0.0
  0
LINE
  5
324
330
1F
100
AcDbEntity
  8
002
 62
     3
370
    30
100
AcDbLine
 10
1114.89264
 20
234.388866
 30
0.0
 11
1115.167146
 21
234.864316
 31
0.0
  0
LINE
  5
325
330
1F
100
AcDbEntity
  8
002
 62
     3
370
    30
100
AcDbLine
 10
1115.167144
 20
234.864366
 30
0.0
 11
1115.167144
 21
235.664356
 31
0.0
  0
LINE
  5
326
330
1F
100
AcDbEntity
  8
002
 62
     3
370
    30
100
AcDbLine
 10
1115.167144
 20
235.664356
 30
0.0
 11
1116.067168
 21
235.664356
 31
0.0
  0
LINE
  5
327
330
1F
100
AcDbEntity
  8
002
 62
     3
370
    30
100
AcDbLine
 10
1116.067168
 20
235.664356
 30
0.0
 11
1116.067168
 21
234.864366
 31
0.0
  0
LINE
  5
328
330
1F
100
AcDbEntity
  8
002
 62
     3
370
    30
100
AcDbLine
 10
1116.06715
 20
234.864346
 30
0.0
 11
1116.341663
 21
234.388876
 31
0.0
  0
LINE
  5
329
330
1F
100
AcDbEntity
  8
002
 62
     3
370
    30
100
AcDbLine
 10
1116.341669
 20
234.388876
 30
0.0
 11
1116.81714
 21
234.114366
 31
0.0
  0
LINE
  5
32A
330
1F
100
AcDbEntity
  8
002
 62
     3
370
    30
100
AcDbLine
 10
1116.817138
 20
234.114366
 30
0.0
 11
1117.617156
 21
234.114366
 31
0.0
  0
LINE
  5
32B
330
1F
100
AcDbEntity
  8
002
 62
     3
370
    30
100
AcDbLine
 10
1117.617156
 20
234.114366
 30
0.0
 11
1117.617156
 21
233.214336
 31
0.0
  0
LINE
  5
32C
330
1F
100
AcDbEntity
  8
002
 62
     3
370
    30
100
AcDbLine
 10
1117.617156
 20
233.214336
 30
0.0
 11
1116.817138
 21
233.214336
 31
0.0
  0
LINE
  5
32D
330
1F
100
AcDbEntity
  8
002
 62
     3
370
    30
100
AcDbLine
 10
1116.817086
 20
233.214306
 30
0.0
 11
1116.341628
 21
232.939796
 31
0.0
  0
LINE
  5
32E
330
1F
100
AcDbEntity
  8
002
 62
     3
370
    30
100
AcDbLine
 10
1116.341663
 20
232.939816
 30
0.0
 11
1116.067157
 21
232.464366
 31
0.0
  0
CIRCLE
  5
32F
330
1F
100
AcDbEntity
  8
002
 62
     3
370
    30
100
AcDbCircle
 10
1115.617156
 20
233.664356
 30
0.0
 40
3.499999
  0
CIRCLE
  5
330
330
1F
100
AcDbEntity
  8
002
 62
     3
370
    30
100
AcDbCircle
 10
1115.617156
 20
293.664356
 30
0.0
 40
3.499999
  0
LINE
  5
331
330
1F
100
AcDbEntity
  8
002
 62
     3
370
    30
100
AcDbLine
 10
1115.167144
 20
295.664356
 30
0.0
 11
1116.067168
 21
295.664356
 31
0.0
  0
LINE
  5
332
330
1F
100
AcDbEntity
  8
002
 62
     3
370
    30
100
AcDbLine
 10
1115.167144
 20
294.864376
 30
0.0
 11
1115.167144
 21
295.664356
 31
0.0
  0
LINE
  5
333
330
1F
100
AcDbEntity
  8
002
 62
     3
370
    30
100
AcDbLine
 10
1114.89263
 20
294.388836
 30
0.0
 11
1115.167136
 21
294.864286
 31
0.0
  0
LINE
  5
334
330
1F
100
AcDbEntity
  8
002
 62
     3
370
    30
100
AcDbLine
 10
1114.417234
 20
294.114396
 30
0.0
 11
1114.892692
 21
294.388896
 31
0.0
  0
LINE
  5
335
330
1F
100
AcDbEntity
  8
002
 62
     3
370
    30
100
AcDbLine
 10
1113.617156
 20
294.114376
 30
0.0
 11
1114.417144
 21
294.114376
 31
0.0
  0
LINE
  5
336
330
1F
100
AcDbEntity
  8
002
 62
     3
370
    30
100
AcDbLine
 10
1113.617156
 20
293.214346
 30
0.0
 11
1113.617156
 21
294.114376
 31
0.0
  0
LINE
  5
337
330
1F
100
AcDbEntity
  8
002
 62
     3
370
    30
100
AcDbLine
 10
1114.417174
 20
293.214346
 30
0.0
 11
1113.617156
 21
293.214346
 31
0.0
  0
LINE
  5
338
330
1F
100
AcDbEntity
  8
002
 62
     3
370
    30
100
AcDbLine
 10
1114.892658
 20
292.939856
 30
0.0
 11
1114.417187
 21
293.214376
 31
0.0
  0
LINE
  5
339
330
1F
100
AcDbEntity
  8
002
 62
     3
370
    30
100
AcDbLine
 10
1115.167146
 20
292.464386
 30
0.0
 11
1114.892626
 21
292.939866
 31
0.0
  0
LINE
  5
33A
330
1F
100
AcDbEntity
  8
002
 62
     3
370
    30
100
AcDbLine
 10
1115.167144
 20
291.664356
 30
0.0
 11
1115.167144
 21
292.464346
 31
0.0
  0
LINE
  5
33B
330
1F
100
AcDbEntity
  8
002
 62
     3
370
    30
100
AcDbLine
 10
1116.067168
 20
291.664356
 30
0.0
 11
1115.167144
 21
291.664356
 31
0.0
  0
LINE
  5
33C
330
1F
100
AcDbEntity
  8
002
 62
     3
370
    30
100
AcDbLine
 10
1116.067168
 20
292.464346
 30
0.0
 11
1116.067168
 21
291.664356
 31
0.0
  0
LINE
  5
33D
330
1F
100
AcDbEntity
  8
002
 62
     3
370
    30
100
AcDbLine
 10
1116.341662
 20
292.939856
 30
0.0
 11
1116.067156
 21
292.464396
 31
0.0
  0
LINE
  5
33E
330
1F
100
AcDbEntity
  8
002
 62
     3
370
    30
100
AcDbLine
 10
1116.817134
 20
293.214356
 30
0.0
 11
1116.341676
 21
292.939856
 31
0.0
  0
LINE
  5
33F
330
1F
100
AcDbEntity
  8
002
 62
     3
370
    30
100
AcDbLine
 10
1117.617156
 20
293.214346
 30
0.0
 11
1116.817138
 21
293.214346
 31
0.0
  0
LINE
  5
340
330
1F
100
AcDbEntity
  8
002
 62
     3
370
    30
100
AcDbLine
 10
1117.617156
 20
294.114376
 30
0.0
 11
1117.617156
 21
293.214346
 31
0.0
  0
LINE
  5
341
330
1F
100
AcDbEntity
  8
002
 62
     3
370
    30
100
AcDbLine
 10
1116.817138
 20
294.114376
 30
0.0
 11
1117.617156
 21
294.114376
 31
0.0
  0
LINE
  5
342
330
1F
100
AcDbEntity
  8
002
 62
     3
370
    30
100
AcDbLine
 10
1116.341648
 20
294.388856
 30
0.0
 11
1116.817119
 21
294.114346
 31
0.0
  0
LINE
  5
343
330
1F
100
AcDbEntity
  8
002
 62
     3
370
    30
100
AcDbLine
 10
1116.067161
 20
294.864366
 30
0.0
 11
1116.341682
 21
294.388886
 31
0.0
  0
LINE
  5
344
330
1F
100
AcDbEntity
  8
002
 62
     3
370
    30
100
AcDbLine
 10
1116.067168
 20
295.664356
 30
0.0
 11
1116.067168
 21
294.864376
 31
0.0
  0
LINE
  5
345
330
1F
100
AcDbEntity
  8
002
 62
     3
370
    30
100
AcDbLine
 10
1065.617176
 20
220.664386
 30
0.0
 11
1165.617166
 21
220.664386
 31
0.0
  0
LINE
  5
346
330
1F
100
AcDbEntity
  8
002
 62
     3
370
    30
100
AcDbLine
 10
1121.116912
 20
299.664356
 30
0.0
 11
1110.117156
 21
299.664356
 31
0.0
  0
LINE
  5
347
330
1F
100
AcDbEntity
  8
002
 62
     3
370
    30
100
AcDbLine
 10
1128.694196
 20
299.664716
 30
0.0
 11
1127.694196
 21
300.664726
 31
0.0
  0
LINE
  5
348
330
1F
100
AcDbEntity
  8
002
 62
     3
370
    30
100
AcDbLine
 10
1128.693876
 20
252.442171
 30
0.0
 11
1128.693876
 21
299.664356
 31
0.0
  0
LINE
  5
349
330
1F
100
AcDbEntity
  8
002
 62
     3
370
    30
100
AcDbLine
 10
1102.540466
 20
290.874207
 30
0.0
 11
1102.540466
 21
299.664356
 31
0.0
  0
LINE
  5
34A
330
1F
100
AcDbEntity
  8
002
 62
     3
370
    30
100
AcDbLine
 10
1102.540526
 20
299.664396
 30
0.0
 11
1103.540766
 21
300.664636
 31
0.0
  0
LINE
  5
34B
330
1F
100
AcDbEntity
  8
002
 62
     3
370
    30
100
AcDbLine
 10
1085.617186
 20
312.664376
 30
0.0
 11
1085.617186
 21
220.664386
 31
0.0
  0
ARC
  5
34C
330
1F
100
AcDbEntity
  8
002
 62
     3
370
    30
100
AcDbCircle
 10
1121.116912
 20
297.664356
 30
0.0
 40
2.0
100
AcDbArc
 50
0.0
 51
90.0
  0
ARC
  5
34D
330
1F
100
AcDbEntity
  8
002
 62
     3
370
    30
100
AcDbCircle
 10
1110.117156
 20
297.664356
 30
0.0
 40
2.0
100
AcDbArc
 50
90.0
 51
180.0
  0
LINE
  5
34E
330
1F
100
AcDbEntity
  8
002
 62
     3
370
    30
100
AcDbLine
 10
1085.617186
 20
312.664376
 30
0.0
 11
1145.617156
 21
312.664376
 31
0.0
  0
LINE
  5
34F
330
1F
100
AcDbEntity
  8
002
 62
     3
370
    30
100
AcDbLine
 10
1145.617156
 20
312.664376
 30
0.0
 11
1145.617156
 21
220.664386
 31
0.0
  0
LINE
  5
350
330
1F
100
AcDbEntity
  8
002
 62
     3
370
    30
100
AcDbLine
 10
1065.617176
 20
202.664376
 30
0.0
 11
1165.617166
 21
202.664376
 31
0.0
  0
LINE
  5
351
330
1F
100
AcDbEntity
  8
002
 62
     3
370
    30
100
AcDbLine
 10
1065.617176
 20
220.664386
 30
0.0
 11
1065.617176
 21
202.664376
 31
0.0
  0
LINE
  5
352
330
1F
100
AcDbEntity
  8
002
 62
     3
370
    30
100
AcDbLine
 10
1165.617166
 20
220.664386
 30
0.0
 11
1165.617166
 21
202.664376
 31
0.0
  0
LINE
  5
353
330
1F
100
AcDbEntity
  8
002
 62
     3
370
    30
100
AcDbLine
 10
1103.540766
 20
300.664636
 30
0.0
 11
1127.694286
 21
300.664636
 31
0.0
  0
LINE
  5
354
330
1F
100
AcDbEntity
  8
002
 62
     3
370
    30
100
AcDbLine
 10
1097.608699
 20
202.664376
 30
0.0
 11
1097.608699
 21
105.464435
 31
0.0
  0
LINE
  5
355
330
1F
100
AcDbEntity
  8
002
 62
     3
370
    30
100
AcDbLine
 10
1133.608699
 20
105.464435
 30
0.0
 11
1133.608699
 21
202.664376
 31
0.0
  0
LINE
  5
356
330
1F
100
AcDbEntity
  8
002
 62
    40
370
     9
100
AcDbLine
 10
1131.508699
 20
105.464435
 30
0.0
 11
1131.508699
 21
202.664376
 31
0.0
  0
LINE
  5
357
330
1F
100
AcDbEntity
  8
002
 62
    40
370
     9
100
AcDbLine
 10
1099.708699
 20
202.664376
 30
0.0
 11
1099.708699
 21
105.464435
 31
0.0
  0
CIRCLE
  5
358
330
1F
100
AcDbEntity
  8
002
 62
    40
370
     9
100
AcDbCircle
 10
311.026157
 20
922.655121
 30
0.0
 40
15.9000000000001
  0
LINE
  5
359
330
1F
100
AcDbEntity
  8
002
 62
    40
370
     9
100
AcDbLine
 10
326.926257
 20
635.624029
 30
0.0
 11
326.926257
 21
531.940514
 31
0.0
  0
LINE
  5
35A
330
1F
100
AcDbEntity
  8
002
 62
    40
370
     9
100
AcDbLine
 10
295.126257
 20
531.940514
 30
0.0
 11
295.126257
 21
635.624029
 31
0.0
  0
LINE
  5
35B
330
1F
100
AcDbEntity
  8
002
 62
     3
370
    30
100
AcDbLine
 10
315.025212
 20
1450.135667
 30
0.0
 11
311.025559
 21
1447.826065
 31
0.0
  0
LINE
  5
35C
330
1F
100
AcDbEntity
  8
002
 62
     3
370
    30
100
AcDbLine
 10
311.025559
 20
1447.826065
 30
0.0
 11
307.025388
 21
1450.135565
 31
0.0
  0
LINE
  5
35D
330
1F
100
AcDbEntity
  8
002
 62
     3
370
    30
100
AcDbLine
 10
307.025388
 20
1450.135565
 30
0.0
 11
307.025735
 21
1454.754167
 31
0.0
  0
LINE
  5
35E
330
1F
100
AcDbEntity
  8
002
 62
     3
370
    30
100
AcDbLine
 10
307.025735
 20
1454.754167
 30
0.0
 11
311.025388
 21
1457.063768
 31
0.0
  0
LINE
  5
35F
330
1F
100
AcDbEntity
  8
002
 62
     3
370
    30
100
AcDbLine
 10
311.025388
 20
1457.063768
 30
0.0
 11
315.025559
 21
1454.754268
 31
0.0
  0
LINE
  5
360
330
1F
100
AcDbEntity
  8
002
 62
     3
370
    30
100
AcDbLine
 10
315.025559
 20
1454.754268
 30
0.0
 11
315.025212
 21
1450.135667
 31
0.0
  0
CIRCLE
  5
361
330
1F
100
AcDbEntity
  8
002
 62
     3
370
    30
100
AcDbCircle
 10
311.025907
 20
1452.444667
 30
0.0
 40
8.0
  0
LINE
  5
362
330
1F
100
AcDbEntity
  8
002
 62
     3
370
    30
100
AcDbLine
 10
315.025212
 20
1572.754535
 30
0.0
 11
311.025559
 21
1575.064136
 31
0.0
  0
LINE
  5
363
330
1F
100
AcDbEntity
  8
002
 62
     3
370
    30
100
AcDbLine
 10
311.025559
 20
1575.064136
 30
0.0
 11
307.025388
 21
1572.754636
 31
0.0
  0
LINE
  5
364
330
1F
100
AcDbEntity
  8
002
 62
     3
370
    30
100
AcDbLine
 10
307.025388
 20
1572.754636
 30
0.0
 11
307.025735
 21
1568.136035
 31
0.0
  0
LINE
  5
365
330
1F
100
AcDbEntity
  8
002
 62
     3
370
    30
100
AcDbLine
 10
307.025735
 20
1568.136035
 30
0.0
 11
311.025388
 21
1565.826433
 31
0.0
  0
LINE
  5
366
330
1F
100
AcDbEntity
  8
002
 62
     3
370
    30
100
AcDbLine
 10
311.025388
 20
1565.826433
 30
0.0
 11
315.025559
 21
1568.135933
 31
0.0
  0
LINE
  5
367
330
1F
100
AcDbEntity
  8
002
 62
     3
370
    30
100
AcDbLine
 10
315.025559
 20
1568.135933
 30
0.0
 11
315.025212
 21
1572.754535
 31
0.0
  0
CIRCLE
  5
368
330
1F
100
AcDbEntity
  8
002
 62
     3
370
    30
100
AcDbCircle
 10
311.025907
 20
1570.445535
 30
0.0
 40
8.0
  0
LINE
  5
369
330
1F
100
AcDbEntity
  8
002
 62
     3
370
    30
100
AcDbLine
 10
370.026157
 20
1625.445101
 30
0.0
 11
377.026157
 21
1625.445101
 31
0.0
  0
LINE
  5
36A
330
1F
100
AcDbEntity
  8
002
 62
     3
370
    30
100
AcDbLine
 10
364.026157
 20
1625.445101
 30
0.0
 11
357.026157
 21
1625.445101
 31
0.0
  0
LINE
  5
36B
330
1F
100
AcDbEntity
  8
002
 62
     3
370
    30
100
AcDbLine
 10
364.026157
 20
1418.445101
 30
0.0
 11
364.026157
 21
1396.445101
 31
0.0
  0
LINE
  5
36C
330
1F
100
AcDbEntity
  8
002
 62
     3
370
    30
100
AcDbLine
 10
370.026157
 20
1418.445101
 30
0.0
 11
370.026157
 21
1396.445101
 31
0.0
  0
LINE
  5
36D
330
1F
100
AcDbEntity
  8
002
 62
     3
370
    30
100
AcDbLine
 10
364.026157
 20
1604.445101
 30
0.0
 11
364.026157
 21
1626.445101
 31
0.0
  0
LINE
  5
36E
330
1F
100
AcDbEntity
  8
002
 62
     3
370
    30
100
AcDbLine
 10
370.026157
 20
1604.445101
 30
0.0
 11
370.026157
 21
1626.445101
 31
0.0
  0
ARC
  5
36F
330
1F
100
AcDbEntity
  8
002
 62
     3
370
    30
100
AcDbCircle
 10
367.026157
 20
1604.445101
 30
0.0
 40
3.0
100
AcDbArc
 50
180.0
 51
0.0
  0
LINE
  5
370
330
1F
100
AcDbEntity
  8
002
 62
     3
370
    30
100
AcDbLine
 10
377.026157
 20
1625.445101
 30
0.0
 11
376.026157
 21
1626.445101
 31
0.0
  0
LINE
  5
371
330
1F
100
AcDbEntity
  8
002
 62
     3
370
    30
100
AcDbLine
 10
376.026157
 20
1626.445101
 30
0.0
 11
358.026157
 21
1626.445101
 31
0.0
  0
LINE
  5
372
330
1F
100
AcDbEntity
  8
002
 62
     3
370
    30
100
AcDbLine
 10
358.026157
 20
1626.445101
 30
0.0
 11
357.026157
 21
1625.445101
 31
0.0
  0
LINE
  5
373
330
1F
100
AcDbEntity
  8
002
 62
     3
370
    30
100
AcDbLine
 10
357.026157
 20
1625.445101
 30
0.0
 11
357.026157
 21
1599.445101
 31
0.0
  0
LINE
  5
374
330
1F
100
AcDbEntity
  8
002
 62
     3
370
    30
100
AcDbLine
 10
356.026157
 20
1599.445101
 30
0.0
 11
378.026157
 21
1599.445101
 31
0.0
  0
LINE
  5
375
330
1F
100
AcDbEntity
  8
002
 62
     3
370
    30
100
AcDbLine
 10
378.026157
 20
1599.445101
 30
0.0
 11
378.026157
 21
1590.195101
 31
0.0
  0
LINE
  5
376
330
1F
100
AcDbEntity
  8
002
 62
     3
370
    30
100
AcDbLine
 10
403.026157
 20
1590.195101
 30
0.0
 11
403.026157
 21
1551.445101
 31
0.0
  0
ARC
  5
377
330
1F
100
AcDbEntity
  8
002
 62
     3
370
    30
100
AcDbCircle
 10
408.026157
 20
1551.445101
 30
0.0
 40
5.0
100
AcDbArc
 50
180.0
 51
270.0
  0
LINE
  5
378
330
1F
100
AcDbEntity
  8
002
 62
     3
370
    30
100
AcDbLine
 10
408.026157
 20
1546.445101
 30
0.0
 11
431.026157
 21
1546.445101
 31
0.0
  0
LINE
  5
379
330
1F
100
AcDbEntity
  8
002
 62
     3
370
    30
100
AcDbLine
 10
431.892157
 20
1546.370101
 30
0.0
 11
407.160157
 21
1550.718101
 31
0.0
  0
ARC
  5
37A
330
1F
100
AcDbEntity
  8
002
 62
     3
370
    30
100
AcDbCircle
 10
408.026157
 20
1555.643101
 30
0.0
 40
5.000558068855907
100
AcDbArc
 50
180.0
 51
260.027198
  0
ARC
  5
37B
330
1F
100
AcDbEntity
  8
002
 62
     3
370
    30
100
AcDbCircle
 10
410.248157
 20
1540.945101
 30
0.0
 40
2.0
100
AcDbArc
 50
180.0
 51
270.0
  0
LINE
  5
37C
330
1F
100
AcDbEntity
  8
002
 62
     3
370
    30
100
AcDbLine
 10
410.248157
 20
1538.945101
 30
0.0
 11
423.330157
 21
1538.945101
 31
0.0
  0
LINE
  5
37D
330
1F
100
AcDbEntity
  8
002
 62
     3
370
    30
100
AcDbLine
 10
425.330157
 20
1536.945101
 30
0.0
 11
425.330157
 21
1485.945101
 31
0.0
  0
ARC
  5
37E
330
1F
100
AcDbEntity
  8
002
 62
     3
370
    30
100
AcDbCircle
 10
423.330157
 20
1485.945101
 30
0.0
 40
2.0
100
AcDbArc
 50
270.0
 51
0.0
  0
LINE
  5
37F
330
1F
100
AcDbEntity
  8
002
 62
     3
370
    30
100
AcDbLine
 10
423.330157
 20
1483.945101
 30
0.0
 11
410.248157
 21
1483.945101
 31
0.0
  0
ARC
  5
380
330
1F
100
AcDbEntity
  8
002
 62
     3
370
    30
100
AcDbCircle
 10
410.248157
 20
1481.945101
 30
0.0
 40
2.0
100
AcDbArc
 50
90.0
 51
180.0
  0
LINE
  5
381
330
1F
100
AcDbEntity
  8
002
 62
     3
370
    30
100
AcDbLine
 10
408.248157
 20
1485.945101
 30
0.0
 11
408.248157
 21
1536.945101
 31
0.0
  0
LINE
  5
382
330
1F
100
AcDbEntity
  8
002
 62
     3
370
    30
100
AcDbLine
 10
410.059157
 20
1536.945101
 30
0.0
 11
410.059157
 21
1485.945101
 31
0.0
  0
ARC
  5
383
330
1F
100
AcDbEntity
  8
002
 62
     3
370
    30
100
AcDbCircle
 10
412.059157
 20
1485.945101
 30
0.0
 40
2.0
100
AcDbArc
 50
180.0
 51
270.0
  0
ARC
  5
384
330
1F
100
AcDbEntity
  8
002
 62
     3
370
    30
100
AcDbCircle
 10
410.248157
 20
1485.945101
 30
0.0
 40
2.0
100
AcDbArc
 50
180.0
 51
270.0
  0
LINE
  5
385
330
1F
100
AcDbEntity
  8
002
 62
     3
370
    30
100
AcDbLine
 10
408.026157
 20
1476.445101
 30
0.0
 11
431.026157
 21
1476.445101
 31
0.0
  0
ARC
  5
386
330
1F
100
AcDbEntity
  8
002
 62
     3
370
    30
100
AcDbCircle
 10
431.026157
 20
1481.445101
 30
0.0
 40
5.0
100
AcDbArc
 50
270.0
 51
0.0
  0
LINE
  5
387
330
1F
100
AcDbEntity
  8
002
 62
     3
370
    30
100
AcDbLine
 10
436.026157
 20
1481.445101
 30
0.0
 11
436.026157
 21
1541.445101
 31
0.0
  0
ARC
  5
388
330
1F
100
AcDbEntity
  8
002
 62
     3
370
    30
100
AcDbCircle
 10
431.026157
 20
1541.445101
 30
0.0
 40
5.0
100
AcDbArc
 50
0.0
 51
90.0
  0
ARC
  5
389
330
1F
100
AcDbEntity
  8
002
 62
     3
370
    30
100
AcDbCircle
 10
423.330157
 20
1536.945101
 30
0.0
 40
2.0
100
AcDbArc
 50
0.0
 51
90.0
  0
ARC
  5
38A
330
1F
100
AcDbEntity
  8
002
 62
     3
370
    30
100
AcDbCircle
 10
412.059157
 20
1536.945101
 30
0.0
 40
2.0
100
AcDbArc
 50
90.0
 51
180.0
  0
ARC
  5
38B
330
1F
100
AcDbEntity
  8
002
 62
     3
370
    30
100
AcDbCircle
 10
410.248157
 20
1536.945101
 30
0.0
 40
2.0
100
AcDbArc
 50
90.0
 51
180.0
  0
LINE
  5
38C
330
1F
100
AcDbEntity
  8
002
 62
     3
370
    30
100
AcDbLine
 10
366.121157
 20
1538.636101
 30
0.0
 11
362.121157
 21
1536.327101
 31
0.0
  0
LINE
  5
38D
330
1F
100
AcDbEntity
  8
002
 62
     3
370
    30
100
AcDbLine
 10
362.121157
 20
1536.327101
 30
0.0
 11
358.121157
 21
1538.636101
 31
0.0
  0
LINE
  5
38E
330
1F
100
AcDbEntity
  8
002
 62
     3
370
    30
100
AcDbLine
 10
358.121157
 20
1538.636101
 30
0.0
 11
358.121157
 21
1543.255101
 31
0.0
  0
LINE
  5
38F
330
1F
100
AcDbEntity
  8
002
 62
     3
370
    30
100
AcDbLine
 10
358.121157
 20
1543.255101
 30
0.0
 11
362.121157
 21
1545.564101
 31
0.0
  0
LINE
  5
390
330
1F
100
AcDbEntity
  8
002
 62
     3
370
    30
100
AcDbLine
 10
362.121157
 20
1545.564101
 30
0.0
 11
366.121157
 21
1543.255101
 31
0.0
  0
LINE
  5
391
330
1F
100
AcDbEntity
  8
002
 62
     3
370
    30
100
AcDbLine
 10
366.121157
 20
1543.255101
 30
0.0
 11
366.121157
 21
1538.636101
 31
0.0
  0
CIRCLE
  5
392
330
1F
100
AcDbEntity
  8
002
 62
     3
370
    30
100
AcDbCircle
 10
362.121157
 20
1540.945101
 30
0.0
 40
8.0
  0
CIRCLE
  5
393
330
1F
100
AcDbEntity
  8
002
 62
     3
370
    30
100
AcDbCircle
 10
362.121157
 20
1481.945101
 30
0.0
 40
8.0
  0
LINE
  5
394
330
1F
100
AcDbEntity
  8
002
 62
     3
370
    30
100
AcDbLine
 10
362.121157
 20
1486.564101
 30
0.0
 11
358.121157
 21
1484.255101
 31
0.0
  0
LINE
  5
395
330
1F
100
AcDbEntity
  8
002
 62
     3
370
    30
100
AcDbLine
 10
358.121157
 20
1484.255101
 30
0.0
 11
358.121157
 21
1479.636101
 31
0.0
  0
LINE
  5
396
330
1F
100
AcDbEntity
  8
002
 62
     3
370
    30
100
AcDbLine
 10
358.121157
 20
1479.636101
 30
0.0
 11
362.121157
 21
1477.327101
 31
0.0
  0
LINE
  5
397
330
1F
100
AcDbEntity
  8
002
 62
     3
370
    30
100
AcDbLine
 10
362.121157
 20
1477.327101
 30
0.0
 11
366.121157
 21
1479.636101
 31
0.0
  0
LINE
  5
398
330
1F
100
AcDbEntity
  8
002
 62
     3
370
    30
100
AcDbLine
 10
366.121157
 20
1479.636101
 30
0.0
 11
366.121157
 21
1484.255101
 31
0.0
  0
LINE
  5
399
330
1F
100
AcDbEntity
  8
002
 62
     3
370
    30
100
AcDbLine
 10
366.121157
 20
1484.255101
 30
0.0
 11
362.121157
 21
1486.564101
 31
0.0
  0
LINE
  5
39A
330
1F
100
AcDbEntity
  8
002
 62
     3
370
    30
100
AcDbLine
 10
403.026157
 20
1471.445101
 30
0.0
 11
403.026157
 21
1432.695101
 31
0.0
  0
LINE
  5
39B
330
1F
100
AcDbEntity
  8
002
 62
     3
370
    30
100
AcDbLine
 10
403.026157
 20
1432.695101
 30
0.0
 11
331.026157
 21
1432.695101
 31
0.0
  0
LINE
  5
39C
330
1F
100
AcDbEntity
  8
002
 62
     3
370
    30
100
AcDbLine
 10
331.026157
 20
1432.695101
 30
0.0
 11
331.026157
 21
1441.445101
 31
0.0
  0
LINE
  5
39D
330
1F
100
AcDbEntity
  8
002
 62
     3
370
    30
100
AcDbLine
 10
331.026157
 20
1439.695101
 30
0.0
 11
403.026157
 21
1439.695101
 31
0.0
  0
LINE
  5
39E
330
1F
100
AcDbEntity
  8
002
 62
     3
370
    30
100
AcDbLine
 10
403.026157
 20
1441.445101
 30
0.0
 11
405.026157
 21
1441.445101
 31
0.0
  0
ARC
  5
39F
330
1F
100
AcDbEntity
  8
002
 62
     3
370
    30
100
AcDbCircle
 10
420.026157
 20
1456.445101
 30
0.0
 40
20.0
100
AcDbArc
 50
233.130102
 51
0.0
  0
LINE
  5
3A0
330
1F
100
AcDbEntity
  8
002
 62
     3
370
    30
100
AcDbLine
 10
440.026157
 20
1456.445101
 30
0.0
 11
440.026157
 21
1566.445101
 31
0.0
  0
ARC
  5
3A1
330
1F
100
AcDbEntity
  8
002
 62
     3
370
    30
100
AcDbCircle
 10
420.026157
 20
1566.445101
 30
0.0
 40
20.0
100
AcDbArc
 50
0.0
 51
126.869898
  0
LINE
  5
3A2
330
1F
100
AcDbEntity
  8
002
 62
     3
370
    30
100
AcDbLine
 10
405.026157
 20
1581.445101
 30
0.0
 11
403.026157
 21
1581.445101
 31
0.0
  0
LINE
  5
3A3
330
1F
100
AcDbEntity
  8
002
 62
     3
370
    30
100
AcDbLine
 10
403.026157
 20
1583.195101
 30
0.0
 11
331.026157
 21
1583.195101
 31
0.0
  0
LINE
  5
3A4
330
1F
100
AcDbEntity
  8
002
 62
     3
370
    30
100
AcDbLine
 10
331.026157
 20
1581.445101
 30
0.0
 11
331.026157
 21
1590.195101
 31
0.0
  0
LINE
  5
3A5
330
1F
100
AcDbEntity
  8
002
 62
     3
370
    30
100
AcDbLine
 10
331.026157
 20
1590.195101
 30
0.0
 11
403.026157
 21
1590.195101
 31
0.0
  0
LINE
  5
3A6
330
1F
100
AcDbEntity
  8
002
 62
     3
370
    30
100
AcDbLine
 10
356.026157
 20
1599.445101
 30
0.0
 11
356.026157
 21
1590.195101
 31
0.0
  0
LINE
  5
3A7
330
1F
100
AcDbEntity
  8
002
 62
     3
370
    30
100
AcDbLine
 10
377.026157
 20
1599.445101
 30
0.0
 11
377.026157
 21
1625.445101
 31
0.0
  0
LINE
  5
3A8
330
1F
100
AcDbEntity
  8
002
 62
     3
370
    30
100
AcDbLine
 10
342.026157
 20
1581.445101
 30
0.0
 11
270.026157
 21
1581.445101
 31
0.0
  0
ARC
  5
3A9
330
1F
100
AcDbEntity
  8
002
 62
     3
370
    30
100
AcDbCircle
 10
255.026157
 20
1566.445101
 30
0.0
 40
20.0
100
AcDbArc
 50
53.130102
 51
180.0
  0
LINE
  5
3AA
330
1F
100
AcDbEntity
  8
002
 62
     3
370
    30
100
AcDbLine
 10
235.026157
 20
1566.445101
 30
0.0
 11
235.026157
 21
1519.945101
 31
0.0
  0
LINE
  5
3AB
330
1F
100
AcDbEntity
  8
002
 62
     3
370
    30
100
AcDbLine
 10
231.026157
 20
1519.945101
 30
0.0
 11
231.026157
 21
1502.945101
 31
0.0
  0
LINE
  5
3AC
330
1F
100
AcDbEntity
  8
002
 62
     3
370
    30
100
AcDbLine
 10
231.026157
 20
1502.945101
 30
0.0
 11
241.544157
 21
1502.945101
 31
0.0
  0
LINE
  5
3AD
330
1F
100
AcDbEntity
  8
002
 62
     3
370
    30
100
AcDbLine
 10
235.026157
 20
1502.945101
 30
0.0
 11
235.026157
 21
1456.445101
 31
0.0
  0
ARC
  5
3AE
330
1F
100
AcDbEntity
  8
002
 62
     3
370
    30
100
AcDbCircle
 10
255.026157
 20
1456.445101
 30
0.0
 40
20.0
100
AcDbArc
 50
180.0
 51
306.869898
  0
LINE
  5
3AF
330
1F
100
AcDbEntity
  8
002
 62
     3
370
    30
100
AcDbLine
 10
270.026157
 20
1441.445101
 30
0.0
 11
342.026157
 21
1441.445101
 31
0.0
  0
LINE
  5
3B0
330
1F
100
AcDbEntity
  8
002
 62
     3
370
    30
100
AcDbLine
 10
356.026157
 20
1432.695101
 30
0.0
 11
356.026157
 21
1423.445101
 31
0.0
  0
LINE
  5
3B1
330
1F
100
AcDbEntity
  8
002
 62
     3
370
    30
100
AcDbLine
 10
378.026157
 20
1423.445101
 30
0.0
 11
378.026157
 21
1432.695101
 31
0.0
  0
LINE
  5
3B2
330
1F
100
AcDbEntity
  8
002
 62
     3
370
    30
100
AcDbLine
 10
378.026157
 20
1423.445101
 30
0.0
 11
356.026157
 21
1423.445101
 31
0.0
  0
LINE
  5
3B3
330
1F
100
AcDbEntity
  8
002
 62
     3
370
    30
100
AcDbLine
 10
357.026157
 20
1423.445101
 30
0.0
 11
357.026157
 21
1397.445101
 31
0.0
  0
LINE
  5
3B4
330
1F
100
AcDbEntity
  8
002
 62
     3
370
    30
100
AcDbLine
 10
357.026157
 20
1397.445101
 30
0.0
 11
358.026157
 21
1396.445101
 31
0.0
  0
LINE
  5
3B5
330
1F
100
AcDbEntity
  8
002
 62
     3
370
    30
100
AcDbLine
 10
358.026157
 20
1396.445101
 30
0.0
 11
376.026157
 21
1396.445101
 31
0.0
  0
LINE
  5
3B6
330
1F
100
AcDbEntity
  8
002
 62
     3
370
    30
100
AcDbLine
 10
376.026157
 20
1396.445101
 30
0.0
 11
377.026157
 21
1397.445101
 31
0.0
  0
LINE
  5
3B7
330
1F
100
AcDbEntity
  8
002
 62
     3
370
    30
100
AcDbLine
 10
377.026157
 20
1397.445101
 30
0.0
 11
377.026157
 21
1423.445101
 31
0.0
  0
LINE
  5
3B8
330
1F
100
AcDbEntity
  8
002
 62
     3
370
    30
100
AcDbLine
 10
316.799157
 20
1436.445101
 30
0.0
 11
313.886157
 21
1433.532101
 31
0.0
  0
ARC
  5
3B9
330
1F
100
AcDbEntity
  8
002
 62
     3
370
    30
100
AcDbCircle
 10
314.593157
 20
1432.825101
 30
0.0
 40
1.000001999997949
100
AcDbArc
 50
135.0
 51
212.005383
  0
LINE
  5
3BA
330
1F
100
AcDbEntity
  8
002
 62
     3
370
    30
100
AcDbLine
 10
313.745157
 20
1432.295101
 30
0.0
 11
314.276157
 21
1431.445101
 31
0.0
  0
LINE
  5
3BB
330
1F
100
AcDbEntity
  8
002
 62
     3
370
    30
100
AcDbLine
 10
314.276157
 20
1431.445101
 30
0.0
 11
313.526157
 21
1428.445101
 31
0.0
  0
LINE
  5
3BC
330
1F
100
AcDbEntity
  8
002
 62
     3
370
    30
100
AcDbLine
 10
313.526157
 20
1428.445101
 30
0.0
 11
308.526157
 21
1428.445101
 31
0.0
  0
LINE
  5
3BD
330
1F
100
AcDbEntity
  8
002
 62
     3
370
    30
100
AcDbLine
 10
308.526157
 20
1428.445101
 30
0.0
 11
307.776157
 21
1431.445101
 31
0.0
  0
LINE
  5
3BE
330
1F
100
AcDbEntity
  8
002
 62
     3
370
    30
100
AcDbLine
 10
307.776157
 20
1431.445101
 30
0.0
 11
308.307157
 21
1432.295101
 31
0.0
  0
ARC
  5
3BF
330
1F
100
AcDbEntity
  8
002
 62
     3
370
    30
100
AcDbCircle
 10
307.459157
 20
1432.825101
 30
0.0
 40
0.9998489885977692
100
AcDbArc
 50
327.994617
 51
45.0
  0
LINE
  5
3C0
330
1F
100
AcDbEntity
  8
002
 62
     3
370
    30
100
AcDbLine
 10
308.166157
 20
1433.532101
 30
0.0
 11
305.252157
 21
1436.445101
 31
0.0
  0
LINE
  5
3C1
330
1F
100
AcDbEntity
  8
002
 62
     3
370
    30
100
AcDbLine
 10
305.252157
 20
1436.445101
 30
0.0
 11
305.252157
 21
1439.445101
 31
0.0
  0
LINE
  5
3C2
330
1F
100
AcDbEntity
  8
002
 62
     3
370
    30
100
AcDbLine
 10
305.252157
 20
1439.445101
 30
0.0
 11
306.155157
 21
1440.348101
 31
0.0
  0
LINE
  5
3C3
330
1F
100
AcDbEntity
  8
002
 62
     3
370
    30
100
AcDbLine
 10
306.740157
 20
1440.445101
 30
0.0
 11
315.311157
 21
1440.445101
 31
0.0
  0
LINE
  5
3C4
330
1F
100
AcDbEntity
  8
002
 62
     3
370
    30
100
AcDbLine
 10
314.887157
 20
1440.445101
 30
0.0
 11
314.887157
 21
1441.445101
 31
0.0
  0
LINE
  5
3C5
330
1F
100
AcDbEntity
  8
002
 62
     3
370
    30
100
AcDbLine
 10
315.896157
 20
1440.348101
 30
0.0
 11
316.799157
 21
1439.445101
 31
0.0
  0
LINE
  5
3C6
330
1F
100
AcDbEntity
  8
002
 62
     3
370
    30
100
AcDbLine
 10
316.799157
 20
1439.445101
 30
0.0
 11
316.799157
 21
1436.445101
 31
0.0
  0
LINE
  5
3C7
330
1F
100
AcDbEntity
  8
002
 62
     3
370
    30
100
AcDbLine
 10
313.912157
 20
1436.445101
 30
0.0
 11
313.912157
 21
1439.445101
 31
0.0
  0
ARC
  5
3C8
330
1F
100
AcDbEntity
  8
002
 62
     3
370
    30
100
AcDbCircle
 10
311.026157
 20
1435.779101
 30
0.0
 40
4.666296711526233
100
AcDbArc
 50
51.788975
 51
128.220673
  0
LINE
  5
3C9
330
1F
100
AcDbEntity
  8
002
 62
     3
370
    30
100
AcDbLine
 10
308.139157
 20
1439.445101
 30
0.0
 11
308.139157
 21
1436.445101
 31
0.0
  0
ARC
  5
3CA
330
1F
100
AcDbEntity
  8
002
 62
     3
370
    30
100
AcDbCircle
 10
311.026157
 20
1440.112101
 30
0.0
 40
4.666463864640891
100
AcDbArc
 50
231.786922
 51
308.203431
  0
ARC
  5
3CB
330
1F
100
AcDbEntity
  8
002
 62
     3
370
    30
100
AcDbCircle
 10
315.356157
 20
1436.986101
 30
0.0
 40
1.540730021775364
100
AcDbArc
 50
200.53865
 51
290.516873
  0
LINE
  5
3CC
330
1F
100
AcDbEntity
  8
002
 62
     3
370
    30
100
AcDbLine
 10
313.323157
 20
1432.969101
 30
0.0
 11
308.728157
 21
1432.969101
 31
0.0
  0
LINE
  5
3CD
330
1F
100
AcDbEntity
  8
002
 62
     3
370
    30
100
AcDbLine
 10
308.526157
 20
1431.445101
 30
0.0
 11
313.526157
 21
1431.445101
 31
0.0
  0
ARC
  5
3CE
330
1F
100
AcDbEntity
  8
002
 62
     3
370
    30
100
AcDbCircle
 10
311.026157
 20
1429.107101
 30
0.0
 40
1.00037193083375
100
AcDbArc
 50
221.433771
 51
318.566229
  0
ARC
  5
3CF
330
1F
100
AcDbEntity
  8
002
 62
     3
370
    30
100
AcDbCircle
 10
306.696157
 20
1436.986101
 30
0.0
 40
1.541080789575903
100
AcDbArc
 50
249.448306
 51
339.448306
  0
ARC
  5
3D0
330
1F
100
AcDbEntity
  8
002
 62
     3
370
    30
100
AcDbCircle
 10
306.696157
 20
1438.905101
 30
0.0
 40
1.541080789575903
100
AcDbArc
 50
20.516873
 51
110.551694
  0
LINE
  5
3D1
330
1F
100
AcDbEntity
  8
002
 62
     3
370
    30
100
AcDbLine
 10
307.164157
 20
1440.445101
 30
0.0
 11
307.164157
 21
1441.445101
 31
0.0
  0
ARC
  5
3D2
330
1F
100
AcDbEntity
  8
002
 62
     3
370
    30
100
AcDbCircle
 10
315.356157
 20
1438.905101
 30
0.0
 40
1.54166663063058
100
AcDbArc
 50
69.483127
 51
159.496153
  0
LINE
  5
3D3
330
1F
100
AcDbEntity
  8
002
 62
     3
370
    30
100
AcDbLine
 10
281.026157
 20
1448.200101
 30
0.0
 11
281.026157
 21
1441.445101
 31
0.0
  0
ARC
  5
3D4
330
1F
100
AcDbEntity
  8
002
 62
     3
370
    30
100
AcDbCircle
 10
270.026157
 20
1436.445101
 30
0.0
 40
5.0
100
AcDbArc
 50
90.0
 51
126.869898
  0
CIRCLE
  5
3D5
330
1F
100
AcDbEntity
  8
002
 62
     3
370
    30
100
AcDbCircle
 10
255.026157
 20
1454.445101
 30
0.0
 40
9.0
  0
ARC
  5
3D6
330
1F
100
AcDbEntity
  8
002
 62
     3
370
    30
100
AcDbCircle
 10
255.026157
 20
1454.445101
 30
0.0
 40
17.49995122850325
100
AcDbArc
 50
95.67997
 51
355.335872
  0
LINE
  5
3D7
330
1F
100
AcDbEntity
  8
002
 62
     3
370
    30
100
AcDbLine
 10
259.930157
 20
1477.327101
 30
0.0
 11
255.930157
 21
1479.636101
 31
0.0
  0
LINE
  5
3D8
330
1F
100
AcDbEntity
  8
002
 62
     3
370
    30
100
AcDbLine
 10
255.930157
 20
1479.636101
 30
0.0
 11
255.930157
 21
1484.255101
 31
0.0
  0
LINE
  5
3D9
330
1F
100
AcDbEntity
  8
002
 62
     3
370
    30
100
AcDbLine
 10
255.930157
 20
1484.255101
 30
0.0
 11
259.930157
 21
1486.564101
 31
0.0
  0
LINE
  5
3DA
330
1F
100
AcDbEntity
  8
002
 62
     3
370
    30
100
AcDbLine
 10
259.930157
 20
1486.564101
 30
0.0
 11
263.930157
 21
1484.255101
 31
0.0
  0
LINE
  5
3DB
330
1F
100
AcDbEntity
  8
002
 62
     3
370
    30
100
AcDbLine
 10
263.930157
 20
1484.255101
 30
0.0
 11
263.930157
 21
1479.636101
 31
0.0
  0
LINE
  5
3DC
330
1F
100
AcDbEntity
  8
002
 62
     3
370
    30
100
AcDbLine
 10
263.930157
 20
1479.636101
 30
0.0
 11
259.930157
 21
1477.327101
 31
0.0
  0
CIRCLE
  5
3DD
330
1F
100
AcDbEntity
  8
002
 62
     3
370
    30
100
AcDbCircle
 10
259.930157
 20
1481.945101
 30
0.0
 40
8.0
  0
LINE
  5
3DE
330
1F
100
AcDbEntity
  8
002
 62
     3
370
    30
100
AcDbLine
 10
241.544157
 20
1519.945101
 30
0.0
 11
231.026157
 21
1519.945101
 31
0.0
  0
LINE
  5
3DF
330
1F
100
AcDbEntity
  8
002
 62
     3
370
    30
100
AcDbLine
 10
255.930157
 20
1538.636101
 30
0.0
 11
259.930157
 21
1536.327101
 31
0.0
  0
LINE
  5
3E0
330
1F
100
AcDbEntity
  8
002
 62
     3
370
    30
100
AcDbLine
 10
259.930157
 20
1536.327101
 30
0.0
 11
263.930157
 21
1538.636101
 31
0.0
  0
LINE
  5
3E1
330
1F
100
AcDbEntity
  8
002
 62
     3
370
    30
100
AcDbLine
 10
263.930157
 20
1538.636101
 30
0.0
 11
263.930157
 21
1543.255101
 31
0.0
  0
LINE
  5
3E2
330
1F
100
AcDbEntity
  8
002
 62
     3
370
    30
100
AcDbLine
 10
263.930157
 20
1543.255101
 30
0.0
 11
259.930157
 21
1545.564101
 31
0.0
  0
LINE
  5
3E3
330
1F
100
AcDbEntity
  8
002
 62
     3
370
    30
100
AcDbLine
 10
259.930157
 20
1545.564101
 30
0.0
 11
255.930157
 21
1543.255101
 31
0.0
  0
LINE
  5
3E4
330
1F
100
AcDbEntity
  8
002
 62
     3
370
    30
100
AcDbLine
 10
255.930157
 20
1543.255101
 30
0.0
 11
255.930157
 21
1538.636101
 31
0.0
  0
CIRCLE
  5
3E5
330
1F
100
AcDbEntity
  8
002
 62
     3
370
    30
100
AcDbCircle
 10
259.930157
 20
1540.945101
 30
0.0
 40
8.0
  0
ARC
  5
3E6
330
1F
100
AcDbEntity
  8
002
 62
     3
370
    30
100
AcDbCircle
 10
255.026157
 20
1568.445101
 30
0.0
 40
17.49992057124832
100
AcDbArc
 50
4.667391
 51
264.32003
  0
CIRCLE
  5
3E7
330
1F
100
AcDbEntity
  8
002
 62
     3
370
    30
100
AcDbCircle
 10
255.026157
 20
1568.445101
 30
0.0
 40
9.0
  0
ARC
  5
3E8
330
1F
100
AcDbEntity
  8
002
 62
     3
370
    30
100
AcDbCircle
 10
270.026157
 20
1586.445101
 30
0.0
 40
5.0
100
AcDbArc
 50
233.130102
 51
270.0
  0
LINE
  5
3E9
330
1F
100
AcDbEntity
  8
002
 62
     3
370
    30
100
AcDbLine
 10
281.026157
 20
1581.445101
 30
0.0
 11
281.026157
 21
1574.691101
 31
0.0
  0
LINE
  5
3EA
330
1F
100
AcDbEntity
  8
002
 62
     3
370
    30
100
AcDbLine
 10
305.252157
 20
1583.445101
 30
0.0
 11
306.155157
 21
1582.543101
 31
0.0
  0
ARC
  5
3EB
330
1F
100
AcDbEntity
  8
002
 62
     3
370
    30
100
AcDbCircle
 10
306.696157
 20
1583.986101
 30
0.0
 40
1.541080789575903
100
AcDbArc
 50
249.448306
 51
339.448306
  0
LINE
  5
3EC
330
1F
100
AcDbEntity
  8
002
 62
     3
370
    30
100
AcDbLine
 10
308.139157
 20
1583.445101
 30
0.0
 11
308.139157
 21
1586.445101
 31
0.0
  0
ARC
  5
3ED
330
1F
100
AcDbEntity
  8
002
 62
     3
370
    30
100
AcDbCircle
 10
306.696157
 20
1585.905101
 30
0.0
 40
1.541080789575903
100
AcDbArc
 50
20.516873
 51
110.551694
  0
LINE
  5
3EE
330
1F
100
AcDbEntity
  8
002
 62
     3
370
    30
100
AcDbLine
 10
305.252157
 20
1586.445101
 30
0.0
 11
308.166157
 21
1589.359101
 31
0.0
  0
ARC
  5
3EF
330
1F
100
AcDbEntity
  8
002
 62
     3
370
    30
100
AcDbCircle
 10
307.459157
 20
1590.066101
 30
0.0
 40
1.000001999998069
100
AcDbArc
 50
315.0
 51
32.005383
  0
LINE
  5
3F0
330
1F
100
AcDbEntity
  8
002
 62
     3
370
    30
100
AcDbLine
 10
308.307157
 20
1590.596101
 30
0.0
 11
307.776157
 21
1591.445101
 31
0.0
  0
LINE
  5
3F1
330
1F
100
AcDbEntity
  8
002
 62
     3
370
    30
100
AcDbLine
 10
307.776157
 20
1591.445101
 30
0.0
 11
308.526157
 21
1594.445101
 31
0.0
  0
LINE
  5
3F2
330
1F
100
AcDbEntity
  8
002
 62
     3
370
    30
100
AcDbLine
 10
308.526157
 20
1594.445101
 30
0.0
 11
313.526157
 21
1594.445101
 31
0.0
  0
LINE
  5
3F3
330
1F
100
AcDbEntity
  8
002
 62
     3
370
    30
100
AcDbLine
 10
313.526157
 20
1594.445101
 30
0.0
 11
314.276157
 21
1591.445101
 31
0.0
  0
LINE
  5
3F4
330
1F
100
AcDbEntity
  8
002
 62
     3
370
    30
100
AcDbLine
 10
314.276157
 20
1591.445101
 30
0.0
 11
313.745157
 21
1590.596101
 31
0.0
  0
ARC
  5
3F5
330
1F
100
AcDbEntity
  8
002
 62
     3
370
    30
100
AcDbCircle
 10
314.593157
 20
1590.066101
 30
0.0
 40
0.9998489885976084
100
AcDbArc
 50
147.994617
 51
225.0
  0
LINE
  5
3F6
330
1F
100
AcDbEntity
  8
002
 62
     3
370
    30
100
AcDbLine
 10
313.886157
 20
1589.359101
 30
0.0
 11
316.799157
 21
1586.445101
 31
0.0
  0
LINE
  5
3F7
330
1F
100
AcDbEntity
  8
002
 62
     3
370
    30
100
AcDbLine
 10
316.799157
 20
1586.445101
 30
0.0
 11
316.799157
 21
1583.445101
 31
0.0
  0
LINE
  5
3F8
330
1F
100
AcDbEntity
  8
002
 62
     3
370
    30
100
AcDbLine
 10
316.799157
 20
1583.445101
 30
0.0
 11
315.896157
 21
1582.543101
 31
0.0
  0
LINE
  5
3F9
330
1F
100
AcDbEntity
  8
002
 62
     3
370
    30
100
AcDbLine
 10
315.311157
 20
1582.445101
 30
0.0
 11
306.740157
 21
1582.445101
 31
0.0
  0
LINE
  5
3FA
330
1F
100
AcDbEntity
  8
002
 62
     3
370
    30
100
AcDbLine
 10
307.164157
 20
1582.445101
 30
0.0
 11
307.164157
 21
1581.445101
 31
0.0
  0
ARC
  5
3FB
330
1F
100
AcDbEntity
  8
002
 62
     3
370
    30
100
AcDbCircle
 10
311.026157
 20
1587.112101
 30
0.0
 40
4.666463864640891
100
AcDbArc
 50
231.786922
 51
308.203431
  0
LINE
  5
3FC
330
1F
100
AcDbEntity
  8
002
 62
     3
370
    30
100
AcDbLine
 10
313.912157
 20
1583.445101
 30
0.0
 11
313.912157
 21
1586.445101
 31
0.0
  0
ARC
  5
3FD
330
1F
100
AcDbEntity
  8
002
 62
     3
370
    30
100
AcDbCircle
 10
311.026157
 20
1582.779101
 30
0.0
 40
4.666296711526233
100
AcDbArc
 50
51.788975
 51
128.220673
  0
LINE
  5
3FE
330
1F
100
AcDbEntity
  8
002
 62
     3
370
    30
100
AcDbLine
 10
305.252157
 20
1586.445101
 30
0.0
 11
305.252157
 21
1583.445101
 31
0.0
  0
CIRCLE
  5
3FF
330
1F
100
AcDbEntity
  8
002
 62
     3
370
    30
100
AcDbCircle
 10
311.026157
 20
1511.445101
 30
0.0
 40
70.0
  0
LINE
  5
400
330
1F
100
AcDbEntity
  8
002
 62
     3
370
    30
100
AcDbLine
 10
314.887157
 20
1581.445101
 30
0.0
 11
314.887157
 21
1582.445101
 31
0.0
  0
ARC
  5
401
330
1F
100
AcDbEntity
  8
002
 62
     3
370
    30
100
AcDbCircle
 10
315.356157
 20
1583.986101
 30
0.0
 40
1.540730021775364
100
AcDbArc
 50
200.53865
 51
290.516873
  0
ARC
  5
402
330
1F
100
AcDbEntity
  8
002
 62
     3
370
    30
100
AcDbCircle
 10
315.356157
 20
1585.905101
 30
0.0
 40
1.54166663063058
100
AcDbArc
 50
69.483127
 51
159.496153
  0
LINE
  5
403
330
1F
100
AcDbEntity
  8
002
 62
     3
370
    30
100
AcDbLine
 10
313.323157
 20
1589.921101
 30
0.0
 11
308.728157
 21
1589.921101
 31
0.0
  0
LINE
  5
404
330
1F
100
AcDbEntity
  8
002
 62
     3
370
    30
100
AcDbLine
 10
308.526157
 20
1591.445101
 30
0.0
 11
313.526157
 21
1591.445101
 31
0.0
  0
ARC
  5
405
330
1F
100
AcDbEntity
  8
002
 62
     3
370
    30
100
AcDbCircle
 10
311.026157
 20
1593.784101
 30
0.0
 40
0.9997104580827776
100
AcDbArc
 50
41.390802
 51
138.609198
  0
ARC
  5
406
330
1F
100
AcDbEntity
  8
002
 62
     3
370
    30
100
AcDbCircle
 10
405.026157
 20
1586.445101
 30
0.0
 40
5.0
100
AcDbArc
 50
270.0
 51
306.869898
  0
ARC
  5
407
330
1F
100
AcDbEntity
  8
002
 62
     3
370
    30
100
AcDbCircle
 10
420.026157
 20
1568.445101
 30
0.0
 40
17.5
100
AcDbArc
 50
193.729133
 51
166.270867
  0
CIRCLE
  5
408
330
1F
100
AcDbEntity
  8
002
 62
     3
370
    30
100
AcDbCircle
 10
420.026157
 20
1568.445101
 30
0.0
 40
9.0
  0
LINE
  5
409
330
1F
100
AcDbEntity
  8
002
 62
     3
370
    30
100
AcDbLine
 10
431.892157
 20
1476.521101
 30
0.0
 11
407.160157
 21
1472.172101
 31
0.0
  0
ARC
  5
40A
330
1F
100
AcDbEntity
  8
002
 62
     3
370
    30
100
AcDbCircle
 10
408.026157
 20
1467.248101
 30
0.0
 40
5.0
100
AcDbArc
 50
99.974786
 51
180.0
  0
ARC
  5
40B
330
1F
100
AcDbEntity
  8
002
 62
     3
370
    30
100
AcDbCircle
 10
408.026157
 20
1471.445101
 30
0.0
 40
5.0
100
AcDbArc
 50
90.0
 51
180.0
  0
ARC
  5
40C
330
1F
100
AcDbEntity
  8
002
 62
     3
370
    30
100
AcDbCircle
 10
420.026157
 20
1454.445101
 30
0.0
 40
17.5
100
AcDbArc
 50
193.729133
 51
166.270867
  0
CIRCLE
  5
40D
330
1F
100
AcDbEntity
  8
002
 62
     3
370
    30
100
AcDbCircle
 10
420.026157
 20
1454.445101
 30
0.0
 40
9.0
  0
ARC
  5
40E
330
1F
100
AcDbEntity
  8
002
 62
     3
370
    30
100
AcDbCircle
 10
405.026157
 20
1436.445101
 30
0.0
 40
5.0
100
AcDbArc
 50
53.130102
 51
90.0
  0
LINE
  5
40F
330
1F
100
AcDbEntity
  8
002
  6
CENTER
 62
    40
370
     9
100
AcDbLine
 10
366.557684
 20
1136.952429
 30
0.0
 11
366.557684
 21
1112.014429
 31
0.0
  0
LINE
  5
410
330
1F
100
AcDbEntity
  8
002
  6
CENTER
 62
    40
370
     9
100
AcDbLine
 10
377.953684
 20
1123.860429
 30
0.0
 11
353.972684
 21
1123.860429
 31
0.0
  0
LINE
  5
411
330
1F
100
AcDbEntity
  8
002
  6
CENTER
 62
    40
370
     9
100
AcDbLine
 10
420.026157
 20
1474.434101
 30
0.0
 11
420.026157
 21
1430.480101
 31
0.0
  0
LINE
  5
412
330
1F
100
AcDbEntity
  8
002
  6
CENTER
 62
    40
370
     9
100
AcDbLine
 10
396.138157
 20
1454.445101
 30
0.0
 11
440.026157
 21
1454.445101
 31
0.0
  0
LINE
  5
413
330
1F
100
AcDbEntity
  8
002
  6
CENTER
 62
    40
370
     9
100
AcDbLine
 10
222.014157
 20
1511.445101
 30
0.0
 11
451.407157
 21
1511.445101
 31
0.0
  0
LINE
  5
414
330
1F
100
AcDbEntity
  8
002
  6
CENTER
 62
    40
370
     9
100
AcDbLine
 10
420.026157
 20
1544.480101
 30
0.0
 11
420.026157
 21
1588.434101
 31
0.0
  0
LINE
  5
415
330
1F
100
AcDbEntity
  8
002
  6
CENTER
 62
    40
370
     9
100
AcDbLine
 10
440.026157
 20
1568.445101
 30
0.0
 11
396.138157
 21
1568.445101
 31
0.0
  0
LINE
  5
416
330
1F
100
AcDbEntity
  8
002
  6
CENTER
 62
    40
370
     9
100
AcDbLine
 10
367.026157
 20
1633.950101
 30
0.0
 11
367.026157
 21
1387.923181
 31
0.0
  0
LINE
  5
417
330
1F
100
AcDbEntity
  8
002
  6
CENTER
 62
    40
370
     9
100
AcDbLine
 10
370.575157
 20
1477.064101
 30
0.0
 11
353.161157
 21
1487.118101
 31
0.0
  0
LINE
  5
418
330
1F
100
AcDbEntity
  8
002
  6
CENTER
 62
    40
370
     9
100
AcDbLine
 10
353.161157
 20
1535.772101
 30
0.0
 11
370.575157
 21
1545.826101
 31
0.0
  0
CIRCLE
  5
419
330
1F
100
AcDbEntity
  8
002
  6
CENTER
 62
    40
370
     9
100
AcDbCircle
 10
311.026157
 20
1511.445101
 30
0.0
 40
59.0
  0
LINE
  5
41A
330
1F
100
AcDbEntity
  8
002
  6
CENTER
 62
    40
370
     9
100
AcDbLine
 10
311.026157
 20
1422.655101
 30
0.0
 11
311.026157
 21
1602.158101
 31
0.0
  0
LINE
  5
41B
330
1F
100
AcDbEntity
  8
002
  6
CENTER
 62
    40
370
     9
100
AcDbLine
 10
251.476157
 20
1477.064101
 30
0.0
 11
268.890157
 21
1487.118101
 31
0.0
  0
LINE
  5
41C
330
1F
100
AcDbEntity
  8
002
  6
CENTER
 62
    40
370
     9
100
AcDbLine
 10
251.476157
 20
1545.826101
 30
0.0
 11
268.890157
 21
1535.772101
 31
0.0
  0
LINE
  5
41D
330
1F
100
AcDbEntity
  8
002
  6
CENTER
 62
    40
370
     9
100
AcDbLine
 10
275.026157
 20
1454.445101
 30
0.0
 11
231.138157
 21
1454.445101
 31
0.0
  0
LINE
  5
41E
330
1F
100
AcDbEntity
  8
002
  6
CENTER
 62
    40
370
     9
100
AcDbLine
 10
255.026157
 20
1430.480101
 30
0.0
 11
255.026157
 21
1474.434101
 31
0.0
  0
LINE
  5
41F
330
1F
100
AcDbEntity
  8
002
 62
    40
370
     9
100
AcDbLine
 10
241.439157
 20
1503.852101
 30
0.0
 11
231.026157
 21
1519.945101
 31
0.0
  0
LINE
  5
420
330
1F
100
AcDbEntity
  8
002
 62
    40
370
     9
100
AcDbLine
 10
241.439157
 20
1519.038101
 30
0.0
 11
231.026157
 21
1502.945101
 31
0.0
  0
LINE
  5
421
330
1F
100
AcDbEntity
  8
002
  6
CENTER
 62
    40
370
     9
100
AcDbLine
 10
255.026157
 20
1544.480101
 30
0.0
 11
255.026157
 21
1588.434101
 31
0.0
  0
LINE
  5
422
330
1F
100
AcDbEntity
  8
002
  6
CENTER
 62
    40
370
     9
100
AcDbLine
 10
275.026157
 20
1568.445101
 30
0.0
 11
231.138157
 21
1568.445101
 31
0.0
  0
LINE
  5
423
330
1F
100
AcDbEntity
  8
002
  6
CENTER
 62
    40
370
     9
100
AcDbLine
 10
222.014157
 20
1511.445101
 30
0.0
 11
451.407157
 21
1511.445101
 31
0.0
  0
LINE
  5
424
330
1F
100
AcDbEntity
  8
002
  6
CENTER
 62
    40
370
     9
100
AcDbLine
 10
311.026157
 20
1422.655101
 30
0.0
 11
311.026157
 21
1602.158101
 31
0.0
  0
LINE
  5
425
330
1F
100
AcDbEntity
  8
002
 62
     3
370
    30
100
AcDbLine
 10
369.557684
 20
1130.360372
 30
0.0
 11
363.557684
 21
1130.360372
 31
0.0
  0
LINE
  5
426
330
1F
100
AcDbEntity
  8
002
 62
     3
370
    30
100
AcDbLine
 10
363.557684
 20
1136.360372
 30
0.0
 11
369.557684
 21
1136.360372
 31
0.0
  0
LINE
  5
427
330
1F
100
AcDbEntity
  8
002
 62
     3
370
    30
100
AcDbLine
 10
369.557684
 20
1136.360372
 30
0.0
 11
369.557684
 21
1130.360372
 31
0.0
  0
LINE
  5
428
330
1F
100
AcDbEntity
  8
002
 62
     3
370
    30
100
AcDbLine
 10
363.557684
 20
1136.360372
 30
0.0
 11
363.557684
 21
1130.360372
 31
0.0
  0
ARC
  5
429
330
1F
100
AcDbEntity
  8
002
 62
     3
370
    30
100
AcDbCircle
 10
366.557684
 20
1123.860429
 30
0.0
 40
10.00052443624832
100
AcDbArc
 50
107.456658
 51
72.543342
  0
ARC
  5
42A
330
1F
100
AcDbEntity
  8
002
 62
     3
370
    30
100
AcDbCircle
 10
367.026157
 20
1418.445101
 30
0.0
 40
3.0
100
AcDbArc
 50
0.0
 51
180.0
  0
LINE
  5
42B
330
1F
100
AcDbEntity
  8
002
 62
     3
370
    30
100
AcDbLine
 10
370.026157
 20
1418.445101
 30
0.0
 11
364.026157
 21
1418.445101
 31
0.0
  0
LINE
  5
42C
330
1F
100
AcDbEntity
  8
002
 62
     3
370
    30
100
AcDbLine
 10
370.026157
 20
1397.445101
 30
0.0
 11
377.026157
 21
1397.445101
 31
0.0
  0
LINE
  5
42D
330
1F
100
AcDbEntity
  8
002
 62
     3
370
    30
100
AcDbLine
 10
364.026157
 20
1397.445101
 30
0.0
 11
357.026157
 21
1397.445101
 31
0.0
  0
LINE
  5
42E
330
1F
100
AcDbEntity
  8
002
 62
     3
370
    30
100
AcDbLine
 10
370.026157
 20
1604.445101
 30
0.0
 11
364.026157
 21
1604.445101
 31
0.0
  0
CIRCLE
  5
42F
330
1F
100
AcDbEntity
  8
002
 62
     3
370
    30
100
AcDbCircle
 10
311.026157
 20
1511.445101
 30
0.0
 40
47.0
  0
CIRCLE
  5
430
330
1F
100
AcDbEntity
  8
002
 62
     3
370
    30
100
AcDbCircle
 10
311.026157
 20
1511.445101
 30
0.0
 40
18.0
  0
CIRCLE
  5
431
330
1F
100
AcDbEntity
  8
002
 62
     3
370
    30
100
AcDbCircle
 10
311.026157
 20
1511.445101
 30
0.0
 40
12.5
  0
CIRCLE
  5
432
330
1F
100
AcDbEntity
  8
002
 62
    40
370
     9
100
AcDbCircle
 10
311.026157
 20
1511.445101
 30
0.0
 40
11.5
  0
LINE
  5
433
330
1F
100
AcDbEntity
  8
002
 62
     3
370
    30
100
AcDbLine
 10
506.276157
 20
247.623929
 30
0.0
 11
663.776157
 21
247.623929
 31
0.0
  0
ARC
  5
434
330
1F
100
AcDbEntity
  8
002
 62
     3
370
    30
100
AcDbCircle
 10
657.026157
 20
173.639629
 30
0.0
 40
2.0
100
AcDbArc
 50
97.180804
 51
180.0
  0
LINE
  5
435
330
1F
100
AcDbEntity
  8
002
 62
     3
370
    30
100
AcDbLine
 10
655.026157
 20
173.639629
 30
0.0
 11
655.026157
 21
170.623929
 31
0.0
  0
ARC
  5
436
330
1F
100
AcDbEntity
  8
002
 62
     3
370
    30
100
AcDbCircle
 10
657.026157
 20
170.623929
 30
0.0
 40
2.0
100
AcDbArc
 50
180.0
 51
270.0
  0
LINE
  5
437
330
1F
100
AcDbEntity
  8
002
 62
     3
370
    30
100
AcDbLine
 10
658.026157
 20
168.623929
 30
0.0
 11
512.026157
 21
168.623929
 31
0.0
  0
ARC
  5
438
330
1F
100
AcDbEntity
  8
002
 62
     3
370
    30
100
AcDbCircle
 10
512.026157
 20
166.623929
 30
0.0
 40
2.0
100
AcDbArc
 50
90.0
 51
180.0
  0
LINE
  5
439
330
1F
100
AcDbEntity
  8
002
 62
     3
370
    30
100
AcDbLine
 10
510.026157
 20
166.623929
 30
0.0
 11
510.026157
 21
155.623929
 31
0.0
  0
LINE
  5
43A
330
1F
100
AcDbEntity
  8
002
 62
     3
370
    30
100
AcDbLine
 10
510.026157
 20
155.623929
 30
0.0
 11
660.026157
 21
155.623929
 31
0.0
  0
LINE
  5
43B
330
1F
100
AcDbEntity
  8
002
 62
     3
370
    30
100
AcDbLine
 10
660.026157
 20
155.623929
 30
0.0
 11
660.026157
 21
166.623929
 31
0.0
  0
ARC
  5
43C
330
1F
100
AcDbEntity
  8
002
 62
     3
370
    30
100
AcDbCircle
 10
658.026157
 20
166.623929
 30
0.0
 40
2.0
100
AcDbArc
 50
0.0
 51
90.0
  0
LINE
  5
43D
330
1F
100
AcDbEntity
  8
002
 62
     3
370
    30
100
AcDbLine
 10
656.776157
 20
175.623929
 30
0.0
 11
656.776157
 21
247.623929
 31
0.0
  0
LINE
  5
43E
330
1F
100
AcDbEntity
  8
002
 62
     3
370
    30
100
AcDbLine
 10
655.026157
 20
251.423529
 30
0.0
 11
655.026157
 21
267.623929
 31
0.0
  0
LINE
  5
43F
330
1F
100
AcDbEntity
  8
002
 62
     3
370
    30
100
AcDbLine
 10
515.026157
 20
267.623929
 30
0.0
 11
515.026157
 21
251.423529
 31
0.0
  0
ARC
  5
440
330
1F
100
AcDbEntity
  8
002
 62
     3
370
    30
100
AcDbCircle
 10
510.026157
 20
251.423529
 30
0.0
 40
5.0
100
AcDbArc
 50
310.542131
 51
0.0
  0
LINE
  5
441
330
1F
100
AcDbEntity
  8
002
 62
     3
370
    30
100
AcDbLine
 10
513.276157
 20
247.623929
 30
0.0
 11
513.276157
 21
175.623929
 31
0.0
  0
LINE
  5
442
330
1F
100
AcDbEntity
  8
002
 62
     3
370
    30
100
AcDbLine
 10
515.026157
 20
173.639629
 30
0.0
 11
515.026157
 21
170.623929
 31
0.0
  0
ARC
  5
443
330
1F
100
AcDbEntity
  8
002
 62
     3
370
    30
100
AcDbCircle
 10
513.026157
 20
170.623929
 30
0.0
 40
2.0
100
AcDbArc
 50
270.0
 51
0.0
  0
ARC
  5
444
330
1F
100
AcDbEntity
  8
002
 62
     3
370
    30
100
AcDbCircle
 10
513.026157
 20
173.639629
 30
0.0
 40
1.999986622455335
100
AcDbArc
 50
0.0
 51
82.819196
  0
ARC
  5
445
330
1F
100
AcDbEntity
  8
002
 62
     3
370
    30
100
AcDbCircle
 10
540.332157
 20
173.623929
 30
0.0
 40
4.999989280988523
100
AcDbArc
 50
270.0
 51
356.377632
  0
LINE
  5
446
330
1F
100
AcDbEntity
  8
002
 62
     3
370
    30
100
AcDbLine
 10
545.322157
 20
173.299629
 30
0.0
 11
550.030157
 21
245.753629
 31
0.0
  0
LINE
  5
447
330
1F
100
AcDbEntity
  8
002
 62
     3
370
    30
100
AcDbLine
 10
550.026157
 20
245.623929
 30
0.0
 11
550.026157
 21
173.623929
 31
0.0
  0
ARC
  5
448
330
1F
100
AcDbEntity
  8
002
 62
     3
370
    30
100
AcDbCircle
 10
545.026157
 20
173.623929
 30
0.0
 40
5.0
100
AcDbArc
 50
270.0
 51
0.0
  0
LINE
  5
449
330
1F
100
AcDbEntity
  8
002
 62
     3
370
    30
100
AcDbLine
 10
624.730157
 20
173.299629
 30
0.0
 11
620.022157
 21
245.753629
 31
0.0
  0
ARC
  5
44A
330
1F
100
AcDbEntity
  8
002
 62
     3
370
    30
100
AcDbCircle
 10
618.026157
 20
245.623929
 30
0.0
 40
2.0
100
AcDbArc
 50
0.0
 51
90.0
  0
LINE
  5
44B
330
1F
100
AcDbEntity
  8
002
 62
     3
370
    30
100
AcDbLine
 10
620.026157
 20
245.623929
 30
0.0
 11
620.026157
 21
173.623929
 31
0.0
  0
ARC
  5
44C
330
1F
100
AcDbEntity
  8
002
 62
     3
370
    30
100
AcDbCircle
 10
625.026157
 20
173.623929
 30
0.0
 40
5.0
100
AcDbArc
 50
180.0
 51
270.0
  0
ARC
  5
44D
330
1F
100
AcDbEntity
  8
002
 62
     3
370
    30
100
AcDbCircle
 10
629.719157
 20
173.623929
 30
0.0
 40
5.0
100
AcDbArc
 50
183.622368
 51
270.0
  0
LINE
  5
44E
330
1F
100
AcDbEntity
  8
002
 62
     3
370
    30
100
AcDbLine
 10
610.526157
 20
195.323629
 30
0.0
 11
559.526157
 21
195.323629
 31
0.0
  0
LINE
  5
44F
330
1F
100
AcDbEntity
  8
002
 62
     3
370
    30
100
AcDbLine
 10
559.526157
 20
196.172029
 30
0.0
 11
610.526157
 21
196.172029
 31
0.0
  0
ARC
  5
450
330
1F
100
AcDbEntity
  8
002
 62
     3
370
    30
100
AcDbCircle
 10
610.526157
 20
198.172029
 30
0.0
 40
2.0
100
AcDbArc
 50
270.0
 51
0.0
  0
LINE
  5
451
330
1F
100
AcDbEntity
  8
002
 62
     3
370
    30
100
AcDbLine
 10
612.526157
 20
198.172029
 30
0.0
 11
612.526157
 21
226.772529
 31
0.0
  0
ARC
  5
452
330
1F
100
AcDbEntity
  8
002
 62
     3
370
    30
100
AcDbCircle
 10
610.526157
 20
226.772529
 30
0.0
 40
2.0
100
AcDbArc
 50
0.0
 51
90.0
  0
LINE
  5
453
330
1F
100
AcDbEntity
  8
002
 62
     3
370
    30
100
AcDbLine
 10
610.526157
 20
228.772529
 30
0.0
 11
559.526157
 21
228.772529
 31
0.0
  0
ARC
  5
454
330
1F
100
AcDbEntity
  8
002
 62
     3
370
    30
100
AcDbCircle
 10
559.526157
 20
226.772529
 30
0.0
 40
2.0
100
AcDbArc
 50
90.0
 51
180.0
  0
LINE
  5
455
330
1F
100
AcDbEntity
  8
002
 62
     3
370
    30
100
AcDbLine
 10
557.526157
 20
226.772529
 30
0.0
 11
557.526157
 21
198.172029
 31
0.0
  0
ARC
  5
456
330
1F
100
AcDbEntity
  8
002
 62
     3
370
    30
100
AcDbCircle
 10
559.526157
 20
198.172029
 30
0.0
 40
2.0
100
AcDbArc
 50
180.0
 51
270.0
  0
ARC
  5
457
330
1F
100
AcDbEntity
  8
002
 62
     3
370
    30
100
AcDbCircle
 10
559.526157
 20
197.323629
 30
0.0
 40
2.0
100
AcDbArc
 50
180.0
 51
270.0
  0
ARC
  5
458
330
1F
100
AcDbEntity
  8
002
 62
     3
370
    30
100
AcDbCircle
 10
555.526157
 20
197.323629
 30
0.0
 40
2.0
100
AcDbArc
 50
270.0
 51
0.0
  0
ARC
  5
459
330
1F
100
AcDbEntity
  8
002
 62
     3
370
    30
100
AcDbCircle
 10
552.026157
 20
245.623929
 30
0.0
 40
2.0
100
AcDbArc
 50
90.0
 51
180.0
  0
LINE
  5
45A
330
1F
100
AcDbEntity
  8
002
 62
     3
370
    30
100
AcDbLine
 10
515.026157
 20
255.623929
 30
0.0
 11
655.026157
 21
255.623929
 31
0.0
  0
ARC
  5
45B
330
1F
100
AcDbEntity
  8
002
 62
     3
370
    30
100
AcDbCircle
 10
660.026157
 20
251.423529
 30
0.0
 40
4.999946015708525
100
AcDbArc
 50
180.0
 51
229.457869
  0
ARC
  5
45C
330
1F
100
AcDbEntity
  8
002
 62
     3
370
    30
100
AcDbCircle
 10
614.526157
 20
197.323629
 30
0.0
 40
2.0
100
AcDbArc
 50
180.0
 51
270.0
  0
ARC
  5
45D
330
1F
100
AcDbEntity
  8
002
 62
     3
370
    30
100
AcDbCircle
 10
610.526157
 20
197.323629
 30
0.0
 40
2.0
100
AcDbArc
 50
270.0
 51
0.0
  0
LINE
  5
45E
330
1F
100
AcDbEntity
  8
003
  6
CENTER
 62
    40
370
     9
100
AcDbLine
 10
466.923157
 20
211.623929
 30
0.0
 11
707.565157
 21
211.623929
 31
0.0
  0
LINE
  5
45F
330
1F
100
AcDbEntity
  8
003
  6
CENTER
 62
    40
370
     9
100
AcDbLine
 10
642.026157
 20
175.623929
 30
0.0
 11
642.026157
 21
147.905329
 31
0.0
  0
LINE
  5
460
330
1F
100
AcDbEntity
  8
003
  6
HIDDEN
 62
    40
370
     9
100
AcDbLine
 10
633.026157
 20
155.623929
 30
0.0
 11
633.026157
 21
168.623929
 31
0.0
  0
LINE
  5
461
330
1F
100
AcDbEntity
  8
003
  6
HIDDEN
 62
    40
370
     9
100
AcDbLine
 10
537.026157
 20
155.623929
 30
0.0
 11
537.026157
 21
168.623929
 31
0.0
  0
LINE
  5
462
330
1F
100
AcDbEntity
  8
003
  6
CENTER
 62
    40
370
     9
100
AcDbLine
 10
528.026157
 20
175.623929
 30
0.0
 11
528.026157
 21
147.905329
 31
0.0
  0
LINE
  5
463
330
1F
100
AcDbEntity
  8
003
  6
HIDDEN
 62
    40
370
     9
100
AcDbLine
 10
519.026157
 20
155.623929
 30
0.0
 11
519.026157
 21
168.623929
 31
0.0
  0
LINE
  5
464
330
1F
100
AcDbEntity
  8
003
  6
HIDDEN
 62
    40
370
     9
100
AcDbLine
 10
651.026157
 20
168.623929
 30
0.0
 11
651.026157
 21
155.623929
 31
0.0
  0
LINE
  5
465
330
1F
100
AcDbEntity
  8
002
 62
     3
370
    30
100
AcDbLine
 10
492.026157
 20
214.623929
 30
0.0
 11
470.026157
 21
214.623929
 31
0.0
  0
LINE
  5
466
330
1F
100
AcDbEntity
  8
002
 62
     3
370
    30
100
AcDbLine
 10
492.026157
 20
208.623929
 30
0.0
 11
470.026157
 21
208.623929
 31
0.0
  0
LINE
  5
467
330
1F
100
AcDbEntity
  8
002
 62
     3
370
    30
100
AcDbLine
 10
506.276157
 20
175.623929
 30
0.0
 11
506.276157
 21
247.623929
 31
0.0
  0
LINE
  5
468
330
1F
100
AcDbEntity
  8
002
 62
     3
370
    30
100
AcDbLine
 10
506.276157
 20
222.623929
 30
0.0
 11
497.026157
 21
222.623929
 31
0.0
  0
LINE
  5
469
330
1F
100
AcDbEntity
  8
002
 62
     3
370
    30
100
AcDbLine
 10
497.026157
 20
200.623929
 30
0.0
 11
506.276157
 21
200.623929
 31
0.0
  0
LINE
  5
46A
330
1F
100
AcDbEntity
  8
002
 62
     3
370
    30
100
AcDbLine
 10
497.026157
 20
200.623929
 30
0.0
 11
497.026157
 21
222.623929
 31
0.0
  0
LINE
  5
46B
330
1F
100
AcDbEntity
  8
002
 62
     3
370
    30
100
AcDbLine
 10
497.026157
 20
221.623929
 30
0.0
 11
471.026157
 21
221.623929
 31
0.0
  0
LINE
  5
46C
330
1F
100
AcDbEntity
  8
002
 62
     3
370
    30
100
AcDbLine
 10
471.026157
 20
221.623929
 30
0.0
 11
470.026157
 21
220.623929
 31
0.0
  0
LINE
  5
46D
330
1F
100
AcDbEntity
  8
002
 62
     3
370
    30
100
AcDbLine
 10
470.026157
 20
220.623929
 30
0.0
 11
470.026157
 21
202.623929
 31
0.0
  0
LINE
  5
46E
330
1F
100
AcDbEntity
  8
002
 62
     3
370
    30
100
AcDbLine
 10
470.026157
 20
202.623929
 30
0.0
 11
471.026157
 21
201.623929
 31
0.0
  0
LINE
  5
46F
330
1F
100
AcDbEntity
  8
002
 62
     3
370
    30
100
AcDbLine
 10
471.026157
 20
201.623929
 30
0.0
 11
497.026157
 21
201.623929
 31
0.0
  0
ARC
  5
470
330
1F
100
AcDbEntity
  8
002
 62
     3
370
    30
100
AcDbCircle
 10
492.026157
 20
211.623929
 30
0.0
 40
3.0
100
AcDbArc
 50
270.0
 51
90.0
  0
LINE
  5
471
330
1F
100
AcDbEntity
  8
002
 62
     3
370
    30
100
AcDbLine
 10
492.026157
 20
208.623929
 30
0.0
 11
492.026157
 21
214.623929
 31
0.0
  0
LINE
  5
472
330
1F
100
AcDbEntity
  8
002
 62
     3
370
    30
100
AcDbLine
 10
471.026157
 20
208.623929
 30
0.0
 11
471.026157
 21
201.623929
 31
0.0
  0
LINE
  5
473
330
1F
100
AcDbEntity
  8
002
 62
     3
370
    30
100
AcDbLine
 10
471.026157
 20
214.623929
 30
0.0
 11
471.026157
 21
221.623929
 31
0.0
  0
LINE
  5
474
330
1F
100
AcDbEntity
  8
002
 62
     3
370
    30
100
AcDbLine
 10
513.276157
 20
175.623929
 30
0.0
 11
506.276157
 21
175.623929
 31
0.0
  0
LINE
  5
475
330
1F
100
AcDbEntity
  8
002
 62
     3
370
    30
100
AcDbLine
 10
678.026157
 20
214.623929
 30
0.0
 11
700.026157
 21
214.623929
 31
0.0
  0
LINE
  5
476
330
1F
100
AcDbEntity
  8
002
 62
     3
370
    30
100
AcDbLine
 10
678.026157
 20
208.623929
 30
0.0
 11
700.026157
 21
208.623929
 31
0.0
  0
LINE
  5
477
330
1F
100
AcDbEntity
  8
002
 62
     3
370
    30
100
AcDbLine
 10
663.776157
 20
175.623929
 30
0.0
 11
663.776157
 21
247.623929
 31
0.0
  0
LINE
  5
478
330
1F
100
AcDbEntity
  8
002
 62
     3
370
    30
100
AcDbLine
 10
663.776157
 20
222.623929
 30
0.0
 11
673.026157
 21
222.623929
 31
0.0
  0
LINE
  5
479
330
1F
100
AcDbEntity
  8
002
 62
     3
370
    30
100
AcDbLine
 10
673.026157
 20
200.623929
 30
0.0
 11
663.776157
 21
200.623929
 31
0.0
  0
LINE
  5
47A
330
1F
100
AcDbEntity
  8
002
 62
     3
370
    30
100
AcDbLine
 10
673.026157
 20
200.623929
 30
0.0
 11
673.026157
 21
222.623929
 31
0.0
  0
LINE
  5
47B
330
1F
100
AcDbEntity
  8
002
 62
     3
370
    30
100
AcDbLine
 10
673.026157
 20
221.623929
 30
0.0
 11
699.026157
 21
221.623929
 31
0.0
  0
LINE
  5
47C
330
1F
100
AcDbEntity
  8
002
 62
     3
370
    30
100
AcDbLine
 10
699.026157
 20
221.623929
 30
0.0
 11
700.026157
 21
220.623929
 31
0.0
  0
LINE
  5
47D
330
1F
100
AcDbEntity
  8
002
 62
     3
370
    30
100
AcDbLine
 10
700.026157
 20
220.623929
 30
0.0
 11
700.026157
 21
202.623929
 31
0.0
  0
LINE
  5
47E
330
1F
100
AcDbEntity
  8
002
 62
     3
370
    30
100
AcDbLine
 10
700.026157
 20
202.623929
 30
0.0
 11
699.026157
 21
201.623929
 31
0.0
  0
LINE
  5
47F
330
1F
100
AcDbEntity
  8
002
 62
     3
370
    30
100
AcDbLine
 10
699.026157
 20
201.623929
 30
0.0
 11
673.026157
 21
201.623929
 31
0.0
  0
ARC
  5
480
330
1F
100
AcDbEntity
  8
002
 62
     3
370
    30
100
AcDbCircle
 10
678.026157
 20
211.623929
 30
0.0
 40
3.0
100
AcDbArc
 50
90.0
 51
270.0
  0
LINE
  5
481
330
1F
100
AcDbEntity
  8
002
 62
     3
370
    30
100
AcDbLine
 10
678.026157
 20
208.623929
 30
0.0
 11
678.026157
 21
214.623929
 31
0.0
  0
LINE
  5
482
330
1F
100
AcDbEntity
  8
002
 62
     3
370
    30
100
AcDbLine
 10
699.026157
 20
208.623929
 30
0.0
 11
699.026157
 21
201.623929
 31
0.0
  0
LINE
  5
483
330
1F
100
AcDbEntity
  8
002
 62
     3
370
    30
100
AcDbLine
 10
699.026157
 20
214.623929
 30
0.0
 11
699.026157
 21
221.623929
 31
0.0
  0
LINE
  5
484
330
1F
100
AcDbEntity
  8
002
 62
     3
370
    30
100
AcDbLine
 10
656.776157
 20
175.623929
 30
0.0
 11
663.776157
 21
175.623929
 31
0.0
  0
LINE
  5
485
330
1F
100
AcDbEntity
  8
002
 62
     3
370
    30
100
AcDbLine
 10
534.026157
 20
277.623929
 30
0.0
 11
518.026157
 21
277.623929
 31
0.0
  0
LINE
  5
486
330
1F
100
AcDbEntity
  8
002
 62
     3
370
    30
100
AcDbLine
 10
534.026157
 20
277.623929
 30
0.0
 11
534.026157
 21
267.623929
 31
0.0
  0
LINE
  5
487
330
1F
100
AcDbEntity
  8
002
 62
     3
370
    30
100
AcDbLine
 10
655.026157
 20
267.623929
 30
0.0
 11
515.026157
 21
267.623929
 31
0.0
  0
LINE
  5
488
330
1F
100
AcDbEntity
  8
002
 62
     3
370
    30
100
AcDbLine
 10
518.026157
 20
267.623929
 30
0.0
 11
518.026157
 21
277.623929
 31
0.0
  0
LINE
  5
489
330
1F
100
AcDbEntity
  8
002
  6
CENTER
 62
    40
370
     9
100
AcDbLine
 10
526.026157
 20
279.824129
 30
0.0
 11
526.026157
 21
253.301829
 31
0.0
  0
LINE
  5
48A
330
1F
100
AcDbEntity
  8
002
 62
     3
370
    30
100
AcDbLine
 10
563.525889
 20
277.623929
 30
0.0
 11
547.525889
 21
277.623929
 31
0.0
  0
LINE
  5
48B
330
1F
100
AcDbEntity
  8
002
 62
     3
370
    30
100
AcDbLine
 10
563.525889
 20
277.623929
 30
0.0
 11
563.525889
 21
267.623929
 31
0.0
  0
LINE
  5
48C
330
1F
100
AcDbEntity
  8
002
 62
     3
370
    30
100
AcDbLine
 10
547.525889
 20
267.623929
 30
0.0
 11
547.525889
 21
277.623929
 31
0.0
  0
LINE
  5
48D
330
1F
100
AcDbEntity
  8
002
  6
CENTER
 62
    40
370
     9
100
AcDbLine
 10
555.525889
 20
279.824129
 30
0.0
 11
555.525889
 21
253.301829
 31
0.0
  0
LINE
  5
48E
330
1F
100
AcDbEntity
  8
002
 62
     3
370
    30
100
AcDbLine
 10
636.026157
 20
277.623929
 30
0.0
 11
652.026157
 21
277.623929
 31
0.0
  0
LINE
  5
48F
330
1F
100
AcDbEntity
  8
002
 62
     3
370
    30
100
AcDbLine
 10
636.026157
 20
277.623929
 30
0.0
 11
636.026157
 21
267.623929
 31
0.0
  0
LINE
  5
490
330
1F
100
AcDbEntity
  8
002
 62
     3
370
    30
100
AcDbLine
 10
652.026157
 20
267.623929
 30
0.0
 11
652.026157
 21
277.623929
 31
0.0
  0
LINE
  5
491
330
1F
100
AcDbEntity
  8
002
  6
CENTER
 62
    40
370
     9
100
AcDbLine
 10
644.026157
 20
279.824129
 30
0.0
 11
644.026157
 21
253.301829
 31
0.0
  0
LINE
  5
492
330
1F
100
AcDbEntity
  8
002
 62
     3
370
    30
100
AcDbLine
 10
606.526426
 20
277.623929
 30
0.0
 11
622.526426
 21
277.623929
 31
0.0
  0
LINE
  5
493
330
1F
100
AcDbEntity
  8
002
 62
     3
370
    30
100
AcDbLine
 10
606.526426
 20
277.623929
 30
0.0
 11
606.526426
 21
267.623929
 31
0.0
  0
LINE
  5
494
330
1F
100
AcDbEntity
  8
002
 62
     3
370
    30
100
AcDbLine
 10
622.526426
 20
267.623929
 30
0.0
 11
622.526426
 21
277.623929
 31
0.0
  0
LINE
  5
495
330
1F
100
AcDbEntity
  8
002
  6
CENTER
 62
    40
370
     9
100
AcDbLine
 10
614.526426
 20
279.824129
 30
0.0
 11
614.526426
 21
253.301829
 31
0.0
  0
LINE
  5
496
330
1F
100
AcDbEntity
  8
002
 62
     3
370
    30
100
AcDbLine
 10
563.525889
 20
270.154729
 30
0.0
 11
606.526426
 21
270.154729
 31
0.0
  0
LINE
  5
497
330
1F
100
AcDbEntity
  8
002
 62
     3
370
    30
100
AcDbLine
 10
540.026157
 20
155.623929
 30
0.0
 11
540.026157
 21
149.623929
 31
0.0
  0
LINE
  5
498
330
1F
100
AcDbEntity
  8
002
 62
     3
370
    30
100
AcDbLine
 10
540.026157
 20
149.623929
 30
0.0
 11
630.026157
 21
149.623929
 31
0.0
  0
LINE
  5
499
330
1F
100
AcDbEntity
  8
002
 62
     3
370
    30
100
AcDbLine
 10
630.026157
 20
149.623929
 30
0.0
 11
630.026157
 21
155.623929
 31
0.0
  0
LINE
  5
49A
330
1F
100
AcDbEntity
  8
002
 62
     3
370
    30
100
AcDbLine
 10
628.526157
 20
149.623929
 30
0.0
 11
628.526157
 21
143.623929
 31
0.0
  0
LINE
  5
49B
330
1F
100
AcDbEntity
  8
002
 62
     3
370
    30
100
AcDbLine
 10
618.526157
 20
143.623929
 30
0.0
 11
618.526157
 21
149.623929
 31
0.0
  0
LINE
  5
49C
330
1F
100
AcDbEntity
  8
002
 62
     3
370
    30
100
AcDbLine
 10
615.276157
 20
149.623929
 30
0.0
 11
615.276157
 21
95.623929
 31
0.0
  0
LINE
  5
49D
330
1F
100
AcDbEntity
  8
002
 62
     3
370
    30
100
AcDbLine
 10
615.276157
 20
95.623929
 30
0.0
 11
554.776157
 21
95.623929
 31
0.0
  0
LINE
  5
49E
330
1F
100
AcDbEntity
  8
002
 62
     3
370
    30
100
AcDbLine
 10
554.776157
 20
95.623929
 30
0.0
 11
554.776157
 21
149.623929
 31
0.0
  0
LINE
  5
49F
330
1F
100
AcDbEntity
  8
002
 62
     3
370
    30
100
AcDbLine
 10
551.526157
 20
149.623929
 30
0.0
 11
551.526157
 21
143.623929
 31
0.0
  0
LINE
  5
4A0
330
1F
100
AcDbEntity
  8
002
 62
     3
370
    30
100
AcDbLine
 10
541.526157
 20
143.623929
 30
0.0
 11
541.526157
 21
149.623929
 31
0.0
  0
LINE
  5
4A1
330
1F
100
AcDbEntity
  8
002
 62
     3
370
    30
100
AcDbLine
 10
541.526157
 20
143.623929
 30
0.0
 11
551.526157
 21
143.623929
 31
0.0
  0
LINE
  5
4A2
330
1F
100
AcDbEntity
  8
002
 62
     3
370
    30
100
AcDbLine
 10
618.526157
 20
143.623929
 30
0.0
 11
628.526157
 21
143.623929
 31
0.0
  0
LINE
  5
4A3
330
1F
100
AcDbEntity
  8
002
 62
     3
370
    30
100
AcDbLine
 10
590.026157
 20
143.623929
 30
0.0
 11
590.026157
 21
149.623929
 31
0.0
  0
LINE
  5
4A4
330
1F
100
AcDbEntity
  8
002
 62
     3
370
    30
100
AcDbLine
 10
580.026157
 20
143.623929
 30
0.0
 11
580.026157
 21
149.623929
 31
0.0
  0
LINE
  5
4A5
330
1F
100
AcDbEntity
  8
002
 62
     3
370
    30
100
AcDbLine
 10
580.026157
 20
143.623929
 30
0.0
 11
590.026157
 21
143.623929
 31
0.0
  0
LINE
  5
4A6
330
1F
100
AcDbEntity
  8
002
  6
CENTER
 62
    40
370
     9
100
AcDbLine
 10
546.526157
 20
155.623929
 30
0.0
 11
546.526157
 21
140.572729
 31
0.0
  0
LINE
  5
4A7
330
1F
100
AcDbEntity
  8
002
  6
CENTER
 62
    40
370
     9
100
AcDbLine
 10
623.526157
 20
155.623929
 30
0.0
 11
623.526157
 21
140.572729
 31
0.0
  0
LINE
  5
4A8
330
1F
100
AcDbEntity
  8
002
 62
     3
370
    30
100
AcDbLine
 10
630.026157
 20
280.623929
 30
0.0
 11
540.026157
 21
280.623929
 31
0.0
  0
LINE
  5
4A9
330
1F
100
AcDbEntity
  8
002
 62
     3
370
    30
100
AcDbLine
 10
562.526157
 20
280.623929
 30
0.0
 11
562.526157
 21
282.623929
 31
0.0
  0
LINE
  5
4AA
330
1F
100
AcDbEntity
  8
002
 62
     3
370
    30
100
AcDbLine
 10
562.526157
 20
282.623929
 30
0.0
 11
607.526157
 21
282.623929
 31
0.0
  0
LINE
  5
4AB
330
1F
100
AcDbEntity
  8
002
 62
     3
370
    30
100
AcDbLine
 10
607.526157
 20
282.623929
 30
0.0
 11
607.526157
 21
280.623929
 31
0.0
  0
LINE
  5
4AC
330
1F
100
AcDbEntity
  8
002
 62
     3
370
    30
100
AcDbLine
 10
540.026157
 20
280.623929
 30
0.0
 11
539.153724
 21
270.154729
 31
0.0
  0
LINE
  5
4AD
330
1F
100
AcDbEntity
  8
002
 62
     3
370
    30
100
AcDbLine
 10
630.898591
 20
270.154729
 30
0.0
 11
630.026157
 21
280.623929
 31
0.0
  0
LINE
  5
4AE
330
1F
100
AcDbEntity
  8
003
 62
     3
370
    30
100
AcDbLine
 10
538.026157
 20
267.623929
 30
0.0
 11
538.026157
 21
270.154729
 31
0.0
  0
LINE
  5
4AF
330
1F
100
AcDbEntity
  8
002
 62
     3
370
    30
100
AcDbLine
 10
538.026157
 20
270.154729
 30
0.0
 11
547.525889
 21
270.154729
 31
0.0
  0
LINE
  5
4B0
330
1F
100
AcDbEntity
  8
002
 62
     3
370
    30
100
AcDbLine
 10
622.526426
 20
270.154729
 30
0.0
 11
632.026157
 21
270.154729
 31
0.0
  0
LINE
  5
4B1
330
1F
100
AcDbEntity
  8
003
 62
     3
370
    30
100
AcDbLine
 10
632.026157
 20
267.623929
 30
0.0
 11
632.026157
 21
270.154729
 31
0.0
  0
LINE
  5
4B2
330
1F
100
AcDbEntity
  8
001
 62
     3
370
    30
100
AcDbLine
 10
577.534614
 20
504.627073
 30
0.0
 11
592.534616
 21
482.603435
 31
0.0
  0
LINE
  5
4B3
330
1F
100
AcDbEntity
  8
001
 62
     3
370
    30
100
AcDbLine
 10
577.534614
 20
483.309861
 30
0.0
 11
592.534616
 21
461.286254
 31
0.0
  0
LINE
  5
4B4
330
1F
100
AcDbEntity
  8
002
  6
CENTER
 62
    40
370
     9
100
AcDbLine
 10
545.034645
 20
444.940524
 30
0.0
 11
545.034645
 21
416.940514
 31
0.0
  0
LINE
  5
4B5
330
1F
100
AcDbEntity
  8
002
  6
CENTER
 62
    40
370
     9
100
AcDbLine
 10
625.034615
 20
444.940524
 30
0.0
 11
625.034615
 21
416.940514
 31
0.0
  0
LINE
  5
4B6
330
1F
100
AcDbEntity
  8
002
 62
     3
370
    30
100
AcDbLine
 10
577.534614
 20
516.940494
 30
0.0
 11
577.534614
 21
448.940494
 31
0.0
  0
LINE
  5
4B7
330
1F
100
AcDbEntity
  8
002
 62
     3
370
    30
100
AcDbLine
 10
592.534616
 20
448.940494
 30
0.0
 11
592.534616
 21
516.940494
 31
0.0
  0
LINE
  5
4B8
330
1F
100
AcDbEntity
  8
002
 62
     3
370
    30
100
AcDbLine
 10
562.849522
 20
507.53576
 30
0.0
 11
577.534614
 21
485.974517
 31
0.0
  0
LINE
  5
4B9
330
1F
100
AcDbEntity
  8
002
 62
     3
370
    30
100
AcDbLine
 10
577.534614
 20
493.968437
 30
0.0
 11
564.035653
 21
513.788174
 31
0.0
  0
LINE
  5
4BA
330
1F
100
AcDbEntity
  8
002
 62
     3
370
    30
100
AcDbLine
 10
570.288108
 20
512.60204
 30
0.0
 11
577.534614
 21
501.962414
 31
0.0
  0
ARC
  5
4BB
330
1F
100
AcDbEntity
  8
002
 62
     3
370
    30
100
AcDbCircle
 10
566.568637
 20
510.068981
 30
0.0
 40
4.500000220055554
100
AcDbArc
 50
34.258265
 51
214.258342
  0
LINE
  5
4BC
330
1F
100
AcDbEntity
  8
002
 62
     3
370
    30
100
AcDbLine
 10
571.957925
 20
445.940524
 30
0.0
 11
571.957925
 21
494.162437
 31
0.0
  0
LINE
  5
4BD
330
1F
100
AcDbEntity
  8
002
 62
     3
370
    30
100
AcDbLine
 10
571.957925
 20
445.940524
 30
0.0
 11
598.111335
 21
445.940524
 31
0.0
  0
ARC
  5
4BE
330
1F
100
AcDbEntity
  8
002
 62
     3
370
    30
100
AcDbCircle
 10
579.534859
 20
448.940494
 30
0.0
 40
2.000000000001
100
AcDbArc
 50
180.0
 51
269.999943
  0
LINE
  5
4BF
330
1F
100
AcDbEntity
  8
002
 62
     3
370
    30
100
AcDbLine
 10
579.534859
 20
446.940494
 30
0.0
 11
590.534615
 21
446.940494
 31
0.0
  0
ARC
  5
4C0
330
1F
100
AcDbEntity
  8
002
 62
     3
370
    30
100
AcDbCircle
 10
590.534615
 20
448.940494
 30
0.0
 40
2.0
100
AcDbArc
 50
269.999943
 51
0.0
  0
LINE
  5
4C1
330
1F
100
AcDbEntity
  8
002
 62
     3
370
    30
100
AcDbLine
 10
598.111335
 20
445.940524
 30
0.0
 11
598.111335
 21
455.730475
 31
0.0
  0
LINE
  5
4C2
330
1F
100
AcDbEntity
  8
002
 62
     3
370
    30
100
AcDbLine
 10
599.781097
 20
453.278864
 30
0.0
 11
592.534616
 21
463.918438
 31
0.0
  0
LINE
  5
4C3
330
1F
100
AcDbEntity
  8
002
 62
     3
370
    30
100
AcDbLine
 10
592.534616
 20
471.912351
 30
0.0
 11
606.03352
 21
452.092698
 31
0.0
  0
LINE
  5
4C4
330
1F
100
AcDbEntity
  8
002
 62
     3
370
    30
100
AcDbLine
 10
607.219645
 20
458.345125
 30
0.0
 11
592.534616
 21
479.906271
 31
0.0
  0
ARC
  5
4C5
330
1F
100
AcDbEntity
  8
002
 62
     3
370
    30
100
AcDbCircle
 10
603.500619
 20
455.811979
 30
0.0
 40
4.500000220055554
100
AcDbArc
 50
214.258164
 51
34.258342
  0
LINE
  5
4C6
330
1F
100
AcDbEntity
  8
002
 62
     3
370
    30
100
AcDbLine
 10
585.484627
 20
450.940494
 30
0.0
 11
584.584603
 21
450.940494
 31
0.0
  0
LINE
  5
4C7
330
1F
100
AcDbEntity
  8
002
 62
     3
370
    30
100
AcDbLine
 10
585.484627
 20
451.740474
 30
0.0
 11
585.484627
 21
450.940494
 31
0.0
  0
LINE
  5
4C8
330
1F
100
AcDbEntity
  8
002
 62
     3
370
    30
100
AcDbLine
 10
584.584603
 20
450.940494
 30
0.0
 11
584.584603
 21
451.740474
 31
0.0
  0
LINE
  5
4C9
330
1F
100
AcDbEntity
  8
002
 62
     3
370
    30
100
AcDbLine
 10
584.584592
 20
451.740504
 30
0.0
 11
584.310079
 21
452.215974
 31
0.0
  0
LINE
  5
4CA
330
1F
100
AcDbEntity
  8
002
 62
     3
370
    30
100
AcDbLine
 10
584.310092
 20
452.215974
 30
0.0
 11
583.834621
 21
452.490484
 31
0.0
  0
LINE
  5
4CB
330
1F
100
AcDbEntity
  8
002
 62
     3
370
    30
100
AcDbLine
 10
583.834633
 20
452.490474
 30
0.0
 11
583.034615
 21
452.490474
 31
0.0
  0
LINE
  5
4CC
330
1F
100
AcDbEntity
  8
002
 62
     3
370
    30
100
AcDbLine
 10
583.034615
 20
452.490474
 30
0.0
 11
583.034615
 21
453.390504
 31
0.0
  0
LINE
  5
4CD
330
1F
100
AcDbEntity
  8
002
 62
     3
370
    30
100
AcDbLine
 10
583.034615
 20
453.390504
 30
0.0
 11
583.834603
 21
453.390504
 31
0.0
  0
LINE
  5
4CE
330
1F
100
AcDbEntity
  8
002
 62
     3
370
    30
100
AcDbLine
 10
583.834632
 20
453.390504
 30
0.0
 11
584.31009
 21
453.665004
 31
0.0
  0
LINE
  5
4CF
330
1F
100
AcDbEntity
  8
002
 62
     3
370
    30
100
AcDbLine
 10
584.310099
 20
453.665004
 30
0.0
 11
584.584605
 21
454.140454
 31
0.0
  0
LINE
  5
4D0
330
1F
100
AcDbEntity
  8
002
 62
     3
370
    30
100
AcDbLine
 10
584.584603
 20
454.140504
 30
0.0
 11
584.584603
 21
454.940494
 31
0.0
  0
LINE
  5
4D1
330
1F
100
AcDbEntity
  8
002
 62
     3
370
    30
100
AcDbLine
 10
584.584603
 20
454.940494
 30
0.0
 11
585.484627
 21
454.940494
 31
0.0
  0
LINE
  5
4D2
330
1F
100
AcDbEntity
  8
002
 62
     3
370
    30
100
AcDbLine
 10
585.484627
 20
454.940494
 30
0.0
 11
585.484627
 21
454.140504
 31
0.0
  0
LINE
  5
4D3
330
1F
100
AcDbEntity
  8
002
 62
     3
370
    30
100
AcDbLine
 10
585.484609
 20
454.140484
 30
0.0
 11
585.759122
 21
453.665014
 31
0.0
  0
LINE
  5
4D4
330
1F
100
AcDbEntity
  8
002
 62
     3
370
    30
100
AcDbLine
 10
585.759128
 20
453.665014
 30
0.0
 11
586.234599
 21
453.390504
 31
0.0
  0
LINE
  5
4D5
330
1F
100
AcDbEntity
  8
002
 62
     3
370
    30
100
AcDbLine
 10
586.234597
 20
453.390504
 30
0.0
 11
587.034615
 21
453.390504
 31
0.0
  0
LINE
  5
4D6
330
1F
100
AcDbEntity
  8
002
 62
     3
370
    30
100
AcDbLine
 10
587.034615
 20
453.390504
 30
0.0
 11
587.034615
 21
452.490474
 31
0.0
  0
LINE
  5
4D7
330
1F
100
AcDbEntity
  8
002
 62
     3
370
    30
100
AcDbLine
 10
587.034615
 20
452.490474
 30
0.0
 11
586.234597
 21
452.490474
 31
0.0
  0
LINE
  5
4D8
330
1F
100
AcDbEntity
  8
002
 62
     3
370
    30
100
AcDbLine
 10
586.234545
 20
452.490444
 30
0.0
 11
585.759087
 21
452.215934
 31
0.0
  0
LINE
  5
4D9
330
1F
100
AcDbEntity
  8
002
 62
     3
370
    30
100
AcDbLine
 10
585.759122
 20
452.215954
 30
0.0
 11
585.484616
 21
451.740504
 31
0.0
  0
CIRCLE
  5
4DA
330
1F
100
AcDbEntity
  8
002
 62
     3
370
    30
100
AcDbCircle
 10
585.034615
 20
452.940494
 30
0.0
 40
3.499999
  0
CIRCLE
  5
4DB
330
1F
100
AcDbEntity
  8
002
 62
     3
370
    30
100
AcDbCircle
 10
585.034615
 20
512.940494
 30
0.0
 40
3.499999
  0
LINE
  5
4DC
330
1F
100
AcDbEntity
  8
002
 62
     3
370
    30
100
AcDbLine
 10
584.584603
 20
514.940494
 30
0.0
 11
585.484627
 21
514.940494
 31
0.0
  0
LINE
  5
4DD
330
1F
100
AcDbEntity
  8
002
 62
     3
370
    30
100
AcDbLine
 10
584.584603
 20
514.140514
 30
0.0
 11
584.584603
 21
514.940494
 31
0.0
  0
LINE
  5
4DE
330
1F
100
AcDbEntity
  8
002
 62
     3
370
    30
100
AcDbLine
 10
584.310089
 20
513.664974
 30
0.0
 11
584.584595
 21
514.140424
 31
0.0
  0
LINE
  5
4DF
330
1F
100
AcDbEntity
  8
002
 62
     3
370
    30
100
AcDbLine
 10
583.834693
 20
513.390534
 30
0.0
 11
584.310151
 21
513.665034
 31
0.0
  0
LINE
  5
4E0
330
1F
100
AcDbEntity
  8
002
 62
     3
370
    30
100
AcDbLine
 10
583.034615
 20
513.390514
 30
0.0
 11
583.834603
 21
513.390514
 31
0.0
  0
LINE
  5
4E1
330
1F
100
AcDbEntity
  8
002
 62
     3
370
    30
100
AcDbLine
 10
583.034615
 20
512.490484
 30
0.0
 11
583.034615
 21
513.390514
 31
0.0
  0
LINE
  5
4E2
330
1F
100
AcDbEntity
  8
002
 62
     3
370
    30
100
AcDbLine
 10
583.834633
 20
512.490484
 30
0.0
 11
583.034615
 21
512.490484
 31
0.0
  0
LINE
  5
4E3
330
1F
100
AcDbEntity
  8
002
 62
     3
370
    30
100
AcDbLine
 10
584.310117
 20
512.215994
 30
0.0
 11
583.834646
 21
512.490514
 31
0.0
  0
LINE
  5
4E4
330
1F
100
AcDbEntity
  8
002
 62
     3
370
    30
100
AcDbLine
 10
584.584605
 20
511.740524
 30
0.0
 11
584.310085
 21
512.216004
 31
0.0
  0
LINE
  5
4E5
330
1F
100
AcDbEntity
  8
002
 62
     3
370
    30
100
AcDbLine
 10
584.584603
 20
510.940494
 30
0.0
 11
584.584603
 21
511.740484
 31
0.0
  0
LINE
  5
4E6
330
1F
100
AcDbEntity
  8
002
 62
     3
370
    30
100
AcDbLine
 10
585.484627
 20
510.940494
 30
0.0
 11
584.584603
 21
510.940494
 31
0.0
  0
LINE
  5
4E7
330
1F
100
AcDbEntity
  8
002
 62
     3
370
    30
100
AcDbLine
 10
585.484627
 20
511.740484
 30
0.0
 11
585.484627
 21
510.940494
 31
0.0
  0
LINE
  5
4E8
330
1F
100
AcDbEntity
  8
002
 62
     3
370
    30
100
AcDbLine
 10
585.759121
 20
512.215994
 30
0.0
 11
585.484615
 21
511.740534
 31
0.0
  0
LINE
  5
4E9
330
1F
100
AcDbEntity
  8
002
 62
     3
370
    30
100
AcDbLine
 10
586.234593
 20
512.490494
 30
0.0
 11
585.759135
 21
512.215994
 31
0.0
  0
LINE
  5
4EA
330
1F
100
AcDbEntity
  8
002
 62
     3
370
    30
100
AcDbLine
 10
587.034615
 20
512.490484
 30
0.0
 11
586.234597
 21
512.490484
 31
0.0
  0
LINE
  5
4EB
330
1F
100
AcDbEntity
  8
002
 62
     3
370
    30
100
AcDbLine
 10
587.034615
 20
513.390514
 30
0.0
 11
587.034615
 21
512.490484
 31
0.0
  0
LINE
  5
4EC
330
1F
100
AcDbEntity
  8
002
 62
     3
370
    30
100
AcDbLine
 10
586.234597
 20
513.390514
 30
0.0
 11
587.034615
 21
513.390514
 31
0.0
  0
LINE
  5
4ED
330
1F
100
AcDbEntity
  8
002
 62
     3
370
    30
100
AcDbLine
 10
585.759107
 20
513.664994
 30
0.0
 11
586.234578
 21
513.390484
 31
0.0
  0
LINE
  5
4EE
330
1F
100
AcDbEntity
  8
002
 62
     3
370
    30
100
AcDbLine
 10
585.48462
 20
514.140504
 30
0.0
 11
585.759141
 21
513.665024
 31
0.0
  0
LINE
  5
4EF
330
1F
100
AcDbEntity
  8
002
 62
     3
370
    30
100
AcDbLine
 10
585.484627
 20
514.940494
 30
0.0
 11
585.484627
 21
514.140514
 31
0.0
  0
LINE
  5
4F0
330
1F
100
AcDbEntity
  8
002
 62
     3
370
    30
100
AcDbLine
 10
535.034635
 20
439.940524
 30
0.0
 11
635.034625
 21
439.940524
 31
0.0
  0
LINE
  5
4F1
330
1F
100
AcDbEntity
  8
002
 62
     3
370
    30
100
AcDbLine
 10
590.534371
 20
518.940494
 30
0.0
 11
579.534615
 21
518.940494
 31
0.0
  0
LINE
  5
4F2
330
1F
100
AcDbEntity
  8
002
 62
     3
370
    30
100
AcDbLine
 10
598.111655
 20
518.940854
 30
0.0
 11
597.111655
 21
519.940864
 31
0.0
  0
LINE
  5
4F3
330
1F
100
AcDbEntity
  8
002
 62
     3
370
    30
100
AcDbLine
 10
598.111335
 20
471.718309
 30
0.0
 11
598.111335
 21
518.940494
 31
0.0
  0
LINE
  5
4F4
330
1F
100
AcDbEntity
  8
002
 62
     3
370
    30
100
AcDbLine
 10
571.957925
 20
510.150345
 30
0.0
 11
571.957925
 21
518.940494
 31
0.0
  0
LINE
  5
4F5
330
1F
100
AcDbEntity
  8
002
 62
     3
370
    30
100
AcDbLine
 10
571.957985
 20
518.940534
 30
0.0
 11
572.958225
 21
519.940774
 31
0.0
  0
LINE
  5
4F6
330
1F
100
AcDbEntity
  8
002
 62
     3
370
    30
100
AcDbLine
 10
555.034645
 20
531.940514
 30
0.0
 11
555.034645
 21
439.940524
 31
0.0
  0
ARC
  5
4F7
330
1F
100
AcDbEntity
  8
002
 62
     3
370
    30
100
AcDbCircle
 10
590.534371
 20
516.940494
 30
0.0
 40
2.0
100
AcDbArc
 50
0.0
 51
90.0
  0
ARC
  5
4F8
330
1F
100
AcDbEntity
  8
002
 62
     3
370
    30
100
AcDbCircle
 10
579.534615
 20
516.940494
 30
0.0
 40
2.0
100
AcDbArc
 50
90.0
 51
180.0
  0
LINE
  5
4F9
330
1F
100
AcDbEntity
  8
002
 62
     3
370
    30
100
AcDbLine
 10
555.034645
 20
531.940514
 30
0.0
 11
615.034615
 21
531.940514
 31
0.0
  0
LINE
  5
4FA
330
1F
100
AcDbEntity
  8
002
 62
     3
370
    30
100
AcDbLine
 10
615.034615
 20
531.940514
 30
0.0
 11
615.034615
 21
439.940524
 31
0.0
  0
LINE
  5
4FB
330
1F
100
AcDbEntity
  8
002
 62
     3
370
    30
100
AcDbLine
 10
535.034635
 20
421.940514
 30
0.0
 11
635.034625
 21
421.940514
 31
0.0
  0
LINE
  5
4FC
330
1F
100
AcDbEntity
  8
002
 62
     3
370
    30
100
AcDbLine
 10
535.034635
 20
439.940524
 30
0.0
 11
535.034635
 21
421.940514
 31
0.0
  0
LINE
  5
4FD
330
1F
100
AcDbEntity
  8
002
 62
     3
370
    30
100
AcDbLine
 10
635.034625
 20
439.940524
 30
0.0
 11
635.034625
 21
421.940514
 31
0.0
  0
LINE
  5
4FE
330
1F
100
AcDbEntity
  8
002
 62
     3
370
    30
100
AcDbLine
 10
572.958225
 20
519.940774
 30
0.0
 11
597.111745
 21
519.940774
 31
0.0
  0
LINE
  5
4FF
330
1F
100
AcDbEntity
  8
002
 62
     3
370
    30
100
AcDbLine
 10
567.026257
 20
635.624029
 30
0.0
 11
567.026257
 21
531.940514
 31
0.0
  0
LINE
  5
500
330
1F
100
AcDbEntity
  8
002
 62
     3
370
    30
100
AcDbLine
 10
603.026157
 20
531.940514
 30
0.0
 11
603.026157
 21
635.624029
 31
0.0
  0
LINE
  5
501
330
1F
100
AcDbEntity
  8
002
 62
    40
370
     9
100
AcDbLine
 10
600.926257
 20
635.624029
 30
0.0
 11
600.926257
 21
531.940514
 31
0.0
  0
LINE
  5
502
330
1F
100
AcDbEntity
  8
002
 62
    40
370
     9
100
AcDbLine
 10
569.126257
 20
531.940514
 30
0.0
 11
569.126257
 21
635.624029
 31
0.0
  0
LINE
  5
503
330
1F
100
AcDbEntity
  8
002
 62
     3
370
    30
100
AcDbLine
 10
603.026157
 20
635.624029
 30
0.0
 11
567.026257
 21
635.624029
 31
0.0
  0
LINE
  5
504
330
1F
100
AcDbEntity
  8
002
 62
     3
370
    30
100
AcDbLine
 10
597.526157
 20
635.624029
 30
0.0
 11
597.526157
 21
680.623929
 31
0.0
  0
LINE
  5
505
330
1F
100
AcDbEntity
  8
002
 62
     3
370
    30
100
AcDbLine
 10
597.526157
 20
680.623929
 30
0.0
 11
572.526257
 21
680.623929
 31
0.0
  0
LINE
  5
506
330
1F
100
AcDbEntity
  8
002
 62
     3
370
    30
100
AcDbLine
 10
572.526257
 20
680.623929
 30
0.0
 11
572.526257
 21
635.624029
 31
0.0
  0
LINE
  5
507
330
1F
100
AcDbEntity
  8
001
 62
     3
370
    30
100
AcDbLine
 10
833.517701
 20
449.253955
 30
0.0
 11
818.517699
 21
471.277593
 31
0.0
  0
LINE
  5
508
330
1F
100
AcDbEntity
  8
001
 62
     3
370
    30
100
AcDbLine
 10
833.517701
 20
470.571167
 30
0.0
 11
818.517699
 21
492.594774
 31
0.0
  0
LINE
  5
509
330
1F
100
AcDbEntity
  8
002
  6
CENTER
 62
    40
370
     9
100
AcDbLine
 10
866.01767
 20
508.940504
 30
0.0
 11
866.01767
 21
536.940514
 31
0.0
  0
LINE
  5
50A
330
1F
100
AcDbEntity
  8
002
  6
CENTER
 62
    40
370
     9
100
AcDbLine
 10
786.0177
 20
508.940504
 30
0.0
 11
786.0177
 21
536.940514
 31
0.0
  0
LINE
  5
50B
330
1F
100
AcDbEntity
  8
002
 62
     3
370
    30
100
AcDbLine
 10
833.517701
 20
436.940534
 30
0.0
 11
833.517701
 21
504.940534
 31
0.0
  0
LINE
  5
50C
330
1F
100
AcDbEntity
  8
002
 62
     3
370
    30
100
AcDbLine
 10
818.517699
 20
504.940534
 30
0.0
 11
818.517699
 21
436.940534
 31
0.0
  0
LINE
  5
50D
330
1F
100
AcDbEntity
  8
002
 62
     3
370
    30
100
AcDbLine
 10
848.202793
 20
446.345268
 30
0.0
 11
833.517701
 21
467.906511
 31
0.0
  0
LINE
  5
50E
330
1F
100
AcDbEntity
  8
002
 62
     3
370
    30
100
AcDbLine
 10
833.517701
 20
459.912591
 30
0.0
 11
847.016662
 21
440.092854
 31
0.0
  0
LINE
  5
50F
330
1F
100
AcDbEntity
  8
002
 62
     3
370
    30
100
AcDbLine
 10
840.764207
 20
441.278988
 30
0.0
 11
833.517701
 21
451.918614
 31
0.0
  0
ARC
  5
510
330
1F
100
AcDbEntity
  8
002
 62
     3
370
    30
100
AcDbCircle
 10
844.483678
 20
443.812047
 30
0.0
 40
4.500000220055554
100
AcDbArc
 50
214.258265
 51
34.258342
  0
LINE
  5
511
330
1F
100
AcDbEntity
  8
002
 62
     3
370
    30
100
AcDbLine
 10
839.09439
 20
507.940504
 30
0.0
 11
839.09439
 21
459.718592
 31
0.0
  0
LINE
  5
512
330
1F
100
AcDbEntity
  8
002
 62
     3
370
    30
100
AcDbLine
 10
839.09439
 20
507.940504
 30
0.0
 11
812.94098
 21
507.940504
 31
0.0
  0
ARC
  5
513
330
1F
100
AcDbEntity
  8
002
 62
     3
370
    30
100
AcDbCircle
 10
831.517456
 20
504.940534
 30
0.0
 40
2.000000000001
100
AcDbArc
 50
0.0
 51
89.999943
  0
LINE
  5
514
330
1F
100
AcDbEntity
  8
002
 62
     3
370
    30
100
AcDbLine
 10
831.517456
 20
506.940534
 30
0.0
 11
820.5177
 21
506.940534
 31
0.0
  0
ARC
  5
515
330
1F
100
AcDbEntity
  8
002
 62
     3
370
    30
100
AcDbCircle
 10
820.5177
 20
504.940534
 30
0.0
 40
2.0
100
AcDbArc
 50
89.999943
 51
180.0
  0
LINE
  5
516
330
1F
100
AcDbEntity
  8
002
 62
     3
370
    30
100
AcDbLine
 10
812.94098
 20
507.940504
 30
0.0
 11
812.94098
 21
498.150553
 31
0.0
  0
LINE
  5
517
330
1F
100
AcDbEntity
  8
002
 62
     3
370
    30
100
AcDbLine
 10
811.271218
 20
500.602165
 30
0.0
 11
818.517699
 21
489.96259
 31
0.0
  0
LINE
  5
518
330
1F
100
AcDbEntity
  8
002
 62
     3
370
    30
100
AcDbLine
 10
818.517699
 20
481.968677
 30
0.0
 11
805.018795
 21
501.78833
 31
0.0
  0
LINE
  5
519
330
1F
100
AcDbEntity
  8
002
 62
     3
370
    30
100
AcDbLine
 10
803.83267
 20
495.535903
 30
0.0
 11
818.517699
 21
473.974757
 31
0.0
  0
ARC
  5
51A
330
1F
100
AcDbEntity
  8
002
 62
     3
370
    30
100
AcDbCircle
 10
807.551696
 20
498.069049
 30
0.0
 40
4.500000220055554
100
AcDbArc
 50
34.258164
 51
214.258342
  0
LINE
  5
51B
330
1F
100
AcDbEntity
  8
002
 62
     3
370
    30
100
AcDbLine
 10
825.567688
 20
502.940534
 30
0.0
 11
826.467712
 21
502.940534
 31
0.0
  0
LINE
  5
51C
330
1F
100
AcDbEntity
  8
002
 62
     3
370
    30
100
AcDbLine
 10
825.567688
 20
502.140554
 30
0.0
 11
825.567688
 21
502.940534
 31
0.0
  0
LINE
  5
51D
330
1F
100
AcDbEntity
  8
002
 62
     3
370
    30
100
AcDbLine
 10
826.467712
 20
502.940534
 30
0.0
 11
826.467712
 21
502.140554
 31
0.0
  0
LINE
  5
51E
330
1F
100
AcDbEntity
  8
002
 62
     3
370
    30
100
AcDbLine
 10
826.467723
 20
502.140524
 30
0.0
 11
826.742236
 21
501.665054
 31
0.0
  0
LINE
  5
51F
330
1F
100
AcDbEntity
  8
002
 62
     3
370
    30
100
AcDbLine
 10
826.742223
 20
501.665054
 30
0.0
 11
827.217694
 21
501.390544
 31
0.0
  0
LINE
  5
520
330
1F
100
AcDbEntity
  8
002
 62
     3
370
    30
100
AcDbLine
 10
827.217682
 20
501.390554
 30
0.0
 11
828.0177
 21
501.390554
 31
0.0
  0
LINE
  5
521
330
1F
100
AcDbEntity
  8
002
 62
     3
370
    30
100
AcDbLine
 10
828.0177
 20
501.390554
 30
0.0
 11
828.0177
 21
500.490524
 31
0.0
  0
LINE
  5
522
330
1F
100
AcDbEntity
  8
002
 62
     3
370
    30
100
AcDbLine
 10
828.0177
 20
500.490524
 30
0.0
 11
827.217712
 21
500.490524
 31
0.0
  0
LINE
  5
523
330
1F
100
AcDbEntity
  8
002
 62
     3
370
    30
100
AcDbLine
 10
827.217683
 20
500.490524
 30
0.0
 11
826.742225
 21
500.216024
 31
0.0
  0
LINE
  5
524
330
1F
100
AcDbEntity
  8
002
 62
     3
370
    30
100
AcDbLine
 10
826.742216
 20
500.216024
 30
0.0
 11
826.46771
 21
499.740574
 31
0.0
  0
LINE
  5
525
330
1F
100
AcDbEntity
  8
002
 62
     3
370
    30
100
AcDbLine
 10
826.467712
 20
499.740524
 30
0.0
 11
826.467712
 21
498.940534
 31
0.0
  0
LINE
  5
526
330
1F
100
AcDbEntity
  8
002
 62
     3
370
    30
100
AcDbLine
 10
826.467712
 20
498.940534
 30
0.0
 11
825.567688
 21
498.940534
 31
0.0
  0
LINE
  5
527
330
1F
100
AcDbEntity
  8
002
 62
     3
370
    30
100
AcDbLine
 10
825.567688
 20
498.940534
 30
0.0
 11
825.567688
 21
499.740524
 31
0.0
  0
LINE
  5
528
330
1F
100
AcDbEntity
  8
002
 62
     3
370
    30
100
AcDbLine
 10
825.567706
 20
499.740544
 30
0.0
 11
825.293193
 21
500.216014
 31
0.0
  0
LINE
  5
529
330
1F
100
AcDbEntity
  8
002
 62
     3
370
    30
100
AcDbLine
 10
825.293187
 20
500.216014
 30
0.0
 11
824.817716
 21
500.490524
 31
0.0
  0
LINE
  5
52A
330
1F
100
AcDbEntity
  8
002
 62
     3
370
    30
100
AcDbLine
 10
824.817718
 20
500.490524
 30
0.0
 11
824.0177
 21
500.490524
 31
0.0
  0
LINE
  5
52B
330
1F
100
AcDbEntity
  8
002
 62
     3
370
    30
100
AcDbLine
 10
824.0177
 20
500.490524
 30
0.0
 11
824.0177
 21
501.390554
 31
0.0
  0
LINE
  5
52C
330
1F
100
AcDbEntity
  8
002
 62
     3
370
    30
100
AcDbLine
 10
824.0177
 20
501.390554
 30
0.0
 11
824.817718
 21
501.390554
 31
0.0
  0
LINE
  5
52D
330
1F
100
AcDbEntity
  8
002
 62
     3
370
    30
100
AcDbLine
 10
824.81777
 20
501.390584
 30
0.0
 11
825.293228
 21
501.665094
 31
0.0
  0
LINE
  5
52E
330
1F
100
AcDbEntity
  8
002
 62
     3
370
    30
100
AcDbLine
 10
825.293193
 20
501.665074
 30
0.0
 11
825.567699
 21
502.140524
 31
0.0
  0
CIRCLE
  5
52F
330
1F
100
AcDbEntity
  8
002
 62
     3
370
    30
100
AcDbCircle
 10
826.0177
 20
500.940534
 30
0.0
 40
3.499999
  0
CIRCLE
  5
530
330
1F
100
AcDbEntity
  8
002
 62
     3
370
    30
100
AcDbCircle
 10
826.0177
 20
440.940534
 30
0.0
 40
3.499999
  0
LINE
  5
531
330
1F
100
AcDbEntity
  8
002
 62
     3
370
    30
100
AcDbLine
 10
826.467712
 20
438.940534
 30
0.0
 11
825.567688
 21
438.940534
 31
0.0
  0
LINE
  5
532
330
1F
100
AcDbEntity
  8
002
 62
     3
370
    30
100
AcDbLine
 10
826.467712
 20
439.740514
 30
0.0
 11
826.467712
 21
438.940534
 31
0.0
  0
LINE
  5
533
330
1F
100
AcDbEntity
  8
002
 62
     3
370
    30
100
AcDbLine
 10
826.742226
 20
440.216054
 30
0.0
 11
826.46772
 21
439.740604
 31
0.0
  0
LINE
  5
534
330
1F
100
AcDbEntity
  8
002
 62
     3
370
    30
100
AcDbLine
 10
827.217622
 20
440.490494
 30
0.0
 11
826.742164
 21
440.215994
 31
0.0
  0
LINE
  5
535
330
1F
100
AcDbEntity
  8
002
 62
     3
370
    30
100
AcDbLine
 10
828.0177
 20
440.490514
 30
0.0
 11
827.217712
 21
440.490514
 31
0.0
  0
LINE
  5
536
330
1F
100
AcDbEntity
  8
002
 62
     3
370
    30
100
AcDbLine
 10
828.0177
 20
441.390544
 30
0.0
 11
828.0177
 21
440.490514
 31
0.0
  0
LINE
  5
537
330
1F
100
AcDbEntity
  8
002
 62
     3
370
    30
100
AcDbLine
 10
827.217682
 20
441.390544
 30
0.0
 11
828.0177
 21
441.390544
 31
0.0
  0
LINE
  5
538
330
1F
100
AcDbEntity
  8
002
 62
     3
370
    30
100
AcDbLine
 10
826.742198
 20
441.665034
 30
0.0
 11
827.217669
 21
441.390514
 31
0.0
  0
LINE
  5
539
330
1F
100
AcDbEntity
  8
002
 62
     3
370
    30
100
AcDbLine
 10
826.46771
 20
442.140504
 30
0.0
 11
826.74223
 21
441.665024
 31
0.0
  0
LINE
  5
53A
330
1F
100
AcDbEntity
  8
002
 62
     3
370
    30
100
AcDbLine
 10
826.467712
 20
442.940534
 30
0.0
 11
826.467712
 21
442.140544
 31
0.0
  0
LINE
  5
53B
330
1F
100
AcDbEntity
  8
002
 62
     3
370
    30
100
AcDbLine
 10
825.567688
 20
442.940534
 30
0.0
 11
826.467712
 21
442.940534
 31
0.0
  0
LINE
  5
53C
330
1F
100
AcDbEntity
  8
002
 62
     3
370
    30
100
AcDbLine
 10
825.567688
 20
442.140544
 30
0.0
 11
825.567688
 21
442.940534
 31
0.0
  0
LINE
  5
53D
330
1F
100
AcDbEntity
  8
002
 62
     3
370
    30
100
AcDbLine
 10
825.293194
 20
441.665034
 30
0.0
 11
825.5677
 21
442.140494
 31
0.0
  0
LINE
  5
53E
330
1F
100
AcDbEntity
  8
002
 62
     3
370
    30
100
AcDbLine
 10
824.817722
 20
441.390534
 30
0.0
 11
825.29318
 21
441.665034
 31
0.0
  0
LINE
  5
53F
330
1F
100
AcDbEntity
  8
002
 62
     3
370
    30
100
AcDbLine
 10
824.0177
 20
441.390544
 30
0.0
 11
824.817718
 21
441.390544
 31
0.0
  0
LINE
  5
540
330
1F
100
AcDbEntity
  8
002
 62
     3
370
    30
100
AcDbLine
 10
824.0177
 20
440.490514
 30
0.0
 11
824.0177
 21
441.390544
 31
0.0
  0
LINE
  5
541
330
1F
100
AcDbEntity
  8
002
 62
     3
370
    30
100
AcDbLine
 10
824.817718
 20
440.490514
 30
0.0
 11
824.0177
 21
440.490514
 31
0.0
  0
LINE
  5
542
330
1F
100
AcDbEntity
  8
002
 62
     3
370
    30
100
AcDbLine
 10
825.293208
 20
440.216034
 30
0.0
 11
824.817737
 21
440.490544
 31
0.0
  0
LINE
  5
543
330
1F
100
AcDbEntity
  8
002
 62
     3
370
    30
100
AcDbLine
 10
825.567695
 20
439.740524
 30
0.0
 11
825.293174
 21
440.216004
 31
0.0
  0
LINE
  5
544
330
1F
100
AcDbEntity
  8
002
 62
     3
370
    30
100
AcDbLine
 10
825.567688
 20
438.940534
 30
0.0
 11
825.567688
 21
439.740514
 31
0.0
  0
LINE
  5
545
330
1F
100
AcDbEntity
  8
002
 62
     3
370
    30
100
AcDbLine
 10
876.01768
 20
513.940504
 30
0.0
 11
776.01769
 21
513.940504
 31
0.0
  0
LINE
  5
546
330
1F
100
AcDbEntity
  8
002
 62
     3
370
    30
100
AcDbLine
 10
820.517944
 20
434.940534
 30
0.0
 11
831.5177
 21
434.940534
 31
0.0
  0
LINE
  5
547
330
1F
100
AcDbEntity
  8
002
 62
     3
370
    30
100
AcDbLine
 10
812.94066
 20
434.940174
 30
0.0
 11
813.94066
 21
433.940164
 31
0.0
  0
LINE
  5
548
330
1F
100
AcDbEntity
  8
002
 62
     3
370
    30
100
AcDbLine
 10
812.94098
 20
482.162719
 30
0.0
 11
812.94098
 21
434.940534
 31
0.0
  0
LINE
  5
549
330
1F
100
AcDbEntity
  8
002
 62
     3
370
    30
100
AcDbLine
 10
839.09439
 20
443.730683
 30
0.0
 11
839.09439
 21
434.940534
 31
0.0
  0
LINE
  5
54A
330
1F
100
AcDbEntity
  8
002
 62
     3
370
    30
100
AcDbLine
 10
839.09433
 20
434.940494
 30
0.0
 11
838.09409
 21
433.940254
 31
0.0
  0
LINE
  5
54B
330
1F
100
AcDbEntity
  8
002
 62
     3
370
    30
100
AcDbLine
 10
856.01767
 20
421.940514
 30
0.0
 11
856.01767
 21
513.940504
 31
0.0
  0
ARC
  5
54C
330
1F
100
AcDbEntity
  8
002
 62
     3
370
    30
100
AcDbCircle
 10
820.517944
 20
436.940534
 30
0.0
 40
2.0
100
AcDbArc
 50
180.0
 51
270.0
  0
ARC
  5
54D
330
1F
100
AcDbEntity
  8
002
 62
     3
370
    30
100
AcDbCircle
 10
831.5177
 20
436.940534
 30
0.0
 40
2.0
100
AcDbArc
 50
270.0
 51
0.0
  0
LINE
  5
54E
330
1F
100
AcDbEntity
  8
002
 62
     3
370
    30
100
AcDbLine
 10
856.01767
 20
421.940514
 30
0.0
 11
796.0177
 21
421.940514
 31
0.0
  0
LINE
  5
54F
330
1F
100
AcDbEntity
  8
002
 62
     3
370
    30
100
AcDbLine
 10
796.0177
 20
421.940514
 30
0.0
 11
796.0177
 21
513.940504
 31
0.0
  0
LINE
  5
550
330
1F
100
AcDbEntity
  8
002
 62
     3
370
    30
100
AcDbLine
 10
876.01768
 20
531.940514
 30
0.0
 11
776.01769
 21
531.940514
 31
0.0
  0
LINE
  5
551
330
1F
100
AcDbEntity
  8
002
 62
     3
370
    30
100
AcDbLine
 10
876.01768
 20
513.940504
 30
0.0
 11
876.01768
 21
531.940514
 31
0.0
  0
LINE
  5
552
330
1F
100
AcDbEntity
  8
002
 62
     3
370
    30
100
AcDbLine
 10
776.01769
 20
513.940504
 30
0.0
 11
776.01769
 21
531.940514
 31
0.0
  0
LINE
  5
553
330
1F
100
AcDbEntity
  8
002
 62
     3
370
    30
100
AcDbLine
 10
838.09409
 20
433.940254
 30
0.0
 11
813.94057
 21
433.940254
 31
0.0
  0
LINE
  5
554
330
1F
100
AcDbEntity
  8
002
 62
     3
370
    30
100
AcDbLine
 10
808.026257
 20
635.624029
 30
0.0
 11
808.026257
 21
531.940514
 31
0.0
  0
LINE
  5
555
330
1F
100
AcDbEntity
  8
002
 62
     3
370
    30
100
AcDbLine
 10
844.026157
 20
531.940514
 30
0.0
 11
844.026157
 21
635.624029
 31
0.0
  0
LINE
  5
556
330
1F
100
AcDbEntity
  8
002
 62
    40
370
     9
100
AcDbLine
 10
841.926257
 20
635.624029
 30
0.0
 11
841.926257
 21
531.940514
 31
0.0
  0
LINE
  5
557
330
1F
100
AcDbEntity
  8
002
 62
    40
370
     9
100
AcDbLine
 10
810.126257
 20
531.940514
 30
0.0
 11
810.126257
 21
635.624029
 31
0.0
  0
LINE
  5
558
330
1F
100
AcDbEntity
  8
002
 62
     3
370
    30
100
AcDbLine
 10
746.026157
 20
203.123929
 30
0.0
 11
746.026157
 21
220.123929
 31
0.0
  0
LINE
  5
559
330
1F
100
AcDbEntity
  8
002
 62
     3
370
    30
100
AcDbLine
 10
746.026157
 20
220.123929
 30
0.0
 11
757.026157
 21
220.123929
 31
0.0
  0
LINE
  5
55A
330
1F
100
AcDbEntity
  8
002
 62
     3
370
    30
100
AcDbLine
 10
757.026157
 20
225.077829
 30
0.0
 11
757.026157
 21
198.169929
 31
0.0
  0
LINE
  5
55B
330
1F
100
AcDbEntity
  8
002
 62
     3
370
    30
100
AcDbLine
 10
757.026157
 20
198.169929
 30
0.0
 11
765.026157
 21
198.419929
 31
0.0
  0
LINE
  5
55C
330
1F
100
AcDbEntity
  8
002
 62
     3
370
    30
100
AcDbLine
 10
757.026157
 20
203.123929
 30
0.0
 11
746.026157
 21
203.123929
 31
0.0
  0
LINE
  5
55D
330
1F
100
AcDbEntity
  8
002
 62
     3
370
    30
100
AcDbLine
 10
757.026157
 20
225.077829
 30
0.0
 11
765.026157
 21
224.827829
 31
0.0
  0
LINE
  5
55E
330
1F
100
AcDbEntity
  8
002
 62
     3
370
    30
100
AcDbLine
 10
765.026157
 20
243.623929
 30
0.0
 11
791.026157
 21
243.623929
 31
0.0
  0
LINE
  5
55F
330
1F
100
AcDbEntity
  8
002
 62
     3
370
    30
100
AcDbLine
 10
796.026157
 20
242.623929
 30
0.0
 11
796.026157
 21
173.623929
 31
0.0
  0
LINE
  5
560
330
1F
100
AcDbEntity
  8
002
 62
     3
370
    30
100
AcDbLine
 10
791.026157
 20
168.623929
 30
0.0
 11
752.026157
 21
168.623929
 31
0.0
  0
ARC
  5
561
330
1F
100
AcDbEntity
  8
002
 62
     3
370
    30
100
AcDbCircle
 10
752.026157
 20
166.623929
 30
0.0
 40
2.0
100
AcDbArc
 50
90.0
 51
180.0
  0
LINE
  5
562
330
1F
100
AcDbEntity
  8
002
 62
     3
370
    30
100
AcDbLine
 10
750.026157
 20
166.623929
 30
0.0
 11
750.026157
 21
155.623929
 31
0.0
  0
LINE
  5
563
330
1F
100
AcDbEntity
  8
002
 62
     3
370
    30
100
AcDbLine
 10
750.026157
 20
155.623929
 30
0.0
 11
955.026157
 21
155.623929
 31
0.0
  0
LINE
  5
564
330
1F
100
AcDbEntity
  8
002
 62
     3
370
    30
100
AcDbLine
 10
955.026157
 20
155.623929
 30
0.0
 11
955.026157
 21
166.623929
 31
0.0
  0
ARC
  5
565
330
1F
100
AcDbEntity
  8
002
 62
     3
370
    30
100
AcDbCircle
 10
953.026157
 20
166.623929
 30
0.0
 40
2.0
100
AcDbArc
 50
0.0
 51
90.0
  0
LINE
  5
566
330
1F
100
AcDbEntity
  8
002
 62
     3
370
    30
100
AcDbLine
 10
953.026157
 20
168.623929
 30
0.0
 11
923.026157
 21
168.623929
 31
0.0
  0
LINE
  5
567
330
1F
100
AcDbEntity
  8
002
 62
     3
370
    30
100
AcDbLine
 10
918.026157
 20
173.623929
 30
0.0
 11
918.026157
 21
236.623929
 31
0.0
  0
ARC
  5
568
330
1F
100
AcDbEntity
  8
002
 62
     3
370
    30
100
AcDbCircle
 10
907.026157
 20
236.623929
 30
0.0
 40
11.0
100
AcDbArc
 50
0.0
 51
90.0
  0
LINE
  5
569
330
1F
100
AcDbEntity
  8
002
 62
     3
370
    30
100
AcDbLine
 10
907.026157
 20
247.623929
 30
0.0
 11
801.026157
 21
247.623929
 31
0.0
  0
ARC
  5
56A
330
1F
100
AcDbEntity
  8
002
 62
     3
370
    30
100
AcDbCircle
 10
801.026157
 20
242.623929
 30
0.0
 40
5.0
100
AcDbArc
 50
90.0
 51
180.0
  0
ARC
  5
56B
330
1F
100
AcDbEntity
  8
002
 62
     3
370
    30
100
AcDbCircle
 10
791.026157
 20
238.623929
 30
0.0
 40
5.0
100
AcDbArc
 50
0.0
 51
90.0
  0
LINE
  5
56C
330
1F
100
AcDbEntity
  8
002
 62
     3
370
    30
100
AcDbLine
 10
779.847057
 20
238.623929
 30
0.0
 11
779.847057
 21
173.623929
 31
0.0
  0
LINE
  5
56D
330
1F
100
AcDbEntity
  8
002
 62
     3
370
    30
100
AcDbLine
 10
783.254957
 20
168.623929
 30
0.0
 11
783.254957
 21
155.623929
 31
0.0
  0
LINE
  5
56E
330
1F
100
AcDbEntity
  8
002
 62
     3
370
    30
100
AcDbLine
 10
781.026157
 20
155.623929
 30
0.0
 11
781.026157
 21
149.623929
 31
0.0
  0
LINE
  5
56F
330
1F
100
AcDbEntity
  8
002
 62
     3
370
    30
100
AcDbLine
 10
781.026157
 20
149.623929
 30
0.0
 11
871.026157
 21
149.623929
 31
0.0
  0
LINE
  5
570
330
1F
100
AcDbEntity
  8
002
 62
     3
370
    30
100
AcDbLine
 10
871.026157
 20
149.623929
 30
0.0
 11
871.026157
 21
155.623929
 31
0.0
  0
LINE
  5
571
330
1F
100
AcDbEntity
  8
002
 62
     3
370
    30
100
AcDbLine
 10
869.526157
 20
149.623929
 30
0.0
 11
869.526157
 21
143.623929
 31
0.0
  0
LINE
  5
572
330
1F
100
AcDbEntity
  8
002
 62
     3
370
    30
100
AcDbLine
 10
859.526157
 20
143.623929
 30
0.0
 11
859.526157
 21
149.623929
 31
0.0
  0
LINE
  5
573
330
1F
100
AcDbEntity
  8
002
 62
     3
370
    30
100
AcDbLine
 10
856.276157
 20
149.623929
 30
0.0
 11
856.276157
 21
95.623929
 31
0.0
  0
LINE
  5
574
330
1F
100
AcDbEntity
  8
002
 62
     3
370
    30
100
AcDbLine
 10
856.276157
 20
95.623929
 30
0.0
 11
795.776157
 21
95.623929
 31
0.0
  0
LINE
  5
575
330
1F
100
AcDbEntity
  8
002
 62
     3
370
    30
100
AcDbLine
 10
795.776157
 20
95.623929
 30
0.0
 11
795.776157
 21
149.623929
 31
0.0
  0
LINE
  5
576
330
1F
100
AcDbEntity
  8
002
 62
     3
370
    30
100
AcDbLine
 10
792.526157
 20
149.623929
 30
0.0
 11
792.526157
 21
143.623929
 31
0.0
  0
LINE
  5
577
330
1F
100
AcDbEntity
  8
002
 62
     3
370
    30
100
AcDbLine
 10
782.526157
 20
143.623929
 30
0.0
 11
782.526157
 21
149.623929
 31
0.0
  0
LINE
  5
578
330
1F
100
AcDbEntity
  8
002
 62
     3
370
    30
100
AcDbLine
 10
782.526157
 20
143.623929
 30
0.0
 11
792.526157
 21
143.623929
 31
0.0
  0
ARC
  5
579
330
1F
100
AcDbEntity
  8
002
 62
     3
370
    30
100
AcDbCircle
 10
791.026157
 20
173.623929
 30
0.0
 40
5.0
100
AcDbArc
 50
270.0
 51
0.0
  0
ARC
  5
57A
330
1F
100
AcDbEntity
  8
002
 62
     3
370
    30
100
AcDbCircle
 10
774.847057
 20
173.623929
 30
0.0
 40
5.0
100
AcDbArc
 50
270.0
 51
0.0
  0
LINE
  5
57B
330
1F
100
AcDbEntity
  8
002
 62
     3
370
    30
100
AcDbLine
 10
765.026157
 20
173.623929
 30
0.0
 11
765.026157
 21
255.623929
 31
0.0
  0
LINE
  5
57C
330
1F
100
AcDbEntity
  8
002
 62
     3
370
    30
100
AcDbLine
 10
756.026157
 20
255.623929
 30
0.0
 11
896.026157
 21
255.623929
 31
0.0
  0
LINE
  5
57D
330
1F
100
AcDbEntity
  8
002
 62
     3
370
    30
100
AcDbLine
 10
896.026157
 20
252.623929
 30
0.0
 11
896.026157
 21
267.623929
 31
0.0
  0
LINE
  5
57E
330
1F
100
AcDbEntity
  8
002
 62
     3
370
    30
100
AcDbLine
 10
896.026157
 20
267.623929
 30
0.0
 11
756.026157
 21
267.623929
 31
0.0
  0
LINE
  5
57F
330
1F
100
AcDbEntity
  8
002
 62
     3
370
    30
100
AcDbLine
 10
756.026157
 20
267.623929
 30
0.0
 11
756.026157
 21
255.623929
 31
0.0
  0
LINE
  5
580
330
1F
100
AcDbEntity
  8
002
 62
     3
370
    30
100
AcDbLine
 10
766.930657
 20
267.623929
 30
0.0
 11
766.930657
 21
277.623929
 31
0.0
  0
LINE
  5
581
330
1F
100
AcDbEntity
  8
002
 62
     3
370
    30
100
AcDbLine
 10
782.930657
 20
277.623929
 30
0.0
 11
782.930657
 21
267.623929
 31
0.0
  0
LINE
  5
582
330
1F
100
AcDbEntity
  8
002
 62
     3
370
    30
100
AcDbLine
 10
782.930657
 20
270.154729
 30
0.0
 11
818.026157
 21
270.154729
 31
0.0
  0
LINE
  5
583
330
1F
100
AcDbEntity
  8
002
 62
     3
370
    30
100
AcDbLine
 10
818.026157
 20
267.623929
 30
0.0
 11
818.026157
 21
277.623929
 31
0.0
  0
LINE
  5
584
330
1F
100
AcDbEntity
  8
002
 62
     3
370
    30
100
AcDbLine
 10
834.026157
 20
277.623929
 30
0.0
 11
834.026157
 21
267.623929
 31
0.0
  0
LINE
  5
585
330
1F
100
AcDbEntity
  8
002
 62
     3
370
    30
100
AcDbLine
 10
834.026157
 20
270.154729
 30
0.0
 11
869.121657
 21
270.154729
 31
0.0
  0
LINE
  5
586
330
1F
100
AcDbEntity
  8
002
 62
     3
370
    30
100
AcDbLine
 10
869.121657
 20
267.623929
 30
0.0
 11
869.121657
 21
277.623929
 31
0.0
  0
LINE
  5
587
330
1F
100
AcDbEntity
  8
002
 62
     3
370
    30
100
AcDbLine
 10
885.121657
 20
277.623929
 30
0.0
 11
869.121657
 21
277.623929
 31
0.0
  0
LINE
  5
588
330
1F
100
AcDbEntity
  8
002
 62
     3
370
    30
100
AcDbLine
 10
871.276157
 20
277.623929
 30
0.0
 11
871.026157
 21
280.623929
 31
0.0
  0
LINE
  5
589
330
1F
100
AcDbEntity
  8
002
 62
     3
370
    30
100
AcDbLine
 10
871.026157
 20
280.623929
 30
0.0
 11
781.026157
 21
280.623929
 31
0.0
  0
LINE
  5
58A
330
1F
100
AcDbEntity
  8
002
 62
     3
370
    30
100
AcDbLine
 10
781.026157
 20
280.623929
 30
0.0
 11
780.776157
 21
277.623929
 31
0.0
  0
LINE
  5
58B
330
1F
100
AcDbEntity
  8
002
 62
     3
370
    30
100
AcDbLine
 10
782.930657
 20
277.623929
 30
0.0
 11
766.930657
 21
277.623929
 31
0.0
  0
LINE
  5
58C
330
1F
100
AcDbEntity
  8
002
 62
     3
370
    30
100
AcDbLine
 10
803.526157
 20
280.623929
 30
0.0
 11
803.526157
 21
282.623929
 31
0.0
  0
LINE
  5
58D
330
1F
100
AcDbEntity
  8
002
 62
     3
370
    30
100
AcDbLine
 10
803.526157
 20
282.623929
 30
0.0
 11
848.526157
 21
282.623929
 31
0.0
  0
LINE
  5
58E
330
1F
100
AcDbEntity
  8
002
 62
     3
370
    30
100
AcDbLine
 10
848.526157
 20
282.623929
 30
0.0
 11
848.526157
 21
280.623929
 31
0.0
  0
LINE
  5
58F
330
1F
100
AcDbEntity
  8
002
 62
     3
370
    30
100
AcDbLine
 10
818.026157
 20
277.623929
 30
0.0
 11
834.026157
 21
277.623929
 31
0.0
  0
ARC
  5
590
330
1F
100
AcDbEntity
  8
002
 62
     3
370
    30
100
AcDbCircle
 10
857.026157
 20
236.623929
 30
0.0
 40
11.0
100
AcDbArc
 50
90.0
 51
180.0
  0
LINE
  5
591
330
1F
100
AcDbEntity
  8
002
 62
     3
370
    30
100
AcDbLine
 10
846.026157
 20
236.623929
 30
0.0
 11
846.026157
 21
186.623929
 31
0.0
  0
ARC
  5
592
330
1F
100
AcDbEntity
  8
002
 62
     3
370
    30
100
AcDbCircle
 10
857.026157
 20
186.623929
 30
0.0
 40
11.0
100
AcDbArc
 50
180.0
 51
270.0
  0
LINE
  5
593
330
1F
100
AcDbEntity
  8
002
 62
     3
370
    30
100
AcDbLine
 10
857.026157
 20
175.623929
 30
0.0
 11
907.026157
 21
175.623929
 31
0.0
  0
ARC
  5
594
330
1F
100
AcDbEntity
  8
002
 62
     3
370
    30
100
AcDbCircle
 10
907.026157
 20
186.623929
 30
0.0
 40
11.0
100
AcDbArc
 50
270.0
 51
0.0
  0
ARC
  5
595
330
1F
100
AcDbEntity
  8
002
 62
     3
370
    30
100
AcDbCircle
 10
923.026157
 20
173.623929
 30
0.0
 40
5.0
100
AcDbArc
 50
180.0
 51
270.0
  0
ARC
  5
596
330
1F
100
AcDbEntity
  8
002
 62
     3
370
    30
100
AcDbCircle
 10
954.205457
 20
173.623929
 30
0.0
 40
5.0
100
AcDbArc
 50
205.099758
 51
270.0
  0
LINE
  5
597
330
1F
100
AcDbEntity
  8
002
 62
     3
370
    30
100
AcDbLine
 10
949.677557
 20
171.502929
 30
0.0
 11
916.987457
 21
241.290029
 31
0.0
  0
ARC
  5
598
330
1F
100
AcDbEntity
  8
002
 62
     3
370
    30
100
AcDbCircle
 10
924.211157
 20
230.583729
 30
0.0
 40
2.000056999187747
100
AcDbArc
 50
205.100487
 51
295.099272
  0
LINE
  5
599
330
1F
100
AcDbEntity
  8
002
 62
     3
370
    30
100
AcDbLine
 10
925.059557
 20
228.772529
 30
0.0
 11
940.330457
 21
196.171929
 31
0.0
  0
ARC
  5
59A
330
1F
100
AcDbEntity
  8
002
 62
     3
370
    30
100
AcDbCircle
 10
941.178857
 20
194.360829
 30
0.0
 40
1.999966442218477
100
AcDbArc
 50
115.100487
 51
205.100487
  0
LINE
  5
59B
330
1F
100
AcDbEntity
  8
002
 62
     3
370
    30
100
AcDbLine
 10
828.912957
 20
216.623929
 30
0.0
 11
831.799657
 21
211.623929
 31
0.0
  0
LINE
  5
59C
330
1F
100
AcDbEntity
  8
002
 62
     3
370
    30
100
AcDbLine
 10
831.799657
 20
211.623929
 30
0.0
 11
828.912957
 21
206.623929
 31
0.0
  0
LINE
  5
59D
330
1F
100
AcDbEntity
  8
002
 62
     3
370
    30
100
AcDbLine
 10
828.912957
 20
206.623929
 30
0.0
 11
823.139457
 21
206.623929
 31
0.0
  0
LINE
  5
59E
330
1F
100
AcDbEntity
  8
002
 62
     3
370
    30
100
AcDbLine
 10
823.139457
 20
206.623929
 30
0.0
 11
820.252657
 21
211.623929
 31
0.0
  0
LINE
  5
59F
330
1F
100
AcDbEntity
  8
002
 62
     3
370
    30
100
AcDbLine
 10
820.252657
 20
211.623929
 30
0.0
 11
823.139457
 21
216.623929
 31
0.0
  0
LINE
  5
5A0
330
1F
100
AcDbEntity
  8
002
 62
     3
370
    30
100
AcDbLine
 10
823.139457
 20
216.623929
 30
0.0
 11
828.912957
 21
216.623929
 31
0.0
  0
CIRCLE
  5
5A1
330
1F
100
AcDbEntity
  8
002
 62
     3
370
    30
100
AcDbCircle
 10
826.026157
 20
211.623929
 30
0.0
 40
3.25
  0
CIRCLE
  5
5A2
330
1F
100
AcDbEntity
  8
002
 62
     3
370
    30
100
AcDbCircle
 10
826.026157
 20
211.623929
 30
0.0
 40
2.5
  0
CIRCLE
  5
5A3
330
1F
100
AcDbEntity
  8
002
 62
     3
370
    30
100
AcDbCircle
 10
826.026157
 20
211.623929
 30
0.0
 40
0.75
  0
CIRCLE
  5
5A4
330
1F
100
AcDbEntity
  8
002
 62
     3
370
    30
100
AcDbCircle
 10
826.026157
 20
211.623929
 30
0.0
 40
5.0
  0
LINE
  5
5A5
330
1F
100
AcDbEntity
  8
002
 62
     3
370
    30
100
AcDbLine
 10
859.526157
 20
143.623929
 30
0.0
 11
869.526157
 21
143.623929
 31
0.0
  0
LINE
  5
5A6
330
1F
100
AcDbEntity
  8
002
 62
     3
370
    30
100
AcDbLine
 10
831.026157
 20
143.623929
 30
0.0
 11
831.026157
 21
149.623929
 31
0.0
  0
LINE
  5
5A7
330
1F
100
AcDbEntity
  8
002
 62
     3
370
    30
100
AcDbLine
 10
821.026157
 20
143.623929
 30
0.0
 11
821.026157
 21
149.623929
 31
0.0
  0
LINE
  5
5A8
330
1F
100
AcDbEntity
  8
002
 62
     3
370
    30
100
AcDbLine
 10
821.026157
 20
143.623929
 30
0.0
 11
831.026157
 21
143.623929
 31
0.0
  0
ARC
  5
5A9
330
1F
100
AcDbEntity
  8
002
 62
     3
370
    30
100
AcDbCircle
 10
760.026157
 20
173.623929
 30
0.0
 40
5.0
100
AcDbArc
 50
270.0
 51
0.0
  0
ARC
  5
5AA
330
1F
100
AcDbEntity
  8
002
 62
     3
370
    30
100
AcDbCircle
 10
774.847057
 20
238.623929
 30
0.0
 40
5.0
100
AcDbArc
 50
0.0
 51
90.0
  0
LINE
  5
5AB
330
1F
100
AcDbEntity
  8
002
 62
     3
370
    30
100
AcDbLine
 10
885.121657
 20
267.623929
 30
0.0
 11
885.121657
 21
277.623929
 31
0.0
  0
ARC
  5
5AC
330
1F
100
AcDbEntity
  8
002
 62
     3
370
    30
100
AcDbCircle
 10
901.026157
 20
252.623929
 30
0.0
 40
5.0
100
AcDbArc
 50
180.0
 51
270.0
  0
LINE
  5
5AD
330
1F
100
AcDbEntity
  8
002
  6
CENTER
 62
    40
370
     9
100
AcDbLine
 10
770.026157
 20
147.905329
 30
0.0
 11
770.026157
 21
175.623929
 31
0.0
  0
LINE
  5
5AE
330
1F
100
AcDbEntity
  8
002
  6
CENTER
 62
    40
370
     9
100
AcDbLine
 10
787.526157
 20
155.623929
 30
0.0
 11
787.526157
 21
140.572729
 31
0.0
  0
LINE
  5
5AF
330
1F
100
AcDbEntity
  8
002
 62
    40
370
     9
100
AcDbLine
 10
765.026157
 20
199.565429
 30
0.0
 11
757.026157
 21
199.315429
 31
0.0
  0
LINE
  5
5B0
330
1F
100
AcDbEntity
  8
002
 62
    40
370
     9
100
AcDbLine
 10
757.026157
 20
203.123929
 30
0.0
 11
746.026157
 21
220.123929
 31
0.0
  0
LINE
  5
5B1
330
1F
100
AcDbEntity
  8
002
  6
CENTER
 62
    40
370
     9
100
AcDbLine
 10
742.582557
 20
211.623929
 30
0.0
 11
942.808357
 21
211.623929
 31
0.0
  0
LINE
  5
5B2
330
1F
100
AcDbEntity
  8
002
  6
CENTER
 62
    40
370
     9
100
AcDbLine
 10
935.026157
 20
147.905329
 30
0.0
 11
935.026157
 21
175.623929
 31
0.0
  0
LINE
  5
5B3
330
1F
100
AcDbEntity
  8
002
  6
CENTER
 62
    40
370
     9
100
AcDbLine
 10
882.026157
 20
147.449429
 30
0.0
 11
882.026157
 21
260.494729
 31
0.0
  0
LINE
  5
5B4
330
1F
100
AcDbEntity
  8
002
  6
CENTER
 62
    40
370
     9
100
AcDbLine
 10
877.121657
 20
253.301829
 30
0.0
 11
877.121657
 21
279.824029
 31
0.0
  0
LINE
  5
5B5
330
1F
100
AcDbEntity
  8
002
  6
CENTER
 62
    40
370
     9
100
AcDbLine
 10
774.930657
 20
279.824029
 30
0.0
 11
774.930657
 21
253.301829
 31
0.0
  0
LINE
  5
5B6
330
1F
100
AcDbEntity
  8
002
 62
    40
370
     9
100
AcDbLine
 10
765.026157
 20
223.682429
 30
0.0
 11
757.026157
 21
223.932429
 31
0.0
  0
LINE
  5
5B7
330
1F
100
AcDbEntity
  8
002
 62
    40
370
     9
100
AcDbLine
 10
757.026157
 20
220.123929
 30
0.0
 11
746.026157
 21
203.123929
 31
0.0
  0
LINE
  5
5B8
330
1F
100
AcDbEntity
  8
002
  6
CENTER
 62
    40
370
     9
100
AcDbLine
 10
864.526157
 20
155.623929
 30
0.0
 11
864.526157
 21
140.572729
 31
0.0
  0
LINE
  5
5B9
330
1F
100
AcDbEntity
  8
002
 62
     3
370
    30
100
AcDbLine
 10
844.026157
 20
635.624029
 30
0.0
 11
808.026257
 21
635.624029
 31
0.0
  0
LINE
  5
5BA
330
1F
100
AcDbEntity
  8
002
 62
     3
370
    30
100
AcDbLine
 10
838.526157
 20
635.624029
 30
0.0
 11
838.526157
 21
680.623929
 31
0.0
  0
LINE
  5
5BB
330
1F
100
AcDbEntity
  8
002
 62
     3
370
    30
100
AcDbLine
 10
838.526157
 20
680.623929
 30
0.0
 11
813.526257
 21
680.623929
 31
0.0
  0
LINE
  5
5BC
330
1F
100
AcDbEntity
  8
002
 62
     3
370
    30
100
AcDbLine
 10
813.526257
 20
680.623929
 30
0.0
 11
813.526257
 21
635.624029
 31
0.0
  0
LINE
  5
5BD
330
1F
100
AcDbEntity
  8
002
  6
HIDDEN
 62
    40
370
     9
100
AcDbLine
 10
926.026157
 20
168.623929
 30
0.0
 11
926.026157
 21
155.623929
 31
0.0
  0
LINE
  5
5BE
330
1F
100
AcDbEntity
  8
002
  6
HIDDEN
 62
    40
370
     9
100
AcDbLine
 10
944.026157
 20
168.623929
 30
0.0
 11
944.026157
 21
155.623929
 31
0.0
  0
LINE
  5
5BF
330
1F
100
AcDbEntity
  8
002
  6
HIDDEN
 62
    40
370
     9
100
AcDbLine
 10
779.026157
 20
155.623929
 30
0.0
 11
779.026157
 21
168.623929
 31
0.0
  0
LINE
  5
5C0
330
1F
100
AcDbEntity
  8
002
  6
HIDDEN
 62
    40
370
     9
100
AcDbLine
 10
761.026157
 20
168.623929
 30
0.0
 11
761.026157
 21
155.623929
 31
0.0
  0
CIRCLE
  5
5C1
330
1F
100
AcDbEntity
  8
002
 62
     3
370
    30
100
AcDbCircle
 10
882.026157
 20
211.623929
 30
0.0
 40
19.0
  0
LINE
  5
5C2
330
1F
100
AcDbEntity
  8
002
 62
     3
370
    30
100
AcDbLine
 10
885.026157
 20
218.123873
 30
0.0
 11
879.026157
 21
218.123873
 31
0.0
  0
LINE
  5
5C3
330
1F
100
AcDbEntity
  8
002
 62
     3
370
    30
100
AcDbLine
 10
879.026157
 20
224.123873
 30
0.0
 11
885.026157
 21
224.123873
 31
0.0
  0
LINE
  5
5C4
330
1F
100
AcDbEntity
  8
002
 62
     3
370
    30
100
AcDbLine
 10
885.026157
 20
224.123873
 30
0.0
 11
885.026157
 21
218.123873
 31
0.0
  0
LINE
  5
5C5
330
1F
100
AcDbEntity
  8
002
 62
     3
370
    30
100
AcDbLine
 10
879.026157
 20
224.123873
 30
0.0
 11
879.026157
 21
218.123873
 31
0.0
  0
ARC
  5
5C6
330
1F
100
AcDbEntity
  8
002
 62
     3
370
    30
100
AcDbCircle
 10
882.026157
 20
211.623929
 30
0.0
 40
9.999943487840238
100
AcDbArc
 50
107.457705
 51
72.542295
  0
ARC
  5
5C7
330
1F
100
AcDbEntity
  8
002
 62
     3
370
    30
100
AcDbCircle
 10
882.026157
 20
211.623929
 30
0.0
 40
10.9999584731034
100
AcDbArc
 50
105.826681
 51
74.173319
  0
LINE
  5
5C8
330
1F
100
AcDbEntity
  8
002
 62
     3
370
    30
100
AcDbLine
 10
1393.108699
 20
445.464435
 30
0.0
 11
1348.108699
 21
445.464435
 31
0.0
  0
LINE
  5
5C9
330
1F
100
AcDbEntity
  8
002
 62
     3
370
    30
100
AcDbLine
 10
1348.108699
 20
445.464435
 30
0.0
 11
1348.108699
 21
460.464435
 31
0.0
  0
LINE
  5
5CA
330
1F
100
AcDbEntity
  8
002
 62
     3
370
    30
100
AcDbLine
 10
1393.108699
 20
445.464435
 30
0.0
 11
1393.108699
 21
460.464435
 31
0.0
  0
LINE
  5
5CB
330
1F
100
AcDbEntity
  8
002
 62
     3
370
    30
100
AcDbLine
 10
1401.608699
 20
480.464435
 30
0.0
 11
1451.608699
 21
480.464435
 31
0.0
  0
ARC
  5
5CC
330
1F
100
AcDbEntity
  8
002
 62
     3
370
    30
100
AcDbCircle
 10
1451.608699
 20
491.464435
 30
0.0
 40
11.0
100
AcDbArc
 50
270.0
 51
0.0
  0
LINE
  5
5CD
330
1F
100
AcDbEntity
  8
002
 62
     3
370
    30
100
AcDbLine
 10
1462.608699
 20
478.464435
 30
0.0
 11
1462.608699
 21
541.464435
 31
0.0
  0
LINE
  5
5CE
330
1F
100
AcDbEntity
  8
002
 62
     3
370
    30
100
AcDbLine
 10
1461.569699
 20
546.130635
 30
0.0
 11
1494.259699
 21
476.343535
 31
0.0
  0
LINE
  5
5CF
330
1F
100
AcDbEntity
  8
002
 62
     3
370
    30
100
AcDbLine
 10
1497.608699
 20
473.464435
 30
0.0
 11
1296.608699
 21
473.464435
 31
0.0
  0
LINE
  5
5D0
330
1F
100
AcDbEntity
  8
002
 62
     3
370
    30
100
AcDbLine
 10
1294.608699
 20
471.464435
 30
0.0
 11
1294.608699
 21
460.464435
 31
0.0
  0
LINE
  5
5D1
330
1F
100
AcDbEntity
  8
002
 62
     3
370
    30
100
AcDbLine
 10
1294.608699
 20
460.464435
 30
0.0
 11
1499.608699
 21
460.464435
 31
0.0
  0
LINE
  5
5D2
330
1F
100
AcDbEntity
  8
002
 62
     3
370
    30
100
AcDbLine
 10
1499.608699
 20
460.464435
 30
0.0
 11
1499.608699
 21
471.464435
 31
0.0
  0
ARC
  5
5D3
330
1F
100
AcDbEntity
  8
002
 62
     3
370
    30
100
AcDbCircle
 10
1498.787699
 20
478.464435
 30
0.0
 40
5.00010007999842
100
AcDbArc
 50
205.098234
 51
270.0
  0
ARC
  5
5D4
330
1F
100
AcDbEntity
  8
002
 62
     3
370
    30
100
AcDbCircle
 10
1497.608699
 20
471.464435
 30
0.0
 40
2.0
100
AcDbArc
 50
0.0
 51
90.0
  0
ARC
  5
5D5
330
1F
100
AcDbEntity
  8
002
 62
     3
370
    30
100
AcDbCircle
 10
1485.760699
 20
499.201435
 30
0.0
 40
1.999796792176636
100
AcDbArc
 50
115.090109
 51
205.101702
  0
LINE
  5
5D6
330
1F
100
AcDbEntity
  8
002
 62
     3
370
    30
100
AcDbLine
 10
1484.912699
 20
501.012535
 30
0.0
 11
1469.641699
 21
533.613135
 31
0.0
  0
ARC
  5
5D7
330
1F
100
AcDbEntity
  8
002
 62
     3
370
    30
100
AcDbCircle
 10
1468.793699
 20
535.424235
 30
0.0
 40
2.000739085938105
100
AcDbArc
 50
205.08696
 51
295.090109
  0
ARC
  5
5D8
330
1F
100
AcDbEntity
  8
002
 62
     3
370
    30
100
AcDbCircle
 10
1445.608699
 20
557.464435
 30
0.0
 40
5.0
100
AcDbArc
 50
180.0
 51
270.0
  0
LINE
  5
5D9
330
1F
100
AcDbEntity
  8
002
 62
     3
370
    30
100
AcDbLine
 10
1440.608699
 20
557.464435
 30
0.0
 11
1440.608699
 21
572.464435
 31
0.0
  0
LINE
  5
5DA
330
1F
100
AcDbEntity
  8
002
 62
     3
370
    30
100
AcDbLine
 10
1440.608699
 20
572.464435
 30
0.0
 11
1300.608699
 21
572.464435
 31
0.0
  0
LINE
  5
5DB
330
1F
100
AcDbEntity
  8
002
 62
     3
370
    30
100
AcDbLine
 10
1300.608699
 20
572.464435
 30
0.0
 11
1300.608699
 21
560.464435
 31
0.0
  0
LINE
  5
5DC
330
1F
100
AcDbEntity
  8
001
 62
     3
370
    30
100
AcDbLine
 10
1378.100243
 20
229.977817
 30
0.0
 11
1363.100241
 21
252.001455
 31
0.0
  0
LINE
  5
5DD
330
1F
100
AcDbEntity
  8
001
 62
     3
370
    30
100
AcDbLine
 10
1378.100243
 20
251.295029
 30
0.0
 11
1363.100241
 21
273.318636
 31
0.0
  0
LINE
  5
5DE
330
1F
100
AcDbEntity
  8
002
  6
CENTER
 62
    40
370
     9
100
AcDbLine
 10
1410.600212
 20
289.664366
 30
0.0
 11
1410.600212
 21
317.664376
 31
0.0
  0
LINE
  5
5DF
330
1F
100
AcDbEntity
  8
002
  6
CENTER
 62
    40
370
     9
100
AcDbLine
 10
1330.600242
 20
289.664366
 30
0.0
 11
1330.600242
 21
317.664376
 31
0.0
  0
LINE
  5
5E0
330
1F
100
AcDbEntity
  8
002
 62
     3
370
    30
100
AcDbLine
 10
1378.100243
 20
217.664396
 30
0.0
 11
1378.100243
 21
285.664396
 31
0.0
  0
LINE
  5
5E1
330
1F
100
AcDbEntity
  8
002
 62
     3
370
    30
100
AcDbLine
 10
1363.100241
 20
285.664396
 30
0.0
 11
1363.100241
 21
217.664396
 31
0.0
  0
LINE
  5
5E2
330
1F
100
AcDbEntity
  8
002
 62
     3
370
    30
100
AcDbLine
 10
1392.785334
 20
227.06913
 30
0.0
 11
1378.100243
 21
248.630373
 31
0.0
  0
LINE
  5
5E3
330
1F
100
AcDbEntity
  8
002
 62
     3
370
    30
100
AcDbLine
 10
1378.100243
 20
240.636453
 30
0.0
 11
1391.599204
 21
220.816716
 31
0.0
  0
LINE
  5
5E4
330
1F
100
AcDbEntity
  8
002
 62
     3
370
    30
100
AcDbLine
 10
1385.346748
 20
222.00285
 30
0.0
 11
1378.100243
 21
232.642476
 31
0.0
  0
ARC
  5
5E5
330
1F
100
AcDbEntity
  8
002
 62
     3
370
    30
100
AcDbCircle
 10
1389.06622
 20
224.535909
 30
0.0
 40
4.500000220055554
100
AcDbArc
 50
214.258265
 51
34.258342
  0
LINE
  5
5E6
330
1F
100
AcDbEntity
  8
002
 62
     3
370
    30
100
AcDbLine
 10
1383.676932
 20
288.664366
 30
0.0
 11
1383.676932
 21
240.442454
 31
0.0
  0
LINE
  5
5E7
330
1F
100
AcDbEntity
  8
002
 62
     3
370
    30
100
AcDbLine
 10
1383.676932
 20
288.664366
 30
0.0
 11
1357.523522
 21
288.664366
 31
0.0
  0
ARC
  5
5E8
330
1F
100
AcDbEntity
  8
002
 62
     3
370
    30
100
AcDbCircle
 10
1376.099998
 20
285.664396
 30
0.0
 40
2.000000000001
100
AcDbArc
 50
0.0
 51
89.999943
  0
LINE
  5
5E9
330
1F
100
AcDbEntity
  8
002
 62
     3
370
    30
100
AcDbLine
 10
1376.099998
 20
287.664396
 30
0.0
 11
1365.100242
 21
287.664396
 31
0.0
  0
ARC
  5
5EA
330
1F
100
AcDbEntity
  8
002
 62
     3
370
    30
100
AcDbCircle
 10
1365.100242
 20
285.664396
 30
0.0
 40
2.0
100
AcDbArc
 50
89.999943
 51
180.0
  0
LINE
  5
5EB
330
1F
100
AcDbEntity
  8
002
 62
     3
370
    30
100
AcDbLine
 10
1357.523522
 20
288.664366
 30
0.0
 11
1357.523522
 21
278.874415
 31
0.0
  0
LINE
  5
5EC
330
1F
100
AcDbEntity
  8
002
 62
     3
370
    30
100
AcDbLine
 10
1355.85376
 20
281.326027
 30
0.0
 11
1363.100241
 21
270.686452
 31
0.0
  0
LINE
  5
5ED
330
1F
100
AcDbEntity
  8
002
 62
     3
370
    30
100
AcDbLine
 10
1363.100241
 20
262.692539
 30
0.0
 11
1349.601336
 21
282.512192
 31
0.0
  0
LINE
  5
5EE
330
1F
100
AcDbEntity
  8
002
 62
     3
370
    30
100
AcDbLine
 10
1348.415212
 20
276.259765
 30
0.0
 11
1363.100241
 21
254.69862
 31
0.0
  0
ARC
  5
5EF
330
1F
100
AcDbEntity
  8
002
 62
     3
370
    30
100
AcDbCircle
 10
1352.134238
 20
278.792911
 30
0.0
 40
4.500000220055554
100
AcDbArc
 50
34.258164
 51
214.258342
  0
LINE
  5
5F0
330
1F
100
AcDbEntity
  8
002
 62
     3
370
    30
100
AcDbLine
 10
1370.15023
 20
283.664396
 30
0.0
 11
1371.050254
 21
283.664396
 31
0.0
  0
LINE
  5
5F1
330
1F
100
AcDbEntity
  8
002
 62
     3
370
    30
100
AcDbLine
 10
1370.15023
 20
282.864416
 30
0.0
 11
1370.15023
 21
283.664396
 31
0.0
  0
LINE
  5
5F2
330
1F
100
AcDbEntity
  8
002
 62
     3
370
    30
100
AcDbLine
 10
1371.050254
 20
283.664396
 30
0.0
 11
1371.050254
 21
282.864416
 31
0.0
  0
LINE
  5
5F3
330
1F
100
AcDbEntity
  8
002
 62
     3
370
    30
100
AcDbLine
 10
1371.050265
 20
282.864386
 30
0.0
 11
1371.324778
 21
282.388916
 31
0.0
  0
LINE
  5
5F4
330
1F
100
AcDbEntity
  8
002
 62
     3
370
    30
100
AcDbLine
 10
1371.324765
 20
282.388916
 30
0.0
 11
1371.800236
 21
282.114406
 31
0.0
  0
LINE
  5
5F5
330
1F
100
AcDbEntity
  8
002
 62
     3
370
    30
100
AcDbLine
 10
1371.800224
 20
282.114416
 30
0.0
 11
1372.600242
 21
282.114416
 31
0.0
  0
LINE
  5
5F6
330
1F
100
AcDbEntity
  8
002
 62
     3
370
    30
100
AcDbLine
 10
1372.600242
 20
282.114416
 30
0.0
 11
1372.600242
 21
281.214386
 31
0.0
  0
LINE
  5
5F7
330
1F
100
AcDbEntity
  8
002
 62
     3
370
    30
100
AcDbLine
 10
1372.600242
 20
281.214386
 30
0.0
 11
1371.800254
 21
281.214386
 31
0.0
  0
LINE
  5
5F8
330
1F
100
AcDbEntity
  8
002
 62
     3
370
    30
100
AcDbLine
 10
1371.800225
 20
281.214386
 30
0.0
 11
1371.324767
 21
280.939886
 31
0.0
  0
LINE
  5
5F9
330
1F
100
AcDbEntity
  8
002
 62
     3
370
    30
100
AcDbLine
 10
1371.324758
 20
280.939886
 30
0.0
 11
1371.050252
 21
280.464436
 31
0.0
  0
LINE
  5
5FA
330
1F
100
AcDbEntity
  8
002
 62
     3
370
    30
100
AcDbLine
 10
1371.050254
 20
280.464386
 30
0.0
 11
1371.050254
 21
279.664396
 31
0.0
  0
LINE
  5
5FB
330
1F
100
AcDbEntity
  8
002
 62
     3
370
    30
100
AcDbLine
 10
1371.050254
 20
279.664396
 30
0.0
 11
1370.15023
 21
279.664396
 31
0.0
  0
LINE
  5
5FC
330
1F
100
AcDbEntity
  8
002
 62
     3
370
    30
100
AcDbLine
 10
1370.15023
 20
279.664396
 30
0.0
 11
1370.15023
 21
280.464386
 31
0.0
  0
LINE
  5
5FD
330
1F
100
AcDbEntity
  8
002
 62
     3
370
    30
100
AcDbLine
 10
1370.150248
 20
280.464406
 30
0.0
 11
1369.875735
 21
280.939876
 31
0.0
  0
LINE
  5
5FE
330
1F
100
AcDbEntity
  8
002
 62
     3
370
    30
100
AcDbLine
 10
1369.875729
 20
280.939876
 30
0.0
 11
1369.400258
 21
281.214386
 31
0.0
  0
LINE
  5
5FF
330
1F
100
AcDbEntity
  8
002
 62
     3
370
    30
100
AcDbLine
 10
1369.40026
 20
281.214386
 30
0.0
 11
1368.600242
 21
281.214386
 31
0.0
  0
LINE
  5
600
330
1F
100
AcDbEntity
  8
002
 62
     3
370
    30
100
AcDbLine
 10
1368.600242
 20
281.214386
 30
0.0
 11
1368.600242
 21
282.114416
 31
0.0
  0
LINE
  5
601
330
1F
100
AcDbEntity
  8
002
 62
     3
370
    30
100
AcDbLine
 10
1368.600242
 20
282.114416
 30
0.0
 11
1369.40026
 21
282.114416
 31
0.0
  0
LINE
  5
602
330
1F
100
AcDbEntity
  8
002
 62
     3
370
    30
100
AcDbLine
 10
1369.400312
 20
282.114446
 30
0.0
 11
1369.87577
 21
282.388956
 31
0.0
  0
LINE
  5
603
330
1F
100
AcDbEntity
  8
002
 62
     3
370
    30
100
AcDbLine
 10
1369.875735
 20
282.388936
 30
0.0
 11
1370.150241
 21
282.864386
 31
0.0
  0
CIRCLE
  5
604
330
1F
100
AcDbEntity
  8
002
 62
     3
370
    30
100
AcDbCircle
 10
1370.600242
 20
281.664396
 30
0.0
 40
3.499999
  0
CIRCLE
  5
605
330
1F
100
AcDbEntity
  8
002
 62
     3
370
    30
100
AcDbCircle
 10
1370.600242
 20
221.664396
 30
0.0
 40
3.499999
  0
LINE
  5
606
330
1F
100
AcDbEntity
  8
002
 62
     3
370
    30
100
AcDbLine
 10
1371.050254
 20
219.664396
 30
0.0
 11
1370.15023
 21
219.664396
 31
0.0
  0
LINE
  5
607
330
1F
100
AcDbEntity
  8
002
 62
     3
370
    30
100
AcDbLine
 10
1371.050254
 20
220.464376
 30
0.0
 11
1371.050254
 21
219.664396
 31
0.0
  0
LINE
  5
608
330
1F
100
AcDbEntity
  8
002
 62
     3
370
    30
100
AcDbLine
 10
1371.324768
 20
220.939916
 30
0.0
 11
1371.050262
 21
220.464466
 31
0.0
  0
LINE
  5
609
330
1F
100
AcDbEntity
  8
002
 62
     3
370
    30
100
AcDbLine
 10
1371.800164
 20
221.214356
 30
0.0
 11
1371.324706
 21
220.939856
 31
0.0
  0
LINE
  5
60A
330
1F
100
AcDbEntity
  8
002
 62
     3
370
    30
100
AcDbLine
 10
1372.600242
 20
221.214376
 30
0.0
 11
1371.800254
 21
221.214376
 31
0.0
  0
LINE
  5
60B
330
1F
100
AcDbEntity
  8
002
 62
     3
370
    30
100
AcDbLine
 10
1372.600242
 20
222.114406
 30
0.0
 11
1372.600242
 21
221.214376
 31
0.0
  0
LINE
  5
60C
330
1F
100
AcDbEntity
  8
002
 62
     3
370
    30
100
AcDbLine
 10
1371.800224
 20
222.114406
 30
0.0
 11
1372.600242
 21
222.114406
 31
0.0
  0
LINE
  5
60D
330
1F
100
AcDbEntity
  8
002
 62
     3
370
    30
100
AcDbLine
 10
1371.32474
 20
222.388896
 30
0.0
 11
1371.800211
 21
222.114376
 31
0.0
  0
LINE
  5
60E
330
1F
100
AcDbEntity
  8
002
 62
     3
370
    30
100
AcDbLine
 10
1371.050252
 20
222.864366
 30
0.0
 11
1371.324772
 21
222.388886
 31
0.0
  0
LINE
  5
60F
330
1F
100
AcDbEntity
  8
002
 62
     3
370
    30
100
AcDbLine
 10
1371.050254
 20
223.664396
 30
0.0
 11
1371.050254
 21
222.864406
 31
0.0
  0
LINE
  5
610
330
1F
100
AcDbEntity
  8
002
 62
     3
370
    30
100
AcDbLine
 10
1370.15023
 20
223.664396
 30
0.0
 11
1371.050254
 21
223.664396
 31
0.0
  0
LINE
  5
611
330
1F
100
AcDbEntity
  8
002
 62
     3
370
    30
100
AcDbLine
 10
1370.15023
 20
222.864406
 30
0.0
 11
1370.15023
 21
223.664396
 31
0.0
  0
LINE
  5
612
330
1F
100
AcDbEntity
  8
002
 62
     3
370
    30
100
AcDbLine
 10
1369.875736
 20
222.388896
 30
0.0
 11
1370.150242
 21
222.864356
 31
0.0
  0
LINE
  5
613
330
1F
100
AcDbEntity
  8
002
 62
     3
370
    30
100
AcDbLine
 10
1369.400264
 20
222.114396
 30
0.0
 11
1369.875722
 21
222.388896
 31
0.0
  0
LINE
  5
614
330
1F
100
AcDbEntity
  8
002
 62
     3
370
    30
100
AcDbLine
 10
1368.600242
 20
222.114406
 30
0.0
 11
1369.40026
 21
222.114406
 31
0.0
  0
LINE
  5
615
330
1F
100
AcDbEntity
  8
002
 62
     3
370
    30
100
AcDbLine
 10
1368.600242
 20
221.214376
 30
0.0
 11
1368.600242
 21
222.114406
 31
0.0
  0
LINE
  5
616
330
1F
100
AcDbEntity
  8
002
 62
     3
370
    30
100
AcDbLine
 10
1369.40026
 20
221.214376
 30
0.0
 11
1368.600242
 21
221.214376
 31
0.0
  0
LINE
  5
617
330
1F
100
AcDbEntity
  8
002
 62
     3
370
    30
100
AcDbLine
 10
1369.87575
 20
220.939896
 30
0.0
 11
1369.400279
 21
221.214406
 31
0.0
  0
LINE
  5
618
330
1F
100
AcDbEntity
  8
002
 62
     3
370
    30
100
AcDbLine
 10
1370.150237
 20
220.464386
 30
0.0
 11
1369.875716
 21
220.939866
 31
0.0
  0
LINE
  5
619
330
1F
100
AcDbEntity
  8
002
 62
     3
370
    30
100
AcDbLine
 10
1370.15023
 20
219.664396
 30
0.0
 11
1370.15023
 21
220.464376
 31
0.0
  0
LINE
  5
61A
330
1F
100
AcDbEntity
  8
002
 62
     3
370
    30
100
AcDbLine
 10
1420.600222
 20
294.664366
 30
0.0
 11
1320.600232
 21
294.664366
 31
0.0
  0
LINE
  5
61B
330
1F
100
AcDbEntity
  8
002
 62
     3
370
    30
100
AcDbLine
 10
1365.100486
 20
215.664396
 30
0.0
 11
1376.100242
 21
215.664396
 31
0.0
  0
LINE
  5
61C
330
1F
100
AcDbEntity
  8
002
 62
     3
370
    30
100
AcDbLine
 10
1357.523202
 20
215.664036
 30
0.0
 11
1358.523202
 21
214.664026
 31
0.0
  0
LINE
  5
61D
330
1F
100
AcDbEntity
  8
002
 62
     3
370
    30
100
AcDbLine
 10
1357.523522
 20
262.886581
 30
0.0
 11
1357.523522
 21
215.664396
 31
0.0
  0
LINE
  5
61E
330
1F
100
AcDbEntity
  8
002
 62
     3
370
    30
100
AcDbLine
 10
1383.676932
 20
224.454545
 30
0.0
 11
1383.676932
 21
215.664396
 31
0.0
  0
LINE
  5
61F
330
1F
100
AcDbEntity
  8
002
 62
     3
370
    30
100
AcDbLine
 10
1383.676872
 20
215.664356
 30
0.0
 11
1382.676632
 21
214.664116
 31
0.0
  0
LINE
  5
620
330
1F
100
AcDbEntity
  8
002
 62
     3
370
    30
100
AcDbLine
 10
1400.600212
 20
202.664376
 30
0.0
 11
1400.600212
 21
294.664366
 31
0.0
  0
ARC
  5
621
330
1F
100
AcDbEntity
  8
002
 62
     3
370
    30
100
AcDbCircle
 10
1365.100486
 20
217.664396
 30
0.0
 40
2.0
100
AcDbArc
 50
180.0
 51
270.0
  0
ARC
  5
622
330
1F
100
AcDbEntity
  8
002
 62
     3
370
    30
100
AcDbCircle
 10
1376.100242
 20
217.664396
 30
0.0
 40
2.0
100
AcDbArc
 50
270.0
 51
0.0
  0
LINE
  5
623
330
1F
100
AcDbEntity
  8
002
 62
     3
370
    30
100
AcDbLine
 10
1400.600212
 20
202.664376
 30
0.0
 11
1340.600242
 21
202.664376
 31
0.0
  0
LINE
  5
624
330
1F
100
AcDbEntity
  8
002
 62
     3
370
    30
100
AcDbLine
 10
1340.600242
 20
202.664376
 30
0.0
 11
1340.600242
 21
294.664366
 31
0.0
  0
LINE
  5
625
330
1F
100
AcDbEntity
  8
002
 62
     3
370
    30
100
AcDbLine
 10
1420.600222
 20
312.664376
 30
0.0
 11
1320.600232
 21
312.664376
 31
0.0
  0
LINE
  5
626
330
1F
100
AcDbEntity
  8
002
 62
     3
370
    30
100
AcDbLine
 10
1420.600222
 20
294.664366
 30
0.0
 11
1420.600222
 21
312.664376
 31
0.0
  0
LINE
  5
627
330
1F
100
AcDbEntity
  8
002
 62
     3
370
    30
100
AcDbLine
 10
1320.600232
 20
294.664366
 30
0.0
 11
1320.600232
 21
312.664376
 31
0.0
  0
LINE
  5
628
330
1F
100
AcDbEntity
  8
002
 62
     3
370
    30
100
AcDbLine
 10
1382.676632
 20
214.664116
 30
0.0
 11
1358.523112
 21
214.664116
 31
0.0
  0
LINE
  5
629
330
1F
100
AcDbEntity
  8
002
 62
     3
370
    30
100
AcDbLine
 10
1352.608699
 20
202.664376
 30
0.0
 11
1352.608699
 21
105.464435
 31
0.0
  0
LINE
  5
62A
330
1F
100
AcDbEntity
  8
002
 62
     3
370
    30
100
AcDbLine
 10
1388.608699
 20
105.464435
 30
0.0
 11
1388.608699
 21
202.664376
 31
0.0
  0
LINE
  5
62B
330
1F
100
AcDbEntity
  8
002
 62
    40
370
     9
100
AcDbLine
 10
1386.508699
 20
105.464435
 30
0.0
 11
1386.508699
 21
202.664376
 31
0.0
  0
LINE
  5
62C
330
1F
100
AcDbEntity
  8
002
 62
    40
370
     9
100
AcDbLine
 10
1354.708699
 20
202.664376
 30
0.0
 11
1354.708699
 21
105.464435
 31
0.0
  0
LINE
  5
62D
330
1F
100
AcDbEntity
  8
002
 62
     3
370
    30
100
AcDbLine
 10
1300.608699
 20
560.464435
 30
0.0
 11
1440.608699
 21
560.464435
 31
0.0
  0
LINE
  5
62E
330
1F
100
AcDbEntity
  8
002
 62
     3
370
    30
100
AcDbLine
 10
1451.608699
 20
552.464435
 30
0.0
 11
1345.608699
 21
552.464435
 31
0.0
  0
LINE
  5
62F
330
1F
100
AcDbEntity
  8
002
 62
     3
370
    30
100
AcDbLine
 10
1340.608699
 20
547.464435
 30
0.0
 11
1340.608699
 21
478.464435
 31
0.0
  0
ARC
  5
630
330
1F
100
AcDbEntity
  8
002
 62
     3
370
    30
100
AcDbCircle
 10
1335.608699
 20
478.464435
 30
0.0
 40
5.0
100
AcDbArc
 50
270.0
 51
0.0
  0
LINE
  5
631
330
1F
100
AcDbEntity
  8
002
 62
     3
370
    30
100
AcDbLine
 10
1327.836699
 20
473.464435
 30
0.0
 11
1327.836699
 21
460.464435
 31
0.0
  0
LINE
  5
632
330
1F
100
AcDbEntity
  8
002
 62
     3
370
    30
100
AcDbLine
 10
1324.429699
 20
478.464435
 30
0.0
 11
1324.429699
 21
543.464435
 31
0.0
  0
ARC
  5
633
330
1F
100
AcDbEntity
  8
002
 62
     3
370
    30
100
AcDbCircle
 10
1319.429699
 20
543.464435
 30
0.0
 40
5.0
100
AcDbArc
 50
0.0
 51
90.0
  0
LINE
  5
634
330
1F
100
AcDbEntity
  8
002
 62
     3
370
    30
100
AcDbLine
 10
1335.608699
 20
548.464435
 30
0.0
 11
1309.608699
 21
548.464435
 31
0.0
  0
LINE
  5
635
330
1F
100
AcDbEntity
  8
002
 62
     3
370
    30
100
AcDbLine
 10
1309.608699
 20
560.464435
 30
0.0
 11
1309.608699
 21
478.464435
 31
0.0
  0
ARC
  5
636
330
1F
100
AcDbEntity
  8
002
 62
     3
370
    30
100
AcDbCircle
 10
1304.608699
 20
478.464435
 30
0.0
 40
5.0
100
AcDbArc
 50
270.0
 51
0.0
  0
ARC
  5
637
330
1F
100
AcDbEntity
  8
002
 62
     3
370
    30
100
AcDbCircle
 10
1296.608699
 20
471.464435
 30
0.0
 40
2.0
100
AcDbArc
 50
90.0
 51
180.0
  0
ARC
  5
638
330
1F
100
AcDbEntity
  8
002
 62
     3
370
    30
100
AcDbCircle
 10
1319.429699
 20
478.464435
 30
0.0
 40
5.0
100
AcDbArc
 50
270.0
 51
0.0
  0
LINE
  5
639
330
1F
100
AcDbEntity
  8
002
 62
     3
370
    30
100
AcDbLine
 10
1309.608699
 20
503.260535
 30
0.0
 11
1301.608699
 21
503.010535
 31
0.0
  0
LINE
  5
63A
330
1F
100
AcDbEntity
  8
002
 62
     3
370
    30
100
AcDbLine
 10
1301.608699
 20
503.010535
 30
0.0
 11
1301.608699
 21
529.918435
 31
0.0
  0
LINE
  5
63B
330
1F
100
AcDbEntity
  8
002
 62
     3
370
    30
100
AcDbLine
 10
1301.608699
 20
529.918435
 30
0.0
 11
1309.608699
 21
529.668435
 31
0.0
  0
LINE
  5
63C
330
1F
100
AcDbEntity
  8
002
 62
     3
370
    30
100
AcDbLine
 10
1301.608699
 20
524.964435
 30
0.0
 11
1290.608699
 21
524.964435
 31
0.0
  0
LINE
  5
63D
330
1F
100
AcDbEntity
  8
002
 62
     3
370
    30
100
AcDbLine
 10
1290.608699
 20
524.964435
 30
0.0
 11
1290.608699
 21
507.964435
 31
0.0
  0
LINE
  5
63E
330
1F
100
AcDbEntity
  8
002
 62
     3
370
    30
100
AcDbLine
 10
1290.608699
 20
507.964435
 30
0.0
 11
1301.608699
 21
507.964435
 31
0.0
  0
ARC
  5
63F
330
1F
100
AcDbEntity
  8
002
 62
     3
370
    30
100
AcDbCircle
 10
1335.608699
 20
543.464435
 30
0.0
 40
5.0
100
AcDbArc
 50
0.0
 51
90.0
  0
ARC
  5
640
330
1F
100
AcDbEntity
  8
002
 62
     3
370
    30
100
AcDbCircle
 10
1345.608699
 20
547.464435
 30
0.0
 40
5.0
100
AcDbArc
 50
90.0
 51
180.0
  0
LINE
  5
641
330
1F
100
AcDbEntity
  8
002
 62
     3
370
    30
100
AcDbLine
 10
1362.608699
 20
572.464435
 30
0.0
 11
1362.608699
 21
582.464435
 31
0.0
  0
LINE
  5
642
330
1F
100
AcDbEntity
  8
002
 62
     3
370
    30
100
AcDbLine
 10
1378.608699
 20
582.464435
 30
0.0
 11
1378.608699
 21
572.464435
 31
0.0
  0
LINE
  5
643
330
1F
100
AcDbEntity
  8
002
 62
     3
370
    30
100
AcDbLine
 10
1378.608699
 20
574.995235
 30
0.0
 11
1413.703699
 21
574.995235
 31
0.0
  0
LINE
  5
644
330
1F
100
AcDbEntity
  8
002
 62
     3
370
    30
100
AcDbLine
 10
1413.703699
 20
572.464435
 30
0.0
 11
1413.703699
 21
582.464435
 31
0.0
  0
LINE
  5
645
330
1F
100
AcDbEntity
  8
002
 62
     3
370
    30
100
AcDbLine
 10
1429.703699
 20
582.464435
 30
0.0
 11
1429.703699
 21
572.464435
 31
0.0
  0
LINE
  5
646
330
1F
100
AcDbEntity
  8
002
 62
     3
370
    30
100
AcDbLine
 10
1429.703699
 20
582.464435
 30
0.0
 11
1413.703699
 21
582.464435
 31
0.0
  0
LINE
  5
647
330
1F
100
AcDbEntity
  8
002
 62
     3
370
    30
100
AcDbLine
 10
1415.858699
 20
582.464435
 30
0.0
 11
1415.608699
 21
585.464435
 31
0.0
  0
LINE
  5
648
330
1F
100
AcDbEntity
  8
002
 62
     3
370
    30
100
AcDbLine
 10
1415.608699
 20
585.464435
 30
0.0
 11
1325.608699
 21
585.464435
 31
0.0
  0
LINE
  5
649
330
1F
100
AcDbEntity
  8
002
 62
     3
370
    30
100
AcDbLine
 10
1325.608699
 20
585.464435
 30
0.0
 11
1325.608699
 21
591.464435
 31
0.0
  0
LINE
  5
64A
330
1F
100
AcDbEntity
  8
002
 62
     3
370
    30
100
AcDbLine
 10
1325.608699
 20
591.464435
 30
0.0
 11
1415.608699
 21
591.464435
 31
0.0
  0
LINE
  5
64B
330
1F
100
AcDbEntity
  8
002
 62
     3
370
    30
100
AcDbLine
 10
1415.608699
 20
591.464435
 30
0.0
 11
1415.608699
 21
585.464435
 31
0.0
  0
LINE
  5
64C
330
1F
100
AcDbEntity
  8
002
 62
     3
370
    30
100
AcDbLine
 10
1414.108699
 20
591.464435
 30
0.0
 11
1414.108699
 21
597.464435
 31
0.0
  0
LINE
  5
64D
330
1F
100
AcDbEntity
  8
002
 62
     3
370
    30
100
AcDbLine
 10
1404.108699
 20
597.464435
 30
0.0
 11
1404.108699
 21
591.464435
 31
0.0
  0
LINE
  5
64E
330
1F
100
AcDbEntity
  8
002
 62
     3
370
    30
100
AcDbLine
 10
1400.858699
 20
591.464435
 30
0.0
 11
1400.858699
 21
645.464435
 31
0.0
  0
LINE
  5
64F
330
1F
100
AcDbEntity
  8
002
 62
     3
370
    30
100
AcDbLine
 10
1400.858699
 20
645.464435
 30
0.0
 11
1340.358699
 21
645.464435
 31
0.0
  0
LINE
  5
650
330
1F
100
AcDbEntity
  8
002
 62
     3
370
    30
100
AcDbLine
 10
1340.358699
 20
645.464435
 30
0.0
 11
1340.358699
 21
591.464435
 31
0.0
  0
LINE
  5
651
330
1F
100
AcDbEntity
  8
002
 62
     3
370
    30
100
AcDbLine
 10
1337.108699
 20
591.464435
 30
0.0
 11
1337.108699
 21
597.464435
 31
0.0
  0
LINE
  5
652
330
1F
100
AcDbEntity
  8
002
 62
     3
370
    30
100
AcDbLine
 10
1327.108699
 20
597.464435
 30
0.0
 11
1327.108699
 21
591.464435
 31
0.0
  0
LINE
  5
653
330
1F
100
AcDbEntity
  8
002
 62
     3
370
    30
100
AcDbLine
 10
1327.108699
 20
597.464435
 30
0.0
 11
1337.108699
 21
597.464435
 31
0.0
  0
LINE
  5
654
330
1F
100
AcDbEntity
  8
002
 62
     3
370
    30
100
AcDbLine
 10
1325.608699
 20
585.464435
 30
0.0
 11
1325.358699
 21
582.464435
 31
0.0
  0
LINE
  5
655
330
1F
100
AcDbEntity
  8
002
 62
     3
370
    30
100
AcDbLine
 10
1327.512699
 20
582.464435
 30
0.0
 11
1311.512699
 21
582.464435
 31
0.0
  0
LINE
  5
656
330
1F
100
AcDbEntity
  8
002
 62
     3
370
    30
100
AcDbLine
 10
1327.512699
 20
582.464435
 30
0.0
 11
1327.512699
 21
572.464435
 31
0.0
  0
LINE
  5
657
330
1F
100
AcDbEntity
  8
002
 62
     3
370
    30
100
AcDbLine
 10
1327.512699
 20
574.995235
 30
0.0
 11
1362.608699
 21
574.995235
 31
0.0
  0
LINE
  5
658
330
1F
100
AcDbEntity
  8
002
 62
     3
370
    30
100
AcDbLine
 10
1362.608699
 20
582.464435
 30
0.0
 11
1378.608699
 21
582.464435
 31
0.0
  0
LINE
  5
659
330
1F
100
AcDbEntity
  8
002
 62
     3
370
    30
100
AcDbLine
 10
1375.608699
 20
591.464435
 30
0.0
 11
1375.608699
 21
597.464435
 31
0.0
  0
LINE
  5
65A
330
1F
100
AcDbEntity
  8
002
 62
     3
370
    30
100
AcDbLine
 10
1365.608699
 20
597.464435
 30
0.0
 11
1365.608699
 21
591.464435
 31
0.0
  0
LINE
  5
65B
330
1F
100
AcDbEntity
  8
002
 62
     3
370
    30
100
AcDbLine
 10
1365.608699
 20
597.464435
 30
0.0
 11
1375.608699
 21
597.464435
 31
0.0
  0
LINE
  5
65C
330
1F
100
AcDbEntity
  8
002
 62
     3
370
    30
100
AcDbLine
 10
1404.108699
 20
597.464435
 30
0.0
 11
1414.108699
 21
597.464435
 31
0.0
  0
LINE
  5
65D
330
1F
100
AcDbEntity
  8
002
 62
     3
370
    30
100
AcDbLine
 10
1390.608699
 20
541.464435
 30
0.0
 11
1390.608699
 21
491.464435
 31
0.0
  0
ARC
  5
65E
330
1F
100
AcDbEntity
  8
002
 62
     3
370
    30
100
AcDbCircle
 10
1401.608699
 20
491.464435
 30
0.0
 40
11.0
100
AcDbArc
 50
180.0
 51
270.0
  0
LINE
  5
65F
330
1F
100
AcDbEntity
  8
002
 62
     3
370
    30
100
AcDbLine
 10
1373.494699
 20
511.464435
 30
0.0
 11
1376.381699
 21
516.464435
 31
0.0
  0
LINE
  5
660
330
1F
100
AcDbEntity
  8
002
 62
     3
370
    30
100
AcDbLine
 10
1376.381699
 20
516.464435
 30
0.0
 11
1373.494699
 21
521.464435
 31
0.0
  0
LINE
  5
661
330
1F
100
AcDbEntity
  8
002
 62
     3
370
    30
100
AcDbLine
 10
1373.494699
 20
521.464435
 30
0.0
 11
1367.721699
 21
521.464435
 31
0.0
  0
LINE
  5
662
330
1F
100
AcDbEntity
  8
002
 62
     3
370
    30
100
AcDbLine
 10
1367.721699
 20
521.464435
 30
0.0
 11
1364.834699
 21
516.464435
 31
0.0
  0
LINE
  5
663
330
1F
100
AcDbEntity
  8
002
 62
     3
370
    30
100
AcDbLine
 10
1364.834699
 20
516.464435
 30
0.0
 11
1367.721699
 21
511.464435
 31
0.0
  0
LINE
  5
664
330
1F
100
AcDbEntity
  8
002
 62
     3
370
    30
100
AcDbLine
 10
1367.721699
 20
511.464435
 30
0.0
 11
1373.494699
 21
511.464435
 31
0.0
  0
CIRCLE
  5
665
330
1F
100
AcDbEntity
  8
002
 62
     3
370
    30
100
AcDbCircle
 10
1370.608699
 20
516.464435
 30
0.0
 40
0.75
  0
CIRCLE
  5
666
330
1F
100
AcDbEntity
  8
002
 62
     3
370
    30
100
AcDbCircle
 10
1370.608699
 20
516.464435
 30
0.0
 40
2.5
  0
CIRCLE
  5
667
330
1F
100
AcDbEntity
  8
002
 62
     3
370
    30
100
AcDbCircle
 10
1370.608699
 20
516.464435
 30
0.0
 40
3.25
  0
CIRCLE
  5
668
330
1F
100
AcDbEntity
  8
002
 62
     3
370
    30
100
AcDbCircle
 10
1370.608699
 20
516.464435
 30
0.0
 40
5.0
  0
ARC
  5
669
330
1F
100
AcDbEntity
  8
002
 62
     3
370
    30
100
AcDbCircle
 10
1401.608699
 20
541.464435
 30
0.0
 40
11.0
100
AcDbArc
 50
90.0
 51
180.0
  0
ARC
  5
66A
330
1F
100
AcDbEntity
  8
002
 62
     3
370
    30
100
AcDbCircle
 10
1451.608699
 20
541.464435
 30
0.0
 40
11.0
100
AcDbArc
 50
0.0
 51
90.0
  0
ARC
  5
66B
330
1F
100
AcDbEntity
  8
002
 62
     3
370
    30
100
AcDbCircle
 10
1467.608699
 20
478.464435
 30
0.0
 40
5.0
100
AcDbArc
 50
180.0
 51
270.0
  0
LINE
  5
66C
330
1F
100
AcDbEntity
  8
002
 62
     3
370
    30
100
AcDbLine
 10
1311.512699
 20
582.464435
 30
0.0
 11
1311.512699
 21
572.464435
 31
0.0
  0
LINE
  5
66D
330
1F
100
AcDbEntity
  8
002
  6
CENTER
 62
    40
370
     9
100
AcDbLine
 10
1314.608699
 20
452.745935
 30
0.0
 11
1314.608699
 21
480.464435
 31
0.0
  0
LINE
  5
66E
330
1F
100
AcDbEntity
  8
002
 62
    40
370
     9
100
AcDbLine
 10
1309.608699
 20
504.405935
 30
0.0
 11
1301.608699
 21
504.155935
 31
0.0
  0
LINE
  5
66F
330
1F
100
AcDbEntity
  8
002
 62
    40
370
     9
100
AcDbLine
 10
1301.608699
 20
507.964435
 30
0.0
 11
1290.608699
 21
524.964435
 31
0.0
  0
LINE
  5
670
330
1F
100
AcDbEntity
  8
002
  6
CENTER
 62
    40
370
     9
100
AcDbLine
 10
1287.164699
 20
516.464435
 30
0.0
 11
1487.390699
 21
516.464435
 31
0.0
  0
LINE
  5
671
330
1F
100
AcDbEntity
  8
002
  6
CENTER
 62
    40
370
     9
100
AcDbLine
 10
1479.608699
 20
480.464435
 30
0.0
 11
1479.608699
 21
452.745935
 31
0.0
  0
LINE
  5
672
330
1F
100
AcDbEntity
  8
002
  6
CENTER
 62
    40
370
     9
100
AcDbLine
 10
1421.703699
 20
558.142435
 30
0.0
 11
1421.703699
 21
584.664635
 31
0.0
  0
LINE
  5
673
330
1F
100
AcDbEntity
  8
002
  6
CENTER
 62
    40
370
     9
100
AcDbLine
 10
1409.108699
 20
585.464435
 30
0.0
 11
1409.108699
 21
600.515635
 31
0.0
  0
LINE
  5
674
330
1F
100
AcDbEntity
  8
002
  6
CENTER
 62
    40
370
     9
100
AcDbLine
 10
1426.608699
 20
565.335235
 30
0.0
 11
1426.608699
 21
452.290035
 31
0.0
  0
LINE
  5
675
330
1F
100
AcDbEntity
  8
002
  6
CENTER
 62
    40
370
     9
100
AcDbLine
 10
1332.108699
 20
585.464435
 30
0.0
 11
1332.108699
 21
600.515635
 31
0.0
  0
LINE
  5
676
330
1F
100
AcDbEntity
  8
002
  6
CENTER
 62
    40
370
     9
100
AcDbLine
 10
1319.512699
 20
584.664635
 30
0.0
 11
1319.512699
 21
558.142435
 31
0.0
  0
LINE
  5
677
330
1F
100
AcDbEntity
  8
002
 62
    40
370
     9
100
AcDbLine
 10
1309.608699
 20
528.522935
 30
0.0
 11
1301.608699
 21
528.772935
 31
0.0
  0
LINE
  5
678
330
1F
100
AcDbEntity
  8
002
 62
    40
370
     9
100
AcDbLine
 10
1301.608699
 20
524.964435
 30
0.0
 11
1290.608699
 21
507.964435
 31
0.0
  0
LINE
  5
679
330
1F
100
AcDbEntity
  8
002
  6
HIDDEN
 62
    40
370
     9
100
AcDbLine
 10
1323.608699
 20
460.464435
 30
0.0
 11
1323.608699
 21
473.464435
 31
0.0
  0
LINE
  5
67A
330
1F
100
AcDbEntity
  8
002
  6
HIDDEN
 62
    40
370
     9
100
AcDbLine
 10
1305.608699
 20
473.464435
 30
0.0
 11
1305.608699
 21
460.464435
 31
0.0
  0
LINE
  5
67B
330
1F
100
AcDbEntity
  8
002
  6
HIDDEN
 62
    40
370
     9
100
AcDbLine
 10
1470.608699
 20
473.464435
 30
0.0
 11
1470.608699
 21
460.464435
 31
0.0
  0
LINE
  5
67C
330
1F
100
AcDbEntity
  8
002
  6
HIDDEN
 62
    40
370
     9
100
AcDbLine
 10
1488.608699
 20
460.464435
 30
0.0
 11
1488.608699
 21
473.464435
 31
0.0
  0
LINE
  5
67D
330
1F
100
AcDbEntity
  8
002
 62
     3
370
    30
100
AcDbLine
 10
1352.608699
 20
105.464435
 30
0.0
 11
1388.608699
 21
105.464435
 31
0.0
  0
LINE
  5
67E
330
1F
100
AcDbEntity
  8
002
 62
     3
370
    30
100
AcDbLine
 10
1358.108699
 20
105.464435
 30
0.0
 11
1358.108699
 21
60.464435
 31
0.0
  0
LINE
  5
67F
330
1F
100
AcDbEntity
  8
002
 62
     3
370
    30
100
AcDbLine
 10
1358.108699
 20
60.464435
 30
0.0
 11
1383.108699
 21
60.464435
 31
0.0
  0
LINE
  5
680
330
1F
100
AcDbEntity
  8
002
 62
     3
370
    30
100
AcDbLine
 10
1383.108699
 20
60.464435
 30
0.0
 11
1383.108699
 21
105.464435
 31
0.0
  0
CIRCLE
  5
681
330
1F
100
AcDbEntity
  8
002
 62
     3
370
    30
100
AcDbCircle
 10
1426.608699
 20
516.464435
 30
0.0
 40
19.0
  0
LINE
  5
682
330
1F
100
AcDbEntity
  8
002
 62
     3
370
    30
100
AcDbLine
 10
1429.608699
 20
522.964379
 30
0.0
 11
1423.608699
 21
522.964379
 31
0.0
  0
LINE
  5
683
330
1F
100
AcDbEntity
  8
002
 62
     3
370
    30
100
AcDbLine
 10
1423.608699
 20
528.964379
 30
0.0
 11
1429.608699
 21
528.964379
 31
0.0
  0
LINE
  5
684
330
1F
100
AcDbEntity
  8
002
 62
     3
370
    30
100
AcDbLine
 10
1429.608699
 20
528.964379
 30
0.0
 11
1429.608699
 21
522.964379
 31
0.0
  0
LINE
  5
685
330
1F
100
AcDbEntity
  8
002
 62
     3
370
    30
100
AcDbLine
 10
1423.608699
 20
528.964379
 30
0.0
 11
1423.608699
 21
522.964379
 31
0.0
  0
ARC
  5
686
330
1F
100
AcDbEntity
  8
002
 62
     3
370
    30
100
AcDbCircle
 10
1426.608699
 20
516.464435
 30
0.0
 40
9.999943487840238
100
AcDbArc
 50
107.457705
 51
72.542295
  0
ARC
  5
687
330
1F
100
AcDbEntity
  8
002
 62
     3
370
    30
100
AcDbCircle
 10
1426.608699
 20
516.464435
 30
0.0
 40
10.9999584731034
100
AcDbArc
 50
105.826681
 51
74.173319
  0
POLYLINE
  5
688
330
1F
100
AcDbEntity
  8
002
 62
     3
370
     9
100
AcDb2dPolyline
 66
     1
 10
0.0
 20
0.0
 30
0.0
  0
VERTEX
  5
68A
330
688
100
AcDbEntity
  8
002
 62
     3
370
     9
100
AcDbVertex
100
AcDb2dVertex
 10
293.026257
 20
344.282222
 30
0.0
  0
VERTEX
  5
68B
330
688
100
AcDbEntity
  8
002
 62
     3
370
     9
100
AcDbVertex
100
AcDb2dVertex
 10
294.826252
 20
341.914222
 30
0.0
  0
VERTEX
  5
68C
330
688
100
AcDbEntity
  8
002
 62
     3
370
     9
100
AcDbVertex
100
AcDb2dVertex
 10
296.626247
 20
339.738222
 30
0.0
  0
VERTEX
  5
68D
330
688
100
AcDbEntity
  8
002
 62
     3
370
     9
100
AcDbVertex
100
AcDb2dVertex
 10
298.426242
 20
337.946222
 30
0.0
  0
VERTEX
  5
68E
330
688
100
AcDbEntity
  8
002
 62
     3
370
     9
100
AcDbVertex
100
AcDb2dVertex
 10
300.226237
 20
336.730222
 30
0.0
  0
VERTEX
  5
68F
330
688
100
AcDbEntity
  8
002
 62
     3
370
     9
100
AcDbVertex
100
AcDb2dVertex
 10
302.026232
 20
336.282222
 30
0.0
  0
VERTEX
  5
690
330
688
100
AcDbEntity
  8
002
 62
     3
370
     9
100
AcDbVertex
100
AcDb2dVertex
 10
303.826227
 20
336.730222
 30
0.0
  0
VERTEX
  5
691
330
688
100
AcDbEntity
  8
002
 62
     3
370
     9
100
AcDbVertex
100
AcDb2dVertex
 10
305.626222
 20
337.946222
 30
0.0
  0
VERTEX
  5
692
330
688
100
AcDbEntity
  8
002
 62
     3
370
     9
100
AcDbVertex
100
AcDb2dVertex
 10
307.426217
 20
339.738222
 30
0.0
  0
VERTEX
  5
693
330
688
100
AcDbEntity
  8
002
 62
     3
370
     9
100
AcDbVertex
100
AcDb2dVertex
 10
309.226212
 20
341.914222
 30
0.0
  0
VERTEX
  5
694
330
688
100
AcDbEntity
  8
002
 62
     3
370
     9
100
AcDbVertex
100
AcDb2dVertex
 10
311.026207
 20
344.282222
 30
0.0
  0
VERTEX
  5
695
330
688
100
AcDbEntity
  8
002
 62
     3
370
     9
100
AcDbVertex
100
AcDb2dVertex
 10
312.826202
 20
346.650222
 30
0.0
  0
VERTEX
  5
696
330
688
100
AcDbEntity
  8
002
 62
     3
370
     9
100
AcDbVertex
100
AcDb2dVertex
 10
314.626197
 20
348.826222
 30
0.0
  0
VERTEX
  5
697
330
688
100
AcDbEntity
  8
002
 62
     3
370
     9
100
AcDbVertex
100
AcDb2dVertex
 10
316.426192
 20
350.618222
 30
0.0
  0
VERTEX
  5
698
330
688
100
AcDbEntity
  8
002
 62
     3
370
     9
100
AcDbVertex
100
AcDb2dVertex
 10
318.226187
 20
351.834222
 30
0.0
  0
VERTEX
  5
699
330
688
100
AcDbEntity
  8
002
 62
     3
370
     9
100
AcDbVertex
100
AcDb2dVertex
 10
320.026182
 20
352.282222
 30
0.0
  0
VERTEX
  5
69A
330
688
100
AcDbEntity
  8
002
 62
     3
370
     9
100
AcDbVertex
100
AcDb2dVertex
 10
321.826177
 20
351.834222
 30
0.0
  0
VERTEX
  5
69B
330
688
100
AcDbEntity
  8
002
 62
     3
370
     9
100
AcDbVertex
100
AcDb2dVertex
 10
323.626172
 20
350.618222
 30
0.0
  0
VERTEX
  5
69C
330
688
100
AcDbEntity
  8
002
 62
     3
370
     9
100
AcDbVertex
100
AcDb2dVertex
 10
325.426167
 20
348.826222
 30
0.0
  0
VERTEX
  5
69D
330
688
100
AcDbEntity
  8
002
 62
     3
370
     9
100
AcDbVertex
100
AcDb2dVertex
 10
327.226162
 20
346.650222
 30
0.0
  0
VERTEX
  5
69E
330
688
100
AcDbEntity
  8
002
 62
     3
370
     9
100
AcDbVertex
100
AcDb2dVertex
 10
329.026157
 20
344.282222
 30
0.0
  0
SEQEND
  5
689
330
688
100
AcDbEntity
  8
002
370
     9
  0
POLYLINE
  5
69F
330
1F
100
AcDbEntity
  8
002
 62
     3
370
     9
100
AcDb2dPolyline
 66
     1
 10
0.0
 20
0.0
 30
0.0
  0
VERTEX
  5
6A1
330
69F
100
AcDbEntity
  8
002
 62
     3
370
     9
100
AcDbVertex
100
AcDb2dVertex
 10
293.026257
 20
360.282222
 30
0.0
  0
VERTEX
  5
6A2
330
69F
100
AcDbEntity
  8
002
 62
     3
370
     9
100
AcDbVertex
100
AcDb2dVertex
 10
294.826252
 20
357.914222
 30
0.0
  0
VERTEX
  5
6A3
330
69F
100
AcDbEntity
  8
002
 62
     3
370
     9
100
AcDbVertex
100
AcDb2dVertex
 10
296.626247
 20
355.738222
 30
0.0
  0
VERTEX
  5
6A4
330
69F
100
AcDbEntity
  8
002
 62
     3
370
     9
100
AcDbVertex
100
AcDb2dVertex
 10
298.426242
 20
353.946222
 30
0.0
  0
VERTEX
  5
6A5
330
69F
100
AcDbEntity
  8
002
 62
     3
370
     9
100
AcDbVertex
100
AcDb2dVertex
 10
300.226237
 20
352.730222
 30
0.0
  0
VERTEX
  5
6A6
330
69F
100
AcDbEntity
  8
002
 62
     3
370
     9
100
AcDbVertex
100
AcDb2dVertex
 10
302.026232
 20
352.282222
 30
0.0
  0
VERTEX
  5
6A7
330
69F
100
AcDbEntity
  8
002
 62
     3
370
     9
100
AcDbVertex
100
AcDb2dVertex
 10
303.826227
 20
352.730222
 30
0.0
  0
VERTEX
  5
6A8
330
69F
100
AcDbEntity
  8
002
 62
     3
370
     9
100
AcDbVertex
100
AcDb2dVertex
 10
305.626222
 20
353.946222
 30
0.0
  0
VERTEX
  5
6A9
330
69F
100
AcDbEntity
  8
002
 62
     3
370
     9
100
AcDbVertex
100
AcDb2dVertex
 10
307.426217
 20
355.738222
 30
0.0
  0
VERTEX
  5
6AA
330
69F
100
AcDbEntity
  8
002
 62
     3
370
     9
100
AcDbVertex
100
AcDb2dVertex
 10
309.226212
 20
357.914222
 30
0.0
  0
VERTEX
  5
6AB
330
69F
100
AcDbEntity
  8
002
 62
     3
370
     9
100
AcDbVertex
100
AcDb2dVertex
 10
311.026207
 20
360.282222
 30
0.0
  0
VERTEX
  5
6AC
330
69F
100
AcDbEntity
  8
002
 62
     3
370
     9
100
AcDbVertex
100
AcDb2dVertex
 10
312.826202
 20
362.650222
 30
0.0
  0
VERTEX
  5
6AD
330
69F
100
AcDbEntity
  8
002
 62
     3
370
     9
100
AcDbVertex
100
AcDb2dVertex
 10
314.626197
 20
364.826222
 30
0.0
  0
VERTEX
  5
6AE
330
69F
100
AcDbEntity
  8
002
 62
     3
370
     9
100
AcDbVertex
100
AcDb2dVertex
 10
316.426192
 20
366.618222
 30
0.0
  0
VERTEX
  5
6AF
330
69F
100
AcDbEntity
  8
002
 62
     3
370
     9
100
AcDbVertex
100
AcDb2dVertex
 10
318.226187
 20
367.834222
 30
0.0
  0
VERTEX
  5
6B0
330
69F
100
AcDbEntity
  8
002
 62
     3
370
     9
100
AcDbVertex
100
AcDb2dVertex
 10
320.026182
 20
368.282222
 30
0.0
  0
VERTEX
  5
6B1
330
69F
100
AcDbEntity
  8
002
 62
     3
370
     9
100
AcDbVertex
100
AcDb2dVertex
 10
321.826177
 20
367.834222
 30
0.0
  0
VERTEX
  5
6B2
330
69F
100
AcDbEntity
  8
002
 62
     3
370
     9
100
AcDbVertex
100
AcDb2dVertex
 10
323.626172
 20
366.618222
 30
0.0
  0
VERTEX
  5
6B3
330
69F
100
AcDbEntity
  8
002
 62
     3
370
     9
100
AcDbVertex
100
AcDb2dVertex
 10
325.426167
 20
364.826222
 30
0.0
  0
VERTEX
  5
6B4
330
69F
100
AcDbEntity
  8
002
 62
     3
370
     9
100
AcDbVertex
100
AcDb2dVertex
 10
327.226162
 20
362.650222
 30
0.0
  0
VERTEX
  5
6B5
330
69F
100
AcDbEntity
  8
002
 62
     3
370
     9
100
AcDbVertex
100
AcDb2dVertex
 10
329.026157
 20
360.282222
 30
0.0
  0
SEQEND
  5
6A0
330
69F
100
AcDbEntity
  8
002
370
     9
  0
LINE
  5
6B6
330
1F
100
AcDbEntity
  8
002
 62
     3
370
    30
100
AcDbLine
 10
329.026157
 20
282.623929
 30
0.0
 11
329.026157
 21
344.282222
 31
0.0
  0
LINE
  5
6B7
330
1F
100
AcDbEntity
  8
002
 62
     3
370
    30
100
AcDbLine
 10
329.026157
 20
360.282222
 30
0.0
 11
329.026157
 21
421.940514
 31
0.0
  0
LINE
  5
6B8
330
1F
100
AcDbEntity
  8
002
 62
     3
370
    30
100
AcDbLine
 10
293.026257
 20
421.940514
 30
0.0
 11
293.026257
 21
360.282222
 31
0.0
  0
LINE
  5
6B9
330
1F
100
AcDbEntity
  8
002
 62
     3
370
    30
100
AcDbLine
 10
293.026257
 20
344.282222
 30
0.0
 11
293.026257
 21
282.623929
 31
0.0
  0
LINE
  5
6BA
330
1F
100
AcDbEntity
  8
002
 62
    40
370
     9
100
AcDbLine
 10
326.926257
 20
282.623929
 30
0.0
 11
326.926257
 21
347.031288
 31
0.0
  0
LINE
  5
6BB
330
1F
100
AcDbEntity
  8
002
 62
    40
370
     9
100
AcDbLine
 10
326.926257
 20
363.031288
 30
0.0
 11
326.926257
 21
421.940514
 31
0.0
  0
LINE
  5
6BC
330
1F
100
AcDbEntity
  8
002
 62
    40
370
     9
100
AcDbLine
 10
295.126257
 20
421.940514
 30
0.0
 11
295.126257
 21
357.533029
 31
0.0
  0
LINE
  5
6BD
330
1F
100
AcDbEntity
  8
002
 62
    40
370
     9
100
AcDbLine
 10
295.126257
 20
341.533029
 30
0.0
 11
295.126257
 21
282.623929
 31
0.0
  0
POLYLINE
  5
6BE
330
1F
100
AcDbEntity
  8
002
 62
     3
370
     9
100
AcDb2dPolyline
 66
     1
 10
0.0
 20
0.0
 30
0.0
  0
VERTEX
  5
6C0
330
6BE
100
AcDbEntity
  8
002
 62
     3
370
     9
100
AcDbVertex
100
AcDb2dVertex
 10
567.026257
 20
344.282222
 30
0.0
  0
VERTEX
  5
6C1
330
6BE
100
AcDbEntity
  8
002
 62
     3
370
     9
100
AcDbVertex
100
AcDb2dVertex
 10
568.826252
 20
341.914222
 30
0.0
  0
VERTEX
  5
6C2
330
6BE
100
AcDbEntity
  8
002
 62
     3
370
     9
100
AcDbVertex
100
AcDb2dVertex
 10
570.626247
 20
339.738222
 30
0.0
  0
VERTEX
  5
6C3
330
6BE
100
AcDbEntity
  8
002
 62
     3
370
     9
100
AcDbVertex
100
AcDb2dVertex
 10
572.426242
 20
337.946222
 30
0.0
  0
VERTEX
  5
6C4
330
6BE
100
AcDbEntity
  8
002
 62
     3
370
     9
100
AcDbVertex
100
AcDb2dVertex
 10
574.226237
 20
336.730222
 30
0.0
  0
VERTEX
  5
6C5
330
6BE
100
AcDbEntity
  8
002
 62
     3
370
     9
100
AcDbVertex
100
AcDb2dVertex
 10
576.026232
 20
336.282222
 30
0.0
  0
VERTEX
  5
6C6
330
6BE
100
AcDbEntity
  8
002
 62
     3
370
     9
100
AcDbVertex
100
AcDb2dVertex
 10
577.826227
 20
336.730222
 30
0.0
  0
VERTEX
  5
6C7
330
6BE
100
AcDbEntity
  8
002
 62
     3
370
     9
100
AcDbVertex
100
AcDb2dVertex
 10
579.626222
 20
337.946222
 30
0.0
  0
VERTEX
  5
6C8
330
6BE
100
AcDbEntity
  8
002
 62
     3
370
     9
100
AcDbVertex
100
AcDb2dVertex
 10
581.426217
 20
339.738222
 30
0.0
  0
VERTEX
  5
6C9
330
6BE
100
AcDbEntity
  8
002
 62
     3
370
     9
100
AcDbVertex
100
AcDb2dVertex
 10
583.226212
 20
341.914222
 30
0.0
  0
VERTEX
  5
6CA
330
6BE
100
AcDbEntity
  8
002
 62
     3
370
     9
100
AcDbVertex
100
AcDb2dVertex
 10
585.026207
 20
344.282222
 30
0.0
  0
VERTEX
  5
6CB
330
6BE
100
AcDbEntity
  8
002
 62
     3
370
     9
100
AcDbVertex
100
AcDb2dVertex
 10
586.826202
 20
346.650222
 30
0.0
  0
VERTEX
  5
6CC
330
6BE
100
AcDbEntity
  8
002
 62
     3
370
     9
100
AcDbVertex
100
AcDb2dVertex
 10
588.626197
 20
348.826222
 30
0.0
  0
VERTEX
  5
6CD
330
6BE
100
AcDbEntity
  8
002
 62
     3
370
     9
100
AcDbVertex
100
AcDb2dVertex
 10
590.426192
 20
350.618222
 30
0.0
  0
VERTEX
  5
6CE
330
6BE
100
AcDbEntity
  8
002
 62
     3
370
     9
100
AcDbVertex
100
AcDb2dVertex
 10
592.226187
 20
351.834222
 30
0.0
  0
VERTEX
  5
6CF
330
6BE
100
AcDbEntity
  8
002
 62
     3
370
     9
100
AcDbVertex
100
AcDb2dVertex
 10
594.026182
 20
352.282222
 30
0.0
  0
VERTEX
  5
6D0
330
6BE
100
AcDbEntity
  8
002
 62
     3
370
     9
100
AcDbVertex
100
AcDb2dVertex
 10
595.826177
 20
351.834222
 30
0.0
  0
VERTEX
  5
6D1
330
6BE
100
AcDbEntity
  8
002
 62
     3
370
     9
100
AcDbVertex
100
AcDb2dVertex
 10
597.626172
 20
350.618222
 30
0.0
  0
VERTEX
  5
6D2
330
6BE
100
AcDbEntity
  8
002
 62
     3
370
     9
100
AcDbVertex
100
AcDb2dVertex
 10
599.426167
 20
348.826222
 30
0.0
  0
VERTEX
  5
6D3
330
6BE
100
AcDbEntity
  8
002
 62
     3
370
     9
100
AcDbVertex
100
AcDb2dVertex
 10
601.226162
 20
346.650222
 30
0.0
  0
VERTEX
  5
6D4
330
6BE
100
AcDbEntity
  8
002
 62
     3
370
     9
100
AcDbVertex
100
AcDb2dVertex
 10
603.026157
 20
344.282222
 30
0.0
  0
SEQEND
  5
6BF
330
6BE
100
AcDbEntity
  8
002
370
     9
  0
POLYLINE
  5
6D5
330
1F
100
AcDbEntity
  8
002
 62
     3
370
     9
100
AcDb2dPolyline
 66
     1
 10
0.0
 20
0.0
 30
0.0
  0
VERTEX
  5
6D7
330
6D5
100
AcDbEntity
  8
002
 62
     3
370
     9
100
AcDbVertex
100
AcDb2dVertex
 10
567.026257
 20
360.282222
 30
0.0
  0
VERTEX
  5
6D8
330
6D5
100
AcDbEntity
  8
002
 62
     3
370
     9
100
AcDbVertex
100
AcDb2dVertex
 10
568.826252
 20
357.914222
 30
0.0
  0
VERTEX
  5
6D9
330
6D5
100
AcDbEntity
  8
002
 62
     3
370
     9
100
AcDbVertex
100
AcDb2dVertex
 10
570.626247
 20
355.738222
 30
0.0
  0
VERTEX
  5
6DA
330
6D5
100
AcDbEntity
  8
002
 62
     3
370
     9
100
AcDbVertex
100
AcDb2dVertex
 10
572.426242
 20
353.946222
 30
0.0
  0
VERTEX
  5
6DB
330
6D5
100
AcDbEntity
  8
002
 62
     3
370
     9
100
AcDbVertex
100
AcDb2dVertex
 10
574.226237
 20
352.730222
 30
0.0
  0
VERTEX
  5
6DC
330
6D5
100
AcDbEntity
  8
002
 62
     3
370
     9
100
AcDbVertex
100
AcDb2dVertex
 10
576.026232
 20
352.282222
 30
0.0
  0
VERTEX
  5
6DD
330
6D5
100
AcDbEntity
  8
002
 62
     3
370
     9
100
AcDbVertex
100
AcDb2dVertex
 10
577.826227
 20
352.730222
 30
0.0
  0
VERTEX
  5
6DE
330
6D5
100
AcDbEntity
  8
002
 62
     3
370
     9
100
AcDbVertex
100
AcDb2dVertex
 10
579.626222
 20
353.946222
 30
0.0
  0
VERTEX
  5
6DF
330
6D5
100
AcDbEntity
  8
002
 62
     3
370
     9
100
AcDbVertex
100
AcDb2dVertex
 10
581.426217
 20
355.738222
 30
0.0
  0
VERTEX
  5
6E0
330
6D5
100
AcDbEntity
  8
002
 62
     3
370
     9
100
AcDbVertex
100
AcDb2dVertex
 10
583.226212
 20
357.914222
 30
0.0
  0
VERTEX
  5
6E1
330
6D5
100
AcDbEntity
  8
002
 62
     3
370
     9
100
AcDbVertex
100
AcDb2dVertex
 10
585.026207
 20
360.282222
 30
0.0
  0
VERTEX
  5
6E2
330
6D5
100
AcDbEntity
  8
002
 62
     3
370
     9
100
AcDbVertex
100
AcDb2dVertex
 10
586.826202
 20
362.650222
 30
0.0
  0
VERTEX
  5
6E3
330
6D5
100
AcDbEntity
  8
002
 62
     3
370
     9
100
AcDbVertex
100
AcDb2dVertex
 10
588.626197
 20
364.826222
 30
0.0
  0
VERTEX
  5
6E4
330
6D5
100
AcDbEntity
  8
002
 62
     3
370
     9
100
AcDbVertex
100
AcDb2dVertex
 10
590.426192
 20
366.618222
 30
0.0
  0
VERTEX
  5
6E5
330
6D5
100
AcDbEntity
  8
002
 62
     3
370
     9
100
AcDbVertex
100
AcDb2dVertex
 10
592.226187
 20
367.834222
 30
0.0
  0
VERTEX
  5
6E6
330
6D5
100
AcDbEntity
  8
002
 62
     3
370
     9
100
AcDbVertex
100
AcDb2dVertex
 10
594.026182
 20
368.282222
 30
0.0
  0
VERTEX
  5
6E7
330
6D5
100
AcDbEntity
  8
002
 62
     3
370
     9
100
AcDbVertex
100
AcDb2dVertex
 10
595.826177
 20
367.834222
 30
0.0
  0
VERTEX
  5
6E8
330
6D5
100
AcDbEntity
  8
002
 62
     3
370
     9
100
AcDbVertex
100
AcDb2dVertex
 10
597.626172
 20
366.618222
 30
0.0
  0
VERTEX
  5
6E9
330
6D5
100
AcDbEntity
  8
002
 62
     3
370
     9
100
AcDbVertex
100
AcDb2dVertex
 10
599.426167
 20
364.826222
 30
0.0
  0
VERTEX
  5
6EA
330
6D5
100
AcDbEntity
  8
002
 62
     3
370
     9
100
AcDbVertex
100
AcDb2dVertex
 10
601.226162
 20
362.650222
 30
0.0
  0
VERTEX
  5
6EB
330
6D5
100
AcDbEntity
  8
002
 62
     3
370
     9
100
AcDbVertex
100
AcDb2dVertex
 10
603.026157
 20
360.282222
 30
0.0
  0
SEQEND
  5
6D6
330
6D5
100
AcDbEntity
  8
002
370
     9
  0
LINE
  5
6EC
330
1F
100
AcDbEntity
  8
002
 62
     3
370
    30
100
AcDbLine
 10
603.026157
 20
282.623929
 30
0.0
 11
603.026157
 21
344.282222
 31
0.0
  0
LINE
  5
6ED
330
1F
100
AcDbEntity
  8
002
 62
     3
370
    30
100
AcDbLine
 10
603.026157
 20
360.282222
 30
0.0
 11
603.026157
 21
421.940514
 31
0.0
  0
LINE
  5
6EE
330
1F
100
AcDbEntity
  8
002
 62
     3
370
    30
100
AcDbLine
 10
567.026257
 20
421.940514
 30
0.0
 11
567.026257
 21
360.282222
 31
0.0
  0
LINE
  5
6EF
330
1F
100
AcDbEntity
  8
002
 62
     3
370
    30
100
AcDbLine
 10
567.026257
 20
344.282222
 30
0.0
 11
567.026257
 21
282.623929
 31
0.0
  0
LINE
  5
6F0
330
1F
100
AcDbEntity
  8
002
 62
    40
370
     9
100
AcDbLine
 10
600.926257
 20
282.623929
 30
0.0
 11
600.926257
 21
347.031288
 31
0.0
  0
LINE
  5
6F1
330
1F
100
AcDbEntity
  8
002
 62
    40
370
     9
100
AcDbLine
 10
600.926257
 20
363.031288
 30
0.0
 11
600.926257
 21
421.940514
 31
0.0
  0
LINE
  5
6F2
330
1F
100
AcDbEntity
  8
002
 62
    40
370
     9
100
AcDbLine
 10
569.126257
 20
421.940514
 30
0.0
 11
569.126257
 21
357.533029
 31
0.0
  0
LINE
  5
6F3
330
1F
100
AcDbEntity
  8
002
 62
    40
370
     9
100
AcDbLine
 10
569.126257
 20
341.533029
 30
0.0
 11
569.126257
 21
282.623929
 31
0.0
  0
POLYLINE
  5
6F4
330
1F
100
AcDbEntity
  8
002
 62
     3
370
     9
100
AcDb2dPolyline
 66
     1
 10
0.0
 20
0.0
 30
0.0
  0
VERTEX
  5
6F6
330
6F4
100
AcDbEntity
  8
002
 62
     3
370
     9
100
AcDbVertex
100
AcDb2dVertex
 10
808.026257
 20
344.282222
 30
0.0
  0
VERTEX
  5
6F7
330
6F4
100
AcDbEntity
  8
002
 62
     3
370
     9
100
AcDbVertex
100
AcDb2dVertex
 10
809.826252
 20
341.914222
 30
0.0
  0
VERTEX
  5
6F8
330
6F4
100
AcDbEntity
  8
002
 62
     3
370
     9
100
AcDbVertex
100
AcDb2dVertex
 10
811.626247
 20
339.738222
 30
0.0
  0
VERTEX
  5
6F9
330
6F4
100
AcDbEntity
  8
002
 62
     3
370
     9
100
AcDbVertex
100
AcDb2dVertex
 10
813.426242
 20
337.946222
 30
0.0
  0
VERTEX
  5
6FA
330
6F4
100
AcDbEntity
  8
002
 62
     3
370
     9
100
AcDbVertex
100
AcDb2dVertex
 10
815.226237
 20
336.730222
 30
0.0
  0
VERTEX
  5
6FB
330
6F4
100
AcDbEntity
  8
002
 62
     3
370
     9
100
AcDbVertex
100
AcDb2dVertex
 10
817.026232
 20
336.282222
 30
0.0
  0
VERTEX
  5
6FC
330
6F4
100
AcDbEntity
  8
002
 62
     3
370
     9
100
AcDbVertex
100
AcDb2dVertex
 10
818.826227
 20
336.730222
 30
0.0
  0
VERTEX
  5
6FD
330
6F4
100
AcDbEntity
  8
002
 62
     3
370
     9
100
AcDbVertex
100
AcDb2dVertex
 10
820.626222
 20
337.946222
 30
0.0
  0
VERTEX
  5
6FE
330
6F4
100
AcDbEntity
  8
002
 62
     3
370
     9
100
AcDbVertex
100
AcDb2dVertex
 10
822.426217
 20
339.738222
 30
0.0
  0
VERTEX
  5
6FF
330
6F4
100
AcDbEntity
  8
002
 62
     3
370
     9
100
AcDbVertex
100
AcDb2dVertex
 10
824.226212
 20
341.914222
 30
0.0
  0
VERTEX
  5
700
330
6F4
100
AcDbEntity
  8
002
 62
     3
370
     9
100
AcDbVertex
100
AcDb2dVertex
 10
826.026207
 20
344.282222
 30
0.0
  0
VERTEX
  5
701
330
6F4
100
AcDbEntity
  8
002
 62
     3
370
     9
100
AcDbVertex
100
AcDb2dVertex
 10
827.826202
 20
346.650222
 30
0.0
  0
VERTEX
  5
702
330
6F4
100
AcDbEntity
  8
002
 62
     3
370
     9
100
AcDbVertex
100
AcDb2dVertex
 10
829.626197
 20
348.826222
 30
0.0
  0
VERTEX
  5
703
330
6F4
100
AcDbEntity
  8
002
 62
     3
370
     9
100
AcDbVertex
100
AcDb2dVertex
 10
831.426192
 20
350.618222
 30
0.0
  0
VERTEX
  5
704
330
6F4
100
AcDbEntity
  8
002
 62
     3
370
     9
100
AcDbVertex
100
AcDb2dVertex
 10
833.226187
 20
351.834222
 30
0.0
  0
VERTEX
  5
705
330
6F4
100
AcDbEntity
  8
002
 62
     3
370
     9
100
AcDbVertex
100
AcDb2dVertex
 10
835.026182
 20
352.282222
 30
0.0
  0
VERTEX
  5
706
330
6F4
100
AcDbEntity
  8
002
 62
     3
370
     9
100
AcDbVertex
100
AcDb2dVertex
 10
836.826177
 20
351.834222
 30
0.0
  0
VERTEX
  5
707
330
6F4
100
AcDbEntity
  8
002
 62
     3
370
     9
100
AcDbVertex
100
AcDb2dVertex
 10
838.626172
 20
350.618222
 30
0.0
  0
VERTEX
  5
708
330
6F4
100
AcDbEntity
  8
002
 62
     3
370
     9
100
AcDbVertex
100
AcDb2dVertex
 10
840.426167
 20
348.826222
 30
0.0
  0
VERTEX
  5
709
330
6F4
100
AcDbEntity
  8
002
 62
     3
370
     9
100
AcDbVertex
100
AcDb2dVertex
 10
842.226162
 20
346.650222
 30
0.0
  0
VERTEX
  5
70A
330
6F4
100
AcDbEntity
  8
002
 62
     3
370
     9
100
AcDbVertex
100
AcDb2dVertex
 10
844.026157
 20
344.282222
 30
0.0
  0
SEQEND
  5
6F5
330
6F4
100
AcDbEntity
  8
002
370
     9
  0
POLYLINE
  5
70B
330
1F
100
AcDbEntity
  8
002
 62
     3
370
     9
100
AcDb2dPolyline
 66
     1
 10
0.0
 20
0.0
 30
0.0
  0
VERTEX
  5
70D
330
70B
100
AcDbEntity
  8
002
 62
     3
370
     9
100
AcDbVertex
100
AcDb2dVertex
 10
808.026257
 20
360.282222
 30
0.0
  0
VERTEX
  5
70E
330
70B
100
AcDbEntity
  8
002
 62
     3
370
     9
100
AcDbVertex
100
AcDb2dVertex
 10
809.826252
 20
357.914222
 30
0.0
  0
VERTEX
  5
70F
330
70B
100
AcDbEntity
  8
002
 62
     3
370
     9
100
AcDbVertex
100
AcDb2dVertex
 10
811.626247
 20
355.738222
 30
0.0
  0
VERTEX
  5
710
330
70B
100
AcDbEntity
  8
002
 62
     3
370
     9
100
AcDbVertex
100
AcDb2dVertex
 10
813.426242
 20
353.946222
 30
0.0
  0
VERTEX
  5
711
330
70B
100
AcDbEntity
  8
002
 62
     3
370
     9
100
AcDbVertex
100
AcDb2dVertex
 10
815.226237
 20
352.730222
 30
0.0
  0
VERTEX
  5
712
330
70B
100
AcDbEntity
  8
002
 62
     3
370
     9
100
AcDbVertex
100
AcDb2dVertex
 10
817.026232
 20
352.282222
 30
0.0
  0
VERTEX
  5
713
330
70B
100
AcDbEntity
  8
002
 62
     3
370
     9
100
AcDbVertex
100
AcDb2dVertex
 10
818.826227
 20
352.730222
 30
0.0
  0
VERTEX
  5
714
330
70B
100
AcDbEntity
  8
002
 62
     3
370
     9
100
AcDbVertex
100
AcDb2dVertex
 10
820.626222
 20
353.946222
 30
0.0
  0
VERTEX
  5
715
330
70B
100
AcDbEntity
  8
002
 62
     3
370
     9
100
AcDbVertex
100
AcDb2dVertex
 10
822.426217
 20
355.738222
 30
0.0
  0
VERTEX
  5
716
330
70B
100
AcDbEntity
  8
002
 62
     3
370
     9
100
AcDbVertex
100
AcDb2dVertex
 10
824.226212
 20
357.914222
 30
0.0
  0
VERTEX
  5
717
330
70B
100
AcDbEntity
  8
002
 62
     3
370
     9
100
AcDbVertex
100
AcDb2dVertex
 10
826.026207
 20
360.282222
 30
0.0
  0
VERTEX
  5
718
330
70B
100
AcDbEntity
  8
002
 62
     3
370
     9
100
AcDbVertex
100
AcDb2dVertex
 10
827.826202
 20
362.650222
 30
0.0
  0
VERTEX
  5
719
330
70B
100
AcDbEntity
  8
002
 62
     3
370
     9
100
AcDbVertex
100
AcDb2dVertex
 10
829.626197
 20
364.826222
 30
0.0
  0
VERTEX
  5
71A
330
70B
100
AcDbEntity
  8
002
 62
     3
370
     9
100
AcDbVertex
100
AcDb2dVertex
 10
831.426192
 20
366.618222
 30
0.0
  0
VERTEX
  5
71B
330
70B
100
AcDbEntity
  8
002
 62
     3
370
     9
100
AcDbVertex
100
AcDb2dVertex
 10
833.226187
 20
367.834222
 30
0.0
  0
VERTEX
  5
71C
330
70B
100
AcDbEntity
  8
002
 62
     3
370
     9
100
AcDbVertex
100
AcDb2dVertex
 10
835.026182
 20
368.282222
 30
0.0
  0
VERTEX
  5
71D
330
70B
100
AcDbEntity
  8
002
 62
     3
370
     9
100
AcDbVertex
100
AcDb2dVertex
 10
836.826177
 20
367.834222
 30
0.0
  0
VERTEX
  5
71E
330
70B
100
AcDbEntity
  8
002
 62
     3
370
     9
100
AcDbVertex
100
AcDb2dVertex
 10
838.626172
 20
366.618222
 30
0.0
  0
VERTEX
  5
71F
330
70B
100
AcDbEntity
  8
002
 62
     3
370
     9
100
AcDbVertex
100
AcDb2dVertex
 10
840.426167
 20
364.826222
 30
0.0
  0
VERTEX
  5
720
330
70B
100
AcDbEntity
  8
002
 62
     3
370
     9
100
AcDbVertex
100
AcDb2dVertex
 10
842.226162
 20
362.650222
 30
0.0
  0
VERTEX
  5
721
330
70B
100
AcDbEntity
  8
002
 62
     3
370
     9
100
AcDbVertex
100
AcDb2dVertex
 10
844.026157
 20
360.282222
 30
0.0
  0
SEQEND
  5
70C
330
70B
100
AcDbEntity
  8
002
370
     9
  0
LINE
  5
722
330
1F
100
AcDbEntity
  8
002
 62
     3
370
    30
100
AcDbLine
 10
844.026157
 20
282.623929
 30
0.0
 11
844.026157
 21
344.282222
 31
0.0
  0
LINE
  5
723
330
1F
100
AcDbEntity
  8
002
 62
     3
370
    30
100
AcDbLine
 10
844.026157
 20
360.282222
 30
0.0
 11
844.026157
 21
421.940514
 31
0.0
  0
LINE
  5
724
330
1F
100
AcDbEntity
  8
002
 62
     3
370
    30
100
AcDbLine
 10
808.026257
 20
421.940514
 30
0.0
 11
808.026257
 21
360.282222
 31
0.0
  0
LINE
  5
725
330
1F
100
AcDbEntity
  8
002
 62
     3
370
    30
100
AcDbLine
 10
808.026257
 20
344.282222
 30
0.0
 11
808.026257
 21
282.623929
 31
0.0
  0
LINE
  5
726
330
1F
100
AcDbEntity
  8
002
 62
    40
370
     9
100
AcDbLine
 10
841.926257
 20
282.623929
 30
0.0
 11
841.926257
 21
347.031288
 31
0.0
  0
LINE
  5
727
330
1F
100
AcDbEntity
  8
002
 62
    40
370
     9
100
AcDbLine
 10
841.926257
 20
363.031288
 30
0.0
 11
841.926257
 21
421.940514
 31
0.0
  0
LINE
  5
728
330
1F
100
AcDbEntity
  8
002
 62
    40
370
     9
100
AcDbLine
 10
810.126257
 20
421.940514
 30
0.0
 11
810.126257
 21
357.533029
 31
0.0
  0
LINE
  5
729
330
1F
100
AcDbEntity
  8
002
 62
    40
370
     9
100
AcDbLine
 10
810.126257
 20
341.533029
 30
0.0
 11
810.126257
 21
282.623929
 31
0.0
  0
POLYLINE
  5
72A
330
1F
100
AcDbEntity
  8
002
 62
     3
370
     9
100
AcDb2dPolyline
 66
     1
 10
0.0
 20
0.0
 30
0.0
  0
VERTEX
  5
72C
330
72A
100
AcDbEntity
  8
002
 62
     3
370
     9
100
AcDbVertex
100
AcDb2dVertex
 10
1097.608699
 20
371.064406
 30
0.0
  0
VERTEX
  5
72D
330
72A
100
AcDbEntity
  8
002
 62
     3
370
     9
100
AcDbVertex
100
AcDb2dVertex
 10
1099.408699
 20
368.696406
 30
0.0
  0
VERTEX
  5
72E
330
72A
100
AcDbEntity
  8
002
 62
     3
370
     9
100
AcDbVertex
100
AcDb2dVertex
 10
1101.208699
 20
366.520406
 30
0.0
  0
VERTEX
  5
72F
330
72A
100
AcDbEntity
  8
002
 62
     3
370
     9
100
AcDbVertex
100
AcDb2dVertex
 10
1103.008699
 20
364.728406
 30
0.0
  0
VERTEX
  5
730
330
72A
100
AcDbEntity
  8
002
 62
     3
370
     9
100
AcDbVertex
100
AcDb2dVertex
 10
1104.808699
 20
363.512406
 30
0.0
  0
VERTEX
  5
731
330
72A
100
AcDbEntity
  8
002
 62
     3
370
     9
100
AcDbVertex
100
AcDb2dVertex
 10
1106.608699
 20
363.064406
 30
0.0
  0
VERTEX
  5
732
330
72A
100
AcDbEntity
  8
002
 62
     3
370
     9
100
AcDbVertex
100
AcDb2dVertex
 10
1108.408699
 20
363.512406
 30
0.0
  0
VERTEX
  5
733
330
72A
100
AcDbEntity
  8
002
 62
     3
370
     9
100
AcDbVertex
100
AcDb2dVertex
 10
1110.208699
 20
364.728406
 30
0.0
  0
VERTEX
  5
734
330
72A
100
AcDbEntity
  8
002
 62
     3
370
     9
100
AcDbVertex
100
AcDb2dVertex
 10
1112.008699
 20
366.520406
 30
0.0
  0
VERTEX
  5
735
330
72A
100
AcDbEntity
  8
002
 62
     3
370
     9
100
AcDbVertex
100
AcDb2dVertex
 10
1113.808699
 20
368.696406
 30
0.0
  0
VERTEX
  5
736
330
72A
100
AcDbEntity
  8
002
 62
     3
370
     9
100
AcDbVertex
100
AcDb2dVertex
 10
1115.608699
 20
371.064406
 30
0.0
  0
VERTEX
  5
737
330
72A
100
AcDbEntity
  8
002
 62
     3
370
     9
100
AcDbVertex
100
AcDb2dVertex
 10
1117.408699
 20
373.432406
 30
0.0
  0
VERTEX
  5
738
330
72A
100
AcDbEntity
  8
002
 62
     3
370
     9
100
AcDbVertex
100
AcDb2dVertex
 10
1119.208699
 20
375.608406
 30
0.0
  0
VERTEX
  5
739
330
72A
100
AcDbEntity
  8
002
 62
     3
370
     9
100
AcDbVertex
100
AcDb2dVertex
 10
1121.008699
 20
377.400406
 30
0.0
  0
VERTEX
  5
73A
330
72A
100
AcDbEntity
  8
002
 62
     3
370
     9
100
AcDbVertex
100
AcDb2dVertex
 10
1122.808699
 20
378.616406
 30
0.0
  0
VERTEX
  5
73B
330
72A
100
AcDbEntity
  8
002
 62
     3
370
     9
100
AcDbVertex
100
AcDb2dVertex
 10
1124.608699
 20
379.064406
 30
0.0
  0
VERTEX
  5
73C
330
72A
100
AcDbEntity
  8
002
 62
     3
370
     9
100
AcDbVertex
100
AcDb2dVertex
 10
1126.408699
 20
378.616406
 30
0.0
  0
VERTEX
  5
73D
330
72A
100
AcDbEntity
  8
002
 62
     3
370
     9
100
AcDbVertex
100
AcDb2dVertex
 10
1128.208699
 20
377.400406
 30
0.0
  0
VERTEX
  5
73E
330
72A
100
AcDbEntity
  8
002
 62
     3
370
     9
100
AcDbVertex
100
AcDb2dVertex
 10
1130.008699
 20
375.608406
 30
0.0
  0
VERTEX
  5
73F
330
72A
100
AcDbEntity
  8
002
 62
     3
370
     9
100
AcDbVertex
100
AcDb2dVertex
 10
1131.808699
 20
373.432406
 30
0.0
  0
VERTEX
  5
740
330
72A
100
AcDbEntity
  8
002
 62
     3
370
     9
100
AcDbVertex
100
AcDb2dVertex
 10
1133.608699
 20
371.064406
 30
0.0
  0
SEQEND
  5
72B
330
72A
100
AcDbEntity
  8
002
370
     9
  0
POLYLINE
  5
741
330
1F
100
AcDbEntity
  8
002
 62
     3
370
     9
100
AcDb2dPolyline
 66
     1
 10
0.0
 20
0.0
 30
0.0
  0
VERTEX
  5
743
330
741
100
AcDbEntity
  8
002
 62
     3
370
     9
100
AcDbVertex
100
AcDb2dVertex
 10
1097.608699
 20
387.064406
 30
0.0
  0
VERTEX
  5
744
330
741
100
AcDbEntity
  8
002
 62
     3
370
     9
100
AcDbVertex
100
AcDb2dVertex
 10
1099.408699
 20
384.696406
 30
0.0
  0
VERTEX
  5
745
330
741
100
AcDbEntity
  8
002
 62
     3
370
     9
100
AcDbVertex
100
AcDb2dVertex
 10
1101.208699
 20
382.520406
 30
0.0
  0
VERTEX
  5
746
330
741
100
AcDbEntity
  8
002
 62
     3
370
     9
100
AcDbVertex
100
AcDb2dVertex
 10
1103.008699
 20
380.728406
 30
0.0
  0
VERTEX
  5
747
330
741
100
AcDbEntity
  8
002
 62
     3
370
     9
100
AcDbVertex
100
AcDb2dVertex
 10
1104.808699
 20
379.512406
 30
0.0
  0
VERTEX
  5
748
330
741
100
AcDbEntity
  8
002
 62
     3
370
     9
100
AcDbVertex
100
AcDb2dVertex
 10
1106.608699
 20
379.064406
 30
0.0
  0
VERTEX
  5
749
330
741
100
AcDbEntity
  8
002
 62
     3
370
     9
100
AcDbVertex
100
AcDb2dVertex
 10
1108.408699
 20
379.512406
 30
0.0
  0
VERTEX
  5
74A
330
741
100
AcDbEntity
  8
002
 62
     3
370
     9
100
AcDbVertex
100
AcDb2dVertex
 10
1110.208699
 20
380.728406
 30
0.0
  0
VERTEX
  5
74B
330
741
100
AcDbEntity
  8
002
 62
     3
370
     9
100
AcDbVertex
100
AcDb2dVertex
 10
1112.008699
 20
382.520406
 30
0.0
  0
VERTEX
  5
74C
330
741
100
AcDbEntity
  8
002
 62
     3
370
     9
100
AcDbVertex
100
AcDb2dVertex
 10
1113.808699
 20
384.696406
 30
0.0
  0
VERTEX
  5
74D
330
741
100
AcDbEntity
  8
002
 62
     3
370
     9
100
AcDbVertex
100
AcDb2dVertex
 10
1115.608699
 20
387.064406
 30
0.0
  0
VERTEX
  5
74E
330
741
100
AcDbEntity
  8
002
 62
     3
370
     9
100
AcDbVertex
100
AcDb2dVertex
 10
1117.408699
 20
389.432406
 30
0.0
  0
VERTEX
  5
74F
330
741
100
AcDbEntity
  8
002
 62
     3
370
     9
100
AcDbVertex
100
AcDb2dVertex
 10
1119.208699
 20
391.608406
 30
0.0
  0
VERTEX
  5
750
330
741
100
AcDbEntity
  8
002
 62
     3
370
     9
100
AcDbVertex
100
AcDb2dVertex
 10
1121.008699
 20
393.400406
 30
0.0
  0
VERTEX
  5
751
330
741
100
AcDbEntity
  8
002
 62
     3
370
     9
100
AcDbVertex
100
AcDb2dVertex
 10
1122.808699
 20
394.616406
 30
0.0
  0
VERTEX
  5
752
330
741
100
AcDbEntity
  8
002
 62
     3
370
     9
100
AcDbVertex
100
AcDb2dVertex
 10
1124.608699
 20
395.064406
 30
0.0
  0
VERTEX
  5
753
330
741
100
AcDbEntity
  8
002
 62
     3
370
     9
100
AcDbVertex
100
AcDb2dVertex
 10
1126.408699
 20
394.616406
 30
0.0
  0
VERTEX
  5
754
330
741
100
AcDbEntity
  8
002
 62
     3
370
     9
100
AcDbVertex
100
AcDb2dVertex
 10
1128.208699
 20
393.400406
 30
0.0
  0
VERTEX
  5
755
330
741
100
AcDbEntity
  8
002
 62
     3
370
     9
100
AcDbVertex
100
AcDb2dVertex
 10
1130.008699
 20
391.608406
 30
0.0
  0
VERTEX
  5
756
330
741
100
AcDbEntity
  8
002
 62
     3
370
     9
100
AcDbVertex
100
AcDb2dVertex
 10
1131.808699
 20
389.432406
 30
0.0
  0
VERTEX
  5
757
330
741
100
AcDbEntity
  8
002
 62
     3
370
     9
100
AcDbVertex
100
AcDb2dVertex
 10
1133.608699
 20
387.064406
 30
0.0
  0
SEQEND
  5
742
330
741
100
AcDbEntity
  8
002
370
     9
  0
LINE
  5
758
330
1F
100
AcDbEntity
  8
002
 62
     3
370
    30
100
AcDbLine
 10
1097.608699
 20
445.464435
 30
0.0
 11
1097.608699
 21
387.064406
 31
0.0
  0
LINE
  5
759
330
1F
100
AcDbEntity
  8
002
 62
     3
370
    30
100
AcDbLine
 10
1097.608699
 20
371.064406
 30
0.0
 11
1097.608699
 21
312.664376
 31
0.0
  0
LINE
  5
75A
330
1F
100
AcDbEntity
  8
002
 62
     3
370
    30
100
AcDbLine
 10
1133.608699
 20
312.664376
 30
0.0
 11
1133.608699
 21
371.064406
 31
0.0
  0
LINE
  5
75B
330
1F
100
AcDbEntity
  8
002
 62
     3
370
    30
100
AcDbLine
 10
1133.608699
 20
387.064406
 30
0.0
 11
1133.608699
 21
445.464435
 31
0.0
  0
LINE
  5
75C
330
1F
100
AcDbEntity
  8
002
 62
    40
370
     9
100
AcDbLine
 10
1131.508699
 20
312.664376
 30
0.0
 11
1131.508699
 21
373.813591
 31
0.0
  0
LINE
  5
75D
330
1F
100
AcDbEntity
  8
002
 62
    40
370
     9
100
AcDbLine
 10
1131.508699
 20
389.813591
 30
0.0
 11
1131.508699
 21
445.464435
 31
0.0
  0
LINE
  5
75E
330
1F
100
AcDbEntity
  8
002
 62
    40
370
     9
100
AcDbLine
 10
1099.708699
 20
445.464435
 30
0.0
 11
1099.708699
 21
384.315221
 31
0.0
  0
LINE
  5
75F
330
1F
100
AcDbEntity
  8
002
 62
    40
370
     9
100
AcDbLine
 10
1099.708699
 20
368.315221
 30
0.0
 11
1099.708699
 21
312.664376
 31
0.0
  0
POLYLINE
  5
760
330
1F
100
AcDbEntity
  8
002
 62
     3
370
     9
100
AcDb2dPolyline
 66
     1
 10
0.0
 20
0.0
 30
0.0
  0
VERTEX
  5
762
330
760
100
AcDbEntity
  8
002
 62
     3
370
     9
100
AcDbVertex
100
AcDb2dVertex
 10
1352.608699
 20
371.064406
 30
0.0
  0
VERTEX
  5
763
330
760
100
AcDbEntity
  8
002
 62
     3
370
     9
100
AcDbVertex
100
AcDb2dVertex
 10
1354.408699
 20
368.696406
 30
0.0
  0
VERTEX
  5
764
330
760
100
AcDbEntity
  8
002
 62
     3
370
     9
100
AcDbVertex
100
AcDb2dVertex
 10
1356.208699
 20
366.520406
 30
0.0
  0
VERTEX
  5
765
330
760
100
AcDbEntity
  8
002
 62
     3
370
     9
100
AcDbVertex
100
AcDb2dVertex
 10
1358.008699
 20
364.728406
 30
0.0
  0
VERTEX
  5
766
330
760
100
AcDbEntity
  8
002
 62
     3
370
     9
100
AcDbVertex
100
AcDb2dVertex
 10
1359.808699
 20
363.512406
 30
0.0
  0
VERTEX
  5
767
330
760
100
AcDbEntity
  8
002
 62
     3
370
     9
100
AcDbVertex
100
AcDb2dVertex
 10
1361.608699
 20
363.064406
 30
0.0
  0
VERTEX
  5
768
330
760
100
AcDbEntity
  8
002
 62
     3
370
     9
100
AcDbVertex
100
AcDb2dVertex
 10
1363.408699
 20
363.512406
 30
0.0
  0
VERTEX
  5
769
330
760
100
AcDbEntity
  8
002
 62
     3
370
     9
100
AcDbVertex
100
AcDb2dVertex
 10
1365.208699
 20
364.728406
 30
0.0
  0
VERTEX
  5
76A
330
760
100
AcDbEntity
  8
002
 62
     3
370
     9
100
AcDbVertex
100
AcDb2dVertex
 10
1367.008699
 20
366.520406
 30
0.0
  0
VERTEX
  5
76B
330
760
100
AcDbEntity
  8
002
 62
     3
370
     9
100
AcDbVertex
100
AcDb2dVertex
 10
1368.808699
 20
368.696406
 30
0.0
  0
VERTEX
  5
76C
330
760
100
AcDbEntity
  8
002
 62
     3
370
     9
100
AcDbVertex
100
AcDb2dVertex
 10
1370.608699
 20
371.064406
 30
0.0
  0
VERTEX
  5
76D
330
760
100
AcDbEntity
  8
002
 62
     3
370
     9
100
AcDbVertex
100
AcDb2dVertex
 10
1372.408699
 20
373.432406
 30
0.0
  0
VERTEX
  5
76E
330
760
100
AcDbEntity
  8
002
 62
     3
370
     9
100
AcDbVertex
100
AcDb2dVertex
 10
1374.208699
 20
375.608406
 30
0.0
  0
VERTEX
  5
76F
330
760
100
AcDbEntity
  8
002
 62
     3
370
     9
100
AcDbVertex
100
AcDb2dVertex
 10
1376.008699
 20
377.400406
 30
0.0
  0
VERTEX
  5
770
330
760
100
AcDbEntity
  8
002
 62
     3
370
     9
100
AcDbVertex
100
AcDb2dVertex
 10
1377.808699
 20
378.616406
 30
0.0
  0
VERTEX
  5
771
330
760
100
AcDbEntity
  8
002
 62
     3
370
     9
100
AcDbVertex
100
AcDb2dVertex
 10
1379.608699
 20
379.064406
 30
0.0
  0
VERTEX
  5
772
330
760
100
AcDbEntity
  8
002
 62
     3
370
     9
100
AcDbVertex
100
AcDb2dVertex
 10
1381.408699
 20
378.616406
 30
0.0
  0
VERTEX
  5
773
330
760
100
AcDbEntity
  8
002
 62
     3
370
     9
100
AcDbVertex
100
AcDb2dVertex
 10
1383.208699
 20
377.400406
 30
0.0
  0
VERTEX
  5
774
330
760
100
AcDbEntity
  8
002
 62
     3
370
     9
100
AcDbVertex
100
AcDb2dVertex
 10
1385.008699
 20
375.608406
 30
0.0
  0
VERTEX
  5
775
330
760
100
AcDbEntity
  8
002
 62
     3
370
     9
100
AcDbVertex
100
AcDb2dVertex
 10
1386.808699
 20
373.432406
 30
0.0
  0
VERTEX
  5
776
330
760
100
AcDbEntity
  8
002
 62
     3
370
     9
100
AcDbVertex
100
AcDb2dVertex
 10
1388.608699
 20
371.064406
 30
0.0
  0
SEQEND
  5
761
330
760
100
AcDbEntity
  8
002
370
     9
  0
POLYLINE
  5
777
330
1F
100
AcDbEntity
  8
002
 62
     3
370
     9
100
AcDb2dPolyline
 66
     1
 10
0.0
 20
0.0
 30
0.0
  0
VERTEX
  5
779
330
777
100
AcDbEntity
  8
002
 62
     3
370
     9
100
AcDbVertex
100
AcDb2dVertex
 10
1352.608699
 20
387.064406
 30
0.0
  0
VERTEX
  5
77A
330
777
100
AcDbEntity
  8
002
 62
     3
370
     9
100
AcDbVertex
100
AcDb2dVertex
 10
1354.408699
 20
384.696406
 30
0.0
  0
VERTEX
  5
77B
330
777
100
AcDbEntity
  8
002
 62
     3
370
     9
100
AcDbVertex
100
AcDb2dVertex
 10
1356.208699
 20
382.520406
 30
0.0
  0
VERTEX
  5
77C
330
777
100
AcDbEntity
  8
002
 62
     3
370
     9
100
AcDbVertex
100
AcDb2dVertex
 10
1358.008699
 20
380.728406
 30
0.0
  0
VERTEX
  5
77D
330
777
100
AcDbEntity
  8
002
 62
     3
370
     9
100
AcDbVertex
100
AcDb2dVertex
 10
1359.808699
 20
379.512406
 30
0.0
  0
VERTEX
  5
77E
330
777
100
AcDbEntity
  8
002
 62
     3
370
     9
100
AcDbVertex
100
AcDb2dVertex
 10
1361.608699
 20
379.064406
 30
0.0
  0
VERTEX
  5
77F
330
777
100
AcDbEntity
  8
002
 62
     3
370
     9
100
AcDbVertex
100
AcDb2dVertex
 10
1363.408699
 20
379.512406
 30
0.0
  0
VERTEX
  5
780
330
777
100
AcDbEntity
  8
002
 62
     3
370
     9
100
AcDbVertex
100
AcDb2dVertex
 10
1365.208699
 20
380.728406
 30
0.0
  0
VERTEX
  5
781
330
777
100
AcDbEntity
  8
002
 62
     3
370
     9
100
AcDbVertex
100
AcDb2dVertex
 10
1367.008699
 20
382.520406
 30
0.0
  0
VERTEX
  5
782
330
777
100
AcDbEntity
  8
002
 62
     3
370
     9
100
AcDbVertex
100
AcDb2dVertex
 10
1368.808699
 20
384.696406
 30
0.0
  0
VERTEX
  5
783
330
777
100
AcDbEntity
  8
002
 62
     3
370
     9
100
AcDbVertex
100
AcDb2dVertex
 10
1370.608699
 20
387.064406
 30
0.0
  0
VERTEX
  5
784
330
777
100
AcDbEntity
  8
002
 62
     3
370
     9
100
AcDbVertex
100
AcDb2dVertex
 10
1372.408699
 20
389.432406
 30
0.0
  0
VERTEX
  5
785
330
777
100
AcDbEntity
  8
002
 62
     3
370
     9
100
AcDbVertex
100
AcDb2dVertex
 10
1374.208699
 20
391.608406
 30
0.0
  0
VERTEX
  5
786
330
777
100
AcDbEntity
  8
002
 62
     3
370
     9
100
AcDbVertex
100
AcDb2dVertex
 10
1376.008699
 20
393.400406
 30
0.0
  0
VERTEX
  5
787
330
777
100
AcDbEntity
  8
002
 62
     3
370
     9
100
AcDbVertex
100
AcDb2dVertex
 10
1377.808699
 20
394.616406
 30
0.0
  0
VERTEX
  5
788
330
777
100
AcDbEntity
  8
002
 62
     3
370
     9
100
AcDbVertex
100
AcDb2dVertex
 10
1379.608699
 20
395.064406
 30
0.0
  0
VERTEX
  5
789
330
777
100
AcDbEntity
  8
002
 62
     3
370
     9
100
AcDbVertex
100
AcDb2dVertex
 10
1381.408699
 20
394.616406
 30
0.0
  0
VERTEX
  5
78A
330
777
100
AcDbEntity
  8
002
 62
     3
370
     9
100
AcDbVertex
100
AcDb2dVertex
 10
1383.208699
 20
393.400406
 30
0.0
  0
VERTEX
  5
78B
330
777
100
AcDbEntity
  8
002
 62
     3
370
     9
100
AcDbVertex
100
AcDb2dVertex
 10
1385.008699
 20
391.608406
 30
0.0
  0
VERTEX
  5
78C
330
777
100
AcDbEntity
  8
002
 62
     3
370
     9
100
AcDbVertex
100
AcDb2dVertex
 10
1386.808699
 20
389.432406
 30
0.0
  0
VERTEX
  5
78D
330
777
100
AcDbEntity
  8
002
 62
     3
370
     9
100
AcDbVertex
100
AcDb2dVertex
 10
1388.608699
 20
387.064406
 30
0.0
  0
SEQEND
  5
778
330
777
100
AcDbEntity
  8
002
370
     9
  0
LINE
  5
78E
330
1F
100
AcDbEntity
  8
002
 62
     3
370
    30
100
AcDbLine
 10
1352.608699
 20
445.464435
 30
0.0
 11
1352.608699
 21
387.064406
 31
0.0
  0
LINE
  5
78F
330
1F
100
AcDbEntity
  8
002
 62
     3
370
    30
100
AcDbLine
 10
1352.608699
 20
371.064406
 30
0.0
 11
1352.608699
 21
312.664376
 31
0.0
  0
LINE
  5
790
330
1F
100
AcDbEntity
  8
002
 62
     3
370
    30
100
AcDbLine
 10
1388.608699
 20
312.664376
 30
0.0
 11
1388.608699
 21
371.064406
 31
0.0
  0
LINE
  5
791
330
1F
100
AcDbEntity
  8
002
 62
     3
370
    30
100
AcDbLine
 10
1388.608699
 20
387.064406
 30
0.0
 11
1388.608699
 21
445.464435
 31
0.0
  0
LINE
  5
792
330
1F
100
AcDbEntity
  8
002
 62
    40
370
     9
100
AcDbLine
 10
1386.508699
 20
312.664376
 30
0.0
 11
1386.508699
 21
373.813591
 31
0.0
  0
LINE
  5
793
330
1F
100
AcDbEntity
  8
002
 62
    40
370
     9
100
AcDbLine
 10
1386.508699
 20
389.813591
 30
0.0
 11
1386.508699
 21
445.464435
 31
0.0
  0
LINE
  5
794
330
1F
100
AcDbEntity
  8
002
 62
    40
370
     9
100
AcDbLine
 10
1354.708699
 20
445.464435
 30
0.0
 11
1354.708699
 21
384.315221
 31
0.0
  0
LINE
  5
795
330
1F
100
AcDbEntity
  8
002
 62
    40
370
     9
100
AcDbLine
 10
1354.708699
 20
368.315221
 30
0.0
 11
1354.708699
 21
312.664376
 31
0.0
  0
LINE
  5
796
330
1F
100
AcDbEntity
  8
002
  6
CENTER
 62
    40
370
     9
100
AcDbLine
 10
311.026157
 20
694.972041
 30
0.0
 11
311.026157
 21
90.890259
 31
0.0
  0
LINE
  5
797
330
1F
100
AcDbEntity
  8
003
  6
CENTER
 62
    40
370
     9
100
AcDbLine
 10
585.026157
 20
78.05894
 30
0.0
 11
585.026157
 21
706.745808
 31
0.0
  0
LINE
  5
798
330
1F
100
AcDbEntity
  8
002
  6
CENTER
 62
    40
370
     9
100
AcDbLine
 10
826.026157
 20
694.972041
 30
0.0
 11
826.026157
 21
90.890259
 31
0.0
  0
LINE
  5
799
330
1F
100
AcDbEntity
  8
002
  6
CENTER
 62
    40
370
     9
100
AcDbLine
 10
1115.608699
 20
55.464435
 30
0.0
 11
1115.608699
 21
653.053775
 31
0.0
  0
LINE
  5
79A
330
1F
100
AcDbEntity
  8
002
  6
CENTER
 62
    40
370
     9
100
AcDbLine
 10
1370.608699
 20
55.464435
 30
0.0
 11
1370.608699
 21
653.053775
 31
0.0
  0
LINE
  5
79B
330
1F
100
AcDbEntity
  8
002
  6
CENTER
 62
    40
370
     9
100
AcDbLine
 10
391.775157
 20
1421.628101
 30
0.0
 11
391.775157
 21
1444.024101
 31
0.0
  0
LINE
  5
79C
330
1F
100
AcDbEntity
  8
002
  6
CENTER
 62
    40
370
     9
100
AcDbLine
 10
342.277157
 20
1444.024101
 30
0.0
 11
342.277157
 21
1421.628101
 31
0.0
  0
LINE
  5
79D
330
1F
100
AcDbEntity
  8
002
  6
CENTER
 62
    40
370
     9
100
AcDbLine
 10
342.277157
 20
1601.261101
 30
0.0
 11
342.277157
 21
1578.866101
 31
0.0
  0
LINE
  5
79E
330
1F
100
AcDbEntity
  8
002
  6
CENTER
 62
    40
370
     9
100
AcDbLine
 10
391.775157
 20
1578.866101
 30
0.0
 11
391.775157
 21
1601.261101
 31
0.0
  0
CIRCLE
  5
79F
330
1F
100
AcDbEntity
  8
002
  6
CENTER
 62
    40
370
     9
100
AcDbCircle
 10
367.026157
 20
211.623929
 30
0.0
 40
35.0
  0
CIRCLE
  5
7A0
330
1F
100
AcDbEntity
  8
002
  6
CENTER
 62
    40
370
     9
100
AcDbCircle
 10
882.026157
 20
211.623929
 30
0.0
 40
35.0
  0
CIRCLE
  5
7A1
330
1F
100
AcDbEntity
  8
002
  6
CENTER
 62
    40
370
     9
100
AcDbCircle
 10
1171.608699
 20
516.464435
 30
0.0
 40
35.0
  0
CIRCLE
  5
7A2
330
1F
100
AcDbEntity
  8
002
  6
CENTER
 62
    40
370
     9
100
AcDbCircle
 10
1426.608699
 20
516.464435
 30
0.0
 40
35.0
  0
LINE
  5
7A3
330
1F
100
AcDbEntity
  8
002
  6
CENTER
 62
    40
370
     9
100
AcDbLine
 10
495.209157
 20
186.874929
 30
0.0
 11
517.605157
 21
186.874929
 31
0.0
  0
LINE
  5
7A4
330
1F
100
AcDbEntity
  8
002
  6
CENTER
 62
    40
370
     9
100
AcDbLine
 10
517.605157
 20
236.372929
 30
0.0
 11
495.209157
 21
236.372929
 31
0.0
  0
LINE
  5
7A5
330
1F
100
AcDbEntity
  8
002
  6
CENTER
 62
    40
370
     9
100
AcDbLine
 10
674.842157
 20
236.372929
 30
0.0
 11
652.447157
 21
236.372929
 31
0.0
  0
LINE
  5
7A6
330
1F
100
AcDbEntity
  8
002
  6
CENTER
 62
    40
370
     9
100
AcDbLine
 10
652.447157
 20
186.874929
 30
0.0
 11
674.842157
 21
186.874929
 31
0.0
  0
ENDSEC
  0
SECTION
  2
OBJECTS
  0
DICTIONARY
  5
C
330
0
100
AcDbDictionary
281
     1
  3
ACAD_GROUP
350
D
  3
ACAD_LAYOUT
350
1A
  3
ACAD_MLEADERSTYLE
350
7A9
  3
ACAD_MLINESTYLE
350
17
  3
ACAD_PLOTSETTINGS
350
19
  3
ACAD_PLOTSTYLENAME
350
E
  3
ACAD_VISUALSTYLE
350
2A
  3
AcDbVariableDictionary
350
7A7
  0
DICTIONARY
  5
D
102
{ACAD_REACTORS
330
C
102
}
330
C
100
AcDbDictionary
281
     1
  0
DICTIONARY
  5
1A
102
{ACAD_REACTORS
330
C
102
}
330
C
100
AcDbDictionary
281
     1
  3
Layout1
350
1E
  3
Layout2
350
26
  3
Model
350
22
  0
DICTIONARY
  5
7A9
102
{ACAD_REACTORS
330
C
102
}
330
C
100
AcDbDictionary
281
     1
  0
DICTIONARY
  5
17
102
{ACAD_REACTORS
330
C
102
}
330
C
100
AcDbDictionary
281
     1
  3
Standard
350
18
  0
DICTIONARY
  5
19
102
{ACAD_REACTORS
330
C
102
}
330
C
100
AcDbDictionary
281
     1
  0
ACDBDICTIONARYWDFLT
  5
E
102
{ACAD_REACTORS
330
C
102
}
330
C
100
AcDbDictionary
281
     1
  3
Normal
350
F
100
AcDbDictionaryWithDefault
340
F
  0
DICTIONARY
  5
2A
102
{ACAD_REACTORS
330
C
102
}
330
C
100
AcDbDictionary
281
     1
  3
2dWireframe
350
2F
  3
3D Hidden
350
31
  3
3dWireframe
350
30
  3
Basic
350
32
  3
Brighten
350
36
  3
ColorChange
350
3A
  3
Conceptual
350
34
  3
Dim
350
35
  3
Facepattern
350
39
  3
Flat
350
2B
  3
FlatWithEdges
350
2C
  3
Gouraud
350
2D
  3
GouraudWithEdges
350
2E
  3
Linepattern
350
38
  3
Realistic
350
33
  3
Thicken
350
37
  0
DICTIONARY
  5
7A7
102
{ACAD_REACTORS
330
C
102
}
330
C
100
AcDbDictionary
281
     1
  3
PSOLHEIGHT
350
7AB
  3
PSOLWIDTH
350
7AA
  0
LAYOUT
  5
1E
102
{ACAD_REACTORS
330
1A
102
}
330
1A
100
AcDbPlotSettings
  1

  2
none_device
  4

  6

 40
0.0
 41
0.0
 42
0.0
 43
0.0
 44
0.0
 45
0.0
 46
0.0
 47
0.0
 48
0.0
 49
0.0
140
0.0
141
0.0
142
1.0
143
1.0
 70
   688
 72
     0
 73
     0
 74
     5
  7

 75
    16
147
1.0
148
0.0
149
0.0
100
AcDbLayout
  1
Layout1
 70
     1
 71
     1
 10
0.0
 20
0.0
 11
12.0
 21
9.0
 12
0.0
 22
0.0
 32
0.0
 14
1.000000E+20
 24
1.000000E+20
 34
0.0
 15
-1.000000E+20
 25
-1.000000E+20
 35
0.0
146
0.0
 13
0.0
 23
0.0
 33
0.0
 16
1.0
 26
0.0
 36
0.0
 17
0.0
 27
1.0
 37
0.0
 76
     0
330
1B
  0
LAYOUT
  5
26
102
{ACAD_REACTORS
330
1A
102
}
330
1A
100
AcDbPlotSettings
  1

  2
none_device
  4

  6

 40
0.0
 41
0.0
 42
0.0
 43
0.0
 44
0.0
 45
0.0
 46
0.0
 47
0.0
 48
0.0
 49
0.0
140
0.0
141
0.0
142
1.0
143
1.0
 70
   688
 72
     0
 73
     0
 74
     5
  7

 75
    16
147
1.0
148
0.0
149
0.0
100
AcDbLayout
  1
Layout2
 70
     1
 71
     2
 10
0.0
 20
0.0
 11
0.0
 21
0.0
 12
0.0
 22
0.0
 32
0.0
 14
0.0
 24
0.0
 34
0.0
 15
0.0
 25
0.0
 35
0.0
146
0.0
 13
0.0
 23
0.0
 33
0.0
 16
1.0
 26
0.0
 36
0.0
 17
0.0
 27
1.0
 37
0.0
 76
     0
330
23
  0
LAYOUT
  5
22
102
{ACAD_REACTORS
330
1A
102
}
330
1A
100
AcDbPlotSettings
  1

  2
none_device
  4

  6

 40
0.0
 41
0.0
 42
0.0
 43
0.0
 44
0.0
 45
0.0
 46
0.0
 47
0.0
 48
0.0
 49
0.0
140
0.0
141
0.0
142
1.0
143
1.0
 70
  1712
 72
     0
 73
     0
 74
     0
  7

 75
     0
147
1.0
148
0.0
149
0.0
100
AcDbLayout
  1
Model
 70
     1
 71
     0
 10
0.0
 20
0.0
 11
12.0
 21
9.0
 12
0.0
 22
0.0
 32
0.0
 14
222.01416
 24
55.464478
 34
0.0
 15
1499.608643
 25
1633.950073
 35
0.0
146
0.0
 13
0.0
 23
0.0
 33
0.0
 16
1.0
 26
0.0
 36
0.0
 17
0.0
 27
1.0
 37
0.0
 76
     0
330
1F
331
29
  0
MLINESTYLE
  5
18
102
{ACAD_REACTORS
330
17
102
}
330
17
100
AcDbMlineStyle
  2
Standard
 70
     0
  3

 62
   256
 51
90.0
 52
90.0
 71
     2
 49
0.5
 62
   256
  6
BYLAYER
 49
-0.5
 62
   256
  6
BYLAYER
  0
ACDBPLACEHOLDER
  5
F
102
{ACAD_REACTORS
330
E
102
}
330
E
  0
VISUALSTYLE
  5
2F
102
{ACAD_REACTORS
330
2A
102
}
330
2A
100
AcDbVisualStyle
  2
2dWireframe
 70
     4
 71
     0
 72
     2
 73
     0
 90
        0
 40
-0.6
 41
-30.0
 62
     5
 63
     7
 74
     1
 91
        4
 64
     7
 65
   257
 75
     1
175
     1
 42
1.0
 92
        0
 66
   257
 43
1.0
 76
     1
 77
     6
 78
     2
 67
     7
 79
     5
170
     0
171
     0
290
     0
174
     0
 93
        1
 44
0.0
173
     0
291
     0
 45
0.0
1001
ACAD
1000
AcDbSavedByObjectVersion
1070
     0
  0
VISUALSTYLE
  5
31
102
{ACAD_REACTORS
330
2A
102
}
330
2A
100
AcDbVisualStyle
  2
3D Hidden
 70
     6
 71
     1
 72
     2
 73
     2
 90
        0
 40
-0.6
 41
-30.0
 62
     5
 63
     7
 74
     2
 91
        2
 64
     7
 65
   257
 75
     2
175
     1
 42
40.0
 92
        0
 66
   257
 43
1.0
 76
     1
 77
     6
 78
     2
 67
     7
 79
     3
170
     0
171
     0
290
     0
174
     0
 93
        1
 44
0.0
173
     0
291
     0
 45
0.0
1001
ACAD
1000
AcDbSavedByObjectVersion
1070
     0
  0
VISUALSTYLE
  5
30
102
{ACAD_REACTORS
330
2A
102
}
330
2A
100
AcDbVisualStyle
  2
3dWireframe
 70
     5
 71
     0
 72
     2
 73
     0
 90
        0
 40
-0.6
 41
-30.0
 62
     5
 63
     7
 74
     1
 91
        4
 64
     7
 65
   257
 75
     1
175
     1
 42
1.0
 92
        0
 66
   257
 43
1.0
 76
     1
 77
     6
 78
     2
 67
     7
 79
     5
170
     0
171
     0
290
     0
174
     0
 93
        1
 44
0.0
173
     0
291
     0
 45
0.0
1001
ACAD
1000
AcDbSavedByObjectVersion
1070
     0
  0
VISUALSTYLE
  5
32
102
{ACAD_REACTORS
330
2A
102
}
330
2A
100
AcDbVisualStyle
  2
Basic
 70
     7
 71
     1
 72
     0
 73
     1
 90
        0
 40
-0.6
 41
-30.0
 62
     5
 63
     7
 74
     0
 91
        4
 64
     7
 65
   257
 75
     1
175
     1
 42
1.0
 92
        8
 66
     7
 43
1.0
 76
     1
 77
     6
 78
     2
 67
     7
 79
     5
170
     0
171
     0
290
     0
174
     0
 93
        1
 44
0.0
173
     0
291
     1
 45
0.0
1001
ACAD
1000
AcDbSavedByObjectVersion
1070
     0
  0
VISUALSTYLE
  5
36
102
{ACAD_REACTORS
330
2A
102
}
330
2A
100
AcDbVisualStyle
  2
Brighten
 70
    12
 71
     2
 72
     2
 73
     0
 90
        0
 40
-0.6
 41
-30.0
 62
     5
 63
     7
 74
     1
 91
        4
 64
     7
 65
   257
 75
     1
175
     1
 42
1.0
 92
        8
 66
     7
 43
1.0
 76
     1
 77
     6
 78
     2
 67
     7
 79
     5
170
     0
171
     0
290
     0
174
     0
 93
        1
 44
50.0
173
     0
291
     1
 45
0.0
1001
ACAD
1000
AcDbSavedByObjectVersion
1070
     0
  0
VISUALSTYLE
  5
3A
102
{ACAD_REACTORS
330
2A
102
}
330
2A
100
AcDbVisualStyle
  2
ColorChange
 70
    16
 71
     2
 72
     2
 73
     3
 90
        0
 40
-0.6
 41
-30.0
 62
     5
 63
     8
 74
     1
 91
        4
 64
     7
 65
   257
 75
     1
175
     1
 42
1.0
 92
        8
 66
     8
 43
1.0
 76
     1
 77
     6
 78
     2
 67
     7
 79
     5
170
     0
171
     0
290
     0
174
     0
 93
        1
 44
0.0
173
     0
291
     1
 45
0.0
1001
ACAD
1000
AcDbSavedByObjectVersion
1070
     0
  0
VISUALSTYLE
  5
34
102
{ACAD_REACTORS
330
2A
102
}
330
2A
100
AcDbVisualStyle
  2
Conceptual
 70
     9
 71
     3
 72
     2
 73
     0
 90
        0
 40
-0.6
 41
-30.0
 62
     5
 63
     7
 74
     2
 91
        2
 64
     7
 65
   257
 75
     1
175
     1
 42
40.0
 92
        8
 66
     7
 43
1.0
 76
     1
 77
     6
 78
     2
 67
     7
 79
     3
170
     0
171
     0
290
     0
174
     0
 93
        1
 44
0.0
173
     0
291
     0
 45
0.0
1001
ACAD
1000
AcDbSavedByObjectVersion
1070
     0
  0
VISUALSTYLE
  5
35
102
{ACAD_REACTORS
330
2A
102
}
330
2A
100
AcDbVisualStyle
  2
Dim
 70
    11
 71
     2
 72
     2
 73
     0
 90
        0
 40
-0.6
 41
-30.0
 62
     5
 63
     7
 74
     1
 91
        4
 64
     7
 65
   257
 75
     1
175
     1
 42
1.0
 92
        8
 66
     7
 43
1.0
 76
     1
 77
     6
 78
     2
 67
     7
 79
     5
170
     0
171
     0
290
     0
174
     0
 93
        1
 44
-50.0
173
     0
291
     1
 45
0.0
1001
ACAD
1000
AcDbSavedByObjectVersion
1070
     0
  0
VISUALSTYLE
  5
39
102
{ACAD_REACTORS
330
2A
102
}
330
2A
100
AcDbVisualStyle
  2
Facepattern
 70
    15
 71
     2
 72
     2
 73
     0
 90
        0
 40
-0.6
 41
-30.0
 62
     5
 63
     7
 74
     1
 91
        4
 64
     7
 65
   257
 75
     1
175
     1
 42
1.0
 92
        8
 66
     7
 43
1.0
 76
     1
 77
     6
 78
     2
 67
     7
 79
     5
170
     0
171
     0
290
     0
174
     0
 93
        1
 44
0.0
173
     0
291
     1
 45
0.0
1001
ACAD
1000
AcDbSavedByObjectVersion
1070
     0
  0
VISUALSTYLE
  5
2B
102
{ACAD_REACTORS
330
2A
102
}
330
2A
100
AcDbVisualStyle
  2
Flat
 70
     0
 71
     2
 72
     1
 73
     1
 90
        2
 40
-0.6
 41
30.0
 62
     5
 63
     7
 74
     0
 91
        4
 64
     7
 65
   257
 75
     1
175
     1
 42
1.0
 92
        8
 66
     7
 43
1.0
 76
     1
 77
     6
 78
     2
 67
     7
 79
     5
170
     0
171
     0
290
     0
174
     0
 93
       13
 44
0.0
173
     0
291
     1
 45
0.0
1001
ACAD
1000
AcDbSavedByObjectVersion
1070
     0
  0
VISUALSTYLE
  5
2C
102
{ACAD_REACTORS
330
2A
102
}
330
2A
100
AcDbVisualStyle
  2
FlatWithEdges
 70
     1
 71
     2
 72
     1
 73
     1
 90
        2
 40
-0.6
 41
30.0
 62
     5
 63
     7
 74
     1
 91
        4
 64
     7
 65
   257
 75
     1
175
     1
 42
1.0
 92
        0
 66
   257
 43
1.0
 76
     1
 77
     6
 78
     2
 67
     7
 79
     5
170
     0
171
     0
290
     0
174
     0
 93
       13
 44
0.0
173
     0
291
     1
 45
0.0
1001
ACAD
1000
AcDbSavedByObjectVersion
1070
     0
  0
VISUALSTYLE
  5
2D
102
{ACAD_REACTORS
330
2A
102
}
330
2A
100
AcDbVisualStyle
  2
Gouraud
 70
     2
 71
     2
 72
     2
 73
     1
 90
        2
 40
-0.6
 41
30.0
 62
     5
 63
     7
 74
     0
 91
        4
 64
     7
 65
   257
 75
     1
175
     1
 42
1.0
 92
        0
 66
     7
 43
1.0
 76
     1
 77
     6
 78
     2
 67
     7
 79
     5
170
     0
171
     0
290
     0
174
     0
 93
       13
 44
0.0
173
     0
291
     1
 45
0.0
1001
ACAD
1000
AcDbSavedByObjectVersion
1070
     0
  0
VISUALSTYLE
  5
2E
102
{ACAD_REACTORS
330
2A
102
}
330
2A
100
AcDbVisualStyle
  2
GouraudWithEdges
 70
     3
 71
     2
 72
     2
 73
     1
 90
        2
 40
-0.6
 41
30.0
 62
     5
 63
     7
 74
     1
 91
        4
 64
     7
 65
   257
 75
     1
175
     1
 42
1.0
 92
        0
 66
   257
 43
1.0
 76
     1
 77
     6
 78
     2
 67
     7
 79
     5
170
     0
171
     0
290
     0
174
     0
 93
       13
 44
0.0
173
     0
291
     1
 45
0.0
1001
ACAD
1000
AcDbSavedByObjectVersion
1070
     0
  0
VISUALSTYLE
  5
38
102
{ACAD_REACTORS
330
2A
102
}
330
2A
100
AcDbVisualStyle
  2
Linepattern
 70
    14
 71
     2
 72
     2
 73
     0
 90
        0
 40
-0.6
 41
-30.0
 62
     5
 63
     7
 74
     1
 91
        4
 64
     7
 65
   257
 75
     7
175
     7
 42
1.0
 92
        8
 66
     7
 43
1.0
 76
     1
 77
     6
 78
     2
 67
     7
 79
     5
170
     0
171
     0
290
     0
174
     0
 93
        1
 44
0.0
173
     0
291
     1
 45
0.0
1001
ACAD
1000
AcDbSavedByObjectVersion
1070
     0
  0
VISUALSTYLE
  5
33
102
{ACAD_REACTORS
330
2A
102
}
330
2A
100
AcDbVisualStyle
  2
Realistic
 70
     8
 71
     2
 72
     2
 73
     0
 90
        0
 40
-0.6
 41
-30.0
 62
     5
 63
     7
 74
     1
 91
        0
 64
     7
 65
   257
 75
     1
175
     1
 42
1.0
 92
        8
 66
     8
 43
1.0
 76
     1
 77
     6
 78
     2
 67
     7
 79
     5
170
     0
171
     0
290
     0
174
     0
 93
       13
 44
0.0
173
     0
291
     0
 45
0.0
1001
ACAD
1000
AcDbSavedByObjectVersion
1070
     0
  0
VISUALSTYLE
  5
37
102
{ACAD_REACTORS
330
2A
102
}
330
2A
100
AcDbVisualStyle
  2
Thicken
 70
    13
 71
     2
 72
     2
 73
     0
 90
        0
 40
-0.6
 41
-30.0
 62
     5
 63
     7
 74
     1
 91
        4
 64
     7
 65
   257
 75
     1
175
     1
 42
1.0
 92
       12
 66
     7
 43
1.0
 76
     1
 77
     6
 78
     2
 67
     7
 79
     5
170
     0
171
     0
290
     0
174
     0
 93
        1
 44
0.0
173
     0
291
     1
 45
0.0
1001
ACAD
1000
AcDbSavedByObjectVersion
1070
     0
  0
DICTIONARYVAR
  5
7AB
102
{ACAD_REACTORS
330
7A7
102
}
330
7A7
100
DictionaryVariables
280
     0
  1
80.000000
  0
DICTIONARYVAR
  5
7AA
102
{ACAD_REACTORS
330
7A7
102
}
330
7A7
100
DictionaryVariables
280
     0
  1
5.000000
  0
ENDSEC
  0
EOF
