  0
SECTION
  2
HEADER
  9
$ACADVER
  1
AC1015
  9
$ACADMAINTVER
 70
     6
  9
$DWGCODEPAGE
  3
ANSI_932
  9
$INSBASE
 10
0.0
 20
0.0
 30
0.0
  9
$EXTMIN
 10
360.122986
 20
129.230347
 30
0.0
  9
$EXTMAX
 10
1938.886475
 20
1812.788696
 30
0.0
  9
$LIMMIN
 10
0.0
 20
0.0
  9
$LIMMAX
 10
12.0
 20
9.0
  9
$ORTHOMODE
 70
     0
  9
$REGENMODE
 70
     1
  9
$FILLMODE
 70
     1
  9
$QTEXTMODE
 70
     0
  9
$MIRRTEXT
 70
     1
  9
$LTSCALE
 40
23.079998
  9
$ATTMODE
 70
     1
  9
$TEXTSIZE
 40
3.2
  9
$TRACEWID
 40
1.0
  9
$TEXTSTYLE
  7
Standard
  9
$CLAYER
  8
0
  9
$CELTYPE
  6
ByLayer
  9
$CECOLOR
 62
   256
  9
$CELTSCALE
 40
1.0
  9
$DISPSILH
 70
     0
  9
$DIMSCALE
 40
1.0
  9
$DIMASZ
 40
2.5
  9
$DIMEXO
 40
0.625
  9
$DIMDLI
 40
3.75
  9
$DIMRND
 40
0.0
  9
$DIMDLE
 40
0.0
  9
$DIMEXE
 40
1.25
  9
$DIMTP
 40
0.0
  9
$DIMTM
 40
0.0
  9
$DIMTXT
 40
2.5
  9
$DIMCEN
 40
0.09
  9
$DIMTSZ
 40
0.0
  9
$DIMTOL
 70
     0
  9
$DIMLIM
 70
     0
  9
$DIMTIH
 70
     0
  9
$DIMTOH
 70
     0
  9
$DIMSE1
 70
     0
  9
$DIMSE2
 70
     0
  9
$DIMTAD
 70
     0
  9
$DIMZIN
 70
     8
  9
$DIMBLK
  1

  9
$DIMASO
 70
     1
  9
$DIMSHO
 70
     0
  9
$DIMPOST
  1

  9
$DIMAPOST
  1

  9
$DIMALT
 70
     0
  9
$DIMALTD
 70
     3
  9
$DIMALTF
 40
0.03937
  9
$DIMLFAC
 40
1.0
  9
$DIMTOFL
 70
     1
  9
$DIMTVP
 40
0.0
  9
$DIMTIX
 70
     0
  9
$DIMSOXD
 70
     0
  9
$DIMSAH
 70
     0
  9
$DIMBLK1
  1

  9
$DIMBLK2
  1

  9
$DIMSTYLE
  2
ISO-25
  9
$DIMCLRD
 70
     0
  9
$DIMCLRE
 70
     0
  9
$DIMCLRT
 70
     0
  9
$DIMTFAC
 40
1.0
  9
$DIMGAP
 40
0.625
  9
$DIMJUST
 70
     0
  9
$DIMSD1
 70
     0
  9
$DIMSD2
 70
     0
  9
$DIMTOLJ
 70
     0
  9
$DIMTZIN
 70
     8
  9
$DIMALTZ
 70
     0
  9
$DIMALTTZ
 70
     0
  9
$DIMUPT
 70
     0
  9
$DIMDEC
 70
     2
  9
$DIMTDEC
 70
     2
  9
$DIMALTU
 70
     2
  9
$DIMALTTD
 70
     3
  9
$DIMTXSTY
  7
Standard
  9
$DIMAUNIT
 70
     0
  9
$DIMADEC
 70
     0
  9
$DIMALTRND
 40
0.0
  9
$DIMAZIN
 70
     0
  9
$DIMDSEP
 70
    44
  9
$DIMATFIT
 70
     3
  9
$DIMFRAC
 70
     0
  9
$DIMLDRBLK
  1

  9
$DIMLUNIT
 70
     2
  9
$DIMLWD
 70
    -2
  9
$DIMLWE
 70
    -2
  9
$DIMTMOVE
 70
     0
  9
$LUNITS
 70
     2
  9
$LUPREC
 70
     4
  9
$SKETCHINC
 40
1.0
  9
$FILLETRAD
 40
0.0
  9
$AUNITS
 70
     0
  9
$AUPREC
 70
     0
  9
$MENU
  1
.
  9
$ELEVATION
 40
0.0
  9
$PELEVATION
 40
0.0
  9
$THICKNESS
 40
0.0
  9
$LIMCHECK
 70
     0
  9
$CHAMFERA
 40
10.0
  9
$CHAMFERB
 40
10.0
  9
$CHAMFERC
 40
20.0
  9
$CHAMFERD
 40
0.0
  9
$SKPOLY
 70
     0
  9
$TDCREATE
 40
2455649.657158924
  9
$TDUCREATE
 40
2455649.282158924
  9
$TDUPDATE
 40
2455649.657158935
  9
$TDUUPDATE
 40
2455649.282158935
  9
$TDINDWG
 40
0.0000000116
  9
$TDUSRTIMER
 40
0.0000000116
  9
$USRTIMER
 70
     1
  9
$ANGBASE
 50
0.0
  9
$ANGDIR
 70
     0
  9
$PDMODE
 70
     0
  9
$PDSIZE
 40
0.0
  9
$PLINEWID
 40
0.0
  9
$SPLFRAME
 70
     0
  9
$SPLINETYPE
 70
     6
  9
$SPLINESEGS
 70
     8
  9
$HANDSEED
  5
76E
  9
$SURFTAB1
 70
     6
  9
$SURFTAB2
 70
     6
  9
$SURFTYPE
 70
     6
  9
$SURFU
 70
     6
  9
$SURFV
 70
     6
  9
$UCSBASE
  2

  9
$UCSNAME
  2

  9
$UCSORG
 10
0.0
 20
0.0
 30
0.0
  9
$UCSXDIR
 10
1.0
 20
0.0
 30
0.0
  9
$UCSYDIR
 10
0.0
 20
1.0
 30
0.0
  9
$UCSORTHOREF
  2

  9
$UCSORTHOVIEW
 70
     0
  9
$UCSORGTOP
 10
0.0
 20
0.0
 30
0.0
  9
$UCSORGBOTTOM
 10
0.0
 20
0.0
 30
0.0
  9
$UCSORGLEFT
 10
0.0
 20
0.0
 30
0.0
  9
$UCSORGRIGHT
 10
0.0
 20
0.0
 30
0.0
  9
$UCSORGFRONT
 10
0.0
 20
0.0
 30
0.0
  9
$UCSORGBACK
 10
0.0
 20
0.0
 30
0.0
  9
$PUCSBASE
  2

  9
$PUCSNAME
  2

  9
$PUCSORG
 10
0.0
 20
0.0
 30
0.0
  9
$PUCSXDIR
 10
1.0
 20
0.0
 30
0.0
  9
$PUCSYDIR
 10
0.0
 20
1.0
 30
0.0
  9
$PUCSORTHOREF
  2

  9
$PUCSORTHOVIEW
 70
     0
  9
$PUCSORGTOP
 10
0.0
 20
0.0
 30
0.0
  9
$PUCSORGBOTTOM
 10
0.0
 20
0.0
 30
0.0
  9
$PUCSORGLEFT
 10
0.0
 20
0.0
 30
0.0
  9
$PUCSORGRIGHT
 10
0.0
 20
0.0
 30
0.0
  9
$PUCSORGFRONT
 10
0.0
 20
0.0
 30
0.0
  9
$PUCSORGBACK
 10
0.0
 20
0.0
 30
0.0
  9
$USERI1
 70
     0
  9
$USERI2
 70
     0
  9
$USERI3
 70
     0
  9
$USERI4
 70
     0
  9
$USERI5
 70
     0
  9
$USERR1
 40
0.0
  9
$USERR2
 40
0.0
  9
$USERR3
 40
0.0
  9
$USERR4
 40
0.0
  9
$USERR5
 40
0.0
  9
$WORLDVIEW
 70
     1
  9
$SHADEDGE
 70
     3
  9
$SHADEDIF
 70
    70
  9
$TILEMODE
 70
     1
  9
$MAXACTVP
 70
    64
  9
$PINSBASE
 10
0.0
 20
0.0
 30
0.0
  9
$PLIMCHECK
 70
     0
  9
$PEXTMIN
 10
1.000000E+20
 20
1.000000E+20
 30
0.0
  9
$PEXTMAX
 10
-1.000000E+20
 20
-1.000000E+20
 30
0.0
  9
$PLIMMIN
 10
0.0
 20
0.0
  9
$PLIMMAX
 10
12.0
 20
9.0
  9
$UNITMODE
 70
     0
  9
$VISRETAIN
 70
     1
  9
$PLINEGEN
 70
     0
  9
$PSLTSCALE
 70
     1
  9
$TREEDEPTH
 70
  3020
  9
$CMLSTYLE
  2
Standard
  9
$CMLJUST
 70
     0
  9
$CMLSCALE
 40
20.0
  9
$PROXYGRAPHICS
 70
     1
  9
$MEASUREMENT
 70
     1
  9
$CELWEIGHT
370
    -1
  9
$ENDCAPS
280
     0
  9
$JOINSTYLE
280
     0
  9
$LWDISPLAY
290
     0
  9
$INSUNITS
 70
     4
  9
$HYPERLINKBASE
  1

  9
$STYLESHEET
  1

  9
$XEDIT
290
     1
  9
$CEPSNTYPE
380
     0
  9
$PSTYLEMODE
290
     1
  9
$FINGERPRINTGUID
  2
{0FFCBB5B-2270-4FD1-82C3-90666F5507F4}
  9
$VERSIONGUID
  2
{FAEB1C32-E019-11D5-929B-00C0DF256EC4}
  9
$EXTNAMES
290
     1
  9
$PSVPSCALE
 40
0.0
  9
$OLESTARTUP
290
     0
  0
ENDSEC
  0
SECTION
  2
CLASSES
  0
CLASS
  1
ACDBDICTIONARYWDFLT
  2
AcDbDictionaryWithDefault
  3
ObjectDBX Classes
 90
        0
280
     0
281
     0
  0
CLASS
  1
VISUALSTYLE
  2
AcDbVisualStyle
  3
ObjectDBX Classes
 90
     4095
280
     0
281
     0
  0
CLASS
  1
DICTIONARYVAR
  2
AcDbDictionaryVar
  3
ObjectDBX Classes
 90
        0
280
     0
281
     0
  0
CLASS
  1
ACDBPLACEHOLDER
  2
AcDbPlaceHolder
  3
ObjectDBX Classes
 90
        0
280
     0
281
     0
  0
CLASS
  1
LAYOUT
  2
AcDbLayout
  3
ObjectDBX Classes
 90
        0
280
     0
281
     0
  0
ENDSEC
  0
SECTION
  2
TABLES
  0
TABLE
  2
VPORT
  5
8
330
0
100
AcDbSymbolTable
 70
     1
  0
VPORT
  5
29
330
8
100
AcDbSymbolTableRecord
100
AcDbViewportTableRecord
  2
*Active
 70
     0
 10
0.0
 20
0.0
 11
1.0
 21
1.0
 12
1149.50473
 22
971.009521
 13
0.0
 23
0.0
 14
1.0
 24
1.0
 15
0.0
 25
0.0
 16
0.0
 26
0.0
 36
1.0
 17
0.0
 27
0.0
 37
0.0
 40
1700.393933
 41
1.691288
 42
50.0
 43
0.0
 44
0.0
 50
0.0
 51
0.0
 71
     0
 72
   100
 73
     1
 74
     3
 75
     0
 76
     0
 77
     0
 78
     0
281
     0
 65
     1
110
0.0
120
0.0
130
0.0
111
1.0
121
0.0
131
0.0
112
0.0
122
1.0
132
0.0
 79
     0
146
0.0
  0
ENDTAB
  0
TABLE
  2
LTYPE
  5
5
330
0
100
AcDbSymbolTable
 70
     5
  0
LTYPE
  5
14
330
5
100
AcDbSymbolTableRecord
100
AcDbLinetypeTableRecord
  2
ByBlock
 70
     0
  3

 72
    65
 73
     0
 40
0.0
  0
LTYPE
  5
15
330
5
100
AcDbSymbolTableRecord
100
AcDbLinetypeTableRecord
  2
ByLayer
 70
     0
  3

 72
    65
 73
     0
 40
0.0
  0
LTYPE
  5
16
330
5
100
AcDbSymbolTableRecord
100
AcDbLinetypeTableRecord
  2
Continuous
 70
     0
  3
Solid line
 72
    65
 73
     0
 40
0.0
  0
LTYPE
  5
3B
330
5
100
AcDbSymbolTableRecord
100
AcDbLinetypeTableRecord
  2
DASHED
 70
     0
  3
DASHED
 72
    83
 73
     2
 40
0.75
 49
0.5
 74
     0
 49
-0.25
 74
     0
  0
LTYPE
  5
3C
330
5
100
AcDbSymbolTableRecord
100
AcDbLinetypeTableRecord
  2
HIDDEN
 70
     0
  3
HIDDEN
 72
    83
 73
     2
 40
0.375
 49
0.25
 74
     0
 49
-0.125
 74
     0
  0
LTYPE
  5
3D
330
5
100
AcDbSymbolTableRecord
100
AcDbLinetypeTableRecord
  2
CENTER
 70
     0
  3
CENTER
 72
    83
 73
     4
 40
2.0
 49
1.25
 74
     0
 49
-0.25
 74
     0
 49
0.25
 74
     0
 49
-0.25
 74
     0
  0
LTYPE
  5
3E
330
5
100
AcDbSymbolTableRecord
100
AcDbLinetypeTableRecord
  2
PHANTOM
 70
     0
  3
PHANTOM
 72
    83
 73
     6
 40
2.5
 49
1.25
 74
     0
 49
-0.25
 74
     0
 49
0.25
 74
     0
 49
-0.25
 74
     0
 49
0.25
 74
     0
 49
-0.25
 74
     0
  0
ENDTAB
  0
TABLE
  2
LAYER
  5
2
330
0
100
AcDbSymbolTable
 70
     3
  0
LAYER
  5
10
330
2
100
AcDbSymbolTableRecord
100
AcDbLayerTableRecord
  2
0
 70
     0
 62
     7
  6
Continuous
370
    -3
390
F
  0
LAYER
  5
3F
330
2
100
AcDbSymbolTableRecord
100
AcDbLayerTableRecord
  2
002
 70
     0
 62
     7
  6
Continuous
370
    -3
390
F
  0
LAYER
  5
40
330
2
100
AcDbSymbolTableRecord
100
AcDbLayerTableRecord
  2
003
 70
     0
 62
     7
  6
Continuous
370
    -3
390
F
  0
ENDTAB
  0
TABLE
  2
STYLE
  5
3
330
0
100
AcDbSymbolTable
 70
     2
  0
STYLE
  5
11
330
3
100
AcDbSymbolTableRecord
100
AcDbTextStyleTableRecord
  2
Standard
 70
     0
 40
0.0
 41
1.0
 50
0.0
 71
     0
 42
0.2
  3
TXT
  4
BIGFONT
  0
STYLE
  5
41
330
3
100
AcDbSymbolTableRecord
100
AcDbTextStyleTableRecord
  2
TATEGAKI
 70
     4
 40
1.0
 41
1.0
 50
0.0
 71
     0
 42
0.2
  3
TXT
  4
BIGFONT
  0
ENDTAB
  0
TABLE
  2
VIEW
  5
6
330
0
100
AcDbSymbolTable
 70
     0
  0
ENDTAB
  0
TABLE
  2
UCS
  5
7
330
0
100
AcDbSymbolTable
 70
     0
  0
ENDTAB
  0
TABLE
  2
APPID
  5
9
330
0
100
AcDbSymbolTable
 70
     1
  0
APPID
  5
12
330
9
100
AcDbSymbolTableRecord
100
AcDbRegAppTableRecord
  2
ACAD
 70
     0
  0
ENDTAB
  0
TABLE
  2
DIMSTYLE
  5
A
330
0
100
AcDbSymbolTable
 70
     2
100
AcDbDimStyleTable
  0
DIMSTYLE
105
27
330
A
100
AcDbSymbolTableRecord
100
AcDbDimStyleTableRecord
  2
ISO-25
 70
     0
 41
2.5
 42
0.625
 43
3.75
 44
1.25
 73
     0
 74
     0
 77
     1
 78
     8
140
2.5
141
2.5
143
0.03937
147
0.625
171
     3
172
     1
271
     2
272
     2
274
     3
278
    44
283
     0
284
     8
340
11
  0
DIMSTYLE
105
42
330
A
100
AcDbSymbolTableRecord
100
AcDbDimStyleTableRecord
  2
Standard
 70
     0
 41
3.0
 42
0.5
 44
0.7
 73
     0
 74
     0
 77
     1
 78
     8
 79
     2
140
4.0
146
0.65
147
1.0
172
     1
179
     3
271
     3
283
     2
340
11
  0
ENDTAB
  0
TABLE
  2
BLOCK_RECORD
  5
1
330
0
100
AcDbSymbolTable
 70
    31
  0
BLOCK_RECORD
  5
1F
330
1
100
AcDbSymbolTableRecord
100
AcDbBlockTableRecord
  2
*Model_Space
340
22
  0
BLOCK_RECORD
  5
1B
330
1
100
AcDbSymbolTableRecord
100
AcDbBlockTableRecord
  2
*Paper_Space
340
1E
  0
BLOCK_RECORD
  5
23
330
1
100
AcDbSymbolTableRecord
100
AcDbBlockTableRecord
  2
*Paper_Space0
340
26
  0
BLOCK_RECORD
  5
43
330
1
100
AcDbSymbolTableRecord
100
AcDbBlockTableRecord
  2
JZB-1
340
0
102
{BLKREFS
331
17A
102
}
  0
BLOCK_RECORD
  5
4D
330
1
100
AcDbSymbolTableRecord
100
AcDbBlockTableRecord
  2
JZB-2
340
0
102
{BLKREFS
331
17B
102
}
  0
BLOCK_RECORD
  5
57
330
1
100
AcDbSymbolTableRecord
100
AcDbBlockTableRecord
  2
JZB-3
340
0
102
{BLKREFS
331
17C
102
}
  0
BLOCK_RECORD
  5
61
330
1
100
AcDbSymbolTableRecord
100
AcDbBlockTableRecord
  2
JZB-4
340
0
102
{BLKREFS
331
17D
102
}
  0
BLOCK_RECORD
  5
6B
330
1
100
AcDbSymbolTableRecord
100
AcDbBlockTableRecord
  2
JZB-5
340
0
102
{BLKREFS
331
17E
102
}
  0
BLOCK_RECORD
  5
75
330
1
100
AcDbSymbolTableRecord
100
AcDbBlockTableRecord
  2
JZB-6
340
0
102
{BLKREFS
331
17F
102
}
  0
BLOCK_RECORD
  5
7F
330
1
100
AcDbSymbolTableRecord
100
AcDbBlockTableRecord
  2
JZB-7
340
0
102
{BLKREFS
331
180
102
}
  0
BLOCK_RECORD
  5
89
330
1
100
AcDbSymbolTableRecord
100
AcDbBlockTableRecord
  2
JZB-8
340
0
102
{BLKREFS
331
181
102
}
  0
BLOCK_RECORD
  5
93
330
1
100
AcDbSymbolTableRecord
100
AcDbBlockTableRecord
  2
JZB-9
340
0
102
{BLKREFS
331
182
102
}
  0
BLOCK_RECORD
  5
9D
330
1
100
AcDbSymbolTableRecord
100
AcDbBlockTableRecord
  2
JZB-10
340
0
102
{BLKREFS
331
183
102
}
  0
BLOCK_RECORD
  5
A7
330
1
100
AcDbSymbolTableRecord
100
AcDbBlockTableRecord
  2
JZB-11
340
0
102
{BLKREFS
331
184
102
}
  0
BLOCK_RECORD
  5
B1
330
1
100
AcDbSymbolTableRecord
100
AcDbBlockTableRecord
  2
JZB-12
340
0
102
{BLKREFS
331
185
102
}
  0
BLOCK_RECORD
  5
BB
330
1
100
AcDbSymbolTableRecord
100
AcDbBlockTableRecord
  2
JZB-13
340
0
102
{BLKREFS
331
186
102
}
  0
BLOCK_RECORD
  5
C5
330
1
100
AcDbSymbolTableRecord
100
AcDbBlockTableRecord
  2
JZB-14
340
0
102
{BLKREFS
331
187
102
}
  0
BLOCK_RECORD
  5
CF
330
1
100
AcDbSymbolTableRecord
100
AcDbBlockTableRecord
  2
JZB-15
340
0
102
{BLKREFS
331
188
102
}
  0
BLOCK_RECORD
  5
D9
330
1
100
AcDbSymbolTableRecord
100
AcDbBlockTableRecord
  2
JZB-16
340
0
102
{BLKREFS
331
189
102
}
  0
BLOCK_RECORD
  5
E3
330
1
100
AcDbSymbolTableRecord
100
AcDbBlockTableRecord
  2
JZB-17
340
0
102
{BLKREFS
331
18A
102
}
  0
BLOCK_RECORD
  5
ED
330
1
100
AcDbSymbolTableRecord
100
AcDbBlockTableRecord
  2
JZB-18
340
0
102
{BLKREFS
331
18B
102
}
  0
BLOCK_RECORD
  5
F7
330
1
100
AcDbSymbolTableRecord
100
AcDbBlockTableRecord
  2
JZB-19
340
0
102
{BLKREFS
331
18C
102
}
  0
BLOCK_RECORD
  5
101
330
1
100
AcDbSymbolTableRecord
100
AcDbBlockTableRecord
  2
JZB-20
340
0
102
{BLKREFS
331
18D
102
}
  0
BLOCK_RECORD
  5
10B
330
1
100
AcDbSymbolTableRecord
100
AcDbBlockTableRecord
  2
JZB-21
340
0
102
{BLKREFS
331
18E
102
}
  0
BLOCK_RECORD
  5
115
330
1
100
AcDbSymbolTableRecord
100
AcDbBlockTableRecord
  2
JZB-22
340
0
102
{BLKREFS
331
18F
102
}
  0
BLOCK_RECORD
  5
11F
330
1
100
AcDbSymbolTableRecord
100
AcDbBlockTableRecord
  2
JZB-23
340
0
102
{BLKREFS
331
190
102
}
  0
BLOCK_RECORD
  5
129
330
1
100
AcDbSymbolTableRecord
100
AcDbBlockTableRecord
  2
JZB-24
340
0
102
{BLKREFS
331
191
102
}
  0
BLOCK_RECORD
  5
133
330
1
100
AcDbSymbolTableRecord
100
AcDbBlockTableRecord
  2
JZB-25
340
0
102
{BLKREFS
331
192
102
}
  0
BLOCK_RECORD
  5
13D
330
1
100
AcDbSymbolTableRecord
100
AcDbBlockTableRecord
  2
JZB-26
340
0
102
{BLKREFS
331
193
102
}
  0
BLOCK_RECORD
  5
147
330
1
100
AcDbSymbolTableRecord
100
AcDbBlockTableRecord
  2
JZB-27
340
0
102
{BLKREFS
331
194
102
}
  0
BLOCK_RECORD
  5
151
330
1
100
AcDbSymbolTableRecord
100
AcDbBlockTableRecord
  2
JZB-28
340
0
102
{BLKREFS
331
195
102
}
  0
BLOCK_RECORD
  5
15B
330
1
100
AcDbSymbolTableRecord
100
AcDbBlockTableRecord
  2
JZB-29
340
0
102
{BLKREFS
331
196
102
}
  0
BLOCK_RECORD
  5
16C
330
1
100
AcDbSymbolTableRecord
100
AcDbBlockTableRecord
  2
JZB-30
340
0
102
{BLKREFS
331
197
102
}
  0
ENDTAB
  0
ENDSEC
  0
SECTION
  2
BLOCKS
  0
BLOCK
  5
20
330
1F
100
AcDbEntity
  8
0
100
AcDbBlockBegin
  2
*Model_Space
 70
     0
 10
0.0
 20
0.0
 30
0.0
  3
*Model_Space
  1

  0
ENDBLK
  5
21
330
1F
100
AcDbEntity
  8
0
100
AcDbBlockEnd
  0
BLOCK
  5
1C
330
1B
100
AcDbEntity
 67
     1
  8
0
100
AcDbBlockBegin
  2
*Paper_Space
 70
     0
 10
0.0
 20
0.0
 30
0.0
  3
*Paper_Space
  1

  0
ENDBLK
  5
1D
330
1B
100
AcDbEntity
 67
     1
  8
0
100
AcDbBlockEnd
  0
BLOCK
  5
24
330
23
100
AcDbEntity
  8
0
100
AcDbBlockBegin
  2
*Paper_Space0
 70
     0
 10
0.0
 20
0.0
 30
0.0
  3
*Paper_Space0
  1

  0
ENDBLK
  5
25
330
23
100
AcDbEntity
  8
0
100
AcDbBlockEnd
  0
BLOCK
  5
44
330
43
100
AcDbEntity
  8
0
100
AcDbBlockBegin
  2
JZB-1
 70
     0
 10
0.0
 20
0.0
 30
0.0
  3
JZB-1
  1

  0
LINE
  5
46
330
43
100
AcDbEntity
  8
002
 62
     3
370
    30
100
AcDbLine
 10
517.782053
 20
522.248934
 30
0.0
 11
519.724863
 21
529.49868
 31
0.0
  0
LINE
  5
47
330
43
100
AcDbEntity
  8
002
 62
     3
370
    30
100
AcDbLine
 10
530.338982
 20
518.883889
 30
0.0
 11
532.281792
 21
526.133635
 31
0.0
  0
LINE
  5
48
330
43
100
AcDbEntity
  8
002
 62
     3
370
    30
100
AcDbLine
 10
523.089113
 20
516.941538
 30
0.0
 11
530.338982
 21
518.883889
 31
0.0
  0
LINE
  5
49
330
43
100
AcDbEntity
  8
002
 62
     3
370
    30
100
AcDbLine
 10
526.974732
 20
531.441031
 30
0.0
 11
519.724863
 21
529.49868
 31
0.0
  0
LINE
  5
4A
330
43
100
AcDbEntity
  8
002
 62
     3
370
    30
100
AcDbLine
 10
532.281792
 20
526.133635
 30
0.0
 11
526.974732
 21
531.441031
 31
0.0
  0
LINE
  5
4B
330
43
100
AcDbEntity
  8
002
 62
     3
370
    30
100
AcDbLine
 10
517.782053
 20
522.248934
 30
0.0
 11
523.089113
 21
516.941538
 31
0.0
  0
CIRCLE
  5
4C
330
43
100
AcDbEntity
  8
002
 62
     3
370
    30
100
AcDbCircle
 10
525.031923
 20
524.191285
 30
0.0
 40
6.500000000000002
  0
ENDBLK
  5
45
330
43
100
AcDbEntity
  8
0
100
AcDbBlockEnd
  0
BLOCK
  5
4E
330
4D
100
AcDbEntity
  8
0
100
AcDbBlockBegin
  2
JZB-2
 70
     0
 10
0.0
 20
0.0
 30
0.0
  3
JZB-2
  1

  0
LINE
  5
50
330
4D
100
AcDbEntity
  8
002
 62
     3
370
    30
100
AcDbLine
 10
509.563241
 20
502.406837
 30
0.0
 11
517.068795
 21
502.406837
 31
0.0
  0
LINE
  5
51
330
4D
100
AcDbEntity
  8
002
 62
     3
370
    30
100
AcDbLine
 10
509.563241
 20
489.406837
 30
0.0
 11
517.068795
 21
489.406837
 31
0.0
  0
LINE
  5
52
330
4D
100
AcDbEntity
  8
002
 62
     3
370
    30
100
AcDbLine
 10
505.810464
 20
495.906837
 30
0.0
 11
509.563241
 21
489.406837
 31
0.0
  0
LINE
  5
53
330
4D
100
AcDbEntity
  8
002
 62
     3
370
    30
100
AcDbLine
 10
520.821571
 20
495.906837
 30
0.0
 11
517.068795
 21
502.406837
 31
0.0
  0
LINE
  5
54
330
4D
100
AcDbEntity
  8
002
 62
     3
370
    30
100
AcDbLine
 10
517.068795
 20
489.406837
 30
0.0
 11
520.821571
 21
495.906837
 31
0.0
  0
LINE
  5
55
330
4D
100
AcDbEntity
  8
002
 62
     3
370
    30
100
AcDbLine
 10
509.563241
 20
502.406837
 30
0.0
 11
505.810464
 21
495.906837
 31
0.0
  0
CIRCLE
  5
56
330
4D
100
AcDbEntity
  8
002
 62
     3
370
    30
100
AcDbCircle
 10
513.316018
 20
495.906837
 30
0.0
 40
6.500000000000002
  0
ENDBLK
  5
4F
330
4D
100
AcDbEntity
  8
0
100
AcDbBlockEnd
  0
BLOCK
  5
58
330
57
100
AcDbEntity
  8
0
100
AcDbBlockBegin
  2
JZB-3
 70
     0
 10
0.0
 20
0.0
 30
0.0
  3
JZB-3
  1

  0
LINE
  5
5A
330
57
100
AcDbEntity
  8
002
 62
     3
370
    30
100
AcDbLine
 10
517.782053
 20
469.564741
 30
0.0
 11
523.089113
 21
474.872136
 31
0.0
  0
LINE
  5
5B
330
57
100
AcDbEntity
  8
002
 62
     3
370
    30
100
AcDbLine
 10
526.974732
 20
460.372644
 30
0.0
 11
532.281792
 21
465.680039
 31
0.0
  0
LINE
  5
5C
330
57
100
AcDbEntity
  8
002
 62
     3
370
    30
100
AcDbLine
 10
519.724863
 20
462.314994
 30
0.0
 11
526.974732
 21
460.372644
 31
0.0
  0
LINE
  5
5D
330
57
100
AcDbEntity
  8
002
 62
     3
370
    30
100
AcDbLine
 10
530.338982
 20
472.929786
 30
0.0
 11
523.089113
 21
474.872136
 31
0.0
  0
LINE
  5
5E
330
57
100
AcDbEntity
  8
002
 62
     3
370
    30
100
AcDbLine
 10
532.281792
 20
465.680039
 30
0.0
 11
530.338982
 21
472.929786
 31
0.0
  0
LINE
  5
5F
330
57
100
AcDbEntity
  8
002
 62
     3
370
    30
100
AcDbLine
 10
517.782053
 20
469.564741
 30
0.0
 11
519.724863
 21
462.314994
 31
0.0
  0
CIRCLE
  5
60
330
57
100
AcDbEntity
  8
002
 62
     3
370
    30
100
AcDbCircle
 10
525.031923
 20
467.62239
 30
0.0
 40
6.500000000000002
  0
ENDBLK
  5
59
330
57
100
AcDbEntity
  8
0
100
AcDbBlockEnd
  0
BLOCK
  5
62
330
61
100
AcDbEntity
  8
0
100
AcDbBlockBegin
  2
JZB-4
 70
     0
 10
0.0
 20
0.0
 30
0.0
  3
JZB-4
  1

  0
LINE
  5
64
330
61
100
AcDbEntity
  8
002
 62
     3
370
    30
100
AcDbLine
 10
586.907664
 20
462.315486
 30
0.0
 11
579.657883
 21
460.372807
 31
0.0
  0
LINE
  5
65
330
61
100
AcDbEntity
  8
002
 62
     3
370
    30
100
AcDbLine
 10
583.542846
 20
474.872476
 30
0.0
 11
576.293065
 21
472.929797
 31
0.0
  0
LINE
  5
66
330
61
100
AcDbEntity
  8
002
 62
     3
370
    30
100
AcDbLine
 10
588.850146
 20
469.56532
 30
0.0
 11
583.542846
 21
474.872476
 31
0.0
  0
LINE
  5
67
330
61
100
AcDbEntity
  8
002
 62
     3
370
    30
100
AcDbLine
 10
574.350583
 20
465.679963
 30
0.0
 11
579.657883
 21
460.372807
 31
0.0
  0
LINE
  5
68
330
61
100
AcDbEntity
  8
002
 62
     3
370
    30
100
AcDbLine
 10
576.293065
 20
472.929797
 30
0.0
 11
574.350583
 21
465.679963
 31
0.0
  0
LINE
  5
69
330
61
100
AcDbEntity
  8
002
 62
     3
370
    30
100
AcDbLine
 10
586.907664
 20
462.315486
 30
0.0
 11
588.850146
 21
469.56532
 31
0.0
  0
CIRCLE
  5
6A
330
61
100
AcDbEntity
  8
002
 62
     3
370
    30
100
AcDbCircle
 10
581.600365
 20
467.622641
 30
0.0
 40
6.500000000000002
  0
ENDBLK
  5
63
330
61
100
AcDbEntity
  8
0
100
AcDbBlockEnd
  0
BLOCK
  5
6C
330
6B
100
AcDbEntity
  8
0
100
AcDbBlockBegin
  2
JZB-5
 70
     0
 10
0.0
 20
0.0
 30
0.0
  3
JZB-5
  1

  0
LINE
  5
6E
330
6B
100
AcDbEntity
  8
002
 62
     3
370
    30
100
AcDbLine
 10
546.816018
 20
532.154061
 30
0.0
 11
546.816018
 21
539.659614
 31
0.0
  0
LINE
  5
6F
330
6B
100
AcDbEntity
  8
002
 62
     3
370
    30
100
AcDbLine
 10
559.816018
 20
532.154061
 30
0.0
 11
559.816018
 21
539.659614
 31
0.0
  0
LINE
  5
70
330
6B
100
AcDbEntity
  8
002
 62
     3
370
    30
100
AcDbLine
 10
553.316018
 20
528.401284
 30
0.0
 11
559.816018
 21
532.154061
 31
0.0
  0
LINE
  5
71
330
6B
100
AcDbEntity
  8
002
 62
     3
370
    30
100
AcDbLine
 10
553.316018
 20
543.412391
 30
0.0
 11
546.816018
 21
539.659614
 31
0.0
  0
LINE
  5
72
330
6B
100
AcDbEntity
  8
002
 62
     3
370
    30
100
AcDbLine
 10
559.816018
 20
539.659614
 30
0.0
 11
553.316018
 21
543.412391
 31
0.0
  0
LINE
  5
73
330
6B
100
AcDbEntity
  8
002
 62
     3
370
    30
100
AcDbLine
 10
546.816018
 20
532.154061
 30
0.0
 11
553.316018
 21
528.401284
 31
0.0
  0
CIRCLE
  5
74
330
6B
100
AcDbEntity
  8
002
 62
     3
370
    30
100
AcDbCircle
 10
553.316018
 20
535.906837
 30
0.0
 40
6.500000000000002
  0
ENDBLK
  5
6D
330
6B
100
AcDbEntity
  8
0
100
AcDbBlockEnd
  0
BLOCK
  5
76
330
75
100
AcDbEntity
  8
0
100
AcDbBlockBegin
  2
JZB-6
 70
     0
 10
0.0
 20
0.0
 30
0.0
  3
JZB-6
  1

  0
LINE
  5
78
330
75
100
AcDbEntity
  8
002
 62
     3
370
    30
100
AcDbLine
 10
559.816018
 20
452.154061
 30
0.0
 11
553.316018
 21
448.401284
 31
0.0
  0
LINE
  5
79
330
75
100
AcDbEntity
  8
002
 62
     3
370
    30
100
AcDbLine
 10
553.316018
 20
463.412391
 30
0.0
 11
546.816018
 21
459.659614
 31
0.0
  0
LINE
  5
7A
330
75
100
AcDbEntity
  8
002
 62
     3
370
    30
100
AcDbLine
 10
559.816018
 20
459.659614
 30
0.0
 11
553.316018
 21
463.412391
 31
0.0
  0
LINE
  5
7B
330
75
100
AcDbEntity
  8
002
 62
     3
370
    30
100
AcDbLine
 10
546.816018
 20
452.154061
 30
0.0
 11
553.316018
 21
448.401284
 31
0.0
  0
LINE
  5
7C
330
75
100
AcDbEntity
  8
002
 62
     3
370
    30
100
AcDbLine
 10
546.816018
 20
459.659614
 30
0.0
 11
546.816018
 21
452.154061
 31
0.0
  0
LINE
  5
7D
330
75
100
AcDbEntity
  8
002
 62
     3
370
    30
100
AcDbLine
 10
559.816018
 20
452.154061
 30
0.0
 11
559.816018
 21
459.659614
 31
0.0
  0
CIRCLE
  5
7E
330
75
100
AcDbEntity
  8
002
 62
     3
370
    30
100
AcDbCircle
 10
553.316018
 20
455.906837
 30
0.0
 40
6.500000000000002
  0
ENDBLK
  5
77
330
75
100
AcDbEntity
  8
0
100
AcDbBlockEnd
  0
BLOCK
  5
80
330
7F
100
AcDbEntity
  8
0
100
AcDbBlockBegin
  2
JZB-7
 70
     0
 10
0.0
 20
0.0
 30
0.0
  3
JZB-7
  1

  0
LINE
  5
82
330
7F
100
AcDbEntity
  8
002
 62
     3
370
    30
100
AcDbLine
 10
586.907664
 20
529.498189
 30
0.0
 11
588.850146
 21
522.248355
 31
0.0
  0
LINE
  5
83
330
7F
100
AcDbEntity
  8
002
 62
     3
370
    30
100
AcDbLine
 10
574.350583
 20
526.133712
 30
0.0
 11
576.293065
 21
518.883877
 31
0.0
  0
LINE
  5
84
330
7F
100
AcDbEntity
  8
002
 62
     3
370
    30
100
AcDbLine
 10
579.657883
 20
531.440867
 30
0.0
 11
574.350583
 21
526.133712
 31
0.0
  0
LINE
  5
85
330
7F
100
AcDbEntity
  8
002
 62
     3
370
    30
100
AcDbLine
 10
583.542846
 20
516.941199
 30
0.0
 11
588.850146
 21
522.248355
 31
0.0
  0
LINE
  5
86
330
7F
100
AcDbEntity
  8
002
 62
     3
370
    30
100
AcDbLine
 10
576.293065
 20
518.883877
 30
0.0
 11
583.542846
 21
516.941199
 31
0.0
  0
LINE
  5
87
330
7F
100
AcDbEntity
  8
002
 62
     3
370
    30
100
AcDbLine
 10
586.907664
 20
529.498189
 30
0.0
 11
579.657883
 21
531.440867
 31
0.0
  0
CIRCLE
  5
88
330
7F
100
AcDbEntity
  8
002
 62
     3
370
    30
100
AcDbCircle
 10
581.600365
 20
524.191033
 30
0.0
 40
6.500000000000002
  0
ENDBLK
  5
81
330
7F
100
AcDbEntity
  8
0
100
AcDbBlockEnd
  0
BLOCK
  5
8A
330
89
100
AcDbEntity
  8
0
100
AcDbBlockBegin
  2
JZB-8
 70
     0
 10
0.0
 20
0.0
 30
0.0
  3
JZB-8
  1

  0
LINE
  5
8C
330
89
100
AcDbEntity
  8
002
 62
     3
370
    30
100
AcDbLine
 10
1082.045211
 20
522.248934
 30
0.0
 11
1083.988021
 21
529.49868
 31
0.0
  0
LINE
  5
8D
330
89
100
AcDbEntity
  8
002
 62
     3
370
    30
100
AcDbLine
 10
1094.60214
 20
518.883889
 30
0.0
 11
1096.54495
 21
526.133635
 31
0.0
  0
LINE
  5
8E
330
89
100
AcDbEntity
  8
002
 62
     3
370
    30
100
AcDbLine
 10
1087.352271
 20
516.941538
 30
0.0
 11
1094.60214
 21
518.883889
 31
0.0
  0
LINE
  5
8F
330
89
100
AcDbEntity
  8
002
 62
     3
370
    30
100
AcDbLine
 10
1091.23789
 20
531.441031
 30
0.0
 11
1083.988021
 21
529.49868
 31
0.0
  0
LINE
  5
90
330
89
100
AcDbEntity
  8
002
 62
     3
370
    30
100
AcDbLine
 10
1096.54495
 20
526.133635
 30
0.0
 11
1091.23789
 21
531.441031
 31
0.0
  0
LINE
  5
91
330
89
100
AcDbEntity
  8
002
 62
     3
370
    30
100
AcDbLine
 10
1082.045211
 20
522.248934
 30
0.0
 11
1087.352271
 21
516.941538
 31
0.0
  0
CIRCLE
  5
92
330
89
100
AcDbEntity
  8
002
 62
     3
370
    30
100
AcDbCircle
 10
1089.29508
 20
524.191285
 30
0.0
 40
6.500000000000002
  0
ENDBLK
  5
8B
330
89
100
AcDbEntity
  8
0
100
AcDbBlockEnd
  0
BLOCK
  5
94
330
93
100
AcDbEntity
  8
0
100
AcDbBlockBegin
  2
JZB-9
 70
     0
 10
0.0
 20
0.0
 30
0.0
  3
JZB-9
  1

  0
LINE
  5
96
330
93
100
AcDbEntity
  8
002
 62
     3
370
    30
100
AcDbLine
 10
1073.826399
 20
502.406837
 30
0.0
 11
1081.331952
 21
502.406837
 31
0.0
  0
LINE
  5
97
330
93
100
AcDbEntity
  8
002
 62
     3
370
    30
100
AcDbLine
 10
1073.826399
 20
489.406837
 30
0.0
 11
1081.331952
 21
489.406837
 31
0.0
  0
LINE
  5
98
330
93
100
AcDbEntity
  8
002
 62
     3
370
    30
100
AcDbLine
 10
1070.073622
 20
495.906837
 30
0.0
 11
1073.826399
 21
489.406837
 31
0.0
  0
LINE
  5
99
330
93
100
AcDbEntity
  8
002
 62
     3
370
    30
100
AcDbLine
 10
1085.084729
 20
495.906837
 30
0.0
 11
1081.331952
 21
502.406837
 31
0.0
  0
LINE
  5
9A
330
93
100
AcDbEntity
  8
002
 62
     3
370
    30
100
AcDbLine
 10
1081.331952
 20
489.406837
 30
0.0
 11
1085.084729
 21
495.906837
 31
0.0
  0
LINE
  5
9B
330
93
100
AcDbEntity
  8
002
 62
     3
370
    30
100
AcDbLine
 10
1073.826399
 20
502.406837
 30
0.0
 11
1070.073622
 21
495.906837
 31
0.0
  0
CIRCLE
  5
9C
330
93
100
AcDbEntity
  8
002
 62
     3
370
    30
100
AcDbCircle
 10
1077.579176
 20
495.906837
 30
0.0
 40
6.500000000000002
  0
ENDBLK
  5
95
330
93
100
AcDbEntity
  8
0
100
AcDbBlockEnd
  0
BLOCK
  5
9E
330
9D
100
AcDbEntity
  8
0
100
AcDbBlockBegin
  2
JZB-10
 70
     0
 10
0.0
 20
0.0
 30
0.0
  3
JZB-10
  1

  0
LINE
  5
A0
330
9D
100
AcDbEntity
  8
002
 62
     3
370
    30
100
AcDbLine
 10
1082.045211
 20
469.564741
 30
0.0
 11
1087.352271
 21
474.872136
 31
0.0
  0
LINE
  5
A1
330
9D
100
AcDbEntity
  8
002
 62
     3
370
    30
100
AcDbLine
 10
1091.23789
 20
460.372644
 30
0.0
 11
1096.54495
 21
465.680039
 31
0.0
  0
LINE
  5
A2
330
9D
100
AcDbEntity
  8
002
 62
     3
370
    30
100
AcDbLine
 10
1083.988021
 20
462.314994
 30
0.0
 11
1091.23789
 21
460.372644
 31
0.0
  0
LINE
  5
A3
330
9D
100
AcDbEntity
  8
002
 62
     3
370
    30
100
AcDbLine
 10
1094.60214
 20
472.929786
 30
0.0
 11
1087.352271
 21
474.872136
 31
0.0
  0
LINE
  5
A4
330
9D
100
AcDbEntity
  8
002
 62
     3
370
    30
100
AcDbLine
 10
1096.54495
 20
465.680039
 30
0.0
 11
1094.60214
 21
472.929786
 31
0.0
  0
LINE
  5
A5
330
9D
100
AcDbEntity
  8
002
 62
     3
370
    30
100
AcDbLine
 10
1082.045211
 20
469.564741
 30
0.0
 11
1083.988021
 21
462.314994
 31
0.0
  0
CIRCLE
  5
A6
330
9D
100
AcDbEntity
  8
002
 62
     3
370
    30
100
AcDbCircle
 10
1089.29508
 20
467.62239
 30
0.0
 40
6.500000000000002
  0
ENDBLK
  5
9F
330
9D
100
AcDbEntity
  8
0
100
AcDbBlockEnd
  0
BLOCK
  5
A8
330
A7
100
AcDbEntity
  8
0
100
AcDbBlockBegin
  2
JZB-11
 70
     0
 10
0.0
 20
0.0
 30
0.0
  3
JZB-11
  1

  0
LINE
  5
AA
330
A7
100
AcDbEntity
  8
002
 62
     3
370
    30
100
AcDbLine
 10
1151.170822
 20
462.315486
 30
0.0
 11
1143.92104
 21
460.372807
 31
0.0
  0
LINE
  5
AB
330
A7
100
AcDbEntity
  8
002
 62
     3
370
    30
100
AcDbLine
 10
1147.806004
 20
474.872476
 30
0.0
 11
1140.556222
 21
472.929797
 31
0.0
  0
LINE
  5
AC
330
A7
100
AcDbEntity
  8
002
 62
     3
370
    30
100
AcDbLine
 10
1153.113304
 20
469.56532
 30
0.0
 11
1147.806004
 21
474.872476
 31
0.0
  0
LINE
  5
AD
330
A7
100
AcDbEntity
  8
002
 62
     3
370
    30
100
AcDbLine
 10
1138.613741
 20
465.679963
 30
0.0
 11
1143.92104
 21
460.372807
 31
0.0
  0
LINE
  5
AE
330
A7
100
AcDbEntity
  8
002
 62
     3
370
    30
100
AcDbLine
 10
1140.556222
 20
472.929797
 30
0.0
 11
1138.613741
 21
465.679963
 31
0.0
  0
LINE
  5
AF
330
A7
100
AcDbEntity
  8
002
 62
     3
370
    30
100
AcDbLine
 10
1151.170822
 20
462.315486
 30
0.0
 11
1153.113304
 21
469.56532
 31
0.0
  0
CIRCLE
  5
B0
330
A7
100
AcDbEntity
  8
002
 62
     3
370
    30
100
AcDbCircle
 10
1145.863522
 20
467.622641
 30
0.0
 40
6.500000000000002
  0
ENDBLK
  5
A9
330
A7
100
AcDbEntity
  8
0
100
AcDbBlockEnd
  0
BLOCK
  5
B2
330
B1
100
AcDbEntity
  8
0
100
AcDbBlockBegin
  2
JZB-12
 70
     0
 10
0.0
 20
0.0
 30
0.0
  3
JZB-12
  1

  0
LINE
  5
B4
330
B1
100
AcDbEntity
  8
002
 62
     3
370
    30
100
AcDbLine
 10
1111.079176
 20
532.154061
 30
0.0
 11
1111.079176
 21
539.659614
 31
0.0
  0
LINE
  5
B5
330
B1
100
AcDbEntity
  8
002
 62
     3
370
    30
100
AcDbLine
 10
1124.079176
 20
532.154061
 30
0.0
 11
1124.079176
 21
539.659614
 31
0.0
  0
LINE
  5
B6
330
B1
100
AcDbEntity
  8
002
 62
     3
370
    30
100
AcDbLine
 10
1117.579176
 20
528.401284
 30
0.0
 11
1124.079176
 21
532.154061
 31
0.0
  0
LINE
  5
B7
330
B1
100
AcDbEntity
  8
002
 62
     3
370
    30
100
AcDbLine
 10
1117.579176
 20
543.412391
 30
0.0
 11
1111.079176
 21
539.659614
 31
0.0
  0
LINE
  5
B8
330
B1
100
AcDbEntity
  8
002
 62
     3
370
    30
100
AcDbLine
 10
1124.079176
 20
539.659614
 30
0.0
 11
1117.579176
 21
543.412391
 31
0.0
  0
LINE
  5
B9
330
B1
100
AcDbEntity
  8
002
 62
     3
370
    30
100
AcDbLine
 10
1111.079176
 20
532.154061
 30
0.0
 11
1117.579176
 21
528.401284
 31
0.0
  0
CIRCLE
  5
BA
330
B1
100
AcDbEntity
  8
002
 62
     3
370
    30
100
AcDbCircle
 10
1117.579176
 20
535.906837
 30
0.0
 40
6.500000000000002
  0
ENDBLK
  5
B3
330
B1
100
AcDbEntity
  8
0
100
AcDbBlockEnd
  0
BLOCK
  5
BC
330
BB
100
AcDbEntity
  8
0
100
AcDbBlockBegin
  2
JZB-13
 70
     0
 10
0.0
 20
0.0
 30
0.0
  3
JZB-13
  1

  0
LINE
  5
BE
330
BB
100
AcDbEntity
  8
002
 62
     3
370
    30
100
AcDbLine
 10
1124.079176
 20
452.154061
 30
0.0
 11
1117.579176
 21
448.401284
 31
0.0
  0
LINE
  5
BF
330
BB
100
AcDbEntity
  8
002
 62
     3
370
    30
100
AcDbLine
 10
1117.579176
 20
463.412391
 30
0.0
 11
1111.079176
 21
459.659614
 31
0.0
  0
LINE
  5
C0
330
BB
100
AcDbEntity
  8
002
 62
     3
370
    30
100
AcDbLine
 10
1124.079176
 20
459.659614
 30
0.0
 11
1117.579176
 21
463.412391
 31
0.0
  0
LINE
  5
C1
330
BB
100
AcDbEntity
  8
002
 62
     3
370
    30
100
AcDbLine
 10
1111.079176
 20
452.154061
 30
0.0
 11
1117.579176
 21
448.401284
 31
0.0
  0
LINE
  5
C2
330
BB
100
AcDbEntity
  8
002
 62
     3
370
    30
100
AcDbLine
 10
1111.079176
 20
459.659614
 30
0.0
 11
1111.079176
 21
452.154061
 31
0.0
  0
LINE
  5
C3
330
BB
100
AcDbEntity
  8
002
 62
     3
370
    30
100
AcDbLine
 10
1124.079176
 20
452.154061
 30
0.0
 11
1124.079176
 21
459.659614
 31
0.0
  0
CIRCLE
  5
C4
330
BB
100
AcDbEntity
  8
002
 62
     3
370
    30
100
AcDbCircle
 10
1117.579176
 20
455.906837
 30
0.0
 40
6.500000000000002
  0
ENDBLK
  5
BD
330
BB
100
AcDbEntity
  8
0
100
AcDbBlockEnd
  0
BLOCK
  5
C6
330
C5
100
AcDbEntity
  8
0
100
AcDbBlockBegin
  2
JZB-14
 70
     0
 10
0.0
 20
0.0
 30
0.0
  3
JZB-14
  1

  0
LINE
  5
C8
330
C5
100
AcDbEntity
  8
002
 62
     3
370
    30
100
AcDbLine
 10
1151.170822
 20
529.498189
 30
0.0
 11
1153.113304
 21
522.248355
 31
0.0
  0
LINE
  5
C9
330
C5
100
AcDbEntity
  8
002
 62
     3
370
    30
100
AcDbLine
 10
1138.613741
 20
526.133712
 30
0.0
 11
1140.556222
 21
518.883877
 31
0.0
  0
LINE
  5
CA
330
C5
100
AcDbEntity
  8
002
 62
     3
370
    30
100
AcDbLine
 10
1143.92104
 20
531.440867
 30
0.0
 11
1138.613741
 21
526.133712
 31
0.0
  0
LINE
  5
CB
330
C5
100
AcDbEntity
  8
002
 62
     3
370
    30
100
AcDbLine
 10
1147.806004
 20
516.941199
 30
0.0
 11
1153.113304
 21
522.248355
 31
0.0
  0
LINE
  5
CC
330
C5
100
AcDbEntity
  8
002
 62
     3
370
    30
100
AcDbLine
 10
1140.556222
 20
518.883877
 30
0.0
 11
1147.806004
 21
516.941199
 31
0.0
  0
LINE
  5
CD
330
C5
100
AcDbEntity
  8
002
 62
     3
370
    30
100
AcDbLine
 10
1151.170822
 20
529.498189
 30
0.0
 11
1143.92104
 21
531.440867
 31
0.0
  0
CIRCLE
  5
CE
330
C5
100
AcDbEntity
  8
002
 62
     3
370
    30
100
AcDbCircle
 10
1145.863522
 20
524.191033
 30
0.0
 40
6.500000000000002
  0
ENDBLK
  5
C7
330
C5
100
AcDbEntity
  8
0
100
AcDbBlockEnd
  0
BLOCK
  5
D0
330
CF
100
AcDbEntity
  8
0
100
AcDbBlockBegin
  2
JZB-15
 70
     0
 10
0.0
 20
0.0
 30
0.0
  3
JZB-15
  1

  0
LINE
  5
D2
330
CF
100
AcDbEntity
  8
002
 62
     3
370
    30
100
AcDbLine
 10
1459.352615
 20
522.248934
 30
0.0
 11
1461.295425
 21
529.49868
 31
0.0
  0
LINE
  5
D3
330
CF
100
AcDbEntity
  8
002
 62
     3
370
    30
100
AcDbLine
 10
1471.909544
 20
518.883889
 30
0.0
 11
1473.852354
 21
526.133635
 31
0.0
  0
LINE
  5
D4
330
CF
100
AcDbEntity
  8
002
 62
     3
370
    30
100
AcDbLine
 10
1464.659675
 20
516.941538
 30
0.0
 11
1471.909544
 21
518.883889
 31
0.0
  0
LINE
  5
D5
330
CF
100
AcDbEntity
  8
002
 62
     3
370
    30
100
AcDbLine
 10
1468.545295
 20
531.441031
 30
0.0
 11
1461.295425
 21
529.49868
 31
0.0
  0
LINE
  5
D6
330
CF
100
AcDbEntity
  8
002
 62
     3
370
    30
100
AcDbLine
 10
1473.852354
 20
526.133635
 30
0.0
 11
1468.545295
 21
531.441031
 31
0.0
  0
LINE
  5
D7
330
CF
100
AcDbEntity
  8
002
 62
     3
370
    30
100
AcDbLine
 10
1459.352615
 20
522.248934
 30
0.0
 11
1464.659675
 21
516.941538
 31
0.0
  0
CIRCLE
  5
D8
330
CF
100
AcDbEntity
  8
002
 62
     3
370
    30
100
AcDbCircle
 10
1466.602485
 20
524.191285
 30
0.0
 40
6.500000000000002
  0
ENDBLK
  5
D1
330
CF
100
AcDbEntity
  8
0
100
AcDbBlockEnd
  0
BLOCK
  5
DA
330
D9
100
AcDbEntity
  8
0
100
AcDbBlockBegin
  2
JZB-16
 70
     0
 10
0.0
 20
0.0
 30
0.0
  3
JZB-16
  1

  0
LINE
  5
DC
330
D9
100
AcDbEntity
  8
002
 62
     3
370
    30
100
AcDbLine
 10
1451.133803
 20
502.406837
 30
0.0
 11
1458.639357
 21
502.406837
 31
0.0
  0
LINE
  5
DD
330
D9
100
AcDbEntity
  8
002
 62
     3
370
    30
100
AcDbLine
 10
1451.133803
 20
489.406837
 30
0.0
 11
1458.639357
 21
489.406837
 31
0.0
  0
LINE
  5
DE
330
D9
100
AcDbEntity
  8
002
 62
     3
370
    30
100
AcDbLine
 10
1447.381027
 20
495.906837
 30
0.0
 11
1451.133803
 21
489.406837
 31
0.0
  0
LINE
  5
DF
330
D9
100
AcDbEntity
  8
002
 62
     3
370
    30
100
AcDbLine
 10
1462.392134
 20
495.906837
 30
0.0
 11
1458.639357
 21
502.406837
 31
0.0
  0
LINE
  5
E0
330
D9
100
AcDbEntity
  8
002
 62
     3
370
    30
100
AcDbLine
 10
1458.639357
 20
489.406837
 30
0.0
 11
1462.392134
 21
495.906837
 31
0.0
  0
LINE
  5
E1
330
D9
100
AcDbEntity
  8
002
 62
     3
370
    30
100
AcDbLine
 10
1451.133803
 20
502.406837
 30
0.0
 11
1447.381027
 21
495.906837
 31
0.0
  0
CIRCLE
  5
E2
330
D9
100
AcDbEntity
  8
002
 62
     3
370
    30
100
AcDbCircle
 10
1454.88658
 20
495.906837
 30
0.0
 40
6.500000000000002
  0
ENDBLK
  5
DB
330
D9
100
AcDbEntity
  8
0
100
AcDbBlockEnd
  0
BLOCK
  5
E4
330
E3
100
AcDbEntity
  8
0
100
AcDbBlockBegin
  2
JZB-17
 70
     0
 10
0.0
 20
0.0
 30
0.0
  3
JZB-17
  1

  0
LINE
  5
E6
330
E3
100
AcDbEntity
  8
002
 62
     3
370
    30
100
AcDbLine
 10
1459.352615
 20
469.564741
 30
0.0
 11
1464.659675
 21
474.872136
 31
0.0
  0
LINE
  5
E7
330
E3
100
AcDbEntity
  8
002
 62
     3
370
    30
100
AcDbLine
 10
1468.545295
 20
460.372644
 30
0.0
 11
1473.852354
 21
465.680039
 31
0.0
  0
LINE
  5
E8
330
E3
100
AcDbEntity
  8
002
 62
     3
370
    30
100
AcDbLine
 10
1461.295425
 20
462.314994
 30
0.0
 11
1468.545295
 21
460.372644
 31
0.0
  0
LINE
  5
E9
330
E3
100
AcDbEntity
  8
002
 62
     3
370
    30
100
AcDbLine
 10
1471.909544
 20
472.929786
 30
0.0
 11
1464.659675
 21
474.872136
 31
0.0
  0
LINE
  5
EA
330
E3
100
AcDbEntity
  8
002
 62
     3
370
    30
100
AcDbLine
 10
1473.852354
 20
465.680039
 30
0.0
 11
1471.909544
 21
472.929786
 31
0.0
  0
LINE
  5
EB
330
E3
100
AcDbEntity
  8
002
 62
     3
370
    30
100
AcDbLine
 10
1459.352615
 20
469.564741
 30
0.0
 11
1461.295425
 21
462.314994
 31
0.0
  0
CIRCLE
  5
EC
330
E3
100
AcDbEntity
  8
002
 62
     3
370
    30
100
AcDbCircle
 10
1466.602485
 20
467.62239
 30
0.0
 40
6.500000000000002
  0
ENDBLK
  5
E5
330
E3
100
AcDbEntity
  8
0
100
AcDbBlockEnd
  0
BLOCK
  5
EE
330
ED
100
AcDbEntity
  8
0
100
AcDbBlockBegin
  2
JZB-18
 70
     0
 10
0.0
 20
0.0
 30
0.0
  3
JZB-18
  1

  0
LINE
  5
F0
330
ED
100
AcDbEntity
  8
002
 62
     3
370
    30
100
AcDbLine
 10
1528.478226
 20
462.315486
 30
0.0
 11
1521.228445
 21
460.372807
 31
0.0
  0
LINE
  5
F1
330
ED
100
AcDbEntity
  8
002
 62
     3
370
    30
100
AcDbLine
 10
1525.113408
 20
474.872476
 30
0.0
 11
1517.863627
 21
472.929797
 31
0.0
  0
LINE
  5
F2
330
ED
100
AcDbEntity
  8
002
 62
     3
370
    30
100
AcDbLine
 10
1530.420708
 20
469.56532
 30
0.0
 11
1525.113408
 21
474.872476
 31
0.0
  0
LINE
  5
F3
330
ED
100
AcDbEntity
  8
002
 62
     3
370
    30
100
AcDbLine
 10
1515.921145
 20
465.679963
 30
0.0
 11
1521.228445
 21
460.372807
 31
0.0
  0
LINE
  5
F4
330
ED
100
AcDbEntity
  8
002
 62
     3
370
    30
100
AcDbLine
 10
1517.863627
 20
472.929797
 30
0.0
 11
1515.921145
 21
465.679963
 31
0.0
  0
LINE
  5
F5
330
ED
100
AcDbEntity
  8
002
 62
     3
370
    30
100
AcDbLine
 10
1528.478226
 20
462.315486
 30
0.0
 11
1530.420708
 21
469.56532
 31
0.0
  0
CIRCLE
  5
F6
330
ED
100
AcDbEntity
  8
002
 62
     3
370
    30
100
AcDbCircle
 10
1523.170927
 20
467.622641
 30
0.0
 40
6.500000000000002
  0
ENDBLK
  5
EF
330
ED
100
AcDbEntity
  8
0
100
AcDbBlockEnd
  0
BLOCK
  5
F8
330
F7
100
AcDbEntity
  8
0
100
AcDbBlockBegin
  2
JZB-19
 70
     0
 10
0.0
 20
0.0
 30
0.0
  3
JZB-19
  1

  0
LINE
  5
FA
330
F7
100
AcDbEntity
  8
002
 62
     3
370
    30
100
AcDbLine
 10
1488.38658
 20
532.154061
 30
0.0
 11
1488.38658
 21
539.659614
 31
0.0
  0
LINE
  5
FB
330
F7
100
AcDbEntity
  8
002
 62
     3
370
    30
100
AcDbLine
 10
1501.38658
 20
532.154061
 30
0.0
 11
1501.38658
 21
539.659614
 31
0.0
  0
LINE
  5
FC
330
F7
100
AcDbEntity
  8
002
 62
     3
370
    30
100
AcDbLine
 10
1494.88658
 20
528.401284
 30
0.0
 11
1501.38658
 21
532.154061
 31
0.0
  0
LINE
  5
FD
330
F7
100
AcDbEntity
  8
002
 62
     3
370
    30
100
AcDbLine
 10
1494.88658
 20
543.412391
 30
0.0
 11
1488.38658
 21
539.659614
 31
0.0
  0
LINE
  5
FE
330
F7
100
AcDbEntity
  8
002
 62
     3
370
    30
100
AcDbLine
 10
1501.38658
 20
539.659614
 30
0.0
 11
1494.88658
 21
543.412391
 31
0.0
  0
LINE
  5
FF
330
F7
100
AcDbEntity
  8
002
 62
     3
370
    30
100
AcDbLine
 10
1488.38658
 20
532.154061
 30
0.0
 11
1494.88658
 21
528.401284
 31
0.0
  0
CIRCLE
  5
100
330
F7
100
AcDbEntity
  8
002
 62
     3
370
    30
100
AcDbCircle
 10
1494.88658
 20
535.906837
 30
0.0
 40
6.500000000000002
  0
ENDBLK
  5
F9
330
F7
100
AcDbEntity
  8
0
100
AcDbBlockEnd
  0
BLOCK
  5
102
330
101
100
AcDbEntity
  8
0
100
AcDbBlockBegin
  2
JZB-20
 70
     0
 10
0.0
 20
0.0
 30
0.0
  3
JZB-20
  1

  0
LINE
  5
104
330
101
100
AcDbEntity
  8
002
 62
     3
370
    30
100
AcDbLine
 10
1501.38658
 20
452.154061
 30
0.0
 11
1494.88658
 21
448.401284
 31
0.0
  0
LINE
  5
105
330
101
100
AcDbEntity
  8
002
 62
     3
370
    30
100
AcDbLine
 10
1494.88658
 20
463.412391
 30
0.0
 11
1488.38658
 21
459.659614
 31
0.0
  0
LINE
  5
106
330
101
100
AcDbEntity
  8
002
 62
     3
370
    30
100
AcDbLine
 10
1501.38658
 20
459.659614
 30
0.0
 11
1494.88658
 21
463.412391
 31
0.0
  0
LINE
  5
107
330
101
100
AcDbEntity
  8
002
 62
     3
370
    30
100
AcDbLine
 10
1488.38658
 20
452.154061
 30
0.0
 11
1494.88658
 21
448.401284
 31
0.0
  0
LINE
  5
108
330
101
100
AcDbEntity
  8
002
 62
     3
370
    30
100
AcDbLine
 10
1488.38658
 20
459.659614
 30
0.0
 11
1488.38658
 21
452.154061
 31
0.0
  0
LINE
  5
109
330
101
100
AcDbEntity
  8
002
 62
     3
370
    30
100
AcDbLine
 10
1501.38658
 20
452.154061
 30
0.0
 11
1501.38658
 21
459.659614
 31
0.0
  0
CIRCLE
  5
10A
330
101
100
AcDbEntity
  8
002
 62
     3
370
    30
100
AcDbCircle
 10
1494.88658
 20
455.906837
 30
0.0
 40
6.500000000000002
  0
ENDBLK
  5
103
330
101
100
AcDbEntity
  8
0
100
AcDbBlockEnd
  0
BLOCK
  5
10C
330
10B
100
AcDbEntity
  8
0
100
AcDbBlockBegin
  2
JZB-21
 70
     0
 10
0.0
 20
0.0
 30
0.0
  3
JZB-21
  1

  0
LINE
  5
10E
330
10B
100
AcDbEntity
  8
002
 62
     3
370
    30
100
AcDbLine
 10
1528.478226
 20
529.498189
 30
0.0
 11
1530.420708
 21
522.248355
 31
0.0
  0
LINE
  5
10F
330
10B
100
AcDbEntity
  8
002
 62
     3
370
    30
100
AcDbLine
 10
1515.921145
 20
526.133712
 30
0.0
 11
1517.863627
 21
518.883877
 31
0.0
  0
LINE
  5
110
330
10B
100
AcDbEntity
  8
002
 62
     3
370
    30
100
AcDbLine
 10
1521.228445
 20
531.440867
 30
0.0
 11
1515.921145
 21
526.133712
 31
0.0
  0
LINE
  5
111
330
10B
100
AcDbEntity
  8
002
 62
     3
370
    30
100
AcDbLine
 10
1525.113408
 20
516.941199
 30
0.0
 11
1530.420708
 21
522.248355
 31
0.0
  0
LINE
  5
112
330
10B
100
AcDbEntity
  8
002
 62
     3
370
    30
100
AcDbLine
 10
1517.863627
 20
518.883877
 30
0.0
 11
1525.113408
 21
516.941199
 31
0.0
  0
LINE
  5
113
330
10B
100
AcDbEntity
  8
002
 62
     3
370
    30
100
AcDbLine
 10
1528.478226
 20
529.498189
 30
0.0
 11
1521.228445
 21
531.440867
 31
0.0
  0
CIRCLE
  5
114
330
10B
100
AcDbEntity
  8
002
 62
     3
370
    30
100
AcDbCircle
 10
1523.170927
 20
524.191033
 30
0.0
 40
6.500000000000002
  0
ENDBLK
  5
10D
330
10B
100
AcDbEntity
  8
0
100
AcDbBlockEnd
  0
BLOCK
  5
116
330
115
100
AcDbEntity
  8
0
100
AcDbBlockBegin
  2
JZB-22
 70
     0
 10
0.0
 20
0.0
 30
0.0
  3
JZB-22
  1

  0
LINE
  5
118
330
115
100
AcDbEntity
  8
002
 62
     3
370
    30
100
AcDbLine
 10
1801.352615
 20
522.248934
 30
0.0
 11
1803.295425
 21
529.49868
 31
0.0
  0
LINE
  5
119
330
115
100
AcDbEntity
  8
002
 62
     3
370
    30
100
AcDbLine
 10
1813.909544
 20
518.883889
 30
0.0
 11
1815.852354
 21
526.133635
 31
0.0
  0
LINE
  5
11A
330
115
100
AcDbEntity
  8
002
 62
     3
370
    30
100
AcDbLine
 10
1806.659675
 20
516.941538
 30
0.0
 11
1813.909544
 21
518.883889
 31
0.0
  0
LINE
  5
11B
330
115
100
AcDbEntity
  8
002
 62
     3
370
    30
100
AcDbLine
 10
1810.545295
 20
531.441031
 30
0.0
 11
1803.295425
 21
529.49868
 31
0.0
  0
LINE
  5
11C
330
115
100
AcDbEntity
  8
002
 62
     3
370
    30
100
AcDbLine
 10
1815.852354
 20
526.133635
 30
0.0
 11
1810.545295
 21
531.441031
 31
0.0
  0
LINE
  5
11D
330
115
100
AcDbEntity
  8
002
 62
     3
370
    30
100
AcDbLine
 10
1801.352615
 20
522.248934
 30
0.0
 11
1806.659675
 21
516.941538
 31
0.0
  0
CIRCLE
  5
11E
330
115
100
AcDbEntity
  8
002
 62
     3
370
    30
100
AcDbCircle
 10
1808.602485
 20
524.191285
 30
0.0
 40
6.500000000000002
  0
ENDBLK
  5
117
330
115
100
AcDbEntity
  8
0
100
AcDbBlockEnd
  0
BLOCK
  5
120
330
11F
100
AcDbEntity
  8
0
100
AcDbBlockBegin
  2
JZB-23
 70
     0
 10
0.0
 20
0.0
 30
0.0
  3
JZB-23
  1

  0
LINE
  5
122
330
11F
100
AcDbEntity
  8
002
 62
     3
370
    30
100
AcDbLine
 10
1793.133803
 20
502.406837
 30
0.0
 11
1800.639357
 21
502.406837
 31
0.0
  0
LINE
  5
123
330
11F
100
AcDbEntity
  8
002
 62
     3
370
    30
100
AcDbLine
 10
1793.133803
 20
489.406837
 30
0.0
 11
1800.639357
 21
489.406837
 31
0.0
  0
LINE
  5
124
330
11F
100
AcDbEntity
  8
002
 62
     3
370
    30
100
AcDbLine
 10
1789.381027
 20
495.906837
 30
0.0
 11
1793.133803
 21
489.406837
 31
0.0
  0
LINE
  5
125
330
11F
100
AcDbEntity
  8
002
 62
     3
370
    30
100
AcDbLine
 10
1804.392134
 20
495.906837
 30
0.0
 11
1800.639357
 21
502.406837
 31
0.0
  0
LINE
  5
126
330
11F
100
AcDbEntity
  8
002
 62
     3
370
    30
100
AcDbLine
 10
1800.639357
 20
489.406837
 30
0.0
 11
1804.392134
 21
495.906837
 31
0.0
  0
LINE
  5
127
330
11F
100
AcDbEntity
  8
002
 62
     3
370
    30
100
AcDbLine
 10
1793.133803
 20
502.406837
 30
0.0
 11
1789.381027
 21
495.906837
 31
0.0
  0
CIRCLE
  5
128
330
11F
100
AcDbEntity
  8
002
 62
     3
370
    30
100
AcDbCircle
 10
1796.88658
 20
495.906837
 30
0.0
 40
6.500000000000002
  0
ENDBLK
  5
121
330
11F
100
AcDbEntity
  8
0
100
AcDbBlockEnd
  0
BLOCK
  5
12A
330
129
100
AcDbEntity
  8
0
100
AcDbBlockBegin
  2
JZB-24
 70
     0
 10
0.0
 20
0.0
 30
0.0
  3
JZB-24
  1

  0
LINE
  5
12C
330
129
100
AcDbEntity
  8
002
 62
     3
370
    30
100
AcDbLine
 10
1801.352615
 20
469.564741
 30
0.0
 11
1806.659675
 21
474.872136
 31
0.0
  0
LINE
  5
12D
330
129
100
AcDbEntity
  8
002
 62
     3
370
    30
100
AcDbLine
 10
1810.545295
 20
460.372644
 30
0.0
 11
1815.852354
 21
465.680039
 31
0.0
  0
LINE
  5
12E
330
129
100
AcDbEntity
  8
002
 62
     3
370
    30
100
AcDbLine
 10
1803.295425
 20
462.314994
 30
0.0
 11
1810.545295
 21
460.372644
 31
0.0
  0
LINE
  5
12F
330
129
100
AcDbEntity
  8
002
 62
     3
370
    30
100
AcDbLine
 10
1813.909544
 20
472.929786
 30
0.0
 11
1806.659675
 21
474.872136
 31
0.0
  0
LINE
  5
130
330
129
100
AcDbEntity
  8
002
 62
     3
370
    30
100
AcDbLine
 10
1815.852354
 20
465.680039
 30
0.0
 11
1813.909544
 21
472.929786
 31
0.0
  0
LINE
  5
131
330
129
100
AcDbEntity
  8
002
 62
     3
370
    30
100
AcDbLine
 10
1801.352615
 20
469.564741
 30
0.0
 11
1803.295425
 21
462.314994
 31
0.0
  0
CIRCLE
  5
132
330
129
100
AcDbEntity
  8
002
 62
     3
370
    30
100
AcDbCircle
 10
1808.602485
 20
467.62239
 30
0.0
 40
6.500000000000002
  0
ENDBLK
  5
12B
330
129
100
AcDbEntity
  8
0
100
AcDbBlockEnd
  0
BLOCK
  5
134
330
133
100
AcDbEntity
  8
0
100
AcDbBlockBegin
  2
JZB-25
 70
     0
 10
0.0
 20
0.0
 30
0.0
  3
JZB-25
  1

  0
LINE
  5
136
330
133
100
AcDbEntity
  8
002
 62
     3
370
    30
100
AcDbLine
 10
1870.478226
 20
462.315486
 30
0.0
 11
1863.228445
 21
460.372807
 31
0.0
  0
LINE
  5
137
330
133
100
AcDbEntity
  8
002
 62
     3
370
    30
100
AcDbLine
 10
1867.113408
 20
474.872476
 30
0.0
 11
1859.863627
 21
472.929797
 31
0.0
  0
LINE
  5
138
330
133
100
AcDbEntity
  8
002
 62
     3
370
    30
100
AcDbLine
 10
1872.420708
 20
469.56532
 30
0.0
 11
1867.113408
 21
474.872476
 31
0.0
  0
LINE
  5
139
330
133
100
AcDbEntity
  8
002
 62
     3
370
    30
100
AcDbLine
 10
1857.921145
 20
465.679963
 30
0.0
 11
1863.228445
 21
460.372807
 31
0.0
  0
LINE
  5
13A
330
133
100
AcDbEntity
  8
002
 62
     3
370
    30
100
AcDbLine
 10
1859.863627
 20
472.929797
 30
0.0
 11
1857.921145
 21
465.679963
 31
0.0
  0
LINE
  5
13B
330
133
100
AcDbEntity
  8
002
 62
     3
370
    30
100
AcDbLine
 10
1870.478226
 20
462.315486
 30
0.0
 11
1872.420708
 21
469.56532
 31
0.0
  0
CIRCLE
  5
13C
330
133
100
AcDbEntity
  8
002
 62
     3
370
    30
100
AcDbCircle
 10
1865.170927
 20
467.622641
 30
0.0
 40
6.500000000000002
  0
ENDBLK
  5
135
330
133
100
AcDbEntity
  8
0
100
AcDbBlockEnd
  0
BLOCK
  5
13E
330
13D
100
AcDbEntity
  8
0
100
AcDbBlockBegin
  2
JZB-26
 70
     0
 10
0.0
 20
0.0
 30
0.0
  3
JZB-26
  1

  0
LINE
  5
140
330
13D
100
AcDbEntity
  8
002
 62
     3
370
    30
100
AcDbLine
 10
1830.38658
 20
532.154061
 30
0.0
 11
1830.38658
 21
539.659614
 31
0.0
  0
LINE
  5
141
330
13D
100
AcDbEntity
  8
002
 62
     3
370
    30
100
AcDbLine
 10
1843.38658
 20
532.154061
 30
0.0
 11
1843.38658
 21
539.659614
 31
0.0
  0
LINE
  5
142
330
13D
100
AcDbEntity
  8
002
 62
     3
370
    30
100
AcDbLine
 10
1836.88658
 20
528.401284
 30
0.0
 11
1843.38658
 21
532.154061
 31
0.0
  0
LINE
  5
143
330
13D
100
AcDbEntity
  8
002
 62
     3
370
    30
100
AcDbLine
 10
1836.88658
 20
543.412391
 30
0.0
 11
1830.38658
 21
539.659614
 31
0.0
  0
LINE
  5
144
330
13D
100
AcDbEntity
  8
002
 62
     3
370
    30
100
AcDbLine
 10
1843.38658
 20
539.659614
 30
0.0
 11
1836.88658
 21
543.412391
 31
0.0
  0
LINE
  5
145
330
13D
100
AcDbEntity
  8
002
 62
     3
370
    30
100
AcDbLine
 10
1830.38658
 20
532.154061
 30
0.0
 11
1836.88658
 21
528.401284
 31
0.0
  0
CIRCLE
  5
146
330
13D
100
AcDbEntity
  8
002
 62
     3
370
    30
100
AcDbCircle
 10
1836.88658
 20
535.906837
 30
0.0
 40
6.500000000000002
  0
ENDBLK
  5
13F
330
13D
100
AcDbEntity
  8
0
100
AcDbBlockEnd
  0
BLOCK
  5
148
330
147
100
AcDbEntity
  8
0
100
AcDbBlockBegin
  2
JZB-27
 70
     0
 10
0.0
 20
0.0
 30
0.0
  3
JZB-27
  1

  0
LINE
  5
14A
330
147
100
AcDbEntity
  8
002
 62
     3
370
    30
100
AcDbLine
 10
1843.38658
 20
452.154061
 30
0.0
 11
1836.88658
 21
448.401284
 31
0.0
  0
LINE
  5
14B
330
147
100
AcDbEntity
  8
002
 62
     3
370
    30
100
AcDbLine
 10
1836.88658
 20
463.412391
 30
0.0
 11
1830.38658
 21
459.659614
 31
0.0
  0
LINE
  5
14C
330
147
100
AcDbEntity
  8
002
 62
     3
370
    30
100
AcDbLine
 10
1843.38658
 20
459.659614
 30
0.0
 11
1836.88658
 21
463.412391
 31
0.0
  0
LINE
  5
14D
330
147
100
AcDbEntity
  8
002
 62
     3
370
    30
100
AcDbLine
 10
1830.38658
 20
452.154061
 30
0.0
 11
1836.88658
 21
448.401284
 31
0.0
  0
LINE
  5
14E
330
147
100
AcDbEntity
  8
002
 62
     3
370
    30
100
AcDbLine
 10
1830.38658
 20
459.659614
 30
0.0
 11
1830.38658
 21
452.154061
 31
0.0
  0
LINE
  5
14F
330
147
100
AcDbEntity
  8
002
 62
     3
370
    30
100
AcDbLine
 10
1843.38658
 20
452.154061
 30
0.0
 11
1843.38658
 21
459.659614
 31
0.0
  0
CIRCLE
  5
150
330
147
100
AcDbEntity
  8
002
 62
     3
370
    30
100
AcDbCircle
 10
1836.88658
 20
455.906837
 30
0.0
 40
6.500000000000002
  0
ENDBLK
  5
149
330
147
100
AcDbEntity
  8
0
100
AcDbBlockEnd
  0
BLOCK
  5
152
330
151
100
AcDbEntity
  8
0
100
AcDbBlockBegin
  2
JZB-28
 70
     0
 10
0.0
 20
0.0
 30
0.0
  3
JZB-28
  1

  0
LINE
  5
154
330
151
100
AcDbEntity
  8
002
 62
     3
370
    30
100
AcDbLine
 10
1870.478226
 20
529.498189
 30
0.0
 11
1872.420708
 21
522.248355
 31
0.0
  0
LINE
  5
155
330
151
100
AcDbEntity
  8
002
 62
     3
370
    30
100
AcDbLine
 10
1857.921145
 20
526.133712
 30
0.0
 11
1859.863627
 21
518.883877
 31
0.0
  0
LINE
  5
156
330
151
100
AcDbEntity
  8
002
 62
     3
370
    30
100
AcDbLine
 10
1863.228445
 20
531.440867
 30
0.0
 11
1857.921145
 21
526.133712
 31
0.0
  0
LINE
  5
157
330
151
100
AcDbEntity
  8
002
 62
     3
370
    30
100
AcDbLine
 10
1867.113408
 20
516.941199
 30
0.0
 11
1872.420708
 21
522.248355
 31
0.0
  0
LINE
  5
158
330
151
100
AcDbEntity
  8
002
 62
     3
370
    30
100
AcDbLine
 10
1859.863627
 20
518.883877
 30
0.0
 11
1867.113408
 21
516.941199
 31
0.0
  0
LINE
  5
159
330
151
100
AcDbEntity
  8
002
 62
     3
370
    30
100
AcDbLine
 10
1870.478226
 20
529.498189
 30
0.0
 11
1863.228445
 21
531.440867
 31
0.0
  0
CIRCLE
  5
15A
330
151
100
AcDbEntity
  8
002
 62
     3
370
    30
100
AcDbCircle
 10
1865.170927
 20
524.191033
 30
0.0
 40
6.500000000000002
  0
ENDBLK
  5
153
330
151
100
AcDbEntity
  8
0
100
AcDbBlockEnd
  0
BLOCK
  5
15C
330
15B
100
AcDbEntity
  8
0
100
AcDbBlockBegin
  2
JZB-29
 70
     0
 10
0.0
 20
0.0
 30
0.0
  3
JZB-29
  1

  0
LINE
  5
15E
330
15B
100
AcDbEntity
  8
003
 62
     3
370
    30
100
AcDbLine
 10
520.816012
 20
1760.122838
 30
0.0
 11
520.816012
 21
1755.315669
 31
0.0
  0
LINE
  5
15F
330
15B
100
AcDbEntity
  8
003
 62
     3
370
    30
100
AcDbLine
 10
519.616012
 20
1760.815658
 30
0.0
 11
507.016012
 21
1760.815658
 31
0.0
  0
LINE
  5
160
330
15B
100
AcDbEntity
  8
003
 62
     3
370
    30
100
AcDbLine
 10
519.616012
 20
1760.815658
 30
0.0
 11
520.816012
 21
1760.122838
 31
0.0
  0
LINE
  5
161
330
15B
100
AcDbEntity
  8
003
 62
     3
370
    30
100
AcDbLine
 10
507.016012
 20
1760.815658
 30
0.0
 11
505.816012
 21
1760.122838
 31
0.0
  0
ARC
  5
162
330
15B
100
AcDbEntity
  8
003
 62
     3
370
    30
100
AcDbCircle
 10
507.691012
 20
1757.932064
 30
0.0
 40
2.883593961663502
100
AcDbArc
 50
49.441037
 51
90.0
  0
ARC
  5
163
330
15B
100
AcDbEntity
  8
003
 62
     3
370
    30
100
AcDbCircle
 10
518.941012
 20
1757.932064
 30
0.0
 40
2.883593961663502
100
AcDbArc
 50
90.0
 51
130.558963
  0
ARC
  5
164
330
15B
100
AcDbEntity
  8
003
 62
     3
370
    30
100
AcDbCircle
 10
513.316012
 20
1750.320513
 30
0.0
 40
10.4951453621126
100
AcDbArc
 50
69.065034
 51
110.934966
  0
LINE
  5
165
330
15B
100
AcDbEntity
  8
003
 62
     3
370
    30
100
AcDbLine
 10
513.316007
 20
1755.315658
 30
0.0
 11
513.316007
 21
1755.315669
 31
0.0
  0
LINE
  5
166
330
15B
100
AcDbEntity
  8
003
 62
     3
370
    30
100
AcDbLine
 10
513.316007
 20
1755.315658
 30
0.0
 11
513.316018
 21
1755.315658
 31
0.0
  0
LINE
  5
167
330
15B
100
AcDbEntity
  8
003
 62
     3
370
    30
100
AcDbLine
 10
513.316018
 20
1755.315658
 30
0.0
 11
513.316018
 21
1755.315669
 31
0.0
  0
LINE
  5
168
330
15B
100
AcDbEntity
  8
003
 62
     3
370
    30
100
AcDbLine
 10
505.816012
 20
1760.122838
 30
0.0
 11
505.816012
 21
1759.172187
 31
0.0
  0
LINE
  5
169
330
15B
100
AcDbEntity
  8
003
 62
     3
370
    30
100
AcDbLine
 10
509.566012
 20
1758.1593
 30
0.0
 11
509.566012
 21
1760.122838
 31
0.0
  0
LINE
  5
16A
330
15B
100
AcDbEntity
  8
003
 62
     3
370
    30
100
AcDbLine
 10
517.066012
 20
1755.67439
 30
0.0
 11
517.066012
 21
1760.122838
 31
0.0
  0
LINE
  5
16B
330
15B
100
AcDbEntity
  8
003
 62
     3
370
    30
100
AcDbLine
 10
520.816012
 20
1755.315669
 30
0.0
 11
518.012172
 21
1755.315669
 31
0.0
  0
ENDBLK
  5
15D
330
15B
100
AcDbEntity
  8
0
100
AcDbBlockEnd
  0
BLOCK
  5
16D
330
16C
100
AcDbEntity
  8
0
100
AcDbBlockBegin
  2
JZB-30
 70
     0
 10
0.0
 20
0.0
 30
0.0
  3
JZB-30
  1

  0
LINE
  5
16F
330
16C
100
AcDbEntity
  8
003
 62
     3
370
    30
100
AcDbLine
 10
520.816012
 20
1554.508501
 30
0.0
 11
520.816012
 21
1559.315669
 31
0.0
  0
LINE
  5
170
330
16C
100
AcDbEntity
  8
003
 62
     3
370
    30
100
AcDbLine
 10
519.616012
 20
1553.81568
 30
0.0
 11
507.016012
 21
1553.81568
 31
0.0
  0
LINE
  5
171
330
16C
100
AcDbEntity
  8
003
 62
     3
370
    30
100
AcDbLine
 10
519.616012
 20
1553.81568
 30
0.0
 11
520.816012
 21
1554.508501
 31
0.0
  0
LINE
  5
172
330
16C
100
AcDbEntity
  8
003
 62
     3
370
    30
100
AcDbLine
 10
507.016012
 20
1553.81568
 30
0.0
 11
505.816012
 21
1554.508501
 31
0.0
  0
ARC
  5
173
330
16C
100
AcDbEntity
  8
003
 62
     3
370
    30
100
AcDbCircle
 10
507.691012
 20
1556.699274
 30
0.0
 40
2.883593961663502
100
AcDbArc
 50
270.0
 51
310.558963
  0
ARC
  5
174
330
16C
100
AcDbEntity
  8
003
 62
     3
370
    30
100
AcDbCircle
 10
518.941012
 20
1556.699274
 30
0.0
 40
2.883593961663502
100
AcDbArc
 50
229.441037
 51
270.0
  0
ARC
  5
175
330
16C
100
AcDbEntity
  8
003
 62
     3
370
    30
100
AcDbCircle
 10
513.316012
 20
1564.310826
 30
0.0
 40
10.4951453621126
100
AcDbArc
 50
249.065034
 51
290.934966
  0
LINE
  5
176
330
16C
100
AcDbEntity
  8
003
 62
     3
370
    30
100
AcDbLine
 10
505.816012
 20
1554.508501
 30
0.0
 11
505.816012
 21
1555.459151
 31
0.0
  0
LINE
  5
177
330
16C
100
AcDbEntity
  8
003
 62
     3
370
    30
100
AcDbLine
 10
509.566012
 20
1556.472039
 30
0.0
 11
509.566012
 21
1554.508501
 31
0.0
  0
LINE
  5
178
330
16C
100
AcDbEntity
  8
003
 62
     3
370
    30
100
AcDbLine
 10
517.066012
 20
1558.956949
 30
0.0
 11
517.066012
 21
1554.508501
 31
0.0
  0
LINE
  5
179
330
16C
100
AcDbEntity
  8
003
 62
     3
370
    30
100
AcDbLine
 10
520.816012
 20
1559.315669
 30
0.0
 11
518.012172
 21
1559.315669
 31
0.0
  0
ENDBLK
  5
16E
330
16C
100
AcDbEntity
  8
0
100
AcDbBlockEnd
  0
ENDSEC
  0
SECTION
  2
ENTITIES
  0
INSERT
  5
17A
330
1F
100
AcDbEntity
  8
002
  6
ByBlock
 62
     0
370
    -2
100
AcDbBlockReference
  2
JZB-1
 10
0.0
 20
0.0
 30
0.0
  0
INSERT
  5
17B
330
1F
100
AcDbEntity
  8
002
  6
ByBlock
 62
     0
370
    -2
100
AcDbBlockReference
  2
JZB-2
 10
0.0
 20
0.0
 30
0.0
  0
INSERT
  5
17C
330
1F
100
AcDbEntity
  8
002
  6
ByBlock
 62
     0
370
    -2
100
AcDbBlockReference
  2
JZB-3
 10
0.0
 20
0.0
 30
0.0
  0
INSERT
  5
17D
330
1F
100
AcDbEntity
  8
002
  6
ByBlock
 62
     0
370
    -2
100
AcDbBlockReference
  2
JZB-4
 10
0.0
 20
0.0
 30
0.0
  0
INSERT
  5
17E
330
1F
100
AcDbEntity
  8
002
  6
ByBlock
 62
     0
370
    -2
100
AcDbBlockReference
  2
JZB-5
 10
0.0
 20
0.0
 30
0.0
  0
INSERT
  5
17F
330
1F
100
AcDbEntity
  8
002
  6
ByBlock
 62
     0
370
    -2
100
AcDbBlockReference
  2
JZB-6
 10
0.0
 20
0.0
 30
0.0
  0
INSERT
  5
180
330
1F
100
AcDbEntity
  8
002
  6
ByBlock
 62
     0
370
    -2
100
AcDbBlockReference
  2
JZB-7
 10
0.0
 20
0.0
 30
0.0
  0
INSERT
  5
181
330
1F
100
AcDbEntity
  8
002
  6
ByBlock
 62
     0
370
    -2
100
AcDbBlockReference
  2
JZB-8
 10
0.0
 20
0.0
 30
0.0
  0
INSERT
  5
182
330
1F
100
AcDbEntity
  8
002
  6
ByBlock
 62
     0
370
    -2
100
AcDbBlockReference
  2
JZB-9
 10
0.0
 20
0.0
 30
0.0
  0
INSERT
  5
183
330
1F
100
AcDbEntity
  8
002
  6
ByBlock
 62
     0
370
    -2
100
AcDbBlockReference
  2
JZB-10
 10
0.0
 20
0.0
 30
0.0
  0
INSERT
  5
184
330
1F
100
AcDbEntity
  8
002
  6
ByBlock
 62
     0
370
    -2
100
AcDbBlockReference
  2
JZB-11
 10
0.0
 20
0.0
 30
0.0
  0
INSERT
  5
185
330
1F
100
AcDbEntity
  8
002
  6
ByBlock
 62
     0
370
    -2
100
AcDbBlockReference
  2
JZB-12
 10
0.0
 20
0.0
 30
0.0
  0
INSERT
  5
186
330
1F
100
AcDbEntity
  8
002
  6
ByBlock
 62
     0
370
    -2
100
AcDbBlockReference
  2
JZB-13
 10
0.0
 20
0.0
 30
0.0
  0
INSERT
  5
187
330
1F
100
AcDbEntity
  8
002
  6
ByBlock
 62
     0
370
    -2
100
AcDbBlockReference
  2
JZB-14
 10
0.0
 20
0.0
 30
0.0
  0
INSERT
  5
188
330
1F
100
AcDbEntity
  8
002
  6
ByBlock
 62
     0
370
    -2
100
AcDbBlockReference
  2
JZB-15
 10
0.0
 20
0.0
 30
0.0
  0
INSERT
  5
189
330
1F
100
AcDbEntity
  8
002
  6
ByBlock
 62
     0
370
    -2
100
AcDbBlockReference
  2
JZB-16
 10
0.0
 20
0.0
 30
0.0
  0
INSERT
  5
18A
330
1F
100
AcDbEntity
  8
002
  6
ByBlock
 62
     0
370
    -2
100
AcDbBlockReference
  2
JZB-17
 10
0.0
 20
0.0
 30
0.0
  0
INSERT
  5
18B
330
1F
100
AcDbEntity
  8
002
  6
ByBlock
 62
     0
370
    -2
100
AcDbBlockReference
  2
JZB-18
 10
0.0
 20
0.0
 30
0.0
  0
INSERT
  5
18C
330
1F
100
AcDbEntity
  8
002
  6
ByBlock
 62
     0
370
    -2
100
AcDbBlockReference
  2
JZB-19
 10
0.0
 20
0.0
 30
0.0
  0
INSERT
  5
18D
330
1F
100
AcDbEntity
  8
002
  6
ByBlock
 62
     0
370
    -2
100
AcDbBlockReference
  2
JZB-20
 10
0.0
 20
0.0
 30
0.0
  0
INSERT
  5
18E
330
1F
100
AcDbEntity
  8
002
  6
ByBlock
 62
     0
370
    -2
100
AcDbBlockReference
  2
JZB-21
 10
0.0
 20
0.0
 30
0.0
  0
INSERT
  5
18F
330
1F
100
AcDbEntity
  8
002
  6
ByBlock
 62
     0
370
    -2
100
AcDbBlockReference
  2
JZB-22
 10
0.0
 20
0.0
 30
0.0
  0
INSERT
  5
190
330
1F
100
AcDbEntity
  8
002
  6
ByBlock
 62
     0
370
    -2
100
AcDbBlockReference
  2
JZB-23
 10
0.0
 20
0.0
 30
0.0
  0
INSERT
  5
191
330
1F
100
AcDbEntity
  8
002
  6
ByBlock
 62
     0
370
    -2
100
AcDbBlockReference
  2
JZB-24
 10
0.0
 20
0.0
 30
0.0
  0
INSERT
  5
192
330
1F
100
AcDbEntity
  8
002
  6
ByBlock
 62
     0
370
    -2
100
AcDbBlockReference
  2
JZB-25
 10
0.0
 20
0.0
 30
0.0
  0
INSERT
  5
193
330
1F
100
AcDbEntity
  8
002
  6
ByBlock
 62
     0
370
    -2
100
AcDbBlockReference
  2
JZB-26
 10
0.0
 20
0.0
 30
0.0
  0
INSERT
  5
194
330
1F
100
AcDbEntity
  8
002
  6
ByBlock
 62
     0
370
    -2
100
AcDbBlockReference
  2
JZB-27
 10
0.0
 20
0.0
 30
0.0
  0
INSERT
  5
195
330
1F
100
AcDbEntity
  8
002
  6
ByBlock
 62
     0
370
    -2
100
AcDbBlockReference
  2
JZB-28
 10
0.0
 20
0.0
 30
0.0
  0
INSERT
  5
196
330
1F
100
AcDbEntity
  8
003
  6
ByBlock
 62
     0
370
    -2
100
AcDbBlockReference
  2
JZB-29
 10
0.0
 20
0.0
 30
0.0
  0
INSERT
  5
197
330
1F
100
AcDbEntity
  8
003
  6
ByBlock
 62
     0
370
    -2
100
AcDbBlockReference
  2
JZB-30
 10
0.0
 20
0.0
 30
0.0
  0
LINE
  5
198
330
1F
100
AcDbEntity
  8
002
 62
     3
370
    30
100
AcDbLine
 10
549.816018
 20
1807.315669
 30
0.0
 11
549.816018
 21
1769.315669
 31
0.0
  0
ARC
  5
199
330
1F
100
AcDbEntity
  8
002
 62
     3
370
    30
100
AcDbCircle
 10
553.316018
 20
1769.315669
 30
0.0
 40
3.5
100
AcDbArc
 50
180.0
 51
0.0
  0
LINE
  5
19A
330
1F
100
AcDbEntity
  8
002
 62
     3
370
    30
100
AcDbLine
 10
556.816018
 20
1769.315669
 30
0.0
 11
556.816018
 21
1807.315669
 31
0.0
  0
LINE
  5
19B
330
1F
100
AcDbEntity
  8
002
 62
     3
370
    30
100
AcDbLine
 10
567.316018
 20
1764.315669
 30
0.0
 11
539.316018
 21
1764.315669
 31
0.0
  0
LINE
  5
19C
330
1F
100
AcDbEntity
  8
002
 62
     3
370
    30
100
AcDbLine
 10
549.816018
 20
1772.315669
 30
0.0
 11
556.816018
 21
1772.315669
 31
0.0
  0
LINE
  5
19D
330
1F
100
AcDbEntity
  8
002
 62
     3
370
    30
100
AcDbLine
 10
567.316018
 20
1764.315669
 30
0.0
 11
567.316018
 21
1758.315669
 31
0.0
  0
LINE
  5
19E
330
1F
100
AcDbEntity
  8
002
 62
     3
370
    30
100
AcDbLine
 10
567.316018
 20
1762.315669
 30
0.0
 11
626.316018
 21
1762.315669
 31
0.0
  0
CIRCLE
  5
19F
330
1F
100
AcDbEntity
  8
002
 62
     3
370
    30
100
AcDbCircle
 10
625.316018
 20
1733.315669
 30
0.0
 40
25.0
  0
CIRCLE
  5
1A0
330
1F
100
AcDbEntity
  8
002
 62
     3
370
    30
100
AcDbCircle
 10
625.316018
 20
1733.315669
 30
0.0
 40
13.0
  0
LINE
  5
1A1
330
1F
100
AcDbEntity
  8
002
 62
     3
370
    30
100
AcDbLine
 10
594.316018
 20
1748.315669
 30
0.0
 11
594.316018
 21
1733.315669
 31
0.0
  0
ARC
  5
1A2
330
1F
100
AcDbEntity
  8
002
 62
     3
370
    30
100
AcDbCircle
 10
625.316018
 20
1733.315669
 30
0.0
 40
30.99972711170207
100
AcDbArc
 50
180.0
 51
211.289292
  0
LINE
  5
1A3
330
1F
100
AcDbEntity
  8
002
 62
     3
370
    30
100
AcDbLine
 10
602.316018
 20
1704.750669
 30
0.0
 11
602.316018
 21
1684.315669
 31
0.0
  0
ARC
  5
1A4
330
1F
100
AcDbEntity
  8
002
 62
     3
370
    30
100
AcDbCircle
 10
600.316018
 20
1684.315669
 30
0.0
 40
2.0
100
AcDbArc
 50
307.890063
 51
0.0
  0
LINE
  5
1A5
330
1F
100
AcDbEntity
  8
002
 62
     3
370
    30
100
AcDbLine
 10
601.888018
 20
1682.315669
 30
0.0
 11
633.293018
 21
1682.315669
 31
0.0
  0
LINE
  5
1A6
330
1F
100
AcDbEntity
  8
002
 62
     3
370
    30
100
AcDbLine
 10
633.293018
 20
1682.315669
 30
0.0
 11
633.293018
 21
1632.315669
 31
0.0
  0
LINE
  5
1A7
330
1F
100
AcDbEntity
  8
002
 62
     3
370
    30
100
AcDbLine
 10
633.293018
 20
1632.315669
 30
0.0
 11
601.888018
 21
1632.315669
 31
0.0
  0
LINE
  5
1A8
330
1F
100
AcDbEntity
  8
002
 62
     3
370
    30
100
AcDbLine
 10
602.070018
 20
1634.315669
 30
0.0
 11
602.070018
 21
1680.315669
 31
0.0
  0
ARC
  5
1A9
330
1F
100
AcDbEntity
  8
002
 62
     3
370
    30
100
AcDbCircle
 10
601.888018
 20
1680.315669
 30
0.0
 40
2.0
100
AcDbArc
 50
90.0
 51
180.0
  0
LINE
  5
1AA
330
1F
100
AcDbEntity
  8
002
 62
     3
370
    30
100
AcDbLine
 10
599.888018
 20
1680.315669
 30
0.0
 11
599.888018
 21
1634.315669
 31
0.0
  0
ARC
  5
1AB
330
1F
100
AcDbEntity
  8
002
 62
     3
370
    30
100
AcDbCircle
 10
601.888018
 20
1634.315669
 30
0.0
 40
2.0
100
AcDbArc
 50
180.0
 51
270.0
  0
ARC
  5
1AC
330
1F
100
AcDbEntity
  8
002
 62
     3
370
    30
100
AcDbCircle
 10
604.070018
 20
1634.315669
 30
0.0
 40
2.0
100
AcDbArc
 50
180.0
 51
270.0
  0
LINE
  5
1AD
330
1F
100
AcDbEntity
  8
002
 62
     3
370
    30
100
AcDbLine
 10
602.316018
 20
1630.315669
 30
0.0
 11
602.316018
 21
1609.881669
 31
0.0
  0
ARC
  5
1AE
330
1F
100
AcDbEntity
  8
002
 62
     3
370
    30
100
AcDbCircle
 10
578.316018
 20
1609.881669
 30
0.0
 40
24.0
100
AcDbArc
 50
328.709521
 51
0.0
  0
ARC
  5
1AF
330
1F
100
AcDbEntity
  8
002
 62
     3
370
    30
100
AcDbCircle
 10
625.316018
 20
1581.315669
 30
0.0
 40
31.0
100
AcDbArc
 50
148.709129
 51
180.0
  0
LINE
  5
1B0
330
1F
100
AcDbEntity
  8
002
 62
     3
370
    30
100
AcDbLine
 10
594.316018
 20
1581.315669
 30
0.0
 11
594.316018
 21
1566.315669
 31
0.0
  0
LINE
  5
1B1
330
1F
100
AcDbEntity
  8
002
 62
     3
370
    30
100
AcDbLine
 10
594.316018
 20
1566.315669
 30
0.0
 11
532.699018
 21
1566.315669
 31
0.0
  0
LINE
  5
1B2
330
1F
100
AcDbEntity
  8
002
 62
     3
370
    30
100
AcDbLine
 10
524.316018
 20
1559.315669
 30
0.0
 11
524.316018
 21
1556.315669
 31
0.0
  0
LINE
  5
1B3
330
1F
100
AcDbEntity
  8
002
 62
     3
370
    30
100
AcDbLine
 10
524.316018
 20
1556.315669
 30
0.0
 11
582.316018
 21
1556.315669
 31
0.0
  0
LINE
  5
1B4
330
1F
100
AcDbEntity
  8
002
 62
     3
370
    30
100
AcDbLine
 10
582.316018
 20
1556.315669
 30
0.0
 11
582.316018
 21
1559.315669
 31
0.0
  0
LINE
  5
1B5
330
1F
100
AcDbEntity
  8
002
 62
     3
370
    30
100
AcDbLine
 10
593.313018
 20
1559.315669
 30
0.0
 11
518.012018
 21
1559.315669
 31
0.0
  0
LINE
  5
1B6
330
1F
100
AcDbEntity
  8
002
 62
     3
370
    30
100
AcDbLine
 10
509.186018
 20
1568.888669
 30
0.0
 11
507.692018
 21
1574.465669
 31
0.0
  0
LINE
  5
1B7
330
1F
100
AcDbEntity
  8
002
 62
     3
370
    30
100
AcDbLine
 10
507.692018
 20
1574.465669
 30
0.0
 11
502.115018
 21
1575.959669
 31
0.0
  0
LINE
  5
1B8
330
1F
100
AcDbEntity
  8
002
 62
     3
370
    30
100
AcDbLine
 10
502.115018
 20
1575.959669
 30
0.0
 11
498.033018
 21
1571.876669
 31
0.0
  0
LINE
  5
1B9
330
1F
100
AcDbEntity
  8
002
 62
     3
370
    30
100
AcDbLine
 10
498.033018
 20
1571.876669
 30
0.0
 11
499.527018
 21
1566.300669
 31
0.0
  0
LINE
  5
1BA
330
1F
100
AcDbEntity
  8
002
 62
     3
370
    30
100
AcDbLine
 10
499.527018
 20
1566.300669
 30
0.0
 11
505.104018
 21
1564.805669
 31
0.0
  0
LINE
  5
1BB
330
1F
100
AcDbEntity
  8
002
 62
     3
370
    30
100
AcDbLine
 10
505.104018
 20
1564.805669
 30
0.0
 11
509.186018
 21
1568.888669
 31
0.0
  0
CIRCLE
  5
1BC
330
1F
100
AcDbEntity
  8
002
 62
     3
370
    30
100
AcDbCircle
 10
503.609018
 20
1570.382669
 30
0.0
 40
9.0
  0
LINE
  5
1BD
330
1F
100
AcDbEntity
  8
002
 62
     3
370
    30
100
AcDbLine
 10
538.378018
 20
1592.182669
 30
0.0
 11
542.461018
 21
1588.099669
 31
0.0
  0
LINE
  5
1BE
330
1F
100
AcDbEntity
  8
002
 62
     3
370
    30
100
AcDbLine
 10
542.461018
 20
1588.099669
 30
0.0
 11
548.038018
 21
1589.593669
 31
0.0
  0
LINE
  5
1BF
330
1F
100
AcDbEntity
  8
002
 62
     3
370
    30
100
AcDbLine
 10
548.038018
 20
1589.593669
 30
0.0
 11
549.532018
 21
1595.170669
 31
0.0
  0
LINE
  5
1C0
330
1F
100
AcDbEntity
  8
002
 62
     3
370
    30
100
AcDbLine
 10
549.532018
 20
1595.170669
 30
0.0
 11
545.449018
 21
1599.253669
 31
0.0
  0
LINE
  5
1C1
330
1F
100
AcDbEntity
  8
002
 62
     3
370
    30
100
AcDbLine
 10
545.449018
 20
1599.253669
 30
0.0
 11
539.873018
 21
1597.758669
 31
0.0
  0
LINE
  5
1C2
330
1F
100
AcDbEntity
  8
002
 62
     3
370
    30
100
AcDbLine
 10
539.873018
 20
1597.758669
 30
0.0
 11
538.378018
 21
1592.182669
 31
0.0
  0
CIRCLE
  5
1C3
330
1F
100
AcDbEntity
  8
002
 62
     3
370
    30
100
AcDbCircle
 10
543.955018
 20
1593.676669
 30
0.0
 40
9.0
  0
LINE
  5
1C4
330
1F
100
AcDbEntity
  8
002
 62
     3
370
    30
100
AcDbLine
 10
561.672018
 20
1635.516669
 30
0.0
 11
565.755018
 21
1639.598669
 31
0.0
  0
LINE
  5
1C5
330
1F
100
AcDbEntity
  8
002
 62
     3
370
    30
100
AcDbLine
 10
565.755018
 20
1639.598669
 30
0.0
 11
571.331018
 21
1638.104669
 31
0.0
  0
LINE
  5
1C6
330
1F
100
AcDbEntity
  8
002
 62
     3
370
    30
100
AcDbLine
 10
571.331018
 20
1638.104669
 30
0.0
 11
572.826018
 21
1632.527669
 31
0.0
  0
LINE
  5
1C7
330
1F
100
AcDbEntity
  8
002
 62
     3
370
    30
100
AcDbLine
 10
572.826018
 20
1632.527669
 30
0.0
 11
568.743018
 21
1628.445669
 31
0.0
  0
LINE
  5
1C8
330
1F
100
AcDbEntity
  8
002
 62
     3
370
    30
100
AcDbLine
 10
568.743018
 20
1628.445669
 30
0.0
 11
563.166018
 21
1629.939669
 31
0.0
  0
LINE
  5
1C9
330
1F
100
AcDbEntity
  8
002
 62
     3
370
    30
100
AcDbLine
 10
563.166018
 20
1629.939669
 30
0.0
 11
561.672018
 21
1635.516669
 31
0.0
  0
CIRCLE
  5
1CA
330
1F
100
AcDbEntity
  8
002
 62
     3
370
    30
100
AcDbCircle
 10
567.249018
 20
1634.022669
 30
0.0
 40
9.0
  0
LINE
  5
1CB
330
1F
100
AcDbEntity
  8
002
 62
     3
370
    30
100
AcDbLine
 10
565.755018
 20
1675.032669
 30
0.0
 11
571.331018
 21
1676.527669
 31
0.0
  0
LINE
  5
1CC
330
1F
100
AcDbEntity
  8
002
 62
     3
370
    30
100
AcDbLine
 10
571.331018
 20
1676.527669
 30
0.0
 11
572.826018
 21
1682.103669
 31
0.0
  0
LINE
  5
1CD
330
1F
100
AcDbEntity
  8
002
 62
     3
370
    30
100
AcDbLine
 10
572.826018
 20
1682.103669
 30
0.0
 11
568.743018
 21
1686.186669
 31
0.0
  0
LINE
  5
1CE
330
1F
100
AcDbEntity
  8
002
 62
     3
370
    30
100
AcDbLine
 10
568.743018
 20
1686.186669
 30
0.0
 11
563.166018
 21
1684.692669
 31
0.0
  0
LINE
  5
1CF
330
1F
100
AcDbEntity
  8
002
 62
     3
370
    30
100
AcDbLine
 10
563.166018
 20
1684.692669
 30
0.0
 11
561.672018
 21
1679.115669
 31
0.0
  0
LINE
  5
1D0
330
1F
100
AcDbEntity
  8
002
 62
     3
370
    30
100
AcDbLine
 10
561.672018
 20
1679.115669
 30
0.0
 11
565.755018
 21
1675.032669
 31
0.0
  0
CIRCLE
  5
1D1
330
1F
100
AcDbEntity
  8
002
 62
     3
370
    30
100
AcDbCircle
 10
567.249018
 20
1680.609669
 30
0.0
 40
9.0
  0
LINE
  5
1D2
330
1F
100
AcDbEntity
  8
002
 62
     3
370
    30
100
AcDbLine
 10
545.449018
 20
1715.378669
 30
0.0
 11
549.532018
 21
1719.461669
 31
0.0
  0
LINE
  5
1D3
330
1F
100
AcDbEntity
  8
002
 62
     3
370
    30
100
AcDbLine
 10
549.532018
 20
1719.461669
 30
0.0
 11
548.038018
 21
1725.038669
 31
0.0
  0
LINE
  5
1D4
330
1F
100
AcDbEntity
  8
002
 62
     3
370
    30
100
AcDbLine
 10
548.038018
 20
1725.038669
 30
0.0
 11
542.461018
 21
1726.532669
 31
0.0
  0
LINE
  5
1D5
330
1F
100
AcDbEntity
  8
002
 62
     3
370
    30
100
AcDbLine
 10
542.461018
 20
1726.532669
 30
0.0
 11
538.378018
 21
1722.449669
 31
0.0
  0
LINE
  5
1D6
330
1F
100
AcDbEntity
  8
002
 62
     3
370
    30
100
AcDbLine
 10
538.378018
 20
1722.449669
 30
0.0
 11
539.873018
 21
1716.873669
 31
0.0
  0
LINE
  5
1D7
330
1F
100
AcDbEntity
  8
002
 62
     3
370
    30
100
AcDbLine
 10
539.873018
 20
1716.873669
 30
0.0
 11
545.449018
 21
1715.378669
 31
0.0
  0
CIRCLE
  5
1D8
330
1F
100
AcDbEntity
  8
002
 62
     3
370
    30
100
AcDbCircle
 10
543.955018
 20
1720.955669
 30
0.0
 40
9.0
  0
LINE
  5
1D9
330
1F
100
AcDbEntity
  8
002
 62
     3
370
    30
100
AcDbLine
 10
532.699018
 20
1748.315669
 30
0.0
 11
594.316018
 21
1748.315669
 31
0.0
  0
LINE
  5
1DA
330
1F
100
AcDbEntity
  8
002
 62
     3
370
    30
100
AcDbLine
 10
593.313018
 20
1748.315669
 30
0.0
 11
593.313018
 21
1755.315669
 31
0.0
  0
LINE
  5
1DB
330
1F
100
AcDbEntity
  8
002
 62
     3
370
    30
100
AcDbLine
 10
593.313018
 20
1755.315669
 30
0.0
 11
518.012018
 21
1755.315669
 31
0.0
  0
LINE
  5
1DC
330
1F
100
AcDbEntity
  8
002
 62
     3
370
    30
100
AcDbLine
 10
524.316018
 20
1755.315669
 30
0.0
 11
524.316018
 21
1758.315669
 31
0.0
  0
LINE
  5
1DD
330
1F
100
AcDbEntity
  8
002
 62
     3
370
    30
100
AcDbLine
 10
524.316018
 20
1758.315669
 30
0.0
 11
582.316018
 21
1758.315669
 31
0.0
  0
LINE
  5
1DE
330
1F
100
AcDbEntity
  8
002
 62
     3
370
    30
100
AcDbLine
 10
582.316018
 20
1758.315669
 30
0.0
 11
582.316018
 21
1755.315669
 31
0.0
  0
LINE
  5
1DF
330
1F
100
AcDbEntity
  8
002
 62
     3
370
    30
100
AcDbLine
 10
539.316018
 20
1764.315669
 30
0.0
 11
539.316018
 21
1758.315669
 31
0.0
  0
ARC
  5
1E0
330
1F
100
AcDbEntity
  8
002
 62
     3
370
    30
100
AcDbCircle
 10
402.316018
 20
1733.315669
 30
0.0
 40
29.0
100
AcDbArc
 50
90.0
 51
180.0
  0
LINE
  5
1E1
330
1F
100
AcDbEntity
  8
002
 62
     3
370
    30
100
AcDbLine
 10
373.316018
 20
1733.315669
 30
0.0
 11
373.316018
 21
1581.315669
 31
0.0
  0
ARC
  5
1E2
330
1F
100
AcDbEntity
  8
002
 62
     3
370
    30
100
AcDbCircle
 10
402.316018
 20
1581.315669
 30
0.0
 40
29.0
100
AcDbArc
 50
180.0
 51
270.0
  0
LINE
  5
1E3
330
1F
100
AcDbEntity
  8
002
 62
     3
370
    30
100
AcDbLine
 10
539.316018
 20
1550.315669
 30
0.0
 11
539.316018
 21
1556.315669
 31
0.0
  0
LINE
  5
1E4
330
1F
100
AcDbEntity
  8
002
 62
     3
370
    30
100
AcDbLine
 10
539.316018
 20
1550.315669
 30
0.0
 11
567.316018
 21
1550.315669
 31
0.0
  0
LINE
  5
1E5
330
1F
100
AcDbEntity
  8
002
 62
     3
370
    30
100
AcDbLine
 10
567.316018
 20
1550.315669
 30
0.0
 11
567.316018
 21
1556.315669
 31
0.0
  0
LINE
  5
1E6
330
1F
100
AcDbEntity
  8
002
 62
     3
370
    30
100
AcDbLine
 10
567.316018
 20
1552.315669
 30
0.0
 11
626.316018
 21
1552.315669
 31
0.0
  0
ARC
  5
1E7
330
1F
100
AcDbEntity
  8
002
 62
     3
370
    30
100
AcDbCircle
 10
626.316018
 20
1581.315669
 30
0.0
 40
29.0
100
AcDbArc
 50
270.0
 51
0.0
  0
LINE
  5
1E8
330
1F
100
AcDbEntity
  8
002
 62
     3
370
    30
100
AcDbLine
 10
655.316018
 20
1581.315669
 30
0.0
 11
655.316018
 21
1733.315669
 31
0.0
  0
ARC
  5
1E9
330
1F
100
AcDbEntity
  8
002
 62
     3
370
    30
100
AcDbCircle
 10
626.316018
 20
1733.315669
 30
0.0
 40
29.0
100
AcDbArc
 50
0.0
 51
90.0
  0
ARC
  5
1EA
330
1F
100
AcDbEntity
  8
002
 62
     3
370
    30
100
AcDbCircle
 10
578.316018
 20
1704.750669
 30
0.0
 40
23.99990220813419
100
AcDbArc
 50
0.0
 51
31.290479
  0
ARC
  5
1EB
330
1F
100
AcDbEntity
  8
002
 62
     3
370
    30
100
AcDbCircle
 10
607.316018
 20
1694.452669
 30
0.0
 40
4.999626586056174
100
AcDbArc
 50
180.0
 51
254.988119
  0
LINE
  5
1EC
330
1F
100
AcDbEntity
  8
002
 62
     3
370
    30
100
AcDbLine
 10
606.021018
 20
1689.623669
 30
0.0
 11
633.293018
 21
1682.315669
 31
0.0
  0
ARC
  5
1ED
330
1F
100
AcDbEntity
  8
002
 62
     3
370
    30
100
AcDbCircle
 10
604.070018
 20
1680.315669
 30
0.0
 40
2.0
100
AcDbArc
 50
90.0
 51
180.0
  0
ARC
  5
1EE
330
1F
100
AcDbEntity
  8
002
 62
     3
370
    30
100
AcDbCircle
 10
600.316018
 20
1630.315669
 30
0.0
 40
2.000306226556325
100
AcDbArc
 50
0.0
 51
52.127529
  0
ARC
  5
1EF
330
1F
100
AcDbEntity
  8
002
 62
     3
370
    30
100
AcDbCircle
 10
607.316018
 20
1620.178669
 30
0.0
 40
5.0
100
AcDbArc
 50
105.008914
 51
180.0
  0
LINE
  5
1F0
330
1F
100
AcDbEntity
  8
002
 62
     3
370
    30
100
AcDbLine
 10
606.021018
 20
1625.008669
 30
0.0
 11
633.293018
 21
1632.315669
 31
0.0
  0
CIRCLE
  5
1F1
330
1F
100
AcDbEntity
  8
002
 62
     3
370
    30
100
AcDbCircle
 10
625.316018
 20
1581.315669
 30
0.0
 40
25.0
  0
CIRCLE
  5
1F2
330
1F
100
AcDbEntity
  8
002
 62
     3
370
    30
100
AcDbCircle
 10
625.316018
 20
1581.315669
 30
0.0
 40
13.0
  0
LINE
  5
1F3
330
1F
100
AcDbEntity
  8
002
 62
     3
370
    30
100
AcDbLine
 10
593.313018
 20
1566.315669
 30
0.0
 11
593.313018
 21
1559.315669
 31
0.0
  0
ARC
  5
1F4
330
1F
100
AcDbEntity
  8
002
 62
     3
370
    30
100
AcDbCircle
 10
553.316018
 20
1545.315669
 30
0.0
 40
3.5
100
AcDbArc
 50
0.0
 51
180.0
  0
LINE
  5
1F5
330
1F
100
AcDbEntity
  8
002
 62
     3
370
    30
100
AcDbLine
 10
549.816018
 20
1545.315669
 30
0.0
 11
549.816018
 21
1507.315669
 31
0.0
  0
LINE
  5
1F6
330
1F
100
AcDbEntity
  8
002
 62
     3
370
    30
100
AcDbLine
 10
556.816018
 20
1507.315669
 30
0.0
 11
556.816018
 21
1545.315669
 31
0.0
  0
LINE
  5
1F7
330
1F
100
AcDbEntity
  8
002
 62
     3
370
    30
100
AcDbLine
 10
556.816018
 20
1542.315669
 30
0.0
 11
549.816018
 21
1542.315669
 31
0.0
  0
LINE
  5
1F8
330
1F
100
AcDbEntity
  8
002
 62
     3
370
    30
100
AcDbLine
 10
461.104018
 20
1566.300669
 30
0.0
 11
462.599018
 21
1571.876669
 31
0.0
  0
LINE
  5
1F9
330
1F
100
AcDbEntity
  8
002
 62
     3
370
    30
100
AcDbLine
 10
462.599018
 20
1571.876669
 30
0.0
 11
458.516018
 21
1575.959669
 31
0.0
  0
LINE
  5
1FA
330
1F
100
AcDbEntity
  8
002
 62
     3
370
    30
100
AcDbLine
 10
458.516018
 20
1575.959669
 30
0.0
 11
452.939018
 21
1574.465669
 31
0.0
  0
LINE
  5
1FB
330
1F
100
AcDbEntity
  8
002
 62
     3
370
    30
100
AcDbLine
 10
452.939018
 20
1574.465669
 30
0.0
 11
451.445018
 21
1568.888669
 31
0.0
  0
LINE
  5
1FC
330
1F
100
AcDbEntity
  8
002
 62
     3
370
    30
100
AcDbLine
 10
451.445018
 20
1568.888669
 30
0.0
 11
455.528018
 21
1564.805669
 31
0.0
  0
LINE
  5
1FD
330
1F
100
AcDbEntity
  8
002
 62
     3
370
    30
100
AcDbLine
 10
455.528018
 20
1564.805669
 30
0.0
 11
461.104018
 21
1566.300669
 31
0.0
  0
CIRCLE
  5
1FE
330
1F
100
AcDbEntity
  8
002
 62
     3
370
    30
100
AcDbCircle
 10
457.022018
 20
1570.382669
 30
0.0
 40
9.0
  0
LINE
  5
1FF
330
1F
100
AcDbEntity
  8
002
 62
     3
370
    30
100
AcDbLine
 10
422.253018
 20
1592.182669
 30
0.0
 11
418.170018
 21
1588.099669
 31
0.0
  0
LINE
  5
200
330
1F
100
AcDbEntity
  8
002
 62
     3
370
    30
100
AcDbLine
 10
418.170018
 20
1588.099669
 30
0.0
 11
412.593018
 21
1589.593669
 31
0.0
  0
LINE
  5
201
330
1F
100
AcDbEntity
  8
002
 62
     3
370
    30
100
AcDbLine
 10
412.593018
 20
1589.593669
 30
0.0
 11
411.099018
 21
1595.170669
 31
0.0
  0
LINE
  5
202
330
1F
100
AcDbEntity
  8
002
 62
     3
370
    30
100
AcDbLine
 10
411.099018
 20
1595.170669
 30
0.0
 11
415.182018
 21
1599.253669
 31
0.0
  0
LINE
  5
203
330
1F
100
AcDbEntity
  8
002
 62
     3
370
    30
100
AcDbLine
 10
415.182018
 20
1599.253669
 30
0.0
 11
420.758018
 21
1597.758669
 31
0.0
  0
LINE
  5
204
330
1F
100
AcDbEntity
  8
002
 62
     3
370
    30
100
AcDbLine
 10
420.758018
 20
1597.758669
 30
0.0
 11
422.253018
 21
1592.182669
 31
0.0
  0
CIRCLE
  5
205
330
1F
100
AcDbEntity
  8
002
 62
     3
370
    30
100
AcDbCircle
 10
416.676018
 20
1593.676669
 30
0.0
 40
9.0
  0
ARC
  5
206
330
1F
100
AcDbEntity
  8
002
 62
     3
370
    30
100
AcDbCircle
 10
403.316018
 20
1581.315669
 30
0.0
 40
12.99908073672912
100
AcDbArc
 50
117.059784
 51
332.193012
  0
ARC
  5
207
330
1F
100
AcDbEntity
  8
002
 62
     3
370
    30
100
AcDbCircle
 10
403.316018
 20
1581.315669
 30
0.0
 40
24.99926248912157
100
AcDbArc
 50
120.666222
 51
328.586188
  0
LINE
  5
208
330
1F
100
AcDbEntity
  8
002
 62
     3
370
    30
100
AcDbLine
 10
398.959018
 20
1635.516669
 30
0.0
 11
394.877018
 21
1639.598669
 31
0.0
  0
LINE
  5
209
330
1F
100
AcDbEntity
  8
002
 62
     3
370
    30
100
AcDbLine
 10
394.877018
 20
1639.598669
 30
0.0
 11
389.300018
 21
1638.104669
 31
0.0
  0
LINE
  5
20A
330
1F
100
AcDbEntity
  8
002
 62
     3
370
    30
100
AcDbLine
 10
389.300018
 20
1638.104669
 30
0.0
 11
387.805018
 21
1632.527669
 31
0.0
  0
LINE
  5
20B
330
1F
100
AcDbEntity
  8
002
 62
     3
370
    30
100
AcDbLine
 10
387.805018
 20
1632.527669
 30
0.0
 11
391.888018
 21
1628.445669
 31
0.0
  0
LINE
  5
20C
330
1F
100
AcDbEntity
  8
002
 62
     3
370
    30
100
AcDbLine
 10
391.888018
 20
1628.445669
 30
0.0
 11
397.465018
 21
1629.939669
 31
0.0
  0
LINE
  5
20D
330
1F
100
AcDbEntity
  8
002
 62
     3
370
    30
100
AcDbLine
 10
397.465018
 20
1629.939669
 30
0.0
 11
398.959018
 21
1635.516669
 31
0.0
  0
CIRCLE
  5
20E
330
1F
100
AcDbEntity
  8
002
 62
     3
370
    30
100
AcDbCircle
 10
393.382018
 20
1634.022669
 30
0.0
 40
9.0
  0
LINE
  5
20F
330
1F
100
AcDbEntity
  8
002
 62
     3
370
    30
100
AcDbLine
 10
394.877018
 20
1675.032669
 30
0.0
 11
389.300018
 21
1676.527669
 31
0.0
  0
LINE
  5
210
330
1F
100
AcDbEntity
  8
002
 62
     3
370
    30
100
AcDbLine
 10
389.300018
 20
1676.527669
 30
0.0
 11
387.805018
 21
1682.103669
 31
0.0
  0
LINE
  5
211
330
1F
100
AcDbEntity
  8
002
 62
     3
370
    30
100
AcDbLine
 10
387.805018
 20
1682.103669
 30
0.0
 11
391.888018
 21
1686.186669
 31
0.0
  0
LINE
  5
212
330
1F
100
AcDbEntity
  8
002
 62
     3
370
    30
100
AcDbLine
 10
391.888018
 20
1686.186669
 30
0.0
 11
397.465018
 21
1684.692669
 31
0.0
  0
LINE
  5
213
330
1F
100
AcDbEntity
  8
002
 62
     3
370
    30
100
AcDbLine
 10
397.465018
 20
1684.692669
 30
0.0
 11
398.959018
 21
1679.115669
 31
0.0
  0
LINE
  5
214
330
1F
100
AcDbEntity
  8
002
 62
     3
370
    30
100
AcDbLine
 10
398.959018
 20
1679.115669
 30
0.0
 11
394.877018
 21
1675.032669
 31
0.0
  0
CIRCLE
  5
215
330
1F
100
AcDbEntity
  8
002
 62
     3
370
    30
100
AcDbCircle
 10
393.382018
 20
1680.609669
 30
0.0
 40
9.0
  0
LINE
  5
216
330
1F
100
AcDbEntity
  8
002
 62
     3
370
    30
100
AcDbLine
 10
415.182018
 20
1715.378669
 30
0.0
 11
411.099018
 21
1719.461669
 31
0.0
  0
LINE
  5
217
330
1F
100
AcDbEntity
  8
002
 62
     3
370
    30
100
AcDbLine
 10
411.099018
 20
1719.461669
 30
0.0
 11
412.593018
 21
1725.038669
 31
0.0
  0
LINE
  5
218
330
1F
100
AcDbEntity
  8
002
 62
     3
370
    30
100
AcDbLine
 10
412.593018
 20
1725.038669
 30
0.0
 11
418.170018
 21
1726.532669
 31
0.0
  0
LINE
  5
219
330
1F
100
AcDbEntity
  8
002
 62
     3
370
    30
100
AcDbLine
 10
418.170018
 20
1726.532669
 30
0.0
 11
422.253018
 21
1722.449669
 31
0.0
  0
LINE
  5
21A
330
1F
100
AcDbEntity
  8
002
 62
     3
370
    30
100
AcDbLine
 10
422.253018
 20
1722.449669
 30
0.0
 11
420.758018
 21
1716.873669
 31
0.0
  0
LINE
  5
21B
330
1F
100
AcDbEntity
  8
002
 62
     3
370
    30
100
AcDbLine
 10
420.758018
 20
1716.873669
 30
0.0
 11
415.182018
 21
1715.378669
 31
0.0
  0
CIRCLE
  5
21C
330
1F
100
AcDbEntity
  8
002
 62
     3
370
    30
100
AcDbCircle
 10
416.676018
 20
1720.955669
 30
0.0
 40
9.0
  0
ARC
  5
21D
330
1F
100
AcDbEntity
  8
002
 62
     3
370
    30
100
AcDbCircle
 10
403.316018
 20
1733.315669
 30
0.0
 40
13.00008942276936
100
AcDbArc
 50
27.810887
 51
242.940216
  0
ARC
  5
21E
330
1F
100
AcDbEntity
  8
002
 62
     3
370
    30
100
AcDbCircle
 10
403.316018
 20
1733.315669
 30
0.0
 40
25.00020033919738
100
AcDbArc
 50
31.415768
 51
239.333778
  0
LINE
  5
21F
330
1F
100
AcDbEntity
  8
002
 62
     3
370
    30
100
AcDbLine
 10
452.939018
 20
1740.166669
 30
0.0
 11
451.445018
 21
1745.743669
 31
0.0
  0
LINE
  5
220
330
1F
100
AcDbEntity
  8
002
 62
     3
370
    30
100
AcDbLine
 10
451.445018
 20
1745.743669
 30
0.0
 11
455.528018
 21
1749.826669
 31
0.0
  0
LINE
  5
221
330
1F
100
AcDbEntity
  8
002
 62
     3
370
    30
100
AcDbLine
 10
455.528018
 20
1749.826669
 30
0.0
 11
461.104018
 21
1748.331669
 31
0.0
  0
LINE
  5
222
330
1F
100
AcDbEntity
  8
002
 62
     3
370
    30
100
AcDbLine
 10
461.104018
 20
1748.331669
 30
0.0
 11
462.599018
 21
1742.754669
 31
0.0
  0
LINE
  5
223
330
1F
100
AcDbEntity
  8
002
 62
     3
370
    30
100
AcDbLine
 10
462.599018
 20
1742.754669
 30
0.0
 11
458.516018
 21
1738.672669
 31
0.0
  0
LINE
  5
224
330
1F
100
AcDbEntity
  8
002
 62
     3
370
    30
100
AcDbLine
 10
458.516018
 20
1738.672669
 30
0.0
 11
452.939018
 21
1740.166669
 31
0.0
  0
CIRCLE
  5
225
330
1F
100
AcDbEntity
  8
002
 62
     3
370
    30
100
AcDbCircle
 10
457.022018
 20
1744.249669
 30
0.0
 40
9.0
  0
CIRCLE
  5
226
330
1F
100
AcDbEntity
  8
002
 62
     3
370
    30
100
AcDbCircle
 10
480.316018
 20
1657.315669
 30
0.0
 40
105.0
  0
LINE
  5
227
330
1F
100
AcDbEntity
  8
002
 62
     3
370
    30
100
AcDbLine
 10
499.527018
 20
1748.331669
 30
0.0
 11
498.033018
 21
1742.754669
 31
0.0
  0
LINE
  5
228
330
1F
100
AcDbEntity
  8
002
 62
     3
370
    30
100
AcDbLine
 10
498.033018
 20
1742.754669
 30
0.0
 11
502.115018
 21
1738.672669
 31
0.0
  0
LINE
  5
229
330
1F
100
AcDbEntity
  8
002
 62
     3
370
    30
100
AcDbLine
 10
502.115018
 20
1738.672669
 30
0.0
 11
507.692018
 21
1740.166669
 31
0.0
  0
LINE
  5
22A
330
1F
100
AcDbEntity
  8
002
 62
     3
370
    30
100
AcDbLine
 10
507.692018
 20
1740.166669
 30
0.0
 11
509.186018
 21
1745.743669
 31
0.0
  0
LINE
  5
22B
330
1F
100
AcDbEntity
  8
002
 62
     3
370
    30
100
AcDbLine
 10
509.186018
 20
1745.743669
 30
0.0
 11
505.104018
 21
1749.826669
 31
0.0
  0
LINE
  5
22C
330
1F
100
AcDbEntity
  8
002
 62
     3
370
    30
100
AcDbLine
 10
505.104018
 20
1749.826669
 30
0.0
 11
499.527018
 21
1748.331669
 31
0.0
  0
CIRCLE
  5
22D
330
1F
100
AcDbEntity
  8
002
 62
     3
370
    30
100
AcDbCircle
 10
503.609018
 20
1744.249669
 30
0.0
 40
9.0
  0
LINE
  5
22E
330
1F
100
AcDbEntity
  8
002
  6
CENTER
 62
    40
370
     9
100
AcDbLine
 10
670.020018
 20
1657.315669
 30
0.0
 11
360.123018
 21
1657.315669
 31
0.0
  0
LINE
  5
22F
330
1F
100
AcDbEntity
  8
002
  6
CENTER
 62
    40
370
     9
100
AcDbLine
 10
625.316018
 20
1614.858669
 30
0.0
 11
625.316018
 21
1546.649669
 31
0.0
  0
LINE
  5
230
330
1F
100
AcDbEntity
  8
002
  6
CENTER
 62
    40
370
     9
100
AcDbLine
 10
593.409018
 20
1581.315669
 30
0.0
 11
661.618018
 21
1581.315669
 31
0.0
  0
LINE
  5
231
330
1F
100
AcDbEntity
  8
002
  6
CENTER
 62
    40
370
     9
100
AcDbLine
 10
593.409018
 20
1733.315669
 30
0.0
 11
661.618018
 21
1733.315669
 31
0.0
  0
LINE
  5
232
330
1F
100
AcDbEntity
  8
002
  6
CENTER
 62
    40
370
     9
100
AcDbLine
 10
625.316018
 20
1699.772669
 30
0.0
 11
625.316018
 21
1767.982669
 31
0.0
  0
LINE
  5
233
330
1F
100
AcDbEntity
  8
002
  6
CENTER
 62
    40
370
     9
100
AcDbLine
 10
553.316018
 20
1812.788669
 30
0.0
 11
553.316018
 21
1503.441669
 31
0.0
  0
LINE
  5
234
330
1F
100
AcDbEntity
  8
002
  6
CENTER
 62
    40
370
     9
100
AcDbLine
 10
577.755018
 20
1631.207669
 30
0.0
 11
557.822018
 21
1636.548669
 31
0.0
  0
LINE
  5
235
330
1F
100
AcDbEntity
  8
002
  6
CENTER
 62
    40
370
     9
100
AcDbLine
 10
557.822018
 20
1678.083669
 30
0.0
 11
577.755018
 21
1683.424669
 31
0.0
  0
LINE
  5
236
330
1F
100
AcDbEntity
  8
002
  6
CENTER
 62
    40
370
     9
100
AcDbLine
 10
537.054018
 20
1600.577669
 30
0.0
 11
551.646018
 21
1585.985669
 31
0.0
  0
LINE
  5
237
330
1F
100
AcDbEntity
  8
002
  6
CENTER
 62
    40
370
     9
100
AcDbLine
 10
537.054018
 20
1714.054669
 30
0.0
 11
551.646018
 21
1728.646669
 31
0.0
  0
LINE
  5
238
330
1F
100
AcDbEntity
  8
002
  6
CENTER
 62
    40
370
     9
100
AcDbLine
 10
501.083018
 20
1734.821669
 30
0.0
 11
506.424018
 21
1754.755669
 31
0.0
  0
LINE
  5
239
330
1F
100
AcDbEntity
  8
002
  6
CENTER
 62
    40
370
     9
100
AcDbLine
 10
506.424018
 20
1559.876669
 30
0.0
 11
501.083018
 21
1579.809669
 31
0.0
  0
CIRCLE
  5
23A
330
1F
100
AcDbEntity
  8
002
  6
CENTER
 62
    40
370
     9
100
AcDbCircle
 10
480.316018
 20
1657.315669
 30
0.0
 40
90.0
  0
LINE
  5
23B
330
1F
100
AcDbEntity
  8
002
  6
CENTER
 62
    40
370
     9
100
AcDbLine
 10
480.316018
 20
1776.570669
 30
0.0
 11
480.316018
 21
1534.747669
 31
0.0
  0
LINE
  5
23C
330
1F
100
AcDbEntity
  8
002
  6
CENTER
 62
    40
370
     9
100
AcDbLine
 10
454.207018
 20
1754.755669
 30
0.0
 11
459.548018
 21
1734.821669
 31
0.0
  0
LINE
  5
23D
330
1F
100
AcDbEntity
  8
002
  6
CENTER
 62
    40
370
     9
100
AcDbLine
 10
423.577018
 20
1714.054669
 30
0.0
 11
408.985018
 21
1728.646669
 31
0.0
  0
LINE
  5
23E
330
1F
100
AcDbEntity
  8
002
  6
CENTER
 62
    40
370
     9
100
AcDbLine
 10
382.876018
 20
1683.424669
 30
0.0
 11
402.810018
 21
1678.083669
 31
0.0
  0
LINE
  5
23F
330
1F
100
AcDbEntity
  8
002
  6
CENTER
 62
    40
370
     9
100
AcDbLine
 10
382.876018
 20
1631.207669
 30
0.0
 11
402.810018
 21
1636.548669
 31
0.0
  0
LINE
  5
240
330
1F
100
AcDbEntity
  8
002
  6
CENTER
 62
    40
370
     9
100
AcDbLine
 10
423.577018
 20
1600.577669
 30
0.0
 11
408.985018
 21
1585.985669
 31
0.0
  0
LINE
  5
241
330
1F
100
AcDbEntity
  8
002
  6
CENTER
 62
    40
370
     9
100
AcDbLine
 10
417.275018
 20
1581.315669
 30
0.0
 11
370.883018
 21
1581.315669
 31
0.0
  0
LINE
  5
242
330
1F
100
AcDbEntity
  8
002
  6
CENTER
 62
    40
370
     9
100
AcDbLine
 10
403.316018
 20
1593.907669
 30
0.0
 11
403.316018
 21
1546.372669
 31
0.0
  0
LINE
  5
243
330
1F
100
AcDbEntity
  8
002
  6
CENTER
 62
    40
370
     9
100
AcDbLine
 10
417.275018
 20
1733.315669
 30
0.0
 11
370.883018
 21
1733.315669
 31
0.0
  0
LINE
  5
244
330
1F
100
AcDbEntity
  8
002
  6
CENTER
 62
    40
370
     9
100
AcDbLine
 10
403.316018
 20
1720.724669
 30
0.0
 11
403.316018
 21
1768.259669
 31
0.0
  0
LINE
  5
245
330
1F
100
AcDbEntity
  8
002
  6
CENTER
 62
    40
370
     9
100
AcDbLine
 10
454.207018
 20
1559.876669
 30
0.0
 11
459.548018
 21
1579.809669
 31
0.0
  0
LINE
  5
246
330
1F
100
AcDbEntity
  8
002
  6
CENTER
 62
    40
370
     9
100
AcDbLine
 10
553.316018
 20
1179.911669
 30
0.0
 11
553.316018
 21
1216.763669
 31
0.0
  0
LINE
  5
247
330
1F
100
AcDbEntity
  8
002
  6
CENTER
 62
    40
370
     9
100
AcDbLine
 10
535.873018
 20
1197.085669
 30
0.0
 11
572.539018
 21
1197.085669
 31
0.0
  0
LINE
  5
248
330
1F
100
AcDbEntity
  8
002
 62
     3
370
    30
100
AcDbLine
 10
557.316018
 20
1207.085669
 30
0.0
 11
549.316018
 21
1207.085669
 31
0.0
  0
LINE
  5
249
330
1F
100
AcDbEntity
  8
002
 62
     3
370
    30
100
AcDbLine
 10
549.316018
 20
1214.085669
 30
0.0
 11
557.316018
 21
1214.085669
 31
0.0
  0
LINE
  5
24A
330
1F
100
AcDbEntity
  8
002
 62
     3
370
    30
100
AcDbLine
 10
557.316018
 20
1214.085669
 30
0.0
 11
557.316018
 21
1207.085669
 31
0.0
  0
LINE
  5
24B
330
1F
100
AcDbEntity
  8
002
 62
     3
370
    30
100
AcDbLine
 10
549.316018
 20
1214.085669
 30
0.0
 11
549.316018
 21
1207.085669
 31
0.0
  0
LINE
  5
24C
330
1F
100
AcDbEntity
  8
002
 62
     3
370
    30
100
AcDbLine
 10
1417.490783
 20
1309.384728
 30
0.0
 11
1347.490783
 21
1309.384728
 31
0.0
  0
LINE
  5
24D
330
1F
100
AcDbEntity
  8
002
  6
CENTER
 62
    40
370
     9
100
AcDbLine
 10
1382.490783
 20
1710.679728
 30
0.0
 11
1382.490783
 21
1506.548728
 31
0.0
  0
CIRCLE
  5
24E
330
1F
100
AcDbEntity
  8
002
 62
    40
370
     9
100
AcDbCircle
 10
1382.490783
 20
1608.679728
 30
0.0
 40
22.5
  0
CIRCLE
  5
24F
330
1F
100
AcDbEntity
  8
002
  6
CENTER
 62
    40
370
     9
100
AcDbCircle
 10
1382.490783
 20
1608.679728
 30
0.0
 40
63.5
  0
LINE
  5
250
330
1F
100
AcDbEntity
  8
002
  6
CENTER
 62
    40
370
     9
100
AcDbLine
 10
1280.490783
 20
1608.679728
 30
0.0
 11
1484.490783
 21
1608.679728
 31
0.0
  0
LINE
  5
251
330
1F
100
AcDbEntity
  8
002
 62
     3
370
    30
100
AcDbLine
 10
1471.490783
 20
1345.384728
 30
0.0
 11
1293.490783
 21
1345.384728
 31
0.0
  0
LINE
  5
252
330
1F
100
AcDbEntity
  8
002
 62
     3
370
    30
100
AcDbLine
 10
1471.490783
 20
1345.384728
 30
0.0
 11
1471.490783
 21
1361.384728
 31
0.0
  0
LINE
  5
253
330
1F
100
AcDbEntity
  8
002
 62
     3
370
    30
100
AcDbLine
 10
1471.490783
 20
1361.384728
 30
0.0
 11
1293.490783
 21
1361.384728
 31
0.0
  0
LINE
  5
254
330
1F
100
AcDbEntity
  8
002
 62
     3
370
    30
100
AcDbLine
 10
1293.490783
 20
1361.384728
 30
0.0
 11
1293.490783
 21
1345.384728
 31
0.0
  0
LINE
  5
255
330
1F
100
AcDbEntity
  8
002
  6
CENTER
 62
    40
370
     9
100
AcDbLine
 10
1318.990783
 20
1338.150728
 30
0.0
 11
1318.990783
 21
1370.601728
 31
0.0
  0
LINE
  5
256
330
1F
100
AcDbEntity
  8
002
  6
CENTER
 62
    40
370
     9
100
AcDbLine
 10
1445.990783
 20
1370.335728
 30
0.0
 11
1445.990783
 21
1337.346728
 31
0.0
  0
CIRCLE
  5
257
330
1F
100
AcDbEntity
  8
002
 62
     3
370
    30
100
AcDbCircle
 10
1445.990783
 20
1608.679728
 30
0.0
 40
13.0
  0
CIRCLE
  5
258
330
1F
100
AcDbEntity
  8
002
 62
     3
370
    30
100
AcDbCircle
 10
1382.490783
 20
1545.179728
 30
0.0
 40
13.0
  0
CIRCLE
  5
259
330
1F
100
AcDbEntity
  8
002
 62
     3
370
    30
100
AcDbCircle
 10
1318.990783
 20
1608.679728
 30
0.0
 40
13.0
  0
CIRCLE
  5
25A
330
1F
100
AcDbEntity
  8
002
 62
     3
370
    30
100
AcDbCircle
 10
1382.490783
 20
1608.679728
 30
0.0
 40
21.4175
  0
ARC
  5
25B
330
1F
100
AcDbEntity
  8
002
 62
     3
370
    30
100
AcDbCircle
 10
1419.490783
 20
1343.384728
 30
0.0
 40
2.0
100
AcDbArc
 50
90.0
 51
180.0
  0
LINE
  5
25C
330
1F
100
AcDbEntity
  8
002
 62
     3
370
    30
100
AcDbLine
 10
1417.490783
 20
1309.384728
 30
0.0
 11
1417.490783
 21
1343.384728
 31
0.0
  0
LINE
  5
25D
330
1F
100
AcDbEntity
  8
002
 62
     3
370
    30
100
AcDbLine
 10
1347.490783
 20
1309.384728
 30
0.0
 11
1347.490783
 21
1343.384728
 31
0.0
  0
ARC
  5
25E
330
1F
100
AcDbEntity
  8
002
 62
     3
370
    30
100
AcDbCircle
 10
1345.490783
 20
1343.384728
 30
0.0
 40
2.0
100
AcDbArc
 50
0.0
 51
90.0
  0
CIRCLE
  5
25F
330
1F
100
AcDbEntity
  8
002
 62
     3
370
    30
100
AcDbCircle
 10
1382.490783
 20
1608.679728
 30
0.0
 40
89.0
  0
CIRCLE
  5
260
330
1F
100
AcDbEntity
  8
002
 62
     3
370
    30
100
AcDbCircle
 10
1382.490783
 20
1672.179728
 30
0.0
 40
13.0
  0
LINE
  5
261
330
1F
100
AcDbEntity
  8
002
 62
     3
370
    30
100
AcDbLine
 10
1018.3779
 20
1309.384728
 30
0.0
 11
937.3779
 21
1309.384728
 31
0.0
  0
CIRCLE
  5
262
330
1F
100
AcDbEntity
  8
002
 62
     3
370
    30
100
AcDbCircle
 10
977.8779
 20
1608.679728
 30
0.0
 40
42.5
  0
LINE
  5
263
330
1F
100
AcDbEntity
  8
002
 62
     3
370
    30
100
AcDbLine
 10
1013.9334
 20
1586.179728
 30
0.0
 11
941.8224
 21
1586.179728
 31
0.0
  0
ARC
  5
264
330
1F
100
AcDbEntity
  8
002
 62
     3
370
    30
100
AcDbCircle
 10
977.8779
 20
1608.679728
 30
0.0
 40
32.50001529861176
100
AcDbArc
 50
316.186964
 51
43.813036
  0
ARC
  5
265
330
1F
100
AcDbEntity
  8
002
 62
     3
370
    30
100
AcDbCircle
 10
977.8779
 20
1608.679728
 30
0.0
 40
32.49994313841179
100
AcDbArc
 50
136.186842
 51
223.813158
  0
LINE
  5
266
330
1F
100
AcDbEntity
  8
002
 62
     3
370
    30
100
AcDbLine
 10
941.8224
 20
1631.179728
 30
0.0
 11
1013.9334
 21
1631.179728
 31
0.0
  0
LINE
  5
267
330
1F
100
AcDbEntity
  8
002
 62
     3
370
    30
100
AcDbLine
 10
1013.9334
 20
1449.384728
 30
0.0
 11
1020.3779
 21
1449.384728
 31
0.0
  0
LINE
  5
268
330
1F
100
AcDbEntity
  8
002
 62
     3
370
    30
100
AcDbLine
 10
1013.9334
 20
1449.384728
 30
0.0
 11
1001.33
 21
1459.384728
 31
0.0
  0
LINE
  5
269
330
1F
100
AcDbEntity
  8
002
 62
     3
370
    30
100
AcDbLine
 10
1020.3779
 20
1449.384728
 30
0.0
 11
1010.3779
 21
1459.384728
 31
0.0
  0
LINE
  5
26A
330
1F
100
AcDbEntity
  8
002
 62
     3
370
    30
100
AcDbLine
 10
1010.3779
 20
1459.384728
 30
0.0
 11
945.3779
 21
1459.384728
 31
0.0
  0
LINE
  5
26B
330
1F
100
AcDbEntity
  8
002
 62
     3
370
    30
100
AcDbLine
 10
941.8224
 20
1449.384728
 30
0.0
 11
954.4259
 21
1459.384728
 31
0.0
  0
LINE
  5
26C
330
1F
100
AcDbEntity
  8
002
 62
     3
370
    30
100
AcDbLine
 10
941.8224
 20
1449.384728
 30
0.0
 11
935.3779
 21
1449.384728
 31
0.0
  0
LINE
  5
26D
330
1F
100
AcDbEntity
  8
002
 62
     3
370
    30
100
AcDbLine
 10
945.3779
 20
1459.384728
 30
0.0
 11
935.3779
 21
1449.384728
 31
0.0
  0
LINE
  5
26E
330
1F
100
AcDbEntity
  8
002
 62
     3
370
    30
100
AcDbLine
 10
935.3779
 20
1449.384728
 30
0.0
 11
935.3779
 21
1311.384728
 31
0.0
  0
LINE
  5
26F
330
1F
100
AcDbEntity
  8
002
 62
     3
370
    30
100
AcDbLine
 10
941.8224
 20
1379.384728
 30
0.0
 11
941.8224
 21
1449.384728
 31
0.0
  0
ARC
  5
270
330
1F
100
AcDbEntity
  8
002
 62
     3
370
    30
100
AcDbCircle
 10
946.8224
 20
1379.384728
 30
0.0
 40
5.0
100
AcDbArc
 50
180.0
 51
270.0
  0
LINE
  5
271
330
1F
100
AcDbEntity
  8
002
 62
     3
370
    30
100
AcDbLine
 10
946.8224
 20
1374.384728
 30
0.0
 11
1008.9334
 21
1374.384728
 31
0.0
  0
LINE
  5
272
330
1F
100
AcDbEntity
  8
002
 62
     3
370
    30
100
AcDbLine
 10
1013.9334
 20
1379.384728
 30
0.0
 11
941.8224
 21
1379.384728
 31
0.0
  0
ARC
  5
273
330
1F
100
AcDbEntity
  8
002
 62
     3
370
    30
100
AcDbCircle
 10
1008.9334
 20
1379.384728
 30
0.0
 40
5.0
100
AcDbArc
 50
270.0
 51
0.0
  0
LINE
  5
274
330
1F
100
AcDbEntity
  8
002
 62
     3
370
    30
100
AcDbLine
 10
1013.9334
 20
1379.384728
 30
0.0
 11
1013.9334
 21
1449.384728
 31
0.0
  0
LINE
  5
275
330
1F
100
AcDbEntity
  8
002
 62
     3
370
    30
100
AcDbLine
 10
1020.3779
 20
1311.384728
 30
0.0
 11
1020.3779
 21
1449.384728
 31
0.0
  0
CIRCLE
  5
276
330
1F
100
AcDbEntity
  8
002
 62
     3
370
    30
100
AcDbCircle
 10
977.8779
 20
1419.384728
 30
0.0
 40
20.0
  0
LINE
  5
277
330
1F
100
AcDbEntity
  8
002
 62
     3
370
    30
100
AcDbLine
 10
1018.3779
 20
1309.384728
 30
0.0
 11
1020.3779
 21
1311.384728
 31
0.0
  0
LINE
  5
278
330
1F
100
AcDbEntity
  8
002
 62
     3
370
    30
100
AcDbLine
 10
935.3779
 20
1311.384728
 30
0.0
 11
937.3779
 21
1309.384728
 31
0.0
  0
LINE
  5
279
330
1F
100
AcDbEntity
  8
003
  6
HIDDEN
 62
    40
370
     9
100
AcDbLine
 10
957.8779
 20
1631.179728
 30
0.0
 11
957.8779
 21
1586.179728
 31
0.0
  0
LINE
  5
27A
330
1F
100
AcDbEntity
  8
003
  6
HIDDEN
 62
    40
370
     9
100
AcDbLine
 10
997.8779
 20
1586.179728
 30
0.0
 11
997.8779
 21
1631.179728
 31
0.0
  0
LINE
  5
27B
330
1F
100
AcDbEntity
  8
003
  6
CENTER
 62
    40
370
     9
100
AcDbLine
 10
916.8202
 20
1419.384728
 30
0.0
 11
1043.0628
 21
1419.384728
 31
0.0
  0
LINE
  5
27C
330
1F
100
AcDbEntity
  8
003
  6
CENTER
 62
    40
370
     9
100
AcDbLine
 10
977.8779
 20
1549.336728
 30
0.0
 11
977.8779
 21
1668.022728
 31
0.0
  0
LINE
  5
27D
330
1F
100
AcDbEntity
  8
003
  6
CENTER
 62
    40
370
     9
100
AcDbLine
 10
1035.6525
 20
1608.679728
 30
0.0
 11
921.1309
 21
1608.679728
 31
0.0
  0
LINE
  5
27E
330
1F
100
AcDbEntity
  8
002
  6
CENTER
 62
    40
370
     9
100
AcDbLine
 10
1382.490783
 20
1370.520328
 30
0.0
 11
1382.490783
 21
1248.864949
 31
0.0
  0
LINE
  5
27F
330
1F
100
AcDbEntity
  8
002
  6
CENTER
 62
    40
370
     9
100
AcDbLine
 10
977.8779
 20
1464.384728
 30
0.0
 11
977.8779
 21
1248.864949
 31
0.0
  0
LINE
  5
280
330
1F
100
AcDbEntity
  8
002
 62
     3
370
    30
100
AcDbLine
 10
939.579276
 20
569.906837
 30
0.0
 11
939.579276
 21
529.743437
 31
0.0
  0
ARC
  5
281
330
1F
100
AcDbEntity
  8
002
 62
     3
370
    30
100
AcDbCircle
 10
944.579276
 20
529.743437
 30
0.0
 40
4.999973096927638
100
AcDbArc
 50
180.0
 51
254.999861
  0
LINE
  5
282
330
1F
100
AcDbEntity
  8
002
 62
     3
370
    30
100
AcDbLine
 10
943.285176
 20
524.913837
 30
0.0
 11
955.873376
 21
521.540837
 31
0.0
  0
LINE
  5
283
330
1F
100
AcDbEntity
  8
002
 62
     3
370
    30
100
AcDbLine
 10
959.579276
 20
520.547837
 30
0.0
 11
963.585876
 21
520.547837
 31
0.0
  0
LINE
  5
284
330
1F
100
AcDbEntity
  8
002
 62
     3
370
    30
100
AcDbLine
 10
968.585876
 20
519.208137
 30
0.0
 11
1072.213176
 21
519.208137
 31
0.0
  0
LINE
  5
285
330
1F
100
AcDbEntity
  8
002
 62
     3
370
    30
100
AcDbLine
 10
1072.213176
 20
519.208137
 30
0.0
 11
1069.529176
 21
520.547837
 31
0.0
  0
LINE
  5
286
330
1F
100
AcDbEntity
  8
002
 62
     3
370
    30
100
AcDbLine
 10
1072.679176
 20
525.906837
 30
0.0
 11
943.285176
 21
525.906837
 31
0.0
  0
LINE
  5
287
330
1F
100
AcDbEntity
  8
002
 62
     3
370
    30
100
AcDbLine
 10
951.579276
 20
512.824837
 30
0.0
 11
951.579276
 21
478.988737
 31
0.0
  0
LINE
  5
288
330
1F
100
AcDbEntity
  8
002
 62
     3
370
    30
100
AcDbLine
 10
951.579276
 20
478.988737
 30
0.0
 11
959.579276
 21
479.238737
 31
0.0
  0
LINE
  5
289
330
1F
100
AcDbEntity
  8
002
 62
     3
370
    30
100
AcDbLine
 10
959.579276
 20
470.906837
 30
0.0
 11
959.579276
 21
516.711237
 31
0.0
  0
ARC
  5
28A
330
1F
100
AcDbEntity
  8
002
 62
     3
370
    30
100
AcDbCircle
 10
954.579276
 20
516.711237
 30
0.0
 40
4.999973096927557
100
AcDbArc
 50
0.0
 51
74.999861
  0
LINE
  5
28B
330
1F
100
AcDbEntity
  8
002
 62
     3
370
    30
100
AcDbLine
 10
959.579276
 20
512.574837
 30
0.0
 11
951.579276
 21
512.824837
 31
0.0
  0
LINE
  5
28C
330
1F
100
AcDbEntity
  8
002
 62
     3
370
    30
100
AcDbLine
 10
951.579276
 20
505.406837
 30
0.0
 11
939.579276
 21
504.906837
 31
0.0
  0
LINE
  5
28D
330
1F
100
AcDbEntity
  8
002
 62
     3
370
    30
100
AcDbLine
 10
939.579276
 20
504.906837
 30
0.0
 11
939.579276
 21
486.906837
 31
0.0
  0
LINE
  5
28E
330
1F
100
AcDbEntity
  8
002
 62
     3
370
    30
100
AcDbLine
 10
939.579276
 20
486.906837
 30
0.0
 11
951.579276
 21
486.406837
 31
0.0
  0
LINE
  5
28F
330
1F
100
AcDbEntity
  8
002
 62
     3
370
    30
100
AcDbLine
 10
968.585876
 20
495.906837
 30
0.0
 11
968.585876
 21
515.547837
 31
0.0
  0
ARC
  5
290
330
1F
100
AcDbEntity
  8
002
 62
     3
370
    30
100
AcDbCircle
 10
963.585876
 20
515.547837
 30
0.0
 40
5.000005516996961
100
AcDbArc
 50
0.0
 51
65.702188
  0
LINE
  5
291
330
1F
100
AcDbEntity
  8
002
 62
     3
370
    30
100
AcDbLine
 10
980.417276
 20
519.208137
 30
0.0
 11
980.417276
 21
430.906837
 31
0.0
  0
LINE
  5
292
330
1F
100
AcDbEntity
  8
002
 62
     3
370
    30
100
AcDbLine
 10
995.961376
 20
430.906837
 30
0.0
 11
995.961376
 21
519.208137
 31
0.0
  0
LINE
  5
293
330
1F
100
AcDbEntity
  8
002
 62
     3
370
    30
100
AcDbLine
 10
1038.806176
 20
495.906837
 30
0.0
 11
1041.692176
 21
500.906837
 31
0.0
  0
LINE
  5
294
330
1F
100
AcDbEntity
  8
002
 62
     3
370
    30
100
AcDbLine
 10
1041.692176
 20
500.906837
 30
0.0
 11
1047.466176
 21
500.906837
 31
0.0
  0
LINE
  5
295
330
1F
100
AcDbEntity
  8
002
 62
     3
370
    30
100
AcDbLine
 10
1047.466176
 20
500.906837
 30
0.0
 11
1050.353176
 21
495.906837
 31
0.0
  0
LINE
  5
296
330
1F
100
AcDbEntity
  8
002
 62
     3
370
    30
100
AcDbLine
 10
1050.353176
 20
495.906837
 30
0.0
 11
1047.466176
 21
490.906837
 31
0.0
  0
LINE
  5
297
330
1F
100
AcDbEntity
  8
002
 62
     3
370
    30
100
AcDbLine
 10
1047.466176
 20
490.906837
 30
0.0
 11
1041.692176
 21
490.906837
 31
0.0
  0
LINE
  5
298
330
1F
100
AcDbEntity
  8
002
 62
     3
370
    30
100
AcDbLine
 10
1041.692176
 20
490.906837
 30
0.0
 11
1038.806176
 21
495.906837
 31
0.0
  0
CIRCLE
  5
299
330
1F
100
AcDbEntity
  8
002
 62
     3
370
    30
100
AcDbCircle
 10
1044.579176
 20
495.906837
 30
0.0
 40
0.75
  0
CIRCLE
  5
29A
330
1F
100
AcDbEntity
  8
002
 62
     3
370
    30
100
AcDbCircle
 10
1044.579176
 20
495.906837
 30
0.0
 40
2.5
  0
CIRCLE
  5
29B
330
1F
100
AcDbEntity
  8
002
 62
     3
370
    30
100
AcDbCircle
 10
1044.579176
 20
495.906837
 30
0.0
 40
3.25
  0
CIRCLE
  5
29C
330
1F
100
AcDbEntity
  8
002
 62
     3
370
    30
100
AcDbCircle
 10
1044.579176
 20
495.906837
 30
0.0
 40
5.0
  0
CIRCLE
  5
29D
330
1F
100
AcDbEntity
  8
002
 62
     3
370
    30
100
AcDbCircle
 10
1044.579176
 20
495.906837
 30
0.0
 40
10.0
  0
LINE
  5
29E
330
1F
100
AcDbEntity
  8
002
 62
     3
370
    30
100
AcDbLine
 10
1066.579176
 20
495.906837
 30
0.0
 11
1066.579176
 21
433.906837
 31
0.0
  0
ARC
  5
29F
330
1F
100
AcDbEntity
  8
002
 62
     3
370
    30
100
AcDbCircle
 10
1063.579176
 20
433.906837
 30
0.0
 40
3.0
100
AcDbArc
 50
270.0
 51
0.0
  0
LINE
  5
2A0
330
1F
100
AcDbEntity
  8
002
 62
     3
370
    30
100
AcDbLine
 10
1075.470176
 20
404.906837
 30
0.0
 11
1075.470176
 21
394.906837
 31
0.0
  0
LINE
  5
2A1
330
1F
100
AcDbEntity
  8
002
 62
     3
370
    30
100
AcDbLine
 10
1091.470176
 20
394.906837
 30
0.0
 11
1075.470176
 21
394.906837
 31
0.0
  0
LINE
  5
2A2
330
1F
100
AcDbEntity
  8
002
 62
     3
370
    30
100
AcDbLine
 10
1013.688376
 20
394.906837
 30
0.0
 11
1013.688376
 21
404.906837
 31
0.0
  0
LINE
  5
2A3
330
1F
100
AcDbEntity
  8
002
 62
     3
370
    30
100
AcDbLine
 10
1013.688376
 20
394.906837
 30
0.0
 11
997.688376
 21
394.906837
 31
0.0
  0
LINE
  5
2A4
330
1F
100
AcDbEntity
  8
002
 62
     3
370
    30
100
AcDbLine
 10
997.688376
 20
394.906837
 30
0.0
 11
997.688376
 21
404.906837
 31
0.0
  0
LINE
  5
2A5
330
1F
100
AcDbEntity
  8
002
 62
     3
370
    30
100
AcDbLine
 10
977.579276
 20
404.906837
 30
0.0
 11
1111.579176
 21
404.906837
 31
0.0
  0
LINE
  5
2A6
330
1F
100
AcDbEntity
  8
002
 62
     3
370
    30
100
AcDbLine
 10
1111.579176
 20
404.906837
 30
0.0
 11
1111.579176
 21
410.906837
 31
0.0
  0
LINE
  5
2A7
330
1F
100
AcDbEntity
  8
002
 62
     3
370
    30
100
AcDbLine
 10
1091.470176
 20
404.906837
 30
0.0
 11
1091.470176
 21
394.906837
 31
0.0
  0
ARC
  5
2A8
330
1F
100
AcDbEntity
  8
002
 62
     3
370
    30
100
AcDbCircle
 10
1143.579176
 20
471.007037
 30
0.0
 40
15.0
100
AcDbArc
 50
338.769945
 51
0.0
  0
LINE
  5
2A9
330
1F
100
AcDbEntity
  8
002
 62
     3
370
    30
100
AcDbLine
 10
1157.579176
 20
464.268237
 30
0.0
 11
1157.579176
 21
527.545437
 31
0.0
  0
ARC
  5
2AA
330
1F
100
AcDbEntity
  8
002
 62
     3
370
    30
100
AcDbCircle
 10
1138.579176
 20
518.710337
 30
0.0
 40
20.00000062499999
100
AcDbArc
 50
0.0
 51
18.194878
  0
LINE
  5
2AB
330
1F
100
AcDbEntity
  8
002
 62
     3
370
    30
100
AcDbLine
 10
1158.579176
 20
518.710337
 30
0.0
 11
1158.579176
 21
433.906837
 31
0.0
  0
ARC
  5
2AC
330
1F
100
AcDbEntity
  8
002
 62
     3
370
    30
100
AcDbCircle
 10
1161.579176
 20
433.906837
 30
0.0
 40
3.0
100
AcDbArc
 50
180.0
 51
270.0
  0
LINE
  5
2AD
330
1F
100
AcDbEntity
  8
002
 62
     3
370
    30
100
AcDbLine
 10
1166.579176
 20
433.906837
 30
0.0
 11
1166.579176
 21
506.861237
 31
0.0
  0
ARC
  5
2AE
330
1F
100
AcDbEntity
  8
002
 62
     3
370
    30
100
AcDbCircle
 10
1146.579176
 20
506.861237
 30
0.0
 40
20.00030606665812
100
AcDbArc
 50
0.0
 51
20.693247
  0
ARC
  5
2AF
330
1F
100
AcDbEntity
  8
002
 62
     3
370
    30
100
AcDbCircle
 10
1117.579176
 20
495.906837
 30
0.0
 40
51.00000990156773
100
AcDbArc
 50
20.693372
 51
321.657237
  0
ARC
  5
2B0
330
1F
100
AcDbEntity
  8
002
 62
     3
370
    30
100
AcDbCircle
 10
1169.579176
 20
433.906837
 30
0.0
 40
3.0
100
AcDbArc
 50
180.0
 51
270.0
  0
ARC
  5
2B1
330
1F
100
AcDbEntity
  8
002
 62
     3
370
    30
100
AcDbCircle
 10
1201.058176
 20
435.906837
 30
0.0
 40
5.0
100
AcDbArc
 50
199.997888
 51
270.0
  0
LINE
  5
2B2
330
1F
100
AcDbEntity
  8
002
 62
     3
370
    30
100
AcDbLine
 10
1196.359176
 20
434.196737
 30
0.0
 11
1166.334176
 21
516.691137
 31
0.0
  0
LINE
  5
2B3
330
1F
100
AcDbEntity
  8
002
 62
     3
370
    30
100
AcDbLine
 10
1166.334176
 20
516.691137
 30
0.0
 11
1165.432176
 21
516.691137
 31
0.0
  0
ARC
  5
2B4
330
1F
100
AcDbEntity
  8
002
 62
     3
370
    30
100
AcDbCircle
 10
1165.432176
 20
518.691137
 30
0.0
 40
2.0
100
AcDbArc
 50
205.458173
 51
270.0
  0
LINE
  5
2B5
330
1F
100
AcDbEntity
  8
002
 62
     3
370
    30
100
AcDbLine
 10
1149.579176
 20
537.942537
 30
0.0
 11
1149.579176
 21
569.906837
 31
0.0
  0
LINE
  5
2B6
330
1F
100
AcDbEntity
  8
002
 62
     3
370
    30
100
AcDbLine
 10
1149.579176
 20
569.906837
 30
0.0
 11
939.579276
 21
569.906837
 31
0.0
  0
LINE
  5
2B7
330
1F
100
AcDbEntity
  8
002
 62
     3
370
    30
100
AcDbLine
 10
948.645976
 20
569.906837
 30
0.0
 11
948.645976
 21
581.906837
 31
0.0
  0
LINE
  5
2B8
330
1F
100
AcDbEntity
  8
002
 62
     3
370
    30
100
AcDbLine
 10
966.645976
 20
581.906837
 30
0.0
 11
966.645976
 21
569.906837
 31
0.0
  0
LINE
  5
2B9
330
1F
100
AcDbEntity
  8
002
 62
     3
370
    30
100
AcDbLine
 10
966.645976
 20
570.906837
 30
0.0
 11
971.939676
 21
570.906837
 31
0.0
  0
LINE
  5
2BA
330
1F
100
AcDbEntity
  8
002
 62
     3
370
    30
100
AcDbLine
 10
971.939676
 20
569.906837
 30
0.0
 11
971.939676
 21
581.906837
 31
0.0
  0
LINE
  5
2BB
330
1F
100
AcDbEntity
  8
002
 62
     3
370
    30
100
AcDbLine
 10
971.939676
 20
581.906837
 30
0.0
 11
989.939676
 21
581.906837
 31
0.0
  0
LINE
  5
2BC
330
1F
100
AcDbEntity
  8
002
 62
     3
370
    30
100
AcDbLine
 10
989.939676
 20
581.906837
 30
0.0
 11
989.939676
 21
569.906837
 31
0.0
  0
LINE
  5
2BD
330
1F
100
AcDbEntity
  8
002
 62
     3
370
    30
100
AcDbLine
 10
989.939676
 20
570.906837
 30
0.0
 11
1012.285576
 21
570.906837
 31
0.0
  0
LINE
  5
2BE
330
1F
100
AcDbEntity
  8
002
 62
     3
370
    30
100
AcDbLine
 10
1012.285576
 20
569.906837
 30
0.0
 11
1012.285576
 21
581.906837
 31
0.0
  0
LINE
  5
2BF
330
1F
100
AcDbEntity
  8
002
 62
     3
370
    30
100
AcDbLine
 10
1030.285176
 20
581.906837
 30
0.0
 11
1030.285176
 21
569.906837
 31
0.0
  0
LINE
  5
2C0
330
1F
100
AcDbEntity
  8
002
 62
     3
370
    30
100
AcDbLine
 10
1030.285176
 20
570.906837
 30
0.0
 11
1058.873176
 21
570.906837
 31
0.0
  0
LINE
  5
2C1
330
1F
100
AcDbEntity
  8
002
 62
     3
370
    30
100
AcDbLine
 10
1058.873176
 20
569.906837
 30
0.0
 11
1058.873176
 21
581.906837
 31
0.0
  0
LINE
  5
2C2
330
1F
100
AcDbEntity
  8
002
 62
     3
370
    30
100
AcDbLine
 10
1076.873176
 20
581.906837
 30
0.0
 11
1076.873176
 21
569.906837
 31
0.0
  0
LINE
  5
2C3
330
1F
100
AcDbEntity
  8
002
 62
     3
370
    30
100
AcDbLine
 10
1076.873176
 20
570.906837
 30
0.0
 11
1099.219176
 21
570.906837
 31
0.0
  0
LINE
  5
2C4
330
1F
100
AcDbEntity
  8
002
 62
     3
370
    30
100
AcDbLine
 10
1099.219176
 20
569.906837
 30
0.0
 11
1099.219176
 21
581.906837
 31
0.0
  0
LINE
  5
2C5
330
1F
100
AcDbEntity
  8
002
 62
     3
370
    30
100
AcDbLine
 10
1117.219176
 20
581.906837
 30
0.0
 11
1099.219176
 21
581.906837
 31
0.0
  0
LINE
  5
2C6
330
1F
100
AcDbEntity
  8
002
 62
     3
370
    30
100
AcDbLine
 10
1117.219176
 20
581.906837
 30
0.0
 11
1117.219176
 21
569.906837
 31
0.0
  0
LINE
  5
2C7
330
1F
100
AcDbEntity
  8
002
 62
     3
370
    30
100
AcDbLine
 10
1117.219176
 20
570.906837
 30
0.0
 11
1122.512176
 21
570.906837
 31
0.0
  0
LINE
  5
2C8
330
1F
100
AcDbEntity
  8
002
 62
     3
370
    30
100
AcDbLine
 10
1122.512176
 20
569.906837
 30
0.0
 11
1122.512176
 21
581.906837
 31
0.0
  0
LINE
  5
2C9
330
1F
100
AcDbEntity
  8
002
 62
     3
370
    30
100
AcDbLine
 10
1140.512176
 20
581.906837
 30
0.0
 11
1122.512176
 21
581.906837
 31
0.0
  0
LINE
  5
2CA
330
1F
100
AcDbEntity
  8
002
 62
     3
370
    30
100
AcDbLine
 10
1122.079176
 20
575.906837
 30
0.0
 11
1122.079176
 21
767.906437
 31
0.0
  0
LINE
  5
2CB
330
1F
100
AcDbEntity
  8
002
 62
     3
370
    30
100
AcDbLine
 10
1122.079176
 20
767.906437
 30
0.0
 11
967.079276
 21
767.906437
 31
0.0
  0
LINE
  5
2CC
330
1F
100
AcDbEntity
  8
002
 62
     3
370
    30
100
AcDbLine
 10
967.079276
 20
767.906437
 30
0.0
 11
967.079276
 21
575.906837
 31
0.0
  0
ARC
  5
2CD
330
1F
100
AcDbEntity
  8
002
 62
     3
370
    30
100
AcDbCircle
 10
962.079276
 20
575.906837
 30
0.0
 40
5.0
100
AcDbArc
 50
335.969912
 51
0.0
  0
LINE
  5
2CE
330
1F
100
AcDbEntity
  8
002
 62
     3
370
    30
100
AcDbLine
 10
966.645976
 20
581.906837
 30
0.0
 11
948.645976
 21
581.906837
 31
0.0
  0
LINE
  5
2CF
330
1F
100
AcDbEntity
  8
002
 62
     3
370
    30
100
AcDbLine
 10
1012.285576
 20
581.906837
 30
0.0
 11
1030.285176
 21
581.906837
 31
0.0
  0
LINE
  5
2D0
330
1F
100
AcDbEntity
  8
002
 62
     3
370
    30
100
AcDbLine
 10
1058.873176
 20
581.906837
 30
0.0
 11
1076.873176
 21
581.906837
 31
0.0
  0
LINE
  5
2D1
330
1F
100
AcDbEntity
  8
002
 62
     3
370
    30
100
AcDbLine
 10
1096.962176
 20
545.816237
 30
0.0
 11
1096.962176
 21
542.553837
 31
0.0
  0
ARC
  5
2D2
330
1F
100
AcDbEntity
  8
002
 62
     3
370
    30
100
AcDbCircle
 10
1117.579176
 20
495.906837
 30
0.0
 40
53.9998276015766
100
AcDbArc
 50
112.444958
 51
152.850343
  0
CIRCLE
  5
2D3
330
1F
100
AcDbEntity
  8
002
 62
     3
370
    30
100
AcDbCircle
 10
1117.579176
 20
495.906837
 30
0.0
 40
29.0
  0
ARC
  5
2D4
330
1F
100
AcDbEntity
  8
002
 62
     3
370
    30
100
AcDbCircle
 10
1154.579176
 20
537.942537
 30
0.0
 40
4.999631910451076
100
AcDbArc
 50
180.0
 51
228.65064
  0
LINE
  5
2D5
330
1F
100
AcDbEntity
  8
002
 62
     3
370
    30
100
AcDbLine
 10
1149.579176
 20
555.906837
 30
0.0
 11
939.579276
 21
555.906837
 31
0.0
  0
LINE
  5
2D6
330
1F
100
AcDbEntity
  8
002
 62
     3
370
    30
100
AcDbLine
 10
964.579276
 20
465.906837
 30
0.0
 11
964.579276
 21
433.906837
 31
0.0
  0
ARC
  5
2D7
330
1F
100
AcDbEntity
  8
002
 62
     3
370
    30
100
AcDbCircle
 10
961.579276
 20
433.906837
 30
0.0
 40
3.0
100
AcDbArc
 50
270.0
 51
0.0
  0
LINE
  5
2D8
330
1F
100
AcDbEntity
  8
002
 62
     3
370
    30
100
AcDbLine
 10
940.579276
 20
430.906837
 30
0.0
 11
1216.579176
 21
430.906837
 31
0.0
  0
LINE
  5
2D9
330
1F
100
AcDbEntity
  8
002
 62
     3
370
    30
100
AcDbLine
 10
1219.579176
 20
427.906837
 30
0.0
 11
1219.579176
 21
410.906837
 31
0.0
  0
LINE
  5
2DA
330
1F
100
AcDbEntity
  8
002
 62
     3
370
    30
100
AcDbLine
 10
1219.579176
 20
410.906837
 30
0.0
 11
937.579276
 21
410.906837
 31
0.0
  0
LINE
  5
2DB
330
1F
100
AcDbEntity
  8
002
 62
     3
370
    30
100
AcDbLine
 10
937.579276
 20
410.906837
 30
0.0
 11
937.579276
 21
427.906837
 31
0.0
  0
ARC
  5
2DC
330
1F
100
AcDbEntity
  8
002
 62
     3
370
    30
100
AcDbCircle
 10
940.579276
 20
427.906837
 30
0.0
 40
3.0
100
AcDbArc
 50
90.0
 51
180.0
  0
LINE
  5
2DD
330
1F
100
AcDbEntity
  8
002
 62
     3
370
    30
100
AcDbLine
 10
977.579276
 20
410.906837
 30
0.0
 11
977.579276
 21
404.906837
 31
0.0
  0
ARC
  5
2DE
330
1F
100
AcDbEntity
  8
002
 62
     3
370
    30
100
AcDbCircle
 10
768.910976
 20
507.306337
 30
0.0
 40
200.0000357256468
100
AcDbArc
 50
348.053544
 51
356.732514
  0
ARC
  5
2DF
330
1F
100
AcDbEntity
  8
002
 62
     3
370
    30
100
AcDbCircle
 10
959.579276
 20
465.906837
 30
0.0
 40
5.0
100
AcDbArc
 50
0.0
 51
90.0
  0
ARC
  5
2E0
330
1F
100
AcDbEntity
  8
002
 62
     3
370
    30
100
AcDbCircle
 10
1127.079176
 20
575.906837
 30
0.0
 40
5.000319210810466
100
AcDbArc
 50
180.0
 51
204.028688
  0
LINE
  5
2E1
330
1F
100
AcDbEntity
  8
002
 62
     3
370
    30
100
AcDbLine
 10
1140.512176
 20
569.906837
 30
0.0
 11
1140.512176
 21
581.906837
 31
0.0
  0
LINE
  5
2E2
330
1F
100
AcDbEntity
  8
002
 62
     3
370
    30
100
AcDbLine
 10
1047.466176
 20
722.906437
 30
0.0
 11
1041.692176
 21
722.906437
 31
0.0
  0
LINE
  5
2E3
330
1F
100
AcDbEntity
  8
002
 62
     3
370
    30
100
AcDbLine
 10
1041.692176
 20
722.906437
 30
0.0
 11
1038.806176
 21
727.906437
 31
0.0
  0
LINE
  5
2E4
330
1F
100
AcDbEntity
  8
002
 62
     3
370
    30
100
AcDbLine
 10
1038.806176
 20
727.906437
 30
0.0
 11
1041.692176
 21
732.906437
 31
0.0
  0
LINE
  5
2E5
330
1F
100
AcDbEntity
  8
002
 62
     3
370
    30
100
AcDbLine
 10
1041.692176
 20
732.906437
 30
0.0
 11
1047.466176
 21
732.906437
 31
0.0
  0
LINE
  5
2E6
330
1F
100
AcDbEntity
  8
002
 62
     3
370
    30
100
AcDbLine
 10
1047.466176
 20
732.906437
 30
0.0
 11
1050.353176
 21
727.906437
 31
0.0
  0
LINE
  5
2E7
330
1F
100
AcDbEntity
  8
002
 62
     3
370
    30
100
AcDbLine
 10
1050.353176
 20
727.906437
 30
0.0
 11
1047.466176
 21
722.906437
 31
0.0
  0
CIRCLE
  5
2E8
330
1F
100
AcDbEntity
  8
002
 62
     3
370
    30
100
AcDbCircle
 10
1044.579176
 20
727.906437
 30
0.0
 40
3.25
  0
CIRCLE
  5
2E9
330
1F
100
AcDbEntity
  8
002
 62
     3
370
    30
100
AcDbCircle
 10
1044.579176
 20
727.906437
 30
0.0
 40
2.5
  0
CIRCLE
  5
2EA
330
1F
100
AcDbEntity
  8
002
 62
     3
370
    30
100
AcDbCircle
 10
1044.579176
 20
727.906437
 30
0.0
 40
0.75
  0
CIRCLE
  5
2EB
330
1F
100
AcDbEntity
  8
002
 62
     3
370
    30
100
AcDbCircle
 10
1044.579176
 20
727.906437
 30
0.0
 40
5.0
  0
ARC
  5
2EC
330
1F
100
AcDbEntity
  8
002
 62
     3
370
    30
100
AcDbCircle
 10
1216.579176
 20
427.906837
 30
0.0
 40
3.0
100
AcDbArc
 50
0.0
 51
90.0
  0
LINE
  5
2ED
330
1F
100
AcDbEntity
  8
002
  6
CENTER
 62
    40
370
     9
100
AcDbLine
 10
1051.615176
 20
727.906437
 30
0.0
 11
1037.120176
 21
727.906437
 31
0.0
  0
LINE
  5
2EE
330
1F
100
AcDbEntity
  8
002
  6
CENTER
 62
    40
370
     9
100
AcDbLine
 10
1131.512176
 20
587.877837
 30
0.0
 11
1131.512176
 21
553.022637
 31
0.0
  0
LINE
  5
2EF
330
1F
100
AcDbEntity
  8
002
  6
CENTER
 62
    40
370
     9
100
AcDbLine
 10
1117.579176
 20
555.906837
 30
0.0
 11
1117.579176
 21
430.906837
 31
0.0
  0
LINE
  5
2F0
330
1F
100
AcDbEntity
  8
002
  6
CENTER
 62
    40
370
     9
100
AcDbLine
 10
1083.470176
 20
413.015337
 30
0.0
 11
1083.470176
 21
387.389737
 31
0.0
  0
LINE
  5
2F1
330
1F
100
AcDbEntity
  8
002
  6
DASHED
 62
    40
370
     9
100
AcDbLine
 10
1164.579176
 20
430.906837
 30
0.0
 11
1164.579176
 21
429.906837
 31
0.0
  0
LINE
  5
2F2
330
1F
100
AcDbEntity
  8
002
  6
DASHED
 62
    40
370
     9
100
AcDbLine
 10
1214.579176
 20
429.906837
 30
0.0
 11
1214.579176
 21
430.906837
 31
0.0
  0
LINE
  5
2F3
330
1F
100
AcDbEntity
  8
002
  6
CENTER
 62
    40
370
     9
100
AcDbLine
 10
1189.579176
 20
401.797637
 30
0.0
 11
1189.579176
 21
437.262337
 31
0.0
  0
LINE
  5
2F4
330
1F
100
AcDbEntity
  8
002
  6
CENTER
 62
    40
370
     9
100
AcDbLine
 10
1108.219176
 20
553.022637
 30
0.0
 11
1108.219176
 21
587.877837
 31
0.0
  0
LINE
  5
2F5
330
1F
100
AcDbEntity
  8
002
  6
CENTER
 62
    40
370
     9
100
AcDbLine
 10
1067.873176
 20
587.877837
 30
0.0
 11
1067.873176
 21
553.022637
 31
0.0
  0
LINE
  5
2F6
330
1F
100
AcDbEntity
  8
002
  6
CENTER
 62
    40
370
     9
100
AcDbLine
 10
1021.285176
 20
553.022637
 30
0.0
 11
1021.285176
 21
587.877837
 31
0.0
  0
LINE
  5
2F7
330
1F
100
AcDbEntity
  8
002
  6
CENTER
 62
    40
370
     9
100
AcDbLine
 10
980.939676
 20
587.877837
 30
0.0
 11
980.939676
 21
553.022637
 31
0.0
  0
LINE
  5
2F8
330
1F
100
AcDbEntity
  8
002
  6
CENTER
 62
    40
370
     9
100
AcDbLine
 10
957.645976
 20
553.022637
 30
0.0
 11
957.645976
 21
587.877837
 31
0.0
  0
LINE
  5
2F9
330
1F
100
AcDbEntity
  8
002
 62
    40
370
     9
100
AcDbLine
 10
951.579276
 20
511.384537
 30
0.0
 11
959.579276
 21
511.134537
 31
0.0
  0
LINE
  5
2FA
330
1F
100
AcDbEntity
  8
002
 62
    40
370
     9
100
AcDbLine
 10
951.579276
 20
505.406837
 30
0.0
 11
939.579276
 21
486.906837
 31
0.0
  0
LINE
  5
2FB
330
1F
100
AcDbEntity
  8
002
  6
CENTER
 62
    40
370
     9
100
AcDbLine
 10
937.015876
 20
495.906837
 30
0.0
 11
1196.225176
 21
495.906837
 31
0.0
  0
LINE
  5
2FC
330
1F
100
AcDbEntity
  8
002
  6
CENTER
 62
    40
370
     9
100
AcDbLine
 10
1005.688376
 20
413.015337
 30
0.0
 11
1005.688376
 21
387.389737
 31
0.0
  0
LINE
  5
2FD
330
1F
100
AcDbEntity
  8
002
  6
DASHED
 62
    40
370
     9
100
AcDbLine
 10
992.579276
 20
429.906837
 30
0.0
 11
992.579276
 21
430.906837
 31
0.0
  0
LINE
  5
2FE
330
1F
100
AcDbEntity
  8
002
  6
DASHED
 62
    40
370
     9
100
AcDbLine
 10
942.579276
 20
429.906837
 30
0.0
 11
942.579276
 21
430.906837
 31
0.0
  0
LINE
  5
2FF
330
1F
100
AcDbEntity
  8
002
  6
CENTER
 62
    40
370
     9
100
AcDbLine
 10
967.579276
 20
401.797637
 30
0.0
 11
967.579276
 21
437.262337
 31
0.0
  0
LINE
  5
300
330
1F
100
AcDbEntity
  8
002
 62
    40
370
     9
100
AcDbLine
 10
959.579276
 20
480.679137
 30
0.0
 11
951.579276
 21
480.429137
 31
0.0
  0
LINE
  5
301
330
1F
100
AcDbEntity
  8
002
 62
    40
370
     9
100
AcDbLine
 10
951.579276
 20
486.406837
 30
0.0
 11
939.579276
 21
504.906837
 31
0.0
  0
LINE
  5
302
330
1F
100
AcDbEntity
  8
002
 62
     3
370
    30
100
AcDbLine
 10
977.579176
 20
767.906437
 30
0.0
 11
977.579176
 21
770.206437
 31
0.0
  0
LINE
  5
303
330
1F
100
AcDbEntity
  8
002
 62
     3
370
    30
100
AcDbLine
 10
977.579176
 20
770.206437
 30
0.0
 11
1111.579176
 21
770.206437
 31
0.0
  0
LINE
  5
304
330
1F
100
AcDbEntity
  8
002
 62
     3
370
    30
100
AcDbLine
 10
1111.579176
 20
770.206437
 30
0.0
 11
1111.579176
 21
767.906437
 31
0.0
  0
LINE
  5
305
330
1F
100
AcDbEntity
  8
002
 62
     3
370
    30
100
AcDbLine
 10
1091.470076
 20
770.206437
 30
0.0
 11
1091.470076
 21
780.206437
 31
0.0
  0
LINE
  5
306
330
1F
100
AcDbEntity
  8
002
 62
     3
370
    30
100
AcDbLine
 10
1075.470076
 20
780.206437
 30
0.0
 11
1075.470076
 21
770.206437
 31
0.0
  0
LINE
  5
307
330
1F
100
AcDbEntity
  8
002
 62
     3
370
    30
100
AcDbLine
 10
1075.470076
 20
773.906437
 30
0.0
 11
1013.688276
 21
773.906437
 31
0.0
  0
LINE
  5
308
330
1F
100
AcDbEntity
  8
002
 62
     3
370
    30
100
AcDbLine
 10
1013.688276
 20
770.206437
 30
0.0
 11
1013.688276
 21
780.206437
 31
0.0
  0
LINE
  5
309
330
1F
100
AcDbEntity
  8
002
 62
     3
370
    30
100
AcDbLine
 10
997.688276
 20
780.206437
 30
0.0
 11
1013.688276
 21
780.206437
 31
0.0
  0
LINE
  5
30A
330
1F
100
AcDbEntity
  8
002
 62
     3
370
    30
100
AcDbLine
 10
998.279176
 20
780.206437
 30
0.0
 11
998.279176
 21
786.906437
 31
0.0
  0
LINE
  5
30B
330
1F
100
AcDbEntity
  8
002
 62
     3
370
    30
100
AcDbLine
 10
998.879176
 20
786.906437
 30
0.0
 11
998.879176
 21
787.906437
 31
0.0
  0
LINE
  5
30C
330
1F
100
AcDbEntity
  8
002
 62
     3
370
    30
100
AcDbLine
 10
998.879176
 20
787.906437
 30
0.0
 11
985.405576
 21
791.922437
 31
0.0
  0
LINE
  5
30D
330
1F
100
AcDbEntity
  8
002
 62
     3
370
    30
100
AcDbLine
 10
985.579176
 20
792.906437
 30
0.0
 11
1103.579176
 21
792.906437
 31
0.0
  0
LINE
  5
30E
330
1F
100
AcDbEntity
  8
002
 62
     3
370
    30
100
AcDbLine
 10
1103.752676
 20
791.922437
 30
0.0
 11
1090.279176
 21
787.906437
 31
0.0
  0
LINE
  5
30F
330
1F
100
AcDbEntity
  8
002
 62
     3
370
    30
100
AcDbLine
 10
1090.279176
 20
787.906437
 30
0.0
 11
998.879176
 21
787.906437
 31
0.0
  0
LINE
  5
310
330
1F
100
AcDbEntity
  8
002
 62
     3
370
    30
100
AcDbLine
 10
997.688276
 20
780.206437
 30
0.0
 11
997.688276
 21
770.206437
 31
0.0
  0
LINE
  5
311
330
1F
100
AcDbEntity
  8
002
 62
     3
370
    30
100
AcDbLine
 10
997.688276
 20
773.906437
 30
0.0
 11
990.279176
 21
773.906437
 31
0.0
  0
ARC
  5
312
330
1F
100
AcDbEntity
  8
002
 62
     3
370
    30
100
AcDbCircle
 10
990.279176
 20
775.906437
 30
0.0
 40
2.0
100
AcDbArc
 50
180.0
 51
270.0
  0
LINE
  5
313
330
1F
100
AcDbEntity
  8
002
 62
     3
370
    30
100
AcDbLine
 10
988.279176
 20
775.906437
 30
0.0
 11
988.279176
 21
784.906437
 31
0.0
  0
LINE
  5
314
330
1F
100
AcDbEntity
  8
002
 62
     3
370
    30
100
AcDbLine
 10
990.279176
 20
786.906437
 30
0.0
 11
1090.879176
 21
786.906437
 31
0.0
  0
LINE
  5
315
330
1F
100
AcDbEntity
  8
002
 62
     3
370
    30
100
AcDbLine
 10
1090.879176
 20
786.906437
 30
0.0
 11
1090.879176
 21
780.206437
 31
0.0
  0
LINE
  5
316
330
1F
100
AcDbEntity
  8
002
 62
     3
370
    30
100
AcDbLine
 10
1091.470076
 20
780.206437
 30
0.0
 11
1075.470076
 21
780.206437
 31
0.0
  0
LINE
  5
317
330
1F
100
AcDbEntity
  8
002
 62
     3
370
    30
100
AcDbLine
 10
1090.279176
 20
786.906437
 30
0.0
 11
1090.279176
 21
787.906437
 31
0.0
  0
LINE
  5
318
330
1F
100
AcDbEntity
  8
002
 62
     3
370
    30
100
AcDbLine
 10
1085.405576
 20
796.922437
 30
0.0
 11
1103.752676
 21
793.891437
 31
0.0
  0
ARC
  5
319
330
1F
100
AcDbEntity
  8
002
 62
     3
370
    30
100
AcDbCircle
 10
1103.579176
 20
792.906437
 30
0.0
 40
1.000163611615753
100
AcDbArc
 50
279.999675
 51
80.010272
  0
ARC
  5
31A
330
1F
100
AcDbEntity
  8
002
 62
     3
370
    30
100
AcDbCircle
 10
1103.579176
 20
802.906437
 30
0.0
 40
1.000163611615753
100
AcDbArc
 50
279.999675
 51
80.010272
  0
LINE
  5
31B
330
1F
100
AcDbEntity
  8
002
 62
     3
370
    30
100
AcDbLine
 10
1103.752676
 20
803.891437
 30
0.0
 11
1085.405576
 21
806.922437
 31
0.0
  0
ARC
  5
31C
330
1F
100
AcDbEntity
  8
002
 62
     3
370
    30
100
AcDbCircle
 10
1085.579176
 20
807.906437
 30
0.0
 40
0.9991961569180685
100
AcDbArc
 50
99.99537
 51
259.994678
  0
LINE
  5
31D
330
1F
100
AcDbEntity
  8
002
 62
     3
370
    30
100
AcDbLine
 10
1085.405576
 20
808.891437
 30
0.0
 11
1103.752676
 21
811.922437
 31
0.0
  0
ARC
  5
31E
330
1F
100
AcDbEntity
  8
002
 62
     3
370
    30
100
AcDbCircle
 10
1103.579176
 20
812.906437
 30
0.0
 40
1.000163611615753
100
AcDbArc
 50
279.999675
 51
80.010272
  0
LINE
  5
31F
330
1F
100
AcDbEntity
  8
002
 62
     3
370
    30
100
AcDbLine
 10
1103.752676
 20
813.891437
 30
0.0
 11
1085.405576
 21
816.922437
 31
0.0
  0
ARC
  5
320
330
1F
100
AcDbEntity
  8
002
 62
     3
370
    30
100
AcDbCircle
 10
1085.579176
 20
817.906437
 30
0.0
 40
0.9991961569180685
100
AcDbArc
 50
180.0
 51
259.994678
  0
LINE
  5
321
330
1F
100
AcDbEntity
  8
002
 62
     3
370
    30
100
AcDbLine
 10
1083.579176
 20
817.906437
 30
0.0
 11
1005.579176
 21
817.906437
 31
0.0
  0
LINE
  5
322
330
1F
100
AcDbEntity
  8
002
 62
     3
370
    30
100
AcDbLine
 10
1003.752676
 20
816.922437
 30
0.0
 11
985.405576
 21
813.891437
 31
0.0
  0
ARC
  5
323
330
1F
100
AcDbEntity
  8
002
 62
     3
370
    30
100
AcDbCircle
 10
985.579176
 20
812.906437
 30
0.0
 40
0.9991961569180685
100
AcDbArc
 50
99.99537
 51
259.994678
  0
LINE
  5
324
330
1F
100
AcDbEntity
  8
002
 62
     3
370
    30
100
AcDbLine
 10
985.405576
 20
811.922437
 30
0.0
 11
1003.752676
 21
808.891437
 31
0.0
  0
LINE
  5
325
330
1F
100
AcDbEntity
  8
002
 62
     3
370
    30
100
AcDbLine
 10
1003.752676
 20
806.922437
 30
0.0
 11
985.405576
 21
803.891437
 31
0.0
  0
ARC
  5
326
330
1F
100
AcDbEntity
  8
002
 62
     3
370
    30
100
AcDbCircle
 10
985.579176
 20
802.906437
 30
0.0
 40
0.9991961569180685
100
AcDbArc
 50
99.99537
 51
259.994678
  0
LINE
  5
327
330
1F
100
AcDbEntity
  8
002
 62
     3
370
    30
100
AcDbLine
 10
985.405576
 20
801.922437
 30
0.0
 11
1003.752676
 21
798.891437
 31
0.0
  0
ARC
  5
328
330
1F
100
AcDbEntity
  8
002
 62
     3
370
    30
100
AcDbCircle
 10
1003.579176
 20
797.906437
 30
0.0
 40
1.000163611615753
100
AcDbArc
 50
279.999675
 51
80.010272
  0
LINE
  5
329
330
1F
100
AcDbEntity
  8
002
 62
     3
370
    30
100
AcDbLine
 10
1003.752676
 20
796.922437
 30
0.0
 11
985.405576
 21
793.891437
 31
0.0
  0
ARC
  5
32A
330
1F
100
AcDbEntity
  8
002
 62
     3
370
    30
100
AcDbCircle
 10
985.579176
 20
792.906437
 30
0.0
 40
0.9991961569180685
100
AcDbArc
 50
99.99537
 51
259.994678
  0
ARC
  5
32B
330
1F
100
AcDbEntity
  8
002
 62
     3
370
    30
100
AcDbCircle
 10
990.279176
 20
784.906437
 30
0.0
 40
2.0
100
AcDbArc
 50
90.0
 51
180.0
  0
CIRCLE
  5
32C
330
1F
100
AcDbEntity
  8
002
 62
     3
370
    30
100
AcDbCircle
 10
993.279176
 20
780.406437
 30
0.0
 40
1.0
  0
LINE
  5
32D
330
1F
100
AcDbEntity
  8
002
 62
     3
370
    30
100
AcDbLine
 10
1005.579176
 20
797.906437
 30
0.0
 11
1083.579176
 21
797.906437
 31
0.0
  0
ARC
  5
32E
330
1F
100
AcDbEntity
  8
002
 62
     3
370
    30
100
AcDbCircle
 10
1085.579176
 20
797.906437
 30
0.0
 40
0.9991961569180685
100
AcDbArc
 50
99.99537
 51
259.994678
  0
LINE
  5
32F
330
1F
100
AcDbEntity
  8
002
 62
     3
370
    30
100
AcDbLine
 10
1085.405576
 20
798.891437
 30
0.0
 11
1103.752676
 21
801.922437
 31
0.0
  0
LINE
  5
330
330
1F
100
AcDbEntity
  8
002
 62
     3
370
    30
100
AcDbLine
 10
1103.579176
 20
802.906437
 30
0.0
 11
985.579176
 21
802.906437
 31
0.0
  0
LINE
  5
331
330
1F
100
AcDbEntity
  8
002
 62
     3
370
    30
100
AcDbLine
 10
985.579176
 20
812.906437
 30
0.0
 11
1103.579176
 21
812.906437
 31
0.0
  0
LINE
  5
332
330
1F
100
AcDbEntity
  8
002
 62
     3
370
    30
100
AcDbLine
 10
1083.579176
 20
807.906437
 30
0.0
 11
1005.579176
 21
807.906437
 31
0.0
  0
ARC
  5
333
330
1F
100
AcDbEntity
  8
002
 62
     3
370
    30
100
AcDbCircle
 10
1003.579176
 20
807.906437
 30
0.0
 40
1.000163611615753
100
AcDbArc
 50
279.999675
 51
80.010272
  0
ARC
  5
334
330
1F
100
AcDbEntity
  8
002
 62
     3
370
    30
100
AcDbCircle
 10
1003.579176
 20
817.906437
 30
0.0
 40
1.0
100
AcDbArc
 50
279.999675
 51
0.0
  0
LINE
  5
335
330
1F
100
AcDbEntity
  8
002
  6
CENTER
 62
    40
370
     9
100
AcDbLine
 10
1083.470076
 20
782.638437
 30
0.0
 11
1083.470076
 21
759.420437
 31
0.0
  0
LINE
  5
336
330
1F
100
AcDbEntity
  8
002
  6
CENTER
 62
    40
370
     9
100
AcDbLine
 10
1005.688276
 20
761.319437
 30
0.0
 11
1005.688276
 21
782.638437
 31
0.0
  0
LINE
  5
337
330
1F
100
AcDbEntity
  8
002
  6
CENTER
 62
    40
370
     9
100
AcDbLine
 10
995.081976
 20
780.406437
 30
0.0
 11
991.603576
 21
780.406437
 31
0.0
  0
LINE
  5
338
330
1F
100
AcDbEntity
  8
002
  6
CENTER
 62
    40
370
     9
100
AcDbLine
 10
993.279176
 20
778.950437
 30
0.0
 11
993.279176
 21
782.023437
 31
0.0
  0
LINE
  5
339
330
1F
100
AcDbEntity
  8
002
  6
PHANTOM
 62
    40
370
     9
100
AcDbLine
 10
1104.579176
 20
812.906437
 30
0.0
 11
1104.579176
 21
909.907437
 31
0.0
  0
LINE
  5
33A
330
1F
100
AcDbEntity
  8
002
  6
PHANTOM
 62
    40
370
     9
100
AcDbLine
 10
1084.579176
 20
904.907437
 30
0.0
 11
1084.579176
 21
817.906437
 31
0.0
  0
LINE
  5
33B
330
1F
100
AcDbEntity
  8
002
  6
PHANTOM
 62
    40
370
     9
100
AcDbLine
 10
1004.579176
 20
904.907437
 30
0.0
 11
1004.579176
 21
817.906437
 31
0.0
  0
LINE
  5
33C
330
1F
100
AcDbEntity
  8
002
  6
PHANTOM
 62
    40
370
     9
100
AcDbLine
 10
984.579176
 20
812.906437
 30
0.0
 11
984.579176
 21
909.907437
 31
0.0
  0
LINE
  5
33D
330
1F
100
AcDbEntity
  8
002
  6
HIDDEN
 62
    40
370
     9
100
AcDbLine
 10
992.579276
 20
429.906837
 30
0.0
 11
942.579276
 21
429.906837
 31
0.0
  0
LINE
  5
33E
330
1F
100
AcDbEntity
  8
002
  6
HIDDEN
 62
    40
370
     9
100
AcDbLine
 10
954.579276
 20
429.906837
 30
0.0
 11
954.579276
 21
410.906837
 31
0.0
  0
LINE
  5
33F
330
1F
100
AcDbEntity
  8
002
  6
HIDDEN
 62
    40
370
     9
100
AcDbLine
 10
980.579276
 20
410.906837
 30
0.0
 11
980.579276
 21
429.906837
 31
0.0
  0
LINE
  5
340
330
1F
100
AcDbEntity
  8
002
  6
HIDDEN
 62
    40
370
     9
100
AcDbLine
 10
1164.579176
 20
429.906837
 30
0.0
 11
1214.579176
 21
429.906837
 31
0.0
  0
LINE
  5
341
330
1F
100
AcDbEntity
  8
002
  6
HIDDEN
 62
    40
370
     9
100
AcDbLine
 10
1176.579176
 20
429.906837
 30
0.0
 11
1176.579176
 21
410.906837
 31
0.0
  0
LINE
  5
342
330
1F
100
AcDbEntity
  8
002
  6
HIDDEN
 62
    40
370
     9
100
AcDbLine
 10
1202.579176
 20
429.906837
 30
0.0
 11
1202.579176
 21
410.906837
 31
0.0
  0
ARC
  5
343
330
1F
100
AcDbEntity
  8
002
 62
     3
370
    30
100
AcDbCircle
 10
1003.579176
 20
904.907437
 30
0.0
 40
1.000163611615753
100
AcDbArc
 50
0.0
 51
80.010272
  0
LINE
  5
344
330
1F
100
AcDbEntity
  8
002
 62
     3
370
    30
100
AcDbLine
 10
1003.752676
 20
905.892437
 30
0.0
 11
985.405576
 21
908.922437
 31
0.0
  0
LINE
  5
345
330
1F
100
AcDbEntity
  8
002
 62
     3
370
    30
100
AcDbLine
 10
985.579176
 20
909.907437
 30
0.0
 11
1103.579176
 21
909.907437
 31
0.0
  0
LINE
  5
346
330
1F
100
AcDbEntity
  8
002
 62
     3
370
    30
100
AcDbLine
 10
1103.752676
 20
910.892437
 30
0.0
 11
1085.405576
 21
913.922437
 31
0.0
  0
LINE
  5
347
330
1F
100
AcDbEntity
  8
002
 62
     3
370
    30
100
AcDbLine
 10
1085.405576
 20
915.892437
 30
0.0
 11
1103.752676
 21
918.922437
 31
0.0
  0
ARC
  5
348
330
1F
100
AcDbEntity
  8
002
 62
     3
370
    30
100
AcDbCircle
 10
1103.579176
 20
919.907437
 30
0.0
 40
1.000163611615753
100
AcDbArc
 50
279.989728
 51
80.010272
  0
LINE
  5
349
330
1F
100
AcDbEntity
  8
002
 62
     3
370
    30
100
AcDbLine
 10
1103.752676
 20
920.892437
 30
0.0
 11
1085.405576
 21
923.922437
 31
0.0
  0
LINE
  5
34A
330
1F
100
AcDbEntity
  8
002
 62
     3
370
    30
100
AcDbLine
 10
1085.405576
 20
925.892437
 30
0.0
 11
1103.752676
 21
928.922437
 31
0.0
  0
ARC
  5
34B
330
1F
100
AcDbEntity
  8
002
 62
     3
370
    30
100
AcDbCircle
 10
1103.579176
 20
929.907437
 30
0.0
 40
1.000163611615753
100
AcDbArc
 50
279.989728
 51
80.010272
  0
LINE
  5
34C
330
1F
100
AcDbEntity
  8
002
 62
     3
370
    30
100
AcDbLine
 10
1103.752676
 20
930.892437
 30
0.0
 11
1085.405576
 21
933.922437
 31
0.0
  0
LINE
  5
34D
330
1F
100
AcDbEntity
  8
002
 62
     3
370
    30
100
AcDbLine
 10
1085.405576
 20
935.892437
 30
0.0
 11
1103.752676
 21
938.922437
 31
0.0
  0
ARC
  5
34E
330
1F
100
AcDbEntity
  8
002
 62
     3
370
    30
100
AcDbCircle
 10
1103.579176
 20
939.907437
 30
0.0
 40
1.000163611615753
100
AcDbArc
 50
279.989728
 51
80.010272
  0
LINE
  5
34F
330
1F
100
AcDbEntity
  8
002
 62
     3
370
    30
100
AcDbLine
 10
1103.752676
 20
940.892437
 30
0.0
 11
1075.279176
 21
944.907437
 31
0.0
  0
LINE
  5
350
330
1F
100
AcDbEntity
  8
002
 62
     3
370
    30
100
AcDbLine
 10
1075.279176
 20
944.907437
 30
0.0
 11
1013.879176
 21
944.907437
 31
0.0
  0
LINE
  5
351
330
1F
100
AcDbEntity
  8
002
 62
     3
370
    30
100
AcDbLine
 10
1013.879176
 20
944.907437
 30
0.0
 11
985.405576
 21
940.892437
 31
0.0
  0
ARC
  5
352
330
1F
100
AcDbEntity
  8
002
 62
     3
370
    30
100
AcDbCircle
 10
985.579176
 20
939.907437
 30
0.0
 40
1.000180963625978
100
AcDbArc
 50
99.99537
 51
260.00463
  0
LINE
  5
353
330
1F
100
AcDbEntity
  8
002
 62
     3
370
    30
100
AcDbLine
 10
985.405576
 20
938.922437
 30
0.0
 11
1003.752676
 21
935.892437
 31
0.0
  0
LINE
  5
354
330
1F
100
AcDbEntity
  8
002
 62
     3
370
    30
100
AcDbLine
 10
1003.752676
 20
933.922437
 30
0.0
 11
985.405576
 21
930.892437
 31
0.0
  0
ARC
  5
355
330
1F
100
AcDbEntity
  8
002
 62
     3
370
    30
100
AcDbCircle
 10
985.579176
 20
929.907437
 30
0.0
 40
1.000180963625978
100
AcDbArc
 50
99.99537
 51
260.00463
  0
LINE
  5
356
330
1F
100
AcDbEntity
  8
002
 62
     3
370
    30
100
AcDbLine
 10
985.405576
 20
928.922437
 30
0.0
 11
1003.752676
 21
925.892437
 31
0.0
  0
LINE
  5
357
330
1F
100
AcDbEntity
  8
002
 62
     3
370
    30
100
AcDbLine
 10
1003.752676
 20
923.922437
 30
0.0
 11
985.405576
 21
920.892437
 31
0.0
  0
ARC
  5
358
330
1F
100
AcDbEntity
  8
002
 62
     3
370
    30
100
AcDbCircle
 10
985.579176
 20
919.907437
 30
0.0
 40
1.000180963625978
100
AcDbArc
 50
99.99537
 51
260.00463
  0
LINE
  5
359
330
1F
100
AcDbEntity
  8
002
 62
     3
370
    30
100
AcDbLine
 10
985.405576
 20
918.922437
 30
0.0
 11
1003.752676
 21
915.892437
 31
0.0
  0
LINE
  5
35A
330
1F
100
AcDbEntity
  8
002
 62
     3
370
    30
100
AcDbLine
 10
1003.752676
 20
913.922437
 30
0.0
 11
985.405576
 21
910.892437
 31
0.0
  0
ARC
  5
35B
330
1F
100
AcDbEntity
  8
002
 62
     3
370
    30
100
AcDbCircle
 10
985.579176
 20
909.907437
 30
0.0
 40
1.000180963625978
100
AcDbArc
 50
99.99537
 51
260.00463
  0
LINE
  5
35C
330
1F
100
AcDbEntity
  8
002
 62
     3
370
    30
100
AcDbLine
 10
985.579176
 20
919.907437
 30
0.0
 11
1103.579176
 21
919.907437
 31
0.0
  0
LINE
  5
35D
330
1F
100
AcDbEntity
  8
002
 62
     3
370
    30
100
AcDbLine
 10
1103.579176
 20
929.907437
 30
0.0
 11
985.579176
 21
929.907437
 31
0.0
  0
LINE
  5
35E
330
1F
100
AcDbEntity
  8
002
 62
     3
370
    30
100
AcDbLine
 10
985.579176
 20
939.907437
 30
0.0
 11
1103.579176
 21
939.907437
 31
0.0
  0
ARC
  5
35F
330
1F
100
AcDbEntity
  8
002
 62
     3
370
    30
100
AcDbCircle
 10
1085.579176
 20
934.907437
 30
0.0
 40
1.000180963625978
100
AcDbArc
 50
99.99537
 51
260.00463
  0
LINE
  5
360
330
1F
100
AcDbEntity
  8
002
 62
     3
370
    30
100
AcDbLine
 10
1083.579176
 20
934.907437
 30
0.0
 11
1005.579176
 21
934.907437
 31
0.0
  0
ARC
  5
361
330
1F
100
AcDbEntity
  8
002
 62
     3
370
    30
100
AcDbCircle
 10
1003.579176
 20
934.907437
 30
0.0
 40
1.000163611615753
100
AcDbArc
 50
279.989728
 51
80.010272
  0
LINE
  5
362
330
1F
100
AcDbEntity
  8
002
 62
     3
370
    30
100
AcDbLine
 10
1005.279176
 20
945.907437
 30
0.0
 11
1075.879176
 21
945.907437
 31
0.0
  0
LINE
  5
363
330
1F
100
AcDbEntity
  8
002
 62
     3
370
    30
100
AcDbLine
 10
1075.879176
 20
945.907437
 30
0.0
 11
1075.879176
 21
958.907437
 31
0.0
  0
LINE
  5
364
330
1F
100
AcDbEntity
  8
002
 62
     3
370
    30
100
AcDbLine
 10
1075.879176
 20
958.907437
 30
0.0
 11
1005.279176
 21
958.907437
 31
0.0
  0
ARC
  5
365
330
1F
100
AcDbEntity
  8
002
 62
     3
370
    30
100
AcDbCircle
 10
1005.279176
 20
956.907437
 30
0.0
 40
2.0
100
AcDbArc
 50
90.0
 51
180.0
  0
LINE
  5
366
330
1F
100
AcDbEntity
  8
002
 62
     3
370
    30
100
AcDbLine
 10
1003.279176
 20
956.907437
 30
0.0
 11
1003.279176
 21
947.907437
 31
0.0
  0
ARC
  5
367
330
1F
100
AcDbEntity
  8
002
 62
     3
370
    30
100
AcDbCircle
 10
1005.279176
 20
947.907437
 30
0.0
 40
2.0
100
AcDbArc
 50
180.0
 51
270.0
  0
CIRCLE
  5
368
330
1F
100
AcDbEntity
  8
002
 62
     3
370
    30
100
AcDbCircle
 10
1008.279176
 20
952.407437
 30
0.0
 40
1.0
  0
LINE
  5
369
330
1F
100
AcDbEntity
  8
002
 62
     3
370
    30
100
AcDbLine
 10
1013.279176
 20
945.907437
 30
0.0
 11
1013.279176
 21
958.907437
 31
0.0
  0
LINE
  5
36A
330
1F
100
AcDbEntity
  8
002
 62
     3
370
    30
100
AcDbLine
 10
1013.879176
 20
958.907437
 30
0.0
 11
1013.879176
 21
960.907437
 31
0.0
  0
LINE
  5
36B
330
1F
100
AcDbEntity
  8
002
 62
     3
370
    30
100
AcDbLine
 10
1075.279176
 20
960.907437
 30
0.0
 11
1075.279176
 21
958.907437
 31
0.0
  0
LINE
  5
36C
330
1F
100
AcDbEntity
  8
002
 62
     3
370
    30
100
AcDbLine
 10
1075.279176
 20
960.907437
 30
0.0
 11
1013.879176
 21
960.907437
 31
0.0
  0
LINE
  5
36D
330
1F
100
AcDbEntity
  8
002
 62
     3
370
    30
100
AcDbLine
 10
1013.879176
 20
945.907437
 30
0.0
 11
1013.879176
 21
944.907437
 31
0.0
  0
LINE
  5
36E
330
1F
100
AcDbEntity
  8
002
 62
     3
370
    30
100
AcDbLine
 10
1005.579176
 20
924.907437
 30
0.0
 11
1083.579176
 21
924.907437
 31
0.0
  0
ARC
  5
36F
330
1F
100
AcDbEntity
  8
002
 62
     3
370
    30
100
AcDbCircle
 10
1085.579176
 20
924.907437
 30
0.0
 40
1.000180963625978
100
AcDbArc
 50
99.99537
 51
260.00463
  0
ARC
  5
370
330
1F
100
AcDbEntity
  8
002
 62
     3
370
    30
100
AcDbCircle
 10
1085.579176
 20
914.907437
 30
0.0
 40
1.000180963625978
100
AcDbArc
 50
99.99537
 51
260.00463
  0
LINE
  5
371
330
1F
100
AcDbEntity
  8
002
 62
     3
370
    30
100
AcDbLine
 10
1083.579176
 20
914.907437
 30
0.0
 11
1005.579176
 21
914.907437
 31
0.0
  0
ARC
  5
372
330
1F
100
AcDbEntity
  8
002
 62
     3
370
    30
100
AcDbCircle
 10
1003.579176
 20
914.907437
 30
0.0
 40
1.000163611615753
100
AcDbArc
 50
279.989728
 51
80.010272
  0
ARC
  5
373
330
1F
100
AcDbEntity
  8
002
 62
     3
370
    30
100
AcDbCircle
 10
1003.579176
 20
924.907437
 30
0.0
 40
1.000163611615753
100
AcDbArc
 50
279.989728
 51
80.010272
  0
LINE
  5
374
330
1F
100
AcDbEntity
  8
002
 62
     3
370
    30
100
AcDbLine
 10
1005.579176
 20
904.907437
 30
0.0
 11
1083.579176
 21
904.907437
 31
0.0
  0
ARC
  5
375
330
1F
100
AcDbEntity
  8
002
 62
     3
370
    30
100
AcDbCircle
 10
1085.579176
 20
904.907437
 30
0.0
 40
1.0
100
AcDbArc
 50
99.99537
 51
180.0
  0
LINE
  5
376
330
1F
100
AcDbEntity
  8
002
 62
     3
370
    30
100
AcDbLine
 10
1085.405576
 20
905.892437
 30
0.0
 11
1103.752676
 21
908.922437
 31
0.0
  0
ARC
  5
377
330
1F
100
AcDbEntity
  8
002
 62
     3
370
    30
100
AcDbCircle
 10
1103.579176
 20
909.907437
 30
0.0
 40
1.000163611615753
100
AcDbArc
 50
279.989728
 51
80.010272
  0
LINE
  5
378
330
1F
100
AcDbEntity
  8
002
 62
     3
370
    30
100
AcDbLine
 10
1075.279176
 20
944.907437
 30
0.0
 11
1075.279176
 21
945.907437
 31
0.0
  0
LINE
  5
379
330
1F
100
AcDbEntity
  8
002
  6
CENTER
 62
    40
370
     9
100
AcDbLine
 10
1008.279176
 20
955.915437
 30
0.0
 11
1008.279176
 21
949.155437
 31
0.0
  0
LINE
  5
37A
330
1F
100
AcDbEntity
  8
002
  6
CENTER
 62
    40
370
     9
100
AcDbLine
 10
1005.911376
 20
952.407437
 30
0.0
 11
1010.936476
 21
952.407437
 31
0.0
  0
LINE
  5
37B
330
1F
100
AcDbEntity
  8
002
 62
     3
370
    30
100
AcDbLine
 10
1089.129176
 20
145.906837
 30
0.0
 11
1000.029276
 21
145.906837
 31
0.0
  0
LINE
  5
37C
330
1F
100
AcDbEntity
  8
002
 62
     3
370
    30
100
AcDbLine
 10
655.316018
 20
427.906837
 30
0.0
 11
655.316018
 21
410.906837
 31
0.0
  0
LINE
  5
37D
330
1F
100
AcDbEntity
  8
002
 62
     3
370
    30
100
AcDbLine
 10
655.316018
 20
410.906837
 30
0.0
 11
373.316018
 21
410.906837
 31
0.0
  0
LINE
  5
37E
330
1F
100
AcDbEntity
  8
002
 62
     3
370
    30
100
AcDbLine
 10
373.316018
 20
410.906837
 30
0.0
 11
373.316018
 21
427.906837
 31
0.0
  0
ARC
  5
37F
330
1F
100
AcDbEntity
  8
002
 62
     3
370
    30
100
AcDbCircle
 10
376.316018
 20
427.906837
 30
0.0
 40
3.0
100
AcDbArc
 50
90.0
 51
180.0
  0
LINE
  5
380
330
1F
100
AcDbEntity
  8
002
 62
     3
370
    30
100
AcDbLine
 10
376.316018
 20
430.906837
 30
0.0
 11
652.316018
 21
430.906837
 31
0.0
  0
ARC
  5
381
330
1F
100
AcDbEntity
  8
002
 62
     3
370
    30
100
AcDbCircle
 10
652.316018
 20
427.906837
 30
0.0
 40
3.0
100
AcDbArc
 50
0.0
 51
90.0
  0
ARC
  5
382
330
1F
100
AcDbEntity
  8
002
 62
     3
370
    30
100
AcDbCircle
 10
636.794018
 20
435.906837
 30
0.0
 40
4.999564582040998
100
AcDbArc
 50
200.001807
 51
270.0
  0
LINE
  5
383
330
1F
100
AcDbEntity
  8
002
 62
     3
370
    30
100
AcDbLine
 10
632.096018
 20
434.196737
 30
0.0
 11
602.070018
 21
516.691137
 31
0.0
  0
LINE
  5
384
330
1F
100
AcDbEntity
  8
002
 62
     3
370
    30
100
AcDbLine
 10
602.070018
 20
516.691137
 30
0.0
 11
601.168018
 21
516.691137
 31
0.0
  0
ARC
  5
385
330
1F
100
AcDbEntity
  8
002
 62
     3
370
    30
100
AcDbCircle
 10
601.168018
 20
518.691137
 30
0.0
 40
1.999320144448938
100
AcDbArc
 50
205.470491
 51
270.0
  0
ARC
  5
386
330
1F
100
AcDbEntity
  8
002
 62
     3
370
    30
100
AcDbCircle
 10
582.316018
 20
506.861237
 30
0.0
 40
20.0
100
AcDbArc
 50
0.0
 51
20.69426
  0
LINE
  5
387
330
1F
100
AcDbEntity
  8
002
 62
     3
370
    30
100
AcDbLine
 10
602.316018
 20
506.861237
 30
0.0
 11
602.316018
 21
433.906837
 31
0.0
  0
ARC
  5
388
330
1F
100
AcDbEntity
  8
002
 62
     3
370
    30
100
AcDbCircle
 10
605.316018
 20
433.906837
 30
0.0
 40
3.0
100
AcDbArc
 50
180.0
 51
270.0
  0
ARC
  5
389
330
1F
100
AcDbEntity
  8
002
 62
     3
370
    30
100
AcDbCircle
 10
597.316018
 20
433.906837
 30
0.0
 40
3.0
100
AcDbArc
 50
180.0
 51
270.0
  0
LINE
  5
38A
330
1F
100
AcDbEntity
  8
002
 62
     3
370
    30
100
AcDbLine
 10
594.316018
 20
433.906837
 30
0.0
 11
594.316018
 21
518.710337
 31
0.0
  0
ARC
  5
38B
330
1F
100
AcDbEntity
  8
002
 62
     3
370
    30
100
AcDbCircle
 10
574.316018
 20
518.710337
 30
0.0
 40
20.0
100
AcDbArc
 50
0.0
 51
18.194878
  0
LINE
  5
38C
330
1F
100
AcDbEntity
  8
002
 62
     3
370
    30
100
AcDbLine
 10
593.316018
 20
527.545437
 30
0.0
 11
593.316018
 21
464.268237
 31
0.0
  0
ARC
  5
38D
330
1F
100
AcDbEntity
  8
002
 62
     3
370
    30
100
AcDbCircle
 10
553.316018
 20
495.906837
 30
0.0
 40
50.99935250804645
100
AcDbArc
 50
20.693769
 51
321.657237
  0
ARC
  5
38E
330
1F
100
AcDbEntity
  8
002
 62
     3
370
    30
100
AcDbCircle
 10
590.316018
 20
537.942537
 30
0.0
 40
5.0
100
AcDbArc
 50
180.0
 51
228.642038
  0
LINE
  5
38F
330
1F
100
AcDbEntity
  8
002
 62
     3
370
    30
100
AcDbLine
 10
585.316018
 20
537.942537
 30
0.0
 11
585.316018
 21
569.906837
 31
0.0
  0
LINE
  5
390
330
1F
100
AcDbEntity
  8
002
 62
     3
370
    30
100
AcDbLine
 10
585.316018
 20
569.906837
 30
0.0
 11
375.316018
 21
569.906837
 31
0.0
  0
LINE
  5
391
330
1F
100
AcDbEntity
  8
002
 62
     3
370
    30
100
AcDbLine
 10
375.316018
 20
569.906837
 30
0.0
 11
375.316018
 21
529.743437
 31
0.0
  0
LINE
  5
392
330
1F
100
AcDbEntity
  8
002
 62
     3
370
    30
100
AcDbLine
 10
379.022018
 20
525.906837
 30
0.0
 11
508.416018
 21
525.906837
 31
0.0
  0
ARC
  5
393
330
1F
100
AcDbEntity
  8
002
 62
     3
370
    30
100
AcDbCircle
 10
553.316018
 20
495.906837
 30
0.0
 40
54.00008238290009
100
AcDbArc
 50
112.444958
 51
152.850343
  0
LINE
  5
394
330
1F
100
AcDbEntity
  8
002
 62
     3
370
    30
100
AcDbLine
 10
532.699018
 20
545.816237
 30
0.0
 11
532.699018
 21
542.553837
 31
0.0
  0
LINE
  5
395
330
1F
100
AcDbEntity
  8
002
 62
     3
370
    30
100
AcDbLine
 10
507.950018
 20
519.208137
 30
0.0
 11
404.322018
 21
519.208137
 31
0.0
  0
ARC
  5
396
330
1F
100
AcDbEntity
  8
002
 62
     3
370
    30
100
AcDbCircle
 10
399.322018
 20
515.547837
 30
0.0
 40
5.0
100
AcDbArc
 50
0.0
 51
65.695922
  0
LINE
  5
397
330
1F
100
AcDbEntity
  8
002
 62
     3
370
    30
100
AcDbLine
 10
404.322018
 20
515.547837
 30
0.0
 11
404.322018
 21
495.906837
 31
0.0
  0
ARC
  5
398
330
1F
100
AcDbEntity
  8
002
 62
     3
370
    30
100
AcDbCircle
 10
204.647018
 20
507.306337
 30
0.0
 40
200.0006904019337
100
AcDbArc
 50
348.053586
 51
356.732515
  0
LINE
  5
399
330
1F
100
AcDbEntity
  8
002
 62
     3
370
    30
100
AcDbLine
 10
400.316018
 20
465.906837
 30
0.0
 11
400.316018
 21
433.906837
 31
0.0
  0
ARC
  5
39A
330
1F
100
AcDbEntity
  8
002
 62
     3
370
    30
100
AcDbCircle
 10
397.316018
 20
433.906837
 30
0.0
 40
3.0
100
AcDbArc
 50
270.0
 51
0.0
  0
LINE
  5
39B
330
1F
100
AcDbEntity
  8
002
 62
     3
370
    30
100
AcDbLine
 10
416.154018
 20
430.906837
 30
0.0
 11
416.154018
 21
519.208137
 31
0.0
  0
LINE
  5
39C
330
1F
100
AcDbEntity
  8
002
 62
     3
370
    30
100
AcDbLine
 10
431.698018
 20
519.208137
 30
0.0
 11
431.698018
 21
430.906837
 31
0.0
  0
LINE
  5
39D
330
1F
100
AcDbEntity
  8
002
 62
     3
370
    30
100
AcDbLine
 10
502.316018
 20
433.906837
 30
0.0
 11
502.316018
 21
495.906837
 31
0.0
  0
CIRCLE
  5
39E
330
1F
100
AcDbEntity
  8
002
 62
     3
370
    30
100
AcDbCircle
 10
553.316018
 20
495.906837
 30
0.0
 40
29.0
  0
ARC
  5
39F
330
1F
100
AcDbEntity
  8
002
 62
     3
370
    30
100
AcDbCircle
 10
579.316018
 20
471.007037
 30
0.0
 40
14.99998962966305
100
AcDbArc
 50
338.769945
 51
0.0
  0
LINE
  5
3A0
330
1F
100
AcDbEntity
  8
002
 62
     3
370
    30
100
AcDbLine
 10
585.316018
 20
555.906837
 30
0.0
 11
375.316018
 21
555.906837
 31
0.0
  0
LINE
  5
3A1
330
1F
100
AcDbEntity
  8
002
 62
     3
370
    30
100
AcDbLine
 10
384.382018
 20
569.906837
 30
0.0
 11
384.382018
 21
581.906837
 31
0.0
  0
LINE
  5
3A2
330
1F
100
AcDbEntity
  8
002
 62
     3
370
    30
100
AcDbLine
 10
402.382018
 20
581.906837
 30
0.0
 11
384.382018
 21
581.906837
 31
0.0
  0
LINE
  5
3A3
330
1F
100
AcDbEntity
  8
002
 62
     3
370
    30
100
AcDbLine
 10
402.382018
 20
581.906837
 30
0.0
 11
402.382018
 21
569.906837
 31
0.0
  0
LINE
  5
3A4
330
1F
100
AcDbEntity
  8
002
 62
     3
370
    30
100
AcDbLine
 10
402.382018
 20
570.906837
 30
0.0
 11
407.676018
 21
570.906837
 31
0.0
  0
LINE
  5
3A5
330
1F
100
AcDbEntity
  8
002
 62
     3
370
    30
100
AcDbLine
 10
407.676018
 20
569.906837
 30
0.0
 11
407.676018
 21
581.906837
 31
0.0
  0
LINE
  5
3A6
330
1F
100
AcDbEntity
  8
002
 62
     3
370
    30
100
AcDbLine
 10
425.676018
 20
581.906837
 30
0.0
 11
407.676018
 21
581.906837
 31
0.0
  0
ARC
  5
3A7
330
1F
100
AcDbEntity
  8
002
 62
     3
370
    30
100
AcDbCircle
 10
397.816018
 20
575.906837
 30
0.0
 40
4.999405885702655
100
AcDbArc
 50
335.966645
 51
0.0
  0
LINE
  5
3A8
330
1F
100
AcDbEntity
  8
002
 62
     3
370
    30
100
AcDbLine
 10
402.816018
 20
575.906837
 30
0.0
 11
402.816018
 21
767.906437
 31
0.0
  0
LINE
  5
3A9
330
1F
100
AcDbEntity
  8
002
 62
     3
370
    30
100
AcDbLine
 10
402.816018
 20
767.906437
 30
0.0
 11
557.816018
 21
767.906437
 31
0.0
  0
LINE
  5
3AA
330
1F
100
AcDbEntity
  8
002
 62
     3
370
    30
100
AcDbLine
 10
557.816018
 20
767.906437
 30
0.0
 11
557.816018
 21
575.906837
 31
0.0
  0
ARC
  5
3AB
330
1F
100
AcDbEntity
  8
002
 62
     3
370
    30
100
AcDbCircle
 10
562.816018
 20
575.906837
 30
0.0
 40
5.0
100
AcDbArc
 50
180.0
 51
204.028688
  0
LINE
  5
3AC
330
1F
100
AcDbEntity
  8
002
 62
     3
370
    30
100
AcDbLine
 10
558.249018
 20
570.906837
 30
0.0
 11
552.955018
 21
570.906837
 31
0.0
  0
LINE
  5
3AD
330
1F
100
AcDbEntity
  8
002
 62
     3
370
    30
100
AcDbLine
 10
552.955018
 20
569.906837
 30
0.0
 11
552.955018
 21
581.906837
 31
0.0
  0
LINE
  5
3AE
330
1F
100
AcDbEntity
  8
002
 62
     3
370
    30
100
AcDbLine
 10
534.955018
 20
581.906837
 30
0.0
 11
552.955018
 21
581.906837
 31
0.0
  0
LINE
  5
3AF
330
1F
100
AcDbEntity
  8
002
 62
     3
370
    30
100
AcDbLine
 10
558.249018
 20
581.906837
 30
0.0
 11
558.249018
 21
569.906837
 31
0.0
  0
LINE
  5
3B0
330
1F
100
AcDbEntity
  8
002
 62
     3
370
    30
100
AcDbLine
 10
576.249018
 20
581.906837
 30
0.0
 11
558.249018
 21
581.906837
 31
0.0
  0
LINE
  5
3B1
330
1F
100
AcDbEntity
  8
002
 62
     3
370
    30
100
AcDbLine
 10
576.249018
 20
581.906837
 30
0.0
 11
576.249018
 21
569.906837
 31
0.0
  0
LINE
  5
3B2
330
1F
100
AcDbEntity
  8
002
 62
     3
370
    30
100
AcDbLine
 10
534.955018
 20
569.906837
 30
0.0
 11
534.955018
 21
581.906837
 31
0.0
  0
LINE
  5
3B3
330
1F
100
AcDbEntity
  8
002
 62
     3
370
    30
100
AcDbLine
 10
534.955018
 20
570.906837
 30
0.0
 11
512.609018
 21
570.906837
 31
0.0
  0
LINE
  5
3B4
330
1F
100
AcDbEntity
  8
002
 62
     3
370
    30
100
AcDbLine
 10
512.609018
 20
569.906837
 30
0.0
 11
512.609018
 21
581.906837
 31
0.0
  0
LINE
  5
3B5
330
1F
100
AcDbEntity
  8
002
 62
     3
370
    30
100
AcDbLine
 10
494.609018
 20
581.906837
 30
0.0
 11
512.609018
 21
581.906837
 31
0.0
  0
LINE
  5
3B6
330
1F
100
AcDbEntity
  8
002
 62
     3
370
    30
100
AcDbLine
 10
494.609018
 20
581.906837
 30
0.0
 11
494.609018
 21
569.906837
 31
0.0
  0
LINE
  5
3B7
330
1F
100
AcDbEntity
  8
002
 62
     3
370
    30
100
AcDbLine
 10
494.609018
 20
570.906837
 30
0.0
 11
466.022018
 21
570.906837
 31
0.0
  0
LINE
  5
3B8
330
1F
100
AcDbEntity
  8
002
 62
     3
370
    30
100
AcDbLine
 10
466.022018
 20
569.906837
 30
0.0
 11
466.022018
 21
581.906837
 31
0.0
  0
LINE
  5
3B9
330
1F
100
AcDbEntity
  8
002
 62
     3
370
    30
100
AcDbLine
 10
448.022018
 20
581.906837
 30
0.0
 11
466.022018
 21
581.906837
 31
0.0
  0
LINE
  5
3BA
330
1F
100
AcDbEntity
  8
002
 62
     3
370
    30
100
AcDbLine
 10
448.022018
 20
581.906837
 30
0.0
 11
448.022018
 21
569.906837
 31
0.0
  0
LINE
  5
3BB
330
1F
100
AcDbEntity
  8
002
 62
     3
370
    30
100
AcDbLine
 10
448.022018
 20
570.906837
 30
0.0
 11
425.676018
 21
570.906837
 31
0.0
  0
LINE
  5
3BC
330
1F
100
AcDbEntity
  8
002
 62
     3
370
    30
100
AcDbLine
 10
425.676018
 20
569.906837
 30
0.0
 11
425.676018
 21
581.906837
 31
0.0
  0
LINE
  5
3BD
330
1F
100
AcDbEntity
  8
002
 62
     3
370
    30
100
AcDbLine
 10
399.322018
 20
520.547837
 30
0.0
 11
395.316018
 21
520.547837
 31
0.0
  0
LINE
  5
3BE
330
1F
100
AcDbEntity
  8
002
 62
     3
370
    30
100
AcDbLine
 10
395.316018
 20
516.711237
 30
0.0
 11
395.316018
 21
470.906837
 31
0.0
  0
ARC
  5
3BF
330
1F
100
AcDbEntity
  8
002
 62
     3
370
    30
100
AcDbCircle
 10
395.316018
 20
465.906837
 30
0.0
 40
5.0
100
AcDbArc
 50
0.0
 51
90.0
  0
LINE
  5
3C0
330
1F
100
AcDbEntity
  8
002
 62
     3
370
    30
100
AcDbLine
 10
395.316018
 20
479.238737
 30
0.0
 11
387.316018
 21
478.988737
 31
0.0
  0
LINE
  5
3C1
330
1F
100
AcDbEntity
  8
002
 62
     3
370
    30
100
AcDbLine
 10
387.316018
 20
478.988737
 30
0.0
 11
387.316018
 21
512.824837
 31
0.0
  0
LINE
  5
3C2
330
1F
100
AcDbEntity
  8
002
 62
     3
370
    30
100
AcDbLine
 10
387.316018
 20
512.824837
 30
0.0
 11
395.316018
 21
512.574837
 31
0.0
  0
LINE
  5
3C3
330
1F
100
AcDbEntity
  8
002
 62
     3
370
    30
100
AcDbLine
 10
391.610018
 20
521.540837
 30
0.0
 11
379.022018
 21
524.913837
 31
0.0
  0
ARC
  5
3C4
330
1F
100
AcDbEntity
  8
002
 62
     3
370
    30
100
AcDbCircle
 10
380.316018
 20
529.743437
 30
0.0
 40
5.0
100
AcDbArc
 50
180.0
 51
255.000968
  0
ARC
  5
3C5
330
1F
100
AcDbEntity
  8
002
 62
     3
370
    30
100
AcDbCircle
 10
390.316018
 20
516.711237
 30
0.0
 40
5.0
100
AcDbArc
 50
0.0
 51
75.000968
  0
LINE
  5
3C6
330
1F
100
AcDbEntity
  8
002
 62
     3
370
    30
100
AcDbLine
 10
387.316018
 20
505.406837
 30
0.0
 11
375.316018
 21
504.906837
 31
0.0
  0
LINE
  5
3C7
330
1F
100
AcDbEntity
  8
002
 62
     3
370
    30
100
AcDbLine
 10
375.316018
 20
504.906837
 30
0.0
 11
375.316018
 21
486.906837
 31
0.0
  0
LINE
  5
3C8
330
1F
100
AcDbEntity
  8
002
 62
     3
370
    30
100
AcDbLine
 10
375.316018
 20
486.906837
 30
0.0
 11
387.316018
 21
486.406837
 31
0.0
  0
CIRCLE
  5
3C9
330
1F
100
AcDbEntity
  8
002
 62
     3
370
    30
100
AcDbCircle
 10
480.316018
 20
495.906837
 30
0.0
 40
10.0
  0
LINE
  5
3CA
330
1F
100
AcDbEntity
  8
002
 62
     3
370
    30
100
AcDbLine
 10
474.542018
 20
495.906837
 30
0.0
 11
477.429018
 21
500.906837
 31
0.0
  0
LINE
  5
3CB
330
1F
100
AcDbEntity
  8
002
 62
     3
370
    30
100
AcDbLine
 10
477.429018
 20
500.906837
 30
0.0
 11
483.203018
 21
500.906837
 31
0.0
  0
LINE
  5
3CC
330
1F
100
AcDbEntity
  8
002
 62
     3
370
    30
100
AcDbLine
 10
483.203018
 20
500.906837
 30
0.0
 11
486.089018
 21
495.906837
 31
0.0
  0
LINE
  5
3CD
330
1F
100
AcDbEntity
  8
002
 62
     3
370
    30
100
AcDbLine
 10
486.089018
 20
495.906837
 30
0.0
 11
483.203018
 21
490.906837
 31
0.0
  0
LINE
  5
3CE
330
1F
100
AcDbEntity
  8
002
 62
     3
370
    30
100
AcDbLine
 10
483.203018
 20
490.906837
 30
0.0
 11
477.429018
 21
490.906837
 31
0.0
  0
LINE
  5
3CF
330
1F
100
AcDbEntity
  8
002
 62
     3
370
    30
100
AcDbLine
 10
477.429018
 20
490.906837
 30
0.0
 11
474.542018
 21
495.906837
 31
0.0
  0
CIRCLE
  5
3D0
330
1F
100
AcDbEntity
  8
002
 62
     3
370
    30
100
AcDbCircle
 10
480.316018
 20
495.906837
 30
0.0
 40
5.0
  0
CIRCLE
  5
3D1
330
1F
100
AcDbEntity
  8
002
 62
     3
370
    30
100
AcDbCircle
 10
480.316018
 20
495.906837
 30
0.0
 40
3.25
  0
CIRCLE
  5
3D2
330
1F
100
AcDbEntity
  8
002
 62
     3
370
    30
100
AcDbCircle
 10
480.316018
 20
495.906837
 30
0.0
 40
2.5
  0
CIRCLE
  5
3D3
330
1F
100
AcDbEntity
  8
002
 62
     3
370
    30
100
AcDbCircle
 10
480.316018
 20
495.906837
 30
0.0
 40
0.75
  0
LINE
  5
3D4
330
1F
100
AcDbEntity
  8
002
 62
     3
370
    30
100
AcDbLine
 10
505.266018
 20
520.547837
 30
0.0
 11
507.950018
 21
519.208137
 31
0.0
  0
ARC
  5
3D5
330
1F
100
AcDbEntity
  8
002
 62
     3
370
    30
100
AcDbCircle
 10
499.316018
 20
433.906837
 30
0.0
 40
3.0
100
AcDbArc
 50
270.0
 51
0.0
  0
LINE
  5
3D6
330
1F
100
AcDbEntity
  8
002
 62
     3
370
    30
100
AcDbLine
 10
477.429018
 20
722.906437
 30
0.0
 11
483.203018
 21
722.906437
 31
0.0
  0
LINE
  5
3D7
330
1F
100
AcDbEntity
  8
002
 62
     3
370
    30
100
AcDbLine
 10
483.203018
 20
722.906437
 30
0.0
 11
486.089018
 21
727.906437
 31
0.0
  0
LINE
  5
3D8
330
1F
100
AcDbEntity
  8
002
 62
     3
370
    30
100
AcDbLine
 10
486.089018
 20
727.906437
 30
0.0
 11
483.203018
 21
732.906437
 31
0.0
  0
LINE
  5
3D9
330
1F
100
AcDbEntity
  8
002
 62
     3
370
    30
100
AcDbLine
 10
483.203018
 20
732.906437
 30
0.0
 11
477.429018
 21
732.906437
 31
0.0
  0
LINE
  5
3DA
330
1F
100
AcDbEntity
  8
002
 62
     3
370
    30
100
AcDbLine
 10
477.429018
 20
732.906437
 30
0.0
 11
474.542018
 21
727.906437
 31
0.0
  0
LINE
  5
3DB
330
1F
100
AcDbEntity
  8
002
 62
     3
370
    30
100
AcDbLine
 10
474.542018
 20
727.906437
 30
0.0
 11
477.429018
 21
722.906437
 31
0.0
  0
CIRCLE
  5
3DC
330
1F
100
AcDbEntity
  8
002
 62
     3
370
    30
100
AcDbCircle
 10
480.316018
 20
727.906437
 30
0.0
 40
3.25
  0
CIRCLE
  5
3DD
330
1F
100
AcDbEntity
  8
002
 62
     3
370
    30
100
AcDbCircle
 10
480.316018
 20
727.906437
 30
0.0
 40
2.5
  0
CIRCLE
  5
3DE
330
1F
100
AcDbEntity
  8
002
 62
     3
370
    30
100
AcDbCircle
 10
480.316018
 20
727.906437
 30
0.0
 40
0.75
  0
CIRCLE
  5
3DF
330
1F
100
AcDbEntity
  8
002
 62
     3
370
    30
100
AcDbCircle
 10
480.316018
 20
727.906437
 30
0.0
 40
5.0
  0
LINE
  5
3E0
330
1F
100
AcDbEntity
  8
002
  6
CENTER
 62
    40
370
     9
100
AcDbLine
 10
487.775018
 20
727.906437
 30
0.0
 11
473.280018
 21
727.906437
 31
0.0
  0
LINE
  5
3E1
330
1F
100
AcDbEntity
  8
002
  6
CENTER
 62
    40
370
     9
100
AcDbLine
 10
457.022018
 20
587.877837
 30
0.0
 11
457.022018
 21
553.022637
 31
0.0
  0
LINE
  5
3E2
330
1F
100
AcDbEntity
  8
002
  6
CENTER
 62
    40
370
     9
100
AcDbLine
 10
416.676018
 20
553.022637
 30
0.0
 11
416.676018
 21
587.877837
 31
0.0
  0
LINE
  5
3E3
330
1F
100
AcDbEntity
  8
002
  6
CENTER
 62
    40
370
     9
100
AcDbLine
 10
393.382018
 20
587.877837
 30
0.0
 11
393.382018
 21
553.022637
 31
0.0
  0
LINE
  5
3E4
330
1F
100
AcDbEntity
  8
002
 62
    40
370
     9
100
AcDbLine
 10
395.316018
 20
511.134537
 30
0.0
 11
387.316018
 21
511.384537
 31
0.0
  0
LINE
  5
3E5
330
1F
100
AcDbEntity
  8
002
 62
    40
370
     9
100
AcDbLine
 10
387.316018
 20
505.406837
 30
0.0
 11
375.316018
 21
486.906837
 31
0.0
  0
LINE
  5
3E6
330
1F
100
AcDbEntity
  8
002
  6
CENTER
 62
    40
370
     9
100
AcDbLine
 10
372.752018
 20
495.906837
 30
0.0
 11
631.961018
 21
495.906837
 31
0.0
  0
LINE
  5
3E7
330
1F
100
AcDbEntity
  8
002
  6
CENTER
 62
    40
370
     9
100
AcDbLine
 10
503.609018
 20
553.022637
 30
0.0
 11
503.609018
 21
587.877837
 31
0.0
  0
LINE
  5
3E8
330
1F
100
AcDbEntity
  8
002
  6
CENTER
 62
    40
370
     9
100
AcDbLine
 10
543.955018
 20
587.877837
 30
0.0
 11
543.955018
 21
553.022637
 31
0.0
  0
LINE
  5
3E9
330
1F
100
AcDbEntity
  8
002
  6
CENTER
 62
    40
370
     9
100
AcDbLine
 10
553.316018
 20
555.906837
 30
0.0
 11
553.316018
 21
430.906837
 31
0.0
  0
LINE
  5
3EA
330
1F
100
AcDbEntity
  8
002
  6
DASHED
 62
    40
370
     9
100
AcDbLine
 10
600.316018
 20
430.906837
 30
0.0
 11
600.316018
 21
429.906837
 31
0.0
  0
LINE
  5
3EB
330
1F
100
AcDbEntity
  8
002
  6
DASHED
 62
    40
370
     9
100
AcDbLine
 10
650.316018
 20
429.906837
 30
0.0
 11
650.316018
 21
430.906837
 31
0.0
  0
LINE
  5
3EC
330
1F
100
AcDbEntity
  8
002
  6
CENTER
 62
    40
370
     9
100
AcDbLine
 10
625.316018
 20
401.797637
 30
0.0
 11
625.316018
 21
437.262337
 31
0.0
  0
LINE
  5
3ED
330
1F
100
AcDbEntity
  8
002
  6
DASHED
 62
    40
370
     9
100
AcDbLine
 10
378.316018
 20
429.906837
 30
0.0
 11
378.316018
 21
430.906837
 31
0.0
  0
LINE
  5
3EE
330
1F
100
AcDbEntity
  8
002
  6
CENTER
 62
    40
370
     9
100
AcDbLine
 10
403.316018
 20
401.797637
 30
0.0
 11
403.316018
 21
437.262337
 31
0.0
  0
LINE
  5
3EF
330
1F
100
AcDbEntity
  8
002
  6
DASHED
 62
    40
370
     9
100
AcDbLine
 10
428.316018
 20
429.906837
 30
0.0
 11
428.316018
 21
430.906837
 31
0.0
  0
LINE
  5
3F0
330
1F
100
AcDbEntity
  8
002
 62
    40
370
     9
100
AcDbLine
 10
395.316018
 20
480.679137
 30
0.0
 11
387.316018
 21
480.429137
 31
0.0
  0
LINE
  5
3F1
330
1F
100
AcDbEntity
  8
002
 62
    40
370
     9
100
AcDbLine
 10
387.316018
 20
486.406837
 30
0.0
 11
375.316018
 21
504.906837
 31
0.0
  0
LINE
  5
3F2
330
1F
100
AcDbEntity
  8
002
  6
CENTER
 62
    40
370
     9
100
AcDbLine
 10
567.249018
 20
553.022637
 30
0.0
 11
567.249018
 21
587.877837
 31
0.0
  0
LINE
  5
3F3
330
1F
100
AcDbEntity
  8
002
  6
HIDDEN
 62
    40
370
     9
100
AcDbLine
 10
390.316018
 20
429.906837
 30
0.0
 11
390.316018
 21
410.906837
 31
0.0
  0
LINE
  5
3F4
330
1F
100
AcDbEntity
  8
002
  6
HIDDEN
 62
    40
370
     9
100
AcDbLine
 10
428.316018
 20
429.906837
 30
0.0
 11
378.316018
 21
429.906837
 31
0.0
  0
LINE
  5
3F5
330
1F
100
AcDbEntity
  8
002
  6
HIDDEN
 62
    40
370
     9
100
AcDbLine
 10
416.316018
 20
429.906837
 30
0.0
 11
416.316018
 21
410.906837
 31
0.0
  0
LINE
  5
3F6
330
1F
100
AcDbEntity
  8
002
  6
HIDDEN
 62
    40
370
     9
100
AcDbLine
 10
612.316018
 20
429.906837
 30
0.0
 11
612.316018
 21
410.906837
 31
0.0
  0
LINE
  5
3F7
330
1F
100
AcDbEntity
  8
002
  6
HIDDEN
 62
    40
370
     9
100
AcDbLine
 10
638.316018
 20
429.906837
 30
0.0
 11
638.316018
 21
410.906837
 31
0.0
  0
LINE
  5
3F8
330
1F
100
AcDbEntity
  8
002
  6
HIDDEN
 62
    40
370
     9
100
AcDbLine
 10
600.316018
 20
429.906837
 30
0.0
 11
650.316018
 21
429.906837
 31
0.0
  0
LINE
  5
3F9
330
1F
100
AcDbEntity
  8
002
 62
     3
370
    30
100
AcDbLine
 10
511.207018
 20
404.906837
 30
0.0
 11
511.207018
 21
394.906837
 31
0.0
  0
LINE
  5
3FA
330
1F
100
AcDbEntity
  8
002
 62
     3
370
    30
100
AcDbLine
 10
527.207018
 20
394.906837
 30
0.0
 11
511.207018
 21
394.906837
 31
0.0
  0
LINE
  5
3FB
330
1F
100
AcDbEntity
  8
002
 62
     3
370
    30
100
AcDbLine
 10
449.425218
 20
394.906837
 30
0.0
 11
449.425218
 21
404.906837
 31
0.0
  0
LINE
  5
3FC
330
1F
100
AcDbEntity
  8
002
 62
     3
370
    30
100
AcDbLine
 10
449.425218
 20
394.906837
 30
0.0
 11
433.425218
 21
394.906837
 31
0.0
  0
LINE
  5
3FD
330
1F
100
AcDbEntity
  8
002
 62
     3
370
    30
100
AcDbLine
 10
433.425218
 20
394.906837
 30
0.0
 11
433.425218
 21
404.906837
 31
0.0
  0
LINE
  5
3FE
330
1F
100
AcDbEntity
  8
002
 62
     3
370
    30
100
AcDbLine
 10
413.316118
 20
404.906837
 30
0.0
 11
547.316018
 21
404.906837
 31
0.0
  0
LINE
  5
3FF
330
1F
100
AcDbEntity
  8
002
 62
     3
370
    30
100
AcDbLine
 10
547.316018
 20
404.906837
 30
0.0
 11
547.316018
 21
410.906837
 31
0.0
  0
LINE
  5
400
330
1F
100
AcDbEntity
  8
002
 62
     3
370
    30
100
AcDbLine
 10
527.207018
 20
404.906837
 30
0.0
 11
527.207018
 21
394.906837
 31
0.0
  0
LINE
  5
401
330
1F
100
AcDbEntity
  8
002
 62
     3
370
    30
100
AcDbLine
 10
413.316118
 20
410.906837
 30
0.0
 11
413.316118
 21
404.906837
 31
0.0
  0
LINE
  5
402
330
1F
100
AcDbEntity
  8
002
  6
CENTER
 62
    40
370
     9
100
AcDbLine
 10
519.207018
 20
413.015337
 30
0.0
 11
519.207018
 21
387.389737
 31
0.0
  0
LINE
  5
403
330
1F
100
AcDbEntity
  8
002
  6
CENTER
 62
    40
370
     9
100
AcDbLine
 10
441.425218
 20
413.015337
 30
0.0
 11
441.425218
 21
387.389737
 31
0.0
  0
LINE
  5
404
330
1F
100
AcDbEntity
  8
002
 62
     3
370
    30
100
AcDbLine
 10
524.866018
 20
145.906837
 30
0.0
 11
435.766118
 21
145.906837
 31
0.0
  0
LINE
  5
405
330
1F
100
AcDbEntity
  8
002
 62
     3
370
    30
100
AcDbLine
 10
1596.88658
 20
427.906837
 30
0.0
 11
1596.88658
 21
410.906837
 31
0.0
  0
LINE
  5
406
330
1F
100
AcDbEntity
  8
002
 62
     3
370
    30
100
AcDbLine
 10
1596.88658
 20
410.906837
 30
0.0
 11
1314.88658
 21
410.906837
 31
0.0
  0
LINE
  5
407
330
1F
100
AcDbEntity
  8
002
 62
     3
370
    30
100
AcDbLine
 10
1314.88658
 20
410.906837
 30
0.0
 11
1314.88658
 21
427.906837
 31
0.0
  0
ARC
  5
408
330
1F
100
AcDbEntity
  8
002
 62
     3
370
    30
100
AcDbCircle
 10
1317.88658
 20
427.906837
 30
0.0
 40
3.0
100
AcDbArc
 50
90.0
 51
180.0
  0
LINE
  5
409
330
1F
100
AcDbEntity
  8
002
 62
     3
370
    30
100
AcDbLine
 10
1317.88658
 20
430.906837
 30
0.0
 11
1593.88658
 21
430.906837
 31
0.0
  0
ARC
  5
40A
330
1F
100
AcDbEntity
  8
002
 62
     3
370
    30
100
AcDbCircle
 10
1593.88658
 20
427.906837
 30
0.0
 40
3.0
100
AcDbArc
 50
0.0
 51
90.0
  0
ARC
  5
40B
330
1F
100
AcDbEntity
  8
002
 62
     3
370
    30
100
AcDbCircle
 10
1578.36458
 20
435.906837
 30
0.0
 40
4.999564582040998
100
AcDbArc
 50
200.001807
 51
270.0
  0
LINE
  5
40C
330
1F
100
AcDbEntity
  8
002
 62
     3
370
    30
100
AcDbLine
 10
1573.66658
 20
434.196737
 30
0.0
 11
1543.64058
 21
516.691137
 31
0.0
  0
LINE
  5
40D
330
1F
100
AcDbEntity
  8
002
 62
     3
370
    30
100
AcDbLine
 10
1543.64058
 20
516.691137
 30
0.0
 11
1542.73858
 21
516.691137
 31
0.0
  0
ARC
  5
40E
330
1F
100
AcDbEntity
  8
002
 62
     3
370
    30
100
AcDbCircle
 10
1542.73858
 20
518.691137
 30
0.0
 40
1.999320144448938
100
AcDbArc
 50
205.470491
 51
270.0
  0
ARC
  5
40F
330
1F
100
AcDbEntity
  8
002
 62
     3
370
    30
100
AcDbCircle
 10
1523.88658
 20
506.861237
 30
0.0
 40
20.0
100
AcDbArc
 50
0.0
 51
20.69426
  0
LINE
  5
410
330
1F
100
AcDbEntity
  8
002
 62
     3
370
    30
100
AcDbLine
 10
1543.88658
 20
506.861237
 30
0.0
 11
1543.88658
 21
433.906837
 31
0.0
  0
ARC
  5
411
330
1F
100
AcDbEntity
  8
002
 62
     3
370
    30
100
AcDbCircle
 10
1546.88658
 20
433.906837
 30
0.0
 40
3.0
100
AcDbArc
 50
180.0
 51
270.0
  0
ARC
  5
412
330
1F
100
AcDbEntity
  8
002
 62
     3
370
    30
100
AcDbCircle
 10
1538.88658
 20
433.906837
 30
0.0
 40
3.0
100
AcDbArc
 50
180.0
 51
270.0
  0
LINE
  5
413
330
1F
100
AcDbEntity
  8
002
 62
     3
370
    30
100
AcDbLine
 10
1535.88658
 20
433.906837
 30
0.0
 11
1535.88658
 21
518.710337
 31
0.0
  0
ARC
  5
414
330
1F
100
AcDbEntity
  8
002
 62
     3
370
    30
100
AcDbCircle
 10
1515.88658
 20
518.710337
 30
0.0
 40
20.0
100
AcDbArc
 50
0.0
 51
18.194878
  0
LINE
  5
415
330
1F
100
AcDbEntity
  8
002
 62
     3
370
    30
100
AcDbLine
 10
1534.88658
 20
527.545437
 30
0.0
 11
1534.88658
 21
464.268237
 31
0.0
  0
ARC
  5
416
330
1F
100
AcDbEntity
  8
002
 62
     3
370
    30
100
AcDbCircle
 10
1494.88658
 20
495.906837
 30
0.0
 40
50.99935250804645
100
AcDbArc
 50
20.693769
 51
321.657237
  0
ARC
  5
417
330
1F
100
AcDbEntity
  8
002
 62
     3
370
    30
100
AcDbCircle
 10
1531.88658
 20
537.942537
 30
0.0
 40
5.0
100
AcDbArc
 50
180.0
 51
228.642038
  0
LINE
  5
418
330
1F
100
AcDbEntity
  8
002
 62
     3
370
    30
100
AcDbLine
 10
1526.88658
 20
537.942537
 30
0.0
 11
1526.88658
 21
569.906837
 31
0.0
  0
LINE
  5
419
330
1F
100
AcDbEntity
  8
002
 62
     3
370
    30
100
AcDbLine
 10
1526.88658
 20
569.906837
 30
0.0
 11
1316.88658
 21
569.906837
 31
0.0
  0
LINE
  5
41A
330
1F
100
AcDbEntity
  8
002
 62
     3
370
    30
100
AcDbLine
 10
1316.88658
 20
569.906837
 30
0.0
 11
1316.88658
 21
529.743437
 31
0.0
  0
LINE
  5
41B
330
1F
100
AcDbEntity
  8
002
 62
     3
370
    30
100
AcDbLine
 10
1320.59258
 20
525.906837
 30
0.0
 11
1449.98658
 21
525.906837
 31
0.0
  0
ARC
  5
41C
330
1F
100
AcDbEntity
  8
002
 62
     3
370
    30
100
AcDbCircle
 10
1494.88658
 20
495.906837
 30
0.0
 40
54.00008238290009
100
AcDbArc
 50
112.444958
 51
152.850343
  0
LINE
  5
41D
330
1F
100
AcDbEntity
  8
002
 62
     3
370
    30
100
AcDbLine
 10
1474.26958
 20
545.816237
 30
0.0
 11
1474.26958
 21
542.553837
 31
0.0
  0
LINE
  5
41E
330
1F
100
AcDbEntity
  8
002
 62
     3
370
    30
100
AcDbLine
 10
1449.52058
 20
519.208137
 30
0.0
 11
1345.89258
 21
519.208137
 31
0.0
  0
ARC
  5
41F
330
1F
100
AcDbEntity
  8
002
 62
     3
370
    30
100
AcDbCircle
 10
1340.89258
 20
515.547837
 30
0.0
 40
5.0
100
AcDbArc
 50
0.0
 51
65.695922
  0
LINE
  5
420
330
1F
100
AcDbEntity
  8
002
 62
     3
370
    30
100
AcDbLine
 10
1345.89258
 20
515.547837
 30
0.0
 11
1345.89258
 21
495.906837
 31
0.0
  0
ARC
  5
421
330
1F
100
AcDbEntity
  8
002
 62
     3
370
    30
100
AcDbCircle
 10
1146.21758
 20
507.306337
 30
0.0
 40
200.0006904019337
100
AcDbArc
 50
348.053586
 51
356.732515
  0
LINE
  5
422
330
1F
100
AcDbEntity
  8
002
 62
     3
370
    30
100
AcDbLine
 10
1341.88658
 20
465.906837
 30
0.0
 11
1341.88658
 21
433.906837
 31
0.0
  0
ARC
  5
423
330
1F
100
AcDbEntity
  8
002
 62
     3
370
    30
100
AcDbCircle
 10
1338.88658
 20
433.906837
 30
0.0
 40
3.0
100
AcDbArc
 50
270.0
 51
0.0
  0
LINE
  5
424
330
1F
100
AcDbEntity
  8
002
 62
     3
370
    30
100
AcDbLine
 10
1357.72458
 20
430.906837
 30
0.0
 11
1357.72458
 21
519.208137
 31
0.0
  0
LINE
  5
425
330
1F
100
AcDbEntity
  8
002
 62
     3
370
    30
100
AcDbLine
 10
1373.26858
 20
519.208137
 30
0.0
 11
1373.26858
 21
430.906837
 31
0.0
  0
LINE
  5
426
330
1F
100
AcDbEntity
  8
002
 62
     3
370
    30
100
AcDbLine
 10
1443.88658
 20
433.906837
 30
0.0
 11
1443.88658
 21
495.906837
 31
0.0
  0
CIRCLE
  5
427
330
1F
100
AcDbEntity
  8
002
 62
     3
370
    30
100
AcDbCircle
 10
1494.88658
 20
495.906837
 30
0.0
 40
29.0
  0
ARC
  5
428
330
1F
100
AcDbEntity
  8
002
 62
     3
370
    30
100
AcDbCircle
 10
1520.88658
 20
471.007037
 30
0.0
 40
14.99998962966305
100
AcDbArc
 50
338.769945
 51
0.0
  0
LINE
  5
429
330
1F
100
AcDbEntity
  8
002
 62
     3
370
    30
100
AcDbLine
 10
1526.88658
 20
555.906837
 30
0.0
 11
1316.88658
 21
555.906837
 31
0.0
  0
LINE
  5
42A
330
1F
100
AcDbEntity
  8
002
 62
     3
370
    30
100
AcDbLine
 10
1325.95258
 20
569.906837
 30
0.0
 11
1325.95258
 21
581.906837
 31
0.0
  0
LINE
  5
42B
330
1F
100
AcDbEntity
  8
002
 62
     3
370
    30
100
AcDbLine
 10
1343.95258
 20
581.906837
 30
0.0
 11
1325.95258
 21
581.906837
 31
0.0
  0
LINE
  5
42C
330
1F
100
AcDbEntity
  8
002
 62
     3
370
    30
100
AcDbLine
 10
1343.95258
 20
581.906837
 30
0.0
 11
1343.95258
 21
569.906837
 31
0.0
  0
LINE
  5
42D
330
1F
100
AcDbEntity
  8
002
 62
     3
370
    30
100
AcDbLine
 10
1343.95258
 20
570.906837
 30
0.0
 11
1349.24658
 21
570.906837
 31
0.0
  0
LINE
  5
42E
330
1F
100
AcDbEntity
  8
002
 62
     3
370
    30
100
AcDbLine
 10
1349.24658
 20
569.906837
 30
0.0
 11
1349.24658
 21
581.906837
 31
0.0
  0
LINE
  5
42F
330
1F
100
AcDbEntity
  8
002
 62
     3
370
    30
100
AcDbLine
 10
1367.24658
 20
581.906837
 30
0.0
 11
1349.24658
 21
581.906837
 31
0.0
  0
ARC
  5
430
330
1F
100
AcDbEntity
  8
002
 62
     3
370
    30
100
AcDbCircle
 10
1339.38658
 20
575.906837
 30
0.0
 40
4.999405885702655
100
AcDbArc
 50
335.966645
 51
0.0
  0
LINE
  5
431
330
1F
100
AcDbEntity
  8
002
 62
     3
370
    30
100
AcDbLine
 10
1344.38658
 20
575.906837
 30
0.0
 11
1344.38658
 21
767.906437
 31
0.0
  0
LINE
  5
432
330
1F
100
AcDbEntity
  8
002
 62
     3
370
    30
100
AcDbLine
 10
1344.38658
 20
767.906437
 30
0.0
 11
1499.38658
 21
767.906437
 31
0.0
  0
LINE
  5
433
330
1F
100
AcDbEntity
  8
002
 62
     3
370
    30
100
AcDbLine
 10
1499.38658
 20
767.906437
 30
0.0
 11
1499.38658
 21
575.906837
 31
0.0
  0
ARC
  5
434
330
1F
100
AcDbEntity
  8
002
 62
     3
370
    30
100
AcDbCircle
 10
1504.38658
 20
575.906837
 30
0.0
 40
5.0
100
AcDbArc
 50
180.0
 51
204.028688
  0
LINE
  5
435
330
1F
100
AcDbEntity
  8
002
 62
     3
370
    30
100
AcDbLine
 10
1499.81958
 20
570.906837
 30
0.0
 11
1494.52558
 21
570.906837
 31
0.0
  0
LINE
  5
436
330
1F
100
AcDbEntity
  8
002
 62
     3
370
    30
100
AcDbLine
 10
1494.52558
 20
569.906837
 30
0.0
 11
1494.52558
 21
581.906837
 31
0.0
  0
LINE
  5
437
330
1F
100
AcDbEntity
  8
002
 62
     3
370
    30
100
AcDbLine
 10
1476.52558
 20
581.906837
 30
0.0
 11
1494.52558
 21
581.906837
 31
0.0
  0
LINE
  5
438
330
1F
100
AcDbEntity
  8
002
 62
     3
370
    30
100
AcDbLine
 10
1499.81958
 20
581.906837
 30
0.0
 11
1499.81958
 21
569.906837
 31
0.0
  0
LINE
  5
439
330
1F
100
AcDbEntity
  8
002
 62
     3
370
    30
100
AcDbLine
 10
1517.81958
 20
581.906837
 30
0.0
 11
1499.81958
 21
581.906837
 31
0.0
  0
LINE
  5
43A
330
1F
100
AcDbEntity
  8
002
 62
     3
370
    30
100
AcDbLine
 10
1517.81958
 20
581.906837
 30
0.0
 11
1517.81958
 21
569.906837
 31
0.0
  0
LINE
  5
43B
330
1F
100
AcDbEntity
  8
002
 62
     3
370
    30
100
AcDbLine
 10
1476.52558
 20
569.906837
 30
0.0
 11
1476.52558
 21
581.906837
 31
0.0
  0
LINE
  5
43C
330
1F
100
AcDbEntity
  8
002
 62
     3
370
    30
100
AcDbLine
 10
1476.52558
 20
570.906837
 30
0.0
 11
1454.17958
 21
570.906837
 31
0.0
  0
LINE
  5
43D
330
1F
100
AcDbEntity
  8
002
 62
     3
370
    30
100
AcDbLine
 10
1454.17958
 20
569.906837
 30
0.0
 11
1454.17958
 21
581.906837
 31
0.0
  0
LINE
  5
43E
330
1F
100
AcDbEntity
  8
002
 62
     3
370
    30
100
AcDbLine
 10
1436.17958
 20
581.906837
 30
0.0
 11
1454.17958
 21
581.906837
 31
0.0
  0
LINE
  5
43F
330
1F
100
AcDbEntity
  8
002
 62
     3
370
    30
100
AcDbLine
 10
1436.17958
 20
581.906837
 30
0.0
 11
1436.17958
 21
569.906837
 31
0.0
  0
LINE
  5
440
330
1F
100
AcDbEntity
  8
002
 62
     3
370
    30
100
AcDbLine
 10
1436.17958
 20
570.906837
 30
0.0
 11
1407.59258
 21
570.906837
 31
0.0
  0
LINE
  5
441
330
1F
100
AcDbEntity
  8
002
 62
     3
370
    30
100
AcDbLine
 10
1407.59258
 20
569.906837
 30
0.0
 11
1407.59258
 21
581.906837
 31
0.0
  0
LINE
  5
442
330
1F
100
AcDbEntity
  8
002
 62
     3
370
    30
100
AcDbLine
 10
1389.59258
 20
581.906837
 30
0.0
 11
1407.59258
 21
581.906837
 31
0.0
  0
LINE
  5
443
330
1F
100
AcDbEntity
  8
002
 62
     3
370
    30
100
AcDbLine
 10
1389.59258
 20
581.906837
 30
0.0
 11
1389.59258
 21
569.906837
 31
0.0
  0
LINE
  5
444
330
1F
100
AcDbEntity
  8
002
 62
     3
370
    30
100
AcDbLine
 10
1389.59258
 20
570.906837
 30
0.0
 11
1367.24658
 21
570.906837
 31
0.0
  0
LINE
  5
445
330
1F
100
AcDbEntity
  8
002
 62
     3
370
    30
100
AcDbLine
 10
1367.24658
 20
569.906837
 30
0.0
 11
1367.24658
 21
581.906837
 31
0.0
  0
LINE
  5
446
330
1F
100
AcDbEntity
  8
002
 62
     3
370
    30
100
AcDbLine
 10
1340.89258
 20
520.547837
 30
0.0
 11
1336.88658
 21
520.547837
 31
0.0
  0
LINE
  5
447
330
1F
100
AcDbEntity
  8
002
 62
     3
370
    30
100
AcDbLine
 10
1336.88658
 20
516.711237
 30
0.0
 11
1336.88658
 21
470.906837
 31
0.0
  0
ARC
  5
448
330
1F
100
AcDbEntity
  8
002
 62
     3
370
    30
100
AcDbCircle
 10
1336.88658
 20
465.906837
 30
0.0
 40
5.0
100
AcDbArc
 50
0.0
 51
90.0
  0
LINE
  5
449
330
1F
100
AcDbEntity
  8
002
 62
     3
370
    30
100
AcDbLine
 10
1336.88658
 20
479.238737
 30
0.0
 11
1328.88658
 21
478.988737
 31
0.0
  0
LINE
  5
44A
330
1F
100
AcDbEntity
  8
002
 62
     3
370
    30
100
AcDbLine
 10
1328.88658
 20
478.988737
 30
0.0
 11
1328.88658
 21
512.824837
 31
0.0
  0
LINE
  5
44B
330
1F
100
AcDbEntity
  8
002
 62
     3
370
    30
100
AcDbLine
 10
1328.88658
 20
512.824837
 30
0.0
 11
1336.88658
 21
512.574837
 31
0.0
  0
LINE
  5
44C
330
1F
100
AcDbEntity
  8
002
 62
     3
370
    30
100
AcDbLine
 10
1333.18058
 20
521.540837
 30
0.0
 11
1320.59258
 21
524.913837
 31
0.0
  0
ARC
  5
44D
330
1F
100
AcDbEntity
  8
002
 62
     3
370
    30
100
AcDbCircle
 10
1321.88658
 20
529.743437
 30
0.0
 40
5.0
100
AcDbArc
 50
180.0
 51
255.000968
  0
ARC
  5
44E
330
1F
100
AcDbEntity
  8
002
 62
     3
370
    30
100
AcDbCircle
 10
1331.88658
 20
516.711237
 30
0.0
 40
5.0
100
AcDbArc
 50
0.0
 51
75.000968
  0
LINE
  5
44F
330
1F
100
AcDbEntity
  8
002
 62
     3
370
    30
100
AcDbLine
 10
1328.88658
 20
505.406837
 30
0.0
 11
1316.88658
 21
504.906837
 31
0.0
  0
LINE
  5
450
330
1F
100
AcDbEntity
  8
002
 62
     3
370
    30
100
AcDbLine
 10
1316.88658
 20
504.906837
 30
0.0
 11
1316.88658
 21
486.906837
 31
0.0
  0
LINE
  5
451
330
1F
100
AcDbEntity
  8
002
 62
     3
370
    30
100
AcDbLine
 10
1316.88658
 20
486.906837
 30
0.0
 11
1328.88658
 21
486.406837
 31
0.0
  0
CIRCLE
  5
452
330
1F
100
AcDbEntity
  8
002
 62
     3
370
    30
100
AcDbCircle
 10
1421.88658
 20
495.906837
 30
0.0
 40
10.0
  0
LINE
  5
453
330
1F
100
AcDbEntity
  8
002
 62
     3
370
    30
100
AcDbLine
 10
1416.11258
 20
495.906837
 30
0.0
 11
1418.99958
 21
500.906837
 31
0.0
  0
LINE
  5
454
330
1F
100
AcDbEntity
  8
002
 62
     3
370
    30
100
AcDbLine
 10
1418.99958
 20
500.906837
 30
0.0
 11
1424.77358
 21
500.906837
 31
0.0
  0
LINE
  5
455
330
1F
100
AcDbEntity
  8
002
 62
     3
370
    30
100
AcDbLine
 10
1424.77358
 20
500.906837
 30
0.0
 11
1427.65958
 21
495.906837
 31
0.0
  0
LINE
  5
456
330
1F
100
AcDbEntity
  8
002
 62
     3
370
    30
100
AcDbLine
 10
1427.65958
 20
495.906837
 30
0.0
 11
1424.77358
 21
490.906837
 31
0.0
  0
LINE
  5
457
330
1F
100
AcDbEntity
  8
002
 62
     3
370
    30
100
AcDbLine
 10
1424.77358
 20
490.906837
 30
0.0
 11
1418.99958
 21
490.906837
 31
0.0
  0
LINE
  5
458
330
1F
100
AcDbEntity
  8
002
 62
     3
370
    30
100
AcDbLine
 10
1418.99958
 20
490.906837
 30
0.0
 11
1416.11258
 21
495.906837
 31
0.0
  0
CIRCLE
  5
459
330
1F
100
AcDbEntity
  8
002
 62
     3
370
    30
100
AcDbCircle
 10
1421.88658
 20
495.906837
 30
0.0
 40
5.0
  0
CIRCLE
  5
45A
330
1F
100
AcDbEntity
  8
002
 62
     3
370
    30
100
AcDbCircle
 10
1421.88658
 20
495.906837
 30
0.0
 40
3.25
  0
CIRCLE
  5
45B
330
1F
100
AcDbEntity
  8
002
 62
     3
370
    30
100
AcDbCircle
 10
1421.88658
 20
495.906837
 30
0.0
 40
2.5
  0
CIRCLE
  5
45C
330
1F
100
AcDbEntity
  8
002
 62
     3
370
    30
100
AcDbCircle
 10
1421.88658
 20
495.906837
 30
0.0
 40
0.75
  0
LINE
  5
45D
330
1F
100
AcDbEntity
  8
002
 62
     3
370
    30
100
AcDbLine
 10
1446.83658
 20
520.547837
 30
0.0
 11
1449.52058
 21
519.208137
 31
0.0
  0
ARC
  5
45E
330
1F
100
AcDbEntity
  8
002
 62
     3
370
    30
100
AcDbCircle
 10
1440.88658
 20
433.906837
 30
0.0
 40
3.0
100
AcDbArc
 50
270.0
 51
0.0
  0
LINE
  5
45F
330
1F
100
AcDbEntity
  8
002
 62
     3
370
    30
100
AcDbLine
 10
1418.99958
 20
722.906437
 30
0.0
 11
1424.77358
 21
722.906437
 31
0.0
  0
LINE
  5
460
330
1F
100
AcDbEntity
  8
002
 62
     3
370
    30
100
AcDbLine
 10
1424.77358
 20
722.906437
 30
0.0
 11
1427.65958
 21
727.906437
 31
0.0
  0
LINE
  5
461
330
1F
100
AcDbEntity
  8
002
 62
     3
370
    30
100
AcDbLine
 10
1427.65958
 20
727.906437
 30
0.0
 11
1424.77358
 21
732.906437
 31
0.0
  0
LINE
  5
462
330
1F
100
AcDbEntity
  8
002
 62
     3
370
    30
100
AcDbLine
 10
1424.77358
 20
732.906437
 30
0.0
 11
1418.99958
 21
732.906437
 31
0.0
  0
LINE
  5
463
330
1F
100
AcDbEntity
  8
002
 62
     3
370
    30
100
AcDbLine
 10
1418.99958
 20
732.906437
 30
0.0
 11
1416.11258
 21
727.906437
 31
0.0
  0
LINE
  5
464
330
1F
100
AcDbEntity
  8
002
 62
     3
370
    30
100
AcDbLine
 10
1416.11258
 20
727.906437
 30
0.0
 11
1418.99958
 21
722.906437
 31
0.0
  0
CIRCLE
  5
465
330
1F
100
AcDbEntity
  8
002
 62
     3
370
    30
100
AcDbCircle
 10
1421.88658
 20
727.906437
 30
0.0
 40
3.25
  0
CIRCLE
  5
466
330
1F
100
AcDbEntity
  8
002
 62
     3
370
    30
100
AcDbCircle
 10
1421.88658
 20
727.906437
 30
0.0
 40
2.5
  0
CIRCLE
  5
467
330
1F
100
AcDbEntity
  8
002
 62
     3
370
    30
100
AcDbCircle
 10
1421.88658
 20
727.906437
 30
0.0
 40
0.75
  0
CIRCLE
  5
468
330
1F
100
AcDbEntity
  8
002
 62
     3
370
    30
100
AcDbCircle
 10
1421.88658
 20
727.906437
 30
0.0
 40
5.0
  0
LINE
  5
469
330
1F
100
AcDbEntity
  8
002
 62
     3
370
    30
100
AcDbLine
 10
1390.99558
 20
773.906437
 30
0.0
 11
1390.99558
 21
783.906437
 31
0.0
  0
LINE
  5
46A
330
1F
100
AcDbEntity
  8
002
 62
     3
370
    30
100
AcDbLine
 10
1390.99558
 20
783.906437
 30
0.0
 11
1374.99558
 21
783.906437
 31
0.0
  0
LINE
  5
46B
330
1F
100
AcDbEntity
  8
002
 62
     3
370
    30
100
AcDbLine
 10
1374.99558
 20
783.906437
 30
0.0
 11
1374.99558
 21
773.906437
 31
0.0
  0
LINE
  5
46C
330
1F
100
AcDbEntity
  8
002
 62
     3
370
    30
100
AcDbLine
 10
1468.77758
 20
783.906437
 30
0.0
 11
1452.77758
 21
783.906437
 31
0.0
  0
LINE
  5
46D
330
1F
100
AcDbEntity
  8
002
 62
     3
370
    30
100
AcDbLine
 10
1468.77758
 20
783.906437
 30
0.0
 11
1468.77758
 21
773.906437
 31
0.0
  0
LINE
  5
46E
330
1F
100
AcDbEntity
  8
002
 62
     3
370
    30
100
AcDbLine
 10
1452.77758
 20
783.906437
 30
0.0
 11
1452.77758
 21
773.906437
 31
0.0
  0
LINE
  5
46F
330
1F
100
AcDbEntity
  8
002
 62
     3
370
    30
100
AcDbLine
 10
1488.88658
 20
773.906437
 30
0.0
 11
1354.88658
 21
773.906437
 31
0.0
  0
LINE
  5
470
330
1F
100
AcDbEntity
  8
002
 62
     3
370
    30
100
AcDbLine
 10
1354.88658
 20
773.906437
 30
0.0
 11
1354.88658
 21
767.906437
 31
0.0
  0
LINE
  5
471
330
1F
100
AcDbEntity
  8
002
 62
     3
370
    30
100
AcDbLine
 10
1488.88658
 20
767.906437
 30
0.0
 11
1488.88658
 21
773.906437
 31
0.0
  0
LINE
  5
472
330
1F
100
AcDbEntity
  8
002
  6
CENTER
 62
    40
370
     9
100
AcDbLine
 10
1460.77758
 20
791.424437
 30
0.0
 11
1460.77758
 21
765.798437
 31
0.0
  0
LINE
  5
473
330
1F
100
AcDbEntity
  8
002
  6
CENTER
 62
    40
370
     9
100
AcDbLine
 10
1429.34558
 20
727.906437
 30
0.0
 11
1414.85058
 21
727.906437
 31
0.0
  0
LINE
  5
474
330
1F
100
AcDbEntity
  8
002
  6
CENTER
 62
    40
370
     9
100
AcDbLine
 10
1382.99558
 20
765.798437
 30
0.0
 11
1382.99558
 21
791.424437
 31
0.0
  0
LINE
  5
475
330
1F
100
AcDbEntity
  8
002
  6
CENTER
 62
    40
370
     9
100
AcDbLine
 10
1398.59258
 20
587.877837
 30
0.0
 11
1398.59258
 21
553.022637
 31
0.0
  0
LINE
  5
476
330
1F
100
AcDbEntity
  8
002
  6
CENTER
 62
    40
370
     9
100
AcDbLine
 10
1358.24658
 20
553.022637
 30
0.0
 11
1358.24658
 21
587.877837
 31
0.0
  0
LINE
  5
477
330
1F
100
AcDbEntity
  8
002
  6
CENTER
 62
    40
370
     9
100
AcDbLine
 10
1334.95258
 20
587.877837
 30
0.0
 11
1334.95258
 21
553.022637
 31
0.0
  0
LINE
  5
478
330
1F
100
AcDbEntity
  8
002
 62
    40
370
     9
100
AcDbLine
 10
1336.88658
 20
511.134537
 30
0.0
 11
1328.88658
 21
511.384537
 31
0.0
  0
LINE
  5
479
330
1F
100
AcDbEntity
  8
002
 62
    40
370
     9
100
AcDbLine
 10
1328.88658
 20
505.406837
 30
0.0
 11
1316.88658
 21
486.906837
 31
0.0
  0
LINE
  5
47A
330
1F
100
AcDbEntity
  8
002
  6
CENTER
 62
    40
370
     9
100
AcDbLine
 10
1314.32258
 20
495.906837
 30
0.0
 11
1573.53158
 21
495.906837
 31
0.0
  0
LINE
  5
47B
330
1F
100
AcDbEntity
  8
002
  6
CENTER
 62
    40
370
     9
100
AcDbLine
 10
1445.17958
 20
553.022637
 30
0.0
 11
1445.17958
 21
587.877837
 31
0.0
  0
LINE
  5
47C
330
1F
100
AcDbEntity
  8
002
  6
CENTER
 62
    40
370
     9
100
AcDbLine
 10
1485.52558
 20
587.877837
 30
0.0
 11
1485.52558
 21
553.022637
 31
0.0
  0
LINE
  5
47D
330
1F
100
AcDbEntity
  8
002
  6
CENTER
 62
    40
370
     9
100
AcDbLine
 10
1494.88658
 20
555.906837
 30
0.0
 11
1494.88658
 21
430.906837
 31
0.0
  0
LINE
  5
47E
330
1F
100
AcDbEntity
  8
002
  6
DASHED
 62
    40
370
     9
100
AcDbLine
 10
1541.88658
 20
430.906837
 30
0.0
 11
1541.88658
 21
429.906837
 31
0.0
  0
LINE
  5
47F
330
1F
100
AcDbEntity
  8
002
  6
DASHED
 62
    40
370
     9
100
AcDbLine
 10
1591.88658
 20
429.906837
 30
0.0
 11
1591.88658
 21
430.906837
 31
0.0
  0
LINE
  5
480
330
1F
100
AcDbEntity
  8
002
  6
CENTER
 62
    40
370
     9
100
AcDbLine
 10
1566.88658
 20
401.797637
 30
0.0
 11
1566.88658
 21
437.262337
 31
0.0
  0
LINE
  5
481
330
1F
100
AcDbEntity
  8
002
  6
DASHED
 62
    40
370
     9
100
AcDbLine
 10
1319.88658
 20
429.906837
 30
0.0
 11
1319.88658
 21
430.906837
 31
0.0
  0
LINE
  5
482
330
1F
100
AcDbEntity
  8
002
  6
CENTER
 62
    40
370
     9
100
AcDbLine
 10
1344.88658
 20
401.797637
 30
0.0
 11
1344.88658
 21
437.262337
 31
0.0
  0
LINE
  5
483
330
1F
100
AcDbEntity
  8
002
  6
DASHED
 62
    40
370
     9
100
AcDbLine
 10
1369.88658
 20
429.906837
 30
0.0
 11
1369.88658
 21
430.906837
 31
0.0
  0
LINE
  5
484
330
1F
100
AcDbEntity
  8
002
 62
    40
370
     9
100
AcDbLine
 10
1336.88658
 20
480.679137
 30
0.0
 11
1328.88658
 21
480.429137
 31
0.0
  0
LINE
  5
485
330
1F
100
AcDbEntity
  8
002
 62
    40
370
     9
100
AcDbLine
 10
1328.88658
 20
486.406837
 30
0.0
 11
1316.88658
 21
504.906837
 31
0.0
  0
LINE
  5
486
330
1F
100
AcDbEntity
  8
002
  6
CENTER
 62
    40
370
     9
100
AcDbLine
 10
1508.81958
 20
553.022637
 30
0.0
 11
1508.81958
 21
587.877837
 31
0.0
  0
LINE
  5
487
330
1F
100
AcDbEntity
  8
002
  6
HIDDEN
 62
    40
370
     9
100
AcDbLine
 10
1369.88658
 20
429.906837
 30
0.0
 11
1319.88658
 21
429.906837
 31
0.0
  0
LINE
  5
488
330
1F
100
AcDbEntity
  8
002
  6
HIDDEN
 62
    40
370
     9
100
AcDbLine
 10
1331.88658
 20
429.906837
 30
0.0
 11
1331.88658
 21
410.906837
 31
0.0
  0
LINE
  5
489
330
1F
100
AcDbEntity
  8
002
  6
HIDDEN
 62
    40
370
     9
100
AcDbLine
 10
1357.88658
 20
429.906837
 30
0.0
 11
1357.88658
 21
410.906837
 31
0.0
  0
LINE
  5
48A
330
1F
100
AcDbEntity
  8
002
  6
HIDDEN
 62
    40
370
     9
100
AcDbLine
 10
1553.88658
 20
429.906837
 30
0.0
 11
1553.88658
 21
410.906837
 31
0.0
  0
LINE
  5
48B
330
1F
100
AcDbEntity
  8
002
  6
HIDDEN
 62
    40
370
     9
100
AcDbLine
 10
1541.88658
 20
429.906837
 30
0.0
 11
1591.88658
 21
429.906837
 31
0.0
  0
LINE
  5
48C
330
1F
100
AcDbEntity
  8
002
  6
HIDDEN
 62
    40
370
     9
100
AcDbLine
 10
1579.88658
 20
429.906837
 30
0.0
 11
1579.88658
 21
410.906837
 31
0.0
  0
LINE
  5
48D
330
1F
100
AcDbEntity
  8
002
 62
     3
370
    30
100
AcDbLine
 10
1377.33658
 20
1032.906837
 30
0.0
 11
1466.43658
 21
1032.906837
 31
0.0
  0
LINE
  5
48E
330
1F
100
AcDbEntity
  8
002
 62
     3
370
    30
100
AcDbLine
 10
484.178018
 20
1734.691248
 30
0.0
 11
484.178018
 21
1735.815669
 31
0.0
  0
LINE
  5
48F
330
1F
100
AcDbEntity
  8
002
 62
     3
370
    30
100
AcDbLine
 10
484.602018
 20
1735.815669
 30
0.0
 11
476.030018
 21
1735.815669
 31
0.0
  0
LINE
  5
490
330
1F
100
AcDbEntity
  8
002
 62
     3
370
    30
100
AcDbLine
 10
476.455018
 20
1735.815669
 30
0.0
 11
476.455018
 21
1734.691313
 31
0.0
  0
ARC
  5
491
330
1F
100
AcDbEntity
  8
002
 62
     3
370
    30
100
AcDbCircle
 10
475.986018
 20
1737.355669
 30
0.0
 40
1.540730021775364
100
AcDbArc
 50
249.448306
 51
339.483127
  0
ARC
  5
492
330
1F
100
AcDbEntity
  8
002
 62
     3
370
    30
100
AcDbCircle
 10
480.316018
 20
1740.481669
 30
0.0
 40
4.666296711526233
100
AcDbArc
 50
231.779327
 51
308.220673
  0
ARC
  5
493
330
1F
100
AcDbEntity
  8
002
 62
     3
370
    30
100
AcDbCircle
 10
484.646018
 20
1737.355669
 30
0.0
 40
1.541080789575903
100
AcDbArc
 50
200.516873
 51
290.551694
  0
LINE
  5
494
330
1F
100
AcDbEntity
  8
002
 62
     3
370
    30
100
AcDbLine
 10
486.090018
 20
1736.815669
 30
0.0
 11
485.187018
 21
1735.912669
 31
0.0
  0
LINE
  5
495
330
1F
100
AcDbEntity
  8
002
 62
     3
370
    30
100
AcDbLine
 10
486.090018
 20
1739.815669
 30
0.0
 11
486.090018
 21
1736.815669
 31
0.0
  0
LINE
  5
496
330
1F
100
AcDbEntity
  8
002
 62
     3
370
    30
100
AcDbLine
 10
483.176018
 20
1742.728669
 30
0.0
 11
486.090018
 21
1739.815669
 31
0.0
  0
LINE
  5
497
330
1F
100
AcDbEntity
  8
002
 62
     3
370
    30
100
AcDbLine
 10
483.203018
 20
1736.815669
 30
0.0
 11
483.203018
 21
1739.815669
 31
0.0
  0
ARC
  5
498
330
1F
100
AcDbEntity
  8
002
 62
     3
370
    30
100
AcDbCircle
 10
484.646018
 20
1739.274669
 30
0.0
 40
1.541080789575903
100
AcDbArc
 50
69.448306
 51
159.448306
  0
ARC
  5
499
330
1F
100
AcDbEntity
  8
002
 62
     3
370
    30
100
AcDbCircle
 10
480.316018
 20
1736.148669
 30
0.0
 40
4.667082386245079
100
AcDbArc
 50
51.786922
 51
128.213078
  0
LINE
  5
49A
330
1F
100
AcDbEntity
  8
002
 62
     3
370
    30
100
AcDbLine
 10
477.429018
 20
1736.815669
 30
0.0
 11
477.429018
 21
1739.815669
 31
0.0
  0
LINE
  5
49B
330
1F
100
AcDbEntity
  8
002
 62
     3
370
    30
100
AcDbLine
 10
474.543018
 20
1736.815669
 30
0.0
 11
475.445018
 21
1735.912669
 31
0.0
  0
LINE
  5
49C
330
1F
100
AcDbEntity
  8
002
 62
     3
370
    30
100
AcDbLine
 10
474.543018
 20
1739.815669
 30
0.0
 11
474.543018
 21
1736.815669
 31
0.0
  0
LINE
  5
49D
330
1F
100
AcDbEntity
  8
002
 62
     3
370
    30
100
AcDbLine
 10
474.543018
 20
1739.815669
 30
0.0
 11
477.456018
 21
1742.728669
 31
0.0
  0
ARC
  5
49E
330
1F
100
AcDbEntity
  8
002
 62
     3
370
    30
100
AcDbCircle
 10
475.986018
 20
1739.274669
 30
0.0
 40
1.541080789575903
100
AcDbArc
 50
20.551694
 51
110.551694
  0
LINE
  5
49F
330
1F
100
AcDbEntity
  8
002
 62
     3
370
    30
100
AcDbLine
 10
482.614018
 20
1743.291669
 30
0.0
 11
478.019018
 21
1743.291669
 31
0.0
  0
ARC
  5
4A0
330
1F
100
AcDbEntity
  8
002
 62
     3
370
    30
100
AcDbCircle
 10
476.749018
 20
1743.435669
 30
0.0
 40
1.000001999998141
100
AcDbArc
 50
315.0
 51
32.005383
  0
ARC
  5
4A1
330
1F
100
AcDbEntity
  8
002
 62
     3
370
    30
100
AcDbCircle
 10
483.883018
 20
1743.435669
 30
0.0
 40
0.9998489885976084
100
AcDbArc
 50
147.994617
 51
225.0
  0
LINE
  5
4A2
330
1F
100
AcDbEntity
  8
002
 62
     3
370
    30
100
AcDbLine
 10
477.816018
 20
1744.815669
 30
0.0
 11
482.816018
 21
1744.815669
 31
0.0
  0
LINE
  5
4A3
330
1F
100
AcDbEntity
  8
002
 62
     3
370
    30
100
AcDbLine
 10
482.816018
 20
1747.815669
 30
0.0
 11
483.566018
 21
1744.815669
 31
0.0
  0
LINE
  5
4A4
330
1F
100
AcDbEntity
  8
002
 62
     3
370
    30
100
AcDbLine
 10
483.566018
 20
1744.815669
 30
0.0
 11
483.035018
 21
1743.965669
 31
0.0
  0
LINE
  5
4A5
330
1F
100
AcDbEntity
  8
002
 62
     3
370
    30
100
AcDbLine
 10
477.597018
 20
1743.965669
 30
0.0
 11
477.066018
 21
1744.815669
 31
0.0
  0
LINE
  5
4A6
330
1F
100
AcDbEntity
  8
002
 62
     3
370
    30
100
AcDbLine
 10
477.066018
 20
1744.815669
 30
0.0
 11
477.816018
 21
1747.815669
 31
0.0
  0
LINE
  5
4A7
330
1F
100
AcDbEntity
  8
002
 62
     3
370
    30
100
AcDbLine
 10
477.816018
 20
1747.815669
 30
0.0
 11
482.816018
 21
1747.815669
 31
0.0
  0
ARC
  5
4A8
330
1F
100
AcDbEntity
  8
002
 62
     3
370
    30
100
AcDbCircle
 10
480.316018
 20
1747.153669
 30
0.0
 40
1.00037193083375
100
AcDbArc
 50
41.433771
 51
138.566229
  0
LINE
  5
4A9
330
1F
100
AcDbEntity
  8
002
 62
     3
370
    30
100
AcDbLine
 10
484.178018
 20
1579.94009
 30
0.0
 11
484.178018
 21
1578.815669
 31
0.0
  0
LINE
  5
4AA
330
1F
100
AcDbEntity
  8
002
 62
     3
370
    30
100
AcDbLine
 10
484.602018
 20
1578.815669
 30
0.0
 11
476.030018
 21
1578.815669
 31
0.0
  0
LINE
  5
4AB
330
1F
100
AcDbEntity
  8
002
 62
     3
370
    30
100
AcDbLine
 10
476.455018
 20
1578.815669
 30
0.0
 11
476.455018
 21
1579.940026
 31
0.0
  0
ARC
  5
4AC
330
1F
100
AcDbEntity
  8
002
 62
     3
370
    30
100
AcDbCircle
 10
475.986018
 20
1577.275669
 30
0.0
 40
1.540730021775364
100
AcDbArc
 50
20.516873
 51
110.551694
  0
LINE
  5
4AD
330
1F
100
AcDbEntity
  8
002
 62
     3
370
    30
100
AcDbLine
 10
474.543018
 20
1577.815669
 30
0.0
 11
475.445018
 21
1578.718669
 31
0.0
  0
ARC
  5
4AE
330
1F
100
AcDbEntity
  8
002
 62
     3
370
    30
100
AcDbCircle
 10
480.316018
 20
1574.149669
 30
0.0
 40
4.666296711526233
100
AcDbArc
 50
51.779327
 51
128.220673
  0
ARC
  5
4AF
330
1F
100
AcDbEntity
  8
002
 62
     3
370
    30
100
AcDbCircle
 10
484.646018
 20
1577.275669
 30
0.0
 40
1.541080789575903
100
AcDbArc
 50
69.448306
 51
159.483127
  0
LINE
  5
4B0
330
1F
100
AcDbEntity
  8
002
 62
     3
370
    30
100
AcDbLine
 10
486.090018
 20
1577.815669
 30
0.0
 11
485.187018
 21
1578.718669
 31
0.0
  0
LINE
  5
4B1
330
1F
100
AcDbEntity
  8
002
 62
     3
370
    30
100
AcDbLine
 10
486.090018
 20
1574.815669
 30
0.0
 11
486.090018
 21
1577.815669
 31
0.0
  0
LINE
  5
4B2
330
1F
100
AcDbEntity
  8
002
 62
     3
370
    30
100
AcDbLine
 10
483.176018
 20
1571.902669
 30
0.0
 11
486.090018
 21
1574.815669
 31
0.0
  0
LINE
  5
4B3
330
1F
100
AcDbEntity
  8
002
 62
     3
370
    30
100
AcDbLine
 10
483.203018
 20
1577.815669
 30
0.0
 11
483.203018
 21
1574.815669
 31
0.0
  0
ARC
  5
4B4
330
1F
100
AcDbEntity
  8
002
 62
     3
370
    30
100
AcDbCircle
 10
484.646018
 20
1575.356669
 30
0.0
 40
1.541080789575903
100
AcDbArc
 50
200.551694
 51
290.551694
  0
ARC
  5
4B5
330
1F
100
AcDbEntity
  8
002
 62
     3
370
    30
100
AcDbCircle
 10
480.316018
 20
1578.482669
 30
0.0
 40
4.667082386245079
100
AcDbArc
 50
231.786922
 51
308.213078
  0
LINE
  5
4B6
330
1F
100
AcDbEntity
  8
002
 62
     3
370
    30
100
AcDbLine
 10
477.429018
 20
1577.815669
 30
0.0
 11
477.429018
 21
1574.815669
 31
0.0
  0
LINE
  5
4B7
330
1F
100
AcDbEntity
  8
002
 62
     3
370
    30
100
AcDbLine
 10
474.543018
 20
1574.815669
 30
0.0
 11
474.543018
 21
1577.815669
 31
0.0
  0
ARC
  5
4B8
330
1F
100
AcDbEntity
  8
002
 62
     3
370
    30
100
AcDbCircle
 10
475.986018
 20
1575.356669
 30
0.0
 40
1.541080789575903
100
AcDbArc
 50
249.448306
 51
339.448306
  0
LINE
  5
4B9
330
1F
100
AcDbEntity
  8
002
 62
     3
370
    30
100
AcDbLine
 10
474.543018
 20
1574.815669
 30
0.0
 11
477.456018
 21
1571.902669
 31
0.0
  0
LINE
  5
4BA
330
1F
100
AcDbEntity
  8
002
 62
     3
370
    30
100
AcDbLine
 10
482.614018
 20
1571.339669
 30
0.0
 11
478.019018
 21
1571.339669
 31
0.0
  0
LINE
  5
4BB
330
1F
100
AcDbEntity
  8
002
 62
     3
370
    30
100
AcDbLine
 10
477.816018
 20
1569.815669
 30
0.0
 11
482.816018
 21
1569.815669
 31
0.0
  0
ARC
  5
4BC
330
1F
100
AcDbEntity
  8
002
 62
     3
370
    30
100
AcDbCircle
 10
476.749018
 20
1571.195669
 30
0.0
 40
1.000001999998141
100
AcDbArc
 50
327.994617
 51
45.0
  0
ARC
  5
4BD
330
1F
100
AcDbEntity
  8
002
 62
     3
370
    30
100
AcDbCircle
 10
483.883018
 20
1571.195669
 30
0.0
 40
0.9998489885976084
100
AcDbArc
 50
135.0
 51
212.005383
  0
LINE
  5
4BE
330
1F
100
AcDbEntity
  8
002
 62
     3
370
    30
100
AcDbLine
 10
483.566018
 20
1569.815669
 30
0.0
 11
483.035018
 21
1570.665669
 31
0.0
  0
LINE
  5
4BF
330
1F
100
AcDbEntity
  8
002
 62
     3
370
    30
100
AcDbLine
 10
482.816018
 20
1566.815669
 30
0.0
 11
483.566018
 21
1569.815669
 31
0.0
  0
LINE
  5
4C0
330
1F
100
AcDbEntity
  8
002
 62
     3
370
    30
100
AcDbLine
 10
477.816018
 20
1566.815669
 30
0.0
 11
482.816018
 21
1566.815669
 31
0.0
  0
ARC
  5
4C1
330
1F
100
AcDbEntity
  8
002
 62
     3
370
    30
100
AcDbCircle
 10
480.316018
 20
1567.477669
 30
0.0
 40
1.00037193083375
100
AcDbArc
 50
221.433771
 51
318.566229
  0
LINE
  5
4C2
330
1F
100
AcDbEntity
  8
002
 62
     3
370
    30
100
AcDbLine
 10
477.597018
 20
1570.665669
 30
0.0
 11
477.066018
 21
1569.815669
 31
0.0
  0
LINE
  5
4C3
330
1F
100
AcDbEntity
  8
002
 62
     3
370
    30
100
AcDbLine
 10
477.066018
 20
1569.815669
 30
0.0
 11
477.816018
 21
1566.815669
 31
0.0
  0
CIRCLE
  5
4C4
330
1F
100
AcDbEntity
  8
002
 62
    40
370
     9
100
AcDbCircle
 10
480.316018
 20
1657.315669
 30
0.0
 40
20.0
  0
CIRCLE
  5
4C5
330
1F
100
AcDbEntity
  8
002
 62
     3
370
    30
100
AcDbCircle
 10
480.316018
 20
1657.315669
 30
0.0
 40
21.0
  0
CIRCLE
  5
4C6
330
1F
100
AcDbEntity
  8
002
 62
     3
370
    30
100
AcDbCircle
 10
480.316018
 20
1657.315669
 30
0.0
 40
24.99985000000015
  0
LINE
  5
4C7
330
1F
100
AcDbEntity
  8
002
 62
     3
370
    30
100
AcDbLine
 10
1065.579176
 20
1010.907437
 30
0.0
 11
1023.579176
 21
1010.907437
 31
0.0
  0
LINE
  5
4C8
330
1F
100
AcDbEntity
  8
002
 62
     3
370
    30
100
AcDbLine
 10
1065.579176
 20
964.907437
 30
0.0
 11
1065.579176
 21
1010.907437
 31
0.0
  0
LINE
  5
4C9
330
1F
100
AcDbEntity
  8
002
 62
     3
370
    30
100
AcDbLine
 10
1023.579176
 20
1010.907437
 30
0.0
 11
1023.579176
 21
964.907437
 31
0.0
  0
LINE
  5
4CA
330
1F
100
AcDbEntity
  8
002
 62
    40
370
     9
100
AcDbLine
 10
1024.579176
 20
1010.907437
 30
0.0
 11
1024.579176
 21
964.907437
 31
0.0
  0
LINE
  5
4CB
330
1F
100
AcDbEntity
  8
002
 62
     3
370
    30
100
AcDbLine
 10
1023.579176
 20
964.907437
 30
0.0
 11
1065.579176
 21
964.907437
 31
0.0
  0
LINE
  5
4CC
330
1F
100
AcDbEntity
  8
002
 62
    40
370
     9
100
AcDbLine
 10
1064.579176
 20
1010.907437
 30
0.0
 11
1064.579176
 21
964.907437
 31
0.0
  0
LINE
  5
4CD
330
1F
100
AcDbEntity
  8
002
 62
     3
370
    30
100
AcDbLine
 10
1063.579176
 20
960.907437
 30
0.0
 11
1063.579176
 21
964.907437
 31
0.0
  0
LINE
  5
4CE
330
1F
100
AcDbEntity
  8
002
 62
     3
370
    30
100
AcDbLine
 10
1025.579176
 20
960.907437
 30
0.0
 11
1025.579176
 21
964.907437
 31
0.0
  0
LINE
  5
4CF
330
1F
100
AcDbEntity
  8
002
 62
     3
370
    30
100
AcDbLine
 10
1396.88673
 20
200.906237
 30
0.0
 11
1446.88673
 21
200.906237
 31
0.0
  0
LINE
  5
4D0
330
1F
100
AcDbEntity
  8
002
 62
     3
370
    30
100
AcDbLine
 10
1442.88658
 20
150.906237
 30
0.0
 11
1400.88658
 21
150.906237
 31
0.0
  0
LINE
  5
4D1
330
1F
100
AcDbEntity
  8
002
 62
     3
370
    30
100
AcDbLine
 10
1442.88658
 20
196.906237
 30
0.0
 11
1442.88658
 21
150.906237
 31
0.0
  0
LINE
  5
4D2
330
1F
100
AcDbEntity
  8
002
 62
     3
370
    30
100
AcDbLine
 10
1400.88658
 20
150.906237
 30
0.0
 11
1400.88658
 21
196.906237
 31
0.0
  0
LINE
  5
4D3
330
1F
100
AcDbEntity
  8
002
 62
    40
370
     9
100
AcDbLine
 10
1401.88658
 20
150.906237
 30
0.0
 11
1401.88658
 21
196.906237
 31
0.0
  0
LINE
  5
4D4
330
1F
100
AcDbEntity
  8
002
 62
     3
370
    30
100
AcDbLine
 10
1400.88658
 20
196.906237
 30
0.0
 11
1442.88658
 21
196.906237
 31
0.0
  0
LINE
  5
4D5
330
1F
100
AcDbEntity
  8
002
 62
    40
370
     9
100
AcDbLine
 10
1441.88658
 20
150.906237
 30
0.0
 11
1441.88658
 21
196.906237
 31
0.0
  0
LINE
  5
4D6
330
1F
100
AcDbEntity
  8
002
 62
     3
370
    30
100
AcDbLine
 10
1440.88658
 20
200.906237
 30
0.0
 11
1440.88658
 21
196.906237
 31
0.0
  0
LINE
  5
4D7
330
1F
100
AcDbEntity
  8
002
 62
     3
370
    30
100
AcDbLine
 10
1402.88658
 20
200.906237
 30
0.0
 11
1402.88658
 21
196.906237
 31
0.0
  0
LINE
  5
4D8
330
1F
100
AcDbEntity
  8
002
 62
     3
370
    30
100
AcDbLine
 10
501.316068
 20
1010.907437
 30
0.0
 11
459.316068
 21
1010.907437
 31
0.0
  0
LINE
  5
4D9
330
1F
100
AcDbEntity
  8
002
 62
     3
370
    30
100
AcDbLine
 10
501.316068
 20
964.907437
 30
0.0
 11
501.316068
 21
1010.907437
 31
0.0
  0
LINE
  5
4DA
330
1F
100
AcDbEntity
  8
002
 62
     3
370
    30
100
AcDbLine
 10
459.316068
 20
1010.907437
 30
0.0
 11
459.316068
 21
964.907437
 31
0.0
  0
LINE
  5
4DB
330
1F
100
AcDbEntity
  8
002
 62
    40
370
     9
100
AcDbLine
 10
460.316068
 20
1010.907437
 30
0.0
 11
460.316068
 21
964.907437
 31
0.0
  0
LINE
  5
4DC
330
1F
100
AcDbEntity
  8
002
 62
     3
370
    30
100
AcDbLine
 10
459.316068
 20
964.907437
 30
0.0
 11
501.316068
 21
964.907437
 31
0.0
  0
LINE
  5
4DD
330
1F
100
AcDbEntity
  8
002
 62
    40
370
     9
100
AcDbLine
 10
500.316068
 20
1010.907437
 30
0.0
 11
500.316068
 21
964.907437
 31
0.0
  0
LINE
  5
4DE
330
1F
100
AcDbEntity
  8
002
 62
     3
370
    30
100
AcDbLine
 10
499.316068
 20
960.907437
 30
0.0
 11
499.316068
 21
964.907437
 31
0.0
  0
LINE
  5
4DF
330
1F
100
AcDbEntity
  8
002
 62
     3
370
    30
100
AcDbLine
 10
461.316068
 20
960.907437
 30
0.0
 11
461.316068
 21
964.907437
 31
0.0
  0
LINE
  5
4E0
330
1F
100
AcDbEntity
  8
002
 62
     3
370
    30
100
AcDbLine
 10
505.316218
 20
960.907437
 30
0.0
 11
455.316218
 21
960.907437
 31
0.0
  0
LINE
  5
4E1
330
1F
100
AcDbEntity
  8
002
  6
HIDDEN
 62
    40
370
     9
100
AcDbLine
 10
998.8779
 20
1313.384728
 30
0.0
 11
998.8779
 21
1359.384728
 31
0.0
  0
LINE
  5
4E2
330
1F
100
AcDbEntity
  8
002
  6
HIDDEN
 62
    40
370
     9
100
AcDbLine
 10
956.8779
 20
1359.384728
 30
0.0
 11
956.8779
 21
1313.384728
 31
0.0
  0
LINE
  5
4E3
330
1F
100
AcDbEntity
  8
002
  6
HIDDEN
 62
    40
370
     9
100
AcDbLine
 10
957.8779
 20
1359.384728
 30
0.0
 11
957.8779
 21
1313.384728
 31
0.0
  0
LINE
  5
4E4
330
1F
100
AcDbEntity
  8
002
  6
HIDDEN
 62
    40
370
     9
100
AcDbLine
 10
956.8779
 20
1313.384728
 30
0.0
 11
998.8779
 21
1313.384728
 31
0.0
  0
LINE
  5
4E5
330
1F
100
AcDbEntity
  8
002
  6
HIDDEN
 62
    40
370
     9
100
AcDbLine
 10
997.8779
 20
1359.384728
 30
0.0
 11
997.8779
 21
1313.384728
 31
0.0
  0
LINE
  5
4E6
330
1F
100
AcDbEntity
  8
002
  6
HIDDEN
 62
    40
370
     9
100
AcDbLine
 10
996.8779
 20
1309.384728
 30
0.0
 11
996.8779
 21
1313.384728
 31
0.0
  0
LINE
  5
4E7
330
1F
100
AcDbEntity
  8
002
  6
HIDDEN
 62
    40
370
     9
100
AcDbLine
 10
958.8779
 20
1309.384728
 30
0.0
 11
958.8779
 21
1313.384728
 31
0.0
  0
LINE
  5
4E8
330
1F
100
AcDbEntity
  8
002
 62
    40
370
     9
100
AcDbLine
 10
1000.8779
 20
1248.864949
 30
0.0
 11
1000.8779
 21
1309.384728
 31
0.0
  0
LINE
  5
4E9
330
1F
100
AcDbEntity
  8
002
 62
     3
370
    30
100
AcDbLine
 10
1002.87775
 20
1248.864949
 30
0.0
 11
1002.87775
 21
1309.384728
 31
0.0
  0
LINE
  5
4EA
330
1F
100
AcDbEntity
  8
002
 62
     3
370
    30
100
AcDbLine
 10
952.87805
 20
1248.864949
 30
0.0
 11
952.87805
 21
1309.384728
 31
0.0
  0
LINE
  5
4EB
330
1F
100
AcDbEntity
  8
002
 62
    40
370
     9
100
AcDbLine
 10
954.8779
 20
1248.864949
 30
0.0
 11
954.8779
 21
1309.384728
 31
0.0
  0
LINE
  5
4EC
330
1F
100
AcDbEntity
  8
002
  6
HIDDEN
 62
    40
370
     9
100
AcDbLine
 10
998.8779
 20
1359.384728
 30
0.0
 11
956.8779
 21
1359.384728
 31
0.0
  0
LINE
  5
4ED
330
1F
100
AcDbEntity
  8
002
  6
HIDDEN
 62
    40
370
     9
100
AcDbLine
 10
1403.490783
 20
1313.384728
 30
0.0
 11
1403.490783
 21
1359.384728
 31
0.0
  0
LINE
  5
4EE
330
1F
100
AcDbEntity
  8
002
  6
HIDDEN
 62
    40
370
     9
100
AcDbLine
 10
1361.490783
 20
1359.384728
 30
0.0
 11
1361.490783
 21
1313.384728
 31
0.0
  0
LINE
  5
4EF
330
1F
100
AcDbEntity
  8
002
  6
HIDDEN
 62
    40
370
     9
100
AcDbLine
 10
1362.490783
 20
1359.384728
 30
0.0
 11
1362.490783
 21
1313.384728
 31
0.0
  0
LINE
  5
4F0
330
1F
100
AcDbEntity
  8
002
  6
HIDDEN
 62
    40
370
     9
100
AcDbLine
 10
1361.490783
 20
1313.384728
 30
0.0
 11
1403.490783
 21
1313.384728
 31
0.0
  0
LINE
  5
4F1
330
1F
100
AcDbEntity
  8
002
  6
HIDDEN
 62
    40
370
     9
100
AcDbLine
 10
1402.490783
 20
1359.384728
 30
0.0
 11
1402.490783
 21
1313.384728
 31
0.0
  0
LINE
  5
4F2
330
1F
100
AcDbEntity
  8
002
  6
HIDDEN
 62
    40
370
     9
100
AcDbLine
 10
1401.490783
 20
1309.384728
 30
0.0
 11
1401.490783
 21
1313.384728
 31
0.0
  0
LINE
  5
4F3
330
1F
100
AcDbEntity
  8
002
  6
HIDDEN
 62
    40
370
     9
100
AcDbLine
 10
1363.490783
 20
1309.384728
 30
0.0
 11
1363.490783
 21
1313.384728
 31
0.0
  0
LINE
  5
4F4
330
1F
100
AcDbEntity
  8
002
 62
    40
370
     9
100
AcDbLine
 10
1405.490783
 20
1248.864949
 30
0.0
 11
1405.490783
 21
1309.384728
 31
0.0
  0
LINE
  5
4F5
330
1F
100
AcDbEntity
  8
002
 62
     3
370
    30
100
AcDbLine
 10
1407.490633
 20
1248.864949
 30
0.0
 11
1407.490633
 21
1309.384728
 31
0.0
  0
LINE
  5
4F6
330
1F
100
AcDbEntity
  8
002
 62
     3
370
    30
100
AcDbLine
 10
1357.490933
 20
1248.864949
 30
0.0
 11
1357.490933
 21
1309.384728
 31
0.0
  0
LINE
  5
4F7
330
1F
100
AcDbEntity
  8
002
 62
    40
370
     9
100
AcDbLine
 10
1359.490783
 20
1248.864949
 30
0.0
 11
1359.490783
 21
1309.384728
 31
0.0
  0
LINE
  5
4F8
330
1F
100
AcDbEntity
  8
002
  6
HIDDEN
 62
    40
370
     9
100
AcDbLine
 10
1403.490783
 20
1359.384728
 30
0.0
 11
1361.490783
 21
1359.384728
 31
0.0
  0
CIRCLE
  5
4F9
330
1F
100
AcDbEntity
  8
002
 62
     3
370
    30
100
AcDbCircle
 10
480.316018
 20
1657.315669
 30
0.0
 40
77.5
  0
LINE
  5
4FA
330
1F
100
AcDbEntity
  8
002
 62
     3
370
    30
100
AcDbLine
 10
1938.88658
 20
427.906837
 30
0.0
 11
1938.88658
 21
410.906837
 31
0.0
  0
LINE
  5
4FB
330
1F
100
AcDbEntity
  8
002
 62
     3
370
    30
100
AcDbLine
 10
1938.88658
 20
410.906837
 30
0.0
 11
1656.88658
 21
410.906837
 31
0.0
  0
LINE
  5
4FC
330
1F
100
AcDbEntity
  8
002
 62
     3
370
    30
100
AcDbLine
 10
1656.88658
 20
410.906837
 30
0.0
 11
1656.88658
 21
427.906837
 31
0.0
  0
ARC
  5
4FD
330
1F
100
AcDbEntity
  8
002
 62
     3
370
    30
100
AcDbCircle
 10
1659.88658
 20
427.906837
 30
0.0
 40
3.0
100
AcDbArc
 50
90.0
 51
180.0
  0
LINE
  5
4FE
330
1F
100
AcDbEntity
  8
002
 62
     3
370
    30
100
AcDbLine
 10
1659.88658
 20
430.906837
 30
0.0
 11
1935.88658
 21
430.906837
 31
0.0
  0
ARC
  5
4FF
330
1F
100
AcDbEntity
  8
002
 62
     3
370
    30
100
AcDbCircle
 10
1935.88658
 20
427.906837
 30
0.0
 40
3.0
100
AcDbArc
 50
0.0
 51
90.0
  0
ARC
  5
500
330
1F
100
AcDbEntity
  8
002
 62
     3
370
    30
100
AcDbCircle
 10
1920.36458
 20
435.906837
 30
0.0
 40
4.999564582040998
100
AcDbArc
 50
200.001807
 51
270.0
  0
LINE
  5
501
330
1F
100
AcDbEntity
  8
002
 62
     3
370
    30
100
AcDbLine
 10
1915.66658
 20
434.196737
 30
0.0
 11
1885.64058
 21
516.691137
 31
0.0
  0
LINE
  5
502
330
1F
100
AcDbEntity
  8
002
 62
     3
370
    30
100
AcDbLine
 10
1885.64058
 20
516.691137
 30
0.0
 11
1884.73858
 21
516.691137
 31
0.0
  0
ARC
  5
503
330
1F
100
AcDbEntity
  8
002
 62
     3
370
    30
100
AcDbCircle
 10
1884.73858
 20
518.691137
 30
0.0
 40
1.999320144448938
100
AcDbArc
 50
205.470491
 51
270.0
  0
ARC
  5
504
330
1F
100
AcDbEntity
  8
002
 62
     3
370
    30
100
AcDbCircle
 10
1865.88658
 20
506.861237
 30
0.0
 40
20.0
100
AcDbArc
 50
0.0
 51
20.69426
  0
LINE
  5
505
330
1F
100
AcDbEntity
  8
002
 62
     3
370
    30
100
AcDbLine
 10
1885.88658
 20
506.861237
 30
0.0
 11
1885.88658
 21
433.906837
 31
0.0
  0
ARC
  5
506
330
1F
100
AcDbEntity
  8
002
 62
     3
370
    30
100
AcDbCircle
 10
1888.88658
 20
433.906837
 30
0.0
 40
3.0
100
AcDbArc
 50
180.0
 51
270.0
  0
ARC
  5
507
330
1F
100
AcDbEntity
  8
002
 62
     3
370
    30
100
AcDbCircle
 10
1880.88658
 20
433.906837
 30
0.0
 40
3.0
100
AcDbArc
 50
180.0
 51
270.0
  0
LINE
  5
508
330
1F
100
AcDbEntity
  8
002
 62
     3
370
    30
100
AcDbLine
 10
1877.88658
 20
433.906837
 30
0.0
 11
1877.88658
 21
518.710337
 31
0.0
  0
ARC
  5
509
330
1F
100
AcDbEntity
  8
002
 62
     3
370
    30
100
AcDbCircle
 10
1857.88658
 20
518.710337
 30
0.0
 40
20.0
100
AcDbArc
 50
0.0
 51
18.194878
  0
LINE
  5
50A
330
1F
100
AcDbEntity
  8
002
 62
     3
370
    30
100
AcDbLine
 10
1876.88658
 20
527.545437
 30
0.0
 11
1876.88658
 21
464.268237
 31
0.0
  0
ARC
  5
50B
330
1F
100
AcDbEntity
  8
002
 62
     3
370
    30
100
AcDbCircle
 10
1836.88658
 20
495.906837
 30
0.0
 40
50.99935250804645
100
AcDbArc
 50
20.693769
 51
321.657237
  0
ARC
  5
50C
330
1F
100
AcDbEntity
  8
002
 62
     3
370
    30
100
AcDbCircle
 10
1873.88658
 20
537.942537
 30
0.0
 40
5.0
100
AcDbArc
 50
180.0
 51
228.642038
  0
LINE
  5
50D
330
1F
100
AcDbEntity
  8
002
 62
     3
370
    30
100
AcDbLine
 10
1868.88658
 20
537.942537
 30
0.0
 11
1868.88658
 21
569.906837
 31
0.0
  0
LINE
  5
50E
330
1F
100
AcDbEntity
  8
002
 62
     3
370
    30
100
AcDbLine
 10
1868.88658
 20
569.906837
 30
0.0
 11
1658.88658
 21
569.906837
 31
0.0
  0
LINE
  5
50F
330
1F
100
AcDbEntity
  8
002
 62
     3
370
    30
100
AcDbLine
 10
1658.88658
 20
569.906837
 30
0.0
 11
1658.88658
 21
529.743437
 31
0.0
  0
LINE
  5
510
330
1F
100
AcDbEntity
  8
002
 62
     3
370
    30
100
AcDbLine
 10
1662.59258
 20
525.906837
 30
0.0
 11
1791.98658
 21
525.906837
 31
0.0
  0
ARC
  5
511
330
1F
100
AcDbEntity
  8
002
 62
     3
370
    30
100
AcDbCircle
 10
1836.88658
 20
495.906837
 30
0.0
 40
54.00008238290009
100
AcDbArc
 50
112.444958
 51
152.850343
  0
LINE
  5
512
330
1F
100
AcDbEntity
  8
002
 62
     3
370
    30
100
AcDbLine
 10
1816.26958
 20
545.816237
 30
0.0
 11
1816.26958
 21
542.553837
 31
0.0
  0
LINE
  5
513
330
1F
100
AcDbEntity
  8
002
 62
     3
370
    30
100
AcDbLine
 10
1791.52058
 20
519.208137
 30
0.0
 11
1687.89258
 21
519.208137
 31
0.0
  0
ARC
  5
514
330
1F
100
AcDbEntity
  8
002
 62
     3
370
    30
100
AcDbCircle
 10
1682.89258
 20
515.547837
 30
0.0
 40
5.0
100
AcDbArc
 50
0.0
 51
65.695922
  0
LINE
  5
515
330
1F
100
AcDbEntity
  8
002
 62
     3
370
    30
100
AcDbLine
 10
1687.89258
 20
515.547837
 30
0.0
 11
1687.89258
 21
495.906837
 31
0.0
  0
ARC
  5
516
330
1F
100
AcDbEntity
  8
002
 62
     3
370
    30
100
AcDbCircle
 10
1488.21758
 20
507.306337
 30
0.0
 40
200.0006904019337
100
AcDbArc
 50
348.053586
 51
356.732515
  0
LINE
  5
517
330
1F
100
AcDbEntity
  8
002
 62
     3
370
    30
100
AcDbLine
 10
1683.88658
 20
465.906837
 30
0.0
 11
1683.88658
 21
433.906837
 31
0.0
  0
ARC
  5
518
330
1F
100
AcDbEntity
  8
002
 62
     3
370
    30
100
AcDbCircle
 10
1680.88658
 20
433.906837
 30
0.0
 40
3.0
100
AcDbArc
 50
270.0
 51
0.0
  0
LINE
  5
519
330
1F
100
AcDbEntity
  8
002
 62
     3
370
    30
100
AcDbLine
 10
1699.72458
 20
430.906837
 30
0.0
 11
1699.72458
 21
519.208137
 31
0.0
  0
LINE
  5
51A
330
1F
100
AcDbEntity
  8
002
 62
     3
370
    30
100
AcDbLine
 10
1715.26858
 20
519.208137
 30
0.0
 11
1715.26858
 21
430.906837
 31
0.0
  0
LINE
  5
51B
330
1F
100
AcDbEntity
  8
002
 62
     3
370
    30
100
AcDbLine
 10
1785.88658
 20
433.906837
 30
0.0
 11
1785.88658
 21
495.906837
 31
0.0
  0
CIRCLE
  5
51C
330
1F
100
AcDbEntity
  8
002
 62
     3
370
    30
100
AcDbCircle
 10
1836.88658
 20
495.906837
 30
0.0
 40
29.0
  0
ARC
  5
51D
330
1F
100
AcDbEntity
  8
002
 62
     3
370
    30
100
AcDbCircle
 10
1862.88658
 20
471.007037
 30
0.0
 40
14.99998962966305
100
AcDbArc
 50
338.769945
 51
0.0
  0
LINE
  5
51E
330
1F
100
AcDbEntity
  8
002
 62
     3
370
    30
100
AcDbLine
 10
1868.88658
 20
555.906837
 30
0.0
 11
1658.88658
 21
555.906837
 31
0.0
  0
LINE
  5
51F
330
1F
100
AcDbEntity
  8
002
 62
     3
370
    30
100
AcDbLine
 10
1667.95258
 20
569.906837
 30
0.0
 11
1667.95258
 21
581.906837
 31
0.0
  0
LINE
  5
520
330
1F
100
AcDbEntity
  8
002
 62
     3
370
    30
100
AcDbLine
 10
1685.95258
 20
581.906837
 30
0.0
 11
1667.95258
 21
581.906837
 31
0.0
  0
LINE
  5
521
330
1F
100
AcDbEntity
  8
002
 62
     3
370
    30
100
AcDbLine
 10
1685.95258
 20
581.906837
 30
0.0
 11
1685.95258
 21
569.906837
 31
0.0
  0
LINE
  5
522
330
1F
100
AcDbEntity
  8
002
 62
     3
370
    30
100
AcDbLine
 10
1685.95258
 20
570.906837
 30
0.0
 11
1691.24658
 21
570.906837
 31
0.0
  0
LINE
  5
523
330
1F
100
AcDbEntity
  8
002
 62
     3
370
    30
100
AcDbLine
 10
1691.24658
 20
569.906837
 30
0.0
 11
1691.24658
 21
581.906837
 31
0.0
  0
LINE
  5
524
330
1F
100
AcDbEntity
  8
002
 62
     3
370
    30
100
AcDbLine
 10
1709.24658
 20
581.906837
 30
0.0
 11
1691.24658
 21
581.906837
 31
0.0
  0
ARC
  5
525
330
1F
100
AcDbEntity
  8
002
 62
     3
370
    30
100
AcDbCircle
 10
1681.38658
 20
575.906837
 30
0.0
 40
4.999405885702655
100
AcDbArc
 50
335.966645
 51
0.0
  0
LINE
  5
526
330
1F
100
AcDbEntity
  8
002
 62
     3
370
    30
100
AcDbLine
 10
1686.38658
 20
575.906837
 30
0.0
 11
1686.38658
 21
767.906437
 31
0.0
  0
LINE
  5
527
330
1F
100
AcDbEntity
  8
002
 62
     3
370
    30
100
AcDbLine
 10
1686.38658
 20
767.906437
 30
0.0
 11
1841.38658
 21
767.906437
 31
0.0
  0
LINE
  5
528
330
1F
100
AcDbEntity
  8
002
 62
     3
370
    30
100
AcDbLine
 10
1841.38658
 20
767.906437
 30
0.0
 11
1841.38658
 21
575.906837
 31
0.0
  0
ARC
  5
529
330
1F
100
AcDbEntity
  8
002
 62
     3
370
    30
100
AcDbCircle
 10
1846.38658
 20
575.906837
 30
0.0
 40
5.0
100
AcDbArc
 50
180.0
 51
204.028688
  0
LINE
  5
52A
330
1F
100
AcDbEntity
  8
002
 62
     3
370
    30
100
AcDbLine
 10
1841.81958
 20
570.906837
 30
0.0
 11
1836.52558
 21
570.906837
 31
0.0
  0
LINE
  5
52B
330
1F
100
AcDbEntity
  8
002
 62
     3
370
    30
100
AcDbLine
 10
1836.52558
 20
569.906837
 30
0.0
 11
1836.52558
 21
581.906837
 31
0.0
  0
LINE
  5
52C
330
1F
100
AcDbEntity
  8
002
 62
     3
370
    30
100
AcDbLine
 10
1818.52558
 20
581.906837
 30
0.0
 11
1836.52558
 21
581.906837
 31
0.0
  0
LINE
  5
52D
330
1F
100
AcDbEntity
  8
002
 62
     3
370
    30
100
AcDbLine
 10
1841.81958
 20
581.906837
 30
0.0
 11
1841.81958
 21
569.906837
 31
0.0
  0
LINE
  5
52E
330
1F
100
AcDbEntity
  8
002
 62
     3
370
    30
100
AcDbLine
 10
1859.81958
 20
581.906837
 30
0.0
 11
1841.81958
 21
581.906837
 31
0.0
  0
LINE
  5
52F
330
1F
100
AcDbEntity
  8
002
 62
     3
370
    30
100
AcDbLine
 10
1859.81958
 20
581.906837
 30
0.0
 11
1859.81958
 21
569.906837
 31
0.0
  0
LINE
  5
530
330
1F
100
AcDbEntity
  8
002
 62
     3
370
    30
100
AcDbLine
 10
1818.52558
 20
569.906837
 30
0.0
 11
1818.52558
 21
581.906837
 31
0.0
  0
LINE
  5
531
330
1F
100
AcDbEntity
  8
002
 62
     3
370
    30
100
AcDbLine
 10
1818.52558
 20
570.906837
 30
0.0
 11
1796.17958
 21
570.906837
 31
0.0
  0
LINE
  5
532
330
1F
100
AcDbEntity
  8
002
 62
     3
370
    30
100
AcDbLine
 10
1796.17958
 20
569.906837
 30
0.0
 11
1796.17958
 21
581.906837
 31
0.0
  0
LINE
  5
533
330
1F
100
AcDbEntity
  8
002
 62
     3
370
    30
100
AcDbLine
 10
1778.17958
 20
581.906837
 30
0.0
 11
1796.17958
 21
581.906837
 31
0.0
  0
LINE
  5
534
330
1F
100
AcDbEntity
  8
002
 62
     3
370
    30
100
AcDbLine
 10
1778.17958
 20
581.906837
 30
0.0
 11
1778.17958
 21
569.906837
 31
0.0
  0
LINE
  5
535
330
1F
100
AcDbEntity
  8
002
 62
     3
370
    30
100
AcDbLine
 10
1778.17958
 20
570.906837
 30
0.0
 11
1749.59258
 21
570.906837
 31
0.0
  0
LINE
  5
536
330
1F
100
AcDbEntity
  8
002
 62
     3
370
    30
100
AcDbLine
 10
1749.59258
 20
569.906837
 30
0.0
 11
1749.59258
 21
581.906837
 31
0.0
  0
LINE
  5
537
330
1F
100
AcDbEntity
  8
002
 62
     3
370
    30
100
AcDbLine
 10
1731.59258
 20
581.906837
 30
0.0
 11
1749.59258
 21
581.906837
 31
0.0
  0
LINE
  5
538
330
1F
100
AcDbEntity
  8
002
 62
     3
370
    30
100
AcDbLine
 10
1731.59258
 20
581.906837
 30
0.0
 11
1731.59258
 21
569.906837
 31
0.0
  0
LINE
  5
539
330
1F
100
AcDbEntity
  8
002
 62
     3
370
    30
100
AcDbLine
 10
1731.59258
 20
570.906837
 30
0.0
 11
1709.24658
 21
570.906837
 31
0.0
  0
LINE
  5
53A
330
1F
100
AcDbEntity
  8
002
 62
     3
370
    30
100
AcDbLine
 10
1709.24658
 20
569.906837
 30
0.0
 11
1709.24658
 21
581.906837
 31
0.0
  0
LINE
  5
53B
330
1F
100
AcDbEntity
  8
002
 62
     3
370
    30
100
AcDbLine
 10
1682.89258
 20
520.547837
 30
0.0
 11
1678.88658
 21
520.547837
 31
0.0
  0
LINE
  5
53C
330
1F
100
AcDbEntity
  8
002
 62
     3
370
    30
100
AcDbLine
 10
1678.88658
 20
516.711237
 30
0.0
 11
1678.88658
 21
470.906837
 31
0.0
  0
ARC
  5
53D
330
1F
100
AcDbEntity
  8
002
 62
     3
370
    30
100
AcDbCircle
 10
1678.88658
 20
465.906837
 30
0.0
 40
5.0
100
AcDbArc
 50
0.0
 51
90.0
  0
LINE
  5
53E
330
1F
100
AcDbEntity
  8
002
 62
     3
370
    30
100
AcDbLine
 10
1678.88658
 20
479.238737
 30
0.0
 11
1670.88658
 21
478.988737
 31
0.0
  0
LINE
  5
53F
330
1F
100
AcDbEntity
  8
002
 62
     3
370
    30
100
AcDbLine
 10
1670.88658
 20
478.988737
 30
0.0
 11
1670.88658
 21
512.824837
 31
0.0
  0
LINE
  5
540
330
1F
100
AcDbEntity
  8
002
 62
     3
370
    30
100
AcDbLine
 10
1670.88658
 20
512.824837
 30
0.0
 11
1678.88658
 21
512.574837
 31
0.0
  0
LINE
  5
541
330
1F
100
AcDbEntity
  8
002
 62
     3
370
    30
100
AcDbLine
 10
1675.18058
 20
521.540837
 30
0.0
 11
1662.59258
 21
524.913837
 31
0.0
  0
ARC
  5
542
330
1F
100
AcDbEntity
  8
002
 62
     3
370
    30
100
AcDbCircle
 10
1663.88658
 20
529.743437
 30
0.0
 40
5.0
100
AcDbArc
 50
180.0
 51
255.000968
  0
ARC
  5
543
330
1F
100
AcDbEntity
  8
002
 62
     3
370
    30
100
AcDbCircle
 10
1673.88658
 20
516.711237
 30
0.0
 40
5.0
100
AcDbArc
 50
0.0
 51
75.000968
  0
LINE
  5
544
330
1F
100
AcDbEntity
  8
002
 62
     3
370
    30
100
AcDbLine
 10
1670.88658
 20
505.406837
 30
0.0
 11
1658.88658
 21
504.906837
 31
0.0
  0
LINE
  5
545
330
1F
100
AcDbEntity
  8
002
 62
     3
370
    30
100
AcDbLine
 10
1658.88658
 20
504.906837
 30
0.0
 11
1658.88658
 21
486.906837
 31
0.0
  0
LINE
  5
546
330
1F
100
AcDbEntity
  8
002
 62
     3
370
    30
100
AcDbLine
 10
1658.88658
 20
486.906837
 30
0.0
 11
1670.88658
 21
486.406837
 31
0.0
  0
CIRCLE
  5
547
330
1F
100
AcDbEntity
  8
002
 62
     3
370
    30
100
AcDbCircle
 10
1763.88658
 20
495.906837
 30
0.0
 40
10.0
  0
LINE
  5
548
330
1F
100
AcDbEntity
  8
002
 62
     3
370
    30
100
AcDbLine
 10
1758.11258
 20
495.906837
 30
0.0
 11
1760.99958
 21
500.906837
 31
0.0
  0
LINE
  5
549
330
1F
100
AcDbEntity
  8
002
 62
     3
370
    30
100
AcDbLine
 10
1760.99958
 20
500.906837
 30
0.0
 11
1766.77358
 21
500.906837
 31
0.0
  0
LINE
  5
54A
330
1F
100
AcDbEntity
  8
002
 62
     3
370
    30
100
AcDbLine
 10
1766.77358
 20
500.906837
 30
0.0
 11
1769.65958
 21
495.906837
 31
0.0
  0
LINE
  5
54B
330
1F
100
AcDbEntity
  8
002
 62
     3
370
    30
100
AcDbLine
 10
1769.65958
 20
495.906837
 30
0.0
 11
1766.77358
 21
490.906837
 31
0.0
  0
LINE
  5
54C
330
1F
100
AcDbEntity
  8
002
 62
     3
370
    30
100
AcDbLine
 10
1766.77358
 20
490.906837
 30
0.0
 11
1760.99958
 21
490.906837
 31
0.0
  0
LINE
  5
54D
330
1F
100
AcDbEntity
  8
002
 62
     3
370
    30
100
AcDbLine
 10
1760.99958
 20
490.906837
 30
0.0
 11
1758.11258
 21
495.906837
 31
0.0
  0
CIRCLE
  5
54E
330
1F
100
AcDbEntity
  8
002
 62
     3
370
    30
100
AcDbCircle
 10
1763.88658
 20
495.906837
 30
0.0
 40
5.0
  0
CIRCLE
  5
54F
330
1F
100
AcDbEntity
  8
002
 62
     3
370
    30
100
AcDbCircle
 10
1763.88658
 20
495.906837
 30
0.0
 40
3.25
  0
CIRCLE
  5
550
330
1F
100
AcDbEntity
  8
002
 62
     3
370
    30
100
AcDbCircle
 10
1763.88658
 20
495.906837
 30
0.0
 40
2.5
  0
CIRCLE
  5
551
330
1F
100
AcDbEntity
  8
002
 62
     3
370
    30
100
AcDbCircle
 10
1763.88658
 20
495.906837
 30
0.0
 40
0.75
  0
LINE
  5
552
330
1F
100
AcDbEntity
  8
002
 62
     3
370
    30
100
AcDbLine
 10
1788.83658
 20
520.547837
 30
0.0
 11
1791.52058
 21
519.208137
 31
0.0
  0
ARC
  5
553
330
1F
100
AcDbEntity
  8
002
 62
     3
370
    30
100
AcDbCircle
 10
1782.88658
 20
433.906837
 30
0.0
 40
3.0
100
AcDbArc
 50
270.0
 51
0.0
  0
LINE
  5
554
330
1F
100
AcDbEntity
  8
002
 62
     3
370
    30
100
AcDbLine
 10
1760.99958
 20
722.906437
 30
0.0
 11
1766.77358
 21
722.906437
 31
0.0
  0
LINE
  5
555
330
1F
100
AcDbEntity
  8
002
 62
     3
370
    30
100
AcDbLine
 10
1766.77358
 20
722.906437
 30
0.0
 11
1769.65958
 21
727.906437
 31
0.0
  0
LINE
  5
556
330
1F
100
AcDbEntity
  8
002
 62
     3
370
    30
100
AcDbLine
 10
1769.65958
 20
727.906437
 30
0.0
 11
1766.77358
 21
732.906437
 31
0.0
  0
LINE
  5
557
330
1F
100
AcDbEntity
  8
002
 62
     3
370
    30
100
AcDbLine
 10
1766.77358
 20
732.906437
 30
0.0
 11
1760.99958
 21
732.906437
 31
0.0
  0
LINE
  5
558
330
1F
100
AcDbEntity
  8
002
 62
     3
370
    30
100
AcDbLine
 10
1760.99958
 20
732.906437
 30
0.0
 11
1758.11258
 21
727.906437
 31
0.0
  0
LINE
  5
559
330
1F
100
AcDbEntity
  8
002
 62
     3
370
    30
100
AcDbLine
 10
1758.11258
 20
727.906437
 30
0.0
 11
1760.99958
 21
722.906437
 31
0.0
  0
CIRCLE
  5
55A
330
1F
100
AcDbEntity
  8
002
 62
     3
370
    30
100
AcDbCircle
 10
1763.88658
 20
727.906437
 30
0.0
 40
3.25
  0
CIRCLE
  5
55B
330
1F
100
AcDbEntity
  8
002
 62
     3
370
    30
100
AcDbCircle
 10
1763.88658
 20
727.906437
 30
0.0
 40
2.5
  0
CIRCLE
  5
55C
330
1F
100
AcDbEntity
  8
002
 62
     3
370
    30
100
AcDbCircle
 10
1763.88658
 20
727.906437
 30
0.0
 40
0.75
  0
CIRCLE
  5
55D
330
1F
100
AcDbEntity
  8
002
 62
     3
370
    30
100
AcDbCircle
 10
1763.88658
 20
727.906437
 30
0.0
 40
5.0
  0
LINE
  5
55E
330
1F
100
AcDbEntity
  8
002
 62
     3
370
    30
100
AcDbLine
 10
1732.99558
 20
773.906437
 30
0.0
 11
1732.99558
 21
783.906437
 31
0.0
  0
LINE
  5
55F
330
1F
100
AcDbEntity
  8
002
 62
     3
370
    30
100
AcDbLine
 10
1732.99558
 20
783.906437
 30
0.0
 11
1716.99558
 21
783.906437
 31
0.0
  0
LINE
  5
560
330
1F
100
AcDbEntity
  8
002
 62
     3
370
    30
100
AcDbLine
 10
1716.99558
 20
783.906437
 30
0.0
 11
1716.99558
 21
773.906437
 31
0.0
  0
LINE
  5
561
330
1F
100
AcDbEntity
  8
002
 62
     3
370
    30
100
AcDbLine
 10
1810.77758
 20
783.906437
 30
0.0
 11
1794.77758
 21
783.906437
 31
0.0
  0
LINE
  5
562
330
1F
100
AcDbEntity
  8
002
 62
     3
370
    30
100
AcDbLine
 10
1810.77758
 20
783.906437
 30
0.0
 11
1810.77758
 21
773.906437
 31
0.0
  0
LINE
  5
563
330
1F
100
AcDbEntity
  8
002
 62
     3
370
    30
100
AcDbLine
 10
1794.77758
 20
783.906437
 30
0.0
 11
1794.77758
 21
773.906437
 31
0.0
  0
LINE
  5
564
330
1F
100
AcDbEntity
  8
002
 62
     3
370
    30
100
AcDbLine
 10
1830.88658
 20
773.906437
 30
0.0
 11
1696.88658
 21
773.906437
 31
0.0
  0
LINE
  5
565
330
1F
100
AcDbEntity
  8
002
 62
     3
370
    30
100
AcDbLine
 10
1696.88658
 20
773.906437
 30
0.0
 11
1696.88658
 21
767.906437
 31
0.0
  0
LINE
  5
566
330
1F
100
AcDbEntity
  8
002
 62
     3
370
    30
100
AcDbLine
 10
1830.88658
 20
767.906437
 30
0.0
 11
1830.88658
 21
773.906437
 31
0.0
  0
LINE
  5
567
330
1F
100
AcDbEntity
  8
002
  6
CENTER
 62
    40
370
     9
100
AcDbLine
 10
1802.77758
 20
791.424437
 30
0.0
 11
1802.77758
 21
765.798437
 31
0.0
  0
LINE
  5
568
330
1F
100
AcDbEntity
  8
002
  6
CENTER
 62
    40
370
     9
100
AcDbLine
 10
1771.34558
 20
727.906437
 30
0.0
 11
1756.85058
 21
727.906437
 31
0.0
  0
LINE
  5
569
330
1F
100
AcDbEntity
  8
002
  6
CENTER
 62
    40
370
     9
100
AcDbLine
 10
1724.99558
 20
765.798437
 30
0.0
 11
1724.99558
 21
791.424437
 31
0.0
  0
LINE
  5
56A
330
1F
100
AcDbEntity
  8
002
  6
CENTER
 62
    40
370
     9
100
AcDbLine
 10
1740.59258
 20
587.877837
 30
0.0
 11
1740.59258
 21
553.022637
 31
0.0
  0
LINE
  5
56B
330
1F
100
AcDbEntity
  8
002
  6
CENTER
 62
    40
370
     9
100
AcDbLine
 10
1700.24658
 20
553.022637
 30
0.0
 11
1700.24658
 21
587.877837
 31
0.0
  0
LINE
  5
56C
330
1F
100
AcDbEntity
  8
002
  6
CENTER
 62
    40
370
     9
100
AcDbLine
 10
1676.95258
 20
587.877837
 30
0.0
 11
1676.95258
 21
553.022637
 31
0.0
  0
LINE
  5
56D
330
1F
100
AcDbEntity
  8
002
 62
    40
370
     9
100
AcDbLine
 10
1678.88658
 20
511.134537
 30
0.0
 11
1670.88658
 21
511.384537
 31
0.0
  0
LINE
  5
56E
330
1F
100
AcDbEntity
  8
002
 62
    40
370
     9
100
AcDbLine
 10
1670.88658
 20
505.406837
 30
0.0
 11
1658.88658
 21
486.906837
 31
0.0
  0
LINE
  5
56F
330
1F
100
AcDbEntity
  8
002
  6
CENTER
 62
    40
370
     9
100
AcDbLine
 10
1656.32258
 20
495.906837
 30
0.0
 11
1915.53158
 21
495.906837
 31
0.0
  0
LINE
  5
570
330
1F
100
AcDbEntity
  8
002
  6
CENTER
 62
    40
370
     9
100
AcDbLine
 10
1787.17958
 20
553.022637
 30
0.0
 11
1787.17958
 21
587.877837
 31
0.0
  0
LINE
  5
571
330
1F
100
AcDbEntity
  8
002
  6
CENTER
 62
    40
370
     9
100
AcDbLine
 10
1827.52558
 20
587.877837
 30
0.0
 11
1827.52558
 21
553.022637
 31
0.0
  0
LINE
  5
572
330
1F
100
AcDbEntity
  8
002
  6
CENTER
 62
    40
370
     9
100
AcDbLine
 10
1836.88658
 20
555.906837
 30
0.0
 11
1836.88658
 21
430.906837
 31
0.0
  0
LINE
  5
573
330
1F
100
AcDbEntity
  8
002
  6
DASHED
 62
    40
370
     9
100
AcDbLine
 10
1883.88658
 20
430.906837
 30
0.0
 11
1883.88658
 21
429.906837
 31
0.0
  0
LINE
  5
574
330
1F
100
AcDbEntity
  8
002
  6
DASHED
 62
    40
370
     9
100
AcDbLine
 10
1933.88658
 20
429.906837
 30
0.0
 11
1933.88658
 21
430.906837
 31
0.0
  0
LINE
  5
575
330
1F
100
AcDbEntity
  8
002
  6
CENTER
 62
    40
370
     9
100
AcDbLine
 10
1908.88658
 20
401.797637
 30
0.0
 11
1908.88658
 21
437.262337
 31
0.0
  0
LINE
  5
576
330
1F
100
AcDbEntity
  8
002
  6
DASHED
 62
    40
370
     9
100
AcDbLine
 10
1661.88658
 20
429.906837
 30
0.0
 11
1661.88658
 21
430.906837
 31
0.0
  0
LINE
  5
577
330
1F
100
AcDbEntity
  8
002
  6
CENTER
 62
    40
370
     9
100
AcDbLine
 10
1686.88658
 20
401.797637
 30
0.0
 11
1686.88658
 21
437.262337
 31
0.0
  0
LINE
  5
578
330
1F
100
AcDbEntity
  8
002
  6
DASHED
 62
    40
370
     9
100
AcDbLine
 10
1711.88658
 20
429.906837
 30
0.0
 11
1711.88658
 21
430.906837
 31
0.0
  0
LINE
  5
579
330
1F
100
AcDbEntity
  8
002
 62
    40
370
     9
100
AcDbLine
 10
1678.88658
 20
480.679137
 30
0.0
 11
1670.88658
 21
480.429137
 31
0.0
  0
LINE
  5
57A
330
1F
100
AcDbEntity
  8
002
 62
    40
370
     9
100
AcDbLine
 10
1670.88658
 20
486.406837
 30
0.0
 11
1658.88658
 21
504.906837
 31
0.0
  0
LINE
  5
57B
330
1F
100
AcDbEntity
  8
002
  6
CENTER
 62
    40
370
     9
100
AcDbLine
 10
1850.81958
 20
553.022637
 30
0.0
 11
1850.81958
 21
587.877837
 31
0.0
  0
LINE
  5
57C
330
1F
100
AcDbEntity
  8
002
  6
HIDDEN
 62
    40
370
     9
100
AcDbLine
 10
1711.88658
 20
429.906837
 30
0.0
 11
1661.88658
 21
429.906837
 31
0.0
  0
LINE
  5
57D
330
1F
100
AcDbEntity
  8
002
  6
HIDDEN
 62
    40
370
     9
100
AcDbLine
 10
1673.88658
 20
429.906837
 30
0.0
 11
1673.88658
 21
410.906837
 31
0.0
  0
LINE
  5
57E
330
1F
100
AcDbEntity
  8
002
  6
HIDDEN
 62
    40
370
     9
100
AcDbLine
 10
1699.88658
 20
429.906837
 30
0.0
 11
1699.88658
 21
410.906837
 31
0.0
  0
LINE
  5
57F
330
1F
100
AcDbEntity
  8
002
  6
HIDDEN
 62
    40
370
     9
100
AcDbLine
 10
1895.88658
 20
429.906837
 30
0.0
 11
1895.88658
 21
410.906837
 31
0.0
  0
LINE
  5
580
330
1F
100
AcDbEntity
  8
002
  6
HIDDEN
 62
    40
370
     9
100
AcDbLine
 10
1883.88658
 20
429.906837
 30
0.0
 11
1933.88658
 21
429.906837
 31
0.0
  0
LINE
  5
581
330
1F
100
AcDbEntity
  8
002
  6
HIDDEN
 62
    40
370
     9
100
AcDbLine
 10
1921.88658
 20
429.906837
 30
0.0
 11
1921.88658
 21
410.906837
 31
0.0
  0
LINE
  5
582
330
1F
100
AcDbEntity
  8
002
 62
     3
370
    30
100
AcDbLine
 10
1719.33658
 20
1032.906837
 30
0.0
 11
1808.43658
 21
1032.906837
 31
0.0
  0
LINE
  5
583
330
1F
100
AcDbEntity
  8
002
 62
     3
370
    30
100
AcDbLine
 10
1784.88658
 20
167.905837
 30
0.0
 11
1742.88658
 21
167.905837
 31
0.0
  0
LINE
  5
584
330
1F
100
AcDbEntity
  8
002
 62
     3
370
    30
100
AcDbLine
 10
1784.88658
 20
213.905837
 30
0.0
 11
1784.88658
 21
167.905837
 31
0.0
  0
LINE
  5
585
330
1F
100
AcDbEntity
  8
002
 62
     3
370
    30
100
AcDbLine
 10
1742.88658
 20
167.905837
 30
0.0
 11
1742.88658
 21
213.905837
 31
0.0
  0
LINE
  5
586
330
1F
100
AcDbEntity
  8
002
 62
    40
370
     9
100
AcDbLine
 10
1743.88658
 20
167.905837
 30
0.0
 11
1743.88658
 21
213.905837
 31
0.0
  0
LINE
  5
587
330
1F
100
AcDbEntity
  8
002
 62
     3
370
    30
100
AcDbLine
 10
1742.88658
 20
213.905837
 30
0.0
 11
1784.88658
 21
213.905837
 31
0.0
  0
LINE
  5
588
330
1F
100
AcDbEntity
  8
002
 62
    40
370
     9
100
AcDbLine
 10
1783.88658
 20
167.905837
 30
0.0
 11
1783.88658
 21
213.905837
 31
0.0
  0
LINE
  5
589
330
1F
100
AcDbEntity
  8
002
 62
     3
370
    30
100
AcDbLine
 10
1782.88658
 20
217.905837
 30
0.0
 11
1782.88658
 21
213.905837
 31
0.0
  0
LINE
  5
58A
330
1F
100
AcDbEntity
  8
002
 62
     3
370
    30
100
AcDbLine
 10
1744.88658
 20
217.905837
 30
0.0
 11
1744.88658
 21
213.905837
 31
0.0
  0
LINE
  5
58B
330
1F
100
AcDbEntity
  8
002
 62
     3
370
    30
100
AcDbLine
 10
1696.88658
 20
410.906837
 30
0.0
 11
1696.88658
 21
408.606837
 31
0.0
  0
LINE
  5
58C
330
1F
100
AcDbEntity
  8
002
 62
     3
370
    30
100
AcDbLine
 10
1696.88658
 20
408.606837
 30
0.0
 11
1830.88658
 21
408.606837
 31
0.0
  0
LINE
  5
58D
330
1F
100
AcDbEntity
  8
002
 62
     3
370
    30
100
AcDbLine
 10
1830.88658
 20
408.606837
 30
0.0
 11
1830.88658
 21
410.906837
 31
0.0
  0
LINE
  5
58E
330
1F
100
AcDbEntity
  8
002
 62
     3
370
    30
100
AcDbLine
 10
1810.77748
 20
408.606837
 30
0.0
 11
1810.77748
 21
398.606837
 31
0.0
  0
LINE
  5
58F
330
1F
100
AcDbEntity
  8
002
 62
     3
370
    30
100
AcDbLine
 10
1794.77748
 20
398.606837
 30
0.0
 11
1794.77748
 21
408.606837
 31
0.0
  0
LINE
  5
590
330
1F
100
AcDbEntity
  8
002
 62
     3
370
    30
100
AcDbLine
 10
1794.77748
 20
404.906837
 30
0.0
 11
1732.99568
 21
404.906837
 31
0.0
  0
LINE
  5
591
330
1F
100
AcDbEntity
  8
002
 62
     3
370
    30
100
AcDbLine
 10
1732.99568
 20
408.606837
 30
0.0
 11
1732.99568
 21
398.606837
 31
0.0
  0
LINE
  5
592
330
1F
100
AcDbEntity
  8
002
 62
     3
370
    30
100
AcDbLine
 10
1716.99568
 20
398.606837
 30
0.0
 11
1732.99568
 21
398.606837
 31
0.0
  0
LINE
  5
593
330
1F
100
AcDbEntity
  8
002
 62
     3
370
    30
100
AcDbLine
 10
1717.58658
 20
398.606837
 30
0.0
 11
1717.58658
 21
391.906837
 31
0.0
  0
LINE
  5
594
330
1F
100
AcDbEntity
  8
002
 62
     3
370
    30
100
AcDbLine
 10
1718.18658
 20
391.906837
 30
0.0
 11
1718.18658
 21
390.906837
 31
0.0
  0
LINE
  5
595
330
1F
100
AcDbEntity
  8
002
 62
     3
370
    30
100
AcDbLine
 10
1718.18658
 20
390.906837
 30
0.0
 11
1704.71298
 21
386.890837
 31
0.0
  0
LINE
  5
596
330
1F
100
AcDbEntity
  8
002
 62
     3
370
    30
100
AcDbLine
 10
1704.88658
 20
385.906837
 30
0.0
 11
1822.88658
 21
385.906837
 31
0.0
  0
LINE
  5
597
330
1F
100
AcDbEntity
  8
002
 62
     3
370
    30
100
AcDbLine
 10
1823.06008
 20
386.890837
 30
0.0
 11
1809.58658
 21
390.906837
 31
0.0
  0
LINE
  5
598
330
1F
100
AcDbEntity
  8
002
 62
     3
370
    30
100
AcDbLine
 10
1809.58658
 20
390.906837
 30
0.0
 11
1718.18658
 21
390.906837
 31
0.0
  0
LINE
  5
599
330
1F
100
AcDbEntity
  8
002
 62
     3
370
    30
100
AcDbLine
 10
1716.99568
 20
398.606837
 30
0.0
 11
1716.99568
 21
408.606837
 31
0.0
  0
LINE
  5
59A
330
1F
100
AcDbEntity
  8
002
 62
     3
370
    30
100
AcDbLine
 10
1716.99568
 20
404.906837
 30
0.0
 11
1709.58658
 21
404.906837
 31
0.0
  0
ARC
  5
59B
330
1F
100
AcDbEntity
  8
002
 62
     3
370
    30
100
AcDbCircle
 10
1709.58658
 20
402.906837
 30
0.0
 40
2.0
100
AcDbArc
 50
90.0
 51
180.0
  0
LINE
  5
59C
330
1F
100
AcDbEntity
  8
002
 62
     3
370
    30
100
AcDbLine
 10
1707.58658
 20
402.906837
 30
0.0
 11
1707.58658
 21
393.906837
 31
0.0
  0
LINE
  5
59D
330
1F
100
AcDbEntity
  8
002
 62
     3
370
    30
100
AcDbLine
 10
1709.58658
 20
391.906837
 30
0.0
 11
1810.18658
 21
391.906837
 31
0.0
  0
LINE
  5
59E
330
1F
100
AcDbEntity
  8
002
 62
     3
370
    30
100
AcDbLine
 10
1810.18658
 20
391.906837
 30
0.0
 11
1810.18658
 21
398.606837
 31
0.0
  0
LINE
  5
59F
330
1F
100
AcDbEntity
  8
002
 62
     3
370
    30
100
AcDbLine
 10
1810.77748
 20
398.606837
 30
0.0
 11
1794.77748
 21
398.606837
 31
0.0
  0
LINE
  5
5A0
330
1F
100
AcDbEntity
  8
002
 62
     3
370
    30
100
AcDbLine
 10
1809.58658
 20
391.906837
 30
0.0
 11
1809.58658
 21
390.906837
 31
0.0
  0
LINE
  5
5A1
330
1F
100
AcDbEntity
  8
002
 62
     3
370
    30
100
AcDbLine
 10
1804.71298
 20
381.890837
 30
0.0
 11
1823.06008
 21
384.921837
 31
0.0
  0
ARC
  5
5A2
330
1F
100
AcDbEntity
  8
002
 62
     3
370
    30
100
AcDbCircle
 10
1822.88658
 20
385.906837
 30
0.0
 40
1.000163611615753
100
AcDbArc
 50
279.989728
 51
80.000325
  0
ARC
  5
5A3
330
1F
100
AcDbEntity
  8
002
 62
     3
370
    30
100
AcDbCircle
 10
1822.88658
 20
375.906837
 30
0.0
 40
1.000163611615753
100
AcDbArc
 50
279.989728
 51
80.000325
  0
LINE
  5
5A4
330
1F
100
AcDbEntity
  8
002
 62
     3
370
    30
100
AcDbLine
 10
1823.06008
 20
374.921837
 30
0.0
 11
1804.71298
 21
371.890837
 31
0.0
  0
ARC
  5
5A5
330
1F
100
AcDbEntity
  8
002
 62
     3
370
    30
100
AcDbCircle
 10
1804.88658
 20
370.906837
 30
0.0
 40
0.9991961569180685
100
AcDbArc
 50
100.005322
 51
260.00463
  0
LINE
  5
5A6
330
1F
100
AcDbEntity
  8
002
 62
     3
370
    30
100
AcDbLine
 10
1804.71298
 20
369.921837
 30
0.0
 11
1823.06008
 21
366.890837
 31
0.0
  0
ARC
  5
5A7
330
1F
100
AcDbEntity
  8
002
 62
     3
370
    30
100
AcDbCircle
 10
1822.88658
 20
365.906837
 30
0.0
 40
1.000163611615753
100
AcDbArc
 50
279.989728
 51
80.000325
  0
LINE
  5
5A8
330
1F
100
AcDbEntity
  8
002
 62
     3
370
    30
100
AcDbLine
 10
1823.06008
 20
364.921837
 30
0.0
 11
1804.71298
 21
361.890837
 31
0.0
  0
ARC
  5
5A9
330
1F
100
AcDbEntity
  8
002
 62
     3
370
    30
100
AcDbCircle
 10
1804.88658
 20
360.906837
 30
0.0
 40
0.9991961569180685
100
AcDbArc
 50
100.005322
 51
180.0
  0
LINE
  5
5AA
330
1F
100
AcDbEntity
  8
002
 62
     3
370
    30
100
AcDbLine
 10
1802.88658
 20
360.906837
 30
0.0
 11
1724.88658
 21
360.906837
 31
0.0
  0
LINE
  5
5AB
330
1F
100
AcDbEntity
  8
002
 62
     3
370
    30
100
AcDbLine
 10
1723.06008
 20
361.890837
 30
0.0
 11
1704.71298
 21
364.921837
 31
0.0
  0
ARC
  5
5AC
330
1F
100
AcDbEntity
  8
002
 62
     3
370
    30
100
AcDbCircle
 10
1704.88658
 20
365.906837
 30
0.0
 40
0.9991961569180685
100
AcDbArc
 50
100.005322
 51
260.00463
  0
LINE
  5
5AD
330
1F
100
AcDbEntity
  8
002
 62
     3
370
    30
100
AcDbLine
 10
1704.71298
 20
366.890837
 30
0.0
 11
1723.06008
 21
369.921837
 31
0.0
  0
LINE
  5
5AE
330
1F
100
AcDbEntity
  8
002
 62
     3
370
    30
100
AcDbLine
 10
1723.06008
 20
371.890837
 30
0.0
 11
1704.71298
 21
374.921837
 31
0.0
  0
ARC
  5
5AF
330
1F
100
AcDbEntity
  8
002
 62
     3
370
    30
100
AcDbCircle
 10
1704.88658
 20
375.906837
 30
0.0
 40
0.9991961569180685
100
AcDbArc
 50
100.005322
 51
260.00463
  0
LINE
  5
5B0
330
1F
100
AcDbEntity
  8
002
 62
     3
370
    30
100
AcDbLine
 10
1704.71298
 20
376.890837
 30
0.0
 11
1723.06008
 21
379.921837
 31
0.0
  0
ARC
  5
5B1
330
1F
100
AcDbEntity
  8
002
 62
     3
370
    30
100
AcDbCircle
 10
1722.88658
 20
380.906837
 30
0.0
 40
1.000163611615753
100
AcDbArc
 50
279.989728
 51
80.000325
  0
LINE
  5
5B2
330
1F
100
AcDbEntity
  8
002
 62
     3
370
    30
100
AcDbLine
 10
1723.06008
 20
381.890837
 30
0.0
 11
1704.71298
 21
384.921837
 31
0.0
  0
ARC
  5
5B3
330
1F
100
AcDbEntity
  8
002
 62
     3
370
    30
100
AcDbCircle
 10
1704.88658
 20
385.906837
 30
0.0
 40
0.9991961569180685
100
AcDbArc
 50
100.005322
 51
260.00463
  0
ARC
  5
5B4
330
1F
100
AcDbEntity
  8
002
 62
     3
370
    30
100
AcDbCircle
 10
1709.58658
 20
393.906837
 30
0.0
 40
2.0
100
AcDbArc
 50
180.0
 51
270.0
  0
CIRCLE
  5
5B5
330
1F
100
AcDbEntity
  8
002
 62
     3
370
    30
100
AcDbCircle
 10
1712.58658
 20
398.406837
 30
0.0
 40
1.0
  0
LINE
  5
5B6
330
1F
100
AcDbEntity
  8
002
 62
     3
370
    30
100
AcDbLine
 10
1724.88658
 20
380.906837
 30
0.0
 11
1802.88658
 21
380.906837
 31
0.0
  0
ARC
  5
5B7
330
1F
100
AcDbEntity
  8
002
 62
     3
370
    30
100
AcDbCircle
 10
1804.88658
 20
380.906837
 30
0.0
 40
0.9991961569180685
100
AcDbArc
 50
100.005322
 51
260.00463
  0
LINE
  5
5B8
330
1F
100
AcDbEntity
  8
002
 62
     3
370
    30
100
AcDbLine
 10
1804.71298
 20
379.921837
 30
0.0
 11
1823.06008
 21
376.890837
 31
0.0
  0
LINE
  5
5B9
330
1F
100
AcDbEntity
  8
002
 62
     3
370
    30
100
AcDbLine
 10
1822.88658
 20
375.906837
 30
0.0
 11
1704.88658
 21
375.906837
 31
0.0
  0
LINE
  5
5BA
330
1F
100
AcDbEntity
  8
002
 62
     3
370
    30
100
AcDbLine
 10
1704.88658
 20
365.906837
 30
0.0
 11
1822.88658
 21
365.906837
 31
0.0
  0
LINE
  5
5BB
330
1F
100
AcDbEntity
  8
002
 62
     3
370
    30
100
AcDbLine
 10
1802.88658
 20
370.906837
 30
0.0
 11
1724.88658
 21
370.906837
 31
0.0
  0
ARC
  5
5BC
330
1F
100
AcDbEntity
  8
002
 62
     3
370
    30
100
AcDbCircle
 10
1722.88658
 20
370.906837
 30
0.0
 40
1.000163611615753
100
AcDbArc
 50
279.989728
 51
80.000325
  0
ARC
  5
5BD
330
1F
100
AcDbEntity
  8
002
 62
     3
370
    30
100
AcDbCircle
 10
1722.88658
 20
360.906837
 30
0.0
 40
1.0
100
AcDbArc
 50
0.0
 51
80.000325
  0
LINE
  5
5BE
330
1F
100
AcDbEntity
  8
002
  6
CENTER
 62
    40
370
     9
100
AcDbLine
 10
1802.77748
 20
396.174837
 30
0.0
 11
1802.77748
 21
419.392837
 31
0.0
  0
LINE
  5
5BF
330
1F
100
AcDbEntity
  8
002
  6
CENTER
 62
    40
370
     9
100
AcDbLine
 10
1724.99568
 20
417.493837
 30
0.0
 11
1724.99568
 21
396.174837
 31
0.0
  0
LINE
  5
5C0
330
1F
100
AcDbEntity
  8
002
  6
CENTER
 62
    40
370
     9
100
AcDbLine
 10
1714.38938
 20
398.406837
 30
0.0
 11
1710.91098
 21
398.406837
 31
0.0
  0
LINE
  5
5C1
330
1F
100
AcDbEntity
  8
002
  6
CENTER
 62
    40
370
     9
100
AcDbLine
 10
1712.58658
 20
399.862837
 30
0.0
 11
1712.58658
 21
396.789837
 31
0.0
  0
LINE
  5
5C2
330
1F
100
AcDbEntity
  8
002
  6
PHANTOM
 62
    40
370
     9
100
AcDbLine
 10
1823.88658
 20
365.906837
 30
0.0
 11
1823.88658
 21
268.905837
 31
0.0
  0
LINE
  5
5C3
330
1F
100
AcDbEntity
  8
002
  6
PHANTOM
 62
    40
370
     9
100
AcDbLine
 10
1803.88658
 20
273.905837
 30
0.0
 11
1803.88658
 21
360.906837
 31
0.0
  0
LINE
  5
5C4
330
1F
100
AcDbEntity
  8
002
  6
PHANTOM
 62
    40
370
     9
100
AcDbLine
 10
1723.88658
 20
273.905837
 30
0.0
 11
1723.88658
 21
360.906837
 31
0.0
  0
LINE
  5
5C5
330
1F
100
AcDbEntity
  8
002
  6
PHANTOM
 62
    40
370
     9
100
AcDbLine
 10
1703.88658
 20
365.906837
 30
0.0
 11
1703.88658
 21
268.905837
 31
0.0
  0
ARC
  5
5C6
330
1F
100
AcDbEntity
  8
002
 62
     3
370
    30
100
AcDbCircle
 10
1722.88658
 20
273.905837
 30
0.0
 40
1.000163611615753
100
AcDbArc
 50
279.989728
 51
0.0
  0
LINE
  5
5C7
330
1F
100
AcDbEntity
  8
002
 62
     3
370
    30
100
AcDbLine
 10
1723.06008
 20
272.920837
 30
0.0
 11
1704.71298
 21
269.890837
 31
0.0
  0
LINE
  5
5C8
330
1F
100
AcDbEntity
  8
002
 62
     3
370
    30
100
AcDbLine
 10
1704.88658
 20
268.905837
 30
0.0
 11
1822.88658
 21
268.905837
 31
0.0
  0
LINE
  5
5C9
330
1F
100
AcDbEntity
  8
002
 62
     3
370
    30
100
AcDbLine
 10
1823.06008
 20
267.920837
 30
0.0
 11
1804.71298
 21
264.890837
 31
0.0
  0
LINE
  5
5CA
330
1F
100
AcDbEntity
  8
002
 62
     3
370
    30
100
AcDbLine
 10
1804.71298
 20
262.920837
 30
0.0
 11
1823.06008
 21
259.890837
 31
0.0
  0
ARC
  5
5CB
330
1F
100
AcDbEntity
  8
002
 62
     3
370
    30
100
AcDbCircle
 10
1822.88658
 20
258.905837
 30
0.0
 40
1.000163611615753
100
AcDbArc
 50
279.989728
 51
80.010272
  0
LINE
  5
5CC
330
1F
100
AcDbEntity
  8
002
 62
     3
370
    30
100
AcDbLine
 10
1823.06008
 20
257.920837
 30
0.0
 11
1804.71298
 21
254.890837
 31
0.0
  0
LINE
  5
5CD
330
1F
100
AcDbEntity
  8
002
 62
     3
370
    30
100
AcDbLine
 10
1804.71298
 20
252.920837
 30
0.0
 11
1823.06008
 21
249.890837
 31
0.0
  0
ARC
  5
5CE
330
1F
100
AcDbEntity
  8
002
 62
     3
370
    30
100
AcDbCircle
 10
1822.88658
 20
248.905837
 30
0.0
 40
1.000163611615753
100
AcDbArc
 50
279.989728
 51
80.010272
  0
LINE
  5
5CF
330
1F
100
AcDbEntity
  8
002
 62
     3
370
    30
100
AcDbLine
 10
1823.06008
 20
247.920837
 30
0.0
 11
1804.71298
 21
244.890837
 31
0.0
  0
LINE
  5
5D0
330
1F
100
AcDbEntity
  8
002
 62
     3
370
    30
100
AcDbLine
 10
1804.71298
 20
242.920837
 30
0.0
 11
1823.06008
 21
239.890837
 31
0.0
  0
ARC
  5
5D1
330
1F
100
AcDbEntity
  8
002
 62
     3
370
    30
100
AcDbCircle
 10
1822.88658
 20
238.905837
 30
0.0
 40
1.000163611615753
100
AcDbArc
 50
279.989728
 51
80.010272
  0
LINE
  5
5D2
330
1F
100
AcDbEntity
  8
002
 62
     3
370
    30
100
AcDbLine
 10
1823.06008
 20
237.920837
 30
0.0
 11
1794.58658
 21
233.905837
 31
0.0
  0
LINE
  5
5D3
330
1F
100
AcDbEntity
  8
002
 62
     3
370
    30
100
AcDbLine
 10
1794.58658
 20
233.905837
 30
0.0
 11
1733.18658
 21
233.905837
 31
0.0
  0
LINE
  5
5D4
330
1F
100
AcDbEntity
  8
002
 62
     3
370
    30
100
AcDbLine
 10
1733.18658
 20
233.905837
 30
0.0
 11
1704.71298
 21
237.920837
 31
0.0
  0
ARC
  5
5D5
330
1F
100
AcDbEntity
  8
002
 62
     3
370
    30
100
AcDbCircle
 10
1704.88658
 20
238.905837
 30
0.0
 40
1.000180963625978
100
AcDbArc
 50
99.99537
 51
260.00463
  0
LINE
  5
5D6
330
1F
100
AcDbEntity
  8
002
 62
     3
370
    30
100
AcDbLine
 10
1704.71298
 20
239.890837
 30
0.0
 11
1723.06008
 21
242.920837
 31
0.0
  0
LINE
  5
5D7
330
1F
100
AcDbEntity
  8
002
 62
     3
370
    30
100
AcDbLine
 10
1723.06008
 20
244.890837
 30
0.0
 11
1704.71298
 21
247.920837
 31
0.0
  0
ARC
  5
5D8
330
1F
100
AcDbEntity
  8
002
 62
     3
370
    30
100
AcDbCircle
 10
1704.88658
 20
248.905837
 30
0.0
 40
1.000180963625978
100
AcDbArc
 50
99.99537
 51
260.00463
  0
LINE
  5
5D9
330
1F
100
AcDbEntity
  8
002
 62
     3
370
    30
100
AcDbLine
 10
1704.71298
 20
249.890837
 30
0.0
 11
1723.06008
 21
252.920837
 31
0.0
  0
LINE
  5
5DA
330
1F
100
AcDbEntity
  8
002
 62
     3
370
    30
100
AcDbLine
 10
1723.06008
 20
254.890837
 30
0.0
 11
1704.71298
 21
257.920837
 31
0.0
  0
ARC
  5
5DB
330
1F
100
AcDbEntity
  8
002
 62
     3
370
    30
100
AcDbCircle
 10
1704.88658
 20
258.905837
 30
0.0
 40
1.000180963625978
100
AcDbArc
 50
99.99537
 51
260.00463
  0
LINE
  5
5DC
330
1F
100
AcDbEntity
  8
002
 62
     3
370
    30
100
AcDbLine
 10
1704.71298
 20
259.890837
 30
0.0
 11
1723.06008
 21
262.920837
 31
0.0
  0
LINE
  5
5DD
330
1F
100
AcDbEntity
  8
002
 62
     3
370
    30
100
AcDbLine
 10
1723.06008
 20
264.890837
 30
0.0
 11
1704.71298
 21
267.920837
 31
0.0
  0
ARC
  5
5DE
330
1F
100
AcDbEntity
  8
002
 62
     3
370
    30
100
AcDbCircle
 10
1704.88658
 20
268.905837
 30
0.0
 40
1.000180963625978
100
AcDbArc
 50
99.99537
 51
260.00463
  0
LINE
  5
5DF
330
1F
100
AcDbEntity
  8
002
 62
     3
370
    30
100
AcDbLine
 10
1704.88658
 20
258.905837
 30
0.0
 11
1822.88658
 21
258.905837
 31
0.0
  0
LINE
  5
5E0
330
1F
100
AcDbEntity
  8
002
 62
     3
370
    30
100
AcDbLine
 10
1822.88658
 20
248.905837
 30
0.0
 11
1704.88658
 21
248.905837
 31
0.0
  0
LINE
  5
5E1
330
1F
100
AcDbEntity
  8
002
 62
     3
370
    30
100
AcDbLine
 10
1704.88658
 20
238.905837
 30
0.0
 11
1822.88658
 21
238.905837
 31
0.0
  0
ARC
  5
5E2
330
1F
100
AcDbEntity
  8
002
 62
     3
370
    30
100
AcDbCircle
 10
1804.88658
 20
243.905837
 30
0.0
 40
1.000180963625978
100
AcDbArc
 50
99.99537
 51
260.00463
  0
LINE
  5
5E3
330
1F
100
AcDbEntity
  8
002
 62
     3
370
    30
100
AcDbLine
 10
1802.88658
 20
243.905837
 30
0.0
 11
1724.88658
 21
243.905837
 31
0.0
  0
ARC
  5
5E4
330
1F
100
AcDbEntity
  8
002
 62
     3
370
    30
100
AcDbCircle
 10
1722.88658
 20
243.905837
 30
0.0
 40
1.000163611615753
100
AcDbArc
 50
279.989728
 51
80.010272
  0
LINE
  5
5E5
330
1F
100
AcDbEntity
  8
002
 62
     3
370
    30
100
AcDbLine
 10
1724.58658
 20
232.905837
 30
0.0
 11
1795.18658
 21
232.905837
 31
0.0
  0
LINE
  5
5E6
330
1F
100
AcDbEntity
  8
002
 62
     3
370
    30
100
AcDbLine
 10
1795.18658
 20
232.905837
 30
0.0
 11
1795.18658
 21
219.905837
 31
0.0
  0
LINE
  5
5E7
330
1F
100
AcDbEntity
  8
002
 62
     3
370
    30
100
AcDbLine
 10
1795.18658
 20
219.905837
 30
0.0
 11
1724.58658
 21
219.905837
 31
0.0
  0
ARC
  5
5E8
330
1F
100
AcDbEntity
  8
002
 62
     3
370
    30
100
AcDbCircle
 10
1724.58658
 20
221.905837
 30
0.0
 40
2.0
100
AcDbArc
 50
180.0
 51
270.0
  0
LINE
  5
5E9
330
1F
100
AcDbEntity
  8
002
 62
     3
370
    30
100
AcDbLine
 10
1722.58658
 20
221.905837
 30
0.0
 11
1722.58658
 21
230.905837
 31
0.0
  0
ARC
  5
5EA
330
1F
100
AcDbEntity
  8
002
 62
     3
370
    30
100
AcDbCircle
 10
1724.58658
 20
230.905837
 30
0.0
 40
2.0
100
AcDbArc
 50
90.0
 51
180.0
  0
CIRCLE
  5
5EB
330
1F
100
AcDbEntity
  8
002
 62
     3
370
    30
100
AcDbCircle
 10
1727.58658
 20
226.405837
 30
0.0
 40
1.0
  0
LINE
  5
5EC
330
1F
100
AcDbEntity
  8
002
 62
     3
370
    30
100
AcDbLine
 10
1732.58658
 20
232.905837
 30
0.0
 11
1732.58658
 21
219.905837
 31
0.0
  0
LINE
  5
5ED
330
1F
100
AcDbEntity
  8
002
 62
     3
370
    30
100
AcDbLine
 10
1733.18658
 20
219.905837
 30
0.0
 11
1733.18658
 21
217.905837
 31
0.0
  0
LINE
  5
5EE
330
1F
100
AcDbEntity
  8
002
 62
     3
370
    30
100
AcDbLine
 10
1794.58658
 20
217.905837
 30
0.0
 11
1794.58658
 21
219.905837
 31
0.0
  0
LINE
  5
5EF
330
1F
100
AcDbEntity
  8
002
 62
     3
370
    30
100
AcDbLine
 10
1794.58658
 20
217.905837
 30
0.0
 11
1733.18658
 21
217.905837
 31
0.0
  0
LINE
  5
5F0
330
1F
100
AcDbEntity
  8
002
 62
     3
370
    30
100
AcDbLine
 10
1733.18658
 20
232.905837
 30
0.0
 11
1733.18658
 21
233.905837
 31
0.0
  0
LINE
  5
5F1
330
1F
100
AcDbEntity
  8
002
 62
     3
370
    30
100
AcDbLine
 10
1724.88658
 20
253.905837
 30
0.0
 11
1802.88658
 21
253.905837
 31
0.0
  0
ARC
  5
5F2
330
1F
100
AcDbEntity
  8
002
 62
     3
370
    30
100
AcDbCircle
 10
1804.88658
 20
253.905837
 30
0.0
 40
1.000180963625978
100
AcDbArc
 50
99.99537
 51
260.00463
  0
ARC
  5
5F3
330
1F
100
AcDbEntity
  8
002
 62
     3
370
    30
100
AcDbCircle
 10
1804.88658
 20
263.905837
 30
0.0
 40
1.000180963625978
100
AcDbArc
 50
99.99537
 51
260.00463
  0
LINE
  5
5F4
330
1F
100
AcDbEntity
  8
002
 62
     3
370
    30
100
AcDbLine
 10
1802.88658
 20
263.905837
 30
0.0
 11
1724.88658
 21
263.905837
 31
0.0
  0
ARC
  5
5F5
330
1F
100
AcDbEntity
  8
002
 62
     3
370
    30
100
AcDbCircle
 10
1722.88658
 20
263.905837
 30
0.0
 40
1.000163611615753
100
AcDbArc
 50
279.989728
 51
80.010272
  0
ARC
  5
5F6
330
1F
100
AcDbEntity
  8
002
 62
     3
370
    30
100
AcDbCircle
 10
1722.88658
 20
253.905837
 30
0.0
 40
1.000163611615753
100
AcDbArc
 50
279.989728
 51
80.010272
  0
LINE
  5
5F7
330
1F
100
AcDbEntity
  8
002
 62
     3
370
    30
100
AcDbLine
 10
1724.88658
 20
273.905837
 30
0.0
 11
1802.88658
 21
273.905837
 31
0.0
  0
ARC
  5
5F8
330
1F
100
AcDbEntity
  8
002
 62
     3
370
    30
100
AcDbCircle
 10
1804.88658
 20
273.905837
 30
0.0
 40
1.0
100
AcDbArc
 50
180.0
 51
260.00463
  0
LINE
  5
5F9
330
1F
100
AcDbEntity
  8
002
 62
     3
370
    30
100
AcDbLine
 10
1804.71298
 20
272.920837
 30
0.0
 11
1823.06008
 21
269.890837
 31
0.0
  0
ARC
  5
5FA
330
1F
100
AcDbEntity
  8
002
 62
     3
370
    30
100
AcDbCircle
 10
1822.88658
 20
268.905837
 30
0.0
 40
1.000163611615753
100
AcDbArc
 50
279.989728
 51
80.010272
  0
LINE
  5
5FB
330
1F
100
AcDbEntity
  8
002
 62
     3
370
    30
100
AcDbLine
 10
1794.58658
 20
233.905837
 30
0.0
 11
1794.58658
 21
232.905837
 31
0.0
  0
LINE
  5
5FC
330
1F
100
AcDbEntity
  8
002
  6
CENTER
 62
    40
370
     9
100
AcDbLine
 10
1727.58658
 20
222.897837
 30
0.0
 11
1727.58658
 21
229.657837
 31
0.0
  0
LINE
  5
5FD
330
1F
100
AcDbEntity
  8
002
  6
CENTER
 62
    40
370
     9
100
AcDbLine
 10
1725.21878
 20
226.405837
 30
0.0
 11
1730.24388
 21
226.405837
 31
0.0
  0
ARC
  5
5FE
330
1F
100
AcDbEntity
  8
002
 62
     3
370
    30
100
AcDbCircle
 10
553.316018
 20
1197.085669
 30
0.0
 40
14.0
100
AcDbArc
 50
106.60155
 51
73.39845
  0
LINE
  5
5FF
330
1F
100
AcDbEntity
  8
002
 62
     3
370
    30
100
AcDbLine
 10
567.316018
 20
1807.315669
 30
0.0
 11
567.316018
 21
1764.315669
 31
0.0
  0
LINE
  5
600
330
1F
100
AcDbEntity
  8
002
 62
     3
370
    30
100
AcDbLine
 10
539.316018
 20
1807.315669
 30
0.0
 11
567.316018
 21
1807.315669
 31
0.0
  0
LINE
  5
601
330
1F
100
AcDbEntity
  8
002
 62
     3
370
    30
100
AcDbLine
 10
567.316018
 20
1550.315669
 30
0.0
 11
567.316018
 21
1507.315669
 31
0.0
  0
LINE
  5
602
330
1F
100
AcDbEntity
  8
002
 62
     3
370
    30
100
AcDbLine
 10
567.316018
 20
1507.315669
 30
0.0
 11
539.316018
 21
1507.315669
 31
0.0
  0
LINE
  5
603
330
1F
100
AcDbEntity
  8
002
 62
     3
370
    30
100
AcDbLine
 10
539.316018
 20
1764.315669
 30
0.0
 11
539.316018
 21
1807.315669
 31
0.0
  0
LINE
  5
604
330
1F
100
AcDbEntity
  8
002
 62
     3
370
    30
100
AcDbLine
 10
539.316018
 20
1507.315669
 30
0.0
 11
539.316018
 21
1550.315669
 31
0.0
  0
LINE
  5
605
330
1F
100
AcDbEntity
  8
002
 62
     3
370
    30
100
AcDbLine
 10
557.316018
 20
505.906837
 30
0.0
 11
549.316018
 21
505.906837
 31
0.0
  0
LINE
  5
606
330
1F
100
AcDbEntity
  8
002
 62
     3
370
    30
100
AcDbLine
 10
549.316018
 20
512.906837
 30
0.0
 11
557.316018
 21
512.906837
 31
0.0
  0
LINE
  5
607
330
1F
100
AcDbEntity
  8
002
 62
     3
370
    30
100
AcDbLine
 10
557.316018
 20
512.906837
 30
0.0
 11
557.316018
 21
505.906837
 31
0.0
  0
LINE
  5
608
330
1F
100
AcDbEntity
  8
002
 62
     3
370
    30
100
AcDbLine
 10
549.316018
 20
512.906837
 30
0.0
 11
549.316018
 21
505.906837
 31
0.0
  0
ARC
  5
609
330
1F
100
AcDbEntity
  8
002
 62
     3
370
    30
100
AcDbCircle
 10
553.316018
 20
495.906837
 30
0.0
 40
14.0
100
AcDbArc
 50
106.60155
 51
73.39845
  0
LINE
  5
60A
330
1F
100
AcDbEntity
  8
002
 62
     3
370
    30
100
AcDbLine
 10
1121.579176
 20
505.906837
 30
0.0
 11
1113.579176
 21
505.906837
 31
0.0
  0
LINE
  5
60B
330
1F
100
AcDbEntity
  8
002
 62
     3
370
    30
100
AcDbLine
 10
1113.579176
 20
512.906837
 30
0.0
 11
1121.579176
 21
512.906837
 31
0.0
  0
LINE
  5
60C
330
1F
100
AcDbEntity
  8
002
 62
     3
370
    30
100
AcDbLine
 10
1121.579176
 20
512.906837
 30
0.0
 11
1121.579176
 21
505.906837
 31
0.0
  0
LINE
  5
60D
330
1F
100
AcDbEntity
  8
002
 62
     3
370
    30
100
AcDbLine
 10
1113.579176
 20
512.906837
 30
0.0
 11
1113.579176
 21
505.906837
 31
0.0
  0
ARC
  5
60E
330
1F
100
AcDbEntity
  8
002
 62
     3
370
    30
100
AcDbCircle
 10
1117.579176
 20
495.906837
 30
0.0
 40
14.0
100
AcDbArc
 50
106.60155
 51
73.39845
  0
LINE
  5
60F
330
1F
100
AcDbEntity
  8
002
 62
     3
370
    30
100
AcDbLine
 10
1498.88658
 20
505.906837
 30
0.0
 11
1490.88658
 21
505.906837
 31
0.0
  0
LINE
  5
610
330
1F
100
AcDbEntity
  8
002
 62
     3
370
    30
100
AcDbLine
 10
1490.88658
 20
512.906837
 30
0.0
 11
1498.88658
 21
512.906837
 31
0.0
  0
LINE
  5
611
330
1F
100
AcDbEntity
  8
002
 62
     3
370
    30
100
AcDbLine
 10
1498.88658
 20
512.906837
 30
0.0
 11
1498.88658
 21
505.906837
 31
0.0
  0
LINE
  5
612
330
1F
100
AcDbEntity
  8
002
 62
     3
370
    30
100
AcDbLine
 10
1490.88658
 20
512.906837
 30
0.0
 11
1490.88658
 21
505.906837
 31
0.0
  0
ARC
  5
613
330
1F
100
AcDbEntity
  8
002
 62
     3
370
    30
100
AcDbCircle
 10
1494.88658
 20
495.906837
 30
0.0
 40
14.0
100
AcDbArc
 50
106.60155
 51
73.39845
  0
LINE
  5
614
330
1F
100
AcDbEntity
  8
002
 62
     3
370
    30
100
AcDbLine
 10
1840.88658
 20
505.906837
 30
0.0
 11
1832.88658
 21
505.906837
 31
0.0
  0
LINE
  5
615
330
1F
100
AcDbEntity
  8
002
 62
     3
370
    30
100
AcDbLine
 10
1832.88658
 20
512.906837
 30
0.0
 11
1840.88658
 21
512.906837
 31
0.0
  0
LINE
  5
616
330
1F
100
AcDbEntity
  8
002
 62
     3
370
    30
100
AcDbLine
 10
1840.88658
 20
512.906837
 30
0.0
 11
1840.88658
 21
505.906837
 31
0.0
  0
LINE
  5
617
330
1F
100
AcDbEntity
  8
002
 62
     3
370
    30
100
AcDbLine
 10
1832.88658
 20
512.906837
 30
0.0
 11
1832.88658
 21
505.906837
 31
0.0
  0
ARC
  5
618
330
1F
100
AcDbEntity
  8
002
 62
     3
370
    30
100
AcDbCircle
 10
1836.88658
 20
495.906837
 30
0.0
 40
14.0
100
AcDbArc
 50
106.60155
 51
73.39845
  0
LINE
  5
619
330
1F
100
AcDbEntity
  8
002
  6
CENTER
 62
    40
370
     9
100
AcDbLine
 10
587.095018
 20
462.127137
 30
0.0
 11
576.042018
 21
473.180837
 31
0.0
  0
LINE
  5
61A
330
1F
100
AcDbEntity
  8
002
  6
CENTER
 62
    40
370
     9
100
AcDbLine
 10
530.590018
 20
473.180837
 30
0.0
 11
519.536018
 21
462.127137
 31
0.0
  0
CIRCLE
  5
61B
330
1F
100
AcDbEntity
  8
002
  6
CENTER
 62
    40
370
     9
100
AcDbCircle
 10
553.316018
 20
495.906837
 30
0.0
 40
40.0
  0
LINE
  5
61C
330
1F
100
AcDbEntity
  8
002
  6
CENTER
 62
    40
370
     9
100
AcDbLine
 10
530.590018
 20
518.632837
 30
0.0
 11
519.536018
 21
529.686537
 31
0.0
  0
LINE
  5
61D
330
1F
100
AcDbEntity
  8
002
  6
CENTER
 62
    40
370
     9
100
AcDbLine
 10
587.095018
 20
529.686537
 30
0.0
 11
576.042018
 21
518.632837
 31
0.0
  0
LINE
  5
61E
330
1F
100
AcDbEntity
  8
002
  6
CENTER
 62
    40
370
     9
100
AcDbLine
 10
1151.358176
 20
462.127137
 30
0.0
 11
1140.305176
 21
473.180837
 31
0.0
  0
LINE
  5
61F
330
1F
100
AcDbEntity
  8
002
  6
CENTER
 62
    40
370
     9
100
AcDbLine
 10
1094.853176
 20
473.180837
 30
0.0
 11
1083.799176
 21
462.127137
 31
0.0
  0
CIRCLE
  5
620
330
1F
100
AcDbEntity
  8
002
  6
CENTER
 62
    40
370
     9
100
AcDbCircle
 10
1117.579176
 20
495.906837
 30
0.0
 40
40.0
  0
LINE
  5
621
330
1F
100
AcDbEntity
  8
002
  6
CENTER
 62
    40
370
     9
100
AcDbLine
 10
1094.853176
 20
518.632837
 30
0.0
 11
1083.799176
 21
529.686537
 31
0.0
  0
LINE
  5
622
330
1F
100
AcDbEntity
  8
002
  6
CENTER
 62
    40
370
     9
100
AcDbLine
 10
1151.358176
 20
529.686537
 30
0.0
 11
1140.305176
 21
518.632837
 31
0.0
  0
LINE
  5
623
330
1F
100
AcDbEntity
  8
002
  6
CENTER
 62
    40
370
     9
100
AcDbLine
 10
1528.66558
 20
462.127137
 30
0.0
 11
1517.61258
 21
473.180837
 31
0.0
  0
LINE
  5
624
330
1F
100
AcDbEntity
  8
002
  6
CENTER
 62
    40
370
     9
100
AcDbLine
 10
1472.16058
 20
473.180837
 30
0.0
 11
1461.10658
 21
462.127137
 31
0.0
  0
CIRCLE
  5
625
330
1F
100
AcDbEntity
  8
002
  6
CENTER
 62
    40
370
     9
100
AcDbCircle
 10
1494.88658
 20
495.906837
 30
0.0
 40
40.0
  0
LINE
  5
626
330
1F
100
AcDbEntity
  8
002
  6
CENTER
 62
    40
370
     9
100
AcDbLine
 10
1472.16058
 20
518.632837
 30
0.0
 11
1461.10658
 21
529.686537
 31
0.0
  0
LINE
  5
627
330
1F
100
AcDbEntity
  8
002
  6
CENTER
 62
    40
370
     9
100
AcDbLine
 10
1528.66558
 20
529.686537
 30
0.0
 11
1517.61258
 21
518.632837
 31
0.0
  0
LINE
  5
628
330
1F
100
AcDbEntity
  8
002
  6
CENTER
 62
    40
370
     9
100
AcDbLine
 10
1870.66558
 20
462.127137
 30
0.0
 11
1859.61258
 21
473.180837
 31
0.0
  0
LINE
  5
629
330
1F
100
AcDbEntity
  8
002
  6
CENTER
 62
    40
370
     9
100
AcDbLine
 10
1814.16058
 20
473.180837
 30
0.0
 11
1803.10658
 21
462.127137
 31
0.0
  0
CIRCLE
  5
62A
330
1F
100
AcDbEntity
  8
002
  6
CENTER
 62
    40
370
     9
100
AcDbCircle
 10
1836.88658
 20
495.906837
 30
0.0
 40
40.0
  0
LINE
  5
62B
330
1F
100
AcDbEntity
  8
002
  6
CENTER
 62
    40
370
     9
100
AcDbLine
 10
1814.16058
 20
518.632837
 30
0.0
 11
1803.10658
 21
529.686537
 31
0.0
  0
LINE
  5
62C
330
1F
100
AcDbEntity
  8
002
  6
CENTER
 62
    40
370
     9
100
AcDbLine
 10
1870.66558
 20
529.686537
 30
0.0
 11
1859.61258
 21
518.632837
 31
0.0
  0
LINE
  5
62D
330
1F
100
AcDbEntity
  8
002
 62
     3
370
    30
100
AcDbLine
 10
539.316018
 20
1762.315669
 30
0.0
 11
402.316018
 21
1762.315669
 31
0.0
  0
LINE
  5
62E
330
1F
100
AcDbEntity
  8
002
 62
     3
370
    30
100
AcDbLine
 10
402.316018
 20
1552.315669
 30
0.0
 11
539.316018
 21
1552.315669
 31
0.0
  0
LINE
  5
62F
330
1F
100
AcDbEntity
  8
002
  6
CENTER
 62
    40
370
     9
100
AcDbLine
 10
513.316018
 20
1751.433235
 30
0.0
 11
513.316018
 21
1768.160136
 31
0.0
  0
LINE
  5
630
330
1F
100
AcDbEntity
  8
002
  6
CENTER
 62
    40
370
     9
100
AcDbLine
 10
513.316018
 20
1563.198104
 30
0.0
 11
513.316018
 21
1546.471202
 31
0.0
  0
POLYLINE
  5
631
330
1F
100
AcDbEntity
  8
002
 62
     3
370
     9
100
AcDb2dPolyline
 66
     1
 10
0.0
 20
0.0
 30
0.0
  0
VERTEX
  5
633
330
631
100
AcDbEntity
  8
002
 62
     3
370
     9
100
AcDbVertex
100
AcDb2dVertex
 10
435.766118
 20
260.406837
 30
0.0
  0
VERTEX
  5
634
330
631
100
AcDbEntity
  8
002
 62
     3
370
     9
100
AcDbVertex
100
AcDb2dVertex
 10
440.221113
 20
257.446837
 30
0.0
  0
VERTEX
  5
635
330
631
100
AcDbEntity
  8
002
 62
     3
370
     9
100
AcDbVertex
100
AcDb2dVertex
 10
444.676108
 20
254.726837
 30
0.0
  0
VERTEX
  5
636
330
631
100
AcDbEntity
  8
002
 62
     3
370
     9
100
AcDbVertex
100
AcDb2dVertex
 10
449.131103
 20
252.486837
 30
0.0
  0
VERTEX
  5
637
330
631
100
AcDbEntity
  8
002
 62
     3
370
     9
100
AcDbVertex
100
AcDb2dVertex
 10
453.586098
 20
250.966837
 30
0.0
  0
VERTEX
  5
638
330
631
100
AcDbEntity
  8
002
 62
     3
370
     9
100
AcDbVertex
100
AcDb2dVertex
 10
458.041093
 20
250.406837
 30
0.0
  0
VERTEX
  5
639
330
631
100
AcDbEntity
  8
002
 62
     3
370
     9
100
AcDbVertex
100
AcDb2dVertex
 10
462.496088
 20
250.966837
 30
0.0
  0
VERTEX
  5
63A
330
631
100
AcDbEntity
  8
002
 62
     3
370
     9
100
AcDbVertex
100
AcDb2dVertex
 10
466.951083
 20
252.486837
 30
0.0
  0
VERTEX
  5
63B
330
631
100
AcDbEntity
  8
002
 62
     3
370
     9
100
AcDbVertex
100
AcDb2dVertex
 10
471.406078
 20
254.726837
 30
0.0
  0
VERTEX
  5
63C
330
631
100
AcDbEntity
  8
002
 62
     3
370
     9
100
AcDbVertex
100
AcDb2dVertex
 10
475.861073
 20
257.446837
 30
0.0
  0
VERTEX
  5
63D
330
631
100
AcDbEntity
  8
002
 62
     3
370
     9
100
AcDbVertex
100
AcDb2dVertex
 10
480.316068
 20
260.406837
 30
0.0
  0
VERTEX
  5
63E
330
631
100
AcDbEntity
  8
002
 62
     3
370
     9
100
AcDbVertex
100
AcDb2dVertex
 10
484.771063
 20
263.366837
 30
0.0
  0
VERTEX
  5
63F
330
631
100
AcDbEntity
  8
002
 62
     3
370
     9
100
AcDbVertex
100
AcDb2dVertex
 10
489.226058
 20
266.086837
 30
0.0
  0
VERTEX
  5
640
330
631
100
AcDbEntity
  8
002
 62
     3
370
     9
100
AcDbVertex
100
AcDb2dVertex
 10
493.681053
 20
268.326837
 30
0.0
  0
VERTEX
  5
641
330
631
100
AcDbEntity
  8
002
 62
     3
370
     9
100
AcDbVertex
100
AcDb2dVertex
 10
498.136048
 20
269.846837
 30
0.0
  0
VERTEX
  5
642
330
631
100
AcDbEntity
  8
002
 62
     3
370
     9
100
AcDbVertex
100
AcDb2dVertex
 10
502.591043
 20
270.406837
 30
0.0
  0
VERTEX
  5
643
330
631
100
AcDbEntity
  8
002
 62
     3
370
     9
100
AcDbVertex
100
AcDb2dVertex
 10
507.046038
 20
269.846837
 30
0.0
  0
VERTEX
  5
644
330
631
100
AcDbEntity
  8
002
 62
     3
370
     9
100
AcDbVertex
100
AcDb2dVertex
 10
511.501033
 20
268.326837
 30
0.0
  0
VERTEX
  5
645
330
631
100
AcDbEntity
  8
002
 62
     3
370
     9
100
AcDbVertex
100
AcDb2dVertex
 10
515.956028
 20
266.086837
 30
0.0
  0
VERTEX
  5
646
330
631
100
AcDbEntity
  8
002
 62
     3
370
     9
100
AcDbVertex
100
AcDb2dVertex
 10
520.411023
 20
263.366837
 30
0.0
  0
VERTEX
  5
647
330
631
100
AcDbEntity
  8
002
 62
     3
370
     9
100
AcDbVertex
100
AcDb2dVertex
 10
524.866018
 20
260.406837
 30
0.0
  0
SEQEND
  5
632
330
631
100
AcDbEntity
  8
002
370
     9
  0
POLYLINE
  5
648
330
1F
100
AcDbEntity
  8
002
 62
     3
370
     9
100
AcDb2dPolyline
 66
     1
 10
0.0
 20
0.0
 30
0.0
  0
VERTEX
  5
64A
330
648
100
AcDbEntity
  8
002
 62
     3
370
     9
100
AcDbVertex
100
AcDb2dVertex
 10
435.766118
 20
280.406837
 30
0.0
  0
VERTEX
  5
64B
330
648
100
AcDbEntity
  8
002
 62
     3
370
     9
100
AcDbVertex
100
AcDb2dVertex
 10
440.221113
 20
277.446837
 30
0.0
  0
VERTEX
  5
64C
330
648
100
AcDbEntity
  8
002
 62
     3
370
     9
100
AcDbVertex
100
AcDb2dVertex
 10
444.676108
 20
274.726837
 30
0.0
  0
VERTEX
  5
64D
330
648
100
AcDbEntity
  8
002
 62
     3
370
     9
100
AcDbVertex
100
AcDb2dVertex
 10
449.131103
 20
272.486837
 30
0.0
  0
VERTEX
  5
64E
330
648
100
AcDbEntity
  8
002
 62
     3
370
     9
100
AcDbVertex
100
AcDb2dVertex
 10
453.586098
 20
270.966837
 30
0.0
  0
VERTEX
  5
64F
330
648
100
AcDbEntity
  8
002
 62
     3
370
     9
100
AcDbVertex
100
AcDb2dVertex
 10
458.041093
 20
270.406837
 30
0.0
  0
VERTEX
  5
650
330
648
100
AcDbEntity
  8
002
 62
     3
370
     9
100
AcDbVertex
100
AcDb2dVertex
 10
462.496088
 20
270.966837
 30
0.0
  0
VERTEX
  5
651
330
648
100
AcDbEntity
  8
002
 62
     3
370
     9
100
AcDbVertex
100
AcDb2dVertex
 10
466.951083
 20
272.486837
 30
0.0
  0
VERTEX
  5
652
330
648
100
AcDbEntity
  8
002
 62
     3
370
     9
100
AcDbVertex
100
AcDb2dVertex
 10
471.406078
 20
274.726837
 30
0.0
  0
VERTEX
  5
653
330
648
100
AcDbEntity
  8
002
 62
     3
370
     9
100
AcDbVertex
100
AcDb2dVertex
 10
475.861073
 20
277.446837
 30
0.0
  0
VERTEX
  5
654
330
648
100
AcDbEntity
  8
002
 62
     3
370
     9
100
AcDbVertex
100
AcDb2dVertex
 10
480.316068
 20
280.406837
 30
0.0
  0
VERTEX
  5
655
330
648
100
AcDbEntity
  8
002
 62
     3
370
     9
100
AcDbVertex
100
AcDb2dVertex
 10
484.771063
 20
283.366837
 30
0.0
  0
VERTEX
  5
656
330
648
100
AcDbEntity
  8
002
 62
     3
370
     9
100
AcDbVertex
100
AcDb2dVertex
 10
489.226058
 20
286.086837
 30
0.0
  0
VERTEX
  5
657
330
648
100
AcDbEntity
  8
002
 62
     3
370
     9
100
AcDbVertex
100
AcDb2dVertex
 10
493.681053
 20
288.326837
 30
0.0
  0
VERTEX
  5
658
330
648
100
AcDbEntity
  8
002
 62
     3
370
     9
100
AcDbVertex
100
AcDb2dVertex
 10
498.136048
 20
289.846837
 30
0.0
  0
VERTEX
  5
659
330
648
100
AcDbEntity
  8
002
 62
     3
370
     9
100
AcDbVertex
100
AcDb2dVertex
 10
502.591043
 20
290.406837
 30
0.0
  0
VERTEX
  5
65A
330
648
100
AcDbEntity
  8
002
 62
     3
370
     9
100
AcDbVertex
100
AcDb2dVertex
 10
507.046038
 20
289.846837
 30
0.0
  0
VERTEX
  5
65B
330
648
100
AcDbEntity
  8
002
 62
     3
370
     9
100
AcDbVertex
100
AcDb2dVertex
 10
511.501033
 20
288.326837
 30
0.0
  0
VERTEX
  5
65C
330
648
100
AcDbEntity
  8
002
 62
     3
370
     9
100
AcDbVertex
100
AcDb2dVertex
 10
515.956028
 20
286.086837
 30
0.0
  0
VERTEX
  5
65D
330
648
100
AcDbEntity
  8
002
 62
     3
370
     9
100
AcDbVertex
100
AcDb2dVertex
 10
520.411023
 20
283.366837
 30
0.0
  0
VERTEX
  5
65E
330
648
100
AcDbEntity
  8
002
 62
     3
370
     9
100
AcDbVertex
100
AcDb2dVertex
 10
524.866018
 20
280.406837
 30
0.0
  0
SEQEND
  5
649
330
648
100
AcDbEntity
  8
002
370
     9
  0
LINE
  5
65F
330
1F
100
AcDbEntity
  8
002
 62
     3
370
    30
100
AcDbLine
 10
524.866018
 20
394.906837
 30
0.0
 11
524.866018
 21
280.406837
 31
0.0
  0
LINE
  5
660
330
1F
100
AcDbEntity
  8
002
 62
     3
370
    30
100
AcDbLine
 10
524.866018
 20
260.406837
 30
0.0
 11
524.866018
 21
145.906837
 31
0.0
  0
LINE
  5
661
330
1F
100
AcDbEntity
  8
002
 62
     3
370
    30
100
AcDbLine
 10
435.766118
 20
145.906837
 30
0.0
 11
435.766118
 21
260.406837
 31
0.0
  0
LINE
  5
662
330
1F
100
AcDbEntity
  8
002
 62
     3
370
    30
100
AcDbLine
 10
435.766118
 20
280.406837
 30
0.0
 11
435.766118
 21
394.906837
 31
0.0
  0
POLYLINE
  5
663
330
1F
100
AcDbEntity
  8
002
 62
     3
370
     9
100
AcDb2dPolyline
 66
     1
 10
0.0
 20
0.0
 30
0.0
  0
VERTEX
  5
665
330
663
100
AcDbEntity
  8
002
 62
     3
370
     9
100
AcDbVertex
100
AcDb2dVertex
 10
455.316218
 20
854.406937
 30
0.0
  0
VERTEX
  5
666
330
663
100
AcDbEntity
  8
002
 62
     3
370
     9
100
AcDbVertex
100
AcDb2dVertex
 10
457.816218
 20
851.446937
 30
0.0
  0
VERTEX
  5
667
330
663
100
AcDbEntity
  8
002
 62
     3
370
     9
100
AcDbVertex
100
AcDb2dVertex
 10
460.316218
 20
848.726937
 30
0.0
  0
VERTEX
  5
668
330
663
100
AcDbEntity
  8
002
 62
     3
370
     9
100
AcDbVertex
100
AcDb2dVertex
 10
462.816218
 20
846.486937
 30
0.0
  0
VERTEX
  5
669
330
663
100
AcDbEntity
  8
002
 62
     3
370
     9
100
AcDbVertex
100
AcDb2dVertex
 10
465.316218
 20
844.966937
 30
0.0
  0
VERTEX
  5
66A
330
663
100
AcDbEntity
  8
002
 62
     3
370
     9
100
AcDbVertex
100
AcDb2dVertex
 10
467.816218
 20
844.406937
 30
0.0
  0
VERTEX
  5
66B
330
663
100
AcDbEntity
  8
002
 62
     3
370
     9
100
AcDbVertex
100
AcDb2dVertex
 10
470.316218
 20
844.966937
 30
0.0
  0
VERTEX
  5
66C
330
663
100
AcDbEntity
  8
002
 62
     3
370
     9
100
AcDbVertex
100
AcDb2dVertex
 10
472.816218
 20
846.486937
 30
0.0
  0
VERTEX
  5
66D
330
663
100
AcDbEntity
  8
002
 62
     3
370
     9
100
AcDbVertex
100
AcDb2dVertex
 10
475.316218
 20
848.726937
 30
0.0
  0
VERTEX
  5
66E
330
663
100
AcDbEntity
  8
002
 62
     3
370
     9
100
AcDbVertex
100
AcDb2dVertex
 10
477.816218
 20
851.446937
 30
0.0
  0
VERTEX
  5
66F
330
663
100
AcDbEntity
  8
002
 62
     3
370
     9
100
AcDbVertex
100
AcDb2dVertex
 10
480.316218
 20
854.406937
 30
0.0
  0
VERTEX
  5
670
330
663
100
AcDbEntity
  8
002
 62
     3
370
     9
100
AcDbVertex
100
AcDb2dVertex
 10
482.816218
 20
857.366937
 30
0.0
  0
VERTEX
  5
671
330
663
100
AcDbEntity
  8
002
 62
     3
370
     9
100
AcDbVertex
100
AcDb2dVertex
 10
485.316218
 20
860.086937
 30
0.0
  0
VERTEX
  5
672
330
663
100
AcDbEntity
  8
002
 62
     3
370
     9
100
AcDbVertex
100
AcDb2dVertex
 10
487.816218
 20
862.326937
 30
0.0
  0
VERTEX
  5
673
330
663
100
AcDbEntity
  8
002
 62
     3
370
     9
100
AcDbVertex
100
AcDb2dVertex
 10
490.316218
 20
863.846937
 30
0.0
  0
VERTEX
  5
674
330
663
100
AcDbEntity
  8
002
 62
     3
370
     9
100
AcDbVertex
100
AcDb2dVertex
 10
492.816218
 20
864.406937
 30
0.0
  0
VERTEX
  5
675
330
663
100
AcDbEntity
  8
002
 62
     3
370
     9
100
AcDbVertex
100
AcDb2dVertex
 10
495.316218
 20
863.846937
 30
0.0
  0
VERTEX
  5
676
330
663
100
AcDbEntity
  8
002
 62
     3
370
     9
100
AcDbVertex
100
AcDb2dVertex
 10
497.816218
 20
862.326937
 30
0.0
  0
VERTEX
  5
677
330
663
100
AcDbEntity
  8
002
 62
     3
370
     9
100
AcDbVertex
100
AcDb2dVertex
 10
500.316218
 20
860.086937
 30
0.0
  0
VERTEX
  5
678
330
663
100
AcDbEntity
  8
002
 62
     3
370
     9
100
AcDbVertex
100
AcDb2dVertex
 10
502.816218
 20
857.366937
 30
0.0
  0
VERTEX
  5
679
330
663
100
AcDbEntity
  8
002
 62
     3
370
     9
100
AcDbVertex
100
AcDb2dVertex
 10
505.316218
 20
854.406937
 30
0.0
  0
SEQEND
  5
664
330
663
100
AcDbEntity
  8
002
370
     9
  0
POLYLINE
  5
67A
330
1F
100
AcDbEntity
  8
002
 62
     3
370
     9
100
AcDb2dPolyline
 66
     1
 10
0.0
 20
0.0
 30
0.0
  0
VERTEX
  5
67C
330
67A
100
AcDbEntity
  8
002
 62
     3
370
     9
100
AcDbVertex
100
AcDb2dVertex
 10
455.316218
 20
874.406937
 30
0.0
  0
VERTEX
  5
67D
330
67A
100
AcDbEntity
  8
002
 62
     3
370
     9
100
AcDbVertex
100
AcDb2dVertex
 10
457.816218
 20
871.446937
 30
0.0
  0
VERTEX
  5
67E
330
67A
100
AcDbEntity
  8
002
 62
     3
370
     9
100
AcDbVertex
100
AcDb2dVertex
 10
460.316218
 20
868.726937
 30
0.0
  0
VERTEX
  5
67F
330
67A
100
AcDbEntity
  8
002
 62
     3
370
     9
100
AcDbVertex
100
AcDb2dVertex
 10
462.816218
 20
866.486937
 30
0.0
  0
VERTEX
  5
680
330
67A
100
AcDbEntity
  8
002
 62
     3
370
     9
100
AcDbVertex
100
AcDb2dVertex
 10
465.316218
 20
864.966937
 30
0.0
  0
VERTEX
  5
681
330
67A
100
AcDbEntity
  8
002
 62
     3
370
     9
100
AcDbVertex
100
AcDb2dVertex
 10
467.816218
 20
864.406937
 30
0.0
  0
VERTEX
  5
682
330
67A
100
AcDbEntity
  8
002
 62
     3
370
     9
100
AcDbVertex
100
AcDb2dVertex
 10
470.316218
 20
864.966937
 30
0.0
  0
VERTEX
  5
683
330
67A
100
AcDbEntity
  8
002
 62
     3
370
     9
100
AcDbVertex
100
AcDb2dVertex
 10
472.816218
 20
866.486937
 30
0.0
  0
VERTEX
  5
684
330
67A
100
AcDbEntity
  8
002
 62
     3
370
     9
100
AcDbVertex
100
AcDb2dVertex
 10
475.316218
 20
868.726937
 30
0.0
  0
VERTEX
  5
685
330
67A
100
AcDbEntity
  8
002
 62
     3
370
     9
100
AcDbVertex
100
AcDb2dVertex
 10
477.816218
 20
871.446937
 30
0.0
  0
VERTEX
  5
686
330
67A
100
AcDbEntity
  8
002
 62
     3
370
     9
100
AcDbVertex
100
AcDb2dVertex
 10
480.316218
 20
874.406937
 30
0.0
  0
VERTEX
  5
687
330
67A
100
AcDbEntity
  8
002
 62
     3
370
     9
100
AcDbVertex
100
AcDb2dVertex
 10
482.816218
 20
877.366937
 30
0.0
  0
VERTEX
  5
688
330
67A
100
AcDbEntity
  8
002
 62
     3
370
     9
100
AcDbVertex
100
AcDb2dVertex
 10
485.316218
 20
880.086937
 30
0.0
  0
VERTEX
  5
689
330
67A
100
AcDbEntity
  8
002
 62
     3
370
     9
100
AcDbVertex
100
AcDb2dVertex
 10
487.816218
 20
882.326937
 30
0.0
  0
VERTEX
  5
68A
330
67A
100
AcDbEntity
  8
002
 62
     3
370
     9
100
AcDbVertex
100
AcDb2dVertex
 10
490.316218
 20
883.846937
 30
0.0
  0
VERTEX
  5
68B
330
67A
100
AcDbEntity
  8
002
 62
     3
370
     9
100
AcDbVertex
100
AcDb2dVertex
 10
492.816218
 20
884.406937
 30
0.0
  0
VERTEX
  5
68C
330
67A
100
AcDbEntity
  8
002
 62
     3
370
     9
100
AcDbVertex
100
AcDb2dVertex
 10
495.316218
 20
883.846937
 30
0.0
  0
VERTEX
  5
68D
330
67A
100
AcDbEntity
  8
002
 62
     3
370
     9
100
AcDbVertex
100
AcDb2dVertex
 10
497.816218
 20
882.326937
 30
0.0
  0
VERTEX
  5
68E
330
67A
100
AcDbEntity
  8
002
 62
     3
370
     9
100
AcDbVertex
100
AcDb2dVertex
 10
500.316218
 20
880.086937
 30
0.0
  0
VERTEX
  5
68F
330
67A
100
AcDbEntity
  8
002
 62
     3
370
     9
100
AcDbVertex
100
AcDb2dVertex
 10
502.816218
 20
877.366937
 30
0.0
  0
VERTEX
  5
690
330
67A
100
AcDbEntity
  8
002
 62
     3
370
     9
100
AcDbVertex
100
AcDb2dVertex
 10
505.316218
 20
874.406937
 30
0.0
  0
SEQEND
  5
67B
330
67A
100
AcDbEntity
  8
002
370
     9
  0
LINE
  5
691
330
1F
100
AcDbEntity
  8
002
 62
     3
370
    30
100
AcDbLine
 10
455.316218
 20
767.906437
 30
0.0
 11
455.316218
 21
854.406937
 31
0.0
  0
LINE
  5
692
330
1F
100
AcDbEntity
  8
002
 62
     3
370
    30
100
AcDbLine
 10
455.316218
 20
874.406937
 30
0.0
 11
455.316218
 21
960.907437
 31
0.0
  0
LINE
  5
693
330
1F
100
AcDbEntity
  8
002
 62
    40
370
     9
100
AcDbLine
 10
457.316068
 20
767.906437
 30
0.0
 11
457.316068
 21
852.027593
 31
0.0
  0
LINE
  5
694
330
1F
100
AcDbEntity
  8
002
 62
    40
370
     9
100
AcDbLine
 10
457.316068
 20
872.027593
 30
0.0
 11
457.316068
 21
960.907437
 31
0.0
  0
LINE
  5
695
330
1F
100
AcDbEntity
  8
002
 62
     3
370
    30
100
AcDbLine
 10
505.316218
 20
960.907437
 30
0.0
 11
505.316218
 21
874.406937
 31
0.0
  0
LINE
  5
696
330
1F
100
AcDbEntity
  8
002
 62
     3
370
    30
100
AcDbLine
 10
505.316218
 20
854.406937
 30
0.0
 11
505.316218
 21
767.906437
 31
0.0
  0
LINE
  5
697
330
1F
100
AcDbEntity
  8
002
 62
    40
370
     9
100
AcDbLine
 10
503.316068
 20
767.906437
 30
0.0
 11
503.316068
 21
856.786633
 31
0.0
  0
LINE
  5
698
330
1F
100
AcDbEntity
  8
002
 62
    40
370
     9
100
AcDbLine
 10
503.316068
 20
876.786633
 30
0.0
 11
503.316068
 21
960.907437
 31
0.0
  0
POLYLINE
  5
699
330
1F
100
AcDbEntity
  8
002
 62
     3
370
     9
100
AcDb2dPolyline
 66
     1
 10
0.0
 20
0.0
 30
0.0
  0
VERTEX
  5
69B
330
699
100
AcDbEntity
  8
002
 62
     3
370
     9
100
AcDbVertex
100
AcDb2dVertex
 10
1000.029276
 20
260.406837
 30
0.0
  0
VERTEX
  5
69C
330
699
100
AcDbEntity
  8
002
 62
     3
370
     9
100
AcDbVertex
100
AcDb2dVertex
 10
1004.484271
 20
257.446837
 30
0.0
  0
VERTEX
  5
69D
330
699
100
AcDbEntity
  8
002
 62
     3
370
     9
100
AcDbVertex
100
AcDb2dVertex
 10
1008.939266
 20
254.726837
 30
0.0
  0
VERTEX
  5
69E
330
699
100
AcDbEntity
  8
002
 62
     3
370
     9
100
AcDbVertex
100
AcDb2dVertex
 10
1013.394261
 20
252.486837
 30
0.0
  0
VERTEX
  5
69F
330
699
100
AcDbEntity
  8
002
 62
     3
370
     9
100
AcDbVertex
100
AcDb2dVertex
 10
1017.849256
 20
250.966837
 30
0.0
  0
VERTEX
  5
6A0
330
699
100
AcDbEntity
  8
002
 62
     3
370
     9
100
AcDbVertex
100
AcDb2dVertex
 10
1022.304251
 20
250.406837
 30
0.0
  0
VERTEX
  5
6A1
330
699
100
AcDbEntity
  8
002
 62
     3
370
     9
100
AcDbVertex
100
AcDb2dVertex
 10
1026.759246
 20
250.966837
 30
0.0
  0
VERTEX
  5
6A2
330
699
100
AcDbEntity
  8
002
 62
     3
370
     9
100
AcDbVertex
100
AcDb2dVertex
 10
1031.214241
 20
252.486837
 30
0.0
  0
VERTEX
  5
6A3
330
699
100
AcDbEntity
  8
002
 62
     3
370
     9
100
AcDbVertex
100
AcDb2dVertex
 10
1035.669236
 20
254.726837
 30
0.0
  0
VERTEX
  5
6A4
330
699
100
AcDbEntity
  8
002
 62
     3
370
     9
100
AcDbVertex
100
AcDb2dVertex
 10
1040.124231
 20
257.446837
 30
0.0
  0
VERTEX
  5
6A5
330
699
100
AcDbEntity
  8
002
 62
     3
370
     9
100
AcDbVertex
100
AcDb2dVertex
 10
1044.579226
 20
260.406837
 30
0.0
  0
VERTEX
  5
6A6
330
699
100
AcDbEntity
  8
002
 62
     3
370
     9
100
AcDbVertex
100
AcDb2dVertex
 10
1049.034221
 20
263.366837
 30
0.0
  0
VERTEX
  5
6A7
330
699
100
AcDbEntity
  8
002
 62
     3
370
     9
100
AcDbVertex
100
AcDb2dVertex
 10
1053.489216
 20
266.086837
 30
0.0
  0
VERTEX
  5
6A8
330
699
100
AcDbEntity
  8
002
 62
     3
370
     9
100
AcDbVertex
100
AcDb2dVertex
 10
1057.944211
 20
268.326837
 30
0.0
  0
VERTEX
  5
6A9
330
699
100
AcDbEntity
  8
002
 62
     3
370
     9
100
AcDbVertex
100
AcDb2dVertex
 10
1062.399206
 20
269.846837
 30
0.0
  0
VERTEX
  5
6AA
330
699
100
AcDbEntity
  8
002
 62
     3
370
     9
100
AcDbVertex
100
AcDb2dVertex
 10
1066.854201
 20
270.406837
 30
0.0
  0
VERTEX
  5
6AB
330
699
100
AcDbEntity
  8
002
 62
     3
370
     9
100
AcDbVertex
100
AcDb2dVertex
 10
1071.309196
 20
269.846837
 30
0.0
  0
VERTEX
  5
6AC
330
699
100
AcDbEntity
  8
002
 62
     3
370
     9
100
AcDbVertex
100
AcDb2dVertex
 10
1075.764191
 20
268.326837
 30
0.0
  0
VERTEX
  5
6AD
330
699
100
AcDbEntity
  8
002
 62
     3
370
     9
100
AcDbVertex
100
AcDb2dVertex
 10
1080.219186
 20
266.086837
 30
0.0
  0
VERTEX
  5
6AE
330
699
100
AcDbEntity
  8
002
 62
     3
370
     9
100
AcDbVertex
100
AcDb2dVertex
 10
1084.674181
 20
263.366837
 30
0.0
  0
VERTEX
  5
6AF
330
699
100
AcDbEntity
  8
002
 62
     3
370
     9
100
AcDbVertex
100
AcDb2dVertex
 10
1089.129176
 20
260.406837
 30
0.0
  0
SEQEND
  5
69A
330
699
100
AcDbEntity
  8
002
370
     9
  0
POLYLINE
  5
6B0
330
1F
100
AcDbEntity
  8
002
 62
     3
370
     9
100
AcDb2dPolyline
 66
     1
 10
0.0
 20
0.0
 30
0.0
  0
VERTEX
  5
6B2
330
6B0
100
AcDbEntity
  8
002
 62
     3
370
     9
100
AcDbVertex
100
AcDb2dVertex
 10
1000.029276
 20
280.406837
 30
0.0
  0
VERTEX
  5
6B3
330
6B0
100
AcDbEntity
  8
002
 62
     3
370
     9
100
AcDbVertex
100
AcDb2dVertex
 10
1004.484271
 20
277.446837
 30
0.0
  0
VERTEX
  5
6B4
330
6B0
100
AcDbEntity
  8
002
 62
     3
370
     9
100
AcDbVertex
100
AcDb2dVertex
 10
1008.939266
 20
274.726837
 30
0.0
  0
VERTEX
  5
6B5
330
6B0
100
AcDbEntity
  8
002
 62
     3
370
     9
100
AcDbVertex
100
AcDb2dVertex
 10
1013.394261
 20
272.486837
 30
0.0
  0
VERTEX
  5
6B6
330
6B0
100
AcDbEntity
  8
002
 62
     3
370
     9
100
AcDbVertex
100
AcDb2dVertex
 10
1017.849256
 20
270.966837
 30
0.0
  0
VERTEX
  5
6B7
330
6B0
100
AcDbEntity
  8
002
 62
     3
370
     9
100
AcDbVertex
100
AcDb2dVertex
 10
1022.304251
 20
270.406837
 30
0.0
  0
VERTEX
  5
6B8
330
6B0
100
AcDbEntity
  8
002
 62
     3
370
     9
100
AcDbVertex
100
AcDb2dVertex
 10
1026.759246
 20
270.966837
 30
0.0
  0
VERTEX
  5
6B9
330
6B0
100
AcDbEntity
  8
002
 62
     3
370
     9
100
AcDbVertex
100
AcDb2dVertex
 10
1031.214241
 20
272.486837
 30
0.0
  0
VERTEX
  5
6BA
330
6B0
100
AcDbEntity
  8
002
 62
     3
370
     9
100
AcDbVertex
100
AcDb2dVertex
 10
1035.669236
 20
274.726837
 30
0.0
  0
VERTEX
  5
6BB
330
6B0
100
AcDbEntity
  8
002
 62
     3
370
     9
100
AcDbVertex
100
AcDb2dVertex
 10
1040.124231
 20
277.446837
 30
0.0
  0
VERTEX
  5
6BC
330
6B0
100
AcDbEntity
  8
002
 62
     3
370
     9
100
AcDbVertex
100
AcDb2dVertex
 10
1044.579226
 20
280.406837
 30
0.0
  0
VERTEX
  5
6BD
330
6B0
100
AcDbEntity
  8
002
 62
     3
370
     9
100
AcDbVertex
100
AcDb2dVertex
 10
1049.034221
 20
283.366837
 30
0.0
  0
VERTEX
  5
6BE
330
6B0
100
AcDbEntity
  8
002
 62
     3
370
     9
100
AcDbVertex
100
AcDb2dVertex
 10
1053.489216
 20
286.086837
 30
0.0
  0
VERTEX
  5
6BF
330
6B0
100
AcDbEntity
  8
002
 62
     3
370
     9
100
AcDbVertex
100
AcDb2dVertex
 10
1057.944211
 20
288.326837
 30
0.0
  0
VERTEX
  5
6C0
330
6B0
100
AcDbEntity
  8
002
 62
     3
370
     9
100
AcDbVertex
100
AcDb2dVertex
 10
1062.399206
 20
289.846837
 30
0.0
  0
VERTEX
  5
6C1
330
6B0
100
AcDbEntity
  8
002
 62
     3
370
     9
100
AcDbVertex
100
AcDb2dVertex
 10
1066.854201
 20
290.406837
 30
0.0
  0
VERTEX
  5
6C2
330
6B0
100
AcDbEntity
  8
002
 62
     3
370
     9
100
AcDbVertex
100
AcDb2dVertex
 10
1071.309196
 20
289.846837
 30
0.0
  0
VERTEX
  5
6C3
330
6B0
100
AcDbEntity
  8
002
 62
     3
370
     9
100
AcDbVertex
100
AcDb2dVertex
 10
1075.764191
 20
288.326837
 30
0.0
  0
VERTEX
  5
6C4
330
6B0
100
AcDbEntity
  8
002
 62
     3
370
     9
100
AcDbVertex
100
AcDb2dVertex
 10
1080.219186
 20
286.086837
 30
0.0
  0
VERTEX
  5
6C5
330
6B0
100
AcDbEntity
  8
002
 62
     3
370
     9
100
AcDbVertex
100
AcDb2dVertex
 10
1084.674181
 20
283.366837
 30
0.0
  0
VERTEX
  5
6C6
330
6B0
100
AcDbEntity
  8
002
 62
     3
370
     9
100
AcDbVertex
100
AcDb2dVertex
 10
1089.129176
 20
280.406837
 30
0.0
  0
SEQEND
  5
6B1
330
6B0
100
AcDbEntity
  8
002
370
     9
  0
LINE
  5
6C7
330
1F
100
AcDbEntity
  8
002
 62
     3
370
    30
100
AcDbLine
 10
1089.129176
 20
394.906837
 30
0.0
 11
1089.129176
 21
280.406837
 31
0.0
  0
LINE
  5
6C8
330
1F
100
AcDbEntity
  8
002
 62
     3
370
    30
100
AcDbLine
 10
1089.129176
 20
260.406837
 30
0.0
 11
1089.129176
 21
145.906837
 31
0.0
  0
LINE
  5
6C9
330
1F
100
AcDbEntity
  8
002
 62
     3
370
    30
100
AcDbLine
 10
1000.029276
 20
145.906837
 30
0.0
 11
1000.029276
 21
260.406837
 31
0.0
  0
LINE
  5
6CA
330
1F
100
AcDbEntity
  8
002
 62
     3
370
    30
100
AcDbLine
 10
1000.029276
 20
280.406837
 30
0.0
 11
1000.029276
 21
394.906837
 31
0.0
  0
POLYLINE
  5
6CB
330
1F
100
AcDbEntity
  8
002
 62
     3
370
     9
100
AcDb2dPolyline
 66
     1
 10
0.0
 20
0.0
 30
0.0
  0
VERTEX
  5
6CD
330
6CB
100
AcDbEntity
  8
002
 62
     3
370
     9
100
AcDbVertex
100
AcDb2dVertex
 10
1396.88673
 20
295.906537
 30
0.0
  0
VERTEX
  5
6CE
330
6CB
100
AcDbEntity
  8
002
 62
     3
370
     9
100
AcDbVertex
100
AcDb2dVertex
 10
1399.38673
 20
292.946537
 30
0.0
  0
VERTEX
  5
6CF
330
6CB
100
AcDbEntity
  8
002
 62
     3
370
     9
100
AcDbVertex
100
AcDb2dVertex
 10
1401.88673
 20
290.226537
 30
0.0
  0
VERTEX
  5
6D0
330
6CB
100
AcDbEntity
  8
002
 62
     3
370
     9
100
AcDbVertex
100
AcDb2dVertex
 10
1404.38673
 20
287.986537
 30
0.0
  0
VERTEX
  5
6D1
330
6CB
100
AcDbEntity
  8
002
 62
     3
370
     9
100
AcDbVertex
100
AcDb2dVertex
 10
1406.88673
 20
286.466537
 30
0.0
  0
VERTEX
  5
6D2
330
6CB
100
AcDbEntity
  8
002
 62
     3
370
     9
100
AcDbVertex
100
AcDb2dVertex
 10
1409.38673
 20
285.906537
 30
0.0
  0
VERTEX
  5
6D3
330
6CB
100
AcDbEntity
  8
002
 62
     3
370
     9
100
AcDbVertex
100
AcDb2dVertex
 10
1411.88673
 20
286.466537
 30
0.0
  0
VERTEX
  5
6D4
330
6CB
100
AcDbEntity
  8
002
 62
     3
370
     9
100
AcDbVertex
100
AcDb2dVertex
 10
1414.38673
 20
287.986537
 30
0.0
  0
VERTEX
  5
6D5
330
6CB
100
AcDbEntity
  8
002
 62
     3
370
     9
100
AcDbVertex
100
AcDb2dVertex
 10
1416.88673
 20
290.226537
 30
0.0
  0
VERTEX
  5
6D6
330
6CB
100
AcDbEntity
  8
002
 62
     3
370
     9
100
AcDbVertex
100
AcDb2dVertex
 10
1419.38673
 20
292.946537
 30
0.0
  0
VERTEX
  5
6D7
330
6CB
100
AcDbEntity
  8
002
 62
     3
370
     9
100
AcDbVertex
100
AcDb2dVertex
 10
1421.88673
 20
295.906537
 30
0.0
  0
VERTEX
  5
6D8
330
6CB
100
AcDbEntity
  8
002
 62
     3
370
     9
100
AcDbVertex
100
AcDb2dVertex
 10
1424.38673
 20
298.866537
 30
0.0
  0
VERTEX
  5
6D9
330
6CB
100
AcDbEntity
  8
002
 62
     3
370
     9
100
AcDbVertex
100
AcDb2dVertex
 10
1426.88673
 20
301.586537
 30
0.0
  0
VERTEX
  5
6DA
330
6CB
100
AcDbEntity
  8
002
 62
     3
370
     9
100
AcDbVertex
100
AcDb2dVertex
 10
1429.38673
 20
303.826537
 30
0.0
  0
VERTEX
  5
6DB
330
6CB
100
AcDbEntity
  8
002
 62
     3
370
     9
100
AcDbVertex
100
AcDb2dVertex
 10
1431.88673
 20
305.346537
 30
0.0
  0
VERTEX
  5
6DC
330
6CB
100
AcDbEntity
  8
002
 62
     3
370
     9
100
AcDbVertex
100
AcDb2dVertex
 10
1434.38673
 20
305.906537
 30
0.0
  0
VERTEX
  5
6DD
330
6CB
100
AcDbEntity
  8
002
 62
     3
370
     9
100
AcDbVertex
100
AcDb2dVertex
 10
1436.88673
 20
305.346537
 30
0.0
  0
VERTEX
  5
6DE
330
6CB
100
AcDbEntity
  8
002
 62
     3
370
     9
100
AcDbVertex
100
AcDb2dVertex
 10
1439.38673
 20
303.826537
 30
0.0
  0
VERTEX
  5
6DF
330
6CB
100
AcDbEntity
  8
002
 62
     3
370
     9
100
AcDbVertex
100
AcDb2dVertex
 10
1441.88673
 20
301.586537
 30
0.0
  0
VERTEX
  5
6E0
330
6CB
100
AcDbEntity
  8
002
 62
     3
370
     9
100
AcDbVertex
100
AcDb2dVertex
 10
1444.38673
 20
298.866537
 30
0.0
  0
VERTEX
  5
6E1
330
6CB
100
AcDbEntity
  8
002
 62
     3
370
     9
100
AcDbVertex
100
AcDb2dVertex
 10
1446.88673
 20
295.906537
 30
0.0
  0
SEQEND
  5
6CC
330
6CB
100
AcDbEntity
  8
002
370
     9
  0
POLYLINE
  5
6E2
330
1F
100
AcDbEntity
  8
002
 62
     3
370
     9
100
AcDb2dPolyline
 66
     1
 10
0.0
 20
0.0
 30
0.0
  0
VERTEX
  5
6E4
330
6E2
100
AcDbEntity
  8
002
 62
     3
370
     9
100
AcDbVertex
100
AcDb2dVertex
 10
1396.88673
 20
315.906537
 30
0.0
  0
VERTEX
  5
6E5
330
6E2
100
AcDbEntity
  8
002
 62
     3
370
     9
100
AcDbVertex
100
AcDb2dVertex
 10
1399.38673
 20
312.946537
 30
0.0
  0
VERTEX
  5
6E6
330
6E2
100
AcDbEntity
  8
002
 62
     3
370
     9
100
AcDbVertex
100
AcDb2dVertex
 10
1401.88673
 20
310.226537
 30
0.0
  0
VERTEX
  5
6E7
330
6E2
100
AcDbEntity
  8
002
 62
     3
370
     9
100
AcDbVertex
100
AcDb2dVertex
 10
1404.38673
 20
307.986537
 30
0.0
  0
VERTEX
  5
6E8
330
6E2
100
AcDbEntity
  8
002
 62
     3
370
     9
100
AcDbVertex
100
AcDb2dVertex
 10
1406.88673
 20
306.466537
 30
0.0
  0
VERTEX
  5
6E9
330
6E2
100
AcDbEntity
  8
002
 62
     3
370
     9
100
AcDbVertex
100
AcDb2dVertex
 10
1409.38673
 20
305.906537
 30
0.0
  0
VERTEX
  5
6EA
330
6E2
100
AcDbEntity
  8
002
 62
     3
370
     9
100
AcDbVertex
100
AcDb2dVertex
 10
1411.88673
 20
306.466537
 30
0.0
  0
VERTEX
  5
6EB
330
6E2
100
AcDbEntity
  8
002
 62
     3
370
     9
100
AcDbVertex
100
AcDb2dVertex
 10
1414.38673
 20
307.986537
 30
0.0
  0
VERTEX
  5
6EC
330
6E2
100
AcDbEntity
  8
002
 62
     3
370
     9
100
AcDbVertex
100
AcDb2dVertex
 10
1416.88673
 20
310.226537
 30
0.0
  0
VERTEX
  5
6ED
330
6E2
100
AcDbEntity
  8
002
 62
     3
370
     9
100
AcDbVertex
100
AcDb2dVertex
 10
1419.38673
 20
312.946537
 30
0.0
  0
VERTEX
  5
6EE
330
6E2
100
AcDbEntity
  8
002
 62
     3
370
     9
100
AcDbVertex
100
AcDb2dVertex
 10
1421.88673
 20
315.906537
 30
0.0
  0
VERTEX
  5
6EF
330
6E2
100
AcDbEntity
  8
002
 62
     3
370
     9
100
AcDbVertex
100
AcDb2dVertex
 10
1424.38673
 20
318.866537
 30
0.0
  0
VERTEX
  5
6F0
330
6E2
100
AcDbEntity
  8
002
 62
     3
370
     9
100
AcDbVertex
100
AcDb2dVertex
 10
1426.88673
 20
321.586537
 30
0.0
  0
VERTEX
  5
6F1
330
6E2
100
AcDbEntity
  8
002
 62
     3
370
     9
100
AcDbVertex
100
AcDb2dVertex
 10
1429.38673
 20
323.826537
 30
0.0
  0
VERTEX
  5
6F2
330
6E2
100
AcDbEntity
  8
002
 62
     3
370
     9
100
AcDbVertex
100
AcDb2dVertex
 10
1431.88673
 20
325.346537
 30
0.0
  0
VERTEX
  5
6F3
330
6E2
100
AcDbEntity
  8
002
 62
     3
370
     9
100
AcDbVertex
100
AcDb2dVertex
 10
1434.38673
 20
325.906537
 30
0.0
  0
VERTEX
  5
6F4
330
6E2
100
AcDbEntity
  8
002
 62
     3
370
     9
100
AcDbVertex
100
AcDb2dVertex
 10
1436.88673
 20
325.346537
 30
0.0
  0
VERTEX
  5
6F5
330
6E2
100
AcDbEntity
  8
002
 62
     3
370
     9
100
AcDbVertex
100
AcDb2dVertex
 10
1439.38673
 20
323.826537
 30
0.0
  0
VERTEX
  5
6F6
330
6E2
100
AcDbEntity
  8
002
 62
     3
370
     9
100
AcDbVertex
100
AcDb2dVertex
 10
1441.88673
 20
321.586537
 30
0.0
  0
VERTEX
  5
6F7
330
6E2
100
AcDbEntity
  8
002
 62
     3
370
     9
100
AcDbVertex
100
AcDb2dVertex
 10
1444.38673
 20
318.866537
 30
0.0
  0
VERTEX
  5
6F8
330
6E2
100
AcDbEntity
  8
002
 62
     3
370
     9
100
AcDbVertex
100
AcDb2dVertex
 10
1446.88673
 20
315.906537
 30
0.0
  0
SEQEND
  5
6E3
330
6E2
100
AcDbEntity
  8
002
370
     9
  0
LINE
  5
6F9
330
1F
100
AcDbEntity
  8
002
 62
     3
370
    30
100
AcDbLine
 10
1446.88673
 20
410.906837
 30
0.0
 11
1446.88673
 21
315.906537
 31
0.0
  0
LINE
  5
6FA
330
1F
100
AcDbEntity
  8
002
 62
     3
370
    30
100
AcDbLine
 10
1446.88673
 20
295.906537
 30
0.0
 11
1446.88673
 21
200.906237
 31
0.0
  0
LINE
  5
6FB
330
1F
100
AcDbEntity
  8
002
 62
    40
370
     9
100
AcDbLine
 10
1444.88658
 20
200.906237
 30
0.0
 11
1444.88658
 21
298.286233
 31
0.0
  0
LINE
  5
6FC
330
1F
100
AcDbEntity
  8
002
 62
    40
370
     9
100
AcDbLine
 10
1444.88658
 20
318.286233
 30
0.0
 11
1444.88658
 21
410.906837
 31
0.0
  0
LINE
  5
6FD
330
1F
100
AcDbEntity
  8
002
 62
     3
370
    30
100
AcDbLine
 10
1396.88673
 20
200.906237
 30
0.0
 11
1396.88673
 21
295.906537
 31
0.0
  0
LINE
  5
6FE
330
1F
100
AcDbEntity
  8
002
 62
     3
370
    30
100
AcDbLine
 10
1396.88673
 20
315.906537
 30
0.0
 11
1396.88673
 21
410.906837
 31
0.0
  0
LINE
  5
6FF
330
1F
100
AcDbEntity
  8
002
 62
    40
370
     9
100
AcDbLine
 10
1398.88658
 20
200.906237
 30
0.0
 11
1398.88658
 21
293.527193
 31
0.0
  0
LINE
  5
700
330
1F
100
AcDbEntity
  8
002
 62
    40
370
     9
100
AcDbLine
 10
1398.88658
 20
313.527193
 30
0.0
 11
1398.88658
 21
410.906837
 31
0.0
  0
POLYLINE
  5
701
330
1F
100
AcDbEntity
  8
002
 62
     3
370
     9
100
AcDb2dPolyline
 66
     1
 10
0.0
 20
0.0
 30
0.0
  0
VERTEX
  5
703
330
701
100
AcDbEntity
  8
002
 62
     3
370
     9
100
AcDbVertex
100
AcDb2dVertex
 10
1377.33658
 20
897.406437
 30
0.0
  0
VERTEX
  5
704
330
701
100
AcDbEntity
  8
002
 62
     3
370
     9
100
AcDbVertex
100
AcDb2dVertex
 10
1381.79158
 20
894.446437
 30
0.0
  0
VERTEX
  5
705
330
701
100
AcDbEntity
  8
002
 62
     3
370
     9
100
AcDbVertex
100
AcDb2dVertex
 10
1386.24658
 20
891.726437
 30
0.0
  0
VERTEX
  5
706
330
701
100
AcDbEntity
  8
002
 62
     3
370
     9
100
AcDbVertex
100
AcDb2dVertex
 10
1390.70158
 20
889.486437
 30
0.0
  0
VERTEX
  5
707
330
701
100
AcDbEntity
  8
002
 62
     3
370
     9
100
AcDbVertex
100
AcDb2dVertex
 10
1395.15658
 20
887.966437
 30
0.0
  0
VERTEX
  5
708
330
701
100
AcDbEntity
  8
002
 62
     3
370
     9
100
AcDbVertex
100
AcDb2dVertex
 10
1399.61158
 20
887.406437
 30
0.0
  0
VERTEX
  5
709
330
701
100
AcDbEntity
  8
002
 62
     3
370
     9
100
AcDbVertex
100
AcDb2dVertex
 10
1404.06658
 20
887.966437
 30
0.0
  0
VERTEX
  5
70A
330
701
100
AcDbEntity
  8
002
 62
     3
370
     9
100
AcDbVertex
100
AcDb2dVertex
 10
1408.52158
 20
889.486437
 30
0.0
  0
VERTEX
  5
70B
330
701
100
AcDbEntity
  8
002
 62
     3
370
     9
100
AcDbVertex
100
AcDb2dVertex
 10
1412.97658
 20
891.726437
 30
0.0
  0
VERTEX
  5
70C
330
701
100
AcDbEntity
  8
002
 62
     3
370
     9
100
AcDbVertex
100
AcDb2dVertex
 10
1417.43158
 20
894.446437
 30
0.0
  0
VERTEX
  5
70D
330
701
100
AcDbEntity
  8
002
 62
     3
370
     9
100
AcDbVertex
100
AcDb2dVertex
 10
1421.88658
 20
897.406437
 30
0.0
  0
VERTEX
  5
70E
330
701
100
AcDbEntity
  8
002
 62
     3
370
     9
100
AcDbVertex
100
AcDb2dVertex
 10
1426.34158
 20
900.366437
 30
0.0
  0
VERTEX
  5
70F
330
701
100
AcDbEntity
  8
002
 62
     3
370
     9
100
AcDbVertex
100
AcDb2dVertex
 10
1430.79658
 20
903.086437
 30
0.0
  0
VERTEX
  5
710
330
701
100
AcDbEntity
  8
002
 62
     3
370
     9
100
AcDbVertex
100
AcDb2dVertex
 10
1435.25158
 20
905.326437
 30
0.0
  0
VERTEX
  5
711
330
701
100
AcDbEntity
  8
002
 62
     3
370
     9
100
AcDbVertex
100
AcDb2dVertex
 10
1439.70658
 20
906.846437
 30
0.0
  0
VERTEX
  5
712
330
701
100
AcDbEntity
  8
002
 62
     3
370
     9
100
AcDbVertex
100
AcDb2dVertex
 10
1444.16158
 20
907.406437
 30
0.0
  0
VERTEX
  5
713
330
701
100
AcDbEntity
  8
002
 62
     3
370
     9
100
AcDbVertex
100
AcDb2dVertex
 10
1448.61658
 20
906.846437
 30
0.0
  0
VERTEX
  5
714
330
701
100
AcDbEntity
  8
002
 62
     3
370
     9
100
AcDbVertex
100
AcDb2dVertex
 10
1453.07158
 20
905.326437
 30
0.0
  0
VERTEX
  5
715
330
701
100
AcDbEntity
  8
002
 62
     3
370
     9
100
AcDbVertex
100
AcDb2dVertex
 10
1457.52658
 20
903.086437
 30
0.0
  0
VERTEX
  5
716
330
701
100
AcDbEntity
  8
002
 62
     3
370
     9
100
AcDbVertex
100
AcDb2dVertex
 10
1461.98158
 20
900.366437
 30
0.0
  0
VERTEX
  5
717
330
701
100
AcDbEntity
  8
002
 62
     3
370
     9
100
AcDbVertex
100
AcDb2dVertex
 10
1466.43658
 20
897.406437
 30
0.0
  0
SEQEND
  5
702
330
701
100
AcDbEntity
  8
002
370
     9
  0
POLYLINE
  5
718
330
1F
100
AcDbEntity
  8
002
 62
     3
370
     9
100
AcDb2dPolyline
 66
     1
 10
0.0
 20
0.0
 30
0.0
  0
VERTEX
  5
71A
330
718
100
AcDbEntity
  8
002
 62
     3
370
     9
100
AcDbVertex
100
AcDb2dVertex
 10
1377.33658
 20
917.406437
 30
0.0
  0
VERTEX
  5
71B
330
718
100
AcDbEntity
  8
002
 62
     3
370
     9
100
AcDbVertex
100
AcDb2dVertex
 10
1381.79158
 20
914.446437
 30
0.0
  0
VERTEX
  5
71C
330
718
100
AcDbEntity
  8
002
 62
     3
370
     9
100
AcDbVertex
100
AcDb2dVertex
 10
1386.24658
 20
911.726437
 30
0.0
  0
VERTEX
  5
71D
330
718
100
AcDbEntity
  8
002
 62
     3
370
     9
100
AcDbVertex
100
AcDb2dVertex
 10
1390.70158
 20
909.486437
 30
0.0
  0
VERTEX
  5
71E
330
718
100
AcDbEntity
  8
002
 62
     3
370
     9
100
AcDbVertex
100
AcDb2dVertex
 10
1395.15658
 20
907.966437
 30
0.0
  0
VERTEX
  5
71F
330
718
100
AcDbEntity
  8
002
 62
     3
370
     9
100
AcDbVertex
100
AcDb2dVertex
 10
1399.61158
 20
907.406437
 30
0.0
  0
VERTEX
  5
720
330
718
100
AcDbEntity
  8
002
 62
     3
370
     9
100
AcDbVertex
100
AcDb2dVertex
 10
1404.06658
 20
907.966437
 30
0.0
  0
VERTEX
  5
721
330
718
100
AcDbEntity
  8
002
 62
     3
370
     9
100
AcDbVertex
100
AcDb2dVertex
 10
1408.52158
 20
909.486437
 30
0.0
  0
VERTEX
  5
722
330
718
100
AcDbEntity
  8
002
 62
     3
370
     9
100
AcDbVertex
100
AcDb2dVertex
 10
1412.97658
 20
911.726437
 30
0.0
  0
VERTEX
  5
723
330
718
100
AcDbEntity
  8
002
 62
     3
370
     9
100
AcDbVertex
100
AcDb2dVertex
 10
1417.43158
 20
914.446437
 30
0.0
  0
VERTEX
  5
724
330
718
100
AcDbEntity
  8
002
 62
     3
370
     9
100
AcDbVertex
100
AcDb2dVertex
 10
1421.88658
 20
917.406437
 30
0.0
  0
VERTEX
  5
725
330
718
100
AcDbEntity
  8
002
 62
     3
370
     9
100
AcDbVertex
100
AcDb2dVertex
 10
1426.34158
 20
920.366437
 30
0.0
  0
VERTEX
  5
726
330
718
100
AcDbEntity
  8
002
 62
     3
370
     9
100
AcDbVertex
100
AcDb2dVertex
 10
1430.79658
 20
923.086437
 30
0.0
  0
VERTEX
  5
727
330
718
100
AcDbEntity
  8
002
 62
     3
370
     9
100
AcDbVertex
100
AcDb2dVertex
 10
1435.25158
 20
925.326437
 30
0.0
  0
VERTEX
  5
728
330
718
100
AcDbEntity
  8
002
 62
     3
370
     9
100
AcDbVertex
100
AcDb2dVertex
 10
1439.70658
 20
926.846437
 30
0.0
  0
VERTEX
  5
729
330
718
100
AcDbEntity
  8
002
 62
     3
370
     9
100
AcDbVertex
100
AcDb2dVertex
 10
1444.16158
 20
927.406437
 30
0.0
  0
VERTEX
  5
72A
330
718
100
AcDbEntity
  8
002
 62
     3
370
     9
100
AcDbVertex
100
AcDb2dVertex
 10
1448.61658
 20
926.846437
 30
0.0
  0
VERTEX
  5
72B
330
718
100
AcDbEntity
  8
002
 62
     3
370
     9
100
AcDbVertex
100
AcDb2dVertex
 10
1453.07158
 20
925.326437
 30
0.0
  0
VERTEX
  5
72C
330
718
100
AcDbEntity
  8
002
 62
     3
370
     9
100
AcDbVertex
100
AcDb2dVertex
 10
1457.52658
 20
923.086437
 30
0.0
  0
VERTEX
  5
72D
330
718
100
AcDbEntity
  8
002
 62
     3
370
     9
100
AcDbVertex
100
AcDb2dVertex
 10
1461.98158
 20
920.366437
 30
0.0
  0
VERTEX
  5
72E
330
718
100
AcDbEntity
  8
002
 62
     3
370
     9
100
AcDbVertex
100
AcDb2dVertex
 10
1466.43658
 20
917.406437
 30
0.0
  0
SEQEND
  5
719
330
718
100
AcDbEntity
  8
002
370
     9
  0
LINE
  5
72F
330
1F
100
AcDbEntity
  8
002
 62
     3
370
    30
100
AcDbLine
 10
1377.33658
 20
783.906437
 30
0.0
 11
1377.33658
 21
897.406437
 31
0.0
  0
LINE
  5
730
330
1F
100
AcDbEntity
  8
002
 62
     3
370
    30
100
AcDbLine
 10
1377.33658
 20
917.406437
 30
0.0
 11
1377.33658
 21
1030.906437
 31
0.0
  0
LINE
  5
731
330
1F
100
AcDbEntity
  8
002
 62
     3
370
    30
100
AcDbLine
 10
1466.43658
 20
1030.906437
 30
0.0
 11
1466.43658
 21
917.406437
 31
0.0
  0
LINE
  5
732
330
1F
100
AcDbEntity
  8
002
 62
     3
370
    30
100
AcDbLine
 10
1466.43658
 20
897.406437
 30
0.0
 11
1466.43658
 21
783.906437
 31
0.0
  0
POLYLINE
  5
733
330
1F
100
AcDbEntity
  8
002
 62
     3
370
     9
100
AcDb2dPolyline
 66
     1
 10
0.0
 20
0.0
 30
0.0
  0
VERTEX
  5
735
330
733
100
AcDbEntity
  8
002
 62
     3
370
     9
100
AcDbVertex
100
AcDb2dVertex
 10
1719.33658
 20
897.406437
 30
0.0
  0
VERTEX
  5
736
330
733
100
AcDbEntity
  8
002
 62
     3
370
     9
100
AcDbVertex
100
AcDb2dVertex
 10
1723.79158
 20
894.446437
 30
0.0
  0
VERTEX
  5
737
330
733
100
AcDbEntity
  8
002
 62
     3
370
     9
100
AcDbVertex
100
AcDb2dVertex
 10
1728.24658
 20
891.726437
 30
0.0
  0
VERTEX
  5
738
330
733
100
AcDbEntity
  8
002
 62
     3
370
     9
100
AcDbVertex
100
AcDb2dVertex
 10
1732.70158
 20
889.486437
 30
0.0
  0
VERTEX
  5
739
330
733
100
AcDbEntity
  8
002
 62
     3
370
     9
100
AcDbVertex
100
AcDb2dVertex
 10
1737.15658
 20
887.966437
 30
0.0
  0
VERTEX
  5
73A
330
733
100
AcDbEntity
  8
002
 62
     3
370
     9
100
AcDbVertex
100
AcDb2dVertex
 10
1741.61158
 20
887.406437
 30
0.0
  0
VERTEX
  5
73B
330
733
100
AcDbEntity
  8
002
 62
     3
370
     9
100
AcDbVertex
100
AcDb2dVertex
 10
1746.06658
 20
887.966437
 30
0.0
  0
VERTEX
  5
73C
330
733
100
AcDbEntity
  8
002
 62
     3
370
     9
100
AcDbVertex
100
AcDb2dVertex
 10
1750.52158
 20
889.486437
 30
0.0
  0
VERTEX
  5
73D
330
733
100
AcDbEntity
  8
002
 62
     3
370
     9
100
AcDbVertex
100
AcDb2dVertex
 10
1754.97658
 20
891.726437
 30
0.0
  0
VERTEX
  5
73E
330
733
100
AcDbEntity
  8
002
 62
     3
370
     9
100
AcDbVertex
100
AcDb2dVertex
 10
1759.43158
 20
894.446437
 30
0.0
  0
VERTEX
  5
73F
330
733
100
AcDbEntity
  8
002
 62
     3
370
     9
100
AcDbVertex
100
AcDb2dVertex
 10
1763.88658
 20
897.406437
 30
0.0
  0
VERTEX
  5
740
330
733
100
AcDbEntity
  8
002
 62
     3
370
     9
100
AcDbVertex
100
AcDb2dVertex
 10
1768.34158
 20
900.366437
 30
0.0
  0
VERTEX
  5
741
330
733
100
AcDbEntity
  8
002
 62
     3
370
     9
100
AcDbVertex
100
AcDb2dVertex
 10
1772.79658
 20
903.086437
 30
0.0
  0
VERTEX
  5
742
330
733
100
AcDbEntity
  8
002
 62
     3
370
     9
100
AcDbVertex
100
AcDb2dVertex
 10
1777.25158
 20
905.326437
 30
0.0
  0
VERTEX
  5
743
330
733
100
AcDbEntity
  8
002
 62
     3
370
     9
100
AcDbVertex
100
AcDb2dVertex
 10
1781.70658
 20
906.846437
 30
0.0
  0
VERTEX
  5
744
330
733
100
AcDbEntity
  8
002
 62
     3
370
     9
100
AcDbVertex
100
AcDb2dVertex
 10
1786.16158
 20
907.406437
 30
0.0
  0
VERTEX
  5
745
330
733
100
AcDbEntity
  8
002
 62
     3
370
     9
100
AcDbVertex
100
AcDb2dVertex
 10
1790.61658
 20
906.846437
 30
0.0
  0
VERTEX
  5
746
330
733
100
AcDbEntity
  8
002
 62
     3
370
     9
100
AcDbVertex
100
AcDb2dVertex
 10
1795.07158
 20
905.326437
 30
0.0
  0
VERTEX
  5
747
330
733
100
AcDbEntity
  8
002
 62
     3
370
     9
100
AcDbVertex
100
AcDb2dVertex
 10
1799.52658
 20
903.086437
 30
0.0
  0
VERTEX
  5
748
330
733
100
AcDbEntity
  8
002
 62
     3
370
     9
100
AcDbVertex
100
AcDb2dVertex
 10
1803.98158
 20
900.366437
 30
0.0
  0
VERTEX
  5
749
330
733
100
AcDbEntity
  8
002
 62
     3
370
     9
100
AcDbVertex
100
AcDb2dVertex
 10
1808.43658
 20
897.406437
 30
0.0
  0
SEQEND
  5
734
330
733
100
AcDbEntity
  8
002
370
     9
  0
POLYLINE
  5
74A
330
1F
100
AcDbEntity
  8
002
 62
     3
370
     9
100
AcDb2dPolyline
 66
     1
 10
0.0
 20
0.0
 30
0.0
  0
VERTEX
  5
74C
330
74A
100
AcDbEntity
  8
002
 62
     3
370
     9
100
AcDbVertex
100
AcDb2dVertex
 10
1719.33658
 20
917.406437
 30
0.0
  0
VERTEX
  5
74D
330
74A
100
AcDbEntity
  8
002
 62
     3
370
     9
100
AcDbVertex
100
AcDb2dVertex
 10
1723.79158
 20
914.446437
 30
0.0
  0
VERTEX
  5
74E
330
74A
100
AcDbEntity
  8
002
 62
     3
370
     9
100
AcDbVertex
100
AcDb2dVertex
 10
1728.24658
 20
911.726437
 30
0.0
  0
VERTEX
  5
74F
330
74A
100
AcDbEntity
  8
002
 62
     3
370
     9
100
AcDbVertex
100
AcDb2dVertex
 10
1732.70158
 20
909.486437
 30
0.0
  0
VERTEX
  5
750
330
74A
100
AcDbEntity
  8
002
 62
     3
370
     9
100
AcDbVertex
100
AcDb2dVertex
 10
1737.15658
 20
907.966437
 30
0.0
  0
VERTEX
  5
751
330
74A
100
AcDbEntity
  8
002
 62
     3
370
     9
100
AcDbVertex
100
AcDb2dVertex
 10
1741.61158
 20
907.406437
 30
0.0
  0
VERTEX
  5
752
330
74A
100
AcDbEntity
  8
002
 62
     3
370
     9
100
AcDbVertex
100
AcDb2dVertex
 10
1746.06658
 20
907.966437
 30
0.0
  0
VERTEX
  5
753
330
74A
100
AcDbEntity
  8
002
 62
     3
370
     9
100
AcDbVertex
100
AcDb2dVertex
 10
1750.52158
 20
909.486437
 30
0.0
  0
VERTEX
  5
754
330
74A
100
AcDbEntity
  8
002
 62
     3
370
     9
100
AcDbVertex
100
AcDb2dVertex
 10
1754.97658
 20
911.726437
 30
0.0
  0
VERTEX
  5
755
330
74A
100
AcDbEntity
  8
002
 62
     3
370
     9
100
AcDbVertex
100
AcDb2dVertex
 10
1759.43158
 20
914.446437
 30
0.0
  0
VERTEX
  5
756
330
74A
100
AcDbEntity
  8
002
 62
     3
370
     9
100
AcDbVertex
100
AcDb2dVertex
 10
1763.88658
 20
917.406437
 30
0.0
  0
VERTEX
  5
757
330
74A
100
AcDbEntity
  8
002
 62
     3
370
     9
100
AcDbVertex
100
AcDb2dVertex
 10
1768.34158
 20
920.366437
 30
0.0
  0
VERTEX
  5
758
330
74A
100
AcDbEntity
  8
002
 62
     3
370
     9
100
AcDbVertex
100
AcDb2dVertex
 10
1772.79658
 20
923.086437
 30
0.0
  0
VERTEX
  5
759
330
74A
100
AcDbEntity
  8
002
 62
     3
370
     9
100
AcDbVertex
100
AcDb2dVertex
 10
1777.25158
 20
925.326437
 30
0.0
  0
VERTEX
  5
75A
330
74A
100
AcDbEntity
  8
002
 62
     3
370
     9
100
AcDbVertex
100
AcDb2dVertex
 10
1781.70658
 20
926.846437
 30
0.0
  0
VERTEX
  5
75B
330
74A
100
AcDbEntity
  8
002
 62
     3
370
     9
100
AcDbVertex
100
AcDb2dVertex
 10
1786.16158
 20
927.406437
 30
0.0
  0
VERTEX
  5
75C
330
74A
100
AcDbEntity
  8
002
 62
     3
370
     9
100
AcDbVertex
100
AcDb2dVertex
 10
1790.61658
 20
926.846437
 30
0.0
  0
VERTEX
  5
75D
330
74A
100
AcDbEntity
  8
002
 62
     3
370
     9
100
AcDbVertex
100
AcDb2dVertex
 10
1795.07158
 20
925.326437
 30
0.0
  0
VERTEX
  5
75E
330
74A
100
AcDbEntity
  8
002
 62
     3
370
     9
100
AcDbVertex
100
AcDb2dVertex
 10
1799.52658
 20
923.086437
 30
0.0
  0
VERTEX
  5
75F
330
74A
100
AcDbEntity
  8
002
 62
     3
370
     9
100
AcDbVertex
100
AcDb2dVertex
 10
1803.98158
 20
920.366437
 30
0.0
  0
VERTEX
  5
760
330
74A
100
AcDbEntity
  8
002
 62
     3
370
     9
100
AcDbVertex
100
AcDb2dVertex
 10
1808.43658
 20
917.406437
 30
0.0
  0
SEQEND
  5
74B
330
74A
100
AcDbEntity
  8
002
370
     9
  0
LINE
  5
761
330
1F
100
AcDbEntity
  8
002
 62
     3
370
    30
100
AcDbLine
 10
1719.33658
 20
783.906437
 30
0.0
 11
1719.33658
 21
897.406437
 31
0.0
  0
LINE
  5
762
330
1F
100
AcDbEntity
  8
002
 62
     3
370
    30
100
AcDbLine
 10
1719.33658
 20
917.406437
 30
0.0
 11
1719.33658
 21
1030.906437
 31
0.0
  0
LINE
  5
763
330
1F
100
AcDbEntity
  8
002
 62
     3
370
    30
100
AcDbLine
 10
1808.43658
 20
1030.906437
 30
0.0
 11
1808.43658
 21
917.406437
 31
0.0
  0
LINE
  5
764
330
1F
100
AcDbEntity
  8
002
 62
     3
370
    30
100
AcDbLine
 10
1808.43658
 20
897.406437
 30
0.0
 11
1808.43658
 21
783.906437
 31
0.0
  0
LINE
  5
765
330
1F
100
AcDbEntity
  8
002
  6
CENTER
 62
    40
370
     9
100
AcDbLine
 10
480.316068
 20
129.986557
 30
0.0
 11
480.316068
 21
1033.85715
 31
0.0
  0
LINE
  5
766
330
1F
100
AcDbEntity
  8
002
  6
CENTER
 62
    40
370
     9
100
AcDbLine
 10
1044.579176
 20
1022.075186
 30
0.0
 11
1044.579176
 21
129.230368
 31
0.0
  0
LINE
  5
767
330
1F
100
AcDbEntity
  8
002
  6
CENTER
 62
    40
370
     9
100
AcDbLine
 10
1421.88658
 20
133.550772
 30
0.0
 11
1421.88658
 21
1046.496176
 31
0.0
  0
LINE
  5
768
330
1F
100
AcDbEntity
  8
002
  6
CENTER
 62
    40
370
     9
100
AcDbLine
 10
1763.88658
 20
133.550772
 30
0.0
 11
1763.88658
 21
1046.496176
 31
0.0
  0
ENDSEC
  0
SECTION
  2
OBJECTS
  0
DICTIONARY
  5
C
330
0
100
AcDbDictionary
281
     1
  3
ACAD_GROUP
350
D
  3
ACAD_LAYOUT
350
1A
  3
ACAD_MLEADERSTYLE
350
76B
  3
ACAD_MLINESTYLE
350
17
  3
ACAD_PLOTSETTINGS
350
19
  3
ACAD_PLOTSTYLENAME
350
E
  3
ACAD_VISUALSTYLE
350
2A
  3
AcDbVariableDictionary
350
769
  0
DICTIONARY
  5
D
102
{ACAD_REACTORS
330
C
102
}
330
C
100
AcDbDictionary
281
     1
  0
DICTIONARY
  5
1A
102
{ACAD_REACTORS
330
C
102
}
330
C
100
AcDbDictionary
281
     1
  3
Layout1
350
1E
  3
Layout2
350
26
  3
Model
350
22
  0
DICTIONARY
  5
76B
102
{ACAD_REACTORS
330
C
102
}
330
C
100
AcDbDictionary
281
     1
  0
DICTIONARY
  5
17
102
{ACAD_REACTORS
330
C
102
}
330
C
100
AcDbDictionary
281
     1
  3
Standard
350
18
  0
DICTIONARY
  5
19
102
{ACAD_REACTORS
330
C
102
}
330
C
100
AcDbDictionary
281
     1
  0
ACDBDICTIONARYWDFLT
  5
E
102
{ACAD_REACTORS
330
C
102
}
330
C
100
AcDbDictionary
281
     1
  3
Normal
350
F
100
AcDbDictionaryWithDefault
340
F
  0
DICTIONARY
  5
2A
102
{ACAD_REACTORS
330
C
102
}
330
C
100
AcDbDictionary
281
     1
  3
2dWireframe
350
2F
  3
3D Hidden
350
31
  3
3dWireframe
350
30
  3
Basic
350
32
  3
Brighten
350
36
  3
ColorChange
350
3A
  3
Conceptual
350
34
  3
Dim
350
35
  3
Facepattern
350
39
  3
Flat
350
2B
  3
FlatWithEdges
350
2C
  3
Gouraud
350
2D
  3
GouraudWithEdges
350
2E
  3
Linepattern
350
38
  3
Realistic
350
33
  3
Thicken
350
37
  0
DICTIONARY
  5
769
102
{ACAD_REACTORS
330
C
102
}
330
C
100
AcDbDictionary
281
     1
  3
PSOLHEIGHT
350
76D
  3
PSOLWIDTH
350
76C
  0
LAYOUT
  5
1E
102
{ACAD_REACTORS
330
1A
102
}
330
1A
100
AcDbPlotSettings
  1

  2
none_device
  4

  6

 40
0.0
 41
0.0
 42
0.0
 43
0.0
 44
0.0
 45
0.0
 46
0.0
 47
0.0
 48
0.0
 49
0.0
140
0.0
141
0.0
142
1.0
143
1.0
 70
   688
 72
     0
 73
     0
 74
     5
  7

 75
    16
147
1.0
148
0.0
149
0.0
100
AcDbLayout
  1
Layout1
 70
     1
 71
     1
 10
0.0
 20
0.0
 11
12.0
 21
9.0
 12
0.0
 22
0.0
 32
0.0
 14
1.000000E+20
 24
1.000000E+20
 34
0.0
 15
-1.000000E+20
 25
-1.000000E+20
 35
0.0
146
0.0
 13
0.0
 23
0.0
 33
0.0
 16
1.0
 26
0.0
 36
0.0
 17
0.0
 27
1.0
 37
0.0
 76
     0
330
1B
  0
LAYOUT
  5
26
102
{ACAD_REACTORS
330
1A
102
}
330
1A
100
AcDbPlotSettings
  1

  2
none_device
  4

  6

 40
0.0
 41
0.0
 42
0.0
 43
0.0
 44
0.0
 45
0.0
 46
0.0
 47
0.0
 48
0.0
 49
0.0
140
0.0
141
0.0
142
1.0
143
1.0
 70
   688
 72
     0
 73
     0
 74
     5
  7

 75
    16
147
1.0
148
0.0
149
0.0
100
AcDbLayout
  1
Layout2
 70
     1
 71
     2
 10
0.0
 20
0.0
 11
0.0
 21
0.0
 12
0.0
 22
0.0
 32
0.0
 14
0.0
 24
0.0
 34
0.0
 15
0.0
 25
0.0
 35
0.0
146
0.0
 13
0.0
 23
0.0
 33
0.0
 16
1.0
 26
0.0
 36
0.0
 17
0.0
 27
1.0
 37
0.0
 76
     0
330
23
  0
LAYOUT
  5
22
102
{ACAD_REACTORS
330
1A
102
}
330
1A
100
AcDbPlotSettings
  1

  2
none_device
  4

  6

 40
0.0
 41
0.0
 42
0.0
 43
0.0
 44
0.0
 45
0.0
 46
0.0
 47
0.0
 48
0.0
 49
0.0
140
0.0
141
0.0
142
1.0
143
1.0
 70
  1712
 72
     0
 73
     0
 74
     0
  7

 75
     0
147
1.0
148
0.0
149
0.0
100
AcDbLayout
  1
Model
 70
     1
 71
     0
 10
0.0
 20
0.0
 11
12.0
 21
9.0
 12
0.0
 22
0.0
 32
0.0
 14
360.122986
 24
129.230347
 34
0.0
 15
1938.886475
 25
1812.788696
 35
0.0
146
0.0
 13
0.0
 23
0.0
 33
0.0
 16
1.0
 26
0.0
 36
0.0
 17
0.0
 27
1.0
 37
0.0
 76
     0
330
1F
331
29
  0
MLINESTYLE
  5
18
102
{ACAD_REACTORS
330
17
102
}
330
17
100
AcDbMlineStyle
  2
Standard
 70
     0
  3

 62
   256
 51
90.0
 52
90.0
 71
     2
 49
0.5
 62
   256
  6
BYLAYER
 49
-0.5
 62
   256
  6
BYLAYER
  0
ACDBPLACEHOLDER
  5
F
102
{ACAD_REACTORS
330
E
102
}
330
E
  0
VISUALSTYLE
  5
2F
102
{ACAD_REACTORS
330
2A
102
}
330
2A
100
AcDbVisualStyle
  2
2dWireframe
 70
     4
 71
     0
 72
     2
 73
     0
 90
        0
 40
-0.6
 41
-30.0
 62
     5
 63
     7
 74
     1
 91
        4
 64
     7
 65
   257
 75
     1
175
     1
 42
1.0
 92
        0
 66
   257
 43
1.0
 76
     1
 77
     6
 78
     2
 67
     7
 79
     5
170
     0
171
     0
290
     0
174
     0
 93
        1
 44
0.0
173
     0
291
     0
 45
0.0
1001
ACAD
1000
AcDbSavedByObjectVersion
1070
     0
  0
VISUALSTYLE
  5
31
102
{ACAD_REACTORS
330
2A
102
}
330
2A
100
AcDbVisualStyle
  2
3D Hidden
 70
     6
 71
     1
 72
     2
 73
     2
 90
        0
 40
-0.6
 41
-30.0
 62
     5
 63
     7
 74
     2
 91
        2
 64
     7
 65
   257
 75
     2
175
     1
 42
40.0
 92
        0
 66
   257
 43
1.0
 76
     1
 77
     6
 78
     2
 67
     7
 79
     3
170
     0
171
     0
290
     0
174
     0
 93
        1
 44
0.0
173
     0
291
     0
 45
0.0
1001
ACAD
1000
AcDbSavedByObjectVersion
1070
     0
  0
VISUALSTYLE
  5
30
102
{ACAD_REACTORS
330
2A
102
}
330
2A
100
AcDbVisualStyle
  2
3dWireframe
 70
     5
 71
     0
 72
     2
 73
     0
 90
        0
 40
-0.6
 41
-30.0
 62
     5
 63
     7
 74
     1
 91
        4
 64
     7
 65
   257
 75
     1
175
     1
 42
1.0
 92
        0
 66
   257
 43
1.0
 76
     1
 77
     6
 78
     2
 67
     7
 79
     5
170
     0
171
     0
290
     0
174
     0
 93
        1
 44
0.0
173
     0
291
     0
 45
0.0
1001
ACAD
1000
AcDbSavedByObjectVersion
1070
     0
  0
VISUALSTYLE
  5
32
102
{ACAD_REACTORS
330
2A
102
}
330
2A
100
AcDbVisualStyle
  2
Basic
 70
     7
 71
     1
 72
     0
 73
     1
 90
        0
 40
-0.6
 41
-30.0
 62
     5
 63
     7
 74
     0
 91
        4
 64
     7
 65
   257
 75
     1
175
     1
 42
1.0
 92
        8
 66
     7
 43
1.0
 76
     1
 77
     6
 78
     2
 67
     7
 79
     5
170
     0
171
     0
290
     0
174
     0
 93
        1
 44
0.0
173
     0
291
     1
 45
0.0
1001
ACAD
1000
AcDbSavedByObjectVersion
1070
     0
  0
VISUALSTYLE
  5
36
102
{ACAD_REACTORS
330
2A
102
}
330
2A
100
AcDbVisualStyle
  2
Brighten
 70
    12
 71
     2
 72
     2
 73
     0
 90
        0
 40
-0.6
 41
-30.0
 62
     5
 63
     7
 74
     1
 91
        4
 64
     7
 65
   257
 75
     1
175
     1
 42
1.0
 92
        8
 66
     7
 43
1.0
 76
     1
 77
     6
 78
     2
 67
     7
 79
     5
170
     0
171
     0
290
     0
174
     0
 93
        1
 44
50.0
173
     0
291
     1
 45
0.0
1001
ACAD
1000
AcDbSavedByObjectVersion
1070
     0
  0
VISUALSTYLE
  5
3A
102
{ACAD_REACTORS
330
2A
102
}
330
2A
100
AcDbVisualStyle
  2
ColorChange
 70
    16
 71
     2
 72
     2
 73
     3
 90
        0
 40
-0.6
 41
-30.0
 62
     5
 63
     8
 74
     1
 91
        4
 64
     7
 65
   257
 75
     1
175
     1
 42
1.0
 92
        8
 66
     8
 43
1.0
 76
     1
 77
     6
 78
     2
 67
     7
 79
     5
170
     0
171
     0
290
     0
174
     0
 93
        1
 44
0.0
173
     0
291
     1
 45
0.0
1001
ACAD
1000
AcDbSavedByObjectVersion
1070
     0
  0
VISUALSTYLE
  5
34
102
{ACAD_REACTORS
330
2A
102
}
330
2A
100
AcDbVisualStyle
  2
Conceptual
 70
     9
 71
     3
 72
     2
 73
     0
 90
        0
 40
-0.6
 41
-30.0
 62
     5
 63
     7
 74
     2
 91
        2
 64
     7
 65
   257
 75
     1
175
     1
 42
40.0
 92
        8
 66
     7
 43
1.0
 76
     1
 77
     6
 78
     2
 67
     7
 79
     3
170
     0
171
     0
290
     0
174
     0
 93
        1
 44
0.0
173
     0
291
     0
 45
0.0
1001
ACAD
1000
AcDbSavedByObjectVersion
1070
     0
  0
VISUALSTYLE
  5
35
102
{ACAD_REACTORS
330
2A
102
}
330
2A
100
AcDbVisualStyle
  2
Dim
 70
    11
 71
     2
 72
     2
 73
     0
 90
        0
 40
-0.6
 41
-30.0
 62
     5
 63
     7
 74
     1
 91
        4
 64
     7
 65
   257
 75
     1
175
     1
 42
1.0
 92
        8
 66
     7
 43
1.0
 76
     1
 77
     6
 78
     2
 67
     7
 79
     5
170
     0
171
     0
290
     0
174
     0
 93
        1
 44
-50.0
173
     0
291
     1
 45
0.0
1001
ACAD
1000
AcDbSavedByObjectVersion
1070
     0
  0
VISUALSTYLE
  5
39
102
{ACAD_REACTORS
330
2A
102
}
330
2A
100
AcDbVisualStyle
  2
Facepattern
 70
    15
 71
     2
 72
     2
 73
     0
 90
        0
 40
-0.6
 41
-30.0
 62
     5
 63
     7
 74
     1
 91
        4
 64
     7
 65
   257
 75
     1
175
     1
 42
1.0
 92
        8
 66
     7
 43
1.0
 76
     1
 77
     6
 78
     2
 67
     7
 79
     5
170
     0
171
     0
290
     0
174
     0
 93
        1
 44
0.0
173
     0
291
     1
 45
0.0
1001
ACAD
1000
AcDbSavedByObjectVersion
1070
     0
  0
VISUALSTYLE
  5
2B
102
{ACAD_REACTORS
330
2A
102
}
330
2A
100
AcDbVisualStyle
  2
Flat
 70
     0
 71
     2
 72
     1
 73
     1
 90
        2
 40
-0.6
 41
30.0
 62
     5
 63
     7
 74
     0
 91
        4
 64
     7
 65
   257
 75
     1
175
     1
 42
1.0
 92
        8
 66
     7
 43
1.0
 76
     1
 77
     6
 78
     2
 67
     7
 79
     5
170
     0
171
     0
290
     0
174
     0
 93
       13
 44
0.0
173
     0
291
     1
 45
0.0
1001
ACAD
1000
AcDbSavedByObjectVersion
1070
     0
  0
VISUALSTYLE
  5
2C
102
{ACAD_REACTORS
330
2A
102
}
330
2A
100
AcDbVisualStyle
  2
FlatWithEdges
 70
     1
 71
     2
 72
     1
 73
     1
 90
        2
 40
-0.6
 41
30.0
 62
     5
 63
     7
 74
     1
 91
        4
 64
     7
 65
   257
 75
     1
175
     1
 42
1.0
 92
        0
 66
   257
 43
1.0
 76
     1
 77
     6
 78
     2
 67
     7
 79
     5
170
     0
171
     0
290
     0
174
     0
 93
       13
 44
0.0
173
     0
291
     1
 45
0.0
1001
ACAD
1000
AcDbSavedByObjectVersion
1070
     0
  0
VISUALSTYLE
  5
2D
102
{ACAD_REACTORS
330
2A
102
}
330
2A
100
AcDbVisualStyle
  2
Gouraud
 70
     2
 71
     2
 72
     2
 73
     1
 90
        2
 40
-0.6
 41
30.0
 62
     5
 63
     7
 74
     0
 91
        4
 64
     7
 65
   257
 75
     1
175
     1
 42
1.0
 92
        0
 66
     7
 43
1.0
 76
     1
 77
     6
 78
     2
 67
     7
 79
     5
170
     0
171
     0
290
     0
174
     0
 93
       13
 44
0.0
173
     0
291
     1
 45
0.0
1001
ACAD
1000
AcDbSavedByObjectVersion
1070
     0
  0
VISUALSTYLE
  5
2E
102
{ACAD_REACTORS
330
2A
102
}
330
2A
100
AcDbVisualStyle
  2
GouraudWithEdges
 70
     3
 71
     2
 72
     2
 73
     1
 90
        2
 40
-0.6
 41
30.0
 62
     5
 63
     7
 74
     1
 91
        4
 64
     7
 65
   257
 75
     1
175
     1
 42
1.0
 92
        0
 66
   257
 43
1.0
 76
     1
 77
     6
 78
     2
 67
     7
 79
     5
170
     0
171
     0
290
     0
174
     0
 93
       13
 44
0.0
173
     0
291
     1
 45
0.0
1001
ACAD
1000
AcDbSavedByObjectVersion
1070
     0
  0
VISUALSTYLE
  5
38
102
{ACAD_REACTORS
330
2A
102
}
330
2A
100
AcDbVisualStyle
  2
Linepattern
 70
    14
 71
     2
 72
     2
 73
     0
 90
        0
 40
-0.6
 41
-30.0
 62
     5
 63
     7
 74
     1
 91
        4
 64
     7
 65
   257
 75
     7
175
     7
 42
1.0
 92
        8
 66
     7
 43
1.0
 76
     1
 77
     6
 78
     2
 67
     7
 79
     5
170
     0
171
     0
290
     0
174
     0
 93
        1
 44
0.0
173
     0
291
     1
 45
0.0
1001
ACAD
1000
AcDbSavedByObjectVersion
1070
     0
  0
VISUALSTYLE
  5
33
102
{ACAD_REACTORS
330
2A
102
}
330
2A
100
AcDbVisualStyle
  2
Realistic
 70
     8
 71
     2
 72
     2
 73
     0
 90
        0
 40
-0.6
 41
-30.0
 62
     5
 63
     7
 74
     1
 91
        0
 64
     7
 65
   257
 75
     1
175
     1
 42
1.0
 92
        8
 66
     8
 43
1.0
 76
     1
 77
     6
 78
     2
 67
     7
 79
     5
170
     0
171
     0
290
     0
174
     0
 93
       13
 44
0.0
173
     0
291
     0
 45
0.0
1001
ACAD
1000
AcDbSavedByObjectVersion
1070
     0
  0
VISUALSTYLE
  5
37
102
{ACAD_REACTORS
330
2A
102
}
330
2A
100
AcDbVisualStyle
  2
Thicken
 70
    13
 71
     2
 72
     2
 73
     0
 90
        0
 40
-0.6
 41
-30.0
 62
     5
 63
     7
 74
     1
 91
        4
 64
     7
 65
   257
 75
     1
175
     1
 42
1.0
 92
       12
 66
     7
 43
1.0
 76
     1
 77
     6
 78
     2
 67
     7
 79
     5
170
     0
171
     0
290
     0
174
     0
 93
        1
 44
0.0
173
     0
291
     1
 45
0.0
1001
ACAD
1000
AcDbSavedByObjectVersion
1070
     0
  0
DICTIONARYVAR
  5
76D
102
{ACAD_REACTORS
330
769
102
}
330
769
100
DictionaryVariables
280
     0
  1
80.000000
  0
DICTIONARYVAR
  5
76C
102
{ACAD_REACTORS
330
769
102
}
330
769
100
DictionaryVariables
280
     0
  1
5.000000
  0
ENDSEC
  0
EOF
