  0
SECTION
  2
HEADER
  9
$ACADVER
  1
AC1009
  9
$DWGCODEPAGE
  3
ansi_932
  9
$INSBASE
 10
0.0
 20
0.0
 30
0.0
  9
$EXTMIN
 10
88.428467
 20
38.527893
 30
0.0
  9
$EXTMAX
 10
2123.85498
 20
689.709045
 30
0.0
  9
$LIMMIN
 10
0.0
 20
0.0
  9
$LIMMAX
 10
12.0
 20
9.0
  9
$ORTHOMODE
 70
     0
  9
$REGENMODE
 70
     1
  9
$FILLMODE
 70
     1
  9
$QTEXTMODE
 70
     0
  9
$MIRRTEXT
 70
     1
  9
$DRAGMODE
 70
     2
  9
$LTSCALE
 40
21.370536
  9
$OSMODE
 70
    37
  9
$ATTMODE
 70
     1
  9
$TEXTSIZE
 40
3.2
  9
$TRACEWID
 40
1.0
  9
$TEXTSTYLE
  7
STANDARD
  9
$CLAYER
  8
0
  9
$CELTYPE
  6
BYLAYER
  9
$CECOLOR
 62
   256
  9
$DIMSCALE
 40
1.0
  9
$DIMASZ
 40
2.5
  9
$DIMEXO
 40
0.625
  9
$DIMDLI
 40
3.75
  9
$DIMRND
 40
0.0
  9
$DIMDLE
 40
0.0
  9
$DIMEXE
 40
1.25
  9
$DIMTP
 40
0.0
  9
$DIMTM
 40
0.0
  9
$DIMTXT
 40
2.5
  9
$DIMCEN
 40
0.09
  9
$DIMTSZ
 40
0.0
  9
$DIMTOL
 70
     0
  9
$DIMLIM
 70
     0
  9
$DIMTIH
 70
     0
  9
$DIMTOH
 70
     0
  9
$DIMSE1
 70
     0
  9
$DIMSE2
 70
     0
  9
$DIMTAD
 70
     0
  9
$DIMZIN
 70
     8
  9
$DIMBLK
  1

  9
$DIMASO
 70
     1
  9
$DIMSHO
 70
     0
  9
$DIMPOST
  1

  9
$DIMAPOST
  1

  9
$DIMALT
 70
     0
  9
$DIMALTD
 70
     3
  9
$DIMALTF
 40
0.03937
  9
$DIMLFAC
 40
1.0
  9
$DIMTOFL
 70
     1
  9
$DIMTVP
 40
0.0
  9
$DIMTIX
 70
     0
  9
$DIMSOXD
 70
     0
  9
$DIMSAH
 70
     0
  9
$DIMBLK1
  1

  9
$DIMBLK2
  1

  9
$DIMSTYLE
  2
ISO-25
  9
$DIMCLRD
 70
     0
  9
$DIMCLRE
 70
     0
  9
$DIMCLRT
 70
     0
  9
$DIMTFAC
 40
1.0
  9
$DIMGAP
 40
0.625
  9
$LUNITS
 70
     2
  9
$LUPREC
 70
     4
  9
$SKETCHINC
 40
1.0
  9
$FILLETRAD
 40
0.0
  9
$AUNITS
 70
     0
  9
$AUPREC
 70
     0
  9
$MENU
  1
acad
  9
$ELEVATION
 40
0.0
  9
$PELEVATION
 40
0.0
  9
$THICKNESS
 40
0.0
  9
$LIMCHECK
 70
     0
  9
$CHAMFERA
 40
10.0
  9
$CHAMFERB
 40
10.0
  9
$SKPOLY
 70
     0
  9
$TDCREATE
 40
2457595.4921925
  9
$TDUPDATE
 40
2457595.492193403
  9
$TDINDWG
 40
0.0000000116
  9
$TDUSRTIMER
 40
0.0000000116
  9
$USRTIMER
 70
     1
  9
$ANGBASE
 50
0.0
  9
$ANGDIR
 70
     0
  9
$PDMODE
 70
     0
  9
$PDSIZE
 40
0.0
  9
$PLINEWID
 40
0.0
  9
$COORDS
 70
     1
  9
$SPLFRAME
 70
     0
  9
$SPLINETYPE
 70
     6
  9
$SPLINESEGS
 70
     8
  9
$ATTDIA
 70
     0
  9
$ATTREQ
 70
     1
  9
$HANDLING
 70
     1
  9
$HANDSEED
  5
8BA
  9
$SURFTAB1
 70
     6
  9
$SURFTAB2
 70
     6
  9
$SURFTYPE
 70
     6
  9
$SURFU
 70
     6
  9
$SURFV
 70
     6
  9
$UCSNAME
  2

  9
$UCSORG
 10
0.0
 20
0.0
 30
0.0
  9
$UCSXDIR
 10
1.0
 20
0.0
 30
0.0
  9
$UCSYDIR
 10
0.0
 20
1.0
 30
0.0
  9
$PUCSNAME
  2

  9
$PUCSORG
 10
0.0
 20
0.0
 30
0.0
  9
$PUCSXDIR
 10
1.0
 20
0.0
 30
0.0
  9
$PUCSYDIR
 10
0.0
 20
1.0
 30
0.0
  9
$USERI1
 70
     0
  9
$USERI2
 70
     0
  9
$USERI3
 70
     0
  9
$USERI4
 70
     0
  9
$USERI5
 70
     0
  9
$USERR1
 40
0.0
  9
$USERR2
 40
0.0
  9
$USERR3
 40
0.0
  9
$USERR4
 40
0.0
  9
$USERR5
 40
0.0
  9
$WORLDVIEW
 70
     1
  9
$SHADEDGE
 70
     3
  9
$SHADEDIF
 70
    70
  9
$TILEMODE
 70
     1
  9
$MAXACTVP
 70
    64
  9
$PLIMCHECK
 70
     0
  9
$PEXTMIN
 10
1.000000E+20
 20
1.000000E+20
 30
0.0
  9
$PEXTMAX
 10
-1.000000E+20
 20
-1.000000E+20
 30
0.0
  9
$PLIMMIN
 10
0.0
 20
0.0
  9
$PLIMMAX
 10
12.0
 20
9.0
  9
$UNITMODE
 70
     0
  9
$VISRETAIN
 70
     1
  9
$PLINEGEN
 70
     0
  9
$PSLTSCALE
 70
     1
  0
ENDSEC
  0
SECTION
  2
TABLES
  0
TABLE
  2
VPORT
 70
     1
  0
VPORT
  2
*ACTIVE
 70
     0
 10
0.0
 20
0.0
 11
1.0
 21
1.0
 12
1106.141724
 22
364.118469
 13
0.0
 23
0.0
 14
1.0
 24
1.0
 15
0.0
 25
0.0
 16
0.0
 26
0.0
 36
1.0
 17
0.0
 27
0.0
 37
0.0
 40
1215.511952
 41
1.691288
 42
50.0
 43
0.0
 44
0.0
 50
0.0
 51
0.0
 71
     0
 72
  1000
 73
     1
 74
     3
 75
     0
 76
     0
 77
     0
 78
     0
  0
ENDTAB
  0
TABLE
  2
LTYPE
 70
     5
  0
LTYPE
  2
CONTINUOUS
 70
     0
  3
Solid line
 72
    65
 73
     0
 40
0.0
  0
LTYPE
  2
DASHED
 70
     0
  3
DASHED
 72
    83
 73
     2
 40
0.75
 49
0.5
 49
-0.25
  0
LTYPE
  2
HIDDEN
 70
     0
  3
HIDDEN
 72
    83
 73
     2
 40
0.375
 49
0.25
 49
-0.125
  0
LTYPE
  2
CENTER
 70
     0
  3
CENTER
 72
    83
 73
     4
 40
2.0
 49
1.25
 49
-0.25
 49
0.25
 49
-0.25
  0
LTYPE
  2
PHANTOM
 70
     0
  3
PHANTOM
 72
    83
 73
     6
 40
2.5
 49
1.25
 49
-0.25
 49
0.25
 49
-0.25
 49
0.25
 49
-0.25
  0
ENDTAB
  0
TABLE
  2
LAYER
 70
     4
  0
LAYER
  2
0
 70
     0
 62
     7
  6
CONTINUOUS
  0
LAYER
  2
001
 70
     0
 62
     7
  6
CONTINUOUS
  0
LAYER
  2
002
 70
     0
 62
     7
  6
CONTINUOUS
  0
LAYER
  2
003
 70
     0
 62
     7
  6
CONTINUOUS
  0
ENDTAB
  0
TABLE
  2
STYLE
 70
     2
  0
STYLE
  2
STANDARD
 70
     0
 40
0.0
 41
1.0
 50
0.0
 71
     0
 42
0.2
  3
TXT
  4
BIGFONT
  0
STYLE
  2
TATEGAKI
 70
     4
 40
1.0
 41
1.0
 50
0.0
 71
     0
 42
0.2
  3
TXT
  4
BIGFONT
  0
ENDTAB
  0
TABLE
  2
VIEW
 70
     0
  0
ENDTAB
  0
TABLE
  2
UCS
 70
     0
  0
ENDTAB
  0
TABLE
  2
APPID
 70
     1
  0
APPID
  2
ACAD
 70
     0
  0
ENDTAB
  0
TABLE
  2
DIMSTYLE
 70
     2
  0
DIMSTYLE
  2
ISO-25
 70
     0
  3

  4

  5

  6

  7

 40
1.0
 41
2.5
 42
0.625
 43
3.75
 44
1.25
 45
0.0
 46
0.0
 47
0.0
 48
0.0
140
2.5
141
2.5
142
0.0
143
0.03937
144
1.0
145
0.0
146
1.0
147
0.625
 71
     0
 72
     0
 73
     0
 74
     0
 75
     0
 76
     0
 77
     1
 78
     8
170
     0
171
     3
172
     1
173
     0
174
     0
175
     0
176
     0
177
     0
178
     0
  0
DIMSTYLE
  2
STANDARD
 70
     0
  3

  4

  5

  6

  7

 40
1.0
 41
3.0
 42
0.5
 43
0.38
 44
0.7
 45
0.0
 46
0.0
 47
0.0
 48
0.0
140
4.0
141
0.09
142
0.0
143
25.4
144
1.0
145
0.0
146
0.65
147
1.0
 71
     0
 72
     0
 73
     0
 74
     0
 75
     0
 76
     0
 77
     1
 78
     8
170
     0
171
     2
172
     1
173
     0
174
     0
175
     0
176
     0
177
     0
178
     0
  0
ENDTAB
  0
ENDSEC
  0
SECTION
  2
BLOCKS
  0
BLOCK
  8
0
  2
$MODEL_SPACE
 70
     0
 10
0.0
 20
0.0
 30
0.0
  3
$MODEL_SPACE
  1

  0
ENDBLK
  5
21
  8
0
  0
BLOCK
 67
     1
  8
0
  2
$PAPER_SPACE
 70
     0
 10
0.0
 20
0.0
 30
0.0
  3
$PAPER_SPACE
  1

  0
ENDBLK
  5
1D
 67
     1
  8
0
  0
BLOCK
  8
0
  2
JZB-1
 70
     0
 10
0.0
 20
0.0
 30
0.0
  3
JZB-1
  1

  0
CIRCLE
  5
4B
  8
002
 62
     3
 10
294.237499
 20
537.617386
 30
0.0
 40
3.5
  0
ENDBLK
  5
4A
  8
0
  0
BLOCK
  8
0
  2
JZB-2
 70
     0
 10
0.0
 20
0.0
 30
0.0
  3
JZB-2
  1

  0
CIRCLE
  5
4F
  8
002
 62
     3
 10
389.237499
 20
537.617386
 30
0.0
 40
3.5
  0
ENDBLK
  5
4E
  8
0
  0
BLOCK
  8
0
  2
JZB-3
 70
     0
 10
0.0
 20
0.0
 30
0.0
  3
JZB-3
  1

  0
CIRCLE
  5
53
  8
002
 62
     3
 10
389.237499
 20
607.617386
 30
0.0
 40
3.5
  0
ENDBLK
  5
52
  8
0
  0
BLOCK
  8
0
  2
JZB-4
 70
     0
 10
0.0
 20
0.0
 30
0.0
  3
JZB-4
  1

  0
CIRCLE
  5
57
  8
002
 62
     3
 10
294.237499
 20
607.617386
 30
0.0
 40
3.5
  0
ENDBLK
  5
56
  8
0
  0
BLOCK
  8
0
  2
JZB-5
 70
     0
 10
0.0
 20
0.0
 30
0.0
  3
JZB-5
  1

  0
LINE
  5
5B
  8
002
 62
     3
 10
376.237499
 20
567.117386
 30
0.0
 11
380.237499
 21
578.117386
 31
0.0
  0
LINE
  5
5C
  8
002
 62
     3
 10
379.570832
 20
577.45072
 30
0.0
 11
375.570832
 21
570.784053
 31
0.0
  0
LINE
  5
5D
  8
002
 62
     3
 10
380.237499
 20
578.117386
 30
0.0
 11
372.904166
 21
578.117386
 31
0.0
  0
LINE
  5
5E
  8
002
 62
     3
 10
376.237499
 20
577.45072
 30
0.0
 11
379.570832
 21
577.45072
 31
0.0
  0
LINE
  5
5F
  8
002
 62
     3
 10
375.570832
 20
572.784053
 30
0.0
 11
376.237499
 21
577.45072
 31
0.0
  0
LINE
  5
60
  8
002
 62
     3
 10
374.237499
 20
572.784053
 30
0.0
 11
375.570832
 21
572.784053
 31
0.0
  0
LINE
  5
61
  8
002
 62
     3
 10
372.904166
 20
578.117386
 30
0.0
 11
374.237499
 21
572.784053
 31
0.0
  0
LINE
  5
62
  8
002
 62
     3
 10
372.904166
 20
570.784053
 30
0.0
 11
368.237499
 21
578.117386
 31
0.0
  0
LINE
  5
63
  8
002
 62
     3
 10
375.570832
 20
570.784053
 30
0.0
 11
372.904166
 21
570.784053
 31
0.0
  0
LINE
  5
64
  8
002
 62
     3
 10
368.237499
 20
578.117386
 30
0.0
 11
372.237499
 21
567.117386
 31
0.0
  0
LINE
  5
65
  8
002
 62
     3
 10
372.237499
 20
567.117386
 30
0.0
 11
376.237499
 21
567.117386
 31
0.0
  0
ENDBLK
  5
5A
  8
0
  0
BLOCK
  8
0
  2
JZB-6
 70
     0
 10
0.0
 20
0.0
 30
0.0
  3
JZB-6
  1

  0
CIRCLE
  5
69
  8
002
 62
     3
 10
1483.427012
 20
537.617386
 30
0.0
 40
3.5
  0
ENDBLK
  5
68
  8
0
  0
BLOCK
  8
0
  2
JZB-7
 70
     0
 10
0.0
 20
0.0
 30
0.0
  3
JZB-7
  1

  0
CIRCLE
  5
6D
  8
002
 62
     3
 10
1578.427012
 20
537.617386
 30
0.0
 40
3.5
  0
ENDBLK
  5
6C
  8
0
  0
BLOCK
  8
0
  2
JZB-8
 70
     0
 10
0.0
 20
0.0
 30
0.0
  3
JZB-8
  1

  0
CIRCLE
  5
71
  8
002
 62
     3
 10
1578.427012
 20
607.617386
 30
0.0
 40
3.5
  0
ENDBLK
  5
70
  8
0
  0
BLOCK
  8
0
  2
JZB-9
 70
     0
 10
0.0
 20
0.0
 30
0.0
  3
JZB-9
  1

  0
CIRCLE
  5
75
  8
002
 62
     3
 10
1483.427012
 20
607.617386
 30
0.0
 40
3.5
  0
ENDBLK
  5
74
  8
0
  0
BLOCK
  8
0
  2
JZB-10
 70
     0
 10
0.0
 20
0.0
 30
0.0
  3
JZB-10
  1

  0
LINE
  5
79
  8
002
 62
     3
 10
1565.427012
 20
567.117386
 30
0.0
 11
1569.427012
 21
578.117386
 31
0.0
  0
LINE
  5
7A
  8
002
 62
     3
 10
1568.760345
 20
577.45072
 30
0.0
 11
1564.760345
 21
570.784053
 31
0.0
  0
LINE
  5
7B
  8
002
 62
     3
 10
1569.427012
 20
578.117386
 30
0.0
 11
1562.093678
 21
578.117386
 31
0.0
  0
LINE
  5
7C
  8
002
 62
     3
 10
1565.427012
 20
577.45072
 30
0.0
 11
1568.760345
 21
577.45072
 31
0.0
  0
LINE
  5
7D
  8
002
 62
     3
 10
1564.760345
 20
572.784053
 30
0.0
 11
1565.427012
 21
577.45072
 31
0.0
  0
LINE
  5
7E
  8
002
 62
     3
 10
1563.427012
 20
572.784053
 30
0.0
 11
1564.760345
 21
572.784053
 31
0.0
  0
LINE
  5
7F
  8
002
 62
     3
 10
1562.093678
 20
578.117386
 30
0.0
 11
1563.427012
 21
572.784053
 31
0.0
  0
LINE
  5
80
  8
002
 62
     3
 10
1562.093678
 20
570.784053
 30
0.0
 11
1557.427012
 21
578.117386
 31
0.0
  0
LINE
  5
81
  8
002
 62
     3
 10
1564.760345
 20
570.784053
 30
0.0
 11
1562.093678
 21
570.784053
 31
0.0
  0
LINE
  5
82
  8
002
 62
     3
 10
1557.427012
 20
578.117386
 30
0.0
 11
1561.427012
 21
567.117386
 31
0.0
  0
LINE
  5
83
  8
002
 62
     3
 10
1561.427012
 20
567.117386
 30
0.0
 11
1565.427012
 21
567.117386
 31
0.0
  0
ENDBLK
  5
78
  8
0
  0
ENDSEC
  0
SECTION
  2
ENTITIES
  0
INSERT
  5
84
  8
002
  6
BYBLOCK
 62
     0
  2
JZB-1
 10
0.0
 20
0.0
 30
0.0
  0
INSERT
  5
85
  8
002
  6
BYBLOCK
 62
     0
  2
JZB-2
 10
0.0
 20
0.0
 30
0.0
  0
INSERT
  5
86
  8
002
  6
BYBLOCK
 62
     0
  2
JZB-3
 10
0.0
 20
0.0
 30
0.0
  0
INSERT
  5
87
  8
002
  6
BYBLOCK
 62
     0
  2
JZB-4
 10
0.0
 20
0.0
 30
0.0
  0
INSERT
  5
88
  8
002
  6
BYBLOCK
 62
     0
  2
JZB-5
 10
0.0
 20
0.0
 30
0.0
  0
INSERT
  5
89
  8
002
  6
BYBLOCK
 62
     0
  2
JZB-6
 10
0.0
 20
0.0
 30
0.0
  0
INSERT
  5
8A
  8
002
  6
BYBLOCK
 62
     0
  2
JZB-7
 10
0.0
 20
0.0
 30
0.0
  0
INSERT
  5
8B
  8
002
  6
BYBLOCK
 62
     0
  2
JZB-8
 10
0.0
 20
0.0
 30
0.0
  0
INSERT
  5
8C
  8
002
  6
BYBLOCK
 62
     0
  2
JZB-9
 10
0.0
 20
0.0
 30
0.0
  0
INSERT
  5
8D
  8
002
  6
BYBLOCK
 62
     0
  2
JZB-10
 10
0.0
 20
0.0
 30
0.0
  0
LINE
  5
8E
  8
002
 62
     3
 10
1001.250174
 20
509.322784
 30
0.0
 11
1021.250174
 21
509.322784
 31
0.0
  0
LINE
  5
8F
  8
002
 62
     3
 10
1021.250174
 20
492.993115
 30
0.0
 11
1021.250174
 21
519.322784
 31
0.0
  0
LINE
  5
90
  8
002
 62
     3
 10
1001.250174
 20
519.322784
 30
0.0
 11
1001.250174
 21
492.993115
 31
0.0
  0
LINE
  5
91
  8
002
 62
    40
 10
1003.250174
 20
492.993115
 30
0.0
 11
1003.250174
 21
509.322784
 31
0.0
  0
LINE
  5
92
  8
002
 62
    40
 10
1019.250174
 20
492.993115
 30
0.0
 11
1019.250174
 21
509.322784
 31
0.0
  0
LINE
  5
93
  8
002
  6
CENTER
 62
    40
 10
1011.250174
 20
589.267882
 30
0.0
 11
1011.250174
 21
492.993115
 31
0.0
  0
LINE
  5
94
  8
002
 62
     3
 10
363.737499
 20
443.411886
 30
0.0
 11
363.487499
 21
443.661886
 31
0.0
  0
LINE
  5
95
  8
002
 62
     3
 10
363.487499
 20
443.661886
 30
0.0
 11
358.987499
 21
443.661886
 31
0.0
  0
LINE
  5
96
  8
002
 62
     3
 10
358.987499
 20
443.661886
 30
0.0
 11
358.737499
 21
443.411886
 31
0.0
  0
LINE
  5
97
  8
002
 62
     3
 10
358.737499
 20
443.411886
 30
0.0
 11
358.737499
 21
438.911886
 31
0.0
  0
LINE
  5
98
  8
002
 62
     3
 10
358.737499
 20
438.911886
 30
0.0
 11
358.987499
 21
438.661886
 31
0.0
  0
LINE
  5
99
  8
002
 62
     3
 10
358.987499
 20
438.661886
 30
0.0
 11
363.487499
 21
438.661886
 31
0.0
  0
LINE
  5
9A
  8
002
 62
     3
 10
363.487499
 20
438.661886
 30
0.0
 11
363.737499
 21
438.911886
 31
0.0
  0
LINE
  5
9B
  8
002
 62
     3
 10
363.737499
 20
438.911886
 30
0.0
 11
363.737499
 21
443.411886
 31
0.0
  0
ARC
  5
9C
  8
002
 62
     3
 10
363.537499
 20
438.861886
 30
0.0
 40
0.1999999999999318
 50
270.0
 51
0.0
  0
ARC
  5
9D
  8
002
 62
     3
 10
358.937499
 20
438.861886
 30
0.0
 40
0.1999999999999318
 50
180.0
 51
270.0
  0
ARC
  5
9E
  8
002
 62
     3
 10
361.237499
 20
434.161886
 30
0.0
 40
7.500030347271937
 50
109.471139
 51
70.528861
  0
LINE
  5
9F
  8
002
  6
CENTER
 62
    40
 10
361.237499
 20
424.038586
 30
0.0
 11
361.237499
 21
445.973586
 31
0.0
  0
LINE
  5
A0
  8
002
  6
CENTER
 62
    40
 10
350.438599
 20
434.161886
 30
0.0
 11
372.971899
 21
434.161886
 31
0.0
  0
ARC
  5
A1
  8
002
 62
     3
 10
1011.250174
 20
657.904066
 30
0.0
 40
13.00005157259
 50
302.204588
 51
57.795412
  0
ARC
  5
A2
  8
002
 62
     3
 10
1011.250174
 20
657.904066
 30
0.0
 40
12.99999827846152
 50
122.204215
 51
237.795785
  0
LINE
  5
A3
  8
002
 62
     3
 10
999.631274
 20
646.904066
 30
0.0
 11
1022.869174
 21
646.904066
 31
0.0
  0
CIRCLE
  5
A4
  8
002
 62
     3
 10
1011.250174
 20
657.904066
 30
0.0
 40
16.0
  0
LINE
  5
A5
  8
002
 62
     3
 10
1022.869174
 20
668.904066
 30
0.0
 11
999.631274
 21
668.904066
 31
0.0
  0
LINE
  5
A6
  8
002
  6
CENTER
 62
    40
 10
988.406974
 20
657.904066
 30
0.0
 11
1034.114874
 21
657.904066
 31
0.0
  0
LINE
  5
A7
  8
002
  6
CENTER
 62
    40
 10
1011.250174
 20
678.780066
 30
0.0
 11
1011.250174
 21
637.465066
 31
0.0
  0
LINE
  5
A8
  8
002
 62
     3
 10
1024.250174
 20
579.322784
 30
0.0
 11
998.250174
 21
579.322784
 31
0.0
  0
LINE
  5
A9
  8
002
 62
     3
 10
998.250174
 20
579.322784
 30
0.0
 11
995.250174
 21
576.322784
 31
0.0
  0
LINE
  5
AA
  8
002
 62
     3
 10
995.250174
 20
576.322784
 30
0.0
 11
995.250174
 21
521.322784
 31
0.0
  0
LINE
  5
AB
  8
002
 62
     3
 10
1003.250174
 20
546.322784
 30
0.0
 11
1019.250174
 21
546.322784
 31
0.0
  0
CIRCLE
  5
AC
  8
002
 62
     3
 10
1011.250174
 20
564.322784
 30
0.0
 40
7.5
  0
LINE
  5
AD
  8
002
 62
     3
 10
1022.869174
 20
549.322784
 30
0.0
 11
999.631274
 21
549.322784
 31
0.0
  0
ARC
  5
AE
  8
002
 62
     3
 10
1004.257174
 20
551.220284
 30
0.0
 40
4.999955524802121
 50
202.30297
 51
258.381056
  0
LINE
  5
AF
  8
002
 62
     3
 10
999.631274
 20
549.322784
 30
0.0
 11
999.631274
 21
576.322784
 31
0.0
  0
LINE
  5
B0
  8
002
 62
     3
 10
999.631274
 20
576.322784
 30
0.0
 11
995.250174
 21
576.322784
 31
0.0
  0
LINE
  5
B1
  8
002
 62
     3
 10
999.631274
 20
576.322784
 30
0.0
 11
1003.504274
 21
579.322784
 31
0.0
  0
LINE
  5
B2
  8
002
  6
CENTER
 62
    40
 10
998.420574
 20
564.322784
 30
0.0
 11
1023.566474
 21
564.322784
 31
0.0
  0
LINE
  5
B3
  8
002
 62
     3
 10
1022.869174
 20
576.322784
 30
0.0
 11
1018.996174
 21
579.322784
 31
0.0
  0
LINE
  5
B4
  8
002
 62
     3
 10
1022.869174
 20
576.322784
 30
0.0
 11
1027.250174
 21
576.322784
 31
0.0
  0
LINE
  5
B5
  8
002
 62
     3
 10
1022.869174
 20
549.322784
 30
0.0
 11
1022.869174
 21
576.322784
 31
0.0
  0
LINE
  5
B6
  8
002
 62
     3
 10
1027.250174
 20
521.322784
 30
0.0
 11
1027.250174
 21
576.322784
 31
0.0
  0
LINE
  5
B7
  8
002
 62
     3
 10
1027.250174
 20
576.322784
 30
0.0
 11
1024.250174
 21
579.322784
 31
0.0
  0
ARC
  5
B8
  8
002
 62
     3
 10
1018.243274
 20
551.220284
 30
0.0
 40
4.999945705705185
 50
281.617822
 51
337.69703
  0
LINE
  5
B9
  8
002
 62
     3
 10
1027.250174
 20
521.322784
 30
0.0
 11
995.250174
 21
521.322784
 31
0.0
  0
LINE
  5
BA
  8
002
 62
     3
 10
995.250174
 20
521.322784
 30
0.0
 11
997.250174
 21
519.322784
 31
0.0
  0
LINE
  5
BB
  8
002
 62
     3
 10
997.250174
 20
519.322784
 30
0.0
 11
1025.250174
 21
519.322784
 31
0.0
  0
LINE
  5
BC
  8
002
 62
     3
 10
1025.250174
 20
519.322784
 30
0.0
 11
1027.250174
 21
521.322784
 31
0.0
  0
LINE
  5
BD
  8
002
  6
HIDDEN
 62
    40
 10
1003.750174
 20
668.904066
 30
0.0
 11
1003.750174
 21
646.904066
 31
0.0
  0
LINE
  5
BE
  8
002
  6
HIDDEN
 62
    40
 10
1018.750174
 20
668.904066
 30
0.0
 11
1018.750174
 21
646.904066
 31
0.0
  0
LINE
  5
BF
  8
002
 62
     3
 10
1165.564847
 20
509.322784
 30
0.0
 11
1185.564847
 21
509.322784
 31
0.0
  0
CIRCLE
  5
C0
  8
002
 62
     3
 10
1175.568447
 20
657.904066
 30
0.0
 40
6.188
  0
CIRCLE
  5
C1
  8
002
 62
     3
 10
1175.569647
 20
635.402066
 30
0.0
 40
2.75
  0
CIRCLE
  5
C2
  8
002
 62
     3
 10
1153.067147
 20
657.904666
 30
0.0
 40
2.75
  0
CIRCLE
  5
C3
  8
002
 62
     3
 10
1175.569647
 20
680.407166
 30
0.0
 40
2.75
  0
CIRCLE
  5
C4
  8
002
 62
     3
 10
1198.072247
 20
657.904666
 30
0.0
 40
2.75
  0
CIRCLE
  5
C5
  8
002
 62
     3
 10
1175.564847
 20
657.904066
 30
0.0
 40
27.5
  0
LINE
  5
C6
  8
002
 62
     3
 10
1203.064847
 20
519.322784
 30
0.0
 11
1148.064847
 21
519.322784
 31
0.0
  0
LINE
  5
C7
  8
002
 62
     3
 10
1203.064847
 20
541.322784
 30
0.0
 11
1203.064847
 21
519.322784
 31
0.0
  0
LINE
  5
C8
  8
002
 62
     3
 10
1148.064847
 20
541.322784
 30
0.0
 11
1203.064847
 21
541.322784
 31
0.0
  0
LINE
  5
C9
  8
002
 62
     3
 10
1148.064847
 20
519.322784
 30
0.0
 11
1148.064847
 21
541.322784
 31
0.0
  0
LINE
  5
CA
  8
003
  6
CENTER
 62
    40
 10
1219.650047
 20
657.904066
 30
0.0
 11
1132.513447
 21
657.904066
 31
0.0
  0
LINE
  5
CB
  8
003
  6
CENTER
 62
    40
 10
1175.568447
 20
624.626166
 30
0.0
 11
1175.568447
 21
689.709066
 31
0.0
  0
CIRCLE
  5
CC
  8
003
  6
CENTER
 62
    40
 10
1175.564847
 20
657.904066
 30
0.0
 40
22.5
  0
CIRCLE
  5
CD
  8
003
 62
    40
 10
1175.568447
 20
657.904066
 30
0.0
 40
7.0
  0
LINE
  5
CE
  8
003
  6
CENTER
 62
    40
 10
1153.064847
 20
544.322784
 30
0.0
 11
1153.064847
 21
516.322784
 31
0.0
  0
LINE
  5
CF
  8
003
  6
CENTER
 62
    40
 10
1198.064847
 20
544.322784
 30
0.0
 11
1198.064847
 21
516.322784
 31
0.0
  0
LINE
  5
D0
  8
002
 62
     3
 10
1185.564847
 20
492.993115
 30
0.0
 11
1185.564847
 21
519.322784
 31
0.0
  0
LINE
  5
D1
  8
002
 62
     3
 10
1165.564847
 20
519.322784
 30
0.0
 11
1165.564847
 21
492.993115
 31
0.0
  0
LINE
  5
D2
  8
002
 62
    40
 10
1167.564847
 20
492.993115
 30
0.0
 11
1167.564847
 21
509.322784
 31
0.0
  0
LINE
  5
D3
  8
002
 62
    40
 10
1183.564847
 20
492.993115
 30
0.0
 11
1183.564847
 21
509.322784
 31
0.0
  0
LINE
  5
D4
  8
002
  6
CENTER
 62
    40
 10
1175.564847
 20
551.322784
 30
0.0
 11
1175.564847
 21
492.993115
 31
0.0
  0
LINE
  5
D5
  8
002
  6
HIDDEN
 62
    40
 10
1168.564847
 20
519.322784
 30
0.0
 11
1168.564847
 21
539.322784
 31
0.0
  0
LINE
  5
D6
  8
002
  6
HIDDEN
 62
    40
 10
1168.564847
 20
539.322784
 30
0.0
 11
1182.564847
 21
539.322784
 31
0.0
  0
LINE
  5
D7
  8
002
  6
HIDDEN
 62
    40
 10
1182.564847
 20
539.322784
 30
0.0
 11
1182.564847
 21
519.322784
 31
0.0
  0
LINE
  5
D8
  8
002
  6
HIDDEN
 62
    40
 10
1169.376847
 20
539.322784
 30
0.0
 11
1169.376847
 21
519.322784
 31
0.0
  0
LINE
  5
D9
  8
002
  6
HIDDEN
 62
    40
 10
1181.752847
 20
519.322784
 30
0.0
 11
1181.752847
 21
539.322784
 31
0.0
  0
LINE
  5
DA
  8
002
  6
HIDDEN
 62
    40
 10
1004.250174
 20
519.322784
 30
0.0
 11
1004.250174
 21
539.322784
 31
0.0
  0
LINE
  5
DB
  8
002
  6
HIDDEN
 62
    40
 10
1004.250174
 20
539.322784
 30
0.0
 11
1018.250174
 21
539.322784
 31
0.0
  0
LINE
  5
DC
  8
002
  6
HIDDEN
 62
    40
 10
1018.250174
 20
539.322784
 30
0.0
 11
1018.250174
 21
519.322784
 31
0.0
  0
LINE
  5
DD
  8
002
  6
HIDDEN
 62
    40
 10
1005.062174
 20
539.322784
 30
0.0
 11
1005.062174
 21
519.322784
 31
0.0
  0
LINE
  5
DE
  8
002
  6
HIDDEN
 62
    40
 10
1017.438174
 20
519.322784
 30
0.0
 11
1017.438174
 21
539.322784
 31
0.0
  0
LINE
  5
DF
  8
002
 62
     3
 10
317.577599
 20
167.570942
 30
0.0
 11
317.577599
 21
162.570942
 31
0.0
  0
LINE
  5
E0
  8
002
 62
     3
 10
309.077599
 20
162.570942
 30
0.0
 11
309.077599
 21
167.570942
 31
0.0
  0
ARC
  5
E1
  8
002
 62
     3
 10
305.684399
 20
164.570942
 30
0.0
 40
3.0
 50
0.832723
 51
90.0
  0
LINE
  5
E2
  8
002
 62
     3
 10
301.737499
 20
167.570942
 30
0.0
 11
301.737499
 21
171.570942
 31
0.0
  0
LINE
  5
E3
  8
002
 62
     3
 10
301.737499
 20
167.570942
 30
0.0
 11
356.737499
 21
167.570942
 31
0.0
  0
LINE
  5
E4
  8
002
 62
     3
 10
308.684099
 20
164.614542
 30
0.0
 11
309.237499
 21
126.570942
 31
0.0
  0
LINE
  5
E5
  8
002
 62
     3
 10
309.237499
 20
126.570942
 30
0.0
 11
349.237499
 21
126.570942
 31
0.0
  0
LINE
  5
E6
  8
002
 62
     3
 10
349.237499
 20
126.570942
 30
0.0
 11
349.790799
 21
164.614542
 31
0.0
  0
LINE
  5
E7
  8
002
 62
     3
 10
340.897399
 20
162.570942
 30
0.0
 11
349.397399
 21
162.570942
 31
0.0
  0
LINE
  5
E8
  8
002
 62
     3
 10
349.397399
 20
162.570942
 30
0.0
 11
349.397399
 21
167.570942
 31
0.0
  0
ARC
  5
E9
  8
002
 62
     3
 10
352.790499
 20
164.570942
 30
0.0
 40
3.000016841619355
 50
90.0
 51
179.167277
  0
LINE
  5
EA
  8
002
 62
     3
 10
340.897399
 20
167.570942
 30
0.0
 11
340.897399
 21
162.570942
 31
0.0
  0
LINE
  5
EB
  8
002
 62
     3
 10
317.577599
 20
162.570942
 30
0.0
 11
309.077599
 21
162.570942
 31
0.0
  0
LINE
  5
EC
  8
002
  6
CENTER
 62
    40
 10
313.327599
 20
159.849342
 30
0.0
 11
313.327599
 21
173.570942
 31
0.0
  0
LINE
  5
ED
  8
002
  6
CENTER
 62
    40
 10
345.147399
 20
173.570942
 30
0.0
 11
345.147399
 21
159.849342
 31
0.0
  0
LINE
  5
EE
  8
002
  6
CENTER
 62
    40
 10
405.060199
 20
201.570942
 30
0.0
 11
275.455799
 21
201.570942
 31
0.0
  0
LINE
  5
EF
  8
002
 62
     3
 10
335.236799
 20
381.900742
 30
0.0
 11
323.236799
 21
381.900742
 31
0.0
  0
LINE
  5
F0
  8
002
 62
     3
 10
323.236799
 20
381.900742
 30
0.0
 11
323.236799
 21
369.900742
 31
0.0
  0
LINE
  5
F1
  8
002
 62
     3
 10
323.236799
 20
369.900742
 30
0.0
 11
335.236799
 21
369.900742
 31
0.0
  0
LINE
  5
F2
  8
002
 62
     3
 10
335.236799
 20
369.900742
 30
0.0
 11
335.236799
 21
381.900742
 31
0.0
  0
LINE
  5
F3
  8
002
 62
     3
 10
334.086799
 20
369.900742
 30
0.0
 11
334.086799
 21
366.900742
 31
0.0
  0
LINE
  5
F4
  8
002
 62
     3
 10
321.237199
 20
366.900742
 30
0.0
 11
337.237099
 21
366.900742
 31
0.0
  0
LINE
  5
F5
  8
002
 62
     3
 10
324.386799
 20
366.900742
 30
0.0
 11
324.386799
 21
369.900742
 31
0.0
  0
LINE
  5
F6
  8
002
 62
    40
 10
324.286799
 20
381.900742
 30
0.0
 11
324.286799
 21
369.900742
 31
0.0
  0
LINE
  5
F7
  8
002
 62
    40
 10
334.186799
 20
369.900742
 30
0.0
 11
334.186799
 21
381.900742
 31
0.0
  0
LINE
  5
F8
  8
002
 62
     3
 10
311.237499
 20
71.570942
 30
0.0
 11
347.237499
 21
71.570942
 31
0.0
  0
LINE
  5
F9
  8
002
 62
     3
 10
347.237499
 20
71.570942
 30
0.0
 11
347.237499
 21
54.570942
 31
0.0
  0
LINE
  5
FA
  8
002
 62
     3
 10
344.237499
 20
51.570942
 30
0.0
 11
314.237499
 21
51.570942
 31
0.0
  0
LINE
  5
FB
  8
002
 62
     3
 10
311.237499
 20
54.570942
 30
0.0
 11
311.237499
 21
71.570942
 31
0.0
  0
ARC
  5
FC
  8
002
 62
     3
 10
314.237499
 20
54.570942
 30
0.0
 40
3.0
 50
180.0
 51
270.0
  0
ARC
  5
FD
  8
002
 62
     3
 10
344.237499
 20
54.570942
 30
0.0
 40
3.0
 50
270.0
 51
0.0
  0
LINE
  5
FE
  8
002
 62
     3
 10
1498.427012
 20
326.570942
 30
0.0
 11
1538.427012
 21
326.570942
 31
0.0
  0
LINE
  5
FF
  8
002
 62
     3
 10
1538.427012
 20
326.570942
 30
0.0
 11
1538.980012
 21
288.527242
 31
0.0
  0
LINE
  5
100
  8
002
 62
     3
 10
1538.587012
 20
290.570942
 30
0.0
 11
1530.087012
 21
290.570942
 31
0.0
  0
LINE
  5
101
  8
002
 62
     3
 10
1538.587012
 20
290.570942
 30
0.0
 11
1538.587012
 21
285.570942
 31
0.0
  0
ARC
  5
102
  8
002
 62
     3
 10
1541.980012
 20
288.570942
 30
0.0
 40
3.000318264784589
 50
180.834549
 51
270.0
  0
LINE
  5
103
  8
002
 62
     3
 10
1545.927012
 20
285.570942
 30
0.0
 11
1490.927012
 21
285.570942
 31
0.0
  0
LINE
  5
104
  8
002
 62
     3
 10
1490.927012
 20
285.570942
 30
0.0
 11
1490.927012
 21
281.570942
 31
0.0
  0
LINE
  5
105
  8
002
 62
     3
 10
1545.927012
 20
281.570942
 30
0.0
 11
1545.927012
 21
285.570942
 31
0.0
  0
LINE
  5
106
  8
002
 62
     3
 10
1498.267012
 20
285.570942
 30
0.0
 11
1498.267012
 21
290.570942
 31
0.0
  0
LINE
  5
107
  8
002
 62
     3
 10
1506.767012
 20
290.570942
 30
0.0
 11
1498.267012
 21
290.570942
 31
0.0
  0
ARC
  5
108
  8
002
 62
     3
 10
1494.874012
 20
288.570942
 30
0.0
 40
3.0
 50
270.0
 51
359.165451
  0
LINE
  5
109
  8
002
 62
     3
 10
1497.874012
 20
288.527242
 30
0.0
 11
1498.427012
 21
326.570942
 31
0.0
  0
LINE
  5
10A
  8
002
 62
     3
 10
1530.087012
 20
290.570942
 30
0.0
 11
1530.087012
 21
285.570942
 31
0.0
  0
LINE
  5
10B
  8
002
 62
     3
 10
1506.767012
 20
285.570942
 30
0.0
 11
1506.767012
 21
290.570942
 31
0.0
  0
LINE
  5
10C
  8
002
  6
CENTER
 62
    40
 10
1594.250012
 20
201.570942
 30
0.0
 11
1464.645012
 21
201.570942
 31
0.0
  0
LINE
  5
10D
  8
002
  6
CENTER
 62
    40
 10
1534.337012
 20
269.847642
 30
0.0
 11
1534.337012
 21
293.292542
 31
0.0
  0
LINE
  5
10E
  8
002
  6
CENTER
 62
    40
 10
1502.517012
 20
293.292542
 30
0.0
 11
1502.517012
 21
269.847642
 31
0.0
  0
LINE
  5
10F
  8
002
 62
     3
 10
1503.427012
 20
401.570942
 30
0.0
 11
1533.427012
 21
401.570942
 31
0.0
  0
ARC
  5
110
  8
002
 62
     3
 10
1533.427012
 20
398.570942
 30
0.0
 40
3.0
 50
0.0
 51
90.0
  0
LINE
  5
111
  8
002
 62
     3
 10
1536.427012
 20
398.570942
 30
0.0
 11
1536.427012
 21
381.570942
 31
0.0
  0
LINE
  5
112
  8
002
 62
     3
 10
1536.427012
 20
381.570942
 30
0.0
 11
1500.427012
 21
381.570942
 31
0.0
  0
LINE
  5
113
  8
002
 62
     3
 10
1500.427012
 20
381.570942
 30
0.0
 11
1500.427012
 21
398.570942
 31
0.0
  0
ARC
  5
114
  8
002
 62
     3
 10
1503.427012
 20
398.570942
 30
0.0
 40
3.0
 50
90.0
 51
180.0
  0
LINE
  5
115
  8
002
 62
     3
 10
1526.427012
 20
86.241142
 30
0.0
 11
1510.427012
 21
86.241142
 31
0.0
  0
LINE
  5
116
  8
002
 62
     3
 10
1513.576012
 20
86.241142
 30
0.0
 11
1513.576012
 21
83.241142
 31
0.0
  0
LINE
  5
117
  8
002
 62
     3
 10
1512.426012
 20
83.241142
 30
0.0
 11
1512.426012
 21
71.241142
 31
0.0
  0
LINE
  5
118
  8
002
 62
     3
 10
1512.426012
 20
71.241142
 30
0.0
 11
1524.426012
 21
71.241142
 31
0.0
  0
LINE
  5
119
  8
002
 62
     3
 10
1524.426012
 20
71.241142
 30
0.0
 11
1524.426012
 21
83.241142
 31
0.0
  0
LINE
  5
11A
  8
002
 62
     3
 10
1524.426012
 20
83.241142
 30
0.0
 11
1512.426012
 21
83.241142
 31
0.0
  0
LINE
  5
11B
  8
002
 62
     3
 10
1523.276012
 20
83.241142
 30
0.0
 11
1523.276012
 21
86.241142
 31
0.0
  0
LINE
  5
11C
  8
002
 62
    40
 10
1513.476012
 20
71.241142
 30
0.0
 11
1513.476012
 21
83.241142
 31
0.0
  0
LINE
  5
11D
  8
002
 62
    40
 10
1523.376012
 20
83.241142
 30
0.0
 11
1523.376012
 21
71.241142
 31
0.0
  0
LINE
  5
11E
  8
002
 62
     3
 10
807.823236
 20
167.570942
 30
0.0
 11
807.823236
 21
162.570942
 31
0.0
  0
LINE
  5
11F
  8
002
 62
     3
 10
799.323236
 20
162.570942
 30
0.0
 11
799.323236
 21
167.570942
 31
0.0
  0
ARC
  5
120
  8
002
 62
     3
 10
795.930036
 20
164.570942
 30
0.0
 40
3.0
 50
0.832723
 51
90.0
  0
LINE
  5
121
  8
002
 62
     3
 10
791.983136
 20
167.570942
 30
0.0
 11
791.983136
 21
171.570942
 31
0.0
  0
LINE
  5
122
  8
002
 62
     3
 10
791.983136
 20
167.570942
 30
0.0
 11
846.983136
 21
167.570942
 31
0.0
  0
LINE
  5
123
  8
002
 62
     3
 10
798.929736
 20
164.614542
 30
0.0
 11
799.483136
 21
126.570942
 31
0.0
  0
LINE
  5
124
  8
002
 62
     3
 10
799.483136
 20
126.570942
 30
0.0
 11
839.483136
 21
126.570942
 31
0.0
  0
LINE
  5
125
  8
002
 62
     3
 10
839.483136
 20
126.570942
 30
0.0
 11
840.036436
 21
164.614542
 31
0.0
  0
LINE
  5
126
  8
002
 62
     3
 10
831.143036
 20
162.570942
 30
0.0
 11
839.643036
 21
162.570942
 31
0.0
  0
LINE
  5
127
  8
002
 62
     3
 10
839.643036
 20
162.570942
 30
0.0
 11
839.643036
 21
167.570942
 31
0.0
  0
ARC
  5
128
  8
002
 62
     3
 10
843.036136
 20
164.570942
 30
0.0
 40
3.000016841619355
 50
90.0
 51
179.167277
  0
LINE
  5
129
  8
002
 62
     3
 10
831.143036
 20
167.570942
 30
0.0
 11
831.143036
 21
162.570942
 31
0.0
  0
LINE
  5
12A
  8
002
 62
     3
 10
807.823236
 20
162.570942
 30
0.0
 11
799.323236
 21
162.570942
 31
0.0
  0
LINE
  5
12B
  8
002
  6
CENTER
 62
    40
 10
803.573236
 20
159.849342
 30
0.0
 11
803.573236
 21
173.570942
 31
0.0
  0
LINE
  5
12C
  8
002
  6
CENTER
 62
    40
 10
835.393036
 20
173.570942
 30
0.0
 11
835.393036
 21
159.849342
 31
0.0
  0
LINE
  5
12D
  8
002
  6
CENTER
 62
    40
 10
895.305836
 20
201.570942
 30
0.0
 11
765.701436
 21
201.570942
 31
0.0
  0
LINE
  5
12E
  8
002
 62
     3
 10
846.983136
 20
281.570942
 30
0.0
 11
846.983136
 21
284.570942
 31
0.0
  0
LINE
  5
12F
  8
002
 62
     3
 10
846.983136
 20
284.570942
 30
0.0
 11
791.983136
 21
284.570942
 31
0.0
  0
LINE
  5
130
  8
002
 62
     3
 10
791.983136
 20
284.570942
 30
0.0
 11
791.983136
 21
281.570942
 31
0.0
  0
LINE
  5
131
  8
002
 62
     3
 10
795.183136
 20
286.570942
 30
0.0
 11
799.323236
 21
286.570942
 31
0.0
  0
LINE
  5
132
  8
002
 62
     3
 10
799.323236
 20
284.570942
 30
0.0
 11
799.323236
 21
289.570942
 31
0.0
  0
LINE
  5
133
  8
002
 62
     3
 10
807.823236
 20
289.570942
 30
0.0
 11
807.823236
 21
284.570942
 31
0.0
  0
LINE
  5
134
  8
002
 62
     3
 10
807.823236
 20
286.570942
 30
0.0
 11
831.143036
 21
286.570942
 31
0.0
  0
LINE
  5
135
  8
002
 62
     3
 10
831.143036
 20
284.570942
 30
0.0
 11
831.143036
 21
289.570942
 31
0.0
  0
LINE
  5
136
  8
002
 62
     3
 10
831.143036
 20
289.570942
 30
0.0
 11
839.643036
 21
289.570942
 31
0.0
  0
LINE
  5
137
  8
002
 62
     3
 10
839.643036
 20
289.570942
 30
0.0
 11
839.643036
 21
284.570942
 31
0.0
  0
LINE
  5
138
  8
002
 62
     3
 10
835.783136
 20
289.570942
 30
0.0
 11
835.783136
 21
298.570942
 31
0.0
  0
LINE
  5
139
  8
002
 62
     3
 10
835.783136
 20
298.570942
 30
0.0
 11
795.183136
 21
298.570942
 31
0.0
  0
ARC
  5
13A
  8
002
 62
     3
 10
795.183136
 20
296.570942
 30
0.0
 40
2.0
 50
90.0
 51
180.0
  0
LINE
  5
13B
  8
002
 62
     3
 10
793.183136
 20
296.570942
 30
0.0
 11
793.183136
 21
288.570942
 31
0.0
  0
ARC
  5
13C
  8
002
 62
     3
 10
795.183136
 20
288.570942
 30
0.0
 40
2.0
 50
180.0
 51
270.0
  0
LINE
  5
13D
  8
002
 62
     3
 10
799.323236
 20
289.570942
 30
0.0
 11
807.823236
 21
289.570942
 31
0.0
  0
LINE
  5
13E
  8
002
 62
     3
 10
803.183136
 20
289.570942
 30
0.0
 11
803.183136
 21
298.570942
 31
0.0
  0
LINE
  5
13F
  8
002
 62
     3
 10
803.783136
 20
298.570942
 30
0.0
 11
803.783136
 21
299.570942
 31
0.0
  0
LINE
  5
140
  8
002
 62
     3
 10
803.783136
 20
299.570942
 30
0.0
 11
790.309536
 21
301.586042
 31
0.0
  0
LINE
  5
141
  8
002
 62
     3
 10
790.483136
 20
302.570942
 30
0.0
 11
848.483136
 21
302.570942
 31
0.0
  0
LINE
  5
142
  8
002
 62
     3
 10
848.656636
 20
301.586042
 30
0.0
 11
835.183136
 21
299.570942
 31
0.0
  0
LINE
  5
143
  8
002
 62
     3
 10
835.183136
 20
299.570942
 30
0.0
 11
835.183136
 21
298.570942
 31
0.0
  0
LINE
  5
144
  8
002
 62
     3
 10
801.156636
 20
304.586042
 30
0.0
 11
790.309536
 21
303.555742
 31
0.0
  0
ARC
  5
145
  8
002
 62
     3
 10
790.483136
 20
302.570942
 30
0.0
 40
1.00008248159843
 50
99.997359
 51
260.003636
  0
LINE
  5
146
  8
002
 62
     3
 10
790.309536
 20
307.586042
 30
0.0
 11
801.156636
 21
306.555742
 31
0.0
  0
ARC
  5
147
  8
002
 62
     3
 10
800.983136
 20
305.570942
 30
0.0
 40
0.9999666444436526
 50
279.990722
 51
80.008284
  0
LINE
  5
148
  8
002
 62
     3
 10
802.983136
 20
305.570942
 30
0.0
 11
835.983136
 21
305.570942
 31
0.0
  0
ARC
  5
149
  8
002
 62
     3
 10
837.983136
 20
305.570942
 30
0.0
 40
1.00008248159843
 50
99.997359
 51
260.003636
  0
LINE
  5
14A
  8
002
 62
     3
 10
837.809536
 20
304.586042
 30
0.0
 11
848.656636
 21
303.555742
 31
0.0
  0
ARC
  5
14B
  8
002
 62
     3
 10
848.483136
 20
302.570942
 30
0.0
 40
0.9999666444436526
 50
279.990722
 51
80.008284
  0
ARC
  5
14C
  8
002
 62
     3
 10
848.483136
 20
308.570942
 30
0.0
 40
0.9999666444436526
 50
279.990722
 51
80.008284
  0
LINE
  5
14D
  8
002
 62
     3
 10
848.656636
 20
309.555742
 30
0.0
 11
837.809536
 21
310.586042
 31
0.0
  0
ARC
  5
14E
  8
002
 62
     3
 10
837.983136
 20
311.570942
 30
0.0
 40
1.00008248159843
 50
180.0
 51
260.003636
  0
LINE
  5
14F
  8
002
 62
     3
 10
835.983136
 20
311.570942
 30
0.0
 11
802.983136
 21
311.570942
 31
0.0
  0
LINE
  5
150
  8
002
 62
     3
 10
801.156636
 20
310.586042
 30
0.0
 11
790.309536
 21
309.555742
 31
0.0
  0
ARC
  5
151
  8
002
 62
     3
 10
790.483136
 20
308.570942
 30
0.0
 40
1.00008248159843
 50
99.997359
 51
260.003636
  0
LINE
  5
152
  8
002
 62
     3
 10
790.483136
 20
308.570942
 30
0.0
 11
848.483136
 21
308.570942
 31
0.0
  0
LINE
  5
153
  8
002
 62
     3
 10
848.656636
 20
307.586042
 30
0.0
 11
837.809536
 21
306.555742
 31
0.0
  0
LINE
  5
154
  8
002
 62
     3
 10
835.983136
 20
339.870942
 30
0.0
 11
802.983136
 21
339.870942
 31
0.0
  0
ARC
  5
155
  8
002
 62
     3
 10
800.983136
 20
339.870942
 30
0.0
 40
0.9999666444436526
 50
0.0
 51
80.008284
  0
LINE
  5
156
  8
002
 62
     3
 10
801.156636
 20
340.855742
 30
0.0
 11
790.309536
 21
341.886042
 31
0.0
  0
LINE
  5
157
  8
002
 62
     3
 10
790.483136
 20
342.870942
 30
0.0
 11
848.483136
 21
342.870942
 31
0.0
  0
ARC
  5
158
  8
002
 62
     3
 10
848.483136
 20
342.870942
 30
0.0
 40
0.9999666444436526
 50
279.990722
 51
80.008284
  0
LINE
  5
159
  8
002
 62
     3
 10
848.656636
 20
343.855742
 30
0.0
 11
837.809536
 21
344.886042
 31
0.0
  0
ARC
  5
15A
  8
002
 62
     3
 10
837.983136
 20
345.870942
 30
0.0
 40
1.00008248159843
 50
99.997359
 51
260.003636
  0
LINE
  5
15B
  8
002
 62
     3
 10
837.809536
 20
346.855742
 30
0.0
 11
848.656636
 21
347.886042
 31
0.0
  0
ARC
  5
15C
  8
002
 62
     3
 10
848.483136
 20
348.870942
 30
0.0
 40
0.9999666444436526
 50
279.990722
 51
80.008284
  0
LINE
  5
15D
  8
002
 62
     3
 10
848.656636
 20
349.855742
 30
0.0
 11
828.183136
 21
351.870942
 31
0.0
  0
LINE
  5
15E
  8
002
 62
     3
 10
810.783136
 20
351.870942
 30
0.0
 11
790.309536
 21
349.855742
 31
0.0
  0
ARC
  5
15F
  8
002
 62
     3
 10
790.483136
 20
348.870942
 30
0.0
 40
1.00008248159843
 50
99.997359
 51
260.003636
  0
LINE
  5
160
  8
002
 62
     3
 10
790.309536
 20
347.886042
 30
0.0
 11
801.156636
 21
346.855742
 31
0.0
  0
LINE
  5
161
  8
002
 62
     3
 10
801.156636
 20
344.886042
 30
0.0
 11
790.309536
 21
343.855742
 31
0.0
  0
ARC
  5
162
  8
002
 62
     3
 10
790.483136
 20
342.870942
 30
0.0
 40
1.00008248159843
 50
99.997359
 51
260.003636
  0
LINE
  5
163
  8
002
 62
     3
 10
790.483136
 20
348.870942
 30
0.0
 11
848.483136
 21
348.870942
 31
0.0
  0
LINE
  5
164
  8
002
 62
     3
 10
848.656636
 20
341.886042
 30
0.0
 11
837.809536
 21
340.855742
 31
0.0
  0
ARC
  5
165
  8
002
 62
     3
 10
837.983136
 20
339.870942
 30
0.0
 40
1.0
 50
99.997359
 51
180.0
  0
LINE
  5
166
  8
002
 62
     3
 10
835.983136
 20
345.870942
 30
0.0
 11
802.983136
 21
345.870942
 31
0.0
  0
ARC
  5
167
  8
002
 62
     3
 10
800.983136
 20
345.870942
 30
0.0
 40
0.9999666444436526
 50
279.990722
 51
80.008284
  0
LINE
  5
168
  8
002
 62
     3
 10
802.183136
 20
352.870942
 30
0.0
 11
828.783136
 21
352.870942
 31
0.0
  0
LINE
  5
169
  8
002
 62
     3
 10
828.783136
 20
352.870942
 30
0.0
 11
828.783136
 21
364.870942
 31
0.0
  0
LINE
  5
16A
  8
002
 62
     3
 10
828.783136
 20
364.870942
 30
0.0
 11
802.183136
 21
364.870942
 31
0.0
  0
ARC
  5
16B
  8
002
 62
     3
 10
802.183136
 20
362.870942
 30
0.0
 40
2.0
 50
90.0
 51
180.0
  0
LINE
  5
16C
  8
002
 62
     3
 10
800.183136
 20
362.870942
 30
0.0
 11
800.183136
 21
354.870942
 31
0.0
  0
ARC
  5
16D
  8
002
 62
     3
 10
802.183136
 20
354.870942
 30
0.0
 40
2.0
 50
180.0
 51
270.0
  0
CIRCLE
  5
16E
  8
002
 62
     3
 10
805.183136
 20
359.370942
 30
0.0
 40
1.0
  0
LINE
  5
16F
  8
002
 62
     3
 10
810.183136
 20
352.870942
 30
0.0
 11
810.183136
 21
364.870942
 31
0.0
  0
LINE
  5
170
  8
002
 62
     3
 10
810.783136
 20
364.870942
 30
0.0
 11
810.783136
 21
366.870942
 31
0.0
  0
LINE
  5
171
  8
002
 62
     3
 10
810.783136
 20
366.870942
 30
0.0
 11
828.183136
 21
366.870942
 31
0.0
  0
LINE
  5
172
  8
002
 62
     3
 10
828.183136
 20
366.870942
 30
0.0
 11
828.183136
 21
364.870942
 31
0.0
  0
LINE
  5
173
  8
002
 62
     3
 10
814.632436
 20
366.870942
 30
0.0
 11
814.632436
 21
369.870942
 31
0.0
  0
LINE
  5
174
  8
002
 62
     3
 10
813.482436
 20
369.870942
 30
0.0
 11
813.482436
 21
381.870942
 31
0.0
  0
LINE
  5
175
  8
002
 62
     3
 10
813.482436
 20
381.870942
 30
0.0
 11
825.482436
 21
381.870942
 31
0.0
  0
LINE
  5
176
  8
002
 62
     3
 10
825.482436
 20
381.870942
 30
0.0
 11
825.482436
 21
369.870942
 31
0.0
  0
LINE
  5
177
  8
002
 62
     3
 10
825.482436
 20
369.870942
 30
0.0
 11
813.482436
 21
369.870942
 31
0.0
  0
LINE
  5
178
  8
002
 62
     3
 10
824.332436
 20
369.870942
 30
0.0
 11
824.332436
 21
366.870942
 31
0.0
  0
LINE
  5
179
  8
002
 62
     3
 10
828.183136
 20
352.870942
 30
0.0
 11
828.183136
 21
351.870942
 31
0.0
  0
LINE
  5
17A
  8
002
 62
     3
 10
810.783136
 20
351.870942
 30
0.0
 11
810.783136
 21
352.870942
 31
0.0
  0
ARC
  5
17B
  8
002
 62
     3
 10
800.983136
 20
311.570942
 30
0.0
 40
1.0
 50
279.990722
 51
0.0
  0
CIRCLE
  5
17C
  8
002
 62
     3
 10
798.183136
 20
292.070942
 30
0.0
 40
1.0
  0
LINE
  5
17D
  8
002
  6
CENTER
 62
    40
 10
835.393036
 20
278.570942
 30
0.0
 11
835.393036
 21
292.292542
 31
0.0
  0
LINE
  5
17E
  8
002
  6
CENTER
 62
    40
 10
798.183136
 20
295.578642
 30
0.0
 11
798.183136
 21
288.818742
 31
0.0
  0
LINE
  5
17F
  8
002
  6
CENTER
 62
    40
 10
795.815336
 20
292.070942
 30
0.0
 11
800.840436
 21
292.070942
 31
0.0
  0
LINE
  5
180
  8
002
  6
CENTER
 62
    40
 10
803.573236
 20
292.292542
 30
0.0
 11
803.573236
 21
278.570942
 31
0.0
  0
LINE
  5
181
  8
002
  6
CENTER
 62
    40
 10
805.183136
 20
356.118742
 30
0.0
 11
805.183136
 21
362.878642
 31
0.0
  0
LINE
  5
182
  8
002
  6
CENTER
 62
    40
 10
802.815336
 20
359.370942
 30
0.0
 11
807.840436
 21
359.370942
 31
0.0
  0
LINE
  5
183
  8
002
 62
    40
 10
814.532436
 20
369.870942
 30
0.0
 11
814.532436
 21
381.870942
 31
0.0
  0
LINE
  5
184
  8
002
 62
    40
 10
824.432436
 20
381.870942
 30
0.0
 11
824.432436
 21
369.870942
 31
0.0
  0
LINE
  5
185
  8
002
  6
PHANTOM
 62
    40
 10
849.483136
 20
342.870942
 30
0.0
 11
849.483136
 21
308.570942
 31
0.0
  0
LINE
  5
186
  8
002
  6
PHANTOM
 62
    40
 10
836.983136
 20
311.558098
 30
0.0
 11
836.983136
 21
339.870942
 31
0.0
  0
LINE
  5
187
  8
002
  6
PHANTOM
 62
    40
 10
801.983136
 20
311.570942
 30
0.0
 11
801.983136
 21
339.870942
 31
0.0
  0
LINE
  5
188
  8
002
  6
PHANTOM
 62
    40
 10
789.483136
 20
342.870942
 30
0.0
 11
789.483136
 21
308.570942
 31
0.0
  0
LINE
  5
189
  8
002
 62
     3
 10
801.483136
 20
71.570942
 30
0.0
 11
837.483136
 21
71.570942
 31
0.0
  0
LINE
  5
18A
  8
002
 62
     3
 10
837.483136
 20
71.570942
 30
0.0
 11
837.483136
 21
54.570942
 31
0.0
  0
LINE
  5
18B
  8
002
 62
     3
 10
834.483136
 20
51.570942
 30
0.0
 11
804.483136
 21
51.570942
 31
0.0
  0
LINE
  5
18C
  8
002
 62
     3
 10
801.483136
 20
54.570942
 30
0.0
 11
801.483136
 21
71.570942
 31
0.0
  0
ARC
  5
18D
  8
002
 62
     3
 10
804.483136
 20
54.570942
 30
0.0
 40
3.0
 50
180.0
 51
270.0
  0
ARC
  5
18E
  8
002
 62
     3
 10
834.483136
 20
54.570942
 30
0.0
 40
3.0
 50
270.0
 51
0.0
  0
LINE
  5
18F
  8
002
 62
     3
 10
2028.032012
 20
326.570942
 30
0.0
 11
2068.032012
 21
326.570942
 31
0.0
  0
LINE
  5
190
  8
002
 62
     3
 10
2068.032012
 20
326.570942
 30
0.0
 11
2068.585012
 21
288.527242
 31
0.0
  0
LINE
  5
191
  8
002
 62
     3
 10
2068.192012
 20
290.570942
 30
0.0
 11
2059.692012
 21
290.570942
 31
0.0
  0
LINE
  5
192
  8
002
 62
     3
 10
2068.192012
 20
290.570942
 30
0.0
 11
2068.192012
 21
285.570942
 31
0.0
  0
ARC
  5
193
  8
002
 62
     3
 10
2071.585012
 20
288.570942
 30
0.0
 40
3.000318264784589
 50
180.834549
 51
270.0
  0
LINE
  5
194
  8
002
 62
     3
 10
2075.532012
 20
285.570942
 30
0.0
 11
2020.532012
 21
285.570942
 31
0.0
  0
LINE
  5
195
  8
002
 62
     3
 10
2020.532012
 20
285.570942
 30
0.0
 11
2020.532012
 21
281.570942
 31
0.0
  0
LINE
  5
196
  8
002
 62
     3
 10
2075.532012
 20
281.570942
 30
0.0
 11
2075.532012
 21
285.570942
 31
0.0
  0
LINE
  5
197
  8
002
 62
     3
 10
2027.872012
 20
285.570942
 30
0.0
 11
2027.872012
 21
290.570942
 31
0.0
  0
LINE
  5
198
  8
002
 62
     3
 10
2036.372012
 20
290.570942
 30
0.0
 11
2027.872012
 21
290.570942
 31
0.0
  0
ARC
  5
199
  8
002
 62
     3
 10
2024.479012
 20
288.570942
 30
0.0
 40
3.0
 50
270.0
 51
359.165451
  0
LINE
  5
19A
  8
002
 62
     3
 10
2027.479012
 20
288.527242
 30
0.0
 11
2028.032012
 21
326.570942
 31
0.0
  0
LINE
  5
19B
  8
002
 62
     3
 10
2059.692012
 20
290.570942
 30
0.0
 11
2059.692012
 21
285.570942
 31
0.0
  0
LINE
  5
19C
  8
002
 62
     3
 10
2036.372012
 20
285.570942
 30
0.0
 11
2036.372012
 21
290.570942
 31
0.0
  0
LINE
  5
19D
  8
002
  6
CENTER
 62
    40
 10
2123.855012
 20
201.570942
 30
0.0
 11
1994.250012
 21
201.570942
 31
0.0
  0
LINE
  5
19E
  8
002
  6
CENTER
 62
    40
 10
2063.942012
 20
269.847642
 30
0.0
 11
2063.942012
 21
293.292542
 31
0.0
  0
LINE
  5
19F
  8
002
  6
CENTER
 62
    40
 10
2032.122012
 20
293.292542
 30
0.0
 11
2032.122012
 21
269.847642
 31
0.0
  0
LINE
  5
1A0
  8
002
 62
     3
 10
2033.032012
 20
401.570942
 30
0.0
 11
2063.032012
 21
401.570942
 31
0.0
  0
ARC
  5
1A1
  8
002
 62
     3
 10
2063.032012
 20
398.570942
 30
0.0
 40
3.0
 50
0.0
 51
90.0
  0
LINE
  5
1A2
  8
002
 62
     3
 10
2066.032012
 20
398.570942
 30
0.0
 11
2066.032012
 21
381.570942
 31
0.0
  0
LINE
  5
1A3
  8
002
 62
     3
 10
2066.032012
 20
381.570942
 30
0.0
 11
2030.032012
 21
381.570942
 31
0.0
  0
LINE
  5
1A4
  8
002
 62
     3
 10
2030.032012
 20
381.570942
 30
0.0
 11
2030.032012
 21
398.570942
 31
0.0
  0
ARC
  5
1A5
  8
002
 62
     3
 10
2033.032012
 20
398.570942
 30
0.0
 40
3.0
 50
90.0
 51
180.0
  0
LINE
  5
1A6
  8
002
 62
     3
 10
2075.532012
 20
171.570942
 30
0.0
 11
2075.532012
 21
168.570942
 31
0.0
  0
LINE
  5
1A7
  8
002
 62
     3
 10
2075.532012
 20
168.570942
 30
0.0
 11
2020.532012
 21
168.570942
 31
0.0
  0
LINE
  5
1A8
  8
002
 62
     3
 10
2020.532012
 20
168.570942
 30
0.0
 11
2020.532012
 21
171.570942
 31
0.0
  0
LINE
  5
1A9
  8
002
 62
     3
 10
2023.732012
 20
166.570942
 30
0.0
 11
2027.872112
 21
166.570942
 31
0.0
  0
LINE
  5
1AA
  8
002
 62
     3
 10
2027.872112
 20
168.570942
 30
0.0
 11
2027.872112
 21
163.570942
 31
0.0
  0
LINE
  5
1AB
  8
002
 62
     3
 10
2036.372112
 20
163.570942
 30
0.0
 11
2036.372112
 21
168.570942
 31
0.0
  0
LINE
  5
1AC
  8
002
 62
     3
 10
2036.372112
 20
166.570942
 30
0.0
 11
2059.691912
 21
166.570942
 31
0.0
  0
LINE
  5
1AD
  8
002
 62
     3
 10
2059.691912
 20
168.570942
 30
0.0
 11
2059.691912
 21
163.570942
 31
0.0
  0
LINE
  5
1AE
  8
002
 62
     3
 10
2059.691912
 20
163.570942
 30
0.0
 11
2068.191912
 21
163.570942
 31
0.0
  0
LINE
  5
1AF
  8
002
 62
     3
 10
2068.191912
 20
163.570942
 30
0.0
 11
2068.191912
 21
168.570942
 31
0.0
  0
LINE
  5
1B0
  8
002
 62
     3
 10
2064.332012
 20
163.570942
 30
0.0
 11
2064.332012
 21
154.570942
 31
0.0
  0
LINE
  5
1B1
  8
002
 62
     3
 10
2064.332012
 20
154.570942
 30
0.0
 11
2023.732012
 21
154.570942
 31
0.0
  0
ARC
  5
1B2
  8
002
 62
     3
 10
2023.732012
 20
156.570942
 30
0.0
 40
2.0
 50
180.0
 51
270.0
  0
LINE
  5
1B3
  8
002
 62
     3
 10
2021.732012
 20
156.570942
 30
0.0
 11
2021.732012
 21
164.570942
 31
0.0
  0
ARC
  5
1B4
  8
002
 62
     3
 10
2023.732012
 20
164.570942
 30
0.0
 40
2.0
 50
90.0
 51
180.0
  0
LINE
  5
1B5
  8
002
 62
     3
 10
2027.872112
 20
163.570942
 30
0.0
 11
2036.372112
 21
163.570942
 31
0.0
  0
LINE
  5
1B6
  8
002
 62
     3
 10
2031.732012
 20
163.570942
 30
0.0
 11
2031.732012
 21
154.570942
 31
0.0
  0
LINE
  5
1B7
  8
002
 62
     3
 10
2032.332012
 20
154.570942
 30
0.0
 11
2032.332012
 21
153.570942
 31
0.0
  0
LINE
  5
1B8
  8
002
 62
     3
 10
2032.332012
 20
153.570942
 30
0.0
 11
2018.858412
 21
151.555842
 31
0.0
  0
LINE
  5
1B9
  8
002
 62
     3
 10
2019.032012
 20
150.570942
 30
0.0
 11
2077.032012
 21
150.570942
 31
0.0
  0
LINE
  5
1BA
  8
002
 62
     3
 10
2077.205512
 20
151.555842
 30
0.0
 11
2063.732012
 21
153.570942
 31
0.0
  0
LINE
  5
1BB
  8
002
 62
     3
 10
2063.732012
 20
153.570942
 30
0.0
 11
2063.732012
 21
154.570942
 31
0.0
  0
LINE
  5
1BC
  8
002
 62
     3
 10
2029.705512
 20
148.555842
 30
0.0
 11
2018.858412
 21
149.586142
 31
0.0
  0
ARC
  5
1BD
  8
002
 62
     3
 10
2019.032012
 20
150.570942
 30
0.0
 40
1.00008248159843
 50
99.996364
 51
260.002641
  0
LINE
  5
1BE
  8
002
 62
     3
 10
2018.858412
 20
145.555842
 30
0.0
 11
2029.705512
 21
146.586142
 31
0.0
  0
ARC
  5
1BF
  8
002
 62
     3
 10
2029.532012
 20
147.570942
 30
0.0
 40
0.9999666444436526
 50
279.991716
 51
80.009278
  0
LINE
  5
1C0
  8
002
 62
     3
 10
2031.532012
 20
147.570942
 30
0.0
 11
2064.532012
 21
147.570942
 31
0.0
  0
ARC
  5
1C1
  8
002
 62
     3
 10
2066.532012
 20
147.570942
 30
0.0
 40
1.00008248159843
 50
99.996364
 51
260.002641
  0
LINE
  5
1C2
  8
002
 62
     3
 10
2066.358412
 20
148.555842
 30
0.0
 11
2077.205512
 21
149.586142
 31
0.0
  0
ARC
  5
1C3
  8
002
 62
     3
 10
2077.032012
 20
150.570942
 30
0.0
 40
0.9999666444436526
 50
279.991716
 51
80.009278
  0
ARC
  5
1C4
  8
002
 62
     3
 10
2077.032012
 20
144.570942
 30
0.0
 40
0.9999666444436526
 50
279.991716
 51
80.009278
  0
LINE
  5
1C5
  8
002
 62
     3
 10
2077.205512
 20
143.586142
 30
0.0
 11
2066.358412
 21
142.555842
 31
0.0
  0
ARC
  5
1C6
  8
002
 62
     3
 10
2066.532012
 20
141.570942
 30
0.0
 40
1.00008248159843
 50
99.996364
 51
180.0
  0
LINE
  5
1C7
  8
002
 62
     3
 10
2064.532012
 20
141.570942
 30
0.0
 11
2031.532012
 21
141.570942
 31
0.0
  0
LINE
  5
1C8
  8
002
 62
     3
 10
2029.705512
 20
142.555842
 30
0.0
 11
2018.858412
 21
143.586142
 31
0.0
  0
ARC
  5
1C9
  8
002
 62
     3
 10
2019.032012
 20
144.570942
 30
0.0
 40
1.00008248159843
 50
99.996364
 51
260.002641
  0
LINE
  5
1CA
  8
002
 62
     3
 10
2019.032012
 20
144.570942
 30
0.0
 11
2077.032012
 21
144.570942
 31
0.0
  0
LINE
  5
1CB
  8
002
 62
     3
 10
2077.205512
 20
145.555842
 30
0.0
 11
2066.358412
 21
146.586142
 31
0.0
  0
LINE
  5
1CC
  8
002
 62
     3
 10
2064.532012
 20
113.270942
 30
0.0
 11
2031.532012
 21
113.270942
 31
0.0
  0
ARC
  5
1CD
  8
002
 62
     3
 10
2029.532012
 20
113.270942
 30
0.0
 40
0.9999666444436526
 50
279.991716
 51
0.0
  0
LINE
  5
1CE
  8
002
 62
     3
 10
2029.705512
 20
112.286142
 30
0.0
 11
2018.858412
 21
111.255842
 31
0.0
  0
LINE
  5
1CF
  8
002
 62
     3
 10
2019.032012
 20
110.270942
 30
0.0
 11
2077.032012
 21
110.270942
 31
0.0
  0
ARC
  5
1D0
  8
002
 62
     3
 10
2077.032012
 20
110.270942
 30
0.0
 40
0.9999666444436526
 50
279.991716
 51
80.009278
  0
LINE
  5
1D1
  8
002
 62
     3
 10
2077.205512
 20
109.286142
 30
0.0
 11
2066.358412
 21
108.255842
 31
0.0
  0
ARC
  5
1D2
  8
002
 62
     3
 10
2066.532012
 20
107.270942
 30
0.0
 40
1.00008248159843
 50
99.996364
 51
260.002641
  0
LINE
  5
1D3
  8
002
 62
     3
 10
2066.358412
 20
106.286142
 30
0.0
 11
2077.205512
 21
105.255842
 31
0.0
  0
ARC
  5
1D4
  8
002
 62
     3
 10
2077.032012
 20
104.270942
 30
0.0
 40
0.9999666444436526
 50
279.991716
 51
80.009278
  0
LINE
  5
1D5
  8
002
 62
     3
 10
2077.205512
 20
103.286142
 30
0.0
 11
2056.732012
 21
101.270942
 31
0.0
  0
LINE
  5
1D6
  8
002
 62
     3
 10
2039.332012
 20
101.270942
 30
0.0
 11
2018.858412
 21
103.286142
 31
0.0
  0
ARC
  5
1D7
  8
002
 62
     3
 10
2019.032012
 20
104.270942
 30
0.0
 40
1.00008248159843
 50
99.996364
 51
260.002641
  0
LINE
  5
1D8
  8
002
 62
     3
 10
2018.858412
 20
105.255842
 30
0.0
 11
2029.705512
 21
106.286142
 31
0.0
  0
LINE
  5
1D9
  8
002
 62
     3
 10
2029.705512
 20
108.255842
 30
0.0
 11
2018.858412
 21
109.286142
 31
0.0
  0
ARC
  5
1DA
  8
002
 62
     3
 10
2019.032012
 20
110.270942
 30
0.0
 40
1.00008248159843
 50
99.996364
 51
260.002641
  0
LINE
  5
1DB
  8
002
 62
     3
 10
2019.032012
 20
104.270942
 30
0.0
 11
2077.032012
 21
104.270942
 31
0.0
  0
LINE
  5
1DC
  8
002
 62
     3
 10
2077.205512
 20
111.255842
 30
0.0
 11
2066.358412
 21
112.286142
 31
0.0
  0
ARC
  5
1DD
  8
002
 62
     3
 10
2066.532012
 20
113.270942
 30
0.0
 40
1.0
 50
180.0
 51
260.002641
  0
LINE
  5
1DE
  8
002
 62
     3
 10
2064.532012
 20
107.270942
 30
0.0
 11
2031.532012
 21
107.270942
 31
0.0
  0
ARC
  5
1DF
  8
002
 62
     3
 10
2029.532012
 20
107.270942
 30
0.0
 40
0.9999666444436526
 50
279.991716
 51
80.009278
  0
LINE
  5
1E0
  8
002
 62
     3
 10
2030.732012
 20
100.270942
 30
0.0
 11
2057.332012
 21
100.270942
 31
0.0
  0
LINE
  5
1E1
  8
002
 62
     3
 10
2057.332012
 20
100.270942
 30
0.0
 11
2057.332012
 21
88.270942
 31
0.0
  0
LINE
  5
1E2
  8
002
 62
     3
 10
2057.332012
 20
88.270942
 30
0.0
 11
2030.732012
 21
88.270942
 31
0.0
  0
ARC
  5
1E3
  8
002
 62
     3
 10
2030.732012
 20
90.270942
 30
0.0
 40
2.0
 50
180.0
 51
270.0
  0
LINE
  5
1E4
  8
002
 62
     3
 10
2028.732012
 20
90.270942
 30
0.0
 11
2028.732012
 21
98.270942
 31
0.0
  0
ARC
  5
1E5
  8
002
 62
     3
 10
2030.732012
 20
98.270942
 30
0.0
 40
2.0
 50
90.0
 51
180.0
  0
CIRCLE
  5
1E6
  8
002
 62
     3
 10
2033.732012
 20
93.770942
 30
0.0
 40
1.0
  0
LINE
  5
1E7
  8
002
 62
     3
 10
2038.732012
 20
100.270942
 30
0.0
 11
2038.732012
 21
88.270942
 31
0.0
  0
LINE
  5
1E8
  8
002
 62
     3
 10
2039.332012
 20
88.270942
 30
0.0
 11
2039.332012
 21
86.270942
 31
0.0
  0
LINE
  5
1E9
  8
002
 62
     3
 10
2039.332012
 20
86.270942
 30
0.0
 11
2056.732012
 21
86.270942
 31
0.0
  0
LINE
  5
1EA
  8
002
 62
     3
 10
2056.732012
 20
86.270942
 30
0.0
 11
2056.732012
 21
88.270942
 31
0.0
  0
LINE
  5
1EB
  8
002
 62
     3
 10
2043.181312
 20
86.270942
 30
0.0
 11
2043.181312
 21
83.270942
 31
0.0
  0
LINE
  5
1EC
  8
002
 62
     3
 10
2042.031312
 20
83.270942
 30
0.0
 11
2042.031312
 21
71.270942
 31
0.0
  0
LINE
  5
1ED
  8
002
 62
     3
 10
2042.031312
 20
71.270942
 30
0.0
 11
2054.031312
 21
71.270942
 31
0.0
  0
LINE
  5
1EE
  8
002
 62
     3
 10
2054.031312
 20
71.270942
 30
0.0
 11
2054.031312
 21
83.270942
 31
0.0
  0
LINE
  5
1EF
  8
002
 62
     3
 10
2054.031312
 20
83.270942
 30
0.0
 11
2042.031312
 21
83.270942
 31
0.0
  0
LINE
  5
1F0
  8
002
 62
     3
 10
2052.881312
 20
83.270942
 30
0.0
 11
2052.881312
 21
86.270942
 31
0.0
  0
LINE
  5
1F1
  8
002
 62
     3
 10
2056.732012
 20
100.270942
 30
0.0
 11
2056.732012
 21
101.270942
 31
0.0
  0
LINE
  5
1F2
  8
002
 62
     3
 10
2039.332012
 20
101.270942
 30
0.0
 11
2039.332012
 21
100.270942
 31
0.0
  0
ARC
  5
1F3
  8
002
 62
     3
 10
2029.532012
 20
141.570942
 30
0.0
 40
1.0
 50
0.0
 51
80.009278
  0
CIRCLE
  5
1F4
  8
002
 62
     3
 10
2026.732012
 20
161.070942
 30
0.0
 40
1.0
  0
LINE
  5
1F5
  8
002
  6
CENTER
 62
    40
 10
2063.941912
 20
174.570942
 30
0.0
 11
2063.941912
 21
160.849342
 31
0.0
  0
LINE
  5
1F6
  8
002
  6
CENTER
 62
    40
 10
2026.732012
 20
157.563242
 30
0.0
 11
2026.732012
 21
164.323142
 31
0.0
  0
LINE
  5
1F7
  8
002
  6
CENTER
 62
    40
 10
2024.364212
 20
161.070942
 30
0.0
 11
2029.389312
 21
161.070942
 31
0.0
  0
LINE
  5
1F8
  8
002
  6
CENTER
 62
    40
 10
2032.122112
 20
160.849342
 30
0.0
 11
2032.122112
 21
174.570942
 31
0.0
  0
LINE
  5
1F9
  8
002
  6
CENTER
 62
    40
 10
2033.732012
 20
97.023142
 30
0.0
 11
2033.732012
 21
90.263242
 31
0.0
  0
LINE
  5
1FA
  8
002
  6
CENTER
 62
    40
 10
2031.364212
 20
93.770942
 30
0.0
 11
2036.389312
 21
93.770942
 31
0.0
  0
LINE
  5
1FB
  8
002
 62
    40
 10
2043.081312
 20
83.270942
 30
0.0
 11
2043.081312
 21
71.270942
 31
0.0
  0
LINE
  5
1FC
  8
002
 62
    40
 10
2052.981312
 20
71.270942
 30
0.0
 11
2052.981312
 21
83.270942
 31
0.0
  0
LINE
  5
1FD
  8
002
  6
PHANTOM
 62
    40
 10
2078.032012
 20
110.270942
 30
0.0
 11
2078.032012
 21
144.570942
 31
0.0
  0
LINE
  5
1FE
  8
002
  6
PHANTOM
 62
    40
 10
2065.532012
 20
141.583786
 30
0.0
 11
2065.532012
 21
113.270942
 31
0.0
  0
LINE
  5
1FF
  8
002
  6
PHANTOM
 62
    40
 10
2030.532012
 20
141.570942
 30
0.0
 11
2030.532012
 21
113.270942
 31
0.0
  0
LINE
  5
200
  8
002
  6
PHANTOM
 62
    40
 10
2018.032012
 20
110.270942
 30
0.0
 11
2018.032012
 21
144.570942
 31
0.0
  0
POLYLINE
  5
201
  8
002
 62
     3
 66
     1
 10
0.0
 20
0.0
 30
0.0
  0
VERTEX
  5
203
  8
002
 62
     3
 10
321.237199
 20
320.235842
 30
0.0
  0
VERTEX
  5
204
  8
002
 62
     3
 10
323.237187
 20
317.485842
 30
0.0
  0
VERTEX
  5
205
  8
002
 62
     3
 10
325.237174
 20
316.235842
 30
0.0
  0
VERTEX
  5
206
  8
002
 62
     3
 10
327.237162
 20
317.485842
 30
0.0
  0
VERTEX
  5
207
  8
002
 62
     3
 10
329.237149
 20
320.235842
 30
0.0
  0
VERTEX
  5
208
  8
002
 62
     3
 10
331.237137
 20
322.985842
 30
0.0
  0
VERTEX
  5
209
  8
002
 62
     3
 10
333.237124
 20
324.235842
 30
0.0
  0
VERTEX
  5
20A
  8
002
 62
     3
 10
335.237112
 20
322.985842
 30
0.0
  0
VERTEX
  5
20B
  8
002
 62
     3
 10
337.237099
 20
320.235842
 30
0.0
  0
SEQEND
  5
202
  8
002
 62
     3
  0
POLYLINE
  5
20C
  8
002
 62
     3
 66
     1
 10
0.0
 20
0.0
 30
0.0
  0
VERTEX
  5
20E
  8
002
 62
     3
 10
321.237199
 20
328.235842
 30
0.0
  0
VERTEX
  5
20F
  8
002
 62
     3
 10
323.237187
 20
325.485842
 30
0.0
  0
VERTEX
  5
210
  8
002
 62
     3
 10
325.237174
 20
324.235842
 30
0.0
  0
VERTEX
  5
211
  8
002
 62
     3
 10
327.237162
 20
325.485842
 30
0.0
  0
VERTEX
  5
212
  8
002
 62
     3
 10
329.237149
 20
328.235842
 30
0.0
  0
VERTEX
  5
213
  8
002
 62
     3
 10
331.237137
 20
330.985842
 30
0.0
  0
VERTEX
  5
214
  8
002
 62
     3
 10
333.237124
 20
332.235842
 30
0.0
  0
VERTEX
  5
215
  8
002
 62
     3
 10
335.237112
 20
330.985842
 30
0.0
  0
VERTEX
  5
216
  8
002
 62
     3
 10
337.237099
 20
328.235842
 30
0.0
  0
SEQEND
  5
20D
  8
002
 62
     3
  0
LINE
  5
217
  8
002
 62
     3
 10
337.237099
 20
366.900742
 30
0.0
 11
337.237099
 21
328.235842
 31
0.0
  0
LINE
  5
218
  8
002
 62
     3
 10
337.237099
 20
320.235842
 30
0.0
 11
337.237099
 21
281.570942
 31
0.0
  0
LINE
  5
219
  8
002
 62
     3
 10
321.237199
 20
281.570942
 30
0.0
 11
321.237199
 21
320.235842
 31
0.0
  0
LINE
  5
21A
  8
002
 62
     3
 10
321.237199
 20
328.235842
 30
0.0
 11
321.237199
 21
366.900742
 31
0.0
  0
LINE
  5
21B
  8
002
 62
    40
 10
336.087149
 20
281.570942
 30
0.0
 11
336.087149
 21
321.913256
 31
0.0
  0
LINE
  5
21C
  8
002
 62
    40
 10
336.087149
 20
329.913256
 30
0.0
 11
336.087149
 21
366.900742
 31
0.0
  0
LINE
  5
21D
  8
002
 62
    40
 10
322.387149
 20
366.900742
 30
0.0
 11
322.387149
 21
326.558429
 31
0.0
  0
LINE
  5
21E
  8
002
 62
    40
 10
322.387149
 20
318.558429
 30
0.0
 11
322.387149
 21
281.570942
 31
0.0
  0
POLYLINE
  5
21F
  8
002
 62
     3
 66
     1
 10
0.0
 20
0.0
 30
0.0
  0
VERTEX
  5
221
  8
002
 62
     3
 10
345.237499
 20
103.070942
 30
0.0
  0
VERTEX
  5
222
  8
002
 62
     3
 10
343.237499
 20
104.539692
 30
0.0
  0
VERTEX
  5
223
  8
002
 62
     3
 10
341.237499
 20
105.820942
 30
0.0
  0
VERTEX
  5
224
  8
002
 62
     3
 10
339.237499
 20
106.727192
 30
0.0
  0
VERTEX
  5
225
  8
002
 62
     3
 10
337.237499
 20
107.070942
 30
0.0
  0
VERTEX
  5
226
  8
002
 62
     3
 10
335.237499
 20
106.727192
 30
0.0
  0
VERTEX
  5
227
  8
002
 62
     3
 10
333.237499
 20
105.820942
 30
0.0
  0
VERTEX
  5
228
  8
002
 62
     3
 10
331.237499
 20
104.539692
 30
0.0
  0
VERTEX
  5
229
  8
002
 62
     3
 10
329.237499
 20
103.070942
 30
0.0
  0
VERTEX
  5
22A
  8
002
 62
     3
 10
327.237499
 20
101.602192
 30
0.0
  0
VERTEX
  5
22B
  8
002
 62
     3
 10
325.237499
 20
100.320942
 30
0.0
  0
VERTEX
  5
22C
  8
002
 62
     3
 10
323.237499
 20
99.414692
 30
0.0
  0
VERTEX
  5
22D
  8
002
 62
     3
 10
321.237499
 20
99.070942
 30
0.0
  0
VERTEX
  5
22E
  8
002
 62
     3
 10
319.237499
 20
99.414692
 30
0.0
  0
VERTEX
  5
22F
  8
002
 62
     3
 10
317.237499
 20
100.320942
 30
0.0
  0
VERTEX
  5
230
  8
002
 62
     3
 10
315.237499
 20
101.602192
 30
0.0
  0
VERTEX
  5
231
  8
002
 62
     3
 10
313.237499
 20
103.070942
 30
0.0
  0
SEQEND
  5
220
  8
002
 62
     3
  0
POLYLINE
  5
232
  8
002
 62
     3
 66
     1
 10
0.0
 20
0.0
 30
0.0
  0
VERTEX
  5
234
  8
002
 62
     3
 10
345.237499
 20
95.070942
 30
0.0
  0
VERTEX
  5
235
  8
002
 62
     3
 10
343.237499
 20
96.539692
 30
0.0
  0
VERTEX
  5
236
  8
002
 62
     3
 10
341.237499
 20
97.820942
 30
0.0
  0
VERTEX
  5
237
  8
002
 62
     3
 10
339.237499
 20
98.727192
 30
0.0
  0
VERTEX
  5
238
  8
002
 62
     3
 10
337.237499
 20
99.070942
 30
0.0
  0
VERTEX
  5
239
  8
002
 62
     3
 10
335.237499
 20
98.727192
 30
0.0
  0
VERTEX
  5
23A
  8
002
 62
     3
 10
333.237499
 20
97.820942
 30
0.0
  0
VERTEX
  5
23B
  8
002
 62
     3
 10
331.237499
 20
96.539692
 30
0.0
  0
VERTEX
  5
23C
  8
002
 62
     3
 10
329.237499
 20
95.070942
 30
0.0
  0
VERTEX
  5
23D
  8
002
 62
     3
 10
327.237499
 20
93.602192
 30
0.0
  0
VERTEX
  5
23E
  8
002
 62
     3
 10
325.237499
 20
92.320942
 30
0.0
  0
VERTEX
  5
23F
  8
002
 62
     3
 10
323.237499
 20
91.414692
 30
0.0
  0
VERTEX
  5
240
  8
002
 62
     3
 10
321.237499
 20
91.070942
 30
0.0
  0
VERTEX
  5
241
  8
002
 62
     3
 10
319.237499
 20
91.414692
 30
0.0
  0
VERTEX
  5
242
  8
002
 62
     3
 10
317.237499
 20
92.320942
 30
0.0
  0
VERTEX
  5
243
  8
002
 62
     3
 10
315.237499
 20
93.602192
 30
0.0
  0
VERTEX
  5
244
  8
002
 62
     3
 10
313.237499
 20
95.070942
 30
0.0
  0
SEQEND
  5
233
  8
002
 62
     3
  0
LINE
  5
245
  8
002
 62
     3
 10
345.237499
 20
71.570942
 30
0.0
 11
345.237499
 21
95.070942
 31
0.0
  0
LINE
  5
246
  8
002
 62
     3
 10
345.237499
 20
103.070942
 30
0.0
 11
345.237499
 21
126.570942
 31
0.0
  0
LINE
  5
247
  8
002
 62
     3
 10
313.237499
 20
126.570942
 30
0.0
 11
313.237499
 21
103.070942
 31
0.0
  0
LINE
  5
248
  8
002
 62
     3
 10
313.237499
 20
95.070942
 30
0.0
 11
313.237499
 21
71.570942
 31
0.0
  0
POLYLINE
  5
249
  8
002
 62
     3
 66
     1
 10
0.0
 20
0.0
 30
0.0
  0
VERTEX
  5
24B
  8
002
 62
     3
 10
803.483136
 20
95.070942
 30
0.0
  0
VERTEX
  5
24C
  8
002
 62
     3
 10
805.483136
 20
93.602192
 30
0.0
  0
VERTEX
  5
24D
  8
002
 62
     3
 10
807.483136
 20
92.320942
 30
0.0
  0
VERTEX
  5
24E
  8
002
 62
     3
 10
809.483136
 20
91.414692
 30
0.0
  0
VERTEX
  5
24F
  8
002
 62
     3
 10
811.483136
 20
91.070942
 30
0.0
  0
VERTEX
  5
250
  8
002
 62
     3
 10
813.483136
 20
91.414692
 30
0.0
  0
VERTEX
  5
251
  8
002
 62
     3
 10
815.483136
 20
92.320942
 30
0.0
  0
VERTEX
  5
252
  8
002
 62
     3
 10
817.483136
 20
93.602192
 30
0.0
  0
VERTEX
  5
253
  8
002
 62
     3
 10
819.483136
 20
95.070942
 30
0.0
  0
VERTEX
  5
254
  8
002
 62
     3
 10
821.483136
 20
96.539692
 30
0.0
  0
VERTEX
  5
255
  8
002
 62
     3
 10
823.483136
 20
97.820942
 30
0.0
  0
VERTEX
  5
256
  8
002
 62
     3
 10
825.483136
 20
98.727192
 30
0.0
  0
VERTEX
  5
257
  8
002
 62
     3
 10
827.483136
 20
99.070942
 30
0.0
  0
VERTEX
  5
258
  8
002
 62
     3
 10
829.483136
 20
98.727192
 30
0.0
  0
VERTEX
  5
259
  8
002
 62
     3
 10
831.483136
 20
97.820942
 30
0.0
  0
VERTEX
  5
25A
  8
002
 62
     3
 10
833.483136
 20
96.539692
 30
0.0
  0
VERTEX
  5
25B
  8
002
 62
     3
 10
835.483136
 20
95.070942
 30
0.0
  0
SEQEND
  5
24A
  8
002
 62
     3
  0
POLYLINE
  5
25C
  8
002
 62
     3
 66
     1
 10
0.0
 20
0.0
 30
0.0
  0
VERTEX
  5
25E
  8
002
 62
     3
 10
803.483136
 20
103.070942
 30
0.0
  0
VERTEX
  5
25F
  8
002
 62
     3
 10
805.483136
 20
101.602192
 30
0.0
  0
VERTEX
  5
260
  8
002
 62
     3
 10
807.483136
 20
100.320942
 30
0.0
  0
VERTEX
  5
261
  8
002
 62
     3
 10
809.483136
 20
99.414692
 30
0.0
  0
VERTEX
  5
262
  8
002
 62
     3
 10
811.483136
 20
99.070942
 30
0.0
  0
VERTEX
  5
263
  8
002
 62
     3
 10
813.483136
 20
99.414692
 30
0.0
  0
VERTEX
  5
264
  8
002
 62
     3
 10
815.483136
 20
100.320942
 30
0.0
  0
VERTEX
  5
265
  8
002
 62
     3
 10
817.483136
 20
101.602192
 30
0.0
  0
VERTEX
  5
266
  8
002
 62
     3
 10
819.483136
 20
103.070942
 30
0.0
  0
VERTEX
  5
267
  8
002
 62
     3
 10
821.483136
 20
104.539692
 30
0.0
  0
VERTEX
  5
268
  8
002
 62
     3
 10
823.483136
 20
105.820942
 30
0.0
  0
VERTEX
  5
269
  8
002
 62
     3
 10
825.483136
 20
106.727192
 30
0.0
  0
VERTEX
  5
26A
  8
002
 62
     3
 10
827.483136
 20
107.070942
 30
0.0
  0
VERTEX
  5
26B
  8
002
 62
     3
 10
829.483136
 20
106.727192
 30
0.0
  0
VERTEX
  5
26C
  8
002
 62
     3
 10
831.483136
 20
105.820942
 30
0.0
  0
VERTEX
  5
26D
  8
002
 62
     3
 10
833.483136
 20
104.539692
 30
0.0
  0
VERTEX
  5
26E
  8
002
 62
     3
 10
835.483136
 20
103.070942
 30
0.0
  0
SEQEND
  5
25D
  8
002
 62
     3
  0
LINE
  5
26F
  8
002
 62
     3
 10
835.483136
 20
71.570942
 30
0.0
 11
835.483136
 21
95.070942
 31
0.0
  0
LINE
  5
270
  8
002
 62
     3
 10
835.483136
 20
103.070942
 30
0.0
 11
835.483136
 21
126.570942
 31
0.0
  0
LINE
  5
271
  8
002
 62
     3
 10
803.483136
 20
126.570942
 30
0.0
 11
803.483136
 21
103.070942
 31
0.0
  0
LINE
  5
272
  8
002
 62
     3
 10
803.483136
 20
95.070942
 30
0.0
 11
803.483136
 21
71.570942
 31
0.0
  0
POLYLINE
  5
273
  8
002
 62
     3
 66
     1
 10
0.0
 20
0.0
 30
0.0
  0
VERTEX
  5
275
  8
002
 62
     3
 10
1502.427012
 20
350.070942
 30
0.0
  0
VERTEX
  5
276
  8
002
 62
     3
 10
1504.427012
 20
348.602192
 30
0.0
  0
VERTEX
  5
277
  8
002
 62
     3
 10
1506.427012
 20
347.320942
 30
0.0
  0
VERTEX
  5
278
  8
002
 62
     3
 10
1508.427012
 20
346.414692
 30
0.0
  0
VERTEX
  5
279
  8
002
 62
     3
 10
1510.427012
 20
346.070942
 30
0.0
  0
VERTEX
  5
27A
  8
002
 62
     3
 10
1512.427012
 20
346.414692
 30
0.0
  0
VERTEX
  5
27B
  8
002
 62
     3
 10
1514.427012
 20
347.320942
 30
0.0
  0
VERTEX
  5
27C
  8
002
 62
     3
 10
1516.427012
 20
348.602192
 30
0.0
  0
VERTEX
  5
27D
  8
002
 62
     3
 10
1518.427012
 20
350.070942
 30
0.0
  0
VERTEX
  5
27E
  8
002
 62
     3
 10
1520.427012
 20
351.539692
 30
0.0
  0
VERTEX
  5
27F
  8
002
 62
     3
 10
1522.427012
 20
352.820942
 30
0.0
  0
VERTEX
  5
280
  8
002
 62
     3
 10
1524.427012
 20
353.727192
 30
0.0
  0
VERTEX
  5
281
  8
002
 62
     3
 10
1526.427012
 20
354.070942
 30
0.0
  0
VERTEX
  5
282
  8
002
 62
     3
 10
1528.427012
 20
353.727192
 30
0.0
  0
VERTEX
  5
283
  8
002
 62
     3
 10
1530.427012
 20
352.820942
 30
0.0
  0
VERTEX
  5
284
  8
002
 62
     3
 10
1532.427012
 20
351.539692
 30
0.0
  0
VERTEX
  5
285
  8
002
 62
     3
 10
1534.427012
 20
350.070942
 30
0.0
  0
SEQEND
  5
274
  8
002
 62
     3
  0
POLYLINE
  5
286
  8
002
 62
     3
 66
     1
 10
0.0
 20
0.0
 30
0.0
  0
VERTEX
  5
288
  8
002
 62
     3
 10
1502.427012
 20
358.070942
 30
0.0
  0
VERTEX
  5
289
  8
002
 62
     3
 10
1504.427012
 20
356.602192
 30
0.0
  0
VERTEX
  5
28A
  8
002
 62
     3
 10
1506.427012
 20
355.320942
 30
0.0
  0
VERTEX
  5
28B
  8
002
 62
     3
 10
1508.427012
 20
354.414692
 30
0.0
  0
VERTEX
  5
28C
  8
002
 62
     3
 10
1510.427012
 20
354.070942
 30
0.0
  0
VERTEX
  5
28D
  8
002
 62
     3
 10
1512.427012
 20
354.414692
 30
0.0
  0
VERTEX
  5
28E
  8
002
 62
     3
 10
1514.427012
 20
355.320942
 30
0.0
  0
VERTEX
  5
28F
  8
002
 62
     3
 10
1516.427012
 20
356.602192
 30
0.0
  0
VERTEX
  5
290
  8
002
 62
     3
 10
1518.427012
 20
358.070942
 30
0.0
  0
VERTEX
  5
291
  8
002
 62
     3
 10
1520.427012
 20
359.539692
 30
0.0
  0
VERTEX
  5
292
  8
002
 62
     3
 10
1522.427012
 20
360.820942
 30
0.0
  0
VERTEX
  5
293
  8
002
 62
     3
 10
1524.427012
 20
361.727192
 30
0.0
  0
VERTEX
  5
294
  8
002
 62
     3
 10
1526.427012
 20
362.070942
 30
0.0
  0
VERTEX
  5
295
  8
002
 62
     3
 10
1528.427012
 20
361.727192
 30
0.0
  0
VERTEX
  5
296
  8
002
 62
     3
 10
1530.427012
 20
360.820942
 30
0.0
  0
VERTEX
  5
297
  8
002
 62
     3
 10
1532.427012
 20
359.539692
 30
0.0
  0
VERTEX
  5
298
  8
002
 62
     3
 10
1534.427012
 20
358.070942
 30
0.0
  0
SEQEND
  5
287
  8
002
 62
     3
  0
LINE
  5
299
  8
002
 62
     3
 10
1502.427012
 20
381.570942
 30
0.0
 11
1502.427012
 21
358.070942
 31
0.0
  0
LINE
  5
29A
  8
002
 62
     3
 10
1502.427012
 20
350.070942
 30
0.0
 11
1502.427012
 21
326.570942
 31
0.0
  0
LINE
  5
29B
  8
002
 62
     3
 10
1534.427012
 20
326.570942
 30
0.0
 11
1534.427012
 21
350.070942
 31
0.0
  0
LINE
  5
29C
  8
002
 62
     3
 10
1534.427012
 20
358.070942
 30
0.0
 11
1534.427012
 21
381.570942
 31
0.0
  0
POLYLINE
  5
29D
  8
002
 62
     3
 66
     1
 10
0.0
 20
0.0
 30
0.0
  0
VERTEX
  5
29F
  8
002
 62
     3
 10
1526.427012
 20
132.906042
 30
0.0
  0
VERTEX
  5
2A0
  8
002
 62
     3
 10
1524.427012
 20
135.656042
 30
0.0
  0
VERTEX
  5
2A1
  8
002
 62
     3
 10
1522.427012
 20
136.906042
 30
0.0
  0
VERTEX
  5
2A2
  8
002
 62
     3
 10
1520.427012
 20
135.656042
 30
0.0
  0
VERTEX
  5
2A3
  8
002
 62
     3
 10
1518.427012
 20
132.906042
 30
0.0
  0
VERTEX
  5
2A4
  8
002
 62
     3
 10
1516.427012
 20
130.156042
 30
0.0
  0
VERTEX
  5
2A5
  8
002
 62
     3
 10
1514.427012
 20
128.906042
 30
0.0
  0
VERTEX
  5
2A6
  8
002
 62
     3
 10
1512.427012
 20
130.156042
 30
0.0
  0
VERTEX
  5
2A7
  8
002
 62
     3
 10
1510.427012
 20
132.906042
 30
0.0
  0
SEQEND
  5
29E
  8
002
 62
     3
  0
POLYLINE
  5
2A8
  8
002
 62
     3
 66
     1
 10
0.0
 20
0.0
 30
0.0
  0
VERTEX
  5
2AA
  8
002
 62
     3
 10
1526.427012
 20
124.906042
 30
0.0
  0
VERTEX
  5
2AB
  8
002
 62
     3
 10
1524.427012
 20
127.656042
 30
0.0
  0
VERTEX
  5
2AC
  8
002
 62
     3
 10
1522.427012
 20
128.906042
 30
0.0
  0
VERTEX
  5
2AD
  8
002
 62
     3
 10
1520.427012
 20
127.656042
 30
0.0
  0
VERTEX
  5
2AE
  8
002
 62
     3
 10
1518.427012
 20
124.906042
 30
0.0
  0
VERTEX
  5
2AF
  8
002
 62
     3
 10
1516.427012
 20
122.156042
 30
0.0
  0
VERTEX
  5
2B0
  8
002
 62
     3
 10
1514.427012
 20
120.906042
 30
0.0
  0
VERTEX
  5
2B1
  8
002
 62
     3
 10
1512.427012
 20
122.156042
 30
0.0
  0
VERTEX
  5
2B2
  8
002
 62
     3
 10
1510.427012
 20
124.906042
 30
0.0
  0
SEQEND
  5
2A9
  8
002
 62
     3
  0
LINE
  5
2B3
  8
002
 62
     3
 10
1526.427012
 20
171.570942
 30
0.0
 11
1526.427012
 21
132.906042
 31
0.0
  0
LINE
  5
2B4
  8
002
 62
     3
 10
1526.427012
 20
124.906042
 30
0.0
 11
1526.427012
 21
86.241142
 31
0.0
  0
LINE
  5
2B5
  8
002
 62
     3
 10
1510.427012
 20
86.241142
 30
0.0
 11
1510.427012
 21
124.906042
 31
0.0
  0
LINE
  5
2B6
  8
002
 62
     3
 10
1510.427012
 20
132.906042
 30
0.0
 11
1510.427012
 21
171.570942
 31
0.0
  0
LINE
  5
2B7
  8
002
 62
    40
 10
1525.277012
 20
86.241142
 30
0.0
 11
1525.277012
 21
126.583515
 31
0.0
  0
LINE
  5
2B8
  8
002
 62
    40
 10
1525.277012
 20
134.583515
 30
0.0
 11
1525.277012
 21
171.570942
 31
0.0
  0
LINE
  5
2B9
  8
002
 62
    40
 10
1511.577012
 20
171.570942
 30
0.0
 11
1511.577012
 21
131.22857
 31
0.0
  0
LINE
  5
2BA
  8
002
 62
    40
 10
1511.577012
 20
123.22857
 30
0.0
 11
1511.577012
 21
86.241142
 31
0.0
  0
POLYLINE
  5
2BB
  8
002
 62
     3
 66
     1
 10
0.0
 20
0.0
 30
0.0
  0
VERTEX
  5
2BD
  8
002
 62
     3
 10
2032.032012
 20
350.070942
 30
0.0
  0
VERTEX
  5
2BE
  8
002
 62
     3
 10
2034.032012
 20
348.602192
 30
0.0
  0
VERTEX
  5
2BF
  8
002
 62
     3
 10
2036.032012
 20
347.320942
 30
0.0
  0
VERTEX
  5
2C0
  8
002
 62
     3
 10
2038.032012
 20
346.414692
 30
0.0
  0
VERTEX
  5
2C1
  8
002
 62
     3
 10
2040.032012
 20
346.070942
 30
0.0
  0
VERTEX
  5
2C2
  8
002
 62
     3
 10
2042.032012
 20
346.414692
 30
0.0
  0
VERTEX
  5
2C3
  8
002
 62
     3
 10
2044.032012
 20
347.320942
 30
0.0
  0
VERTEX
  5
2C4
  8
002
 62
     3
 10
2046.032012
 20
348.602192
 30
0.0
  0
VERTEX
  5
2C5
  8
002
 62
     3
 10
2048.032012
 20
350.070942
 30
0.0
  0
VERTEX
  5
2C6
  8
002
 62
     3
 10
2050.032012
 20
351.539692
 30
0.0
  0
VERTEX
  5
2C7
  8
002
 62
     3
 10
2052.032012
 20
352.820942
 30
0.0
  0
VERTEX
  5
2C8
  8
002
 62
     3
 10
2054.032012
 20
353.727192
 30
0.0
  0
VERTEX
  5
2C9
  8
002
 62
     3
 10
2056.032012
 20
354.070942
 30
0.0
  0
VERTEX
  5
2CA
  8
002
 62
     3
 10
2058.032012
 20
353.727192
 30
0.0
  0
VERTEX
  5
2CB
  8
002
 62
     3
 10
2060.032012
 20
352.820942
 30
0.0
  0
VERTEX
  5
2CC
  8
002
 62
     3
 10
2062.032012
 20
351.539692
 30
0.0
  0
VERTEX
  5
2CD
  8
002
 62
     3
 10
2064.032012
 20
350.070942
 30
0.0
  0
SEQEND
  5
2BC
  8
002
 62
     3
  0
POLYLINE
  5
2CE
  8
002
 62
     3
 66
     1
 10
0.0
 20
0.0
 30
0.0
  0
VERTEX
  5
2D0
  8
002
 62
     3
 10
2032.032012
 20
358.070942
 30
0.0
  0
VERTEX
  5
2D1
  8
002
 62
     3
 10
2034.032012
 20
356.602192
 30
0.0
  0
VERTEX
  5
2D2
  8
002
 62
     3
 10
2036.032012
 20
355.320942
 30
0.0
  0
VERTEX
  5
2D3
  8
002
 62
     3
 10
2038.032012
 20
354.414692
 30
0.0
  0
VERTEX
  5
2D4
  8
002
 62
     3
 10
2040.032012
 20
354.070942
 30
0.0
  0
VERTEX
  5
2D5
  8
002
 62
     3
 10
2042.032012
 20
354.414692
 30
0.0
  0
VERTEX
  5
2D6
  8
002
 62
     3
 10
2044.032012
 20
355.320942
 30
0.0
  0
VERTEX
  5
2D7
  8
002
 62
     3
 10
2046.032012
 20
356.602192
 30
0.0
  0
VERTEX
  5
2D8
  8
002
 62
     3
 10
2048.032012
 20
358.070942
 30
0.0
  0
VERTEX
  5
2D9
  8
002
 62
     3
 10
2050.032012
 20
359.539692
 30
0.0
  0
VERTEX
  5
2DA
  8
002
 62
     3
 10
2052.032012
 20
360.820942
 30
0.0
  0
VERTEX
  5
2DB
  8
002
 62
     3
 10
2054.032012
 20
361.727192
 30
0.0
  0
VERTEX
  5
2DC
  8
002
 62
     3
 10
2056.032012
 20
362.070942
 30
0.0
  0
VERTEX
  5
2DD
  8
002
 62
     3
 10
2058.032012
 20
361.727192
 30
0.0
  0
VERTEX
  5
2DE
  8
002
 62
     3
 10
2060.032012
 20
360.820942
 30
0.0
  0
VERTEX
  5
2DF
  8
002
 62
     3
 10
2062.032012
 20
359.539692
 30
0.0
  0
VERTEX
  5
2E0
  8
002
 62
     3
 10
2064.032012
 20
358.070942
 30
0.0
  0
SEQEND
  5
2CF
  8
002
 62
     3
  0
LINE
  5
2E1
  8
002
 62
     3
 10
2032.032012
 20
381.570942
 30
0.0
 11
2032.032012
 21
358.070942
 31
0.0
  0
LINE
  5
2E2
  8
002
 62
     3
 10
2032.032012
 20
350.070942
 30
0.0
 11
2032.032012
 21
326.570942
 31
0.0
  0
LINE
  5
2E3
  8
002
 62
     3
 10
2064.032012
 20
326.570942
 30
0.0
 11
2064.032012
 21
350.070942
 31
0.0
  0
LINE
  5
2E4
  8
002
 62
     3
 10
2064.032012
 20
358.070942
 30
0.0
 11
2064.032012
 21
381.570942
 31
0.0
  0
LINE
  5
2E5
  8
002
  6
CENTER
 62
    40
 10
329.237499
 20
38.527901
 30
0.0
 11
329.237499
 21
389.960016
 31
0.0
  0
LINE
  5
2E6
  8
002
  6
CENTER
 62
    40
 10
819.483136
 20
38.527901
 30
0.0
 11
819.483136
 21
389.265342
 31
0.0
  0
LINE
  5
2E7
  8
002
  6
CENTER
 62
    40
 10
1518.427012
 20
408.47458
 30
0.0
 11
1518.427012
 21
60.160907
 31
0.0
  0
LINE
  5
2E8
  8
002
  6
CENTER
 62
    40
 10
2048.032012
 20
408.47458
 30
0.0
 11
2048.032012
 21
60.160907
 31
0.0
  0
LINE
  5
2E9
  8
002
  6
CENTER
 62
    40
 10
435.060199
 20
201.570942
 30
0.0
 11
592.05228
 21
201.570942
 31
0.0
  0
LINE
  5
2EA
  8
003
  6
CENTER
 62
    40
 10
88.428439
 20
201.570942
 30
0.0
 11
245.455799
 21
201.570942
 31
0.0
  0
LINE
  5
2EB
  8
002
 62
     3
 10
146.040499
 20
126.570942
 30
0.0
 11
145.487499
 21
164.614642
 31
0.0
  0
ARC
  5
2EC
  8
002
 62
     3
 10
142.487499
 20
164.570942
 30
0.0
 40
3.0
 50
0.834549
 51
90.0
  0
LINE
  5
2ED
  8
002
 62
     3
 10
145.880499
 20
167.570942
 30
0.0
 11
145.880499
 21
162.570942
 31
0.0
  0
LINE
  5
2EE
  8
002
 62
     3
 10
154.380499
 20
162.570942
 30
0.0
 11
145.880499
 21
162.570942
 31
0.0
  0
LINE
  5
2EF
  8
002
 62
     3
 10
154.380499
 20
162.570942
 30
0.0
 11
154.380499
 21
167.570942
 31
0.0
  0
LINE
  5
2F0
  8
002
 62
     3
 10
193.540599
 20
167.570942
 30
0.0
 11
138.540499
 21
167.570942
 31
0.0
  0
LINE
  5
2F1
  8
002
 62
     3
 10
138.540499
 20
167.570942
 30
0.0
 11
138.540499
 21
171.570942
 31
0.0
  0
ARC
  5
2F2
  8
002
 62
     3
 10
189.593699
 20
164.570942
 30
0.0
 40
3.000018296610834
 50
90.0
 51
179.165367
  0
LINE
  5
2F3
  8
002
 62
     3
 10
186.593999
 20
164.614642
 30
0.0
 11
186.040599
 21
126.570942
 31
0.0
  0
LINE
  5
2F4
  8
002
 62
     3
 10
177.700499
 20
162.570942
 30
0.0
 11
186.200499
 21
162.570942
 31
0.0
  0
LINE
  5
2F5
  8
002
 62
     3
 10
186.200499
 20
162.570942
 30
0.0
 11
186.200499
 21
167.570942
 31
0.0
  0
LINE
  5
2F6
  8
002
 62
     3
 10
177.700499
 20
162.570942
 30
0.0
 11
177.700499
 21
167.570942
 31
0.0
  0
LINE
  5
2F7
  8
002
  6
CENTER
 62
    40
 10
181.950499
 20
160.084183
 30
0.0
 11
181.950499
 21
173.570942
 31
0.0
  0
LINE
  5
2F8
  8
002
  6
CENTER
 62
    40
 10
150.130499
 20
173.570942
 30
0.0
 11
150.130499
 21
160.398514
 31
0.0
  0
LINE
  5
2F9
  8
002
 62
     3
 10
193.540599
 20
171.570942
 30
0.0
 11
193.540599
 21
167.570942
 31
0.0
  0
LINE
  5
2FA
  8
002
 62
     3
 10
494.21362
 20
126.570942
 30
0.0
 11
493.66062
 21
164.614642
 31
0.0
  0
ARC
  5
2FB
  8
002
 62
     3
 10
490.66062
 20
164.570942
 30
0.0
 40
3.0
 50
0.834549
 51
90.0
  0
LINE
  5
2FC
  8
002
 62
     3
 10
494.05362
 20
167.570942
 30
0.0
 11
494.05362
 21
162.570942
 31
0.0
  0
LINE
  5
2FD
  8
002
 62
     3
 10
502.55362
 20
162.570942
 30
0.0
 11
494.05362
 21
162.570942
 31
0.0
  0
LINE
  5
2FE
  8
002
 62
     3
 10
502.55362
 20
162.570942
 30
0.0
 11
502.55362
 21
167.570942
 31
0.0
  0
LINE
  5
2FF
  8
002
 62
     3
 10
541.71372
 20
167.570942
 30
0.0
 11
486.71362
 21
167.570942
 31
0.0
  0
LINE
  5
300
  8
002
 62
     3
 10
486.71362
 20
167.570942
 30
0.0
 11
486.71362
 21
171.570942
 31
0.0
  0
ARC
  5
301
  8
002
 62
     3
 10
537.76682
 20
164.570942
 30
0.0
 40
3.000018296610834
 50
90.0
 51
179.165367
  0
LINE
  5
302
  8
002
 62
     3
 10
534.76712
 20
164.614642
 30
0.0
 11
534.21372
 21
126.570942
 31
0.0
  0
LINE
  5
303
  8
002
 62
     3
 10
525.87362
 20
162.570942
 30
0.0
 11
534.37362
 21
162.570942
 31
0.0
  0
LINE
  5
304
  8
002
 62
     3
 10
534.37362
 20
162.570942
 30
0.0
 11
534.37362
 21
167.570942
 31
0.0
  0
LINE
  5
305
  8
002
 62
     3
 10
525.87362
 20
162.570942
 30
0.0
 11
525.87362
 21
167.570942
 31
0.0
  0
LINE
  5
306
  8
002
  6
CENTER
 62
    40
 10
530.12362
 20
160.084183
 30
0.0
 11
530.12362
 21
173.570942
 31
0.0
  0
LINE
  5
307
  8
002
  6
CENTER
 62
    40
 10
498.30362
 20
173.570942
 30
0.0
 11
498.30362
 21
160.398514
 31
0.0
  0
LINE
  5
308
  8
002
 62
     3
 10
541.71372
 20
171.570942
 30
0.0
 11
541.71372
 21
167.570942
 31
0.0
  0
LINE
  5
309
  8
002
 62
     3
 10
146.040499
 20
126.570942
 30
0.0
 11
186.040499
 21
126.570942
 31
0.0
  0
LINE
  5
30A
  8
002
 62
     3
 10
172.039799
 20
381.900742
 30
0.0
 11
160.039799
 21
381.900742
 31
0.0
  0
LINE
  5
30B
  8
002
 62
     3
 10
160.039799
 20
381.900742
 30
0.0
 11
160.039799
 21
369.900742
 31
0.0
  0
LINE
  5
30C
  8
002
 62
     3
 10
160.039799
 20
369.900742
 30
0.0
 11
172.039799
 21
369.900742
 31
0.0
  0
LINE
  5
30D
  8
002
 62
     3
 10
172.039799
 20
369.900742
 30
0.0
 11
172.039799
 21
381.900742
 31
0.0
  0
LINE
  5
30E
  8
002
 62
     3
 10
170.889799
 20
369.900742
 30
0.0
 11
170.889799
 21
366.900742
 31
0.0
  0
LINE
  5
30F
  8
002
 62
     3
 10
158.040199
 20
366.900742
 30
0.0
 11
174.040099
 21
366.900742
 31
0.0
  0
LINE
  5
310
  8
002
 62
     3
 10
161.189799
 20
366.900742
 30
0.0
 11
161.189799
 21
369.900742
 31
0.0
  0
LINE
  5
311
  8
002
 62
    40
 10
161.089799
 20
381.900742
 30
0.0
 11
161.089799
 21
369.900742
 31
0.0
  0
LINE
  5
312
  8
002
 62
    40
 10
170.989799
 20
369.900742
 30
0.0
 11
170.989799
 21
381.900742
 31
0.0
  0
LINE
  5
313
  8
002
 62
     3
 10
148.040499
 20
71.570942
 30
0.0
 11
184.040499
 21
71.570942
 31
0.0
  0
LINE
  5
314
  8
002
 62
     3
 10
184.040499
 20
71.570942
 30
0.0
 11
184.040499
 21
54.570942
 31
0.0
  0
LINE
  5
315
  8
002
 62
     3
 10
181.040499
 20
51.570942
 30
0.0
 11
151.040499
 21
51.570942
 31
0.0
  0
LINE
  5
316
  8
002
 62
     3
 10
148.040499
 20
54.570942
 30
0.0
 11
148.040499
 21
71.570942
 31
0.0
  0
ARC
  5
317
  8
002
 62
     3
 10
151.040499
 20
54.570942
 30
0.0
 40
3.0
 50
180.0
 51
270.0
  0
ARC
  5
318
  8
002
 62
     3
 10
181.040499
 20
54.570942
 30
0.0
 40
3.0
 50
270.0
 51
0.0
  0
POLYLINE
  5
319
  8
002
 62
     3
 66
     1
 10
0.0
 20
0.0
 30
0.0
  0
VERTEX
  5
31B
  8
002
 62
     3
 10
158.040199
 20
320.235842
 30
0.0
  0
VERTEX
  5
31C
  8
002
 62
     3
 10
160.040187
 20
317.485842
 30
0.0
  0
VERTEX
  5
31D
  8
002
 62
     3
 10
162.040174
 20
316.235842
 30
0.0
  0
VERTEX
  5
31E
  8
002
 62
     3
 10
164.040162
 20
317.485842
 30
0.0
  0
VERTEX
  5
31F
  8
002
 62
     3
 10
166.040149
 20
320.235842
 30
0.0
  0
VERTEX
  5
320
  8
002
 62
     3
 10
168.040137
 20
322.985842
 30
0.0
  0
VERTEX
  5
321
  8
002
 62
     3
 10
170.040124
 20
324.235842
 30
0.0
  0
VERTEX
  5
322
  8
002
 62
     3
 10
172.040112
 20
322.985842
 30
0.0
  0
VERTEX
  5
323
  8
002
 62
     3
 10
174.040099
 20
320.235842
 30
0.0
  0
SEQEND
  5
31A
  8
002
 62
     3
  0
POLYLINE
  5
324
  8
002
 62
     3
 66
     1
 10
0.0
 20
0.0
 30
0.0
  0
VERTEX
  5
326
  8
002
 62
     3
 10
158.040199
 20
328.235842
 30
0.0
  0
VERTEX
  5
327
  8
002
 62
     3
 10
160.040187
 20
325.485842
 30
0.0
  0
VERTEX
  5
328
  8
002
 62
     3
 10
162.040174
 20
324.235842
 30
0.0
  0
VERTEX
  5
329
  8
002
 62
     3
 10
164.040162
 20
325.485842
 30
0.0
  0
VERTEX
  5
32A
  8
002
 62
     3
 10
166.040149
 20
328.235842
 30
0.0
  0
VERTEX
  5
32B
  8
002
 62
     3
 10
168.040137
 20
330.985842
 30
0.0
  0
VERTEX
  5
32C
  8
002
 62
     3
 10
170.040124
 20
332.235842
 30
0.0
  0
VERTEX
  5
32D
  8
002
 62
     3
 10
172.040112
 20
330.985842
 30
0.0
  0
VERTEX
  5
32E
  8
002
 62
     3
 10
174.040099
 20
328.235842
 30
0.0
  0
SEQEND
  5
325
  8
002
 62
     3
  0
LINE
  5
32F
  8
002
 62
     3
 10
174.040099
 20
366.900742
 30
0.0
 11
174.040099
 21
328.235842
 31
0.0
  0
LINE
  5
330
  8
002
 62
     3
 10
174.040099
 20
320.235842
 30
0.0
 11
174.040099
 21
281.570942
 31
0.0
  0
LINE
  5
331
  8
002
 62
     3
 10
158.040199
 20
281.570942
 30
0.0
 11
158.040199
 21
320.235842
 31
0.0
  0
LINE
  5
332
  8
002
 62
     3
 10
158.040199
 20
328.235842
 30
0.0
 11
158.040199
 21
366.900742
 31
0.0
  0
LINE
  5
333
  8
002
 62
    40
 10
172.890149
 20
281.570942
 30
0.0
 11
172.890149
 21
321.913256
 31
0.0
  0
LINE
  5
334
  8
002
 62
    40
 10
172.890149
 20
329.913256
 30
0.0
 11
172.890149
 21
366.900742
 31
0.0
  0
LINE
  5
335
  8
002
 62
    40
 10
159.190149
 20
366.900742
 30
0.0
 11
159.190149
 21
326.558429
 31
0.0
  0
LINE
  5
336
  8
002
 62
    40
 10
159.190149
 20
318.558429
 30
0.0
 11
159.190149
 21
281.570942
 31
0.0
  0
POLYLINE
  5
337
  8
002
 62
     3
 66
     1
 10
0.0
 20
0.0
 30
0.0
  0
VERTEX
  5
339
  8
002
 62
     3
 10
182.040499
 20
103.070942
 30
0.0
  0
VERTEX
  5
33A
  8
002
 62
     3
 10
180.040499
 20
104.539692
 30
0.0
  0
VERTEX
  5
33B
  8
002
 62
     3
 10
178.040499
 20
105.820942
 30
0.0
  0
VERTEX
  5
33C
  8
002
 62
     3
 10
176.040499
 20
106.727192
 30
0.0
  0
VERTEX
  5
33D
  8
002
 62
     3
 10
174.040499
 20
107.070942
 30
0.0
  0
VERTEX
  5
33E
  8
002
 62
     3
 10
172.040499
 20
106.727192
 30
0.0
  0
VERTEX
  5
33F
  8
002
 62
     3
 10
170.040499
 20
105.820942
 30
0.0
  0
VERTEX
  5
340
  8
002
 62
     3
 10
168.040499
 20
104.539692
 30
0.0
  0
VERTEX
  5
341
  8
002
 62
     3
 10
166.040499
 20
103.070942
 30
0.0
  0
VERTEX
  5
342
  8
002
 62
     3
 10
164.040499
 20
101.602192
 30
0.0
  0
VERTEX
  5
343
  8
002
 62
     3
 10
162.040499
 20
100.320942
 30
0.0
  0
VERTEX
  5
344
  8
002
 62
     3
 10
160.040499
 20
99.414692
 30
0.0
  0
VERTEX
  5
345
  8
002
 62
     3
 10
158.040499
 20
99.070942
 30
0.0
  0
VERTEX
  5
346
  8
002
 62
     3
 10
156.040499
 20
99.414692
 30
0.0
  0
VERTEX
  5
347
  8
002
 62
     3
 10
154.040499
 20
100.320942
 30
0.0
  0
VERTEX
  5
348
  8
002
 62
     3
 10
152.040499
 20
101.602192
 30
0.0
  0
VERTEX
  5
349
  8
002
 62
     3
 10
150.040499
 20
103.070942
 30
0.0
  0
SEQEND
  5
338
  8
002
 62
     3
  0
POLYLINE
  5
34A
  8
002
 62
     3
 66
     1
 10
0.0
 20
0.0
 30
0.0
  0
VERTEX
  5
34C
  8
002
 62
     3
 10
182.040499
 20
95.070942
 30
0.0
  0
VERTEX
  5
34D
  8
002
 62
     3
 10
180.040499
 20
96.539692
 30
0.0
  0
VERTEX
  5
34E
  8
002
 62
     3
 10
178.040499
 20
97.820942
 30
0.0
  0
VERTEX
  5
34F
  8
002
 62
     3
 10
176.040499
 20
98.727192
 30
0.0
  0
VERTEX
  5
350
  8
002
 62
     3
 10
174.040499
 20
99.070942
 30
0.0
  0
VERTEX
  5
351
  8
002
 62
     3
 10
172.040499
 20
98.727192
 30
0.0
  0
VERTEX
  5
352
  8
002
 62
     3
 10
170.040499
 20
97.820942
 30
0.0
  0
VERTEX
  5
353
  8
002
 62
     3
 10
168.040499
 20
96.539692
 30
0.0
  0
VERTEX
  5
354
  8
002
 62
     3
 10
166.040499
 20
95.070942
 30
0.0
  0
VERTEX
  5
355
  8
002
 62
     3
 10
164.040499
 20
93.602192
 30
0.0
  0
VERTEX
  5
356
  8
002
 62
     3
 10
162.040499
 20
92.320942
 30
0.0
  0
VERTEX
  5
357
  8
002
 62
     3
 10
160.040499
 20
91.414692
 30
0.0
  0
VERTEX
  5
358
  8
002
 62
     3
 10
158.040499
 20
91.070942
 30
0.0
  0
VERTEX
  5
359
  8
002
 62
     3
 10
156.040499
 20
91.414692
 30
0.0
  0
VERTEX
  5
35A
  8
002
 62
     3
 10
154.040499
 20
92.320942
 30
0.0
  0
VERTEX
  5
35B
  8
002
 62
     3
 10
152.040499
 20
93.602192
 30
0.0
  0
VERTEX
  5
35C
  8
002
 62
     3
 10
150.040499
 20
95.070942
 30
0.0
  0
SEQEND
  5
34B
  8
002
 62
     3
  0
LINE
  5
35D
  8
002
 62
     3
 10
182.040499
 20
71.570942
 30
0.0
 11
182.040499
 21
95.070942
 31
0.0
  0
LINE
  5
35E
  8
002
 62
     3
 10
182.040499
 20
103.070942
 30
0.0
 11
182.040499
 21
126.570942
 31
0.0
  0
LINE
  5
35F
  8
002
 62
     3
 10
150.040499
 20
126.570942
 30
0.0
 11
150.040499
 21
103.070942
 31
0.0
  0
LINE
  5
360
  8
002
 62
     3
 10
150.040499
 20
95.070942
 30
0.0
 11
150.040499
 21
71.570942
 31
0.0
  0
LINE
  5
361
  8
002
 62
     3
 10
494.21362
 20
126.570942
 30
0.0
 11
534.21362
 21
126.570942
 31
0.0
  0
LINE
  5
362
  8
002
 62
     3
 10
520.21292
 20
381.900742
 30
0.0
 11
508.21292
 21
381.900742
 31
0.0
  0
LINE
  5
363
  8
002
 62
     3
 10
508.21292
 20
381.900742
 30
0.0
 11
508.21292
 21
369.900742
 31
0.0
  0
LINE
  5
364
  8
002
 62
     3
 10
508.21292
 20
369.900742
 30
0.0
 11
520.21292
 21
369.900742
 31
0.0
  0
LINE
  5
365
  8
002
 62
     3
 10
520.21292
 20
369.900742
 30
0.0
 11
520.21292
 21
381.900742
 31
0.0
  0
LINE
  5
366
  8
002
 62
     3
 10
519.06292
 20
369.900742
 30
0.0
 11
519.06292
 21
366.900742
 31
0.0
  0
LINE
  5
367
  8
002
 62
     3
 10
506.21332
 20
366.900742
 30
0.0
 11
522.21322
 21
366.900742
 31
0.0
  0
LINE
  5
368
  8
002
 62
     3
 10
509.36292
 20
366.900742
 30
0.0
 11
509.36292
 21
369.900742
 31
0.0
  0
LINE
  5
369
  8
002
 62
    40
 10
509.26292
 20
381.900742
 30
0.0
 11
509.26292
 21
369.900742
 31
0.0
  0
LINE
  5
36A
  8
002
 62
    40
 10
519.16292
 20
369.900742
 30
0.0
 11
519.16292
 21
381.900742
 31
0.0
  0
LINE
  5
36B
  8
002
 62
     3
 10
496.21362
 20
71.570942
 30
0.0
 11
532.21362
 21
71.570942
 31
0.0
  0
LINE
  5
36C
  8
002
 62
     3
 10
532.21362
 20
71.570942
 30
0.0
 11
532.21362
 21
54.570942
 31
0.0
  0
LINE
  5
36D
  8
002
 62
     3
 10
529.21362
 20
51.570942
 30
0.0
 11
499.21362
 21
51.570942
 31
0.0
  0
LINE
  5
36E
  8
002
 62
     3
 10
496.21362
 20
54.570942
 30
0.0
 11
496.21362
 21
71.570942
 31
0.0
  0
ARC
  5
36F
  8
002
 62
     3
 10
499.21362
 20
54.570942
 30
0.0
 40
3.0
 50
180.0
 51
270.0
  0
ARC
  5
370
  8
002
 62
     3
 10
529.21362
 20
54.570942
 30
0.0
 40
3.0
 50
270.0
 51
0.0
  0
POLYLINE
  5
371
  8
002
 62
     3
 66
     1
 10
0.0
 20
0.0
 30
0.0
  0
VERTEX
  5
373
  8
002
 62
     3
 10
506.21332
 20
320.235842
 30
0.0
  0
VERTEX
  5
374
  8
002
 62
     3
 10
508.213308
 20
317.485842
 30
0.0
  0
VERTEX
  5
375
  8
002
 62
     3
 10
510.213295
 20
316.235842
 30
0.0
  0
VERTEX
  5
376
  8
002
 62
     3
 10
512.213283
 20
317.485842
 30
0.0
  0
VERTEX
  5
377
  8
002
 62
     3
 10
514.21327
 20
320.235842
 30
0.0
  0
VERTEX
  5
378
  8
002
 62
     3
 10
516.213258
 20
322.985842
 30
0.0
  0
VERTEX
  5
379
  8
002
 62
     3
 10
518.213245
 20
324.235842
 30
0.0
  0
VERTEX
  5
37A
  8
002
 62
     3
 10
520.213233
 20
322.985842
 30
0.0
  0
VERTEX
  5
37B
  8
002
 62
     3
 10
522.21322
 20
320.235842
 30
0.0
  0
SEQEND
  5
372
  8
002
 62
     3
  0
POLYLINE
  5
37C
  8
002
 62
     3
 66
     1
 10
0.0
 20
0.0
 30
0.0
  0
VERTEX
  5
37E
  8
002
 62
     3
 10
506.21332
 20
328.235842
 30
0.0
  0
VERTEX
  5
37F
  8
002
 62
     3
 10
508.213308
 20
325.485842
 30
0.0
  0
VERTEX
  5
380
  8
002
 62
     3
 10
510.213295
 20
324.235842
 30
0.0
  0
VERTEX
  5
381
  8
002
 62
     3
 10
512.213283
 20
325.485842
 30
0.0
  0
VERTEX
  5
382
  8
002
 62
     3
 10
514.21327
 20
328.235842
 30
0.0
  0
VERTEX
  5
383
  8
002
 62
     3
 10
516.213258
 20
330.985842
 30
0.0
  0
VERTEX
  5
384
  8
002
 62
     3
 10
518.213245
 20
332.235842
 30
0.0
  0
VERTEX
  5
385
  8
002
 62
     3
 10
520.213233
 20
330.985842
 30
0.0
  0
VERTEX
  5
386
  8
002
 62
     3
 10
522.21322
 20
328.235842
 30
0.0
  0
SEQEND
  5
37D
  8
002
 62
     3
  0
LINE
  5
387
  8
002
 62
     3
 10
522.21322
 20
366.900742
 30
0.0
 11
522.21322
 21
328.235842
 31
0.0
  0
LINE
  5
388
  8
002
 62
     3
 10
522.21322
 20
320.235842
 30
0.0
 11
522.21322
 21
281.570942
 31
0.0
  0
LINE
  5
389
  8
002
 62
     3
 10
506.21332
 20
281.570942
 30
0.0
 11
506.21332
 21
320.235842
 31
0.0
  0
LINE
  5
38A
  8
002
 62
     3
 10
506.21332
 20
328.235842
 30
0.0
 11
506.21332
 21
366.900742
 31
0.0
  0
LINE
  5
38B
  8
002
 62
    40
 10
521.06327
 20
281.570942
 30
0.0
 11
521.06327
 21
321.913256
 31
0.0
  0
LINE
  5
38C
  8
002
 62
    40
 10
521.06327
 20
329.913256
 30
0.0
 11
521.06327
 21
366.900742
 31
0.0
  0
LINE
  5
38D
  8
002
 62
    40
 10
507.36327
 20
366.900742
 30
0.0
 11
507.36327
 21
326.558429
 31
0.0
  0
LINE
  5
38E
  8
002
 62
    40
 10
507.36327
 20
318.558429
 30
0.0
 11
507.36327
 21
281.570942
 31
0.0
  0
POLYLINE
  5
38F
  8
002
 62
     3
 66
     1
 10
0.0
 20
0.0
 30
0.0
  0
VERTEX
  5
391
  8
002
 62
     3
 10
530.21362
 20
103.070942
 30
0.0
  0
VERTEX
  5
392
  8
002
 62
     3
 10
528.21362
 20
104.539692
 30
0.0
  0
VERTEX
  5
393
  8
002
 62
     3
 10
526.21362
 20
105.820942
 30
0.0
  0
VERTEX
  5
394
  8
002
 62
     3
 10
524.21362
 20
106.727192
 30
0.0
  0
VERTEX
  5
395
  8
002
 62
     3
 10
522.21362
 20
107.070942
 30
0.0
  0
VERTEX
  5
396
  8
002
 62
     3
 10
520.21362
 20
106.727192
 30
0.0
  0
VERTEX
  5
397
  8
002
 62
     3
 10
518.21362
 20
105.820942
 30
0.0
  0
VERTEX
  5
398
  8
002
 62
     3
 10
516.21362
 20
104.539692
 30
0.0
  0
VERTEX
  5
399
  8
002
 62
     3
 10
514.21362
 20
103.070942
 30
0.0
  0
VERTEX
  5
39A
  8
002
 62
     3
 10
512.21362
 20
101.602192
 30
0.0
  0
VERTEX
  5
39B
  8
002
 62
     3
 10
510.21362
 20
100.320942
 30
0.0
  0
VERTEX
  5
39C
  8
002
 62
     3
 10
508.21362
 20
99.414692
 30
0.0
  0
VERTEX
  5
39D
  8
002
 62
     3
 10
506.21362
 20
99.070942
 30
0.0
  0
VERTEX
  5
39E
  8
002
 62
     3
 10
504.21362
 20
99.414692
 30
0.0
  0
VERTEX
  5
39F
  8
002
 62
     3
 10
502.21362
 20
100.320942
 30
0.0
  0
VERTEX
  5
3A0
  8
002
 62
     3
 10
500.21362
 20
101.602192
 30
0.0
  0
VERTEX
  5
3A1
  8
002
 62
     3
 10
498.21362
 20
103.070942
 30
0.0
  0
SEQEND
  5
390
  8
002
 62
     3
  0
POLYLINE
  5
3A2
  8
002
 62
     3
 66
     1
 10
0.0
 20
0.0
 30
0.0
  0
VERTEX
  5
3A4
  8
002
 62
     3
 10
530.21362
 20
95.070942
 30
0.0
  0
VERTEX
  5
3A5
  8
002
 62
     3
 10
528.21362
 20
96.539692
 30
0.0
  0
VERTEX
  5
3A6
  8
002
 62
     3
 10
526.21362
 20
97.820942
 30
0.0
  0
VERTEX
  5
3A7
  8
002
 62
     3
 10
524.21362
 20
98.727192
 30
0.0
  0
VERTEX
  5
3A8
  8
002
 62
     3
 10
522.21362
 20
99.070942
 30
0.0
  0
VERTEX
  5
3A9
  8
002
 62
     3
 10
520.21362
 20
98.727192
 30
0.0
  0
VERTEX
  5
3AA
  8
002
 62
     3
 10
518.21362
 20
97.820942
 30
0.0
  0
VERTEX
  5
3AB
  8
002
 62
     3
 10
516.21362
 20
96.539692
 30
0.0
  0
VERTEX
  5
3AC
  8
002
 62
     3
 10
514.21362
 20
95.070942
 30
0.0
  0
VERTEX
  5
3AD
  8
002
 62
     3
 10
512.21362
 20
93.602192
 30
0.0
  0
VERTEX
  5
3AE
  8
002
 62
     3
 10
510.21362
 20
92.320942
 30
0.0
  0
VERTEX
  5
3AF
  8
002
 62
     3
 10
508.21362
 20
91.414692
 30
0.0
  0
VERTEX
  5
3B0
  8
002
 62
     3
 10
506.21362
 20
91.070942
 30
0.0
  0
VERTEX
  5
3B1
  8
002
 62
     3
 10
504.21362
 20
91.414692
 30
0.0
  0
VERTEX
  5
3B2
  8
002
 62
     3
 10
502.21362
 20
92.320942
 30
0.0
  0
VERTEX
  5
3B3
  8
002
 62
     3
 10
500.21362
 20
93.602192
 30
0.0
  0
VERTEX
  5
3B4
  8
002
 62
     3
 10
498.21362
 20
95.070942
 30
0.0
  0
SEQEND
  5
3A3
  8
002
 62
     3
  0
LINE
  5
3B5
  8
002
 62
     3
 10
530.21362
 20
71.570942
 30
0.0
 11
530.21362
 21
95.070942
 31
0.0
  0
LINE
  5
3B6
  8
002
 62
     3
 10
530.21362
 20
103.070942
 30
0.0
 11
530.21362
 21
126.570942
 31
0.0
  0
LINE
  5
3B7
  8
002
 62
     3
 10
498.21362
 20
126.570942
 30
0.0
 11
498.21362
 21
103.070942
 31
0.0
  0
LINE
  5
3B8
  8
002
 62
     3
 10
498.21362
 20
95.070942
 30
0.0
 11
498.21362
 21
71.570942
 31
0.0
  0
LINE
  5
3B9
  8
003
  6
CENTER
 62
    40
 10
166.040499
 20
38.527901
 30
0.0
 11
166.040499
 21
389.960016
 31
0.0
  0
LINE
  5
3BA
  8
002
  6
CENTER
 62
    40
 10
514.21362
 20
389.960016
 30
0.0
 11
514.21362
 21
38.527901
 31
0.0
  0
LINE
  5
3BB
  8
002
  6
CENTER
 62
    40
 10
1624.249712
 20
201.570942
 30
0.0
 11
1781.241793
 21
201.570942
 31
0.0
  0
LINE
  5
3BC
  8
003
  6
CENTER
 62
    40
 10
1277.617952
 20
201.570942
 30
0.0
 11
1434.645312
 21
201.570942
 31
0.0
  0
LINE
  5
3BD
  8
002
 62
     3
 10
1335.230012
 20
326.570942
 30
0.0
 11
1375.230012
 21
326.570942
 31
0.0
  0
LINE
  5
3BE
  8
002
 62
     3
 10
1375.230012
 20
326.570942
 30
0.0
 11
1375.783012
 21
288.527242
 31
0.0
  0
LINE
  5
3BF
  8
002
 62
     3
 10
1375.390012
 20
290.570942
 30
0.0
 11
1366.890012
 21
290.570942
 31
0.0
  0
LINE
  5
3C0
  8
002
 62
     3
 10
1375.390012
 20
290.570942
 30
0.0
 11
1375.390012
 21
285.570942
 31
0.0
  0
ARC
  5
3C1
  8
002
 62
     3
 10
1378.783012
 20
288.570942
 30
0.0
 40
3.000318264784589
 50
180.834549
 51
270.0
  0
LINE
  5
3C2
  8
002
 62
     3
 10
1382.730012
 20
285.570942
 30
0.0
 11
1327.730012
 21
285.570942
 31
0.0
  0
LINE
  5
3C3
  8
002
 62
     3
 10
1327.730012
 20
285.570942
 30
0.0
 11
1327.730012
 21
281.570942
 31
0.0
  0
LINE
  5
3C4
  8
002
 62
     3
 10
1382.730012
 20
281.570942
 30
0.0
 11
1382.730012
 21
285.570942
 31
0.0
  0
LINE
  5
3C5
  8
002
 62
     3
 10
1335.070012
 20
285.570942
 30
0.0
 11
1335.070012
 21
290.570942
 31
0.0
  0
LINE
  5
3C6
  8
002
 62
     3
 10
1343.570012
 20
290.570942
 30
0.0
 11
1335.070012
 21
290.570942
 31
0.0
  0
ARC
  5
3C7
  8
002
 62
     3
 10
1331.677012
 20
288.570942
 30
0.0
 40
3.0
 50
270.0
 51
359.165451
  0
LINE
  5
3C8
  8
002
 62
     3
 10
1334.677012
 20
288.527242
 30
0.0
 11
1335.230012
 21
326.570942
 31
0.0
  0
LINE
  5
3C9
  8
002
 62
     3
 10
1366.890012
 20
290.570942
 30
0.0
 11
1366.890012
 21
285.570942
 31
0.0
  0
LINE
  5
3CA
  8
002
 62
     3
 10
1343.570012
 20
285.570942
 30
0.0
 11
1343.570012
 21
290.570942
 31
0.0
  0
LINE
  5
3CB
  8
002
  6
CENTER
 62
    40
 10
1371.140012
 20
269.847642
 30
0.0
 11
1371.140012
 21
293.292542
 31
0.0
  0
LINE
  5
3CC
  8
002
  6
CENTER
 62
    40
 10
1339.320012
 20
293.292542
 30
0.0
 11
1339.320012
 21
269.847642
 31
0.0
  0
LINE
  5
3CD
  8
002
 62
     3
 10
1340.230012
 20
401.570942
 30
0.0
 11
1370.230012
 21
401.570942
 31
0.0
  0
ARC
  5
3CE
  8
002
 62
     3
 10
1370.230012
 20
398.570942
 30
0.0
 40
3.0
 50
0.0
 51
90.0
  0
LINE
  5
3CF
  8
002
 62
     3
 10
1373.230012
 20
398.570942
 30
0.0
 11
1373.230012
 21
381.570942
 31
0.0
  0
LINE
  5
3D0
  8
002
 62
     3
 10
1373.230012
 20
381.570942
 30
0.0
 11
1337.230012
 21
381.570942
 31
0.0
  0
LINE
  5
3D1
  8
002
 62
     3
 10
1337.230012
 20
381.570942
 30
0.0
 11
1337.230012
 21
398.570942
 31
0.0
  0
ARC
  5
3D2
  8
002
 62
     3
 10
1340.230012
 20
398.570942
 30
0.0
 40
3.0
 50
90.0
 51
180.0
  0
LINE
  5
3D3
  8
002
 62
     3
 10
1363.230012
 20
86.241142
 30
0.0
 11
1347.230012
 21
86.241142
 31
0.0
  0
LINE
  5
3D4
  8
002
 62
     3
 10
1350.379012
 20
86.241142
 30
0.0
 11
1350.379012
 21
83.241142
 31
0.0
  0
LINE
  5
3D5
  8
002
 62
     3
 10
1349.229012
 20
83.241142
 30
0.0
 11
1349.229012
 21
71.241142
 31
0.0
  0
LINE
  5
3D6
  8
002
 62
     3
 10
1349.229012
 20
71.241142
 30
0.0
 11
1361.229012
 21
71.241142
 31
0.0
  0
LINE
  5
3D7
  8
002
 62
     3
 10
1361.229012
 20
71.241142
 30
0.0
 11
1361.229012
 21
83.241142
 31
0.0
  0
LINE
  5
3D8
  8
002
 62
     3
 10
1361.229012
 20
83.241142
 30
0.0
 11
1349.229012
 21
83.241142
 31
0.0
  0
LINE
  5
3D9
  8
002
 62
     3
 10
1360.079012
 20
83.241142
 30
0.0
 11
1360.079012
 21
86.241142
 31
0.0
  0
LINE
  5
3DA
  8
002
 62
    40
 10
1350.279012
 20
71.241142
 30
0.0
 11
1350.279012
 21
83.241142
 31
0.0
  0
LINE
  5
3DB
  8
002
 62
    40
 10
1360.179012
 20
83.241142
 30
0.0
 11
1360.179012
 21
71.241142
 31
0.0
  0
POLYLINE
  5
3DC
  8
002
 62
     3
 66
     1
 10
0.0
 20
0.0
 30
0.0
  0
VERTEX
  5
3DE
  8
002
 62
     3
 10
1339.230012
 20
350.070942
 30
0.0
  0
VERTEX
  5
3DF
  8
002
 62
     3
 10
1341.230012
 20
348.602192
 30
0.0
  0
VERTEX
  5
3E0
  8
002
 62
     3
 10
1343.230012
 20
347.320942
 30
0.0
  0
VERTEX
  5
3E1
  8
002
 62
     3
 10
1345.230012
 20
346.414692
 30
0.0
  0
VERTEX
  5
3E2
  8
002
 62
     3
 10
1347.230012
 20
346.070942
 30
0.0
  0
VERTEX
  5
3E3
  8
002
 62
     3
 10
1349.230012
 20
346.414692
 30
0.0
  0
VERTEX
  5
3E4
  8
002
 62
     3
 10
1351.230012
 20
347.320942
 30
0.0
  0
VERTEX
  5
3E5
  8
002
 62
     3
 10
1353.230012
 20
348.602192
 30
0.0
  0
VERTEX
  5
3E6
  8
002
 62
     3
 10
1355.230012
 20
350.070942
 30
0.0
  0
VERTEX
  5
3E7
  8
002
 62
     3
 10
1357.230012
 20
351.539692
 30
0.0
  0
VERTEX
  5
3E8
  8
002
 62
     3
 10
1359.230012
 20
352.820942
 30
0.0
  0
VERTEX
  5
3E9
  8
002
 62
     3
 10
1361.230012
 20
353.727192
 30
0.0
  0
VERTEX
  5
3EA
  8
002
 62
     3
 10
1363.230012
 20
354.070942
 30
0.0
  0
VERTEX
  5
3EB
  8
002
 62
     3
 10
1365.230012
 20
353.727192
 30
0.0
  0
VERTEX
  5
3EC
  8
002
 62
     3
 10
1367.230012
 20
352.820942
 30
0.0
  0
VERTEX
  5
3ED
  8
002
 62
     3
 10
1369.230012
 20
351.539692
 30
0.0
  0
VERTEX
  5
3EE
  8
002
 62
     3
 10
1371.230012
 20
350.070942
 30
0.0
  0
SEQEND
  5
3DD
  8
002
 62
     3
  0
POLYLINE
  5
3EF
  8
002
 62
     3
 66
     1
 10
0.0
 20
0.0
 30
0.0
  0
VERTEX
  5
3F1
  8
002
 62
     3
 10
1339.230012
 20
358.070942
 30
0.0
  0
VERTEX
  5
3F2
  8
002
 62
     3
 10
1341.230012
 20
356.602192
 30
0.0
  0
VERTEX
  5
3F3
  8
002
 62
     3
 10
1343.230012
 20
355.320942
 30
0.0
  0
VERTEX
  5
3F4
  8
002
 62
     3
 10
1345.230012
 20
354.414692
 30
0.0
  0
VERTEX
  5
3F5
  8
002
 62
     3
 10
1347.230012
 20
354.070942
 30
0.0
  0
VERTEX
  5
3F6
  8
002
 62
     3
 10
1349.230012
 20
354.414692
 30
0.0
  0
VERTEX
  5
3F7
  8
002
 62
     3
 10
1351.230012
 20
355.320942
 30
0.0
  0
VERTEX
  5
3F8
  8
002
 62
     3
 10
1353.230012
 20
356.602192
 30
0.0
  0
VERTEX
  5
3F9
  8
002
 62
     3
 10
1355.230012
 20
358.070942
 30
0.0
  0
VERTEX
  5
3FA
  8
002
 62
     3
 10
1357.230012
 20
359.539692
 30
0.0
  0
VERTEX
  5
3FB
  8
002
 62
     3
 10
1359.230012
 20
360.820942
 30
0.0
  0
VERTEX
  5
3FC
  8
002
 62
     3
 10
1361.230012
 20
361.727192
 30
0.0
  0
VERTEX
  5
3FD
  8
002
 62
     3
 10
1363.230012
 20
362.070942
 30
0.0
  0
VERTEX
  5
3FE
  8
002
 62
     3
 10
1365.230012
 20
361.727192
 30
0.0
  0
VERTEX
  5
3FF
  8
002
 62
     3
 10
1367.230012
 20
360.820942
 30
0.0
  0
VERTEX
  5
400
  8
002
 62
     3
 10
1369.230012
 20
359.539692
 30
0.0
  0
VERTEX
  5
401
  8
002
 62
     3
 10
1371.230012
 20
358.070942
 30
0.0
  0
SEQEND
  5
3F0
  8
002
 62
     3
  0
LINE
  5
402
  8
002
 62
     3
 10
1339.230012
 20
381.570942
 30
0.0
 11
1339.230012
 21
358.070942
 31
0.0
  0
LINE
  5
403
  8
002
 62
     3
 10
1339.230012
 20
350.070942
 30
0.0
 11
1339.230012
 21
326.570942
 31
0.0
  0
LINE
  5
404
  8
002
 62
     3
 10
1371.230012
 20
326.570942
 30
0.0
 11
1371.230012
 21
350.070942
 31
0.0
  0
LINE
  5
405
  8
002
 62
     3
 10
1371.230012
 20
358.070942
 30
0.0
 11
1371.230012
 21
381.570942
 31
0.0
  0
POLYLINE
  5
406
  8
002
 62
     3
 66
     1
 10
0.0
 20
0.0
 30
0.0
  0
VERTEX
  5
408
  8
002
 62
     3
 10
1363.230012
 20
132.906042
 30
0.0
  0
VERTEX
  5
409
  8
002
 62
     3
 10
1361.230012
 20
135.656042
 30
0.0
  0
VERTEX
  5
40A
  8
002
 62
     3
 10
1359.230012
 20
136.906042
 30
0.0
  0
VERTEX
  5
40B
  8
002
 62
     3
 10
1357.230012
 20
135.656042
 30
0.0
  0
VERTEX
  5
40C
  8
002
 62
     3
 10
1355.230012
 20
132.906042
 30
0.0
  0
VERTEX
  5
40D
  8
002
 62
     3
 10
1353.230012
 20
130.156042
 30
0.0
  0
VERTEX
  5
40E
  8
002
 62
     3
 10
1351.230012
 20
128.906042
 30
0.0
  0
VERTEX
  5
40F
  8
002
 62
     3
 10
1349.230012
 20
130.156042
 30
0.0
  0
VERTEX
  5
410
  8
002
 62
     3
 10
1347.230012
 20
132.906042
 30
0.0
  0
SEQEND
  5
407
  8
002
 62
     3
  0
POLYLINE
  5
411
  8
002
 62
     3
 66
     1
 10
0.0
 20
0.0
 30
0.0
  0
VERTEX
  5
413
  8
002
 62
     3
 10
1363.230012
 20
124.906042
 30
0.0
  0
VERTEX
  5
414
  8
002
 62
     3
 10
1361.230012
 20
127.656042
 30
0.0
  0
VERTEX
  5
415
  8
002
 62
     3
 10
1359.230012
 20
128.906042
 30
0.0
  0
VERTEX
  5
416
  8
002
 62
     3
 10
1357.230012
 20
127.656042
 30
0.0
  0
VERTEX
  5
417
  8
002
 62
     3
 10
1355.230012
 20
124.906042
 30
0.0
  0
VERTEX
  5
418
  8
002
 62
     3
 10
1353.230012
 20
122.156042
 30
0.0
  0
VERTEX
  5
419
  8
002
 62
     3
 10
1351.230012
 20
120.906042
 30
0.0
  0
VERTEX
  5
41A
  8
002
 62
     3
 10
1349.230012
 20
122.156042
 30
0.0
  0
VERTEX
  5
41B
  8
002
 62
     3
 10
1347.230012
 20
124.906042
 30
0.0
  0
SEQEND
  5
412
  8
002
 62
     3
  0
LINE
  5
41C
  8
002
 62
     3
 10
1363.230012
 20
171.570942
 30
0.0
 11
1363.230012
 21
132.906042
 31
0.0
  0
LINE
  5
41D
  8
002
 62
     3
 10
1363.230012
 20
124.906042
 30
0.0
 11
1363.230012
 21
86.241142
 31
0.0
  0
LINE
  5
41E
  8
002
 62
     3
 10
1347.230012
 20
86.241142
 30
0.0
 11
1347.230012
 21
124.906042
 31
0.0
  0
LINE
  5
41F
  8
002
 62
     3
 10
1347.230012
 20
132.906042
 30
0.0
 11
1347.230012
 21
171.570942
 31
0.0
  0
LINE
  5
420
  8
002
 62
    40
 10
1362.080012
 20
86.241142
 30
0.0
 11
1362.080012
 21
126.583515
 31
0.0
  0
LINE
  5
421
  8
002
 62
    40
 10
1362.080012
 20
134.583515
 30
0.0
 11
1362.080012
 21
171.570942
 31
0.0
  0
LINE
  5
422
  8
002
 62
    40
 10
1348.380012
 20
171.570942
 30
0.0
 11
1348.380012
 21
131.22857
 31
0.0
  0
LINE
  5
423
  8
002
 62
    40
 10
1348.380012
 20
123.22857
 30
0.0
 11
1348.380012
 21
86.241142
 31
0.0
  0
LINE
  5
424
  8
002
 62
     3
 10
1683.403133
 20
326.570942
 30
0.0
 11
1723.403133
 21
326.570942
 31
0.0
  0
LINE
  5
425
  8
002
 62
     3
 10
1723.403133
 20
326.570942
 30
0.0
 11
1723.956133
 21
288.527242
 31
0.0
  0
LINE
  5
426
  8
002
 62
     3
 10
1723.563133
 20
290.570942
 30
0.0
 11
1715.063133
 21
290.570942
 31
0.0
  0
LINE
  5
427
  8
002
 62
     3
 10
1723.563133
 20
290.570942
 30
0.0
 11
1723.563133
 21
285.570942
 31
0.0
  0
ARC
  5
428
  8
002
 62
     3
 10
1726.956133
 20
288.570942
 30
0.0
 40
3.000318264784589
 50
180.834549
 51
270.0
  0
LINE
  5
429
  8
002
 62
     3
 10
1730.903133
 20
285.570942
 30
0.0
 11
1675.903133
 21
285.570942
 31
0.0
  0
LINE
  5
42A
  8
002
 62
     3
 10
1675.903133
 20
285.570942
 30
0.0
 11
1675.903133
 21
281.570942
 31
0.0
  0
LINE
  5
42B
  8
002
 62
     3
 10
1730.903133
 20
281.570942
 30
0.0
 11
1730.903133
 21
285.570942
 31
0.0
  0
LINE
  5
42C
  8
002
 62
     3
 10
1683.243133
 20
285.570942
 30
0.0
 11
1683.243133
 21
290.570942
 31
0.0
  0
LINE
  5
42D
  8
002
 62
     3
 10
1691.743133
 20
290.570942
 30
0.0
 11
1683.243133
 21
290.570942
 31
0.0
  0
ARC
  5
42E
  8
002
 62
     3
 10
1679.850133
 20
288.570942
 30
0.0
 40
3.0
 50
270.0
 51
359.165451
  0
LINE
  5
42F
  8
002
 62
     3
 10
1682.850133
 20
288.527242
 30
0.0
 11
1683.403133
 21
326.570942
 31
0.0
  0
LINE
  5
430
  8
002
 62
     3
 10
1715.063133
 20
290.570942
 30
0.0
 11
1715.063133
 21
285.570942
 31
0.0
  0
LINE
  5
431
  8
002
 62
     3
 10
1691.743133
 20
285.570942
 30
0.0
 11
1691.743133
 21
290.570942
 31
0.0
  0
LINE
  5
432
  8
002
  6
CENTER
 62
    40
 10
1719.313133
 20
269.847642
 30
0.0
 11
1719.313133
 21
293.292542
 31
0.0
  0
LINE
  5
433
  8
002
  6
CENTER
 62
    40
 10
1687.493133
 20
293.292542
 30
0.0
 11
1687.493133
 21
269.847642
 31
0.0
  0
LINE
  5
434
  8
002
 62
     3
 10
1688.403133
 20
401.570942
 30
0.0
 11
1718.403133
 21
401.570942
 31
0.0
  0
ARC
  5
435
  8
002
 62
     3
 10
1718.403133
 20
398.570942
 30
0.0
 40
3.0
 50
0.0
 51
90.0
  0
LINE
  5
436
  8
002
 62
     3
 10
1721.403133
 20
398.570942
 30
0.0
 11
1721.403133
 21
381.570942
 31
0.0
  0
LINE
  5
437
  8
002
 62
     3
 10
1721.403133
 20
381.570942
 30
0.0
 11
1685.403133
 21
381.570942
 31
0.0
  0
LINE
  5
438
  8
002
 62
     3
 10
1685.403133
 20
381.570942
 30
0.0
 11
1685.403133
 21
398.570942
 31
0.0
  0
ARC
  5
439
  8
002
 62
     3
 10
1688.403133
 20
398.570942
 30
0.0
 40
3.0
 50
90.0
 51
180.0
  0
LINE
  5
43A
  8
002
 62
     3
 10
1711.403133
 20
86.241142
 30
0.0
 11
1695.403133
 21
86.241142
 31
0.0
  0
LINE
  5
43B
  8
002
 62
     3
 10
1698.552133
 20
86.241142
 30
0.0
 11
1698.552133
 21
83.241142
 31
0.0
  0
LINE
  5
43C
  8
002
 62
     3
 10
1697.402133
 20
83.241142
 30
0.0
 11
1697.402133
 21
71.241142
 31
0.0
  0
LINE
  5
43D
  8
002
 62
     3
 10
1697.402133
 20
71.241142
 30
0.0
 11
1709.402133
 21
71.241142
 31
0.0
  0
LINE
  5
43E
  8
002
 62
     3
 10
1709.402133
 20
71.241142
 30
0.0
 11
1709.402133
 21
83.241142
 31
0.0
  0
LINE
  5
43F
  8
002
 62
     3
 10
1709.402133
 20
83.241142
 30
0.0
 11
1697.402133
 21
83.241142
 31
0.0
  0
LINE
  5
440
  8
002
 62
     3
 10
1708.252133
 20
83.241142
 30
0.0
 11
1708.252133
 21
86.241142
 31
0.0
  0
LINE
  5
441
  8
002
 62
    40
 10
1698.452133
 20
71.241142
 30
0.0
 11
1698.452133
 21
83.241142
 31
0.0
  0
LINE
  5
442
  8
002
 62
    40
 10
1708.352133
 20
83.241142
 30
0.0
 11
1708.352133
 21
71.241142
 31
0.0
  0
POLYLINE
  5
443
  8
002
 62
     3
 66
     1
 10
0.0
 20
0.0
 30
0.0
  0
VERTEX
  5
445
  8
002
 62
     3
 10
1687.403133
 20
350.070942
 30
0.0
  0
VERTEX
  5
446
  8
002
 62
     3
 10
1689.403133
 20
348.602192
 30
0.0
  0
VERTEX
  5
447
  8
002
 62
     3
 10
1691.403133
 20
347.320942
 30
0.0
  0
VERTEX
  5
448
  8
002
 62
     3
 10
1693.403133
 20
346.414692
 30
0.0
  0
VERTEX
  5
449
  8
002
 62
     3
 10
1695.403133
 20
346.070942
 30
0.0
  0
VERTEX
  5
44A
  8
002
 62
     3
 10
1697.403133
 20
346.414692
 30
0.0
  0
VERTEX
  5
44B
  8
002
 62
     3
 10
1699.403133
 20
347.320942
 30
0.0
  0
VERTEX
  5
44C
  8
002
 62
     3
 10
1701.403133
 20
348.602192
 30
0.0
  0
VERTEX
  5
44D
  8
002
 62
     3
 10
1703.403133
 20
350.070942
 30
0.0
  0
VERTEX
  5
44E
  8
002
 62
     3
 10
1705.403133
 20
351.539692
 30
0.0
  0
VERTEX
  5
44F
  8
002
 62
     3
 10
1707.403133
 20
352.820942
 30
0.0
  0
VERTEX
  5
450
  8
002
 62
     3
 10
1709.403133
 20
353.727192
 30
0.0
  0
VERTEX
  5
451
  8
002
 62
     3
 10
1711.403133
 20
354.070942
 30
0.0
  0
VERTEX
  5
452
  8
002
 62
     3
 10
1713.403133
 20
353.727192
 30
0.0
  0
VERTEX
  5
453
  8
002
 62
     3
 10
1715.403133
 20
352.820942
 30
0.0
  0
VERTEX
  5
454
  8
002
 62
     3
 10
1717.403133
 20
351.539692
 30
0.0
  0
VERTEX
  5
455
  8
002
 62
     3
 10
1719.403133
 20
350.070942
 30
0.0
  0
SEQEND
  5
444
  8
002
 62
     3
  0
POLYLINE
  5
456
  8
002
 62
     3
 66
     1
 10
0.0
 20
0.0
 30
0.0
  0
VERTEX
  5
458
  8
002
 62
     3
 10
1687.403133
 20
358.070942
 30
0.0
  0
VERTEX
  5
459
  8
002
 62
     3
 10
1689.403133
 20
356.602192
 30
0.0
  0
VERTEX
  5
45A
  8
002
 62
     3
 10
1691.403133
 20
355.320942
 30
0.0
  0
VERTEX
  5
45B
  8
002
 62
     3
 10
1693.403133
 20
354.414692
 30
0.0
  0
VERTEX
  5
45C
  8
002
 62
     3
 10
1695.403133
 20
354.070942
 30
0.0
  0
VERTEX
  5
45D
  8
002
 62
     3
 10
1697.403133
 20
354.414692
 30
0.0
  0
VERTEX
  5
45E
  8
002
 62
     3
 10
1699.403133
 20
355.320942
 30
0.0
  0
VERTEX
  5
45F
  8
002
 62
     3
 10
1701.403133
 20
356.602192
 30
0.0
  0
VERTEX
  5
460
  8
002
 62
     3
 10
1703.403133
 20
358.070942
 30
0.0
  0
VERTEX
  5
461
  8
002
 62
     3
 10
1705.403133
 20
359.539692
 30
0.0
  0
VERTEX
  5
462
  8
002
 62
     3
 10
1707.403133
 20
360.820942
 30
0.0
  0
VERTEX
  5
463
  8
002
 62
     3
 10
1709.403133
 20
361.727192
 30
0.0
  0
VERTEX
  5
464
  8
002
 62
     3
 10
1711.403133
 20
362.070942
 30
0.0
  0
VERTEX
  5
465
  8
002
 62
     3
 10
1713.403133
 20
361.727192
 30
0.0
  0
VERTEX
  5
466
  8
002
 62
     3
 10
1715.403133
 20
360.820942
 30
0.0
  0
VERTEX
  5
467
  8
002
 62
     3
 10
1717.403133
 20
359.539692
 30
0.0
  0
VERTEX
  5
468
  8
002
 62
     3
 10
1719.403133
 20
358.070942
 30
0.0
  0
SEQEND
  5
457
  8
002
 62
     3
  0
LINE
  5
469
  8
002
 62
     3
 10
1687.403133
 20
381.570942
 30
0.0
 11
1687.403133
 21
358.070942
 31
0.0
  0
LINE
  5
46A
  8
002
 62
     3
 10
1687.403133
 20
350.070942
 30
0.0
 11
1687.403133
 21
326.570942
 31
0.0
  0
LINE
  5
46B
  8
002
 62
     3
 10
1719.403133
 20
326.570942
 30
0.0
 11
1719.403133
 21
350.070942
 31
0.0
  0
LINE
  5
46C
  8
002
 62
     3
 10
1719.403133
 20
358.070942
 30
0.0
 11
1719.403133
 21
381.570942
 31
0.0
  0
POLYLINE
  5
46D
  8
002
 62
     3
 66
     1
 10
0.0
 20
0.0
 30
0.0
  0
VERTEX
  5
46F
  8
002
 62
     3
 10
1711.403133
 20
132.906042
 30
0.0
  0
VERTEX
  5
470
  8
002
 62
     3
 10
1709.403133
 20
135.656042
 30
0.0
  0
VERTEX
  5
471
  8
002
 62
     3
 10
1707.403133
 20
136.906042
 30
0.0
  0
VERTEX
  5
472
  8
002
 62
     3
 10
1705.403133
 20
135.656042
 30
0.0
  0
VERTEX
  5
473
  8
002
 62
     3
 10
1703.403133
 20
132.906042
 30
0.0
  0
VERTEX
  5
474
  8
002
 62
     3
 10
1701.403133
 20
130.156042
 30
0.0
  0
VERTEX
  5
475
  8
002
 62
     3
 10
1699.403133
 20
128.906042
 30
0.0
  0
VERTEX
  5
476
  8
002
 62
     3
 10
1697.403133
 20
130.156042
 30
0.0
  0
VERTEX
  5
477
  8
002
 62
     3
 10
1695.403133
 20
132.906042
 30
0.0
  0
SEQEND
  5
46E
  8
002
 62
     3
  0
POLYLINE
  5
478
  8
002
 62
     3
 66
     1
 10
0.0
 20
0.0
 30
0.0
  0
VERTEX
  5
47A
  8
002
 62
     3
 10
1711.403133
 20
124.906042
 30
0.0
  0
VERTEX
  5
47B
  8
002
 62
     3
 10
1709.403133
 20
127.656042
 30
0.0
  0
VERTEX
  5
47C
  8
002
 62
     3
 10
1707.403133
 20
128.906042
 30
0.0
  0
VERTEX
  5
47D
  8
002
 62
     3
 10
1705.403133
 20
127.656042
 30
0.0
  0
VERTEX
  5
47E
  8
002
 62
     3
 10
1703.403133
 20
124.906042
 30
0.0
  0
VERTEX
  5
47F
  8
002
 62
     3
 10
1701.403133
 20
122.156042
 30
0.0
  0
VERTEX
  5
480
  8
002
 62
     3
 10
1699.403133
 20
120.906042
 30
0.0
  0
VERTEX
  5
481
  8
002
 62
     3
 10
1697.403133
 20
122.156042
 30
0.0
  0
VERTEX
  5
482
  8
002
 62
     3
 10
1695.403133
 20
124.906042
 30
0.0
  0
SEQEND
  5
479
  8
002
 62
     3
  0
LINE
  5
483
  8
002
 62
     3
 10
1711.403133
 20
171.570942
 30
0.0
 11
1711.403133
 21
132.906042
 31
0.0
  0
LINE
  5
484
  8
002
 62
     3
 10
1711.403133
 20
124.906042
 30
0.0
 11
1711.403133
 21
86.241142
 31
0.0
  0
LINE
  5
485
  8
002
 62
     3
 10
1695.403133
 20
86.241142
 30
0.0
 11
1695.403133
 21
124.906042
 31
0.0
  0
LINE
  5
486
  8
002
 62
     3
 10
1695.403133
 20
132.906042
 30
0.0
 11
1695.403133
 21
171.570942
 31
0.0
  0
LINE
  5
487
  8
002
 62
    40
 10
1710.253133
 20
86.241142
 30
0.0
 11
1710.253133
 21
126.583515
 31
0.0
  0
LINE
  5
488
  8
002
 62
    40
 10
1710.253133
 20
134.583515
 30
0.0
 11
1710.253133
 21
171.570942
 31
0.0
  0
LINE
  5
489
  8
002
 62
    40
 10
1696.553133
 20
171.570942
 30
0.0
 11
1696.553133
 21
131.22857
 31
0.0
  0
LINE
  5
48A
  8
002
 62
    40
 10
1696.553133
 20
123.22857
 30
0.0
 11
1696.553133
 21
86.241142
 31
0.0
  0
LINE
  5
48B
  8
003
  6
CENTER
 62
    40
 10
1355.230012
 20
60.160907
 30
0.0
 11
1355.230012
 21
408.47458
 31
0.0
  0
LINE
  5
48C
  8
002
  6
CENTER
 62
    40
 10
1703.403133
 20
408.47458
 30
0.0
 11
1703.403133
 21
60.160907
 31
0.0
  0
CIRCLE
  5
48D
  8
001
 62
     3
 10
1518.427012
 20
572.617386
 30
0.0
 40
17.0
  0
CIRCLE
  5
48E
  8
002
 62
     3
 10
1502.517112
 20
588.527286
 30
0.0
 40
4.25
  0
LINE
  5
48F
  8
002
 62
     3
 10
1501.362412
 20
590.527286
 30
0.0
 11
1503.671812
 21
590.527286
 31
0.0
  0
LINE
  5
490
  8
002
 62
     3
 10
1503.671812
 20
590.527286
 30
0.0
 11
1504.826512
 21
588.527286
 31
0.0
  0
LINE
  5
491
  8
002
 62
     3
 10
1504.826512
 20
588.527286
 30
0.0
 11
1503.671812
 21
586.527286
 31
0.0
  0
LINE
  5
492
  8
002
 62
     3
 10
1503.671812
 20
586.527286
 30
0.0
 11
1501.362412
 21
586.527286
 31
0.0
  0
LINE
  5
493
  8
002
 62
     3
 10
1501.362412
 20
586.527286
 30
0.0
 11
1500.207712
 21
588.527286
 31
0.0
  0
LINE
  5
494
  8
002
 62
     3
 10
1500.207712
 20
588.527286
 30
0.0
 11
1501.362412
 21
590.527286
 31
0.0
  0
CIRCLE
  5
495
  8
002
 62
     3
 10
1518.427012
 20
572.617386
 30
0.0
 40
27.5
  0
CIRCLE
  5
496
  8
002
 62
     3
 10
1502.517112
 20
556.707486
 30
0.0
 40
4.25
  0
LINE
  5
497
  8
002
 62
     3
 10
1502.517112
 20
559.016886
 30
0.0
 11
1500.517112
 21
557.862186
 31
0.0
  0
LINE
  5
498
  8
002
 62
     3
 10
1500.517112
 20
557.862186
 30
0.0
 11
1500.517112
 21
555.552786
 31
0.0
  0
LINE
  5
499
  8
002
 62
     3
 10
1500.517112
 20
555.552786
 30
0.0
 11
1502.517112
 21
554.398086
 31
0.0
  0
LINE
  5
49A
  8
002
 62
     3
 10
1502.517112
 20
554.398086
 30
0.0
 11
1504.517112
 21
555.552786
 31
0.0
  0
LINE
  5
49B
  8
002
 62
     3
 10
1504.517112
 20
555.552786
 30
0.0
 11
1504.517112
 21
557.862186
 31
0.0
  0
LINE
  5
49C
  8
002
 62
     3
 10
1504.517112
 20
557.862186
 30
0.0
 11
1502.517112
 21
559.016886
 31
0.0
  0
LINE
  5
49D
  8
002
 62
     3
 10
1532.027512
 20
556.707486
 30
0.0
 11
1533.182212
 21
554.707486
 31
0.0
  0
LINE
  5
49E
  8
002
 62
     3
 10
1533.182212
 20
554.707486
 30
0.0
 11
1535.491612
 21
554.707486
 31
0.0
  0
LINE
  5
49F
  8
002
 62
     3
 10
1535.491612
 20
554.707486
 30
0.0
 11
1536.646312
 21
556.707486
 31
0.0
  0
LINE
  5
4A0
  8
002
 62
     3
 10
1536.646312
 20
556.707486
 30
0.0
 11
1535.491612
 21
558.707486
 31
0.0
  0
LINE
  5
4A1
  8
002
 62
     3
 10
1535.491612
 20
558.707486
 30
0.0
 11
1533.182212
 21
558.707486
 31
0.0
  0
LINE
  5
4A2
  8
002
 62
     3
 10
1533.182212
 20
558.707486
 30
0.0
 11
1532.027512
 21
556.707486
 31
0.0
  0
CIRCLE
  5
4A3
  8
002
 62
     3
 10
1534.336912
 20
556.707486
 30
0.0
 40
4.25
  0
LINE
  5
4A4
  8
002
 62
     3
 10
1534.336912
 20
586.217886
 30
0.0
 11
1536.336912
 21
587.372586
 31
0.0
  0
LINE
  5
4A5
  8
002
 62
     3
 10
1536.336912
 20
587.372586
 30
0.0
 11
1536.336912
 21
589.681986
 31
0.0
  0
LINE
  5
4A6
  8
002
 62
     3
 10
1536.336912
 20
589.681986
 30
0.0
 11
1534.336912
 21
590.836686
 31
0.0
  0
LINE
  5
4A7
  8
002
 62
     3
 10
1534.336912
 20
590.836686
 30
0.0
 11
1532.336912
 21
589.681986
 31
0.0
  0
LINE
  5
4A8
  8
002
 62
     3
 10
1532.336912
 20
589.681986
 30
0.0
 11
1532.336912
 21
587.372586
 31
0.0
  0
LINE
  5
4A9
  8
002
 62
     3
 10
1532.336912
 20
587.372586
 30
0.0
 11
1534.336912
 21
586.217886
 31
0.0
  0
LINE
  5
4AA
  8
002
  6
CENTER
 62
    40
 10
1508.180012
 20
562.370386
 30
0.0
 11
1497.410412
 21
551.600786
 31
0.0
  0
CIRCLE
  5
4AB
  8
002
  6
CENTER
 62
    40
 10
1518.427012
 20
572.617386
 30
0.0
 40
22.5
  0
LINE
  5
4AC
  8
002
  6
CENTER
 62
    40
 10
1539.443612
 20
551.600786
 30
0.0
 11
1528.674012
 21
562.370386
 31
0.0
  0
LINE
  5
4AD
  8
002
  6
CENTER
 62
    40
 10
1528.674012
 20
582.864386
 30
0.0
 11
1539.443612
 21
593.633986
 31
0.0
  0
LINE
  5
4AE
  8
002
  6
CENTER
 62
    40
 10
1497.410412
 20
593.633986
 30
0.0
 11
1508.180012
 21
582.864386
 31
0.0
  0
CIRCLE
  5
4AF
  8
002
 62
     3
 10
1534.336912
 20
588.527286
 30
0.0
 40
4.25
  0
LINE
  5
4B0
  8
002
 62
     3
 10
1552.927012
 20
463.411886
 30
0.0
 11
1552.677012
 21
463.661886
 31
0.0
  0
LINE
  5
4B1
  8
002
 62
     3
 10
1552.677012
 20
463.661886
 30
0.0
 11
1548.177012
 21
463.661886
 31
0.0
  0
LINE
  5
4B2
  8
002
 62
     3
 10
1548.177012
 20
463.661886
 30
0.0
 11
1547.927012
 21
463.411886
 31
0.0
  0
LINE
  5
4B3
  8
002
 62
     3
 10
1547.927012
 20
463.411886
 30
0.0
 11
1547.927012
 21
458.911886
 31
0.0
  0
LINE
  5
4B4
  8
002
 62
     3
 10
1547.927012
 20
458.911886
 30
0.0
 11
1548.177012
 21
458.661886
 31
0.0
  0
LINE
  5
4B5
  8
002
 62
     3
 10
1548.177012
 20
458.661886
 30
0.0
 11
1552.677012
 21
458.661886
 31
0.0
  0
LINE
  5
4B6
  8
002
 62
     3
 10
1552.677012
 20
458.661886
 30
0.0
 11
1552.927012
 21
458.911886
 31
0.0
  0
LINE
  5
4B7
  8
002
 62
     3
 10
1552.927012
 20
458.911886
 30
0.0
 11
1552.927012
 21
463.411886
 31
0.0
  0
ARC
  5
4B8
  8
002
 62
     3
 10
1552.727012
 20
458.861886
 30
0.0
 40
0.1999999999999318
 50
270.0
 51
0.0
  0
ARC
  5
4B9
  8
002
 62
     3
 10
1548.127012
 20
458.861886
 30
0.0
 40
0.1999999999999318
 50
180.0
 51
270.0
  0
ARC
  5
4BA
  8
002
 62
     3
 10
1550.427012
 20
454.161886
 30
0.0
 40
7.500030347271937
 50
109.471139
 51
70.528861
  0
LINE
  5
4BB
  8
002
  6
CENTER
 62
    40
 10
1550.427012
 20
444.038586
 30
0.0
 11
1550.427012
 21
465.973586
 31
0.0
  0
LINE
  5
4BC
  8
002
  6
CENTER
 62
    40
 10
1539.628112
 20
454.161886
 30
0.0
 11
1562.161412
 21
454.161886
 31
0.0
  0
CIRCLE
  5
4BD
  8
002
 62
     3
 10
389.237499
 20
537.617386
 30
0.0
 40
8.0
  0
CIRCLE
  5
4BE
  8
002
 62
     3
 10
389.237499
 20
607.617386
 30
0.0
 40
8.0
  0
CIRCLE
  5
4BF
  8
002
 62
     3
 10
294.237499
 20
607.617386
 30
0.0
 40
8.0
  0
CIRCLE
  5
4C0
  8
002
 62
     3
 10
294.237499
 20
537.617386
 30
0.0
 40
8.0
  0
LINE
  5
4C1
  8
002
 62
     3
 10
385.237499
 20
545.617386
 30
0.0
 11
389.237499
 21
545.617386
 31
0.0
  0
LINE
  5
4C2
  8
002
 62
     3
 10
385.237499
 20
529.617386
 30
0.0
 11
389.237499
 21
529.617386
 31
0.0
  0
LINE
  5
4C3
  8
002
 62
     3
 10
385.237499
 20
615.617386
 30
0.0
 11
389.237499
 21
615.617386
 31
0.0
  0
LINE
  5
4C4
  8
002
 62
     3
 10
385.237499
 20
599.617386
 30
0.0
 11
389.237499
 21
599.617386
 31
0.0
  0
LINE
  5
4C5
  8
002
 62
     3
 10
383.237499
 20
597.617386
 30
0.0
 11
383.237499
 21
547.617386
 31
0.0
  0
ARC
  5
4C6
  8
002
 62
     3
 10
329.237499
 20
572.617386
 30
0.0
 40
36.00000000000006
 50
270.0
 51
90.0
  0
ARC
  5
4C7
  8
002
 62
     3
 10
329.237499
 20
618.617386
 30
0.0
 40
10.0
 50
270.0
 51
0.0
  0
ARC
  5
4C8
  8
002
 62
     3
 10
329.237499
 20
526.617386
 30
0.0
 40
10.0
 50
360.0
 51
90.0
  0
ARC
  5
4C9
  8
002
 62
     3
 10
329.237499
 20
572.617386
 30
0.0
 40
36.00000000000006
 50
90.0
 51
102.306598
  0
ARC
  5
4CA
  8
002
 62
     3
 10
269.639216
 20
585.619103
 30
0.0
 40
25.0
 50
347.693402
 51
41.806316
  0
ARC
  5
4CB
  8
002
 62
     3
 10
316.235782
 20
632.215669
 30
0.0
 40
25.0
 50
228.193684
 51
282.306598
  0
ARC
  5
4CC
  8
002
 62
     3
 10
269.639216
 20
559.615669
 30
0.0
 40
25.0
 50
318.193684
 51
12.306598
  0
ARC
  5
4CD
  8
002
 62
     3
 10
316.235782
 20
513.019103
 30
0.0
 40
25.0
 50
77.693402
 51
131.806316
  0
ARC
  5
4CE
  8
002
 62
     3
 10
329.237499
 20
572.617386
 30
0.0
 40
36.00000000000006
 50
167.693402
 51
192.306598
  0
ARC
  5
4CF
  8
002
 62
     3
 10
329.237499
 20
572.617386
 30
0.0
 40
36.00000000000006
 50
257.693402
 51
270.0
  0
LINE
  5
4D0
  8
002
  6
CENTER
 62
    40
 10
389.237499
 20
597.617386
 30
0.0
 11
389.237499
 21
617.617386
 31
0.0
  0
LINE
  5
4D1
  8
002
  6
CENTER
 62
    40
 10
399.237499
 20
607.617386
 30
0.0
 11
379.237499
 21
607.617386
 31
0.0
  0
LINE
  5
4D2
  8
002
  6
CENTER
 62
    40
 10
389.237499
 20
527.617386
 30
0.0
 11
389.237499
 21
547.617386
 31
0.0
  0
LINE
  5
4D3
  8
002
  6
CENTER
 62
    40
 10
399.237499
 20
537.617386
 30
0.0
 11
379.237499
 21
537.617386
 31
0.0
  0
LINE
  5
4D4
  8
002
  6
CENTER
 62
    40
 10
294.237499
 20
527.617386
 30
0.0
 11
294.237499
 21
547.617386
 31
0.0
  0
LINE
  5
4D5
  8
002
  6
CENTER
 62
    40
 10
304.237499
 20
537.617386
 30
0.0
 11
284.237499
 21
537.617386
 31
0.0
  0
LINE
  5
4D6
  8
002
  6
CENTER
 62
    40
 10
294.237499
 20
597.617386
 30
0.0
 11
294.237499
 21
617.617386
 31
0.0
  0
LINE
  5
4D7
  8
002
  6
CENTER
 62
    40
 10
304.237499
 20
607.617386
 30
0.0
 11
284.237499
 21
607.617386
 31
0.0
  0
LINE
  5
4D8
  8
002
  6
CENTER
 62
    40
 10
290.392963
 20
572.617386
 30
0.0
 11
390.051549
 21
572.617386
 31
0.0
  0
ARC
  5
4D9
  8
002
 62
     3
 10
385.237499
 20
547.617386
 30
0.0
 40
2.0
 50
180.0
 51
270.0
  0
ARC
  5
4DA
  8
002
 62
     3
 10
385.237499
 20
527.617386
 30
0.0
 40
2.0
 50
90.0
 51
180.0
  0
ARC
  5
4DB
  8
002
 62
     3
 10
385.237499
 20
597.617386
 30
0.0
 40
2.0
 50
90.0
 51
180.0
  0
ARC
  5
4DC
  8
002
 62
     3
 10
385.237499
 20
617.617386
 30
0.0
 40
2.0
 50
180.0
 51
270.0
  0
CIRCLE
  5
4DD
  8
002
 62
    40
 10
329.237499
 20
572.617386
 30
0.0
 40
31.0
  0
CIRCLE
  5
4DE
  8
002
 62
    40
 10
329.237499
 20
572.617386
 30
0.0
 40
29.9175
  0
LINE
  5
4DF
  8
002
 62
     3
 10
339.237499
 20
619.617386
 30
0.0
 11
383.237499
 21
619.617386
 31
0.0
  0
LINE
  5
4E0
  8
002
 62
     3
 10
339.187373
 20
525.617386
 30
0.0
 11
383.237499
 21
525.617386
 31
0.0
  0
LINE
  5
4E1
  8
002
 62
     3
 10
339.237499
 20
618.617386
 30
0.0
 11
339.237499
 21
619.617386
 31
0.0
  0
LINE
  5
4E2
  8
002
 62
     3
 10
383.237499
 20
617.617386
 30
0.0
 11
383.237499
 21
619.617386
 31
0.0
  0
LINE
  5
4E3
  8
002
 62
     3
 10
383.237499
 20
527.617386
 30
0.0
 11
383.237499
 21
525.617386
 31
0.0
  0
LINE
  5
4E4
  8
002
 62
     3
 10
339.237499
 20
526.617386
 30
0.0
 11
339.237499
 21
525.617386
 31
0.0
  0
LINE
  5
4E5
  8
002
 62
     3
 10
353.737499
 20
619.617386
 30
0.0
 11
353.737499
 21
646.617386
 31
0.0
  0
LINE
  5
4E6
  8
002
 62
     3
 10
353.737499
 20
646.617386
 30
0.0
 11
354.737499
 21
647.617386
 31
0.0
  0
LINE
  5
4E7
  8
002
 62
     3
 10
354.737499
 20
647.617386
 30
0.0
 11
367.737499
 21
647.617386
 31
0.0
  0
LINE
  5
4E8
  8
002
 62
     3
 10
367.737499
 20
647.617386
 30
0.0
 11
368.737499
 21
646.617386
 31
0.0
  0
LINE
  5
4E9
  8
002
 62
     3
 10
368.737499
 20
646.617386
 30
0.0
 11
363.737499
 21
646.617386
 31
0.0
  0
LINE
  5
4EA
  8
002
 62
     3
 10
363.737499
 20
647.617386
 30
0.0
 11
363.737499
 21
625.617386
 31
0.0
  0
LINE
  5
4EB
  8
002
 62
     3
 10
363.737499
 20
625.617386
 30
0.0
 11
358.737499
 21
625.617386
 31
0.0
  0
LINE
  5
4EC
  8
002
 62
     3
 10
358.737499
 20
625.617386
 30
0.0
 11
358.737499
 21
647.617386
 31
0.0
  0
LINE
  5
4ED
  8
002
 62
     3
 10
358.737499
 20
646.617386
 30
0.0
 11
353.737499
 21
646.617386
 31
0.0
  0
LINE
  5
4EE
  8
002
 62
     3
 10
368.737499
 20
646.617386
 30
0.0
 11
368.737499
 21
619.617386
 31
0.0
  0
ARC
  5
4EF
  8
002
 62
     3
 10
361.237499
 20
625.617386
 30
0.0
 40
2.5
 50
180.0
 51
0.0
  0
LINE
  5
4F0
  8
002
 62
     3
 10
368.737499
 20
525.617386
 30
0.0
 11
368.737499
 21
498.617386
 31
0.0
  0
LINE
  5
4F1
  8
002
 62
     3
 10
368.737499
 20
498.617386
 30
0.0
 11
367.737499
 21
497.617386
 31
0.0
  0
LINE
  5
4F2
  8
002
 62
     3
 10
367.737499
 20
497.617386
 30
0.0
 11
354.737499
 21
497.617386
 31
0.0
  0
LINE
  5
4F3
  8
002
 62
     3
 10
354.737499
 20
497.617386
 30
0.0
 11
353.737499
 21
498.617386
 31
0.0
  0
LINE
  5
4F4
  8
002
 62
     3
 10
353.737499
 20
498.617386
 30
0.0
 11
353.737499
 21
525.617386
 31
0.0
  0
LINE
  5
4F5
  8
002
 62
     3
 10
358.737499
 20
519.617386
 30
0.0
 11
363.737499
 21
519.617386
 31
0.0
  0
LINE
  5
4F6
  8
002
 62
     3
 10
363.737499
 20
519.617386
 30
0.0
 11
363.737499
 21
497.617386
 31
0.0
  0
LINE
  5
4F7
  8
002
 62
     3
 10
363.737499
 20
498.617386
 30
0.0
 11
368.737499
 21
498.617386
 31
0.0
  0
LINE
  5
4F8
  8
002
 62
     3
 10
358.737499
 20
498.617386
 30
0.0
 11
353.737499
 21
498.617386
 31
0.0
  0
LINE
  5
4F9
  8
002
 62
     3
 10
358.737499
 20
497.617386
 30
0.0
 11
358.737499
 21
519.617386
 31
0.0
  0
ARC
  5
4FA
  8
002
 62
     3
 10
361.237499
 20
519.617386
 30
0.0
 40
2.5
 50
0.0
 51
180.0
  0
LINE
  5
4FB
  8
002
  6
CENTER
 62
    40
 10
329.237499
 20
612.98717
 30
0.0
 11
329.237499
 21
529.142333
 31
0.0
  0
LINE
  5
4FC
  8
002
  6
CENTER
 62
    40
 10
361.237499
 20
651.000327
 30
0.0
 11
361.237499
 21
493.154893
 31
0.0
  0
CIRCLE
  5
4FD
  8
002
 62
     3
 10
329.237499
 20
572.617386
 30
0.0
 40
28.50000000000006
  0
CIRCLE
  5
4FE
  8
002
 62
     3
 10
329.237149
 20
572.617386
 30
0.0
 40
7.999949999999899
  0
CIRCLE
  5
4FF
  8
002
 62
    40
 10
329.237499
 20
572.617386
 30
0.0
 40
6.770299999999907
  0
CIRCLE
  5
500
  8
002
 62
     3
 10
329.237499
 20
572.617386
 30
0.0
 40
6.000699999999824
  0
CIRCLE
  5
501
  8
002
 62
    40
 10
329.237499
 20
572.617386
 30
0.0
 40
4.95069999999987
  0
LINE
  5
502
  8
002
 62
     3
 10
209.040499
 20
171.570942
 30
0.0
 11
123.040499
 21
171.570942
 31
0.0
  0
LINE
  5
503
  8
002
 62
     3
 10
119.040499
 20
179.570942
 30
0.0
 11
122.130507
 21
179.570942
 31
0.0
  0
LINE
  5
504
  8
002
 62
     3
 10
119.040499
 20
223.570942
 30
0.0
 11
122.130507
 21
223.570942
 31
0.0
  0
LINE
  5
505
  8
002
 62
     3
 10
213.040499
 20
223.570942
 30
0.0
 11
209.950491
 21
223.570942
 31
0.0
  0
LINE
  5
506
  8
002
 62
     3
 10
213.040499
 20
179.570942
 30
0.0
 11
209.950491
 21
179.570942
 31
0.0
  0
LINE
  5
507
  8
002
 62
     3
 10
119.040499
 20
194.070942
 30
0.0
 11
92.040459
 21
194.070942
 31
0.0
  0
LINE
  5
508
  8
002
 62
     3
 10
92.040459
 20
194.070942
 30
0.0
 11
91.040459
 21
195.070942
 31
0.0
  0
LINE
  5
509
  8
002
 62
     3
 10
91.040459
 20
195.070942
 30
0.0
 11
91.040459
 21
211.070942
 31
0.0
  0
LINE
  5
50A
  8
002
 62
     3
 10
91.040459
 20
211.070942
 30
0.0
 11
113.040499
 21
211.070942
 31
0.0
  0
LINE
  5
50B
  8
002
 62
     3
 10
113.040499
 20
211.070942
 30
0.0
 11
113.040499
 21
208.642042
 31
0.0
  0
LINE
  5
50C
  8
002
 62
     3
 10
113.040499
 20
208.642042
 30
0.0
 11
115.540499
 21
209.070942
 31
0.0
  0
LINE
  5
50D
  8
002
 62
     3
 10
115.540499
 20
209.070942
 30
0.0
 11
119.040499
 21
209.070942
 31
0.0
  0
LINE
  5
50E
  8
002
 62
     3
 10
213.040499
 20
209.070942
 30
0.0
 11
216.540499
 21
209.070942
 31
0.0
  0
LINE
  5
50F
  8
002
 62
     3
 10
216.540499
 20
209.070942
 30
0.0
 11
219.040499
 21
208.642042
 31
0.0
  0
LINE
  5
510
  8
002
 62
     3
 10
219.040499
 20
208.642042
 30
0.0
 11
219.040499
 21
211.070942
 31
0.0
  0
LINE
  5
511
  8
002
 62
     3
 10
219.040499
 20
211.070942
 30
0.0
 11
241.040499
 21
211.070942
 31
0.0
  0
LINE
  5
512
  8
002
 62
     3
 10
241.040499
 20
211.070942
 30
0.0
 11
241.040499
 21
195.070942
 31
0.0
  0
LINE
  5
513
  8
002
 62
     3
 10
241.040499
 20
195.070942
 30
0.0
 11
240.040499
 21
194.070942
 31
0.0
  0
LINE
  5
514
  8
002
 62
     3
 10
240.040499
 20
194.070942
 30
0.0
 11
213.040499
 21
194.070942
 31
0.0
  0
LINE
  5
515
  8
002
 62
     3
 10
113.040499
 20
208.642042
 30
0.0
 11
91.611529
 21
208.642042
 31
0.0
  0
LINE
  5
516
  8
002
 62
     3
 10
91.611529
 20
208.642042
 30
0.0
 11
91.040459
 21
208.070942
 31
0.0
  0
LINE
  5
517
  8
002
 62
     3
 10
92.040459
 20
208.642042
 30
0.0
 11
92.040459
 21
194.070942
 31
0.0
  0
LINE
  5
518
  8
002
 62
     3
 10
219.040499
 20
208.642042
 30
0.0
 11
240.469399
 21
208.642042
 31
0.0
  0
LINE
  5
519
  8
002
 62
     3
 10
240.469399
 20
208.642042
 30
0.0
 11
241.040499
 21
208.070942
 31
0.0
  0
LINE
  5
51A
  8
002
 62
     3
 10
240.040499
 20
208.642042
 30
0.0
 11
240.040499
 21
194.070942
 31
0.0
  0
LINE
  5
51B
  8
002
 62
     3
 10
209.040499
 20
231.570942
 30
0.0
 11
209.040499
 21
171.570942
 31
0.0
  0
LINE
  5
51C
  8
002
 62
     3
 10
193.040499
 20
177.570942
 30
0.0
 11
193.040499
 21
171.570942
 31
0.0
  0
LINE
  5
51D
  8
002
 62
     3
 10
195.707582
 20
177.570942
 30
0.0
 11
195.707582
 21
231.570942
 31
0.0
  0
LINE
  5
51E
  8
002
 62
     3
 10
139.040499
 20
171.570942
 30
0.0
 11
139.040499
 21
177.570942
 31
0.0
  0
LINE
  5
51F
  8
002
 62
     3
 10
123.040499
 20
171.570942
 30
0.0
 11
123.040499
 21
231.570942
 31
0.0
  0
LINE
  5
520
  8
002
 62
     3
 10
136.373416
 20
177.570942
 30
0.0
 11
136.373416
 21
231.570942
 31
0.0
  0
POLYLINE
  5
521
  8
002
 62
     3
 66
     1
 10
0.0
 20
0.0
 30
0.0
  0
VERTEX
  5
523
  8
002
 62
     3
 10
195.707582
 20
231.570942
 30
0.0
  0
VERTEX
  5
524
  8
002
 62
     3
 10
195.702549
 20
231.567064
 30
0.0
  0
VERTEX
  5
525
  8
002
 62
     3
 10
195.697516
 20
231.563187
 30
0.0
  0
VERTEX
  5
526
  8
002
 62
     3
 10
195.374566
 20
231.316871
 30
0.0
  0
VERTEX
  5
527
  8
002
 62
     3
 10
195.048129
 20
231.075208
 30
0.0
  0
VERTEX
  5
528
  8
002
 62
     3
 10
194.712489
 20
230.837652
 30
0.0
  0
VERTEX
  5
529
  8
002
 62
     3
 10
194.370303
 20
230.609521
 30
0.0
  0
VERTEX
  5
52A
  8
002
 62
     3
 10
194.012499
 20
230.388831
 30
0.0
  0
VERTEX
  5
52B
  8
002
 62
     3
 10
193.645095
 20
230.184853
 30
0.0
  0
VERTEX
  5
52C
  8
002
 62
     3
 10
193.26498
 20
230.000918
 30
0.0
  0
VERTEX
  5
52D
  8
002
 62
     3
 10
192.873631
 20
229.841035
 30
0.0
  0
VERTEX
  5
52E
  8
002
 62
     3
 10
192.538391
 20
229.729409
 30
0.0
  0
VERTEX
  5
52F
  8
002
 62
     3
 10
192.195857
 20
229.646995
 30
0.0
  0
VERTEX
  5
530
  8
002
 62
     3
 10
191.835969
 20
229.598367
 30
0.0
  0
VERTEX
  5
531
  8
002
 62
     3
 10
191.472528
 20
229.570942
 30
0.0
  0
SEQEND
  5
522
  8
002
 62
     3
  0
POLYLINE
  5
532
  8
002
 62
     3
 66
     1
 10
0.0
 20
0.0
 30
0.0
  0
VERTEX
  5
534
  8
002
 62
     3
 10
191.472528
 20
179.570942
 30
0.0
  0
VERTEX
  5
535
  8
002
 62
     3
 10
191.827843
 20
179.544664
 30
0.0
  0
VERTEX
  5
536
  8
002
 62
     3
 10
192.179827
 20
179.498121
 30
0.0
  0
VERTEX
  5
537
  8
002
 62
     3
 10
192.530524
 20
179.414775
 30
0.0
  0
VERTEX
  5
538
  8
002
 62
     3
 10
192.873631
 20
179.30085
 30
0.0
  0
VERTEX
  5
539
  8
002
 62
     3
 10
193.258606
 20
179.143833
 30
0.0
  0
VERTEX
  5
53A
  8
002
 62
     3
 10
193.632688
 20
178.963481
 30
0.0
  0
VERTEX
  5
53B
  8
002
 62
     3
 10
193.994454
 20
178.763604
 30
0.0
  0
VERTEX
  5
53C
  8
002
 62
     3
 10
194.346886
 20
178.547382
 30
0.0
  0
VERTEX
  5
53D
  8
002
 62
     3
 10
194.695357
 20
178.316026
 30
0.0
  0
VERTEX
  5
53E
  8
002
 62
     3
 10
195.036982
 20
178.074772
 30
0.0
  0
VERTEX
  5
53F
  8
002
 62
     3
 10
195.369065
 20
177.829159
 30
0.0
  0
VERTEX
  5
540
  8
002
 62
     3
 10
195.697516
 20
177.578698
 30
0.0
  0
VERTEX
  5
541
  8
002
 62
     3
 10
195.702549
 20
177.57482
 30
0.0
  0
VERTEX
  5
542
  8
002
 62
     3
 10
195.707582
 20
177.570942
 30
0.0
  0
SEQEND
  5
533
  8
002
 62
     3
  0
ARC
  5
543
  8
002
 62
     3
 10
191.040499
 20
177.570942
 30
0.0
 40
2.0
 50
0.0
 51
90.0
  0
ARC
  5
544
  8
002
 62
     3
 10
191.040499
 20
231.570942
 30
0.0
 40
2.0
 50
270.0
 51
360.0
  0
ARC
  5
545
  8
002
 62
     3
 10
141.040499
 20
231.570942
 30
0.0
 40
2.0
 50
180.0
 51
270.0
  0
POLYLINE
  5
546
  8
002
 62
     3
 66
     1
 10
0.0
 20
0.0
 30
0.0
  0
VERTEX
  5
548
  8
002
 62
     3
 10
140.608471
 20
229.570942
 30
0.0
  0
VERTEX
  5
549
  8
002
 62
     3
 10
140.253155
 20
229.597221
 30
0.0
  0
VERTEX
  5
54A
  8
002
 62
     3
 10
139.901171
 20
229.643764
 30
0.0
  0
VERTEX
  5
54B
  8
002
 62
     3
 10
139.550474
 20
229.72711
 30
0.0
  0
VERTEX
  5
54C
  8
002
 62
     3
 10
139.207368
 20
229.841035
 30
0.0
  0
VERTEX
  5
54D
  8
002
 62
     3
 10
138.822392
 20
229.998052
 30
0.0
  0
VERTEX
  5
54E
  8
002
 62
     3
 10
138.448311
 20
230.178404
 30
0.0
  0
VERTEX
  5
54F
  8
002
 62
     3
 10
138.086544
 20
230.378281
 30
0.0
  0
VERTEX
  5
550
  8
002
 62
     3
 10
137.734112
 20
230.594503
 30
0.0
  0
VERTEX
  5
551
  8
002
 62
     3
 10
137.385641
 20
230.825858
 30
0.0
  0
VERTEX
  5
552
  8
002
 62
     3
 10
137.044016
 20
231.067113
 30
0.0
  0
VERTEX
  5
553
  8
002
 62
     3
 10
136.711933
 20
231.312726
 30
0.0
  0
VERTEX
  5
554
  8
002
 62
     3
 10
136.383482
 20
231.563187
 30
0.0
  0
VERTEX
  5
555
  8
002
 62
     3
 10
136.378449
 20
231.567064
 30
0.0
  0
VERTEX
  5
556
  8
002
 62
     3
 10
136.373416
 20
231.570942
 30
0.0
  0
SEQEND
  5
547
  8
002
 62
     3
  0
ARC
  5
557
  8
002
 62
     3
 10
141.040499
 20
177.570942
 30
0.0
 40
2.0
 50
90.0
 51
180.0
  0
POLYLINE
  5
558
  8
002
 62
     3
 66
     1
 10
0.0
 20
0.0
 30
0.0
  0
VERTEX
  5
55A
  8
002
 62
     3
 10
136.373416
 20
177.570942
 30
0.0
  0
VERTEX
  5
55B
  8
002
 62
     3
 10
136.378449
 20
177.57482
 30
0.0
  0
VERTEX
  5
55C
  8
002
 62
     3
 10
136.383482
 20
177.578698
 30
0.0
  0
VERTEX
  5
55D
  8
002
 62
     3
 10
136.706432
 20
177.825014
 30
0.0
  0
VERTEX
  5
55E
  8
002
 62
     3
 10
137.032869
 20
178.066677
 30
0.0
  0
VERTEX
  5
55F
  8
002
 62
     3
 10
137.368509
 20
178.304233
 30
0.0
  0
VERTEX
  5
560
  8
002
 62
     3
 10
137.710695
 20
178.532363
 30
0.0
  0
VERTEX
  5
561
  8
002
 62
     3
 10
138.068499
 20
178.753054
 30
0.0
  0
VERTEX
  5
562
  8
002
 62
     3
 10
138.435903
 20
178.957032
 30
0.0
  0
VERTEX
  5
563
  8
002
 62
     3
 10
138.816018
 20
179.140967
 30
0.0
  0
VERTEX
  5
564
  8
002
 62
     3
 10
139.207368
 20
179.30085
 30
0.0
  0
VERTEX
  5
565
  8
002
 62
     3
 10
139.542607
 20
179.412476
 30
0.0
  0
VERTEX
  5
566
  8
002
 62
     3
 10
139.885141
 20
179.49489
 30
0.0
  0
VERTEX
  5
567
  8
002
 62
     3
 10
140.245029
 20
179.543518
 30
0.0
  0
VERTEX
  5
568
  8
002
 62
     3
 10
140.608471
 20
179.570942
 30
0.0
  0
SEQEND
  5
559
  8
002
 62
     3
  0
LINE
  5
569
  8
002
 62
     3
 10
191.472528
 20
179.570942
 30
0.0
 11
140.608471
 21
179.570942
 31
0.0
  0
LINE
  5
56A
  8
002
 62
     3
 10
191.472528
 20
229.570942
 30
0.0
 11
140.608471
 21
229.570942
 31
0.0
  0
LINE
  5
56B
  8
002
 62
     3
 10
209.040499
 20
231.570942
 30
0.0
 11
123.040499
 21
231.570942
 31
0.0
  0
LINE
  5
56C
  8
002
 62
     3
 10
213.040499
 20
179.570942
 30
0.0
 11
213.040499
 21
223.570942
 31
0.0
  0
LINE
  5
56D
  8
002
 62
     3
 10
119.040499
 20
179.570942
 30
0.0
 11
119.040499
 21
223.570942
 31
0.0
  0
POLYLINE
  5
56E
  8
002
 62
     3
 66
     1
 10
0.0
 20
0.0
 30
0.0
  0
VERTEX
  5
570
  8
002
 62
     3
 10
209.950491
 20
223.570942
 30
0.0
  0
VERTEX
  5
571
  8
002
 62
     3
 10
209.828502
 20
223.58187
 30
0.0
  0
VERTEX
  5
572
  8
002
 62
     3
 10
209.70898
 20
223.603902
 30
0.0
  0
VERTEX
  5
573
  8
002
 62
     3
 10
209.60103
 20
223.642646
 30
0.0
  0
VERTEX
  5
574
  8
002
 62
     3
 10
209.499789
 20
223.697905
 30
0.0
  0
VERTEX
  5
575
  8
002
 62
     3
 10
209.384422
 20
223.787072
 30
0.0
  0
VERTEX
  5
576
  8
002
 62
     3
 10
209.285514
 20
223.893851
 30
0.0
  0
VERTEX
  5
577
  8
002
 62
     3
 10
209.203608
 20
224.015741
 30
0.0
  0
VERTEX
  5
578
  8
002
 62
     3
 10
209.138477
 20
224.147744
 30
0.0
  0
VERTEX
  5
579
  8
002
 62
     3
 10
209.095714
 20
224.264131
 30
0.0
  0
VERTEX
  5
57A
  8
002
 62
     3
 10
209.065688
 20
224.383974
 30
0.0
  0
VERTEX
  5
57B
  8
002
 62
     3
 10
209.04993
 20
224.496237
 30
0.0
  0
VERTEX
  5
57C
  8
002
 62
     3
 10
209.040499
 20
224.609576
 30
0.0
  0
SEQEND
  5
56F
  8
002
 62
     3
  0
POLYLINE
  5
57D
  8
002
 62
     3
 66
     1
 10
0.0
 20
0.0
 30
0.0
  0
VERTEX
  5
57F
  8
002
 62
     3
 10
209.040499
 20
178.532309
 30
0.0
  0
VERTEX
  5
580
  8
002
 62
     3
 10
209.061914
 20
178.709905
 30
0.0
  0
VERTEX
  5
581
  8
002
 62
     3
 10
209.098491
 20
178.884175
 30
0.0
  0
VERTEX
  5
582
  8
002
 62
     3
 10
209.171258
 20
179.06927
 30
0.0
  0
VERTEX
  5
583
  8
002
 62
     3
 10
209.277551
 20
179.23776
 30
0.0
  0
VERTEX
  5
584
  8
002
 62
     3
 10
209.352487
 20
179.323854
 30
0.0
  0
VERTEX
  5
585
  8
002
 62
     3
 10
209.437486
 20
179.400078
 30
0.0
  0
VERTEX
  5
586
  8
002
 62
     3
 10
209.538614
 20
179.467972
 30
0.0
  0
VERTEX
  5
587
  8
002
 62
     3
 10
209.648783
 20
179.518174
 30
0.0
  0
VERTEX
  5
588
  8
002
 62
     3
 10
209.797071
 20
179.553538
 30
0.0
  0
VERTEX
  5
589
  8
002
 62
     3
 10
209.950491
 20
179.570942
 30
0.0
  0
SEQEND
  5
57E
  8
002
 62
     3
  0
POLYLINE
  5
58A
  8
002
 62
     3
 66
     1
 10
0.0
 20
0.0
 30
0.0
  0
VERTEX
  5
58C
  8
002
 62
     3
 10
122.130507
 20
179.570942
 30
0.0
  0
VERTEX
  5
58D
  8
002
 62
     3
 10
122.252496
 20
179.560015
 30
0.0
  0
VERTEX
  5
58E
  8
002
 62
     3
 10
122.372018
 20
179.537983
 30
0.0
  0
VERTEX
  5
58F
  8
002
 62
     3
 10
122.479968
 20
179.499239
 30
0.0
  0
VERTEX
  5
590
  8
002
 62
     3
 10
122.581209
 20
179.443979
 30
0.0
  0
VERTEX
  5
591
  8
002
 62
     3
 10
122.696576
 20
179.354813
 30
0.0
  0
VERTEX
  5
592
  8
002
 62
     3
 10
122.795484
 20
179.248034
 30
0.0
  0
VERTEX
  5
593
  8
002
 62
     3
 10
122.87739
 20
179.126144
 30
0.0
  0
VERTEX
  5
594
  8
002
 62
     3
 10
122.942521
 20
178.994141
 30
0.0
  0
VERTEX
  5
595
  8
002
 62
     3
 10
122.985284
 20
178.877754
 30
0.0
  0
VERTEX
  5
596
  8
002
 62
     3
 10
123.01531
 20
178.757911
 30
0.0
  0
VERTEX
  5
597
  8
002
 62
     3
 10
123.031069
 20
178.645648
 30
0.0
  0
VERTEX
  5
598
  8
002
 62
     3
 10
123.040499
 20
178.532309
 30
0.0
  0
SEQEND
  5
58B
  8
002
 62
     3
  0
POLYLINE
  5
599
  8
002
 62
     3
 66
     1
 10
0.0
 20
0.0
 30
0.0
  0
VERTEX
  5
59B
  8
002
 62
     3
 10
123.040499
 20
224.609576
 30
0.0
  0
VERTEX
  5
59C
  8
002
 62
     3
 10
123.019084
 20
224.43198
 30
0.0
  0
VERTEX
  5
59D
  8
002
 62
     3
 10
122.982507
 20
224.25771
 30
0.0
  0
VERTEX
  5
59E
  8
002
 62
     3
 10
122.90974
 20
224.072615
 30
0.0
  0
VERTEX
  5
59F
  8
002
 62
     3
 10
122.803447
 20
223.904124
 30
0.0
  0
VERTEX
  5
5A0
  8
002
 62
     3
 10
122.728511
 20
223.818031
 30
0.0
  0
VERTEX
  5
5A1
  8
002
 62
     3
 10
122.643512
 20
223.741806
 30
0.0
  0
VERTEX
  5
5A2
  8
002
 62
     3
 10
122.542384
 20
223.673913
 30
0.0
  0
VERTEX
  5
5A3
  8
002
 62
     3
 10
122.432215
 20
223.623711
 30
0.0
  0
VERTEX
  5
5A4
  8
002
 62
     3
 10
122.283927
 20
223.588347
 30
0.0
  0
VERTEX
  5
5A5
  8
002
 62
     3
 10
122.130507
 20
223.570942
 30
0.0
  0
SEQEND
  5
59A
  8
002
 62
     3
  0
LINE
  5
5A6
  8
002
 62
     3
 10
193.540499
 20
281.570942
 30
0.0
 11
138.540499
 21
281.570942
 31
0.0
  0
LINE
  5
5A7
  8
002
 62
     3
 10
138.540499
 20
281.570942
 30
0.0
 11
137.540499
 21
280.570942
 31
0.0
  0
LINE
  5
5A8
  8
002
 62
     3
 10
193.540499
 20
281.570942
 30
0.0
 11
194.540499
 21
280.570942
 31
0.0
  0
LINE
  5
5A9
  8
002
 62
     3
 10
137.540499
 20
280.570942
 30
0.0
 11
137.540499
 21
231.570942
 31
0.0
  0
LINE
  5
5AA
  8
002
 62
     3
 10
194.540499
 20
280.570942
 30
0.0
 11
194.540499
 21
231.570942
 31
0.0
  0
LINE
  5
5AB
  8
002
 62
     3
 10
286.237499
 20
231.570942
 30
0.0
 11
286.237499
 21
171.570942
 31
0.0
  0
LINE
  5
5AC
  8
002
 62
     3
 10
397.237499
 20
231.570942
 30
0.0
 11
397.237499
 21
171.570942
 31
0.0
  0
LINE
  5
5AD
  8
002
 62
     3
 10
302.237499
 20
231.570942
 30
0.0
 11
302.237499
 21
171.570942
 31
0.0
  0
LINE
  5
5AE
  8
002
 62
     3
 10
397.237499
 20
231.570942
 30
0.0
 11
381.237499
 21
231.570942
 31
0.0
  0
LINE
  5
5AF
  8
002
 62
     3
 10
381.237499
 20
171.570942
 30
0.0
 11
397.237499
 21
171.570942
 31
0.0
  0
LINE
  5
5B0
  8
002
 62
     3
 10
365.237499
 20
225.570942
 30
0.0
 11
365.237499
 21
229.570942
 31
0.0
  0
LINE
  5
5B1
  8
002
 62
     3
 10
381.237499
 20
177.570942
 30
0.0
 11
381.237499
 21
171.570942
 31
0.0
  0
LINE
  5
5B2
  8
002
 62
     3
 10
381.237499
 20
225.570942
 30
0.0
 11
381.237499
 21
231.570942
 31
0.0
  0
ARC
  5
5B3
  8
002
 62
     3
 10
358.737499
 20
177.570942
 30
0.0
 40
2.0
 50
90.0
 51
180.0
  0
LINE
  5
5B4
  8
002
 62
     3
 10
356.737499
 20
177.570942
 30
0.0
 11
356.737499
 21
171.570942
 31
0.0
  0
LINE
  5
5B5
  8
002
 62
     3
 10
304.237499
 20
229.570942
 30
0.0
 11
365.237499
 21
229.570942
 31
0.0
  0
ARC
  5
5B6
  8
002
 62
     3
 10
304.237499
 20
231.570942
 30
0.0
 40
2.0
 50
180.0
 51
270.0
  0
ARC
  5
5B7
  8
002
 62
     3
 10
379.237499
 20
225.570942
 30
0.0
 40
2.0
 50
270.0
 51
0.0
  0
ARC
  5
5B8
  8
002
 62
     3
 10
367.237499
 20
225.570942
 30
0.0
 40
2.0
 50
180.0
 51
270.0
  0
ARC
  5
5B9
  8
002
 62
     3
 10
379.237499
 20
177.570942
 30
0.0
 40
2.0
 50
0.0
 51
90.0
  0
LINE
  5
5BA
  8
002
 62
     3
 10
339.237499
 20
221.570942
 30
0.0
 11
339.237499
 21
181.570942
 31
0.0
  0
LINE
  5
5BB
  8
002
 62
     3
 10
381.237499
 20
223.570942
 30
0.0
 11
341.237499
 21
223.570942
 31
0.0
  0
LINE
  5
5BC
  8
002
 62
     3
 10
383.237499
 20
181.570942
 30
0.0
 11
383.237499
 21
221.570942
 31
0.0
  0
LINE
  5
5BD
  8
002
 62
     3
 10
381.237499
 20
179.570942
 30
0.0
 11
341.237499
 21
179.570942
 31
0.0
  0
ARC
  5
5BE
  8
002
 62
     3
 10
341.237499
 20
181.570942
 30
0.0
 40
2.0
 50
180.0
 51
270.0
  0
ARC
  5
5BF
  8
002
 62
     3
 10
341.237499
 20
221.570942
 30
0.0
 40
2.0
 50
90.0
 51
180.0
  0
ARC
  5
5C0
  8
002
 62
     3
 10
381.237499
 20
221.570942
 30
0.0
 40
2.0
 50
0.0
 51
90.0
  0
ARC
  5
5C1
  8
002
 62
     3
 10
381.237499
 20
181.570942
 30
0.0
 40
2.0
 50
270.0
 51
0.0
  0
LINE
  5
5C2
  8
002
 62
     3
 10
356.737499
 20
171.570942
 30
0.0
 11
286.237499
 21
171.570942
 31
0.0
  0
LINE
  5
5C3
  8
002
 62
     3
 10
359.523299
 20
185.688342
 30
0.0
 11
359.523299
 21
187.742342
 31
0.0
  0
CIRCLE
  5
5C4
  8
002
 62
     3
 10
357.237499
 20
187.742342
 30
0.0
 40
1.0
  0
ARC
  5
5C5
  8
002
 62
     3
 10
357.237499
 20
187.742342
 30
0.0
 40
2.285799999999995
 50
0.0
 51
134.849339
  0
LINE
  5
5C6
  8
002
 62
     3
 10
362.951799
 20
187.742342
 30
0.0
 11
362.951799
 21
185.688342
 31
0.0
  0
ARC
  5
5C7
  8
002
 62
     3
 10
365.237499
 20
187.742342
 30
0.0
 40
2.285730572486588
 50
45.150661
 51
180.0
  0
ARC
  5
5C8
  8
002
 62
     3
 10
368.461499
 20
190.983342
 30
0.0
 40
2.285730572486588
 50
225.150661
 51
306.868895
  0
CIRCLE
  5
5C9
  8
002
 62
     3
 10
365.237499
 20
187.742342
 30
0.0
 40
1.0
  0
ARC
  5
5CA
  8
002
 62
     3
 10
354.013599
 20
190.983342
 30
0.0
 40
2.28572000035006
 50
233.131105
 51
314.847561
  0
ARC
  5
5CB
  8
002
 62
     3
 10
361.237499
 20
200.616042
 30
0.0
 40
14.32628000738505
 50
306.868058
 51
233.132262
  0
LINE
  5
5CC
  8
002
 62
     3
 10
363.487499
 20
206.070942
 30
0.0
 11
358.987499
 21
206.070942
 31
0.0
  0
LINE
  5
5CD
  8
002
 62
     3
 10
358.987499
 20
206.070942
 30
0.0
 11
358.737499
 21
206.320942
 31
0.0
  0
LINE
  5
5CE
  8
002
 62
     3
 10
358.737499
 20
206.320942
 30
0.0
 11
358.737499
 21
210.820942
 31
0.0
  0
LINE
  5
5CF
  8
002
 62
     3
 10
358.737499
 20
210.820942
 30
0.0
 11
358.987499
 21
211.070942
 31
0.0
  0
LINE
  5
5D0
  8
002
 62
     3
 10
358.987499
 20
211.070942
 30
0.0
 11
363.487499
 21
211.070942
 31
0.0
  0
LINE
  5
5D1
  8
002
 62
     3
 10
363.487499
 20
211.070942
 30
0.0
 11
363.737499
 21
210.820942
 31
0.0
  0
LINE
  5
5D2
  8
002
 62
     3
 10
363.737499
 20
210.820942
 30
0.0
 11
363.737499
 21
206.320942
 31
0.0
  0
LINE
  5
5D3
  8
002
 62
     3
 10
363.737499
 20
206.320942
 30
0.0
 11
363.487499
 21
206.070942
 31
0.0
  0
ARC
  5
5D4
  8
002
 62
     3
 10
363.537499
 20
206.270942
 30
0.0
 40
0.1999999999999886
 50
270.0
 51
0.0
  0
ARC
  5
5D5
  8
002
 62
     3
 10
361.237499
 20
201.570942
 30
0.0
 40
7.499936066394191
 50
109.471393
 51
70.528607
  0
ARC
  5
5D6
  8
002
 62
     3
 10
358.937499
 20
206.270942
 30
0.0
 40
0.2000000000000455
 50
180.0
 51
270.0
  0
CIRCLE
  5
5D7
  8
002
 62
     3
 10
361.237499
 20
201.570942
 30
0.0
 40
16.0
  0
LINE
  5
5D8
  8
002
  6
CENTER
 62
    40
 10
294.237499
 20
167.158742
 30
0.0
 11
294.237499
 21
236.465642
 31
0.0
  0
LINE
  5
5D9
  8
002
  6
CENTER
 62
    40
 10
389.237599
 20
167.158742
 30
0.0
 11
389.237599
 21
236.465642
 31
0.0
  0
LINE
  5
5DA
  8
002
  6
CENTER
 62
    40
 10
361.237499
 20
231.570942
 30
0.0
 11
361.237499
 21
170.119488
 31
0.0
  0
LINE
  5
5DB
  8
002
 62
     3
 10
302.237499
 20
231.570942
 30
0.0
 11
286.237499
 21
231.570942
 31
0.0
  0
LINE
  5
5DC
  8
002
 62
     3
 10
356.737499
 20
281.570942
 30
0.0
 11
301.737499
 21
281.570942
 31
0.0
  0
ARC
  5
5DD
  8
002
 62
     3
 10
358.737499
 20
231.570942
 30
0.0
 40
1.0
 50
180.0
 51
270.0
  0
LINE
  5
5DE
  8
002
 62
     3
 10
301.737499
 20
281.570942
 30
0.0
 11
300.737499
 21
280.570942
 31
0.0
  0
LINE
  5
5DF
  8
002
 62
     3
 10
356.737499
 20
281.570942
 30
0.0
 11
357.737499
 21
280.570942
 31
0.0
  0
LINE
  5
5E0
  8
002
 62
    40
 10
359.237499
 20
229.570942
 30
0.0
 11
359.237499
 21
230.570942
 31
0.0
  0
LINE
  5
5E1
  8
002
 62
     3
 10
360.237499
 20
229.570942
 30
0.0
 11
360.237499
 21
230.570942
 31
0.0
  0
LINE
  5
5E2
  8
002
 62
     3
 10
300.737499
 20
280.570942
 30
0.0
 11
300.737499
 21
231.570942
 31
0.0
  0
LINE
  5
5E3
  8
002
 62
     3
 10
357.737499
 20
280.570942
 30
0.0
 11
357.737499
 21
231.570942
 31
0.0
  0
LINE
  5
5E4
  8
002
 62
     3
 10
302.505448
 20
230.570942
 30
0.0
 11
360.237499
 21
230.570942
 31
0.0
  0
LINE
  5
5E5
  8
002
 62
     3
 10
356.737499
 20
167.570942
 30
0.0
 11
356.737499
 21
171.570942
 31
0.0
  0
LINE
  5
5E6
  8
002
 62
     3
 10
541.21362
 20
171.570942
 30
0.0
 11
541.21362
 21
231.570942
 31
0.0
  0
LINE
  5
5E7
  8
002
 62
     3
 10
557.21362
 20
171.570942
 30
0.0
 11
557.21362
 21
231.570942
 31
0.0
  0
LINE
  5
5E8
  8
002
 62
     3
 10
471.21362
 20
231.570942
 30
0.0
 11
471.21362
 21
171.570942
 31
0.0
  0
LINE
  5
5E9
  8
002
 62
     3
 10
487.21362
 20
231.570942
 30
0.0
 11
487.21362
 21
171.570942
 31
0.0
  0
POLYLINE
  5
5EA
  8
002
 62
     3
 66
     1
 10
0.0
 20
0.0
 30
0.0
  0
VERTEX
  5
5EC
  8
002
 62
     3
 10
541.21362
 20
224.609576
 30
0.0
  0
VERTEX
  5
5ED
  8
002
 62
     3
 10
541.192205
 20
224.43198
 30
0.0
  0
VERTEX
  5
5EE
  8
002
 62
     3
 10
541.155629
 20
224.25771
 30
0.0
  0
VERTEX
  5
5EF
  8
002
 62
     3
 10
541.082862
 20
224.072615
 30
0.0
  0
VERTEX
  5
5F0
  8
002
 62
     3
 10
540.976568
 20
223.904124
 30
0.0
  0
VERTEX
  5
5F1
  8
002
 62
     3
 10
540.901632
 20
223.818031
 30
0.0
  0
VERTEX
  5
5F2
  8
002
 62
     3
 10
540.816634
 20
223.741806
 30
0.0
  0
VERTEX
  5
5F3
  8
002
 62
     3
 10
540.715505
 20
223.673913
 30
0.0
  0
VERTEX
  5
5F4
  8
002
 62
     3
 10
540.605337
 20
223.623711
 30
0.0
  0
VERTEX
  5
5F5
  8
002
 62
     3
 10
540.457049
 20
223.588347
 30
0.0
  0
VERTEX
  5
5F6
  8
002
 62
     3
 10
540.303629
 20
223.570942
 30
0.0
  0
SEQEND
  5
5EB
  8
002
 62
     3
  0
POLYLINE
  5
5F7
  8
002
 62
     3
 66
     1
 10
0.0
 20
0.0
 30
0.0
  0
VERTEX
  5
5F9
  8
002
 62
     3
 10
558.123612
 20
179.570942
 30
0.0
  0
VERTEX
  5
5FA
  8
002
 62
     3
 10
558.001623
 20
179.560015
 30
0.0
  0
VERTEX
  5
5FB
  8
002
 62
     3
 10
557.882101
 20
179.537983
 30
0.0
  0
VERTEX
  5
5FC
  8
002
 62
     3
 10
557.774152
 20
179.499239
 30
0.0
  0
VERTEX
  5
5FD
  8
002
 62
     3
 10
557.67291
 20
179.443979
 30
0.0
  0
VERTEX
  5
5FE
  8
002
 62
     3
 10
557.557544
 20
179.354813
 30
0.0
  0
VERTEX
  5
5FF
  8
002
 62
     3
 10
557.458635
 20
179.248034
 30
0.0
  0
VERTEX
  5
600
  8
002
 62
     3
 10
557.37673
 20
179.126144
 30
0.0
  0
VERTEX
  5
601
  8
002
 62
     3
 10
557.311599
 20
178.994141
 30
0.0
  0
VERTEX
  5
602
  8
002
 62
     3
 10
557.268835
 20
178.877754
 30
0.0
  0
VERTEX
  5
603
  8
002
 62
     3
 10
557.238809
 20
178.757911
 30
0.0
  0
VERTEX
  5
604
  8
002
 62
     3
 10
557.223051
 20
178.645648
 30
0.0
  0
VERTEX
  5
605
  8
002
 62
     3
 10
557.21362
 20
178.532309
 30
0.0
  0
SEQEND
  5
5F8
  8
002
 62
     3
  0
POLYLINE
  5
606
  8
002
 62
     3
 66
     1
 10
0.0
 20
0.0
 30
0.0
  0
VERTEX
  5
608
  8
002
 62
     3
 10
557.21362
 20
224.609576
 30
0.0
  0
VERTEX
  5
609
  8
002
 62
     3
 10
557.235036
 20
224.43198
 30
0.0
  0
VERTEX
  5
60A
  8
002
 62
     3
 10
557.271612
 20
224.25771
 30
0.0
  0
VERTEX
  5
60B
  8
002
 62
     3
 10
557.344379
 20
224.072615
 30
0.0
  0
VERTEX
  5
60C
  8
002
 62
     3
 10
557.450673
 20
223.904124
 30
0.0
  0
VERTEX
  5
60D
  8
002
 62
     3
 10
557.525609
 20
223.818031
 30
0.0
  0
VERTEX
  5
60E
  8
002
 62
     3
 10
557.610607
 20
223.741806
 30
0.0
  0
VERTEX
  5
60F
  8
002
 62
     3
 10
557.711736
 20
223.673913
 30
0.0
  0
VERTEX
  5
610
  8
002
 62
     3
 10
557.821904
 20
223.623711
 30
0.0
  0
VERTEX
  5
611
  8
002
 62
     3
 10
557.970192
 20
223.588347
 30
0.0
  0
VERTEX
  5
612
  8
002
 62
     3
 10
558.123612
 20
223.570942
 30
0.0
  0
SEQEND
  5
607
  8
002
 62
     3
  0
POLYLINE
  5
613
  8
002
 62
     3
 66
     1
 10
0.0
 20
0.0
 30
0.0
  0
VERTEX
  5
615
  8
002
 62
     3
 10
540.303629
 20
179.570942
 30
0.0
  0
VERTEX
  5
616
  8
002
 62
     3
 10
540.425618
 20
179.560015
 30
0.0
  0
VERTEX
  5
617
  8
002
 62
     3
 10
540.54514
 20
179.537983
 30
0.0
  0
VERTEX
  5
618
  8
002
 62
     3
 10
540.653089
 20
179.499239
 30
0.0
  0
VERTEX
  5
619
  8
002
 62
     3
 10
540.754331
 20
179.443979
 30
0.0
  0
VERTEX
  5
61A
  8
002
 62
     3
 10
540.869697
 20
179.354813
 30
0.0
  0
VERTEX
  5
61B
  8
002
 62
     3
 10
540.968605
 20
179.248034
 30
0.0
  0
VERTEX
  5
61C
  8
002
 62
     3
 10
541.050511
 20
179.126144
 30
0.0
  0
VERTEX
  5
61D
  8
002
 62
     3
 10
541.115642
 20
178.994141
 30
0.0
  0
VERTEX
  5
61E
  8
002
 62
     3
 10
541.158406
 20
178.877754
 30
0.0
  0
VERTEX
  5
61F
  8
002
 62
     3
 10
541.188432
 20
178.757911
 30
0.0
  0
VERTEX
  5
620
  8
002
 62
     3
 10
541.20419
 20
178.645648
 30
0.0
  0
VERTEX
  5
621
  8
002
 62
     3
 10
541.21362
 20
178.532309
 30
0.0
  0
SEQEND
  5
614
  8
002
 62
     3
  0
POLYLINE
  5
622
  8
002
 62
     3
 66
     1
 10
0.0
 20
0.0
 30
0.0
  0
VERTEX
  5
624
  8
002
 62
     3
 10
487.21362
 20
178.532309
 30
0.0
  0
VERTEX
  5
625
  8
002
 62
     3
 10
487.235036
 20
178.709905
 30
0.0
  0
VERTEX
  5
626
  8
002
 62
     3
 10
487.271612
 20
178.884175
 30
0.0
  0
VERTEX
  5
627
  8
002
 62
     3
 10
487.344379
 20
179.06927
 30
0.0
  0
VERTEX
  5
628
  8
002
 62
     3
 10
487.450673
 20
179.23776
 30
0.0
  0
VERTEX
  5
629
  8
002
 62
     3
 10
487.525609
 20
179.323854
 30
0.0
  0
VERTEX
  5
62A
  8
002
 62
     3
 10
487.610607
 20
179.400078
 30
0.0
  0
VERTEX
  5
62B
  8
002
 62
     3
 10
487.711736
 20
179.467972
 30
0.0
  0
VERTEX
  5
62C
  8
002
 62
     3
 10
487.821904
 20
179.518174
 30
0.0
  0
VERTEX
  5
62D
  8
002
 62
     3
 10
487.970192
 20
179.553538
 30
0.0
  0
VERTEX
  5
62E
  8
002
 62
     3
 10
488.123612
 20
179.570942
 30
0.0
  0
SEQEND
  5
623
  8
002
 62
     3
  0
POLYLINE
  5
62F
  8
002
 62
     3
 66
     1
 10
0.0
 20
0.0
 30
0.0
  0
VERTEX
  5
631
  8
002
 62
     3
 10
470.303629
 20
223.570942
 30
0.0
  0
VERTEX
  5
632
  8
002
 62
     3
 10
470.425618
 20
223.58187
 30
0.0
  0
VERTEX
  5
633
  8
002
 62
     3
 10
470.54514
 20
223.603902
 30
0.0
  0
VERTEX
  5
634
  8
002
 62
     3
 10
470.653089
 20
223.642646
 30
0.0
  0
VERTEX
  5
635
  8
002
 62
     3
 10
470.754331
 20
223.697905
 30
0.0
  0
VERTEX
  5
636
  8
002
 62
     3
 10
470.869697
 20
223.787072
 30
0.0
  0
VERTEX
  5
637
  8
002
 62
     3
 10
470.968605
 20
223.893851
 30
0.0
  0
VERTEX
  5
638
  8
002
 62
     3
 10
471.050511
 20
224.015741
 30
0.0
  0
VERTEX
  5
639
  8
002
 62
     3
 10
471.115642
 20
224.147744
 30
0.0
  0
VERTEX
  5
63A
  8
002
 62
     3
 10
471.158406
 20
224.264131
 30
0.0
  0
VERTEX
  5
63B
  8
002
 62
     3
 10
471.188432
 20
224.383974
 30
0.0
  0
VERTEX
  5
63C
  8
002
 62
     3
 10
471.20419
 20
224.496237
 30
0.0
  0
VERTEX
  5
63D
  8
002
 62
     3
 10
471.21362
 20
224.609576
 30
0.0
  0
SEQEND
  5
630
  8
002
 62
     3
  0
POLYLINE
  5
63E
  8
002
 62
     3
 66
     1
 10
0.0
 20
0.0
 30
0.0
  0
VERTEX
  5
640
  8
002
 62
     3
 10
471.21362
 20
178.532309
 30
0.0
  0
VERTEX
  5
641
  8
002
 62
     3
 10
471.192205
 20
178.709905
 30
0.0
  0
VERTEX
  5
642
  8
002
 62
     3
 10
471.155629
 20
178.884175
 30
0.0
  0
VERTEX
  5
643
  8
002
 62
     3
 10
471.082862
 20
179.06927
 30
0.0
  0
VERTEX
  5
644
  8
002
 62
     3
 10
470.976568
 20
179.23776
 30
0.0
  0
VERTEX
  5
645
  8
002
 62
     3
 10
470.901632
 20
179.323854
 30
0.0
  0
VERTEX
  5
646
  8
002
 62
     3
 10
470.816634
 20
179.400078
 30
0.0
  0
VERTEX
  5
647
  8
002
 62
     3
 10
470.715505
 20
179.467972
 30
0.0
  0
VERTEX
  5
648
  8
002
 62
     3
 10
470.605337
 20
179.518174
 30
0.0
  0
VERTEX
  5
649
  8
002
 62
     3
 10
470.457049
 20
179.553538
 30
0.0
  0
VERTEX
  5
64A
  8
002
 62
     3
 10
470.303629
 20
179.570942
 30
0.0
  0
SEQEND
  5
63F
  8
002
 62
     3
  0
POLYLINE
  5
64B
  8
002
 62
     3
 66
     1
 10
0.0
 20
0.0
 30
0.0
  0
VERTEX
  5
64D
  8
002
 62
     3
 10
488.123612
 20
223.570942
 30
0.0
  0
VERTEX
  5
64E
  8
002
 62
     3
 10
488.001623
 20
223.58187
 30
0.0
  0
VERTEX
  5
64F
  8
002
 62
     3
 10
487.882101
 20
223.603902
 30
0.0
  0
VERTEX
  5
650
  8
002
 62
     3
 10
487.774152
 20
223.642646
 30
0.0
  0
VERTEX
  5
651
  8
002
 62
     3
 10
487.67291
 20
223.697905
 30
0.0
  0
VERTEX
  5
652
  8
002
 62
     3
 10
487.557544
 20
223.787072
 30
0.0
  0
VERTEX
  5
653
  8
002
 62
     3
 10
487.458635
 20
223.893851
 30
0.0
  0
VERTEX
  5
654
  8
002
 62
     3
 10
487.37673
 20
224.015741
 30
0.0
  0
VERTEX
  5
655
  8
002
 62
     3
 10
487.311599
 20
224.147744
 30
0.0
  0
VERTEX
  5
656
  8
002
 62
     3
 10
487.268835
 20
224.264131
 30
0.0
  0
VERTEX
  5
657
  8
002
 62
     3
 10
487.238809
 20
224.383974
 30
0.0
  0
VERTEX
  5
658
  8
002
 62
     3
 10
487.223051
 20
224.496237
 30
0.0
  0
VERTEX
  5
659
  8
002
 62
     3
 10
487.21362
 20
224.609576
 30
0.0
  0
SEQEND
  5
64C
  8
002
 62
     3
  0
LINE
  5
65A
  8
002
 62
     3
 10
561.21362
 20
223.570942
 30
0.0
 11
561.21362
 21
179.570942
 31
0.0
  0
LINE
  5
65B
  8
002
 62
     3
 10
467.21362
 20
223.570942
 30
0.0
 11
467.21362
 21
179.570942
 31
0.0
  0
LINE
  5
65C
  8
002
 62
     3
 10
540.303629
 20
179.570942
 30
0.0
 11
488.123612
 21
179.570942
 31
0.0
  0
LINE
  5
65D
  8
002
 62
     3
 10
540.303629
 20
223.570942
 30
0.0
 11
488.123612
 21
223.570942
 31
0.0
  0
LINE
  5
65E
  8
002
 62
     3
 10
541.21362
 20
229.570942
 30
0.0
 11
487.21362
 21
229.570942
 31
0.0
  0
LINE
  5
65F
  8
002
 62
     3
 10
557.21362
 20
231.570942
 30
0.0
 11
471.21362
 21
231.570942
 31
0.0
  0
ARC
  5
660
  8
002
 62
     3
 10
539.21362
 20
231.570942
 30
0.0
 40
2.0
 50
270.0
 51
360.0
  0
ARC
  5
661
  8
002
 62
     3
 10
489.21362
 20
231.570942
 30
0.0
 40
2.0
 50
180.0
 51
270.0
  0
LINE
  5
662
  8
002
 62
     3
 10
467.21362
 20
179.570942
 30
0.0
 11
470.303629
 21
179.570942
 31
0.0
  0
LINE
  5
663
  8
002
 62
     3
 10
467.21362
 20
223.570942
 30
0.0
 11
470.303629
 21
223.570942
 31
0.0
  0
LINE
  5
664
  8
002
 62
     3
 10
561.21362
 20
223.570942
 30
0.0
 11
558.123612
 21
223.570942
 31
0.0
  0
LINE
  5
665
  8
002
 62
     3
 10
561.21362
 20
179.570942
 30
0.0
 11
558.123612
 21
179.570942
 31
0.0
  0
LINE
  5
666
  8
002
 62
     3
 10
557.21362
 20
171.570942
 30
0.0
 11
471.21362
 21
171.570942
 31
0.0
  0
LINE
  5
667
  8
002
 62
     3
 10
467.21362
 20
194.070942
 30
0.0
 11
440.21358
 21
194.070942
 31
0.0
  0
LINE
  5
668
  8
002
 62
     3
 10
440.21358
 20
194.070942
 30
0.0
 11
439.21358
 21
195.070942
 31
0.0
  0
LINE
  5
669
  8
002
 62
     3
 10
439.21358
 20
195.070942
 30
0.0
 11
439.21358
 21
211.070942
 31
0.0
  0
LINE
  5
66A
  8
002
 62
     3
 10
439.21358
 20
211.070942
 30
0.0
 11
461.21362
 21
211.070942
 31
0.0
  0
LINE
  5
66B
  8
002
 62
     3
 10
461.21362
 20
211.070942
 30
0.0
 11
461.21362
 21
208.642042
 31
0.0
  0
LINE
  5
66C
  8
002
 62
     3
 10
461.21362
 20
208.642042
 30
0.0
 11
463.71362
 21
209.070942
 31
0.0
  0
LINE
  5
66D
  8
002
 62
     3
 10
463.71362
 20
209.070942
 30
0.0
 11
467.21362
 21
209.070942
 31
0.0
  0
LINE
  5
66E
  8
002
 62
     3
 10
561.21362
 20
209.070942
 30
0.0
 11
564.71362
 21
209.070942
 31
0.0
  0
LINE
  5
66F
  8
002
 62
     3
 10
564.71362
 20
209.070942
 30
0.0
 11
567.21362
 21
208.642042
 31
0.0
  0
LINE
  5
670
  8
002
 62
     3
 10
567.21362
 20
208.642042
 30
0.0
 11
567.21362
 21
211.070942
 31
0.0
  0
LINE
  5
671
  8
002
 62
     3
 10
567.21362
 20
211.070942
 30
0.0
 11
589.21362
 21
211.070942
 31
0.0
  0
LINE
  5
672
  8
002
 62
     3
 10
589.21362
 20
211.070942
 30
0.0
 11
589.21362
 21
195.070942
 31
0.0
  0
LINE
  5
673
  8
002
 62
     3
 10
589.21362
 20
195.070942
 30
0.0
 11
588.21362
 21
194.070942
 31
0.0
  0
LINE
  5
674
  8
002
 62
     3
 10
588.21362
 20
194.070942
 30
0.0
 11
561.21362
 21
194.070942
 31
0.0
  0
LINE
  5
675
  8
002
 62
     3
 10
461.21362
 20
208.642042
 30
0.0
 11
439.78465
 21
208.642042
 31
0.0
  0
LINE
  5
676
  8
002
 62
     3
 10
439.78465
 20
208.642042
 30
0.0
 11
439.21358
 21
208.070942
 31
0.0
  0
LINE
  5
677
  8
002
 62
     3
 10
440.21358
 20
208.642042
 30
0.0
 11
440.21358
 21
194.070942
 31
0.0
  0
LINE
  5
678
  8
002
 62
     3
 10
567.21362
 20
208.642042
 30
0.0
 11
588.64252
 21
208.642042
 31
0.0
  0
LINE
  5
679
  8
002
 62
     3
 10
588.64252
 20
208.642042
 30
0.0
 11
589.21362
 21
208.070942
 31
0.0
  0
LINE
  5
67A
  8
002
 62
     3
 10
588.21362
 20
208.642042
 30
0.0
 11
588.21362
 21
194.070942
 31
0.0
  0
LINE
  5
67B
  8
002
 62
     3
 10
541.71362
 20
281.570942
 30
0.0
 11
486.71362
 21
281.570942
 31
0.0
  0
LINE
  5
67C
  8
002
 62
     3
 10
486.71362
 20
281.570942
 30
0.0
 11
485.71362
 21
280.570942
 31
0.0
  0
LINE
  5
67D
  8
002
 62
     3
 10
541.71362
 20
281.570942
 30
0.0
 11
542.71362
 21
280.570942
 31
0.0
  0
LINE
  5
67E
  8
002
 62
     3
 10
485.71362
 20
280.570942
 30
0.0
 11
485.71362
 21
231.570942
 31
0.0
  0
LINE
  5
67F
  8
002
 62
     3
 10
542.71362
 20
280.570942
 30
0.0
 11
542.71362
 21
231.570942
 31
0.0
  0
LINE
  5
680
  8
002
 62
     3
 10
846.983136
 20
167.570942
 30
0.0
 11
846.983136
 21
171.570942
 31
0.0
  0
LINE
  5
681
  8
002
 62
     3
 10
776.483136
 20
231.570942
 30
0.0
 11
776.483136
 21
171.570942
 31
0.0
  0
LINE
  5
682
  8
002
 62
     3
 10
887.483136
 20
231.570942
 30
0.0
 11
887.483136
 21
171.570942
 31
0.0
  0
LINE
  5
683
  8
002
 62
     3
 10
792.483136
 20
231.570942
 30
0.0
 11
792.483136
 21
171.570942
 31
0.0
  0
LINE
  5
684
  8
002
 62
     3
 10
887.483136
 20
231.570942
 30
0.0
 11
871.483136
 21
231.570942
 31
0.0
  0
LINE
  5
685
  8
002
 62
     3
 10
871.483136
 20
171.570942
 30
0.0
 11
887.483136
 21
171.570942
 31
0.0
  0
LINE
  5
686
  8
002
 62
     3
 10
855.483136
 20
225.570942
 30
0.0
 11
855.483136
 21
229.570942
 31
0.0
  0
LINE
  5
687
  8
002
 62
     3
 10
871.483136
 20
177.570942
 30
0.0
 11
871.483136
 21
171.570942
 31
0.0
  0
LINE
  5
688
  8
002
 62
     3
 10
871.483136
 20
225.570942
 30
0.0
 11
871.483136
 21
231.570942
 31
0.0
  0
ARC
  5
689
  8
002
 62
     3
 10
848.983136
 20
177.570942
 30
0.0
 40
2.0
 50
90.0
 51
180.0
  0
LINE
  5
68A
  8
002
 62
     3
 10
846.983136
 20
177.570942
 30
0.0
 11
846.983136
 21
171.570942
 31
0.0
  0
LINE
  5
68B
  8
002
 62
     3
 10
794.483136
 20
229.570942
 30
0.0
 11
855.483136
 21
229.570942
 31
0.0
  0
ARC
  5
68C
  8
002
 62
     3
 10
794.483136
 20
231.570942
 30
0.0
 40
2.0
 50
180.0
 51
270.0
  0
ARC
  5
68D
  8
002
 62
     3
 10
869.483136
 20
225.570942
 30
0.0
 40
2.0
 50
270.0
 51
0.0
  0
ARC
  5
68E
  8
002
 62
     3
 10
857.483136
 20
225.570942
 30
0.0
 40
2.0
 50
180.0
 51
270.0
  0
ARC
  5
68F
  8
002
 62
     3
 10
869.483136
 20
177.570942
 30
0.0
 40
2.0
 50
0.0
 51
90.0
  0
LINE
  5
690
  8
002
 62
     3
 10
829.483136
 20
221.570942
 30
0.0
 11
829.483136
 21
181.570942
 31
0.0
  0
LINE
  5
691
  8
002
 62
     3
 10
871.483136
 20
223.570942
 30
0.0
 11
831.483136
 21
223.570942
 31
0.0
  0
LINE
  5
692
  8
002
 62
     3
 10
873.483136
 20
181.570942
 30
0.0
 11
873.483136
 21
221.570942
 31
0.0
  0
LINE
  5
693
  8
002
 62
     3
 10
871.483136
 20
179.570942
 30
0.0
 11
831.483136
 21
179.570942
 31
0.0
  0
ARC
  5
694
  8
002
 62
     3
 10
831.483136
 20
181.570942
 30
0.0
 40
2.0
 50
180.0
 51
270.0
  0
ARC
  5
695
  8
002
 62
     3
 10
831.483136
 20
221.570942
 30
0.0
 40
2.0
 50
90.0
 51
180.0
  0
ARC
  5
696
  8
002
 62
     3
 10
871.483136
 20
221.570942
 30
0.0
 40
2.0
 50
0.0
 51
90.0
  0
ARC
  5
697
  8
002
 62
     3
 10
871.483136
 20
181.570942
 30
0.0
 40
2.0
 50
270.0
 51
0.0
  0
LINE
  5
698
  8
002
 62
     3
 10
846.983136
 20
171.570942
 30
0.0
 11
776.483136
 21
171.570942
 31
0.0
  0
LINE
  5
699
  8
002
 62
     3
 10
849.768936
 20
185.688342
 30
0.0
 11
849.768936
 21
187.742342
 31
0.0
  0
CIRCLE
  5
69A
  8
002
 62
     3
 10
847.483136
 20
187.742342
 30
0.0
 40
1.0
  0
ARC
  5
69B
  8
002
 62
     3
 10
847.483136
 20
187.742342
 30
0.0
 40
2.285799999999995
 50
0.0
 51
134.849339
  0
LINE
  5
69C
  8
002
 62
     3
 10
853.197436
 20
187.742342
 30
0.0
 11
853.197436
 21
185.688342
 31
0.0
  0
ARC
  5
69D
  8
002
 62
     3
 10
855.483136
 20
187.742342
 30
0.0
 40
2.285730572486588
 50
45.150661
 51
180.0
  0
ARC
  5
69E
  8
002
 62
     3
 10
858.707136
 20
190.983342
 30
0.0
 40
2.285730572486588
 50
225.150661
 51
306.868895
  0
CIRCLE
  5
69F
  8
002
 62
     3
 10
855.483136
 20
187.742342
 30
0.0
 40
1.0
  0
ARC
  5
6A0
  8
002
 62
     3
 10
844.259236
 20
190.983342
 30
0.0
 40
2.28572000035006
 50
233.131105
 51
314.847561
  0
ARC
  5
6A1
  8
002
 62
     3
 10
851.483136
 20
200.616042
 30
0.0
 40
14.32628000738505
 50
306.868058
 51
233.132262
  0
LINE
  5
6A2
  8
002
 62
     3
 10
853.733136
 20
206.070942
 30
0.0
 11
849.233136
 21
206.070942
 31
0.0
  0
LINE
  5
6A3
  8
002
 62
     3
 10
849.233136
 20
206.070942
 30
0.0
 11
848.983136
 21
206.320942
 31
0.0
  0
LINE
  5
6A4
  8
002
 62
     3
 10
848.983136
 20
206.320942
 30
0.0
 11
848.983136
 21
210.820942
 31
0.0
  0
LINE
  5
6A5
  8
002
 62
     3
 10
848.983136
 20
210.820942
 30
0.0
 11
849.233136
 21
211.070942
 31
0.0
  0
LINE
  5
6A6
  8
002
 62
     3
 10
849.233136
 20
211.070942
 30
0.0
 11
853.733136
 21
211.070942
 31
0.0
  0
LINE
  5
6A7
  8
002
 62
     3
 10
853.733136
 20
211.070942
 30
0.0
 11
853.983136
 21
210.820942
 31
0.0
  0
LINE
  5
6A8
  8
002
 62
     3
 10
853.983136
 20
210.820942
 30
0.0
 11
853.983136
 21
206.320942
 31
0.0
  0
LINE
  5
6A9
  8
002
 62
     3
 10
853.983136
 20
206.320942
 30
0.0
 11
853.733136
 21
206.070942
 31
0.0
  0
ARC
  5
6AA
  8
002
 62
     3
 10
853.783136
 20
206.270942
 30
0.0
 40
0.1999999999999886
 50
270.0
 51
0.0
  0
ARC
  5
6AB
  8
002
 62
     3
 10
851.483136
 20
201.570942
 30
0.0
 40
7.499936066394191
 50
109.471393
 51
70.528607
  0
ARC
  5
6AC
  8
002
 62
     3
 10
849.183136
 20
206.270942
 30
0.0
 40
0.2000000000000455
 50
180.0
 51
270.0
  0
CIRCLE
  5
6AD
  8
002
 62
     3
 10
851.483136
 20
201.570942
 30
0.0
 40
16.0
  0
LINE
  5
6AE
  8
002
  6
CENTER
 62
    40
 10
784.483136
 20
167.158742
 30
0.0
 11
784.483136
 21
236.465642
 31
0.0
  0
LINE
  5
6AF
  8
002
  6
CENTER
 62
    40
 10
879.483236
 20
167.158742
 30
0.0
 11
879.483236
 21
236.465642
 31
0.0
  0
LINE
  5
6B0
  8
002
  6
CENTER
 62
    40
 10
851.483136
 20
231.570942
 30
0.0
 11
851.483136
 21
170.119488
 31
0.0
  0
LINE
  5
6B1
  8
002
 62
     3
 10
792.483136
 20
231.570942
 30
0.0
 11
776.483136
 21
231.570942
 31
0.0
  0
LINE
  5
6B2
  8
002
 62
     3
 10
846.983136
 20
281.570942
 30
0.0
 11
791.983136
 21
281.570942
 31
0.0
  0
ARC
  5
6B3
  8
002
 62
     3
 10
848.983136
 20
231.570942
 30
0.0
 40
1.0
 50
180.0
 51
270.0
  0
LINE
  5
6B4
  8
002
 62
     3
 10
791.983136
 20
281.570942
 30
0.0
 11
790.983136
 21
280.570942
 31
0.0
  0
LINE
  5
6B5
  8
002
 62
     3
 10
846.983136
 20
281.570942
 30
0.0
 11
847.983136
 21
280.570942
 31
0.0
  0
LINE
  5
6B6
  8
002
 62
    40
 10
849.483136
 20
229.570942
 30
0.0
 11
849.483136
 21
230.570942
 31
0.0
  0
LINE
  5
6B7
  8
002
 62
     3
 10
850.483136
 20
229.570942
 30
0.0
 11
850.483136
 21
230.570942
 31
0.0
  0
LINE
  5
6B8
  8
002
 62
     3
 10
790.983136
 20
280.570942
 30
0.0
 11
790.983136
 21
231.570942
 31
0.0
  0
LINE
  5
6B9
  8
002
 62
     3
 10
847.983136
 20
280.570942
 30
0.0
 11
847.983136
 21
231.570942
 31
0.0
  0
LINE
  5
6BA
  8
002
 62
     3
 10
792.751085
 20
230.570942
 30
0.0
 11
850.483136
 21
230.570942
 31
0.0
  0
CIRCLE
  5
6BB
  8
002
 62
     3
 10
1578.427012
 20
537.617386
 30
0.0
 40
8.0
  0
CIRCLE
  5
6BC
  8
002
 62
     3
 10
1578.427012
 20
607.617386
 30
0.0
 40
8.0
  0
CIRCLE
  5
6BD
  8
002
 62
     3
 10
1483.427012
 20
607.617386
 30
0.0
 40
8.0
  0
CIRCLE
  5
6BE
  8
002
 62
     3
 10
1483.427012
 20
537.617386
 30
0.0
 40
8.0
  0
LINE
  5
6BF
  8
002
 62
     3
 10
1574.427012
 20
545.617386
 30
0.0
 11
1578.427012
 21
545.617386
 31
0.0
  0
LINE
  5
6C0
  8
002
 62
     3
 10
1574.427012
 20
529.617386
 30
0.0
 11
1578.427012
 21
529.617386
 31
0.0
  0
LINE
  5
6C1
  8
002
 62
     3
 10
1574.427012
 20
615.617386
 30
0.0
 11
1578.427012
 21
615.617386
 31
0.0
  0
LINE
  5
6C2
  8
002
 62
     3
 10
1574.427012
 20
599.617386
 30
0.0
 11
1578.427012
 21
599.617386
 31
0.0
  0
LINE
  5
6C3
  8
002
 62
     3
 10
1572.427012
 20
597.617386
 30
0.0
 11
1572.427012
 21
547.617386
 31
0.0
  0
ARC
  5
6C4
  8
002
 62
     3
 10
1518.427012
 20
572.617386
 30
0.0
 40
36.00000000000006
 50
270.0
 51
90.0
  0
ARC
  5
6C5
  8
002
 62
     3
 10
1518.427012
 20
618.617386
 30
0.0
 40
10.0
 50
270.0
 51
0.0
  0
ARC
  5
6C6
  8
002
 62
     3
 10
1518.427012
 20
526.617386
 30
0.0
 40
10.0
 50
360.0
 51
90.0
  0
ARC
  5
6C7
  8
002
 62
     3
 10
1518.427012
 20
572.617386
 30
0.0
 40
36.00000000000006
 50
90.0
 51
102.306598
  0
ARC
  5
6C8
  8
002
 62
     3
 10
1458.828728
 20
585.619103
 30
0.0
 40
25.0
 50
347.693402
 51
41.806316
  0
ARC
  5
6C9
  8
002
 62
     3
 10
1505.425295
 20
632.215669
 30
0.0
 40
25.0
 50
228.193684
 51
282.306598
  0
ARC
  5
6CA
  8
002
 62
     3
 10
1458.828728
 20
559.615669
 30
0.0
 40
25.0
 50
318.193684
 51
12.306598
  0
ARC
  5
6CB
  8
002
 62
     3
 10
1505.425295
 20
513.019103
 30
0.0
 40
25.0
 50
77.693402
 51
131.806316
  0
ARC
  5
6CC
  8
002
 62
     3
 10
1518.427012
 20
572.617386
 30
0.0
 40
36.00000000000006
 50
167.693402
 51
192.306598
  0
ARC
  5
6CD
  8
002
 62
     3
 10
1518.427012
 20
572.617386
 30
0.0
 40
36.00000000000006
 50
257.693402
 51
270.0
  0
LINE
  5
6CE
  8
002
  6
CENTER
 62
    40
 10
1578.427012
 20
597.617386
 30
0.0
 11
1578.427012
 21
617.617386
 31
0.0
  0
LINE
  5
6CF
  8
002
  6
CENTER
 62
    40
 10
1588.427012
 20
607.617386
 30
0.0
 11
1568.427012
 21
607.617386
 31
0.0
  0
LINE
  5
6D0
  8
002
  6
CENTER
 62
    40
 10
1578.427012
 20
527.617386
 30
0.0
 11
1578.427012
 21
547.617386
 31
0.0
  0
LINE
  5
6D1
  8
002
  6
CENTER
 62
    40
 10
1588.427012
 20
537.617386
 30
0.0
 11
1568.427012
 21
537.617386
 31
0.0
  0
LINE
  5
6D2
  8
002
  6
CENTER
 62
    40
 10
1483.427012
 20
527.617386
 30
0.0
 11
1483.427012
 21
547.617386
 31
0.0
  0
LINE
  5
6D3
  8
002
  6
CENTER
 62
    40
 10
1493.427012
 20
537.617386
 30
0.0
 11
1473.427012
 21
537.617386
 31
0.0
  0
LINE
  5
6D4
  8
002
  6
CENTER
 62
    40
 10
1483.427012
 20
597.617386
 30
0.0
 11
1483.427012
 21
617.617386
 31
0.0
  0
LINE
  5
6D5
  8
002
  6
CENTER
 62
    40
 10
1493.427012
 20
607.617386
 30
0.0
 11
1473.427012
 21
607.617386
 31
0.0
  0
ARC
  5
6D6
  8
002
 62
     3
 10
1574.427012
 20
547.617386
 30
0.0
 40
2.0
 50
180.0
 51
270.0
  0
ARC
  5
6D7
  8
002
 62
     3
 10
1574.427012
 20
527.617386
 30
0.0
 40
2.0
 50
90.0
 51
180.0
  0
ARC
  5
6D8
  8
002
 62
     3
 10
1574.427012
 20
597.617386
 30
0.0
 40
2.0
 50
90.0
 51
180.0
  0
ARC
  5
6D9
  8
002
 62
     3
 10
1574.427012
 20
617.617386
 30
0.0
 40
2.0
 50
180.0
 51
270.0
  0
CIRCLE
  5
6DA
  8
002
 62
    40
 10
1518.427012
 20
572.617386
 30
0.0
 40
31.0
  0
CIRCLE
  5
6DB
  8
002
 62
    40
 10
1518.427012
 20
572.617386
 30
0.0
 40
29.9175
  0
LINE
  5
6DC
  8
002
 62
     3
 10
1528.427012
 20
619.617386
 30
0.0
 11
1572.427012
 21
619.617386
 31
0.0
  0
LINE
  5
6DD
  8
002
 62
     3
 10
1528.376886
 20
525.617386
 30
0.0
 11
1572.427012
 21
525.617386
 31
0.0
  0
LINE
  5
6DE
  8
002
 62
     3
 10
1528.427012
 20
618.617386
 30
0.0
 11
1528.427012
 21
619.617386
 31
0.0
  0
LINE
  5
6DF
  8
002
 62
     3
 10
1572.427012
 20
617.617386
 30
0.0
 11
1572.427012
 21
619.617386
 31
0.0
  0
LINE
  5
6E0
  8
002
 62
     3
 10
1572.427012
 20
527.617386
 30
0.0
 11
1572.427012
 21
525.617386
 31
0.0
  0
LINE
  5
6E1
  8
002
 62
     3
 10
1528.427012
 20
526.617386
 30
0.0
 11
1528.427012
 21
525.617386
 31
0.0
  0
LINE
  5
6E2
  8
002
 62
     3
 10
1542.927012
 20
619.617386
 30
0.0
 11
1542.927012
 21
646.617386
 31
0.0
  0
LINE
  5
6E3
  8
002
 62
     3
 10
1542.927012
 20
646.617386
 30
0.0
 11
1543.927012
 21
647.617386
 31
0.0
  0
LINE
  5
6E4
  8
002
 62
     3
 10
1543.927012
 20
647.617386
 30
0.0
 11
1556.927012
 21
647.617386
 31
0.0
  0
LINE
  5
6E5
  8
002
 62
     3
 10
1556.927012
 20
647.617386
 30
0.0
 11
1557.927012
 21
646.617386
 31
0.0
  0
LINE
  5
6E6
  8
002
 62
     3
 10
1557.927012
 20
646.617386
 30
0.0
 11
1552.927012
 21
646.617386
 31
0.0
  0
LINE
  5
6E7
  8
002
 62
     3
 10
1552.927012
 20
647.617386
 30
0.0
 11
1552.927012
 21
625.617386
 31
0.0
  0
LINE
  5
6E8
  8
002
 62
     3
 10
1552.927012
 20
625.617386
 30
0.0
 11
1547.927012
 21
625.617386
 31
0.0
  0
LINE
  5
6E9
  8
002
 62
     3
 10
1547.927012
 20
625.617386
 30
0.0
 11
1547.927012
 21
647.617386
 31
0.0
  0
LINE
  5
6EA
  8
002
 62
     3
 10
1547.927012
 20
646.617386
 30
0.0
 11
1542.927012
 21
646.617386
 31
0.0
  0
LINE
  5
6EB
  8
002
 62
     3
 10
1557.927012
 20
646.617386
 30
0.0
 11
1557.927012
 21
619.617386
 31
0.0
  0
ARC
  5
6EC
  8
002
 62
     3
 10
1550.427012
 20
625.617386
 30
0.0
 40
2.5
 50
180.0
 51
0.0
  0
LINE
  5
6ED
  8
002
 62
     3
 10
1557.927012
 20
525.617386
 30
0.0
 11
1557.927012
 21
498.617386
 31
0.0
  0
LINE
  5
6EE
  8
002
 62
     3
 10
1557.927012
 20
498.617386
 30
0.0
 11
1556.927012
 21
497.617386
 31
0.0
  0
LINE
  5
6EF
  8
002
 62
     3
 10
1556.927012
 20
497.617386
 30
0.0
 11
1543.927012
 21
497.617386
 31
0.0
  0
LINE
  5
6F0
  8
002
 62
     3
 10
1543.927012
 20
497.617386
 30
0.0
 11
1542.927012
 21
498.617386
 31
0.0
  0
LINE
  5
6F1
  8
002
 62
     3
 10
1542.927012
 20
498.617386
 30
0.0
 11
1542.927012
 21
525.617386
 31
0.0
  0
LINE
  5
6F2
  8
002
 62
     3
 10
1547.927012
 20
519.617386
 30
0.0
 11
1552.927012
 21
519.617386
 31
0.0
  0
LINE
  5
6F3
  8
002
 62
     3
 10
1552.927012
 20
519.617386
 30
0.0
 11
1552.927012
 21
497.617386
 31
0.0
  0
LINE
  5
6F4
  8
002
 62
     3
 10
1552.927012
 20
498.617386
 30
0.0
 11
1557.927012
 21
498.617386
 31
0.0
  0
LINE
  5
6F5
  8
002
 62
     3
 10
1547.927012
 20
498.617386
 30
0.0
 11
1542.927012
 21
498.617386
 31
0.0
  0
LINE
  5
6F6
  8
002
 62
     3
 10
1547.927012
 20
497.617386
 30
0.0
 11
1547.927012
 21
519.617386
 31
0.0
  0
ARC
  5
6F7
  8
002
 62
     3
 10
1550.427012
 20
519.617386
 30
0.0
 40
2.5
 50
0.0
 51
180.0
  0
LINE
  5
6F8
  8
002
  6
CENTER
 62
    40
 10
1550.427012
 20
651.000327
 30
0.0
 11
1550.427012
 21
493.154893
 31
0.0
  0
CIRCLE
  5
6F9
  8
002
 62
     3
 10
1518.427012
 20
572.617386
 30
0.0
 40
28.50000000000006
  0
LINE
  5
6FA
  8
002
 62
     3
 10
1398.230012
 20
171.570942
 30
0.0
 11
1312.230012
 21
171.570942
 31
0.0
  0
LINE
  5
6FB
  8
002
 62
     3
 10
1308.230012
 20
179.570942
 30
0.0
 11
1311.32002
 21
179.570942
 31
0.0
  0
LINE
  5
6FC
  8
002
 62
     3
 10
1308.230012
 20
223.570942
 30
0.0
 11
1311.32002
 21
223.570942
 31
0.0
  0
LINE
  5
6FD
  8
002
 62
     3
 10
1402.230012
 20
223.570942
 30
0.0
 11
1399.140003
 21
223.570942
 31
0.0
  0
LINE
  5
6FE
  8
002
 62
     3
 10
1402.230012
 20
179.570942
 30
0.0
 11
1399.140003
 21
179.570942
 31
0.0
  0
LINE
  5
6FF
  8
002
 62
     3
 10
1308.230012
 20
194.070942
 30
0.0
 11
1281.229972
 21
194.070942
 31
0.0
  0
LINE
  5
700
  8
002
 62
     3
 10
1281.229972
 20
194.070942
 30
0.0
 11
1280.229972
 21
195.070942
 31
0.0
  0
LINE
  5
701
  8
002
 62
     3
 10
1280.229972
 20
195.070942
 30
0.0
 11
1280.229972
 21
211.070942
 31
0.0
  0
LINE
  5
702
  8
002
 62
     3
 10
1280.229972
 20
211.070942
 30
0.0
 11
1302.230012
 21
211.070942
 31
0.0
  0
LINE
  5
703
  8
002
 62
     3
 10
1302.230012
 20
211.070942
 30
0.0
 11
1302.230012
 21
208.642042
 31
0.0
  0
LINE
  5
704
  8
002
 62
     3
 10
1302.230012
 20
208.642042
 30
0.0
 11
1304.730012
 21
209.070942
 31
0.0
  0
LINE
  5
705
  8
002
 62
     3
 10
1304.730012
 20
209.070942
 30
0.0
 11
1308.230012
 21
209.070942
 31
0.0
  0
LINE
  5
706
  8
002
 62
     3
 10
1402.230012
 20
209.070942
 30
0.0
 11
1405.730012
 21
209.070942
 31
0.0
  0
LINE
  5
707
  8
002
 62
     3
 10
1405.730012
 20
209.070942
 30
0.0
 11
1408.230012
 21
208.642042
 31
0.0
  0
LINE
  5
708
  8
002
 62
     3
 10
1408.230012
 20
208.642042
 30
0.0
 11
1408.230012
 21
211.070942
 31
0.0
  0
LINE
  5
709
  8
002
 62
     3
 10
1408.230012
 20
211.070942
 30
0.0
 11
1430.230012
 21
211.070942
 31
0.0
  0
LINE
  5
70A
  8
002
 62
     3
 10
1430.230012
 20
211.070942
 30
0.0
 11
1430.230012
 21
195.070942
 31
0.0
  0
LINE
  5
70B
  8
002
 62
     3
 10
1430.230012
 20
195.070942
 30
0.0
 11
1429.230012
 21
194.070942
 31
0.0
  0
LINE
  5
70C
  8
002
 62
     3
 10
1429.230012
 20
194.070942
 30
0.0
 11
1402.230012
 21
194.070942
 31
0.0
  0
LINE
  5
70D
  8
002
 62
     3
 10
1302.230012
 20
208.642042
 30
0.0
 11
1280.801042
 21
208.642042
 31
0.0
  0
LINE
  5
70E
  8
002
 62
     3
 10
1280.801042
 20
208.642042
 30
0.0
 11
1280.229972
 21
208.070942
 31
0.0
  0
LINE
  5
70F
  8
002
 62
     3
 10
1281.229972
 20
208.642042
 30
0.0
 11
1281.229972
 21
194.070942
 31
0.0
  0
LINE
  5
710
  8
002
 62
     3
 10
1408.230012
 20
208.642042
 30
0.0
 11
1429.658912
 21
208.642042
 31
0.0
  0
LINE
  5
711
  8
002
 62
     3
 10
1429.658912
 20
208.642042
 30
0.0
 11
1430.230012
 21
208.070942
 31
0.0
  0
LINE
  5
712
  8
002
 62
     3
 10
1429.230012
 20
208.642042
 30
0.0
 11
1429.230012
 21
194.070942
 31
0.0
  0
LINE
  5
713
  8
002
 62
     3
 10
1398.230012
 20
231.570942
 30
0.0
 11
1398.230012
 21
171.570942
 31
0.0
  0
LINE
  5
714
  8
002
 62
     3
 10
1382.230012
 20
177.570942
 30
0.0
 11
1382.230012
 21
171.570942
 31
0.0
  0
LINE
  5
715
  8
002
 62
     3
 10
1384.897095
 20
177.570942
 30
0.0
 11
1384.897095
 21
231.570942
 31
0.0
  0
LINE
  5
716
  8
002
 62
     3
 10
1328.230012
 20
171.570942
 30
0.0
 11
1328.230012
 21
177.570942
 31
0.0
  0
LINE
  5
717
  8
002
 62
     3
 10
1312.230012
 20
171.570942
 30
0.0
 11
1312.230012
 21
231.570942
 31
0.0
  0
LINE
  5
718
  8
002
 62
     3
 10
1325.562929
 20
177.570942
 30
0.0
 11
1325.562929
 21
231.570942
 31
0.0
  0
POLYLINE
  5
719
  8
002
 62
     3
 66
     1
 10
0.0
 20
0.0
 30
0.0
  0
VERTEX
  5
71B
  8
002
 62
     3
 10
1384.897095
 20
231.570942
 30
0.0
  0
VERTEX
  5
71C
  8
002
 62
     3
 10
1384.892062
 20
231.567064
 30
0.0
  0
VERTEX
  5
71D
  8
002
 62
     3
 10
1384.887029
 20
231.563187
 30
0.0
  0
VERTEX
  5
71E
  8
002
 62
     3
 10
1384.564079
 20
231.316871
 30
0.0
  0
VERTEX
  5
71F
  8
002
 62
     3
 10
1384.237642
 20
231.075208
 30
0.0
  0
VERTEX
  5
720
  8
002
 62
     3
 10
1383.902002
 20
230.837652
 30
0.0
  0
VERTEX
  5
721
  8
002
 62
     3
 10
1383.559816
 20
230.609521
 30
0.0
  0
VERTEX
  5
722
  8
002
 62
     3
 10
1383.202011
 20
230.388831
 30
0.0
  0
VERTEX
  5
723
  8
002
 62
     3
 10
1382.834607
 20
230.184853
 30
0.0
  0
VERTEX
  5
724
  8
002
 62
     3
 10
1382.454493
 20
230.000918
 30
0.0
  0
VERTEX
  5
725
  8
002
 62
     3
 10
1382.063143
 20
229.841035
 30
0.0
  0
VERTEX
  5
726
  8
002
 62
     3
 10
1381.727904
 20
229.729409
 30
0.0
  0
VERTEX
  5
727
  8
002
 62
     3
 10
1381.385369
 20
229.646995
 30
0.0
  0
VERTEX
  5
728
  8
002
 62
     3
 10
1381.025481
 20
229.598367
 30
0.0
  0
VERTEX
  5
729
  8
002
 62
     3
 10
1380.66204
 20
229.570942
 30
0.0
  0
SEQEND
  5
71A
  8
002
 62
     3
  0
POLYLINE
  5
72A
  8
002
 62
     3
 66
     1
 10
0.0
 20
0.0
 30
0.0
  0
VERTEX
  5
72C
  8
002
 62
     3
 10
1380.66204
 20
179.570942
 30
0.0
  0
VERTEX
  5
72D
  8
002
 62
     3
 10
1381.017356
 20
179.544664
 30
0.0
  0
VERTEX
  5
72E
  8
002
 62
     3
 10
1381.36934
 20
179.498121
 30
0.0
  0
VERTEX
  5
72F
  8
002
 62
     3
 10
1381.720037
 20
179.414775
 30
0.0
  0
VERTEX
  5
730
  8
002
 62
     3
 10
1382.063143
 20
179.30085
 30
0.0
  0
VERTEX
  5
731
  8
002
 62
     3
 10
1382.448118
 20
179.143833
 30
0.0
  0
VERTEX
  5
732
  8
002
 62
     3
 10
1382.8222
 20
178.963481
 30
0.0
  0
VERTEX
  5
733
  8
002
 62
     3
 10
1383.183966
 20
178.763604
 30
0.0
  0
VERTEX
  5
734
  8
002
 62
     3
 10
1383.536399
 20
178.547382
 30
0.0
  0
VERTEX
  5
735
  8
002
 62
     3
 10
1383.88487
 20
178.316026
 30
0.0
  0
VERTEX
  5
736
  8
002
 62
     3
 10
1384.226495
 20
178.074772
 30
0.0
  0
VERTEX
  5
737
  8
002
 62
     3
 10
1384.558578
 20
177.829159
 30
0.0
  0
VERTEX
  5
738
  8
002
 62
     3
 10
1384.887029
 20
177.578698
 30
0.0
  0
VERTEX
  5
739
  8
002
 62
     3
 10
1384.892062
 20
177.57482
 30
0.0
  0
VERTEX
  5
73A
  8
002
 62
     3
 10
1384.897095
 20
177.570942
 30
0.0
  0
SEQEND
  5
72B
  8
002
 62
     3
  0
ARC
  5
73B
  8
002
 62
     3
 10
1380.230012
 20
177.570942
 30
0.0
 40
2.0
 50
0.0
 51
90.0
  0
ARC
  5
73C
  8
002
 62
     3
 10
1380.230012
 20
231.570942
 30
0.0
 40
2.0
 50
270.0
 51
360.0
  0
ARC
  5
73D
  8
002
 62
     3
 10
1330.230012
 20
231.570942
 30
0.0
 40
2.0
 50
180.0
 51
270.0
  0
POLYLINE
  5
73E
  8
002
 62
     3
 66
     1
 10
0.0
 20
0.0
 30
0.0
  0
VERTEX
  5
740
  8
002
 62
     3
 10
1329.797983
 20
229.570942
 30
0.0
  0
VERTEX
  5
741
  8
002
 62
     3
 10
1329.442667
 20
229.597221
 30
0.0
  0
VERTEX
  5
742
  8
002
 62
     3
 10
1329.090684
 20
229.643764
 30
0.0
  0
VERTEX
  5
743
  8
002
 62
     3
 10
1328.739987
 20
229.72711
 30
0.0
  0
VERTEX
  5
744
  8
002
 62
     3
 10
1328.39688
 20
229.841035
 30
0.0
  0
VERTEX
  5
745
  8
002
 62
     3
 10
1328.011905
 20
229.998052
 30
0.0
  0
VERTEX
  5
746
  8
002
 62
     3
 10
1327.637823
 20
230.178404
 30
0.0
  0
VERTEX
  5
747
  8
002
 62
     3
 10
1327.276057
 20
230.378281
 30
0.0
  0
VERTEX
  5
748
  8
002
 62
     3
 10
1326.923624
 20
230.594503
 30
0.0
  0
VERTEX
  5
749
  8
002
 62
     3
 10
1326.575153
 20
230.825858
 30
0.0
  0
VERTEX
  5
74A
  8
002
 62
     3
 10
1326.233529
 20
231.067113
 30
0.0
  0
VERTEX
  5
74B
  8
002
 62
     3
 10
1325.901446
 20
231.312726
 30
0.0
  0
VERTEX
  5
74C
  8
002
 62
     3
 10
1325.572995
 20
231.563187
 30
0.0
  0
VERTEX
  5
74D
  8
002
 62
     3
 10
1325.567962
 20
231.567064
 30
0.0
  0
VERTEX
  5
74E
  8
002
 62
     3
 10
1325.562929
 20
231.570942
 30
0.0
  0
SEQEND
  5
73F
  8
002
 62
     3
  0
ARC
  5
74F
  8
002
 62
     3
 10
1330.230012
 20
177.570942
 30
0.0
 40
2.0
 50
90.0
 51
180.0
  0
POLYLINE
  5
750
  8
002
 62
     3
 66
     1
 10
0.0
 20
0.0
 30
0.0
  0
VERTEX
  5
752
  8
002
 62
     3
 10
1325.562929
 20
177.570942
 30
0.0
  0
VERTEX
  5
753
  8
002
 62
     3
 10
1325.567962
 20
177.57482
 30
0.0
  0
VERTEX
  5
754
  8
002
 62
     3
 10
1325.572995
 20
177.578698
 30
0.0
  0
VERTEX
  5
755
  8
002
 62
     3
 10
1325.895945
 20
177.825014
 30
0.0
  0
VERTEX
  5
756
  8
002
 62
     3
 10
1326.222381
 20
178.066677
 30
0.0
  0
VERTEX
  5
757
  8
002
 62
     3
 10
1326.558022
 20
178.304233
 30
0.0
  0
VERTEX
  5
758
  8
002
 62
     3
 10
1326.900207
 20
178.532363
 30
0.0
  0
VERTEX
  5
759
  8
002
 62
     3
 10
1327.258012
 20
178.753054
 30
0.0
  0
VERTEX
  5
75A
  8
002
 62
     3
 10
1327.625416
 20
178.957032
 30
0.0
  0
VERTEX
  5
75B
  8
002
 62
     3
 10
1328.005531
 20
179.140967
 30
0.0
  0
VERTEX
  5
75C
  8
002
 62
     3
 10
1328.39688
 20
179.30085
 30
0.0
  0
VERTEX
  5
75D
  8
002
 62
     3
 10
1328.732119
 20
179.412476
 30
0.0
  0
VERTEX
  5
75E
  8
002
 62
     3
 10
1329.074654
 20
179.49489
 30
0.0
  0
VERTEX
  5
75F
  8
002
 62
     3
 10
1329.434542
 20
179.543518
 30
0.0
  0
VERTEX
  5
760
  8
002
 62
     3
 10
1329.797983
 20
179.570942
 30
0.0
  0
SEQEND
  5
751
  8
002
 62
     3
  0
LINE
  5
761
  8
002
 62
     3
 10
1380.66204
 20
179.570942
 30
0.0
 11
1329.797983
 21
179.570942
 31
0.0
  0
LINE
  5
762
  8
002
 62
     3
 10
1380.66204
 20
229.570942
 30
0.0
 11
1329.797983
 21
229.570942
 31
0.0
  0
LINE
  5
763
  8
002
 62
     3
 10
1398.230012
 20
231.570942
 30
0.0
 11
1312.230012
 21
231.570942
 31
0.0
  0
LINE
  5
764
  8
002
 62
     3
 10
1402.230012
 20
179.570942
 30
0.0
 11
1402.230012
 21
223.570942
 31
0.0
  0
LINE
  5
765
  8
002
 62
     3
 10
1308.230012
 20
179.570942
 30
0.0
 11
1308.230012
 21
223.570942
 31
0.0
  0
POLYLINE
  5
766
  8
002
 62
     3
 66
     1
 10
0.0
 20
0.0
 30
0.0
  0
VERTEX
  5
768
  8
002
 62
     3
 10
1399.140003
 20
223.570942
 30
0.0
  0
VERTEX
  5
769
  8
002
 62
     3
 10
1399.018015
 20
223.58187
 30
0.0
  0
VERTEX
  5
76A
  8
002
 62
     3
 10
1398.898492
 20
223.603902
 30
0.0
  0
VERTEX
  5
76B
  8
002
 62
     3
 10
1398.790543
 20
223.642646
 30
0.0
  0
VERTEX
  5
76C
  8
002
 62
     3
 10
1398.689301
 20
223.697905
 30
0.0
  0
VERTEX
  5
76D
  8
002
 62
     3
 10
1398.573935
 20
223.787072
 30
0.0
  0
VERTEX
  5
76E
  8
002
 62
     3
 10
1398.475027
 20
223.893851
 30
0.0
  0
VERTEX
  5
76F
  8
002
 62
     3
 10
1398.393121
 20
224.015741
 30
0.0
  0
VERTEX
  5
770
  8
002
 62
     3
 10
1398.32799
 20
224.147744
 30
0.0
  0
VERTEX
  5
771
  8
002
 62
     3
 10
1398.285226
 20
224.264131
 30
0.0
  0
VERTEX
  5
772
  8
002
 62
     3
 10
1398.2552
 20
224.383974
 30
0.0
  0
VERTEX
  5
773
  8
002
 62
     3
 10
1398.239442
 20
224.496237
 30
0.0
  0
VERTEX
  5
774
  8
002
 62
     3
 10
1398.230012
 20
224.609576
 30
0.0
  0
SEQEND
  5
767
  8
002
 62
     3
  0
POLYLINE
  5
775
  8
002
 62
     3
 66
     1
 10
0.0
 20
0.0
 30
0.0
  0
VERTEX
  5
777
  8
002
 62
     3
 10
1398.230012
 20
178.532309
 30
0.0
  0
VERTEX
  5
778
  8
002
 62
     3
 10
1398.251427
 20
178.709905
 30
0.0
  0
VERTEX
  5
779
  8
002
 62
     3
 10
1398.288004
 20
178.884175
 30
0.0
  0
VERTEX
  5
77A
  8
002
 62
     3
 10
1398.36077
 20
179.06927
 30
0.0
  0
VERTEX
  5
77B
  8
002
 62
     3
 10
1398.467064
 20
179.23776
 30
0.0
  0
VERTEX
  5
77C
  8
002
 62
     3
 10
1398.542
 20
179.323854
 30
0.0
  0
VERTEX
  5
77D
  8
002
 62
     3
 10
1398.626998
 20
179.400078
 30
0.0
  0
VERTEX
  5
77E
  8
002
 62
     3
 10
1398.728127
 20
179.467972
 30
0.0
  0
VERTEX
  5
77F
  8
002
 62
     3
 10
1398.838296
 20
179.518174
 30
0.0
  0
VERTEX
  5
780
  8
002
 62
     3
 10
1398.986583
 20
179.553538
 30
0.0
  0
VERTEX
  5
781
  8
002
 62
     3
 10
1399.140003
 20
179.570942
 30
0.0
  0
SEQEND
  5
776
  8
002
 62
     3
  0
POLYLINE
  5
782
  8
002
 62
     3
 66
     1
 10
0.0
 20
0.0
 30
0.0
  0
VERTEX
  5
784
  8
002
 62
     3
 10
1311.32002
 20
179.570942
 30
0.0
  0
VERTEX
  5
785
  8
002
 62
     3
 10
1311.442009
 20
179.560015
 30
0.0
  0
VERTEX
  5
786
  8
002
 62
     3
 10
1311.561531
 20
179.537983
 30
0.0
  0
VERTEX
  5
787
  8
002
 62
     3
 10
1311.66948
 20
179.499239
 30
0.0
  0
VERTEX
  5
788
  8
002
 62
     3
 10
1311.770722
 20
179.443979
 30
0.0
  0
VERTEX
  5
789
  8
002
 62
     3
 10
1311.886088
 20
179.354813
 30
0.0
  0
VERTEX
  5
78A
  8
002
 62
     3
 10
1311.984997
 20
179.248034
 30
0.0
  0
VERTEX
  5
78B
  8
002
 62
     3
 10
1312.066903
 20
179.126144
 30
0.0
  0
VERTEX
  5
78C
  8
002
 62
     3
 10
1312.132034
 20
178.994141
 30
0.0
  0
VERTEX
  5
78D
  8
002
 62
     3
 10
1312.174797
 20
178.877754
 30
0.0
  0
VERTEX
  5
78E
  8
002
 62
     3
 10
1312.204823
 20
178.757911
 30
0.0
  0
VERTEX
  5
78F
  8
002
 62
     3
 10
1312.220581
 20
178.645648
 30
0.0
  0
VERTEX
  5
790
  8
002
 62
     3
 10
1312.230012
 20
178.532309
 30
0.0
  0
SEQEND
  5
783
  8
002
 62
     3
  0
POLYLINE
  5
791
  8
002
 62
     3
 66
     1
 10
0.0
 20
0.0
 30
0.0
  0
VERTEX
  5
793
  8
002
 62
     3
 10
1312.230012
 20
224.609576
 30
0.0
  0
VERTEX
  5
794
  8
002
 62
     3
 10
1312.208597
 20
224.43198
 30
0.0
  0
VERTEX
  5
795
  8
002
 62
     3
 10
1312.17202
 20
224.25771
 30
0.0
  0
VERTEX
  5
796
  8
002
 62
     3
 10
1312.099253
 20
224.072615
 30
0.0
  0
VERTEX
  5
797
  8
002
 62
     3
 10
1311.992959
 20
223.904124
 30
0.0
  0
VERTEX
  5
798
  8
002
 62
     3
 10
1311.918023
 20
223.818031
 30
0.0
  0
VERTEX
  5
799
  8
002
 62
     3
 10
1311.833025
 20
223.741806
 30
0.0
  0
VERTEX
  5
79A
  8
002
 62
     3
 10
1311.731896
 20
223.673913
 30
0.0
  0
VERTEX
  5
79B
  8
002
 62
     3
 10
1311.621728
 20
223.623711
 30
0.0
  0
VERTEX
  5
79C
  8
002
 62
     3
 10
1311.47344
 20
223.588347
 30
0.0
  0
VERTEX
  5
79D
  8
002
 62
     3
 10
1311.32002
 20
223.570942
 30
0.0
  0
SEQEND
  5
792
  8
002
 62
     3
  0
LINE
  5
79E
  8
002
 62
     3
 10
1382.730012
 20
281.570942
 30
0.0
 11
1327.730012
 21
281.570942
 31
0.0
  0
LINE
  5
79F
  8
002
 62
     3
 10
1327.730012
 20
281.570942
 30
0.0
 11
1326.730012
 21
280.570942
 31
0.0
  0
LINE
  5
7A0
  8
002
 62
     3
 10
1382.730012
 20
281.570942
 30
0.0
 11
1383.730012
 21
280.570942
 31
0.0
  0
LINE
  5
7A1
  8
002
 62
     3
 10
1326.730012
 20
280.570942
 30
0.0
 11
1326.730012
 21
231.570942
 31
0.0
  0
LINE
  5
7A2
  8
002
 62
     3
 10
1383.730012
 20
280.570942
 30
0.0
 11
1383.730012
 21
231.570942
 31
0.0
  0
LINE
  5
7A3
  8
002
 62
     3
 10
1475.427012
 20
231.570942
 30
0.0
 11
1475.427012
 21
171.570942
 31
0.0
  0
LINE
  5
7A4
  8
002
 62
     3
 10
1586.427012
 20
231.570942
 30
0.0
 11
1586.427012
 21
171.570942
 31
0.0
  0
LINE
  5
7A5
  8
002
 62
     3
 10
1491.427012
 20
231.570942
 30
0.0
 11
1491.427012
 21
171.570942
 31
0.0
  0
LINE
  5
7A6
  8
002
 62
     3
 10
1586.427012
 20
231.570942
 30
0.0
 11
1570.427012
 21
231.570942
 31
0.0
  0
LINE
  5
7A7
  8
002
 62
     3
 10
1570.427012
 20
171.570942
 30
0.0
 11
1586.427012
 21
171.570942
 31
0.0
  0
LINE
  5
7A8
  8
002
 62
     3
 10
1554.427012
 20
225.570942
 30
0.0
 11
1554.427012
 21
229.570942
 31
0.0
  0
LINE
  5
7A9
  8
002
 62
     3
 10
1570.427012
 20
177.570942
 30
0.0
 11
1570.427012
 21
171.570942
 31
0.0
  0
LINE
  5
7AA
  8
002
 62
     3
 10
1570.427012
 20
225.570942
 30
0.0
 11
1570.427012
 21
231.570942
 31
0.0
  0
ARC
  5
7AB
  8
002
 62
     3
 10
1547.927012
 20
177.570942
 30
0.0
 40
2.0
 50
90.0
 51
180.0
  0
LINE
  5
7AC
  8
002
 62
     3
 10
1545.927012
 20
177.570942
 30
0.0
 11
1545.927012
 21
171.570942
 31
0.0
  0
LINE
  5
7AD
  8
002
 62
     3
 10
1493.427012
 20
229.570942
 30
0.0
 11
1554.427012
 21
229.570942
 31
0.0
  0
ARC
  5
7AE
  8
002
 62
     3
 10
1493.427012
 20
231.570942
 30
0.0
 40
2.0
 50
180.0
 51
270.0
  0
ARC
  5
7AF
  8
002
 62
     3
 10
1568.427012
 20
225.570942
 30
0.0
 40
2.0
 50
270.0
 51
0.0
  0
ARC
  5
7B0
  8
002
 62
     3
 10
1556.427012
 20
225.570942
 30
0.0
 40
2.0
 50
180.0
 51
270.0
  0
ARC
  5
7B1
  8
002
 62
     3
 10
1568.427012
 20
177.570942
 30
0.0
 40
2.0
 50
0.0
 51
90.0
  0
LINE
  5
7B2
  8
002
 62
     3
 10
1528.427012
 20
221.570942
 30
0.0
 11
1528.427012
 21
181.570942
 31
0.0
  0
LINE
  5
7B3
  8
002
 62
     3
 10
1570.427012
 20
223.570942
 30
0.0
 11
1530.427012
 21
223.570942
 31
0.0
  0
LINE
  5
7B4
  8
002
 62
     3
 10
1572.427012
 20
181.570942
 30
0.0
 11
1572.427012
 21
221.570942
 31
0.0
  0
LINE
  5
7B5
  8
002
 62
     3
 10
1570.427012
 20
179.570942
 30
0.0
 11
1530.427012
 21
179.570942
 31
0.0
  0
ARC
  5
7B6
  8
002
 62
     3
 10
1530.427012
 20
181.570942
 30
0.0
 40
2.0
 50
180.0
 51
270.0
  0
ARC
  5
7B7
  8
002
 62
     3
 10
1530.427012
 20
221.570942
 30
0.0
 40
2.0
 50
90.0
 51
180.0
  0
ARC
  5
7B8
  8
002
 62
     3
 10
1570.427012
 20
221.570942
 30
0.0
 40
2.0
 50
0.0
 51
90.0
  0
ARC
  5
7B9
  8
002
 62
     3
 10
1570.427012
 20
181.570942
 30
0.0
 40
2.0
 50
270.0
 51
0.0
  0
LINE
  5
7BA
  8
002
 62
     3
 10
1545.927012
 20
171.570942
 30
0.0
 11
1475.427012
 21
171.570942
 31
0.0
  0
LINE
  5
7BB
  8
002
 62
     3
 10
1548.712812
 20
185.688342
 30
0.0
 11
1548.712812
 21
187.742342
 31
0.0
  0
CIRCLE
  5
7BC
  8
002
 62
     3
 10
1546.427012
 20
187.742342
 30
0.0
 40
1.0
  0
ARC
  5
7BD
  8
002
 62
     3
 10
1546.427012
 20
187.742342
 30
0.0
 40
2.285799999999995
 50
0.0
 51
134.849339
  0
LINE
  5
7BE
  8
002
 62
     3
 10
1552.141312
 20
187.742342
 30
0.0
 11
1552.141312
 21
185.688342
 31
0.0
  0
ARC
  5
7BF
  8
002
 62
     3
 10
1554.427012
 20
187.742342
 30
0.0
 40
2.285730572486588
 50
45.150661
 51
180.0
  0
ARC
  5
7C0
  8
002
 62
     3
 10
1557.651012
 20
190.983342
 30
0.0
 40
2.285730572486588
 50
225.150661
 51
306.868895
  0
CIRCLE
  5
7C1
  8
002
 62
     3
 10
1554.427012
 20
187.742342
 30
0.0
 40
1.0
  0
ARC
  5
7C2
  8
002
 62
     3
 10
1543.203112
 20
190.983342
 30
0.0
 40
2.28572000035006
 50
233.131105
 51
314.847561
  0
ARC
  5
7C3
  8
002
 62
     3
 10
1550.427012
 20
200.616042
 30
0.0
 40
14.32628000738505
 50
306.868058
 51
233.132262
  0
LINE
  5
7C4
  8
002
 62
     3
 10
1552.677012
 20
206.070942
 30
0.0
 11
1548.177012
 21
206.070942
 31
0.0
  0
LINE
  5
7C5
  8
002
 62
     3
 10
1548.177012
 20
206.070942
 30
0.0
 11
1547.927012
 21
206.320942
 31
0.0
  0
LINE
  5
7C6
  8
002
 62
     3
 10
1547.927012
 20
206.320942
 30
0.0
 11
1547.927012
 21
210.820942
 31
0.0
  0
LINE
  5
7C7
  8
002
 62
     3
 10
1547.927012
 20
210.820942
 30
0.0
 11
1548.177012
 21
211.070942
 31
0.0
  0
LINE
  5
7C8
  8
002
 62
     3
 10
1548.177012
 20
211.070942
 30
0.0
 11
1552.677012
 21
211.070942
 31
0.0
  0
LINE
  5
7C9
  8
002
 62
     3
 10
1552.677012
 20
211.070942
 30
0.0
 11
1552.927012
 21
210.820942
 31
0.0
  0
LINE
  5
7CA
  8
002
 62
     3
 10
1552.927012
 20
210.820942
 30
0.0
 11
1552.927012
 21
206.320942
 31
0.0
  0
LINE
  5
7CB
  8
002
 62
     3
 10
1552.927012
 20
206.320942
 30
0.0
 11
1552.677012
 21
206.070942
 31
0.0
  0
ARC
  5
7CC
  8
002
 62
     3
 10
1552.727012
 20
206.270942
 30
0.0
 40
0.1999999999999886
 50
270.0
 51
0.0
  0
ARC
  5
7CD
  8
002
 62
     3
 10
1550.427012
 20
201.570942
 30
0.0
 40
7.499936066394191
 50
109.471393
 51
70.528607
  0
ARC
  5
7CE
  8
002
 62
     3
 10
1548.127012
 20
206.270942
 30
0.0
 40
0.2000000000000455
 50
180.0
 51
270.0
  0
CIRCLE
  5
7CF
  8
002
 62
     3
 10
1550.427012
 20
201.570942
 30
0.0
 40
16.0
  0
LINE
  5
7D0
  8
002
  6
CENTER
 62
    40
 10
1483.427012
 20
167.158742
 30
0.0
 11
1483.427012
 21
236.465642
 31
0.0
  0
LINE
  5
7D1
  8
002
  6
CENTER
 62
    40
 10
1578.427112
 20
167.158742
 30
0.0
 11
1578.427112
 21
236.465642
 31
0.0
  0
LINE
  5
7D2
  8
002
  6
CENTER
 62
    40
 10
1550.427012
 20
231.570942
 30
0.0
 11
1550.427012
 21
170.119488
 31
0.0
  0
LINE
  5
7D3
  8
002
 62
     3
 10
1491.427012
 20
231.570942
 30
0.0
 11
1475.427012
 21
231.570942
 31
0.0
  0
LINE
  5
7D4
  8
002
 62
     3
 10
1545.927012
 20
281.570942
 30
0.0
 11
1490.927012
 21
281.570942
 31
0.0
  0
ARC
  5
7D5
  8
002
 62
     3
 10
1547.927012
 20
231.570942
 30
0.0
 40
1.0
 50
180.0
 51
270.0
  0
LINE
  5
7D6
  8
002
 62
     3
 10
1490.927012
 20
281.570942
 30
0.0
 11
1489.927012
 21
280.570942
 31
0.0
  0
LINE
  5
7D7
  8
002
 62
     3
 10
1545.927012
 20
281.570942
 30
0.0
 11
1546.927012
 21
280.570942
 31
0.0
  0
LINE
  5
7D8
  8
002
 62
    40
 10
1548.427012
 20
229.570942
 30
0.0
 11
1548.427012
 21
230.570942
 31
0.0
  0
LINE
  5
7D9
  8
002
 62
     3
 10
1549.427012
 20
229.570942
 30
0.0
 11
1549.427012
 21
230.570942
 31
0.0
  0
LINE
  5
7DA
  8
002
 62
     3
 10
1489.927012
 20
280.570942
 30
0.0
 11
1489.927012
 21
231.570942
 31
0.0
  0
LINE
  5
7DB
  8
002
 62
     3
 10
1546.927012
 20
280.570942
 30
0.0
 11
1546.927012
 21
231.570942
 31
0.0
  0
LINE
  5
7DC
  8
002
 62
     3
 10
1491.694961
 20
230.570942
 30
0.0
 11
1549.427012
 21
230.570942
 31
0.0
  0
LINE
  5
7DD
  8
002
 62
     3
 10
1730.403133
 20
171.570942
 30
0.0
 11
1730.403133
 21
231.570942
 31
0.0
  0
LINE
  5
7DE
  8
002
 62
     3
 10
1746.403133
 20
171.570942
 30
0.0
 11
1746.403133
 21
231.570942
 31
0.0
  0
LINE
  5
7DF
  8
002
 62
     3
 10
1660.403133
 20
231.570942
 30
0.0
 11
1660.403133
 21
171.570942
 31
0.0
  0
LINE
  5
7E0
  8
002
 62
     3
 10
1676.403133
 20
231.570942
 30
0.0
 11
1676.403133
 21
171.570942
 31
0.0
  0
POLYLINE
  5
7E1
  8
002
 62
     3
 66
     1
 10
0.0
 20
0.0
 30
0.0
  0
VERTEX
  5
7E3
  8
002
 62
     3
 10
1730.403133
 20
224.609576
 30
0.0
  0
VERTEX
  5
7E4
  8
002
 62
     3
 10
1730.381718
 20
224.43198
 30
0.0
  0
VERTEX
  5
7E5
  8
002
 62
     3
 10
1730.345141
 20
224.25771
 30
0.0
  0
VERTEX
  5
7E6
  8
002
 62
     3
 10
1730.272374
 20
224.072615
 30
0.0
  0
VERTEX
  5
7E7
  8
002
 62
     3
 10
1730.166081
 20
223.904124
 30
0.0
  0
VERTEX
  5
7E8
  8
002
 62
     3
 10
1730.091145
 20
223.818031
 30
0.0
  0
VERTEX
  5
7E9
  8
002
 62
     3
 10
1730.006146
 20
223.741806
 30
0.0
  0
VERTEX
  5
7EA
  8
002
 62
     3
 10
1729.905018
 20
223.673913
 30
0.0
  0
VERTEX
  5
7EB
  8
002
 62
     3
 10
1729.794849
 20
223.623711
 30
0.0
  0
VERTEX
  5
7EC
  8
002
 62
     3
 10
1729.646561
 20
223.588347
 30
0.0
  0
VERTEX
  5
7ED
  8
002
 62
     3
 10
1729.493141
 20
223.570942
 30
0.0
  0
SEQEND
  5
7E2
  8
002
 62
     3
  0
POLYLINE
  5
7EE
  8
002
 62
     3
 66
     1
 10
0.0
 20
0.0
 30
0.0
  0
VERTEX
  5
7F0
  8
002
 62
     3
 10
1747.313125
 20
179.570942
 30
0.0
  0
VERTEX
  5
7F1
  8
002
 62
     3
 10
1747.191136
 20
179.560015
 30
0.0
  0
VERTEX
  5
7F2
  8
002
 62
     3
 10
1747.071614
 20
179.537983
 30
0.0
  0
VERTEX
  5
7F3
  8
002
 62
     3
 10
1746.963664
 20
179.499239
 30
0.0
  0
VERTEX
  5
7F4
  8
002
 62
     3
 10
1746.862423
 20
179.443979
 30
0.0
  0
VERTEX
  5
7F5
  8
002
 62
     3
 10
1746.747056
 20
179.354813
 30
0.0
  0
VERTEX
  5
7F6
  8
002
 62
     3
 10
1746.648148
 20
179.248034
 30
0.0
  0
VERTEX
  5
7F7
  8
002
 62
     3
 10
1746.566242
 20
179.126144
 30
0.0
  0
VERTEX
  5
7F8
  8
002
 62
     3
 10
1746.501111
 20
178.994141
 30
0.0
  0
VERTEX
  5
7F9
  8
002
 62
     3
 10
1746.458348
 20
178.877754
 30
0.0
  0
VERTEX
  5
7FA
  8
002
 62
     3
 10
1746.428322
 20
178.757911
 30
0.0
  0
VERTEX
  5
7FB
  8
002
 62
     3
 10
1746.412564
 20
178.645648
 30
0.0
  0
VERTEX
  5
7FC
  8
002
 62
     3
 10
1746.403133
 20
178.532309
 30
0.0
  0
SEQEND
  5
7EF
  8
002
 62
     3
  0
POLYLINE
  5
7FD
  8
002
 62
     3
 66
     1
 10
0.0
 20
0.0
 30
0.0
  0
VERTEX
  5
7FF
  8
002
 62
     3
 10
1746.403133
 20
224.609576
 30
0.0
  0
VERTEX
  5
800
  8
002
 62
     3
 10
1746.424548
 20
224.43198
 30
0.0
  0
VERTEX
  5
801
  8
002
 62
     3
 10
1746.461125
 20
224.25771
 30
0.0
  0
VERTEX
  5
802
  8
002
 62
     3
 10
1746.533892
 20
224.072615
 30
0.0
  0
VERTEX
  5
803
  8
002
 62
     3
 10
1746.640185
 20
223.904124
 30
0.0
  0
VERTEX
  5
804
  8
002
 62
     3
 10
1746.715121
 20
223.818031
 30
0.0
  0
VERTEX
  5
805
  8
002
 62
     3
 10
1746.80012
 20
223.741806
 30
0.0
  0
VERTEX
  5
806
  8
002
 62
     3
 10
1746.901248
 20
223.673913
 30
0.0
  0
VERTEX
  5
807
  8
002
 62
     3
 10
1747.011417
 20
223.623711
 30
0.0
  0
VERTEX
  5
808
  8
002
 62
     3
 10
1747.159705
 20
223.588347
 30
0.0
  0
VERTEX
  5
809
  8
002
 62
     3
 10
1747.313125
 20
223.570942
 30
0.0
  0
SEQEND
  5
7FE
  8
002
 62
     3
  0
POLYLINE
  5
80A
  8
002
 62
     3
 66
     1
 10
0.0
 20
0.0
 30
0.0
  0
VERTEX
  5
80C
  8
002
 62
     3
 10
1729.493141
 20
179.570942
 30
0.0
  0
VERTEX
  5
80D
  8
002
 62
     3
 10
1729.61513
 20
179.560015
 30
0.0
  0
VERTEX
  5
80E
  8
002
 62
     3
 10
1729.734652
 20
179.537983
 30
0.0
  0
VERTEX
  5
80F
  8
002
 62
     3
 10
1729.842602
 20
179.499239
 30
0.0
  0
VERTEX
  5
810
  8
002
 62
     3
 10
1729.943843
 20
179.443979
 30
0.0
  0
VERTEX
  5
811
  8
002
 62
     3
 10
1730.05921
 20
179.354813
 30
0.0
  0
VERTEX
  5
812
  8
002
 62
     3
 10
1730.158118
 20
179.248034
 30
0.0
  0
VERTEX
  5
813
  8
002
 62
     3
 10
1730.240024
 20
179.126144
 30
0.0
  0
VERTEX
  5
814
  8
002
 62
     3
 10
1730.305155
 20
178.994141
 30
0.0
  0
VERTEX
  5
815
  8
002
 62
     3
 10
1730.347918
 20
178.877754
 30
0.0
  0
VERTEX
  5
816
  8
002
 62
     3
 10
1730.377944
 20
178.757911
 30
0.0
  0
VERTEX
  5
817
  8
002
 62
     3
 10
1730.393703
 20
178.645648
 30
0.0
  0
VERTEX
  5
818
  8
002
 62
     3
 10
1730.403133
 20
178.532309
 30
0.0
  0
SEQEND
  5
80B
  8
002
 62
     3
  0
POLYLINE
  5
819
  8
002
 62
     3
 66
     1
 10
0.0
 20
0.0
 30
0.0
  0
VERTEX
  5
81B
  8
002
 62
     3
 10
1676.403133
 20
178.532309
 30
0.0
  0
VERTEX
  5
81C
  8
002
 62
     3
 10
1676.424548
 20
178.709905
 30
0.0
  0
VERTEX
  5
81D
  8
002
 62
     3
 10
1676.461125
 20
178.884175
 30
0.0
  0
VERTEX
  5
81E
  8
002
 62
     3
 10
1676.533892
 20
179.06927
 30
0.0
  0
VERTEX
  5
81F
  8
002
 62
     3
 10
1676.640185
 20
179.23776
 30
0.0
  0
VERTEX
  5
820
  8
002
 62
     3
 10
1676.715121
 20
179.323854
 30
0.0
  0
VERTEX
  5
821
  8
002
 62
     3
 10
1676.80012
 20
179.400078
 30
0.0
  0
VERTEX
  5
822
  8
002
 62
     3
 10
1676.901248
 20
179.467972
 30
0.0
  0
VERTEX
  5
823
  8
002
 62
     3
 10
1677.011417
 20
179.518174
 30
0.0
  0
VERTEX
  5
824
  8
002
 62
     3
 10
1677.159705
 20
179.553538
 30
0.0
  0
VERTEX
  5
825
  8
002
 62
     3
 10
1677.313125
 20
179.570942
 30
0.0
  0
SEQEND
  5
81A
  8
002
 62
     3
  0
POLYLINE
  5
826
  8
002
 62
     3
 66
     1
 10
0.0
 20
0.0
 30
0.0
  0
VERTEX
  5
828
  8
002
 62
     3
 10
1659.493141
 20
223.570942
 30
0.0
  0
VERTEX
  5
829
  8
002
 62
     3
 10
1659.61513
 20
223.58187
 30
0.0
  0
VERTEX
  5
82A
  8
002
 62
     3
 10
1659.734652
 20
223.603902
 30
0.0
  0
VERTEX
  5
82B
  8
002
 62
     3
 10
1659.842602
 20
223.642646
 30
0.0
  0
VERTEX
  5
82C
  8
002
 62
     3
 10
1659.943843
 20
223.697905
 30
0.0
  0
VERTEX
  5
82D
  8
002
 62
     3
 10
1660.05921
 20
223.787072
 30
0.0
  0
VERTEX
  5
82E
  8
002
 62
     3
 10
1660.158118
 20
223.893851
 30
0.0
  0
VERTEX
  5
82F
  8
002
 62
     3
 10
1660.240024
 20
224.015741
 30
0.0
  0
VERTEX
  5
830
  8
002
 62
     3
 10
1660.305155
 20
224.147744
 30
0.0
  0
VERTEX
  5
831
  8
002
 62
     3
 10
1660.347918
 20
224.264131
 30
0.0
  0
VERTEX
  5
832
  8
002
 62
     3
 10
1660.377944
 20
224.383974
 30
0.0
  0
VERTEX
  5
833
  8
002
 62
     3
 10
1660.393703
 20
224.496237
 30
0.0
  0
VERTEX
  5
834
  8
002
 62
     3
 10
1660.403133
 20
224.609576
 30
0.0
  0
SEQEND
  5
827
  8
002
 62
     3
  0
POLYLINE
  5
835
  8
002
 62
     3
 66
     1
 10
0.0
 20
0.0
 30
0.0
  0
VERTEX
  5
837
  8
002
 62
     3
 10
1660.403133
 20
178.532309
 30
0.0
  0
VERTEX
  5
838
  8
002
 62
     3
 10
1660.381718
 20
178.709905
 30
0.0
  0
VERTEX
  5
839
  8
002
 62
     3
 10
1660.345141
 20
178.884175
 30
0.0
  0
VERTEX
  5
83A
  8
002
 62
     3
 10
1660.272374
 20
179.06927
 30
0.0
  0
VERTEX
  5
83B
  8
002
 62
     3
 10
1660.166081
 20
179.23776
 30
0.0
  0
VERTEX
  5
83C
  8
002
 62
     3
 10
1660.091145
 20
179.323854
 30
0.0
  0
VERTEX
  5
83D
  8
002
 62
     3
 10
1660.006146
 20
179.400078
 30
0.0
  0
VERTEX
  5
83E
  8
002
 62
     3
 10
1659.905018
 20
179.467972
 30
0.0
  0
VERTEX
  5
83F
  8
002
 62
     3
 10
1659.794849
 20
179.518174
 30
0.0
  0
VERTEX
  5
840
  8
002
 62
     3
 10
1659.646561
 20
179.553538
 30
0.0
  0
VERTEX
  5
841
  8
002
 62
     3
 10
1659.493141
 20
179.570942
 30
0.0
  0
SEQEND
  5
836
  8
002
 62
     3
  0
POLYLINE
  5
842
  8
002
 62
     3
 66
     1
 10
0.0
 20
0.0
 30
0.0
  0
VERTEX
  5
844
  8
002
 62
     3
 10
1677.313125
 20
223.570942
 30
0.0
  0
VERTEX
  5
845
  8
002
 62
     3
 10
1677.191136
 20
223.58187
 30
0.0
  0
VERTEX
  5
846
  8
002
 62
     3
 10
1677.071614
 20
223.603902
 30
0.0
  0
VERTEX
  5
847
  8
002
 62
     3
 10
1676.963664
 20
223.642646
 30
0.0
  0
VERTEX
  5
848
  8
002
 62
     3
 10
1676.862423
 20
223.697905
 30
0.0
  0
VERTEX
  5
849
  8
002
 62
     3
 10
1676.747056
 20
223.787072
 30
0.0
  0
VERTEX
  5
84A
  8
002
 62
     3
 10
1676.648148
 20
223.893851
 30
0.0
  0
VERTEX
  5
84B
  8
002
 62
     3
 10
1676.566242
 20
224.015741
 30
0.0
  0
VERTEX
  5
84C
  8
002
 62
     3
 10
1676.501111
 20
224.147744
 30
0.0
  0
VERTEX
  5
84D
  8
002
 62
     3
 10
1676.458348
 20
224.264131
 30
0.0
  0
VERTEX
  5
84E
  8
002
 62
     3
 10
1676.428322
 20
224.383974
 30
0.0
  0
VERTEX
  5
84F
  8
002
 62
     3
 10
1676.412564
 20
224.496237
 30
0.0
  0
VERTEX
  5
850
  8
002
 62
     3
 10
1676.403133
 20
224.609576
 30
0.0
  0
SEQEND
  5
843
  8
002
 62
     3
  0
LINE
  5
851
  8
002
 62
     3
 10
1750.403133
 20
223.570942
 30
0.0
 11
1750.403133
 21
179.570942
 31
0.0
  0
LINE
  5
852
  8
002
 62
     3
 10
1656.403133
 20
223.570942
 30
0.0
 11
1656.403133
 21
179.570942
 31
0.0
  0
LINE
  5
853
  8
002
 62
     3
 10
1729.493141
 20
179.570942
 30
0.0
 11
1677.313125
 21
179.570942
 31
0.0
  0
LINE
  5
854
  8
002
 62
     3
 10
1729.493141
 20
223.570942
 30
0.0
 11
1677.313125
 21
223.570942
 31
0.0
  0
LINE
  5
855
  8
002
 62
     3
 10
1730.403133
 20
229.570942
 30
0.0
 11
1676.403133
 21
229.570942
 31
0.0
  0
LINE
  5
856
  8
002
 62
     3
 10
1746.403133
 20
231.570942
 30
0.0
 11
1660.403133
 21
231.570942
 31
0.0
  0
ARC
  5
857
  8
002
 62
     3
 10
1728.403133
 20
231.570942
 30
0.0
 40
2.0
 50
270.0
 51
360.0
  0
ARC
  5
858
  8
002
 62
     3
 10
1678.403133
 20
231.570942
 30
0.0
 40
2.0
 50
180.0
 51
270.0
  0
LINE
  5
859
  8
002
 62
     3
 10
1656.403133
 20
179.570942
 30
0.0
 11
1659.493141
 21
179.570942
 31
0.0
  0
LINE
  5
85A
  8
002
 62
     3
 10
1656.403133
 20
223.570942
 30
0.0
 11
1659.493141
 21
223.570942
 31
0.0
  0
LINE
  5
85B
  8
002
 62
     3
 10
1750.403133
 20
223.570942
 30
0.0
 11
1747.313125
 21
223.570942
 31
0.0
  0
LINE
  5
85C
  8
002
 62
     3
 10
1750.403133
 20
179.570942
 30
0.0
 11
1747.313125
 21
179.570942
 31
0.0
  0
LINE
  5
85D
  8
002
 62
     3
 10
1746.403133
 20
171.570942
 30
0.0
 11
1660.403133
 21
171.570942
 31
0.0
  0
LINE
  5
85E
  8
002
 62
     3
 10
1656.403133
 20
194.070942
 30
0.0
 11
1629.403093
 21
194.070942
 31
0.0
  0
LINE
  5
85F
  8
002
 62
     3
 10
1629.403093
 20
194.070942
 30
0.0
 11
1628.403093
 21
195.070942
 31
0.0
  0
LINE
  5
860
  8
002
 62
     3
 10
1628.403093
 20
195.070942
 30
0.0
 11
1628.403093
 21
211.070942
 31
0.0
  0
LINE
  5
861
  8
002
 62
     3
 10
1628.403093
 20
211.070942
 30
0.0
 11
1650.403133
 21
211.070942
 31
0.0
  0
LINE
  5
862
  8
002
 62
     3
 10
1650.403133
 20
211.070942
 30
0.0
 11
1650.403133
 21
208.642042
 31
0.0
  0
LINE
  5
863
  8
002
 62
     3
 10
1650.403133
 20
208.642042
 30
0.0
 11
1652.903133
 21
209.070942
 31
0.0
  0
LINE
  5
864
  8
002
 62
     3
 10
1652.903133
 20
209.070942
 30
0.0
 11
1656.403133
 21
209.070942
 31
0.0
  0
LINE
  5
865
  8
002
 62
     3
 10
1750.403133
 20
209.070942
 30
0.0
 11
1753.903133
 21
209.070942
 31
0.0
  0
LINE
  5
866
  8
002
 62
     3
 10
1753.903133
 20
209.070942
 30
0.0
 11
1756.403133
 21
208.642042
 31
0.0
  0
LINE
  5
867
  8
002
 62
     3
 10
1756.403133
 20
208.642042
 30
0.0
 11
1756.403133
 21
211.070942
 31
0.0
  0
LINE
  5
868
  8
002
 62
     3
 10
1756.403133
 20
211.070942
 30
0.0
 11
1778.403133
 21
211.070942
 31
0.0
  0
LINE
  5
869
  8
002
 62
     3
 10
1778.403133
 20
211.070942
 30
0.0
 11
1778.403133
 21
195.070942
 31
0.0
  0
LINE
  5
86A
  8
002
 62
     3
 10
1778.403133
 20
195.070942
 30
0.0
 11
1777.403133
 21
194.070942
 31
0.0
  0
LINE
  5
86B
  8
002
 62
     3
 10
1777.403133
 20
194.070942
 30
0.0
 11
1750.403133
 21
194.070942
 31
0.0
  0
LINE
  5
86C
  8
002
 62
     3
 10
1650.403133
 20
208.642042
 30
0.0
 11
1628.974163
 21
208.642042
 31
0.0
  0
LINE
  5
86D
  8
002
 62
     3
 10
1628.974163
 20
208.642042
 30
0.0
 11
1628.403093
 21
208.070942
 31
0.0
  0
LINE
  5
86E
  8
002
 62
     3
 10
1629.403093
 20
208.642042
 30
0.0
 11
1629.403093
 21
194.070942
 31
0.0
  0
LINE
  5
86F
  8
002
 62
     3
 10
1756.403133
 20
208.642042
 30
0.0
 11
1777.832033
 21
208.642042
 31
0.0
  0
LINE
  5
870
  8
002
 62
     3
 10
1777.832033
 20
208.642042
 30
0.0
 11
1778.403133
 21
208.070942
 31
0.0
  0
LINE
  5
871
  8
002
 62
     3
 10
1777.403133
 20
208.642042
 30
0.0
 11
1777.403133
 21
194.070942
 31
0.0
  0
LINE
  5
872
  8
002
 62
     3
 10
1730.903133
 20
281.570942
 30
0.0
 11
1675.903133
 21
281.570942
 31
0.0
  0
LINE
  5
873
  8
002
 62
     3
 10
1675.903133
 20
281.570942
 30
0.0
 11
1674.903133
 21
280.570942
 31
0.0
  0
LINE
  5
874
  8
002
 62
     3
 10
1730.903133
 20
281.570942
 30
0.0
 11
1731.903133
 21
280.570942
 31
0.0
  0
LINE
  5
875
  8
002
 62
     3
 10
1674.903133
 20
280.570942
 30
0.0
 11
1674.903133
 21
231.570942
 31
0.0
  0
LINE
  5
876
  8
002
 62
     3
 10
1731.903133
 20
280.570942
 30
0.0
 11
1731.903133
 21
231.570942
 31
0.0
  0
LINE
  5
877
  8
002
 62
     3
 10
2005.032012
 20
231.570942
 30
0.0
 11
2005.032012
 21
171.570942
 31
0.0
  0
LINE
  5
878
  8
002
 62
     3
 10
2116.032012
 20
231.570942
 30
0.0
 11
2116.032012
 21
171.570942
 31
0.0
  0
LINE
  5
879
  8
002
 62
     3
 10
2021.032012
 20
231.570942
 30
0.0
 11
2021.032012
 21
171.570942
 31
0.0
  0
LINE
  5
87A
  8
002
 62
     3
 10
2116.032012
 20
231.570942
 30
0.0
 11
2100.032012
 21
231.570942
 31
0.0
  0
LINE
  5
87B
  8
002
 62
     3
 10
2100.032012
 20
171.570942
 30
0.0
 11
2116.032012
 21
171.570942
 31
0.0
  0
LINE
  5
87C
  8
002
 62
     3
 10
2084.032012
 20
225.570942
 30
0.0
 11
2084.032012
 21
229.570942
 31
0.0
  0
LINE
  5
87D
  8
002
 62
     3
 10
2100.032012
 20
177.570942
 30
0.0
 11
2100.032012
 21
171.570942
 31
0.0
  0
LINE
  5
87E
  8
002
 62
     3
 10
2100.032012
 20
225.570942
 30
0.0
 11
2100.032012
 21
231.570942
 31
0.0
  0
ARC
  5
87F
  8
002
 62
     3
 10
2077.532012
 20
177.570942
 30
0.0
 40
2.0
 50
90.0
 51
180.0
  0
LINE
  5
880
  8
002
 62
     3
 10
2075.532012
 20
177.570942
 30
0.0
 11
2075.532012
 21
171.570942
 31
0.0
  0
LINE
  5
881
  8
002
 62
     3
 10
2023.032012
 20
229.570942
 30
0.0
 11
2084.032012
 21
229.570942
 31
0.0
  0
ARC
  5
882
  8
002
 62
     3
 10
2023.032012
 20
231.570942
 30
0.0
 40
2.0
 50
180.0
 51
270.0
  0
ARC
  5
883
  8
002
 62
     3
 10
2098.032012
 20
225.570942
 30
0.0
 40
2.0
 50
270.0
 51
0.0
  0
ARC
  5
884
  8
002
 62
     3
 10
2086.032012
 20
225.570942
 30
0.0
 40
2.0
 50
180.0
 51
270.0
  0
ARC
  5
885
  8
002
 62
     3
 10
2098.032012
 20
177.570942
 30
0.0
 40
2.0
 50
0.0
 51
90.0
  0
LINE
  5
886
  8
002
 62
     3
 10
2058.032012
 20
221.570942
 30
0.0
 11
2058.032012
 21
181.570942
 31
0.0
  0
LINE
  5
887
  8
002
 62
     3
 10
2100.032012
 20
223.570942
 30
0.0
 11
2060.032012
 21
223.570942
 31
0.0
  0
LINE
  5
888
  8
002
 62
     3
 10
2102.032012
 20
181.570942
 30
0.0
 11
2102.032012
 21
221.570942
 31
0.0
  0
LINE
  5
889
  8
002
 62
     3
 10
2100.032012
 20
179.570942
 30
0.0
 11
2060.032012
 21
179.570942
 31
0.0
  0
ARC
  5
88A
  8
002
 62
     3
 10
2060.032012
 20
181.570942
 30
0.0
 40
2.0
 50
180.0
 51
270.0
  0
ARC
  5
88B
  8
002
 62
     3
 10
2060.032012
 20
221.570942
 30
0.0
 40
2.0
 50
90.0
 51
180.0
  0
ARC
  5
88C
  8
002
 62
     3
 10
2100.032012
 20
221.570942
 30
0.0
 40
2.0
 50
0.0
 51
90.0
  0
ARC
  5
88D
  8
002
 62
     3
 10
2100.032012
 20
181.570942
 30
0.0
 40
2.0
 50
270.0
 51
0.0
  0
LINE
  5
88E
  8
002
 62
     3
 10
2075.532012
 20
171.570942
 30
0.0
 11
2005.032012
 21
171.570942
 31
0.0
  0
LINE
  5
88F
  8
002
 62
     3
 10
2078.317812
 20
185.688342
 30
0.0
 11
2078.317812
 21
187.742342
 31
0.0
  0
CIRCLE
  5
890
  8
002
 62
     3
 10
2076.032012
 20
187.742342
 30
0.0
 40
1.0
  0
ARC
  5
891
  8
002
 62
     3
 10
2076.032012
 20
187.742342
 30
0.0
 40
2.285799999999995
 50
0.0
 51
134.849339
  0
LINE
  5
892
  8
002
 62
     3
 10
2081.746312
 20
187.742342
 30
0.0
 11
2081.746312
 21
185.688342
 31
0.0
  0
ARC
  5
893
  8
002
 62
     3
 10
2084.032012
 20
187.742342
 30
0.0
 40
2.285730572486588
 50
45.150661
 51
180.0
  0
ARC
  5
894
  8
002
 62
     3
 10
2087.256012
 20
190.983342
 30
0.0
 40
2.285730572486588
 50
225.150661
 51
306.868895
  0
CIRCLE
  5
895
  8
002
 62
     3
 10
2084.032012
 20
187.742342
 30
0.0
 40
1.0
  0
ARC
  5
896
  8
002
 62
     3
 10
2072.808112
 20
190.983342
 30
0.0
 40
2.28572000035006
 50
233.131105
 51
314.847561
  0
ARC
  5
897
  8
002
 62
     3
 10
2080.032012
 20
200.616042
 30
0.0
 40
14.32628000738505
 50
306.868058
 51
233.132262
  0
LINE
  5
898
  8
002
 62
     3
 10
2082.282012
 20
206.070942
 30
0.0
 11
2077.782012
 21
206.070942
 31
0.0
  0
LINE
  5
899
  8
002
 62
     3
 10
2077.782012
 20
206.070942
 30
0.0
 11
2077.532012
 21
206.320942
 31
0.0
  0
LINE
  5
89A
  8
002
 62
     3
 10
2077.532012
 20
206.320942
 30
0.0
 11
2077.532012
 21
210.820942
 31
0.0
  0
LINE
  5
89B
  8
002
 62
     3
 10
2077.532012
 20
210.820942
 30
0.0
 11
2077.782012
 21
211.070942
 31
0.0
  0
LINE
  5
89C
  8
002
 62
     3
 10
2077.782012
 20
211.070942
 30
0.0
 11
2082.282012
 21
211.070942
 31
0.0
  0
LINE
  5
89D
  8
002
 62
     3
 10
2082.282012
 20
211.070942
 30
0.0
 11
2082.532012
 21
210.820942
 31
0.0
  0
LINE
  5
89E
  8
002
 62
     3
 10
2082.532012
 20
210.820942
 30
0.0
 11
2082.532012
 21
206.320942
 31
0.0
  0
LINE
  5
89F
  8
002
 62
     3
 10
2082.532012
 20
206.320942
 30
0.0
 11
2082.282012
 21
206.070942
 31
0.0
  0
ARC
  5
8A0
  8
002
 62
     3
 10
2082.332012
 20
206.270942
 30
0.0
 40
0.1999999999999886
 50
270.0
 51
0.0
  0
ARC
  5
8A1
  8
002
 62
     3
 10
2080.032012
 20
201.570942
 30
0.0
 40
7.499936066394191
 50
109.471393
 51
70.528607
  0
ARC
  5
8A2
  8
002
 62
     3
 10
2077.732012
 20
206.270942
 30
0.0
 40
0.2000000000000455
 50
180.0
 51
270.0
  0
CIRCLE
  5
8A3
  8
002
 62
     3
 10
2080.032012
 20
201.570942
 30
0.0
 40
16.0
  0
LINE
  5
8A4
  8
002
  6
CENTER
 62
    40
 10
2013.032012
 20
167.158742
 30
0.0
 11
2013.032012
 21
236.465642
 31
0.0
  0
LINE
  5
8A5
  8
002
  6
CENTER
 62
    40
 10
2108.032112
 20
167.158742
 30
0.0
 11
2108.032112
 21
236.465642
 31
0.0
  0
LINE
  5
8A6
  8
002
  6
CENTER
 62
    40
 10
2080.032012
 20
231.570942
 30
0.0
 11
2080.032012
 21
170.119488
 31
0.0
  0
LINE
  5
8A7
  8
002
 62
     3
 10
2021.032012
 20
231.570942
 30
0.0
 11
2005.032012
 21
231.570942
 31
0.0
  0
LINE
  5
8A8
  8
002
 62
     3
 10
2075.532012
 20
281.570942
 30
0.0
 11
2020.532012
 21
281.570942
 31
0.0
  0
ARC
  5
8A9
  8
002
 62
     3
 10
2077.532012
 20
231.570942
 30
0.0
 40
1.0
 50
180.0
 51
270.0
  0
LINE
  5
8AA
  8
002
 62
     3
 10
2020.532012
 20
281.570942
 30
0.0
 11
2019.532012
 21
280.570942
 31
0.0
  0
LINE
  5
8AB
  8
002
 62
     3
 10
2075.532012
 20
281.570942
 30
0.0
 11
2076.532012
 21
280.570942
 31
0.0
  0
LINE
  5
8AC
  8
002
 62
    40
 10
2078.032012
 20
229.570942
 30
0.0
 11
2078.032012
 21
230.570942
 31
0.0
  0
LINE
  5
8AD
  8
002
 62
     3
 10
2079.032012
 20
229.570942
 30
0.0
 11
2079.032012
 21
230.570942
 31
0.0
  0
LINE
  5
8AE
  8
002
 62
     3
 10
2019.532012
 20
280.570942
 30
0.0
 11
2019.532012
 21
231.570942
 31
0.0
  0
LINE
  5
8AF
  8
002
 62
     3
 10
2076.532012
 20
280.570942
 30
0.0
 11
2076.532012
 21
231.570942
 31
0.0
  0
LINE
  5
8B0
  8
002
 62
     3
 10
2021.299961
 20
230.570942
 30
0.0
 11
2079.032012
 21
230.570942
 31
0.0
  0
LINE
  5
8B1
  8
002
  6
CENTER
 62
    40
 10
1479.582476
 20
572.617386
 30
0.0
 11
1579.241061
 21
572.617386
 31
0.0
  0
LINE
  5
8B2
  8
002
  6
CENTER
 62
    40
 10
1518.427012
 20
612.98717
 30
0.0
 11
1518.427012
 21
529.142333
 31
0.0
  0
ENDSEC
  0
EOF
