  0
SECTION
  2
HEADER
  9
$ACADVER
  1
AC1009
  9
$DWGCODEPAGE
  3
ansi_932
  9
$INSBASE
 10
0.0
 20
0.0
 30
0.0
  9
$EXTMIN
 10
97.341064
 20
-53.0401
 30
0.0
  9
$EXTMAX
 10
2198.156982
 20
722.314331
 30
0.0
  9
$LIMMIN
 10
0.0
 20
0.0
  9
$LIMMAX
 10
12.0
 20
9.0
  9
$ORTHOMODE
 70
     0
  9
$REGENMODE
 70
     1
  9
$FILLMODE
 70
     1
  9
$QTEXTMODE
 70
     0
  9
$MIRRTEXT
 70
     1
  9
$DRAGMODE
 70
     2
  9
$LTSCALE
 40
22.393307
  9
$OSMODE
 70
    37
  9
$ATTMODE
 70
     1
  9
$TEXTSIZE
 40
3.2
  9
$TRACEWID
 40
1.0
  9
$TEXTSTYLE
  7
STANDARD
  9
$CLAYER
  8
0
  9
$CELTYPE
  6
BYLAYER
  9
$CECOLOR
 62
   256
  9
$DIMSCALE
 40
1.0
  9
$DIMASZ
 40
2.5
  9
$DIMEXO
 40
0.625
  9
$DIMDLI
 40
3.75
  9
$DIMRND
 40
0.0
  9
$DIMDLE
 40
0.0
  9
$DIMEXE
 40
1.25
  9
$DIMTP
 40
0.0
  9
$DIMTM
 40
0.0
  9
$DIMTXT
 40
2.5
  9
$DIMCEN
 40
0.09
  9
$DIMTSZ
 40
0.0
  9
$DIMTOL
 70
     0
  9
$DIMLIM
 70
     0
  9
$DIMTIH
 70
     0
  9
$DIMTOH
 70
     0
  9
$DIMSE1
 70
     0
  9
$DIMSE2
 70
     0
  9
$DIMTAD
 70
     0
  9
$DIMZIN
 70
     8
  9
$DIMBLK
  1

  9
$DIMASO
 70
     1
  9
$DIMSHO
 70
     0
  9
$DIMPOST
  1

  9
$DIMAPOST
  1

  9
$DIMALT
 70
     0
  9
$DIMALTD
 70
     3
  9
$DIMALTF
 40
0.03937
  9
$DIMLFAC
 40
1.0
  9
$DIMTOFL
 70
     1
  9
$DIMTVP
 40
0.0
  9
$DIMTIX
 70
     0
  9
$DIMSOXD
 70
     0
  9
$DIMSAH
 70
     0
  9
$DIMBLK1
  1

  9
$DIMBLK2
  1

  9
$DIMSTYLE
  2
ISO-25
  9
$DIMCLRD
 70
     0
  9
$DIMCLRE
 70
     0
  9
$DIMCLRT
 70
     0
  9
$DIMTFAC
 40
1.0
  9
$DIMGAP
 40
0.625
  9
$LUNITS
 70
     2
  9
$LUPREC
 70
     4
  9
$SKETCHINC
 40
1.0
  9
$FILLETRAD
 40
0.0
  9
$AUNITS
 70
     0
  9
$AUPREC
 70
     0
  9
$MENU
  1
acad
  9
$ELEVATION
 40
0.0
  9
$PELEVATION
 40
0.0
  9
$THICKNESS
 40
0.0
  9
$LIMCHECK
 70
     0
  9
$CHAMFERA
 40
10.0
  9
$CHAMFERB
 40
10.0
  9
$SKPOLY
 70
     0
  9
$TDCREATE
 40
2457595.492187442
  9
$TDUPDATE
 40
2457595.492188345
  9
$TDINDWG
 40
0.0000000116
  9
$TDUSRTIMER
 40
0.0000000116
  9
$USRTIMER
 70
     1
  9
$ANGBASE
 50
0.0
  9
$ANGDIR
 70
     0
  9
$PDMODE
 70
     0
  9
$PDSIZE
 40
0.0
  9
$PLINEWID
 40
0.0
  9
$COORDS
 70
     1
  9
$SPLFRAME
 70
     0
  9
$SPLINETYPE
 70
     6
  9
$SPLINESEGS
 70
     8
  9
$ATTDIA
 70
     0
  9
$ATTREQ
 70
     1
  9
$HANDLING
 70
     1
  9
$HANDSEED
  5
A0A
  9
$SURFTAB1
 70
     6
  9
$SURFTAB2
 70
     6
  9
$SURFTYPE
 70
     6
  9
$SURFU
 70
     6
  9
$SURFV
 70
     6
  9
$UCSNAME
  2

  9
$UCSORG
 10
0.0
 20
0.0
 30
0.0
  9
$UCSXDIR
 10
1.0
 20
0.0
 30
0.0
  9
$UCSYDIR
 10
0.0
 20
1.0
 30
0.0
  9
$PUCSNAME
  2

  9
$PUCSORG
 10
0.0
 20
0.0
 30
0.0
  9
$PUCSXDIR
 10
1.0
 20
0.0
 30
0.0
  9
$PUCSYDIR
 10
0.0
 20
1.0
 30
0.0
  9
$USERI1
 70
     0
  9
$USERI2
 70
     0
  9
$USERI3
 70
     0
  9
$USERI4
 70
     0
  9
$USERI5
 70
     0
  9
$USERR1
 40
0.0
  9
$USERR2
 40
0.0
  9
$USERR3
 40
0.0
  9
$USERR4
 40
0.0
  9
$USERR5
 40
0.0
  9
$WORLDVIEW
 70
     1
  9
$SHADEDGE
 70
     3
  9
$SHADEDIF
 70
    70
  9
$TILEMODE
 70
     1
  9
$MAXACTVP
 70
    64
  9
$PLIMCHECK
 70
     0
  9
$PEXTMIN
 10
1.000000E+20
 20
1.000000E+20
 30
0.0
  9
$PEXTMAX
 10
-1.000000E+20
 20
-1.000000E+20
 30
0.0
  9
$PLIMMIN
 10
0.0
 20
0.0
  9
$PLIMMAX
 10
12.0
 20
9.0
  9
$UNITMODE
 70
     0
  9
$VISRETAIN
 70
     1
  9
$PLINEGEN
 70
     0
  9
$PSLTSCALE
 70
     1
  0
ENDSEC
  0
SECTION
  2
TABLES
  0
TABLE
  2
VPORT
 70
     1
  0
VPORT
  2
*ACTIVE
 70
     0
 10
0.0
 20
0.0
 11
1.0
 21
1.0
 12
1147.749023
 22
334.637115
 13
0.0
 23
0.0
 14
1.0
 24
1.0
 15
0.0
 25
0.0
 16
0.0
 26
0.0
 36
1.0
 17
0.0
 27
0.0
 37
0.0
 40
1254.561067
 41
1.691288
 42
50.0
 43
0.0
 44
0.0
 50
0.0
 51
0.0
 71
     0
 72
  1000
 73
     1
 74
     3
 75
     0
 76
     0
 77
     0
 78
     0
  0
ENDTAB
  0
TABLE
  2
LTYPE
 70
     5
  0
LTYPE
  2
CONTINUOUS
 70
     0
  3
Solid line
 72
    65
 73
     0
 40
0.0
  0
LTYPE
  2
DASHED
 70
     0
  3
DASHED
 72
    83
 73
     2
 40
0.75
 49
0.5
 49
-0.25
  0
LTYPE
  2
HIDDEN
 70
     0
  3
HIDDEN
 72
    83
 73
     2
 40
0.375
 49
0.25
 49
-0.125
  0
LTYPE
  2
CENTER
 70
     0
  3
CENTER
 72
    83
 73
     4
 40
2.0
 49
1.25
 49
-0.25
 49
0.25
 49
-0.25
  0
LTYPE
  2
PHANTOM
 70
     0
  3
PHANTOM
 72
    83
 73
     6
 40
2.5
 49
1.25
 49
-0.25
 49
0.25
 49
-0.25
 49
0.25
 49
-0.25
  0
ENDTAB
  0
TABLE
  2
LAYER
 70
     4
  0
LAYER
  2
0
 70
     0
 62
     7
  6
CONTINUOUS
  0
LAYER
  2
001
 70
     0
 62
     7
  6
CONTINUOUS
  0
LAYER
  2
002
 70
     0
 62
     7
  6
CONTINUOUS
  0
LAYER
  2
003
 70
     0
 62
     7
  6
CONTINUOUS
  0
ENDTAB
  0
TABLE
  2
STYLE
 70
     2
  0
STYLE
  2
STANDARD
 70
     0
 40
0.0
 41
1.0
 50
0.0
 71
     0
 42
0.2
  3
TXT
  4
BIGFONT
  0
STYLE
  2
TATEGAKI
 70
     4
 40
1.0
 41
1.0
 50
0.0
 71
     0
 42
0.2
  3
TXT
  4
BIGFONT
  0
ENDTAB
  0
TABLE
  2
VIEW
 70
     0
  0
ENDTAB
  0
TABLE
  2
UCS
 70
     0
  0
ENDTAB
  0
TABLE
  2
APPID
 70
     1
  0
APPID
  2
ACAD
 70
     0
  0
ENDTAB
  0
TABLE
  2
DIMSTYLE
 70
     2
  0
DIMSTYLE
  2
ISO-25
 70
     0
  3

  4

  5

  6

  7

 40
1.0
 41
2.5
 42
0.625
 43
3.75
 44
1.25
 45
0.0
 46
0.0
 47
0.0
 48
0.0
140
2.5
141
2.5
142
0.0
143
0.03937
144
1.0
145
0.0
146
1.0
147
0.625
 71
     0
 72
     0
 73
     0
 74
     0
 75
     0
 76
     0
 77
     1
 78
     8
170
     0
171
     3
172
     1
173
     0
174
     0
175
     0
176
     0
177
     0
178
     0
  0
DIMSTYLE
  2
STANDARD
 70
     0
  3

  4

  5

  6

  7

 40
1.0
 41
3.0
 42
0.5
 43
0.38
 44
0.7
 45
0.0
 46
0.0
 47
0.0
 48
0.0
140
4.0
141
0.09
142
0.0
143
25.4
144
1.0
145
0.0
146
0.65
147
1.0
 71
     0
 72
     0
 73
     0
 74
     0
 75
     0
 76
     0
 77
     1
 78
     8
170
     0
171
     2
172
     1
173
     0
174
     0
175
     0
176
     0
177
     0
178
     0
  0
ENDTAB
  0
ENDSEC
  0
SECTION
  2
BLOCKS
  0
BLOCK
  8
0
  2
$MODEL_SPACE
 70
     0
 10
0.0
 20
0.0
 30
0.0
  3
$MODEL_SPACE
  1

  0
ENDBLK
  5
21
  8
0
  0
BLOCK
 67
     1
  8
0
  2
$PAPER_SPACE
 70
     0
 10
0.0
 20
0.0
 30
0.0
  3
$PAPER_SPACE
  1

  0
ENDBLK
  5
1D
 67
     1
  8
0
  0
BLOCK
  8
0
  2
JZB-1
 70
     0
 10
0.0
 20
0.0
 30
0.0
  3
JZB-1
  1

  0
CIRCLE
  5
4B
  8
002
 62
     3
 10
303.150249
 20
608.931374
 30
0.0
 40
3.5
  0
ENDBLK
  5
4A
  8
0
  0
BLOCK
  8
0
  2
JZB-2
 70
     0
 10
0.0
 20
0.0
 30
0.0
  3
JZB-2
  1

  0
CIRCLE
  5
4F
  8
002
 62
     3
 10
398.150249
 20
608.931374
 30
0.0
 40
3.5
  0
ENDBLK
  5
4E
  8
0
  0
BLOCK
  8
0
  2
JZB-3
 70
     0
 10
0.0
 20
0.0
 30
0.0
  3
JZB-3
  1

  0
CIRCLE
  5
53
  8
002
 62
     3
 10
398.150249
 20
678.931374
 30
0.0
 40
3.5
  0
ENDBLK
  5
52
  8
0
  0
BLOCK
  8
0
  2
JZB-4
 70
     0
 10
0.0
 20
0.0
 30
0.0
  3
JZB-4
  1

  0
CIRCLE
  5
57
  8
002
 62
     3
 10
303.150249
 20
678.931374
 30
0.0
 40
3.5
  0
ENDBLK
  5
56
  8
0
  0
BLOCK
  8
0
  2
JZB-5
 70
     0
 10
0.0
 20
0.0
 30
0.0
  3
JZB-5
  1

  0
LINE
  5
5B
  8
002
 62
     3
 10
385.150249
 20
638.431374
 30
0.0
 11
389.150249
 21
649.431374
 31
0.0
  0
LINE
  5
5C
  8
002
 62
     3
 10
388.483582
 20
648.764708
 30
0.0
 11
384.483582
 21
642.098041
 31
0.0
  0
LINE
  5
5D
  8
002
 62
     3
 10
389.150249
 20
649.431374
 30
0.0
 11
381.816916
 21
649.431374
 31
0.0
  0
LINE
  5
5E
  8
002
 62
     3
 10
385.150249
 20
648.764708
 30
0.0
 11
388.483582
 21
648.764708
 31
0.0
  0
LINE
  5
5F
  8
002
 62
     3
 10
384.483582
 20
644.098041
 30
0.0
 11
385.150249
 21
648.764708
 31
0.0
  0
LINE
  5
60
  8
002
 62
     3
 10
383.150249
 20
644.098041
 30
0.0
 11
384.483582
 21
644.098041
 31
0.0
  0
LINE
  5
61
  8
002
 62
     3
 10
381.816916
 20
649.431374
 30
0.0
 11
383.150249
 21
644.098041
 31
0.0
  0
LINE
  5
62
  8
002
 62
     3
 10
381.816916
 20
642.098041
 30
0.0
 11
377.150249
 21
649.431374
 31
0.0
  0
LINE
  5
63
  8
002
 62
     3
 10
384.483582
 20
642.098041
 30
0.0
 11
381.816916
 21
642.098041
 31
0.0
  0
LINE
  5
64
  8
002
 62
     3
 10
377.150249
 20
649.431374
 30
0.0
 11
381.150249
 21
638.431374
 31
0.0
  0
LINE
  5
65
  8
002
 62
     3
 10
381.150249
 20
638.431374
 30
0.0
 11
385.150249
 21
638.431374
 31
0.0
  0
ENDBLK
  5
5A
  8
0
  0
BLOCK
  8
0
  2
JZB-6
 70
     0
 10
0.0
 20
0.0
 30
0.0
  3
JZB-6
  1

  0
CIRCLE
  5
69
  8
002
 62
     3
 10
1507.729053
 20
552.608021
 30
0.0
 40
3.5
  0
ENDBLK
  5
68
  8
0
  0
BLOCK
  8
0
  2
JZB-7
 70
     0
 10
0.0
 20
0.0
 30
0.0
  3
JZB-7
  1

  0
CIRCLE
  5
6D
  8
002
 62
     3
 10
1602.729053
 20
552.608021
 30
0.0
 40
3.5
  0
ENDBLK
  5
6C
  8
0
  0
BLOCK
  8
0
  2
JZB-8
 70
     0
 10
0.0
 20
0.0
 30
0.0
  3
JZB-8
  1

  0
CIRCLE
  5
71
  8
002
 62
     3
 10
1602.729053
 20
482.608021
 30
0.0
 40
3.5
  0
ENDBLK
  5
70
  8
0
  0
BLOCK
  8
0
  2
JZB-9
 70
     0
 10
0.0
 20
0.0
 30
0.0
  3
JZB-9
  1

  0
CIRCLE
  5
75
  8
002
 62
     3
 10
1507.729053
 20
482.608021
 30
0.0
 40
3.5
  0
ENDBLK
  5
74
  8
0
  0
BLOCK
  8
0
  2
JZB-10
 70
     0
 10
0.0
 20
0.0
 30
0.0
  3
JZB-10
  1

  0
LINE
  5
79
  8
002
  6
CENTER
 62
    40
 10
1582.729053
 20
511.771223
 30
0.0
 11
1582.729053
 21
523.444819
 31
0.0
  0
ENDBLK
  5
78
  8
0
  0
BLOCK
  8
0
  2
ETC-11
 70
     0
 10
0.0
 20
0.0
 30
0.0
  3
ETC-11
  1

  0
LINE
  5
7D
  8
002
 62
     3
 10
332.27676
 20
432.626989
 30
0.0
 11
332.627729
 21
432.859533
 31
0.0
  0
LINE
  5
7E
  8
002
 62
     3
 10
332.627729
 20
432.859533
 30
0.0
 11
333.022426
 21
432.993825
 31
0.0
  0
LINE
  5
7F
  8
002
 62
     3
 10
333.022426
 20
432.993825
 30
0.0
 11
333.439303
 21
432.988058
 31
0.0
  0
LINE
  5
80
  8
002
 62
     3
 10
333.439303
 20
432.988058
 30
0.0
 11
333.844951
 21
432.875341
 31
0.0
  0
ENDBLK
  5
7C
  8
0
  0
BLOCK
  8
0
  2
ETC-12
 70
     0
 10
0.0
 20
0.0
 30
0.0
  3
ETC-12
  1

  0
LINE
  5
84
  8
002
 62
     3
 10
333.844951
 20
432.875341
 30
0.0
 11
334.592962
 21
433.174589
 31
0.0
  0
LINE
  5
85
  8
002
 62
     3
 10
334.592962
 20
433.174589
 30
0.0
 11
335.374752
 21
433.366399
 31
0.0
  0
LINE
  5
86
  8
002
 62
     3
 10
335.374752
 20
433.366399
 30
0.0
 11
336.177571
 21
433.425581
 31
0.0
  0
LINE
  5
87
  8
002
 62
     3
 10
336.177571
 20
433.425581
 30
0.0
 11
336.981472
 21
433.372137
 31
0.0
  0
ENDBLK
  5
83
  8
0
  0
BLOCK
  8
0
  2
ETC-13
 70
     0
 10
0.0
 20
0.0
 30
0.0
  3
ETC-13
  1

  0
LINE
  5
8B
  8
002
 62
     3
 10
336.981472
 20
433.372137
 30
0.0
 11
337.332419
 21
433.604673
 31
0.0
  0
LINE
  5
8C
  8
002
 62
     3
 10
337.332419
 20
433.604673
 30
0.0
 11
337.727092
 21
433.738973
 31
0.0
  0
LINE
  5
8D
  8
002
 62
     3
 10
337.727092
 20
433.738973
 30
0.0
 11
338.143961
 21
433.733221
 31
0.0
  0
LINE
  5
8E
  8
002
 62
     3
 10
338.143961
 20
433.733221
 30
0.0
 11
338.549602
 21
433.620519
 31
0.0
  0
ENDBLK
  5
8A
  8
0
  0
BLOCK
  8
0
  2
ETC-14
 70
     0
 10
0.0
 20
0.0
 30
0.0
  3
ETC-14
  1

  0
LINE
  5
92
  8
002
 62
     3
 10
344.023769
 20
399.057989
 30
0.0
 11
343.672799
 21
398.825445
 31
0.0
  0
LINE
  5
93
  8
002
 62
     3
 10
343.672799
 20
398.825445
 30
0.0
 11
343.278102
 21
398.691152
 31
0.0
  0
LINE
  5
94
  8
002
 62
     3
 10
343.278102
 20
398.691152
 30
0.0
 11
342.861226
 21
398.69692
 31
0.0
  0
LINE
  5
95
  8
002
 62
     3
 10
342.861226
 20
398.69692
 30
0.0
 11
342.455577
 21
398.809637
 31
0.0
  0
ENDBLK
  5
91
  8
0
  0
BLOCK
  8
0
  2
ETC-15
 70
     0
 10
0.0
 20
0.0
 30
0.0
  3
ETC-15
  1

  0
LINE
  5
99
  8
002
 62
     3
 10
342.455577
 20
398.809637
 30
0.0
 11
341.707567
 21
398.510389
 31
0.0
  0
LINE
  5
9A
  8
002
 62
     3
 10
341.707567
 20
398.510389
 30
0.0
 11
340.925777
 21
398.318578
 31
0.0
  0
LINE
  5
9B
  8
002
 62
     3
 10
340.925777
 20
398.318578
 30
0.0
 11
340.122957
 21
398.259397
 31
0.0
  0
LINE
  5
9C
  8
002
 62
     3
 10
340.122957
 20
398.259397
 30
0.0
 11
339.319057
 21
398.312841
 31
0.0
  0
ENDBLK
  5
98
  8
0
  0
BLOCK
  8
0
  2
ETC-16
 70
     0
 10
0.0
 20
0.0
 30
0.0
  3
ETC-16
  1

  0
LINE
  5
A0
  8
002
 62
     3
 10
339.319057
 20
398.312841
 30
0.0
 11
338.96811
 21
398.080305
 31
0.0
  0
LINE
  5
A1
  8
002
 62
     3
 10
338.96811
 20
398.080305
 30
0.0
 11
338.573436
 21
397.946004
 31
0.0
  0
LINE
  5
A2
  8
002
 62
     3
 10
338.573436
 20
397.946004
 30
0.0
 11
338.156568
 21
397.951757
 31
0.0
  0
LINE
  5
A3
  8
002
 62
     3
 10
338.156568
 20
397.951757
 30
0.0
 11
337.750927
 21
398.064458
 31
0.0
  0
ENDBLK
  5
9F
  8
0
  0
BLOCK
  8
0
  2
ETC-17
 70
     0
 10
0.0
 20
0.0
 30
0.0
  3
ETC-17
  1

  0
LINE
  5
A7
  8
002
  6
HIDDEN
 62
    40
 10
1536.855564
 20
-5.03441
 30
0.0
 11
1537.206533
 21
-4.801866
 31
0.0
  0
LINE
  5
A8
  8
002
  6
HIDDEN
 62
    40
 10
1537.206533
 20
-4.801866
 30
0.0
 11
1537.60123
 21
-4.667574
 31
0.0
  0
LINE
  5
A9
  8
002
  6
HIDDEN
 62
    40
 10
1537.60123
 20
-4.667574
 30
0.0
 11
1538.018107
 21
-4.673341
 31
0.0
  0
LINE
  5
AA
  8
002
  6
HIDDEN
 62
    40
 10
1538.018107
 20
-4.673341
 30
0.0
 11
1538.423755
 21
-4.786058
 31
0.0
  0
ENDBLK
  5
A6
  8
0
  0
BLOCK
  8
0
  2
ETC-18
 70
     0
 10
0.0
 20
0.0
 30
0.0
  3
ETC-18
  1

  0
LINE
  5
AE
  8
002
  6
HIDDEN
 62
    40
 10
1538.423755
 20
-4.786058
 30
0.0
 11
1539.171766
 21
-4.48681
 31
0.0
  0
LINE
  5
AF
  8
002
  6
HIDDEN
 62
    40
 10
1539.171766
 20
-4.48681
 30
0.0
 11
1539.953556
 21
-4.295
 31
0.0
  0
LINE
  5
B0
  8
002
  6
HIDDEN
 62
    40
 10
1539.953556
 20
-4.295
 30
0.0
 11
1540.756375
 21
-4.235818
 31
0.0
  0
LINE
  5
B1
  8
002
  6
HIDDEN
 62
    40
 10
1540.756375
 20
-4.235818
 30
0.0
 11
1541.560276
 21
-4.289262
 31
0.0
  0
ENDBLK
  5
AD
  8
0
  0
BLOCK
  8
0
  2
ETC-19
 70
     0
 10
0.0
 20
0.0
 30
0.0
  3
ETC-19
  1

  0
LINE
  5
B5
  8
002
  6
HIDDEN
 62
    40
 10
1541.560276
 20
-4.289262
 30
0.0
 11
1541.911223
 21
-4.056726
 31
0.0
  0
LINE
  5
B6
  8
002
  6
HIDDEN
 62
    40
 10
1541.911223
 20
-4.056726
 30
0.0
 11
1542.305896
 21
-3.922426
 31
0.0
  0
LINE
  5
B7
  8
002
  6
HIDDEN
 62
    40
 10
1542.305896
 20
-3.922426
 30
0.0
 11
1542.722765
 21
-3.928178
 31
0.0
  0
LINE
  5
B8
  8
002
  6
HIDDEN
 62
    40
 10
1542.722765
 20
-3.928178
 30
0.0
 11
1543.128406
 21
-4.04088
 31
0.0
  0
ENDBLK
  5
B4
  8
0
  0
BLOCK
  8
0
  2
ETC-20
 70
     0
 10
0.0
 20
0.0
 30
0.0
  3
ETC-20
  1

  0
LINE
  5
BC
  8
002
  6
HIDDEN
 62
    40
 10
1548.602573
 20
-38.60341
 30
0.0
 11
1548.251603
 21
-38.835954
 31
0.0
  0
LINE
  5
BD
  8
002
  6
HIDDEN
 62
    40
 10
1548.251603
 20
-38.835954
 30
0.0
 11
1547.856906
 21
-38.970247
 31
0.0
  0
LINE
  5
BE
  8
002
  6
HIDDEN
 62
    40
 10
1547.856906
 20
-38.970247
 30
0.0
 11
1547.44003
 21
-38.964479
 31
0.0
  0
LINE
  5
BF
  8
002
  6
HIDDEN
 62
    40
 10
1547.44003
 20
-38.964479
 30
0.0
 11
1547.034381
 21
-38.851762
 31
0.0
  0
ENDBLK
  5
BB
  8
0
  0
BLOCK
  8
0
  2
ETC-21
 70
     0
 10
0.0
 20
0.0
 30
0.0
  3
ETC-21
  1

  0
LINE
  5
C3
  8
002
  6
HIDDEN
 62
    40
 10
1547.034381
 20
-38.851762
 30
0.0
 11
1546.286371
 21
-39.15101
 31
0.0
  0
LINE
  5
C4
  8
002
  6
HIDDEN
 62
    40
 10
1546.286371
 20
-39.15101
 30
0.0
 11
1545.504581
 21
-39.342821
 31
0.0
  0
LINE
  5
C5
  8
002
  6
HIDDEN
 62
    40
 10
1545.504581
 20
-39.342821
 30
0.0
 11
1544.701761
 21
-39.402002
 31
0.0
  0
LINE
  5
C6
  8
002
  6
HIDDEN
 62
    40
 10
1544.701761
 20
-39.402002
 30
0.0
 11
1543.897861
 21
-39.348558
 31
0.0
  0
ENDBLK
  5
C2
  8
0
  0
BLOCK
  8
0
  2
ETC-22
 70
     0
 10
0.0
 20
0.0
 30
0.0
  3
ETC-22
  1

  0
LINE
  5
CA
  8
002
  6
HIDDEN
 62
    40
 10
1543.897861
 20
-39.348558
 30
0.0
 11
1543.546914
 21
-39.581094
 31
0.0
  0
LINE
  5
CB
  8
002
  6
HIDDEN
 62
    40
 10
1543.546914
 20
-39.581094
 30
0.0
 11
1543.15224
 21
-39.715395
 31
0.0
  0
LINE
  5
CC
  8
002
  6
HIDDEN
 62
    40
 10
1543.15224
 20
-39.715395
 30
0.0
 11
1542.735372
 21
-39.709642
 31
0.0
  0
LINE
  5
CD
  8
002
  6
HIDDEN
 62
    40
 10
1542.735372
 20
-39.709642
 30
0.0
 11
1542.329731
 21
-39.596941
 31
0.0
  0
ENDBLK
  5
C9
  8
0
  0
ENDSEC
  0
SECTION
  2
ENTITIES
  0
INSERT
  5
CE
  8
002
  6
BYBLOCK
 62
     0
  2
JZB-1
 10
0.0
 20
0.0
 30
0.0
  0
INSERT
  5
CF
  8
002
  6
BYBLOCK
 62
     0
  2
JZB-2
 10
0.0
 20
0.0
 30
0.0
  0
INSERT
  5
D0
  8
002
  6
BYBLOCK
 62
     0
  2
JZB-3
 10
0.0
 20
0.0
 30
0.0
  0
INSERT
  5
D1
  8
002
  6
BYBLOCK
 62
     0
  2
JZB-4
 10
0.0
 20
0.0
 30
0.0
  0
INSERT
  5
D2
  8
002
  6
BYBLOCK
 62
     0
  2
JZB-5
 10
0.0
 20
0.0
 30
0.0
  0
INSERT
  5
D3
  8
002
  6
BYBLOCK
 62
     0
  2
JZB-6
 10
0.0
 20
0.0
 30
0.0
  0
INSERT
  5
D4
  8
002
  6
BYBLOCK
 62
     0
  2
JZB-7
 10
0.0
 20
0.0
 30
0.0
  0
INSERT
  5
D5
  8
002
  6
BYBLOCK
 62
     0
  2
JZB-8
 10
0.0
 20
0.0
 30
0.0
  0
INSERT
  5
D6
  8
002
  6
BYBLOCK
 62
     0
  2
JZB-9
 10
0.0
 20
0.0
 30
0.0
  0
INSERT
  5
D7
  8
002
  6
BYBLOCK
 62
     0
  2
JZB-10
 10
0.0
 20
0.0
 30
0.0
  0
INSERT
  5
D8
  8
002
  6
BYBLOCK
 62
     0
  2
ETC-11
 10
0.0
 20
0.0
 30
0.0
  0
INSERT
  5
D9
  8
002
  6
BYBLOCK
 62
     0
  2
ETC-12
 10
0.0
 20
0.0
 30
0.0
  0
INSERT
  5
DA
  8
002
  6
BYBLOCK
 62
     0
  2
ETC-13
 10
0.0
 20
0.0
 30
0.0
  0
INSERT
  5
DB
  8
002
  6
BYBLOCK
 62
     0
  2
ETC-14
 10
0.0
 20
0.0
 30
0.0
  0
INSERT
  5
DC
  8
002
  6
BYBLOCK
 62
     0
  2
ETC-15
 10
0.0
 20
0.0
 30
0.0
  0
INSERT
  5
DD
  8
002
  6
BYBLOCK
 62
     0
  2
ETC-16
 10
0.0
 20
0.0
 30
0.0
  0
INSERT
  5
DE
  8
002
  6
BYBLOCK
 62
     0
  2
ETC-17
 10
0.0
 20
0.0
 30
0.0
  0
INSERT
  5
DF
  8
002
  6
BYBLOCK
 62
     0
  2
ETC-18
 10
0.0
 20
0.0
 30
0.0
  0
INSERT
  5
E0
  8
002
  6
BYBLOCK
 62
     0
  2
ETC-19
 10
0.0
 20
0.0
 30
0.0
  0
INSERT
  5
E1
  8
002
  6
BYBLOCK
 62
     0
  2
ETC-20
 10
0.0
 20
0.0
 30
0.0
  0
INSERT
  5
E2
  8
002
  6
BYBLOCK
 62
     0
  2
ETC-21
 10
0.0
 20
0.0
 30
0.0
  0
INSERT
  5
E3
  8
002
  6
BYBLOCK
 62
     0
  2
ETC-22
 10
0.0
 20
0.0
 30
0.0
  0
LINE
  5
E4
  8
002
 62
     3
 10
372.650249
 20
514.725874
 30
0.0
 11
372.400249
 21
514.975874
 31
0.0
  0
LINE
  5
E5
  8
002
 62
     3
 10
372.400249
 20
514.975874
 30
0.0
 11
367.900249
 21
514.975874
 31
0.0
  0
LINE
  5
E6
  8
002
 62
     3
 10
367.900249
 20
514.975874
 30
0.0
 11
367.650249
 21
514.725874
 31
0.0
  0
LINE
  5
E7
  8
002
 62
     3
 10
367.650249
 20
514.725874
 30
0.0
 11
367.650249
 21
510.225874
 31
0.0
  0
LINE
  5
E8
  8
002
 62
     3
 10
367.650249
 20
510.225874
 30
0.0
 11
367.900249
 21
509.975874
 31
0.0
  0
LINE
  5
E9
  8
002
 62
     3
 10
367.900249
 20
509.975874
 30
0.0
 11
372.400249
 21
509.975874
 31
0.0
  0
LINE
  5
EA
  8
002
 62
     3
 10
372.400249
 20
509.975874
 30
0.0
 11
372.650249
 21
510.225874
 31
0.0
  0
LINE
  5
EB
  8
002
 62
     3
 10
372.650249
 20
510.225874
 30
0.0
 11
372.650249
 21
514.725874
 31
0.0
  0
ARC
  5
EC
  8
002
 62
     3
 10
372.450249
 20
510.175874
 30
0.0
 40
0.1999999999999318
 50
270.0
 51
0.0
  0
ARC
  5
ED
  8
002
 62
     3
 10
367.850249
 20
510.175874
 30
0.0
 40
0.1999999999999318
 50
180.0
 51
270.0
  0
ARC
  5
EE
  8
002
 62
     3
 10
370.150249
 20
505.475874
 30
0.0
 40
7.500030347271937
 50
109.471139
 51
70.528861
  0
LINE
  5
EF
  8
002
  6
CENTER
 62
    40
 10
370.150249
 20
495.352574
 30
0.0
 11
370.150249
 21
517.287574
 31
0.0
  0
LINE
  5
F0
  8
002
  6
CENTER
 62
    40
 10
359.351349
 20
505.475874
 30
0.0
 11
381.884649
 21
505.475874
 31
0.0
  0
LINE
  5
F1
  8
002
 62
     3
 10
1531.069053
 20
320.561577
 30
0.0
 11
1531.069053
 21
325.561577
 31
0.0
  0
LINE
  5
F2
  8
002
 62
     3
 10
1531.069053
 20
325.561577
 30
0.0
 11
1522.569053
 21
325.561577
 31
0.0
  0
LINE
  5
F3
  8
002
 62
     3
 10
1525.729053
 20
325.561577
 30
0.0
 11
1525.729053
 21
346.561577
 31
0.0
  0
LINE
  5
F4
  8
002
 62
     3
 10
1525.729053
 20
346.561577
 30
0.0
 11
1559.729053
 21
346.561577
 31
0.0
  0
LINE
  5
F5
  8
002
 62
     3
 10
1559.729053
 20
346.561577
 30
0.0
 11
1559.729053
 21
325.561577
 31
0.0
  0
LINE
  5
F6
  8
002
 62
     3
 10
1554.389053
 20
325.561577
 30
0.0
 11
1554.389053
 21
320.561577
 31
0.0
  0
LINE
  5
F7
  8
002
 62
     3
 10
1554.389053
 20
325.561577
 30
0.0
 11
1562.889053
 21
325.561577
 31
0.0
  0
LINE
  5
F8
  8
002
 62
     3
 10
1562.889053
 20
325.561577
 30
0.0
 11
1562.889053
 21
320.561577
 31
0.0
  0
LINE
  5
F9
  8
002
 62
     3
 10
1570.229053
 20
320.561577
 30
0.0
 11
1515.229053
 21
320.561577
 31
0.0
  0
LINE
  5
FA
  8
002
 62
     3
 10
1515.229053
 20
320.561577
 30
0.0
 11
1515.229053
 21
316.561577
 31
0.0
  0
LINE
  5
FB
  8
002
 62
     3
 10
1522.569053
 20
320.561577
 30
0.0
 11
1522.569053
 21
325.561577
 31
0.0
  0
LINE
  5
FC
  8
002
  6
CENTER
 62
    40
 10
1558.639053
 20
314.561577
 30
0.0
 11
1558.639053
 21
328.283177
 31
0.0
  0
LINE
  5
FD
  8
002
  6
CENTER
 62
    40
 10
1618.552053
 20
286.561577
 30
0.0
 11
1488.947053
 21
286.561577
 31
0.0
  0
LINE
  5
FE
  8
002
  6
CENTER
 62
    40
 10
1526.819053
 20
314.561577
 30
0.0
 11
1526.819053
 21
328.283177
 31
0.0
  0
LINE
  5
FF
  8
002
 62
     3
 10
1550.729053
 20
71.561577
 30
0.0
 11
1534.729053
 21
71.561577
 31
0.0
  0
LINE
  5
100
  8
002
 62
     3
 10
1548.730053
 20
71.561577
 30
0.0
 11
1548.730053
 21
51.561577
 31
0.0
  0
LINE
  5
101
  8
002
 62
     3
 10
1548.730053
 20
51.561577
 30
0.0
 11
1536.730053
 21
51.561577
 31
0.0
  0
LINE
  5
102
  8
002
 62
     3
 10
1536.730053
 20
51.561577
 30
0.0
 11
1536.730053
 21
71.561577
 31
0.0
  0
LINE
  5
103
  8
002
 62
     3
 10
326.490349
 20
79.015774
 30
0.0
 11
326.490349
 21
74.015774
 31
0.0
  0
LINE
  5
104
  8
002
 62
     3
 10
317.990349
 20
74.015774
 30
0.0
 11
317.990349
 21
79.015774
 31
0.0
  0
LINE
  5
105
  8
002
 62
     3
 10
317.990349
 20
74.015774
 30
0.0
 11
326.490349
 21
74.015774
 31
0.0
  0
LINE
  5
106
  8
002
 62
     3
 10
321.150249
 20
74.015774
 30
0.0
 11
321.150249
 21
53.015774
 31
0.0
  0
LINE
  5
107
  8
002
 62
     3
 10
321.150249
 20
53.015774
 30
0.0
 11
355.150249
 21
53.015774
 31
0.0
  0
LINE
  5
108
  8
002
 62
     3
 10
355.150249
 20
53.015774
 30
0.0
 11
355.150249
 21
74.015774
 31
0.0
  0
LINE
  5
109
  8
002
 62
     3
 10
358.310149
 20
74.015774
 30
0.0
 11
349.810149
 21
74.015774
 31
0.0
  0
LINE
  5
10A
  8
002
 62
     3
 10
358.310149
 20
74.015774
 30
0.0
 11
358.310149
 21
79.015774
 31
0.0
  0
LINE
  5
10B
  8
002
 62
     3
 10
349.810149
 20
74.015774
 30
0.0
 11
349.810149
 21
79.015774
 31
0.0
  0
LINE
  5
10C
  8
002
 62
     3
 10
365.650249
 20
79.015774
 30
0.0
 11
310.650249
 21
79.015774
 31
0.0
  0
LINE
  5
10D
  8
002
 62
     3
 10
310.650249
 20
79.015774
 30
0.0
 11
310.650249
 21
83.015774
 31
0.0
  0
LINE
  5
10E
  8
002
  6
CENTER
 62
    40
 10
354.060149
 20
85.015774
 30
0.0
 11
354.060149
 21
71.294174
 31
0.0
  0
LINE
  5
10F
  8
002
  6
CENTER
 62
    40
 10
413.972949
 20
113.015774
 30
0.0
 11
284.368549
 21
113.015774
 31
0.0
  0
LINE
  5
110
  8
002
  6
CENTER
 62
    40
 10
322.240349
 20
85.015774
 30
0.0
 11
322.240349
 21
71.294174
 31
0.0
  0
LINE
  5
111
  8
002
 62
     3
 10
330.150549
 20
328.015774
 30
0.0
 11
346.150549
 21
328.015774
 31
0.0
  0
LINE
  5
112
  8
002
 62
     3
 10
332.150849
 20
328.015774
 30
0.0
 11
332.150849
 21
348.015774
 31
0.0
  0
LINE
  5
113
  8
002
 62
     3
 10
332.150849
 20
348.015774
 30
0.0
 11
344.150849
 21
348.015774
 31
0.0
  0
LINE
  5
114
  8
002
 62
     3
 10
344.150849
 20
348.015774
 30
0.0
 11
344.150849
 21
328.015774
 31
0.0
  0
LINE
  5
115
  8
002
  6
CENTER
 62
    40
 10
338.150249
 20
384.621274
 30
0.0
 11
338.150249
 21
446.931374
 31
0.0
  0
LINE
  5
116
  8
002
  6
CENTER
 62
    40
 10
307.460109
 20
415.842474
 30
0.0
 11
367.150219
 21
415.842474
 31
0.0
  0
LINE
  5
117
  8
002
 62
     3
 10
332.150264
 20
402.094915
 30
0.0
 11
332.150264
 21
396.142766
 31
0.0
  0
LINE
  5
118
  8
002
 62
     3
 10
344.150249
 20
402.094915
 30
0.0
 11
344.150249
 21
396.142766
 31
0.0
  0
LINE
  5
119
  8
002
 62
     3
 10
332.150264
 20
396.142766
 30
0.0
 11
344.150249
 21
396.142766
 31
0.0
  0
LINE
  5
11A
  8
002
 62
     3
 10
329.572261
 20
403.537298
 30
0.0
 11
329.572261
 21
401.942815
 31
0.0
  0
LINE
  5
11B
  8
002
 62
     3
 10
346.728237
 20
401.942815
 30
0.0
 11
346.728237
 21
403.537298
 31
0.0
  0
LINE
  5
11C
  8
002
 62
     3
 10
344.150295
 20
429.590032
 30
0.0
 11
344.150295
 21
435.542181
 31
0.0
  0
LINE
  5
11D
  8
002
 62
     3
 10
332.15031
 20
429.590047
 30
0.0
 11
332.15031
 21
435.542196
 31
0.0
  0
LINE
  5
11E
  8
002
 62
     3
 10
344.150249
 20
435.542135
 30
0.0
 11
332.150264
 21
435.542135
 31
0.0
  0
LINE
  5
11F
  8
002
 62
     3
 10
346.728298
 20
428.147649
 30
0.0
 11
346.728298
 21
429.742132
 31
0.0
  0
LINE
  5
120
  8
002
 62
     3
 10
329.572322
 20
429.742147
 30
0.0
 11
329.572322
 21
428.147665
 31
0.0
  0
LINE
  5
121
  8
002
 62
     3
 10
338.549611
 20
433.620512
 30
0.0
 11
338.815027
 21
431.944746
 31
0.0
  0
LINE
  5
122
  8
002
 62
     3
 10
332.542197
 20
430.951215
 30
0.0
 11
338.815034
 21
431.944738
 31
0.0
  0
LINE
  5
123
  8
002
 62
     3
 10
332.748291
 20
433.008817
 30
0.0
 11
337.983132
 21
433.837934
 31
0.0
  0
LINE
  5
124
  8
002
 62
     3
 10
337.983174
 20
433.837926
 30
0.0
 11
338.549638
 21
433.620481
 31
0.0
  0
LINE
  5
125
  8
002
 62
     3
 10
336.981404
 20
433.372129
 30
0.0
 11
337.246819
 21
431.696363
 31
0.0
  0
LINE
  5
126
  8
002
 62
     3
 10
332.542199
 20
430.951208
 30
0.0
 11
332.276784
 21
432.626974
 31
0.0
  0
LINE
  5
127
  8
002
 62
     3
 10
332.276778
 20
432.626966
 30
0.0
 11
332.748324
 21
433.008817
 31
0.0
  0
LINE
  5
128
  8
002
 62
     3
 10
334.110406
 20
431.19959
 30
0.0
 11
333.844991
 21
432.875356
 31
0.0
  0
LINE
  5
129
  8
002
 62
     3
 10
337.750926
 20
398.064497
 30
0.0
 11
337.485513
 21
399.740247
 31
0.0
  0
LINE
  5
12A
  8
002
 62
     3
 10
343.758346
 20
400.733785
 30
0.0
 11
337.485509
 21
399.740263
 31
0.0
  0
LINE
  5
12B
  8
002
 62
     3
 10
343.552205
 20
398.676183
 30
0.0
 11
338.317378
 21
397.847074
 31
0.0
  0
LINE
  5
12C
  8
002
 62
     3
 10
338.317383
 20
397.847059
 30
0.0
 11
337.750918
 21
398.064504
 31
0.0
  0
LINE
  5
12D
  8
002
 62
     3
 10
339.319133
 20
398.312879
 30
0.0
 11
339.05372
 21
399.98863
 31
0.0
  0
LINE
  5
12E
  8
002
 62
     3
 10
343.75834
 20
400.733778
 30
0.0
 11
344.023754
 21
399.058027
 31
0.0
  0
LINE
  5
12F
  8
002
 62
     3
 10
344.023781
 20
399.058019
 30
0.0
 11
343.552236
 21
398.676168
 31
0.0
  0
LINE
  5
130
  8
002
 62
     3
 10
342.190133
 20
400.485403
 30
0.0
 11
342.455546
 21
398.809652
 31
0.0
  0
CIRCLE
  5
131
  8
002
 62
     3
 10
338.150249
 20
415.842474
 30
0.0
 40
7.999998000000005
  0
CIRCLE
  5
132
  8
002
 62
     3
 10
338.150249
 20
415.842474
 30
0.0
 40
8.599998
  0
CIRCLE
  5
133
  8
002
 62
     3
 10
338.150249
 20
415.842474
 30
0.0
 40
14.99999800000001
  0
ARC
  5
134
  8
002
 62
     3
 10
338.150249
 20
415.842474
 30
0.0
 40
15.8
 50
247.682022
 51
292.317963
  0
ARC
  5
135
  8
002
 62
     3
 10
334.572261
 20
401.942815
 30
0.0
 40
4.999998999999998
 50
180.0
 51
241.026825
  0
ARC
  5
136
  8
002
 62
     3
 10
341.728237
 20
401.942815
 30
0.0
 40
4.999996000000001
 50
298.973175
 51
0.0
  0
ARC
  5
137
  8
002
 62
     3
 10
338.150249
 20
415.842474
 30
0.0
 40
15.799995
 50
67.682007
 51
112.317938
  0
ARC
  5
138
  8
002
 62
     3
 10
341.728252
 20
429.742132
 30
0.0
 40
4.999998999999997
 50
0.0
 51
61.026825
  0
ARC
  5
139
  8
002
 62
     3
 10
334.572277
 20
429.742147
 30
0.0
 40
5.000002
 50
118.973114
 51
180.0
  0
LINE
  5
13A
  8
002
  6
CENTER
 62
    40
 10
361.74934
 20
429.467367
 30
0.0
 11
353.522115
 21
424.717375
 31
0.0
  0
LINE
  5
13B
  8
002
  6
CENTER
 62
    40
 10
353.522124
 20
406.96761
 30
0.0
 11
361.749349
 21
402.21761
 31
0.0
  0
LINE
  5
13C
  8
002
  6
CENTER
 62
    40
 10
314.551275
 20
402.217671
 30
0.0
 11
322.778512
 21
406.967679
 31
0.0
  0
LINE
  5
13D
  8
002
  6
CENTER
 62
    40
 10
322.778442
 20
424.717505
 30
0.0
 11
314.551215
 21
429.467505
 31
0.0
  0
CIRCLE
  5
13E
  8
002
 62
    40
 10
338.150249
 20
415.842474
 30
0.0
 40
6.873000000000005
  0
CIRCLE
  5
13F
  8
002
 62
    40
 10
338.150249
 20
415.842474
 30
0.0
 40
9.726996999999997
  0
LINE
  5
140
  8
002
  6
PHANTOM
 62
    40
 10
346.650249
 20
392.842474
 30
0.0
 11
329.650249
 21
392.842474
 31
0.0
  0
ARC
  5
141
  8
002
  6
PHANTOM
 62
    40
 10
329.650249
 20
395.842474
 30
0.0
 40
3.0
 50
180.0
 51
270.0
  0
ARC
  5
142
  8
002
  6
PHANTOM
 62
    40
 10
346.650249
 20
395.842474
 30
0.0
 40
3.0
 50
270.0
 51
0.0
  0
LINE
  5
143
  8
002
  6
PHANTOM
 62
    40
 10
349.650249
 20
395.842474
 30
0.0
 11
349.650249
 21
406.211797
 31
0.0
  0
LINE
  5
144
  8
002
  6
PHANTOM
 62
    40
 10
326.650249
 20
395.842474
 30
0.0
 11
326.650249
 21
406.211797
 31
0.0
  0
LINE
  5
145
  8
002
  6
PHANTOM
 62
    40
 10
346.650249
 20
438.842474
 30
0.0
 11
329.650249
 21
438.842474
 31
0.0
  0
ARC
  5
146
  8
002
  6
PHANTOM
 62
    40
 10
329.650249
 20
435.842474
 30
0.0
 40
3.0
 50
90.0
 51
180.0
  0
ARC
  5
147
  8
002
  6
PHANTOM
 62
    40
 10
346.650249
 20
435.842474
 30
0.0
 40
3.0
 50
0.0
 51
90.0
  0
LINE
  5
148
  8
002
  6
PHANTOM
 62
    40
 10
349.650249
 20
435.842474
 30
0.0
 11
349.650249
 21
425.473151
 31
0.0
  0
LINE
  5
149
  8
002
  6
PHANTOM
 62
    40
 10
326.650249
 20
435.842474
 30
0.0
 11
326.650249
 21
425.473151
 31
0.0
  0
CIRCLE
  5
14A
  8
002
 62
     3
 10
338.150249
 20
415.842474
 30
0.0
 40
29.0
  0
CIRCLE
  5
14B
  8
002
  6
CENTER
 62
    40
 10
338.150249
 20
415.842474
 30
0.0
 40
22.5
  0
CIRCLE
  5
14C
  8
002
 62
     3
 10
357.635842
 20
427.092437
 30
0.0
 40
3.3
  0
CIRCLE
  5
14D
  8
002
 62
     3
 10
357.635858
 20
404.59254
 30
0.0
 40
3.3
  0
CIRCLE
  5
14E
  8
002
 62
     3
 10
318.664644
 20
404.592532
 30
0.0
 40
3.3
  0
CIRCLE
  5
14F
  8
002
 62
     3
 10
318.664728
 20
427.092563
 30
0.0
 40
3.3
  0
ARC
  5
150
  8
002
 62
    40
 10
340.902513
 20
256.346288
 30
0.0
 40
1.512089
 50
132.101429
 51
231.016998
  0
ARC
  5
151
  8
002
 62
    40
 10
340.870967
 20
256.381917
 30
0.0
 40
1.463541
 50
81.435059
 51
101.68337
  0
ARC
  5
152
  8
002
 62
    40
 10
340.875228
 20
256.318743
 30
0.0
 40
1.473517999999999
 50
231.167908
 51
261.403961
  0
ARC
  5
153
  8
002
 62
    40
 10
340.870148
 20
256.318605
 30
0.0
 40
1.473517
 50
281.714478
 51
311.950531
  0
ARC
  5
154
  8
002
 62
    40
 10
340.872952
 20
256.308997
 30
0.0
 40
1.463541
 50
261.435059
 51
281.68338
  0
ARC
  5
155
  8
002
 62
    40
 10
340.841405
 20
256.344625
 30
0.0
 40
1.512089
 50
312.101425
 51
51.016998
  0
ARC
  5
156
  8
002
 62
    40
 10
340.86869
 20
256.37217
 30
0.0
 40
1.473518
 50
51.167908
 51
81.403961
  0
ARC
  5
157
  8
002
 62
    40
 10
340.87377
 20
256.372308
 30
0.0
 40
1.473518
 50
101.714477
 51
131.950531
  0
ARC
  5
158
  8
002
 62
    40
 10
335.429741
 20
223.57229
 30
0.0
 40
1.473534
 50
101.773849
 51
132.009747
  0
ARC
  5
159
  8
002
 62
    40
 10
335.458491
 20
223.546316
 30
0.0
 40
1.512082000000001
 50
132.160503
 51
231.076859
  0
ARC
  5
15A
  8
002
 62
    40
 10
335.431253
 20
223.518762
 30
0.0
 40
1.473538000000003
 50
231.227692
 51
261.463562
  0
ARC
  5
15B
  8
002
 62
    40
 10
335.426177
 20
223.518617
 30
0.0
 40
1.473533999999997
 50
281.773849
 51
312.00975
  0
ARC
  5
15C
  8
002
 62
    40
 10
335.428988
 20
223.509019
 30
0.0
 40
1.463568000000003
 50
261.494629
 51
281.742783
  0
ARC
  5
15D
  8
002
 62
    40
 10
335.397427
 20
223.544591
 30
0.0
 40
1.512082000000001
 50
312.160507
 51
51.076843
  0
ARC
  5
15E
  8
002
 62
    40
 10
335.424665
 20
223.572145
 30
0.0
 40
1.473538000000003
 50
51.227692
 51
81.463562
  0
ARC
  5
15F
  8
002
 62
    40
 10
335.426929
 20
223.581888
 30
0.0
 40
1.463568000000001
 50
81.494629
 51
101.742781
  0
LINE
  5
160
  8
002
  6
CENTER
 62
    40
 10
316.14999
 20
218.945493
 30
0.0
 11
316.14999
 21
204.945509
 31
0.0
  0
LINE
  5
161
  8
002
  6
CENTER
 62
    40
 10
360.149913
 20
218.945493
 30
0.0
 11
360.149913
 21
204.945509
 31
0.0
  0
LINE
  5
162
  8
002
 62
     3
 10
324.14999
 20
263.945417
 30
0.0
 11
352.149944
 21
263.945417
 31
0.0
  0
LINE
  5
163
  8
002
 62
     3
 10
324.150099
 20
263.945529
 30
0.0
 11
323.150206
 21
262.945636
 31
0.0
  0
ARC
  5
164
  8
002
 62
     3
 10
340.84781
 20
256.346205
 30
0.0
 40
1.193062
 50
308.767029
 51
47.680603
  0
ARC
  5
165
  8
002
 62
     3
 10
340.873312
 20
256.324228
 30
0.0
 40
1.162575
 50
227.831787
 51
258.068222
  0
ARC
  5
166
  8
002
 62
     3
 10
340.869294
 20
256.324353
 30
0.0
 40
1.162575
 50
278.379395
 51
308.615814
  0
ARC
  5
167
  8
002
 62
     3
 10
340.871066
 20
256.31664
 30
0.0
 40
1.154686
 50
258.099411
 51
278.348206
  0
ARC
  5
168
  8
002
 62
     3
 10
340.896108
 20
256.344708
 30
0.0
 40
1.193061
 50
128.767052
 51
227.680588
  0
ARC
  5
169
  8
002
 62
     3
 10
340.874624
 20
256.36656
 30
0.0
 40
1.162575
 50
98.379394
 51
128.615829
  0
ARC
  5
16A
  8
002
 62
     3
 10
340.872853
 20
256.374273
 30
0.0
 40
1.154686000000001
 50
78.099396
 51
98.348207
  0
ARC
  5
16B
  8
002
 62
     3
 10
340.870607
 20
256.366685
 30
0.0
 40
1.162575
 50
47.831787
 51
78.068237
  0
ARC
  5
16C
  8
002
 62
     3
 10
340.866459
 20
256.392662
 30
0.0
 40
2.60322
 50
50.836029
 51
81.07196
  0
ARC
  5
16D
  8
002
 62
     3
 10
340.87058
 20
256.409852
 30
0.0
 40
2.585599
 50
81.103058
 51
101.351277
  0
ARC
  5
16E
  8
002
 62
     3
 10
340.875433
 20
256.392855
 30
0.0
 40
2.603219000000001
 50
101.382368
 51
131.618317
  0
ARC
  5
16F
  8
002
 62
     3
 10
340.925923
 20
256.346613
 30
0.0
 40
2.671333
 50
131.769173
 51
230.68515
  0
ARC
  5
170
  8
002
 62
     3
 10
340.877459
 20
256.298251
 30
0.0
 40
2.603219000000001
 50
230.836014
 51
261.071976
  0
ARC
  5
171
  8
002
 62
     3
 10
340.873339
 20
256.281061
 30
0.0
 40
2.585599
 50
261.103058
 51
281.351273
  0
ARC
  5
172
  8
002
 62
     3
 10
340.868486
 20
256.298059
 30
0.0
 40
2.603218999999999
 50
281.38237
 51
311.618317
  0
ARC
  5
173
  8
002
 62
     3
 10
340.817995
 20
256.344301
 30
0.0
 40
2.671333000000001
 50
311.769165
 51
50.68515
  0
ARC
  5
174
  8
002
 62
     3
 10
310.585079
 20
239.135038
 30
0.0
 40
37.551865
 50
27.277893
 51
32.109558
  0
ARC
  5
175
  8
002
 62
     3
 10
310.585063
 20
273.55586
 30
0.0
 40
37.551865
 50
327.890488
 51
332.722153
  0
LINE
  5
176
  8
002
 62
     3
 10
338.928279
 20
253.59683
 30
0.0
 11
342.392772
 21
253.59683
 31
0.0
  0
ARC
  5
177
  8
002
 62
     3
 10
305.883464
 20
236.379835
 30
0.0
 40
37.551865
 50
27.287445
 51
32.119171
  0
LINE
  5
178
  8
002
 62
     3
 10
337.360273
 20
256.345244
 30
0.0
 11
338.928355
 21
253.595392
 31
0.0
  0
ARC
  5
179
  8
002
 62
     3
 10
305.879207
 20
276.303663
 30
0.0
 40
37.551865
 50
327.89386
 51
332.725601
  0
LINE
  5
17A
  8
002
 62
     3
 10
338.928402
 20
259.095443
 30
0.0
 11
337.360305
 21
256.345319
 31
0.0
  0
LINE
  5
17B
  8
002
 62
     3
 10
337.360134
 20
256.345304
 30
0.0
 11
337.688121
 21
256.345304
 31
0.0
  0
LINE
  5
17C
  8
002
 62
     3
 10
342.392742
 20
259.095426
 30
0.0
 11
338.928203
 21
259.095426
 31
0.0
  0
ARC
  5
17D
  8
002
 62
     3
 10
343.149959
 20
260.445432
 30
0.0
 40
1.0
 50
0.0
 51
89.999969
  0
LINE
  5
17E
  8
002
 62
     3
 10
343.149959
 20
261.445432
 30
0.0
 11
333.150005
 21
261.445432
 31
0.0
  0
LINE
  5
17F
  8
002
 62
     3
 10
332.340667
 20
261.033084
 30
0.0
 11
344.149703
 21
234.275819
 31
0.0
  0
ARC
  5
180
  8
002
 62
     3
 10
333.14999
 20
260.445432
 30
0.0
 40
0.9999999999999996
 50
89.999969
 51
179.999985
  0
LINE
  5
181
  8
002
 62
     3
 10
343.959301
 20
218.857896
 30
0.0
 11
332.150263
 21
245.61516
 31
0.0
  0
LINE
  5
182
  8
002
 62
     3
 10
332.149623
 20
247.596258
 30
0.0
 11
329.825954
 21
252.861298
 31
0.0
  0
LINE
  5
183
  8
002
 62
     3
 10
332.14977
 20
253.540371
 30
0.0
 11
331.052737
 21
256.026064
 31
0.0
  0
ARC
  5
184
  8
002
 62
     3
 10
332.021984
 20
253.830473
 30
0.0
 40
2.399998000000001
 50
86.94278
 51
203.813736
  0
LINE
  5
185
  8
002
 62
     3
 10
332.150005
 20
260.445432
 30
0.0
 11
332.150005
 21
219.445478
 31
0.0
  0
LINE
  5
186
  8
002
 62
     3
 10
323.14999
 20
262.945417
 30
0.0
 11
323.14999
 21
216.945493
 31
0.0
  0
LINE
  5
187
  8
002
 62
     3
 10
344.150344
 20
232.294721
 30
0.0
 11
346.474015
 21
227.02968
 31
0.0
  0
LINE
  5
188
  8
002
 62
     3
 10
344.150213
 20
226.350614
 30
0.0
 11
345.247247
 21
223.864923
 31
0.0
  0
ARC
  5
189
  8
002
 62
     3
 10
344.27795
 20
226.060438
 30
0.0
 40
2.399999000000001
 50
266.94278
 51
23.813782
  0
LINE
  5
18A
  8
002
 62
     3
 10
344.149944
 20
219.445463
 30
0.0
 11
344.149944
 21
260.445432
 31
0.0
  0
ARC
  5
18B
  8
002
 62
     3
 10
343.149944
 20
219.445463
 30
0.0
 40
1.0
 50
269.999969
 51
0.0
  0
LINE
  5
18C
  8
002
 62
     3
 10
333.149974
 20
218.445463
 30
0.0
 11
343.149944
 21
218.445463
 31
0.0
  0
ARC
  5
18D
  8
002
 62
     3
 10
333.149974
 20
219.445463
 30
0.0
 40
0.9999999999999971
 50
180.0
 51
269.999969
  0
ARC
  5
18E
  8
002
 62
     3
 10
365.714839
 20
240.755857
 30
0.0
 40
37.551865
 50
207.277847
 51
212.10952
  0
LINE
  5
18F
  8
002
 62
     3
 10
333.907176
 20
220.795484
 30
0.0
 11
337.371715
 21
220.795484
 31
0.0
  0
ARC
  5
190
  8
002
 62
     3
 10
335.433464
 20
223.49827
 30
0.0
 40
2.60324
 50
230.846054
 51
261.081894
  0
ARC
  5
191
  8
002
 62
     3
 10
335.429349
 20
223.481088
 30
0.0
 40
2.585629000000002
 50
261.112961
 51
281.361053
  0
ARC
  5
192
  8
002
 62
     3
 10
335.424496
 20
223.498075
 30
0.0
 40
2.603239999999998
 50
281.392136
 51
311.627975
  0
ARC
  5
193
  8
002
 62
     3
 10
335.374019
 20
223.54429
 30
0.0
 40
2.671325000000001
 50
311.778748
 51
50.695221
  0
ARC
  5
194
  8
002
 62
     3
 10
335.422454
 20
223.592638
 30
0.0
 40
2.603240000000003
 50
50.846039
 51
81.081879
  0
ARC
  5
195
  8
002
 62
     3
 10
335.426569
 20
223.609819
 30
0.0
 40
2.585629000000002
 50
81.112946
 51
101.361053
  0
ARC
  5
196
  8
002
 62
     3
 10
335.431422
 20
223.592832
 30
0.0
 40
2.603240000000002
 50
101.392129
 51
131.627968
  0
ARC
  5
197
  8
002
 62
     3
 10
335.481899
 20
223.546617
 30
0.0
 40
2.671325000000001
 50
131.77874
 51
230.695236
  0
ARC
  5
198
  8
002
 62
     3
 10
365.714855
 20
206.335035
 30
0.0
 40
37.55186500000001
 50
147.890446
 51
152.722118
  0
LINE
  5
199
  8
002
 62
     3
 10
337.371669
 20
226.296918
 30
0.0
 11
333.907176
 21
226.296918
 31
0.0
  0
ARC
  5
19A
  8
002
 62
     3
 10
370.416454
 20
243.51106
 30
0.0
 40
37.551865
 50
207.287407
 51
212.119133
  0
LINE
  5
19B
  8
002
 62
     3
 10
338.939786
 20
223.545812
 30
0.0
 11
337.371705
 21
226.295663
 31
0.0
  0
LINE
  5
19C
  8
002
 62
     3
 10
337.37167
 20
220.795717
 30
0.0
 11
338.939767
 21
223.545843
 31
0.0
  0
LINE
  5
19D
  8
002
 62
     3
 10
338.939846
 20
223.545713
 30
0.0
 11
338.611858
 21
223.545713
 31
0.0
  0
ARC
  5
19E
  8
002
 62
     3
 10
370.420711
 20
203.587232
 30
0.0
 40
37.551865
 50
147.893833
 51
152.725563
  0
ARC
  5
19F
  8
002
 62
     3
 10
335.403826
 20
223.544614
 30
0.0
 40
1.193060999999998
 50
312.535858
 51
51.450134
  0
ARC
  5
1A0
  8
002
 62
     3
 10
335.426689
 20
223.524229
 30
0.0
 40
1.162586000000002
 50
282.148453
 51
312.384811
  0
ARC
  5
1A1
  8
002
 62
     3
 10
335.428961
 20
223.516656
 30
0.0
 40
1.154706000000001
 50
261.868683
 51
282.117325
  0
ARC
  5
1A2
  8
002
 62
     3
 10
335.430701
 20
223.52437
 30
0.0
 40
1.162588999999998
 50
231.601257
 51
261.83757
  0
ARC
  5
1A3
  8
002
 62
     3
 10
335.452091
 20
223.546293
 30
0.0
 40
1.193060999999998
 50
132.535862
 51
231.450119
  0
ARC
  5
1A4
  8
002
 62
     3
 10
335.429229
 20
223.566679
 30
0.0
 40
1.162585999999999
 50
102.148451
 51
132.384815
  0
ARC
  5
1A5
  8
002
 62
     3
 10
335.426957
 20
223.574251
 30
0.0
 40
1.154706000000002
 50
81.868683
 51
102.117327
  0
ARC
  5
1A6
  8
002
 62
     3
 10
335.425217
 20
223.566537
 30
0.0
 40
1.162588999999999
 50
51.601257
 51
81.837555
  0
LINE
  5
1A7
  8
002
 62
     3
 10
353.149944
 20
262.945417
 30
0.0
 11
353.149944
 21
216.945493
 31
0.0
  0
LINE
  5
1A8
  8
002
 62
     3
 10
352.150093
 20
263.94556
 30
0.0
 11
353.150094
 21
262.945559
 31
0.0
  0
LINE
  5
1A9
  8
002
 62
     3
 10
367.149913
 20
216.945493
 30
0.0
 11
367.149913
 21
207.945493
 31
0.0
  0
LINE
  5
1AA
  8
002
 62
     3
 10
367.150125
 20
207.945562
 30
0.0
 11
366.150232
 21
206.945669
 31
0.0
  0
LINE
  5
1AB
  8
002
 62
     3
 10
309.150016
 20
207.945501
 30
0.0
 11
310.150005
 21
206.945509
 31
0.0
  0
LINE
  5
1AC
  8
002
 62
     3
 10
309.14999
 20
216.945493
 30
0.0
 11
309.14999
 21
207.945493
 31
0.0
  0
LINE
  5
1AD
  8
002
 62
     3
 10
309.14999
 20
216.945478
 30
0.0
 11
367.149913
 21
216.945478
 31
0.0
  0
LINE
  5
1AE
  8
002
 62
     3
 10
310.150005
 20
206.945478
 30
0.0
 11
366.150232
 21
206.945478
 31
0.0
  0
LINE
  5
1AF
  8
002
 62
     3
 10
330.150549
 20
263.945417
 30
0.0
 11
330.150549
 21
328.015774
 31
0.0
  0
LINE
  5
1B0
  8
002
 62
     3
 10
346.150549
 20
328.015774
 30
0.0
 11
346.150549
 21
263.945417
 31
0.0
  0
ARC
  5
1B1
  8
002
 62
    40
 10
1545.481317
 20
176.282106
 30
0.0
 40
1.512089
 50
132.101429
 51
231.016998
  0
ARC
  5
1B2
  8
002
 62
    40
 10
1545.449771
 20
176.317735
 30
0.0
 40
1.463541
 50
81.435059
 51
101.68337
  0
ARC
  5
1B3
  8
002
 62
    40
 10
1545.454032
 20
176.254561
 30
0.0
 40
1.473517999999999
 50
231.167908
 51
261.403961
  0
ARC
  5
1B4
  8
002
 62
    40
 10
1545.448952
 20
176.254423
 30
0.0
 40
1.473517
 50
281.714478
 51
311.950531
  0
ARC
  5
1B5
  8
002
 62
    40
 10
1545.451756
 20
176.244815
 30
0.0
 40
1.463541
 50
261.435059
 51
281.68338
  0
ARC
  5
1B6
  8
002
 62
    40
 10
1545.420209
 20
176.280443
 30
0.0
 40
1.512089
 50
312.101425
 51
51.016998
  0
ARC
  5
1B7
  8
002
 62
    40
 10
1545.447494
 20
176.307988
 30
0.0
 40
1.473518
 50
51.167908
 51
81.403961
  0
ARC
  5
1B8
  8
002
 62
    40
 10
1545.452574
 20
176.308126
 30
0.0
 40
1.473518
 50
101.714477
 51
131.950531
  0
ARC
  5
1B9
  8
002
 62
    40
 10
1540.008545
 20
143.508108
 30
0.0
 40
1.473534
 50
101.773849
 51
132.009747
  0
ARC
  5
1BA
  8
002
 62
    40
 10
1540.037295
 20
143.482134
 30
0.0
 40
1.512082000000001
 50
132.160503
 51
231.076859
  0
ARC
  5
1BB
  8
002
 62
    40
 10
1540.010057
 20
143.45458
 30
0.0
 40
1.473538000000003
 50
231.227692
 51
261.463562
  0
ARC
  5
1BC
  8
002
 62
    40
 10
1540.004981
 20
143.454435
 30
0.0
 40
1.473533999999997
 50
281.773849
 51
312.00975
  0
ARC
  5
1BD
  8
002
 62
    40
 10
1540.007792
 20
143.444837
 30
0.0
 40
1.463568000000003
 50
261.494629
 51
281.742783
  0
ARC
  5
1BE
  8
002
 62
    40
 10
1539.976231
 20
143.480409
 30
0.0
 40
1.512082000000001
 50
312.160507
 51
51.076843
  0
ARC
  5
1BF
  8
002
 62
    40
 10
1540.003469
 20
143.507963
 30
0.0
 40
1.473538000000003
 50
51.227692
 51
81.463562
  0
ARC
  5
1C0
  8
002
 62
    40
 10
1540.005733
 20
143.517706
 30
0.0
 40
1.463568000000001
 50
81.494629
 51
101.742781
  0
LINE
  5
1C1
  8
002
  6
CENTER
 62
    40
 10
1520.728794
 20
138.881311
 30
0.0
 11
1520.728794
 21
124.881327
 31
0.0
  0
LINE
  5
1C2
  8
002
  6
CENTER
 62
    40
 10
1564.728717
 20
138.881311
 30
0.0
 11
1564.728717
 21
124.881327
 31
0.0
  0
LINE
  5
1C3
  8
002
 62
     3
 10
1528.728794
 20
183.881235
 30
0.0
 11
1556.728748
 21
183.881235
 31
0.0
  0
LINE
  5
1C4
  8
002
 62
     3
 10
1528.728903
 20
183.881347
 30
0.0
 11
1527.72901
 21
182.881454
 31
0.0
  0
ARC
  5
1C5
  8
002
 62
     3
 10
1545.426614
 20
176.282023
 30
0.0
 40
1.193062
 50
308.767029
 51
47.680603
  0
ARC
  5
1C6
  8
002
 62
     3
 10
1545.452116
 20
176.260046
 30
0.0
 40
1.162575
 50
227.831787
 51
258.068222
  0
ARC
  5
1C7
  8
002
 62
     3
 10
1545.448098
 20
176.260171
 30
0.0
 40
1.162575
 50
278.379395
 51
308.615814
  0
ARC
  5
1C8
  8
002
 62
     3
 10
1545.44987
 20
176.252458
 30
0.0
 40
1.154686
 50
258.099411
 51
278.348206
  0
ARC
  5
1C9
  8
002
 62
     3
 10
1545.474912
 20
176.280526
 30
0.0
 40
1.193061
 50
128.767052
 51
227.680588
  0
ARC
  5
1CA
  8
002
 62
     3
 10
1545.453428
 20
176.302378
 30
0.0
 40
1.162575
 50
98.379394
 51
128.615829
  0
ARC
  5
1CB
  8
002
 62
     3
 10
1545.451657
 20
176.310091
 30
0.0
 40
1.154686000000001
 50
78.099396
 51
98.348207
  0
ARC
  5
1CC
  8
002
 62
     3
 10
1545.449411
 20
176.302503
 30
0.0
 40
1.162575
 50
47.831787
 51
78.068237
  0
ARC
  5
1CD
  8
002
 62
     3
 10
1545.445263
 20
176.32848
 30
0.0
 40
2.60322
 50
50.836029
 51
81.07196
  0
ARC
  5
1CE
  8
002
 62
     3
 10
1545.449384
 20
176.34567
 30
0.0
 40
2.585599
 50
81.103058
 51
101.351277
  0
ARC
  5
1CF
  8
002
 62
     3
 10
1545.454237
 20
176.328673
 30
0.0
 40
2.603219000000001
 50
101.382368
 51
131.618317
  0
ARC
  5
1D0
  8
002
 62
     3
 10
1545.504727
 20
176.282431
 30
0.0
 40
2.671333
 50
131.769173
 51
230.68515
  0
ARC
  5
1D1
  8
002
 62
     3
 10
1545.456263
 20
176.234069
 30
0.0
 40
2.603219000000001
 50
230.836014
 51
261.071976
  0
ARC
  5
1D2
  8
002
 62
     3
 10
1545.452143
 20
176.216879
 30
0.0
 40
2.585599
 50
261.103058
 51
281.351273
  0
ARC
  5
1D3
  8
002
 62
     3
 10
1545.44729
 20
176.233877
 30
0.0
 40
2.603218999999999
 50
281.38237
 51
311.618317
  0
ARC
  5
1D4
  8
002
 62
     3
 10
1545.396799
 20
176.280119
 30
0.0
 40
2.671333000000001
 50
311.769165
 51
50.68515
  0
ARC
  5
1D5
  8
002
 62
     3
 10
1515.163883
 20
159.070856
 30
0.0
 40
37.551865
 50
27.277893
 51
32.109558
  0
ARC
  5
1D6
  8
002
 62
     3
 10
1515.163867
 20
193.491678
 30
0.0
 40
37.551865
 50
327.890488
 51
332.722153
  0
LINE
  5
1D7
  8
002
 62
     3
 10
1543.507083
 20
173.532648
 30
0.0
 11
1546.971576
 21
173.532648
 31
0.0
  0
ARC
  5
1D8
  8
002
 62
     3
 10
1510.462268
 20
156.315653
 30
0.0
 40
37.551865
 50
27.287445
 51
32.119171
  0
LINE
  5
1D9
  8
002
 62
     3
 10
1541.939077
 20
176.281062
 30
0.0
 11
1543.507159
 21
173.53121
 31
0.0
  0
ARC
  5
1DA
  8
002
 62
     3
 10
1510.458011
 20
196.239481
 30
0.0
 40
37.551865
 50
327.89386
 51
332.725601
  0
LINE
  5
1DB
  8
002
 62
     3
 10
1543.507206
 20
179.031261
 30
0.0
 11
1541.939109
 21
176.281137
 31
0.0
  0
LINE
  5
1DC
  8
002
 62
     3
 10
1541.938938
 20
176.281122
 30
0.0
 11
1542.266925
 21
176.281122
 31
0.0
  0
LINE
  5
1DD
  8
002
 62
     3
 10
1546.971546
 20
179.031244
 30
0.0
 11
1543.507007
 21
179.031244
 31
0.0
  0
ARC
  5
1DE
  8
002
 62
     3
 10
1547.728763
 20
180.38125
 30
0.0
 40
1.0
 50
0.0
 51
89.999969
  0
LINE
  5
1DF
  8
002
 62
     3
 10
1547.728763
 20
181.38125
 30
0.0
 11
1537.728809
 21
181.38125
 31
0.0
  0
LINE
  5
1E0
  8
002
 62
     3
 10
1536.919471
 20
180.968902
 30
0.0
 11
1548.728507
 21
154.211637
 31
0.0
  0
ARC
  5
1E1
  8
002
 62
     3
 10
1537.728794
 20
180.38125
 30
0.0
 40
0.9999999999999996
 50
89.999969
 51
179.999985
  0
LINE
  5
1E2
  8
002
 62
     3
 10
1548.538105
 20
138.793714
 30
0.0
 11
1536.729067
 21
165.550978
 31
0.0
  0
LINE
  5
1E3
  8
002
 62
     3
 10
1536.728427
 20
167.532076
 30
0.0
 11
1534.404758
 21
172.797116
 31
0.0
  0
LINE
  5
1E4
  8
002
 62
     3
 10
1536.728574
 20
173.476189
 30
0.0
 11
1535.631541
 21
175.961882
 31
0.0
  0
ARC
  5
1E5
  8
002
 62
     3
 10
1536.600788
 20
173.766291
 30
0.0
 40
2.399998000000001
 50
86.94278
 51
203.813736
  0
LINE
  5
1E6
  8
002
 62
     3
 10
1536.728809
 20
180.38125
 30
0.0
 11
1536.728809
 21
139.381296
 31
0.0
  0
LINE
  5
1E7
  8
002
 62
     3
 10
1527.728794
 20
182.881235
 30
0.0
 11
1527.728794
 21
136.881311
 31
0.0
  0
LINE
  5
1E8
  8
002
 62
     3
 10
1548.729148
 20
152.230539
 30
0.0
 11
1551.052819
 21
146.965498
 31
0.0
  0
LINE
  5
1E9
  8
002
 62
     3
 10
1548.729017
 20
146.286432
 30
0.0
 11
1549.826051
 21
143.800741
 31
0.0
  0
ARC
  5
1EA
  8
002
 62
     3
 10
1548.856754
 20
145.996256
 30
0.0
 40
2.399999000000001
 50
266.94278
 51
23.813782
  0
LINE
  5
1EB
  8
002
 62
     3
 10
1548.728748
 20
139.381281
 30
0.0
 11
1548.728748
 21
180.38125
 31
0.0
  0
ARC
  5
1EC
  8
002
 62
     3
 10
1547.728748
 20
139.381281
 30
0.0
 40
1.0
 50
269.999969
 51
0.0
  0
LINE
  5
1ED
  8
002
 62
     3
 10
1537.728778
 20
138.381281
 30
0.0
 11
1547.728748
 21
138.381281
 31
0.0
  0
ARC
  5
1EE
  8
002
 62
     3
 10
1537.728778
 20
139.381281
 30
0.0
 40
0.9999999999999971
 50
180.0
 51
269.999969
  0
ARC
  5
1EF
  8
002
 62
     3
 10
1570.293643
 20
160.691675
 30
0.0
 40
37.551865
 50
207.277847
 51
212.10952
  0
LINE
  5
1F0
  8
002
 62
     3
 10
1538.48598
 20
140.731302
 30
0.0
 11
1541.950519
 21
140.731302
 31
0.0
  0
ARC
  5
1F1
  8
002
 62
     3
 10
1540.012268
 20
143.434088
 30
0.0
 40
2.60324
 50
230.846054
 51
261.081894
  0
ARC
  5
1F2
  8
002
 62
     3
 10
1540.008153
 20
143.416906
 30
0.0
 40
2.585629000000002
 50
261.112961
 51
281.361053
  0
ARC
  5
1F3
  8
002
 62
     3
 10
1540.0033
 20
143.433893
 30
0.0
 40
2.603239999999998
 50
281.392136
 51
311.627975
  0
ARC
  5
1F4
  8
002
 62
     3
 10
1539.952823
 20
143.480108
 30
0.0
 40
2.671325000000001
 50
311.778748
 51
50.695221
  0
ARC
  5
1F5
  8
002
 62
     3
 10
1540.001258
 20
143.528456
 30
0.0
 40
2.603240000000003
 50
50.846039
 51
81.081879
  0
ARC
  5
1F6
  8
002
 62
     3
 10
1540.005373
 20
143.545637
 30
0.0
 40
2.585629000000002
 50
81.112946
 51
101.361053
  0
ARC
  5
1F7
  8
002
 62
     3
 10
1540.010226
 20
143.52865
 30
0.0
 40
2.603240000000002
 50
101.392129
 51
131.627968
  0
ARC
  5
1F8
  8
002
 62
     3
 10
1540.060703
 20
143.482435
 30
0.0
 40
2.671325000000001
 50
131.77874
 51
230.695236
  0
ARC
  5
1F9
  8
002
 62
     3
 10
1570.293659
 20
126.270853
 30
0.0
 40
37.55186500000001
 50
147.890446
 51
152.722118
  0
LINE
  5
1FA
  8
002
 62
     3
 10
1541.950473
 20
146.232736
 30
0.0
 11
1538.48598
 21
146.232736
 31
0.0
  0
ARC
  5
1FB
  8
002
 62
     3
 10
1574.995258
 20
163.446878
 30
0.0
 40
37.551865
 50
207.287407
 51
212.119133
  0
LINE
  5
1FC
  8
002
 62
     3
 10
1543.51859
 20
143.48163
 30
0.0
 11
1541.950509
 21
146.231481
 31
0.0
  0
LINE
  5
1FD
  8
002
 62
     3
 10
1541.950474
 20
140.731535
 30
0.0
 11
1543.518571
 21
143.481661
 31
0.0
  0
LINE
  5
1FE
  8
002
 62
     3
 10
1543.51865
 20
143.481531
 30
0.0
 11
1543.190662
 21
143.481531
 31
0.0
  0
ARC
  5
1FF
  8
002
 62
     3
 10
1574.999515
 20
123.52305
 30
0.0
 40
37.551865
 50
147.893833
 51
152.725563
  0
ARC
  5
200
  8
002
 62
     3
 10
1539.98263
 20
143.480432
 30
0.0
 40
1.193060999999998
 50
312.535858
 51
51.450134
  0
ARC
  5
201
  8
002
 62
     3
 10
1540.005493
 20
143.460047
 30
0.0
 40
1.162586000000002
 50
282.148453
 51
312.384811
  0
ARC
  5
202
  8
002
 62
     3
 10
1540.007765
 20
143.452474
 30
0.0
 40
1.154706000000001
 50
261.868683
 51
282.117325
  0
ARC
  5
203
  8
002
 62
     3
 10
1540.009505
 20
143.460188
 30
0.0
 40
1.162588999999998
 50
231.601257
 51
261.83757
  0
ARC
  5
204
  8
002
 62
     3
 10
1540.030895
 20
143.482111
 30
0.0
 40
1.193060999999998
 50
132.535862
 51
231.450119
  0
ARC
  5
205
  8
002
 62
     3
 10
1540.008033
 20
143.502497
 30
0.0
 40
1.162585999999999
 50
102.148451
 51
132.384815
  0
ARC
  5
206
  8
002
 62
     3
 10
1540.005761
 20
143.510069
 30
0.0
 40
1.154706000000002
 50
81.868683
 51
102.117327
  0
ARC
  5
207
  8
002
 62
     3
 10
1540.004021
 20
143.502355
 30
0.0
 40
1.162588999999999
 50
51.601257
 51
81.837555
  0
LINE
  5
208
  8
002
 62
     3
 10
1557.728748
 20
182.881235
 30
0.0
 11
1557.728748
 21
136.881311
 31
0.0
  0
LINE
  5
209
  8
002
 62
     3
 10
1556.728897
 20
183.881378
 30
0.0
 11
1557.728898
 21
182.881377
 31
0.0
  0
LINE
  5
20A
  8
002
 62
     3
 10
1571.728717
 20
136.881311
 30
0.0
 11
1571.728717
 21
127.881311
 31
0.0
  0
LINE
  5
20B
  8
002
 62
     3
 10
1571.728929
 20
127.88138
 30
0.0
 11
1570.729036
 21
126.881487
 31
0.0
  0
LINE
  5
20C
  8
002
 62
     3
 10
1513.72882
 20
127.881319
 30
0.0
 11
1514.728809
 21
126.881327
 31
0.0
  0
LINE
  5
20D
  8
002
 62
     3
 10
1513.728794
 20
136.881311
 30
0.0
 11
1513.728794
 21
127.881311
 31
0.0
  0
LINE
  5
20E
  8
002
 62
     3
 10
1513.728794
 20
136.881296
 30
0.0
 11
1571.728717
 21
136.881296
 31
0.0
  0
LINE
  5
20F
  8
002
 62
     3
 10
1514.728809
 20
126.881296
 30
0.0
 11
1570.729036
 21
126.881296
 31
0.0
  0
LINE
  5
210
  8
002
 62
     3
 10
1550.729053
 20
126.881296
 30
0.0
 11
1550.729053
 21
71.561577
 31
0.0
  0
LINE
  5
211
  8
002
 62
     3
 10
1534.729053
 20
71.561577
 30
0.0
 11
1534.729053
 21
126.881296
 31
0.0
  0
LINE
  5
212
  8
002
 62
    40
 10
1549.579053
 20
71.561577
 30
0.0
 11
1549.579053
 21
126.881296
 31
0.0
  0
LINE
  5
213
  8
002
 62
    40
 10
1535.879053
 20
126.881296
 30
0.0
 11
1535.879053
 21
71.561577
 31
0.0
  0
LINE
  5
214
  8
002
 62
    40
 10
345.000549
 20
263.945417
 30
0.0
 11
345.000549
 21
328.015774
 31
0.0
  0
LINE
  5
215
  8
002
 62
    40
 10
331.300549
 20
328.015774
 30
0.0
 11
331.300549
 21
263.945417
 31
0.0
  0
LINE
  5
216
  8
002
 62
    40
 10
864.604949
 20
263.945417
 30
0.0
 11
864.604949
 21
328.015774
 31
0.0
  0
LINE
  5
217
  8
002
 62
    40
 10
850.904949
 20
328.015774
 30
0.0
 11
850.904949
 21
263.945417
 31
0.0
  0
LINE
  5
218
  8
002
 62
     3
 10
846.094749
 20
79.015774
 30
0.0
 11
846.094749
 21
74.015774
 31
0.0
  0
LINE
  5
219
  8
002
 62
     3
 10
837.594749
 20
74.015774
 30
0.0
 11
837.594749
 21
79.015774
 31
0.0
  0
LINE
  5
21A
  8
002
 62
     3
 10
837.594749
 20
74.015774
 30
0.0
 11
846.094749
 21
74.015774
 31
0.0
  0
LINE
  5
21B
  8
002
 62
     3
 10
840.754649
 20
74.015774
 30
0.0
 11
840.754649
 21
53.015774
 31
0.0
  0
LINE
  5
21C
  8
002
 62
     3
 10
840.754649
 20
53.015774
 30
0.0
 11
874.754649
 21
53.015774
 31
0.0
  0
LINE
  5
21D
  8
002
 62
     3
 10
874.754649
 20
53.015774
 30
0.0
 11
874.754649
 21
74.015774
 31
0.0
  0
LINE
  5
21E
  8
002
 62
     3
 10
877.914549
 20
74.015774
 30
0.0
 11
869.414549
 21
74.015774
 31
0.0
  0
LINE
  5
21F
  8
002
 62
     3
 10
877.914549
 20
74.015774
 30
0.0
 11
877.914549
 21
79.015774
 31
0.0
  0
LINE
  5
220
  8
002
 62
     3
 10
869.414549
 20
74.015774
 30
0.0
 11
869.414549
 21
79.015774
 31
0.0
  0
ARC
  5
221
  8
002
 62
    40
 10
855.002385
 20
214.544607
 30
0.0
 40
1.512089
 50
312.101429
 51
51.016998
  0
ARC
  5
222
  8
002
 62
    40
 10
855.033931
 20
214.508978
 30
0.0
 40
1.463541
 50
261.435059
 51
281.68337
  0
ARC
  5
223
  8
002
 62
    40
 10
855.02967
 20
214.572152
 30
0.0
 40
1.473517999999999
 50
51.167908
 51
81.403961
  0
ARC
  5
224
  8
002
 62
    40
 10
855.03475
 20
214.57229
 30
0.0
 40
1.473517
 50
101.714478
 51
131.950531
  0
ARC
  5
225
  8
002
 62
    40
 10
855.031946
 20
214.581898
 30
0.0
 40
1.463541
 50
81.435059
 51
101.68338
  0
ARC
  5
226
  8
002
 62
    40
 10
855.063493
 20
214.54627
 30
0.0
 40
1.512089
 50
132.101425
 51
231.016998
  0
ARC
  5
227
  8
002
 62
    40
 10
855.036208
 20
214.518725
 30
0.0
 40
1.473518
 50
231.167908
 51
261.403961
  0
ARC
  5
228
  8
002
 62
    40
 10
855.031128
 20
214.518587
 30
0.0
 40
1.473518
 50
281.714477
 51
311.950531
  0
ARC
  5
229
  8
002
 62
    40
 10
860.475157
 20
247.318605
 30
0.0
 40
1.473534
 50
281.773849
 51
312.009747
  0
ARC
  5
22A
  8
002
 62
    40
 10
860.446407
 20
247.344579
 30
0.0
 40
1.512082000000001
 50
312.160503
 51
51.076859
  0
ARC
  5
22B
  8
002
 62
    40
 10
860.473645
 20
247.372133
 30
0.0
 40
1.473538000000003
 50
51.227692
 51
81.463562
  0
ARC
  5
22C
  8
002
 62
    40
 10
860.478721
 20
247.372278
 30
0.0
 40
1.473533999999997
 50
101.773849
 51
132.00975
  0
ARC
  5
22D
  8
002
 62
    40
 10
860.47591
 20
247.381876
 30
0.0
 40
1.463568000000003
 50
81.494629
 51
101.742783
  0
ARC
  5
22E
  8
002
 62
    40
 10
860.507471
 20
247.346304
 30
0.0
 40
1.512082000000001
 50
132.160507
 51
231.076843
  0
ARC
  5
22F
  8
002
 62
    40
 10
860.480233
 20
247.31875
 30
0.0
 40
1.473538000000003
 50
231.227692
 51
261.463562
  0
ARC
  5
230
  8
002
 62
    40
 10
860.477969
 20
247.309007
 30
0.0
 40
1.463568000000001
 50
261.494629
 51
281.742781
  0
LINE
  5
231
  8
002
  6
CENTER
 62
    40
 10
879.754908
 20
251.945402
 30
0.0
 11
879.754908
 21
265.945386
 31
0.0
  0
LINE
  5
232
  8
002
  6
CENTER
 62
    40
 10
835.754985
 20
251.945402
 30
0.0
 11
835.754985
 21
265.945386
 31
0.0
  0
LINE
  5
233
  8
002
 62
     3
 10
871.754908
 20
206.945478
 30
0.0
 11
843.754954
 21
206.945478
 31
0.0
  0
LINE
  5
234
  8
002
 62
     3
 10
871.754799
 20
206.945366
 30
0.0
 11
872.754692
 21
207.945259
 31
0.0
  0
ARC
  5
235
  8
002
 62
     3
 10
855.057088
 20
214.54469
 30
0.0
 40
1.193062
 50
128.767029
 51
227.680603
  0
ARC
  5
236
  8
002
 62
     3
 10
855.031586
 20
214.566667
 30
0.0
 40
1.162575
 50
47.831787
 51
78.068222
  0
ARC
  5
237
  8
002
 62
     3
 10
855.035604
 20
214.566542
 30
0.0
 40
1.162575
 50
98.379395
 51
128.615814
  0
ARC
  5
238
  8
002
 62
     3
 10
855.033832
 20
214.574255
 30
0.0
 40
1.154686
 50
78.099411
 51
98.348206
  0
ARC
  5
239
  8
002
 62
     3
 10
855.00879
 20
214.546187
 30
0.0
 40
1.193061
 50
308.767052
 51
47.680588
  0
ARC
  5
23A
  8
002
 62
     3
 10
855.030274
 20
214.524335
 30
0.0
 40
1.162575
 50
278.379394
 51
308.615829
  0
ARC
  5
23B
  8
002
 62
     3
 10
855.032045
 20
214.516622
 30
0.0
 40
1.154686000000001
 50
258.099396
 51
278.348207
  0
ARC
  5
23C
  8
002
 62
     3
 10
855.034291
 20
214.52421
 30
0.0
 40
1.162575
 50
227.831787
 51
258.068237
  0
ARC
  5
23D
  8
002
 62
     3
 10
855.038439
 20
214.498233
 30
0.0
 40
2.60322
 50
230.836029
 51
261.07196
  0
ARC
  5
23E
  8
002
 62
     3
 10
855.034318
 20
214.481043
 30
0.0
 40
2.585599
 50
261.103058
 51
281.351277
  0
ARC
  5
23F
  8
002
 62
     3
 10
855.029465
 20
214.49804
 30
0.0
 40
2.603219000000001
 50
281.382368
 51
311.618317
  0
ARC
  5
240
  8
002
 62
     3
 10
854.978975
 20
214.544282
 30
0.0
 40
2.671333
 50
311.769173
 51
50.68515
  0
ARC
  5
241
  8
002
 62
     3
 10
855.027439
 20
214.592644
 30
0.0
 40
2.603219000000001
 50
50.836014
 51
81.071976
  0
ARC
  5
242
  8
002
 62
     3
 10
855.031559
 20
214.609834
 30
0.0
 40
2.585599
 50
81.103058
 51
101.351273
  0
ARC
  5
243
  8
002
 62
     3
 10
855.036412
 20
214.592836
 30
0.0
 40
2.603218999999999
 50
101.38237
 51
131.618317
  0
ARC
  5
244
  8
002
 62
     3
 10
855.086903
 20
214.546594
 30
0.0
 40
2.671333000000001
 50
131.769165
 51
230.68515
  0
ARC
  5
245
  8
002
 62
     3
 10
885.319819
 20
231.755857
 30
0.0
 40
37.551865
 50
207.277893
 51
212.109558
  0
ARC
  5
246
  8
002
 62
     3
 10
885.319835
 20
197.335035
 30
0.0
 40
37.551865
 50
147.890488
 51
152.722153
  0
LINE
  5
247
  8
002
 62
     3
 10
856.976619
 20
217.294065
 30
0.0
 11
853.512126
 21
217.294065
 31
0.0
  0
ARC
  5
248
  8
002
 62
     3
 10
890.021434
 20
234.51106
 30
0.0
 40
37.551865
 50
207.287445
 51
212.119171
  0
LINE
  5
249
  8
002
 62
     3
 10
858.544625
 20
214.545651
 30
0.0
 11
856.976543
 21
217.295503
 31
0.0
  0
ARC
  5
24A
  8
002
 62
     3
 10
890.025691
 20
194.587232
 30
0.0
 40
37.551865
 50
147.89386
 51
152.725601
  0
LINE
  5
24B
  8
002
 62
     3
 10
856.976496
 20
211.795452
 30
0.0
 11
858.544593
 21
214.545576
 31
0.0
  0
LINE
  5
24C
  8
002
 62
     3
 10
858.544764
 20
214.545591
 30
0.0
 11
858.216777
 21
214.545591
 31
0.0
  0
LINE
  5
24D
  8
002
 62
     3
 10
853.512156
 20
211.795469
 30
0.0
 11
856.976695
 21
211.795469
 31
0.0
  0
ARC
  5
24E
  8
002
 62
     3
 10
852.754939
 20
210.445463
 30
0.0
 40
1.0
 50
180.0
 51
269.999969
  0
LINE
  5
24F
  8
002
 62
     3
 10
852.754939
 20
209.445463
 30
0.0
 11
862.754893
 21
209.445463
 31
0.0
  0
LINE
  5
250
  8
002
 62
     3
 10
863.564231
 20
209.857811
 30
0.0
 11
851.755195
 21
236.615076
 31
0.0
  0
ARC
  5
251
  8
002
 62
     3
 10
862.754908
 20
210.445463
 30
0.0
 40
0.9999999999999996
 50
269.999969
 51
359.999985
  0
LINE
  5
252
  8
002
 62
     3
 10
851.945597
 20
252.032999
 30
0.0
 11
863.754635
 21
225.275735
 31
0.0
  0
LINE
  5
253
  8
002
 62
     3
 10
863.755275
 20
223.294637
 30
0.0
 11
866.078944
 21
218.029597
 31
0.0
  0
LINE
  5
254
  8
002
 62
     3
 10
863.755128
 20
217.350524
 30
0.0
 11
864.852161
 21
214.864831
 31
0.0
  0
ARC
  5
255
  8
002
 62
     3
 10
863.882914
 20
217.060422
 30
0.0
 40
2.399998000000001
 50
266.94278
 51
23.813736
  0
LINE
  5
256
  8
002
 62
     3
 10
863.754893
 20
210.445463
 30
0.0
 11
863.754893
 21
251.445417
 31
0.0
  0
LINE
  5
257
  8
002
 62
     3
 10
872.754908
 20
207.945478
 30
0.0
 11
872.754908
 21
253.945402
 31
0.0
  0
LINE
  5
258
  8
002
 62
     3
 10
851.754554
 20
238.596174
 30
0.0
 11
849.430883
 21
243.861215
 31
0.0
  0
LINE
  5
259
  8
002
 62
     3
 10
851.754685
 20
244.540281
 30
0.0
 11
850.657651
 21
247.025972
 31
0.0
  0
ARC
  5
25A
  8
002
 62
     3
 10
851.626948
 20
244.830457
 30
0.0
 40
2.399999000000001
 50
86.94278
 51
203.813782
  0
LINE
  5
25B
  8
002
 62
     3
 10
851.754954
 20
251.445432
 30
0.0
 11
851.754954
 21
210.445463
 31
0.0
  0
ARC
  5
25C
  8
002
 62
     3
 10
852.754954
 20
251.445432
 30
0.0
 40
1.0
 50
89.999969
 51
180.0
  0
LINE
  5
25D
  8
002
 62
     3
 10
862.754924
 20
252.445432
 30
0.0
 11
852.754954
 21
252.445432
 31
0.0
  0
ARC
  5
25E
  8
002
 62
     3
 10
862.754924
 20
251.445432
 30
0.0
 40
0.9999999999999971
 50
0.0
 51
89.999969
  0
ARC
  5
25F
  8
002
 62
     3
 10
830.190059
 20
230.135038
 30
0.0
 40
37.551865
 50
27.277847
 51
32.10952
  0
LINE
  5
260
  8
002
 62
     3
 10
861.997722
 20
250.095411
 30
0.0
 11
858.533183
 21
250.095411
 31
0.0
  0
ARC
  5
261
  8
002
 62
     3
 10
860.471434
 20
247.392625
 30
0.0
 40
2.60324
 50
50.846054
 51
81.081894
  0
ARC
  5
262
  8
002
 62
     3
 10
860.475549
 20
247.409807
 30
0.0
 40
2.585629000000002
 50
81.112961
 51
101.361053
  0
ARC
  5
263
  8
002
 62
     3
 10
860.480402
 20
247.39282
 30
0.0
 40
2.603239999999998
 50
101.392136
 51
131.627975
  0
ARC
  5
264
  8
002
 62
     3
 10
860.530879
 20
247.346605
 30
0.0
 40
2.671325000000001
 50
131.778748
 51
230.695221
  0
ARC
  5
265
  8
002
 62
     3
 10
860.482444
 20
247.298257
 30
0.0
 40
2.603240000000003
 50
230.846039
 51
261.081879
  0
ARC
  5
266
  8
002
 62
     3
 10
860.478329
 20
247.281076
 30
0.0
 40
2.585629000000002
 50
261.112946
 51
281.361053
  0
ARC
  5
267
  8
002
 62
     3
 10
860.473476
 20
247.298063
 30
0.0
 40
2.603240000000002
 50
281.392129
 51
311.627968
  0
ARC
  5
268
  8
002
 62
     3
 10
860.422999
 20
247.344278
 30
0.0
 40
2.671325000000001
 50
311.77874
 51
50.695236
  0
ARC
  5
269
  8
002
 62
     3
 10
830.190043
 20
264.55586
 30
0.0
 40
37.55186500000001
 50
327.890446
 51
332.722118
  0
LINE
  5
26A
  8
002
 62
     3
 10
858.533229
 20
244.593977
 30
0.0
 11
861.997722
 21
244.593977
 31
0.0
  0
ARC
  5
26B
  8
002
 62
     3
 10
825.488444
 20
227.379835
 30
0.0
 40
37.551865
 50
27.287407
 51
32.119133
  0
LINE
  5
26C
  8
002
 62
     3
 10
856.965112
 20
247.345083
 30
0.0
 11
858.533193
 21
244.595232
 31
0.0
  0
LINE
  5
26D
  8
002
 62
     3
 10
858.533228
 20
250.095178
 30
0.0
 11
856.965131
 21
247.345052
 31
0.0
  0
LINE
  5
26E
  8
002
 62
     3
 10
856.965052
 20
247.345182
 30
0.0
 11
857.29304
 21
247.345182
 31
0.0
  0
ARC
  5
26F
  8
002
 62
     3
 10
825.484187
 20
267.303663
 30
0.0
 40
37.551865
 50
327.893833
 51
332.725563
  0
ARC
  5
270
  8
002
 62
     3
 10
860.501072
 20
247.346281
 30
0.0
 40
1.193060999999998
 50
132.535858
 51
231.450134
  0
ARC
  5
271
  8
002
 62
     3
 10
860.478209
 20
247.366666
 30
0.0
 40
1.162586000000002
 50
102.148453
 51
132.384811
  0
ARC
  5
272
  8
002
 62
     3
 10
860.475937
 20
247.374239
 30
0.0
 40
1.154706000000001
 50
81.868683
 51
102.117325
  0
ARC
  5
273
  8
002
 62
     3
 10
860.474197
 20
247.366525
 30
0.0
 40
1.162588999999998
 50
51.601257
 51
81.83757
  0
ARC
  5
274
  8
002
 62
     3
 10
860.452807
 20
247.344602
 30
0.0
 40
1.193060999999998
 50
312.535862
 51
51.450119
  0
ARC
  5
275
  8
002
 62
     3
 10
860.475669
 20
247.324216
 30
0.0
 40
1.162585999999999
 50
282.148451
 51
312.384815
  0
ARC
  5
276
  8
002
 62
     3
 10
860.477941
 20
247.316644
 30
0.0
 40
1.154706000000002
 50
261.868683
 51
282.117327
  0
ARC
  5
277
  8
002
 62
     3
 10
860.479681
 20
247.324358
 30
0.0
 40
1.162588999999999
 50
231.601257
 51
261.837555
  0
LINE
  5
278
  8
002
 62
     3
 10
842.754954
 20
207.945478
 30
0.0
 11
842.754954
 21
253.945402
 31
0.0
  0
LINE
  5
279
  8
002
 62
     3
 10
843.754805
 20
206.945335
 30
0.0
 11
842.754804
 21
207.945336
 31
0.0
  0
LINE
  5
27A
  8
002
 62
     3
 10
828.754985
 20
253.945402
 30
0.0
 11
828.754985
 21
262.945402
 31
0.0
  0
LINE
  5
27B
  8
002
 62
     3
 10
828.754773
 20
262.945333
 30
0.0
 11
829.754666
 21
263.945226
 31
0.0
  0
LINE
  5
27C
  8
002
 62
     3
 10
886.754882
 20
262.945394
 30
0.0
 11
885.754893
 21
263.945386
 31
0.0
  0
LINE
  5
27D
  8
002
 62
     3
 10
886.754908
 20
253.945402
 30
0.0
 11
886.754908
 21
262.945402
 31
0.0
  0
LINE
  5
27E
  8
002
 62
     3
 10
886.754908
 20
253.945417
 30
0.0
 11
828.754985
 21
253.945417
 31
0.0
  0
LINE
  5
27F
  8
002
 62
     3
 10
885.754893
 20
263.945417
 30
0.0
 11
829.754666
 21
263.945417
 31
0.0
  0
LINE
  5
280
  8
002
 62
     3
 10
849.754949
 20
263.945417
 30
0.0
 11
849.754949
 21
328.015774
 31
0.0
  0
LINE
  5
281
  8
002
 62
     3
 10
865.754949
 20
328.015774
 30
0.0
 11
865.754949
 21
263.945417
 31
0.0
  0
LINE
  5
282
  8
002
 62
     3
 10
885.254649
 20
79.015774
 30
0.0
 11
830.254649
 21
79.015774
 31
0.0
  0
LINE
  5
283
  8
002
 62
     3
 10
830.254649
 20
79.015774
 30
0.0
 11
830.254649
 21
83.015774
 31
0.0
  0
LINE
  5
284
  8
002
  6
CENTER
 62
    40
 10
873.664549
 20
85.015774
 30
0.0
 11
873.664549
 21
71.294174
 31
0.0
  0
LINE
  5
285
  8
002
  6
CENTER
 62
    40
 10
933.577349
 20
113.015774
 30
0.0
 11
803.972949
 21
113.015774
 31
0.0
  0
LINE
  5
286
  8
002
  6
CENTER
 62
    40
 10
841.844749
 20
85.015774
 30
0.0
 11
841.844749
 21
71.294174
 31
0.0
  0
LINE
  5
287
  8
002
 62
     3
 10
849.754949
 20
328.015774
 30
0.0
 11
865.754949
 21
328.015774
 31
0.0
  0
LINE
  5
288
  8
002
 62
     3
 10
851.755249
 20
328.015774
 30
0.0
 11
851.755249
 21
348.015774
 31
0.0
  0
LINE
  5
289
  8
002
 62
     3
 10
851.755249
 20
348.015774
 30
0.0
 11
863.755249
 21
348.015774
 31
0.0
  0
LINE
  5
28A
  8
002
 62
     3
 10
863.755249
 20
348.015774
 30
0.0
 11
863.755249
 21
328.015774
 31
0.0
  0
LINE
  5
28B
  8
002
 62
    40
 10
2129.184053
 20
71.561577
 30
0.0
 11
2129.184053
 21
126.881296
 31
0.0
  0
LINE
  5
28C
  8
002
 62
     3
 10
2110.674053
 20
320.561577
 30
0.0
 11
2110.674053
 21
325.561577
 31
0.0
  0
LINE
  5
28D
  8
002
 62
     3
 10
2110.674053
 20
325.561577
 30
0.0
 11
2102.174053
 21
325.561577
 31
0.0
  0
LINE
  5
28E
  8
002
 62
     3
 10
2105.334053
 20
325.561577
 30
0.0
 11
2105.334053
 21
346.561577
 31
0.0
  0
LINE
  5
28F
  8
002
 62
     3
 10
2105.334053
 20
346.561577
 30
0.0
 11
2139.334053
 21
346.561577
 31
0.0
  0
LINE
  5
290
  8
002
 62
     3
 10
2139.334053
 20
346.561577
 30
0.0
 11
2139.334053
 21
325.561577
 31
0.0
  0
LINE
  5
291
  8
002
 62
     3
 10
2133.994053
 20
325.561577
 30
0.0
 11
2133.994053
 21
320.561577
 31
0.0
  0
LINE
  5
292
  8
002
 62
     3
 10
2133.994053
 20
325.561577
 30
0.0
 11
2142.494053
 21
325.561577
 31
0.0
  0
LINE
  5
293
  8
002
 62
     3
 10
2142.494053
 20
325.561577
 30
0.0
 11
2142.494053
 21
320.561577
 31
0.0
  0
LINE
  5
294
  8
002
 62
    40
 10
2115.484053
 20
126.881296
 30
0.0
 11
2115.484053
 21
71.561577
 31
0.0
  0
LINE
  5
295
  8
002
 62
     3
 10
2149.834053
 20
320.561577
 30
0.0
 11
2094.834053
 21
320.561577
 31
0.0
  0
LINE
  5
296
  8
002
 62
     3
 10
2094.834053
 20
320.561577
 30
0.0
 11
2094.834053
 21
316.561577
 31
0.0
  0
LINE
  5
297
  8
002
 62
     3
 10
2102.174053
 20
320.561577
 30
0.0
 11
2102.174053
 21
325.561577
 31
0.0
  0
LINE
  5
298
  8
002
  6
CENTER
 62
    40
 10
2138.244053
 20
314.561577
 30
0.0
 11
2138.244053
 21
328.283177
 31
0.0
  0
LINE
  5
299
  8
002
  6
CENTER
 62
    40
 10
2198.157053
 20
286.561577
 30
0.0
 11
2068.552053
 21
286.561577
 31
0.0
  0
LINE
  5
29A
  8
002
  6
CENTER
 62
    40
 10
2106.424053
 20
314.561577
 30
0.0
 11
2106.424053
 21
328.283177
 31
0.0
  0
LINE
  5
29B
  8
002
 62
     3
 10
2130.334053
 20
71.561577
 30
0.0
 11
2114.334053
 21
71.561577
 31
0.0
  0
LINE
  5
29C
  8
002
 62
     3
 10
2128.335053
 20
71.561577
 30
0.0
 11
2128.335053
 21
51.561577
 31
0.0
  0
LINE
  5
29D
  8
002
 62
     3
 10
2128.335053
 20
51.561577
 30
0.0
 11
2116.335053
 21
51.561577
 31
0.0
  0
LINE
  5
29E
  8
002
 62
     3
 10
2116.335053
 20
51.561577
 30
0.0
 11
2116.335053
 21
71.561577
 31
0.0
  0
ARC
  5
29F
  8
002
 62
    40
 10
2119.581789
 20
134.480425
 30
0.0
 40
1.512089
 50
312.101429
 51
51.016998
  0
ARC
  5
2A0
  8
002
 62
    40
 10
2119.613335
 20
134.444796
 30
0.0
 40
1.463541
 50
261.435059
 51
281.68337
  0
ARC
  5
2A1
  8
002
 62
    40
 10
2119.609074
 20
134.50797
 30
0.0
 40
1.473517999999999
 50
51.167908
 51
81.403961
  0
ARC
  5
2A2
  8
002
 62
    40
 10
2119.614154
 20
134.508108
 30
0.0
 40
1.473517
 50
101.714478
 51
131.950531
  0
ARC
  5
2A3
  8
002
 62
    40
 10
2119.61135
 20
134.517716
 30
0.0
 40
1.463541
 50
81.435059
 51
101.68338
  0
ARC
  5
2A4
  8
002
 62
    40
 10
2119.642897
 20
134.482088
 30
0.0
 40
1.512089
 50
132.101425
 51
231.016998
  0
ARC
  5
2A5
  8
002
 62
    40
 10
2119.615612
 20
134.454543
 30
0.0
 40
1.473518
 50
231.167908
 51
261.403961
  0
ARC
  5
2A6
  8
002
 62
    40
 10
2119.610532
 20
134.454405
 30
0.0
 40
1.473518
 50
281.714477
 51
311.950531
  0
ARC
  5
2A7
  8
002
 62
    40
 10
2125.054561
 20
167.254423
 30
0.0
 40
1.473534
 50
281.773849
 51
312.009747
  0
ARC
  5
2A8
  8
002
 62
    40
 10
2125.025811
 20
167.280397
 30
0.0
 40
1.512082000000001
 50
312.160503
 51
51.076859
  0
ARC
  5
2A9
  8
002
 62
    40
 10
2125.053049
 20
167.307951
 30
0.0
 40
1.473538000000003
 50
51.227692
 51
81.463562
  0
ARC
  5
2AA
  8
002
 62
    40
 10
2125.058125
 20
167.308096
 30
0.0
 40
1.473533999999997
 50
101.773849
 51
132.00975
  0
ARC
  5
2AB
  8
002
 62
    40
 10
2125.055314
 20
167.317694
 30
0.0
 40
1.463568000000003
 50
81.494629
 51
101.742783
  0
ARC
  5
2AC
  8
002
 62
    40
 10
2125.086875
 20
167.282122
 30
0.0
 40
1.512082000000001
 50
132.160507
 51
231.076843
  0
ARC
  5
2AD
  8
002
 62
    40
 10
2125.059637
 20
167.254568
 30
0.0
 40
1.473538000000003
 50
231.227692
 51
261.463562
  0
ARC
  5
2AE
  8
002
 62
    40
 10
2125.057373
 20
167.244825
 30
0.0
 40
1.463568000000001
 50
261.494629
 51
281.742781
  0
LINE
  5
2AF
  8
002
  6
CENTER
 62
    40
 10
2144.334312
 20
171.88122
 30
0.0
 11
2144.334312
 21
185.881204
 31
0.0
  0
LINE
  5
2B0
  8
002
  6
CENTER
 62
    40
 10
2100.334389
 20
171.88122
 30
0.0
 11
2100.334389
 21
185.881204
 31
0.0
  0
LINE
  5
2B1
  8
002
 62
     3
 10
2136.334312
 20
126.881296
 30
0.0
 11
2108.334358
 21
126.881296
 31
0.0
  0
LINE
  5
2B2
  8
002
 62
     3
 10
2136.334203
 20
126.881184
 30
0.0
 11
2137.334096
 21
127.881077
 31
0.0
  0
ARC
  5
2B3
  8
002
 62
     3
 10
2119.636492
 20
134.480508
 30
0.0
 40
1.193062
 50
128.767029
 51
227.680603
  0
ARC
  5
2B4
  8
002
 62
     3
 10
2119.61099
 20
134.502485
 30
0.0
 40
1.162575
 50
47.831787
 51
78.068222
  0
ARC
  5
2B5
  8
002
 62
     3
 10
2119.615008
 20
134.50236
 30
0.0
 40
1.162575
 50
98.379395
 51
128.615814
  0
ARC
  5
2B6
  8
002
 62
     3
 10
2119.613236
 20
134.510073
 30
0.0
 40
1.154686
 50
78.099411
 51
98.348206
  0
ARC
  5
2B7
  8
002
 62
     3
 10
2119.588194
 20
134.482005
 30
0.0
 40
1.193061
 50
308.767052
 51
47.680588
  0
ARC
  5
2B8
  8
002
 62
     3
 10
2119.609678
 20
134.460153
 30
0.0
 40
1.162575
 50
278.379394
 51
308.615829
  0
ARC
  5
2B9
  8
002
 62
     3
 10
2119.611449
 20
134.45244
 30
0.0
 40
1.154686000000001
 50
258.099396
 51
278.348207
  0
ARC
  5
2BA
  8
002
 62
     3
 10
2119.613695
 20
134.460028
 30
0.0
 40
1.162575
 50
227.831787
 51
258.068237
  0
ARC
  5
2BB
  8
002
 62
     3
 10
2119.617843
 20
134.434051
 30
0.0
 40
2.60322
 50
230.836029
 51
261.07196
  0
ARC
  5
2BC
  8
002
 62
     3
 10
2119.613722
 20
134.416861
 30
0.0
 40
2.585599
 50
261.103058
 51
281.351277
  0
ARC
  5
2BD
  8
002
 62
     3
 10
2119.608869
 20
134.433858
 30
0.0
 40
2.603219000000001
 50
281.382368
 51
311.618317
  0
ARC
  5
2BE
  8
002
 62
     3
 10
2119.558379
 20
134.4801
 30
0.0
 40
2.671333
 50
311.769173
 51
50.68515
  0
ARC
  5
2BF
  8
002
 62
     3
 10
2119.606843
 20
134.528462
 30
0.0
 40
2.603219000000001
 50
50.836014
 51
81.071976
  0
ARC
  5
2C0
  8
002
 62
     3
 10
2119.610963
 20
134.545652
 30
0.0
 40
2.585599
 50
81.103058
 51
101.351273
  0
ARC
  5
2C1
  8
002
 62
     3
 10
2119.615816
 20
134.528654
 30
0.0
 40
2.603218999999999
 50
101.38237
 51
131.618317
  0
ARC
  5
2C2
  8
002
 62
     3
 10
2119.666307
 20
134.482412
 30
0.0
 40
2.671333000000001
 50
131.769165
 51
230.68515
  0
ARC
  5
2C3
  8
002
 62
     3
 10
2149.899223
 20
151.691675
 30
0.0
 40
37.551865
 50
207.277893
 51
212.109558
  0
ARC
  5
2C4
  8
002
 62
     3
 10
2149.899239
 20
117.270853
 30
0.0
 40
37.551865
 50
147.890488
 51
152.722153
  0
LINE
  5
2C5
  8
002
 62
     3
 10
2121.556023
 20
137.229883
 30
0.0
 11
2118.09153
 21
137.229883
 31
0.0
  0
ARC
  5
2C6
  8
002
 62
     3
 10
2154.600838
 20
154.446878
 30
0.0
 40
37.551865
 50
207.287445
 51
212.119171
  0
LINE
  5
2C7
  8
002
 62
     3
 10
2123.124029
 20
134.481469
 30
0.0
 11
2121.555947
 21
137.231321
 31
0.0
  0
ARC
  5
2C8
  8
002
 62
     3
 10
2154.605095
 20
114.52305
 30
0.0
 40
37.551865
 50
147.89386
 51
152.725601
  0
LINE
  5
2C9
  8
002
 62
     3
 10
2121.5559
 20
131.73127
 30
0.0
 11
2123.123997
 21
134.481394
 31
0.0
  0
LINE
  5
2CA
  8
002
 62
     3
 10
2123.124168
 20
134.481409
 30
0.0
 11
2122.796181
 21
134.481409
 31
0.0
  0
LINE
  5
2CB
  8
002
 62
     3
 10
2118.09156
 20
131.731287
 30
0.0
 11
2121.556099
 21
131.731287
 31
0.0
  0
ARC
  5
2CC
  8
002
 62
     3
 10
2117.334343
 20
130.381281
 30
0.0
 40
1.0
 50
180.0
 51
269.999969
  0
LINE
  5
2CD
  8
002
 62
     3
 10
2117.334343
 20
129.381281
 30
0.0
 11
2127.334297
 21
129.381281
 31
0.0
  0
LINE
  5
2CE
  8
002
 62
     3
 10
2128.143635
 20
129.793629
 30
0.0
 11
2116.334599
 21
156.550894
 31
0.0
  0
ARC
  5
2CF
  8
002
 62
     3
 10
2127.334312
 20
130.381281
 30
0.0
 40
0.9999999999999996
 50
269.999969
 51
359.999985
  0
LINE
  5
2D0
  8
002
 62
     3
 10
2116.525001
 20
171.968817
 30
0.0
 11
2128.334039
 21
145.211553
 31
0.0
  0
LINE
  5
2D1
  8
002
 62
     3
 10
2128.334679
 20
143.230455
 30
0.0
 11
2130.658348
 21
137.965415
 31
0.0
  0
LINE
  5
2D2
  8
002
 62
     3
 10
2128.334532
 20
137.286342
 30
0.0
 11
2129.431565
 21
134.800649
 31
0.0
  0
ARC
  5
2D3
  8
002
 62
     3
 10
2128.462318
 20
136.99624
 30
0.0
 40
2.399998000000001
 50
266.94278
 51
23.813736
  0
LINE
  5
2D4
  8
002
 62
     3
 10
2128.334297
 20
130.381281
 30
0.0
 11
2128.334297
 21
171.381235
 31
0.0
  0
LINE
  5
2D5
  8
002
 62
     3
 10
2137.334312
 20
127.881296
 30
0.0
 11
2137.334312
 21
173.88122
 31
0.0
  0
LINE
  5
2D6
  8
002
 62
     3
 10
2116.333958
 20
158.531992
 30
0.0
 11
2114.010287
 21
163.797033
 31
0.0
  0
LINE
  5
2D7
  8
002
 62
     3
 10
2116.334089
 20
164.476099
 30
0.0
 11
2115.237055
 21
166.96179
 31
0.0
  0
ARC
  5
2D8
  8
002
 62
     3
 10
2116.206352
 20
164.766275
 30
0.0
 40
2.399999000000001
 50
86.94278
 51
203.813782
  0
LINE
  5
2D9
  8
002
 62
     3
 10
2116.334358
 20
171.38125
 30
0.0
 11
2116.334358
 21
130.381281
 31
0.0
  0
ARC
  5
2DA
  8
002
 62
     3
 10
2117.334358
 20
171.38125
 30
0.0
 40
1.0
 50
89.999969
 51
180.0
  0
LINE
  5
2DB
  8
002
 62
     3
 10
2127.334328
 20
172.38125
 30
0.0
 11
2117.334358
 21
172.38125
 31
0.0
  0
ARC
  5
2DC
  8
002
 62
     3
 10
2127.334328
 20
171.38125
 30
0.0
 40
0.9999999999999971
 50
0.0
 51
89.999969
  0
ARC
  5
2DD
  8
002
 62
     3
 10
2094.769463
 20
150.070856
 30
0.0
 40
37.551865
 50
27.277847
 51
32.10952
  0
LINE
  5
2DE
  8
002
 62
     3
 10
2126.577126
 20
170.031229
 30
0.0
 11
2123.112587
 21
170.031229
 31
0.0
  0
ARC
  5
2DF
  8
002
 62
     3
 10
2125.050838
 20
167.328443
 30
0.0
 40
2.60324
 50
50.846054
 51
81.081894
  0
ARC
  5
2E0
  8
002
 62
     3
 10
2125.054953
 20
167.345625
 30
0.0
 40
2.585629000000002
 50
81.112961
 51
101.361053
  0
ARC
  5
2E1
  8
002
 62
     3
 10
2125.059806
 20
167.328638
 30
0.0
 40
2.603239999999998
 50
101.392136
 51
131.627975
  0
ARC
  5
2E2
  8
002
 62
     3
 10
2125.110283
 20
167.282423
 30
0.0
 40
2.671325000000001
 50
131.778748
 51
230.695221
  0
ARC
  5
2E3
  8
002
 62
     3
 10
2125.061848
 20
167.234075
 30
0.0
 40
2.603240000000003
 50
230.846039
 51
261.081879
  0
ARC
  5
2E4
  8
002
 62
     3
 10
2125.057733
 20
167.216894
 30
0.0
 40
2.585629000000002
 50
261.112946
 51
281.361053
  0
ARC
  5
2E5
  8
002
 62
     3
 10
2125.05288
 20
167.233881
 30
0.0
 40
2.603240000000002
 50
281.392129
 51
311.627968
  0
ARC
  5
2E6
  8
002
 62
     3
 10
2125.002403
 20
167.280096
 30
0.0
 40
2.671325000000001
 50
311.77874
 51
50.695236
  0
ARC
  5
2E7
  8
002
 62
     3
 10
2094.769447
 20
184.491678
 30
0.0
 40
37.55186500000001
 50
327.890446
 51
332.722118
  0
LINE
  5
2E8
  8
002
 62
     3
 10
2123.112633
 20
164.529795
 30
0.0
 11
2126.577126
 21
164.529795
 31
0.0
  0
ARC
  5
2E9
  8
002
 62
     3
 10
2090.067848
 20
147.315653
 30
0.0
 40
37.551865
 50
27.287407
 51
32.119133
  0
LINE
  5
2EA
  8
002
 62
     3
 10
2121.544516
 20
167.280901
 30
0.0
 11
2123.112597
 21
164.53105
 31
0.0
  0
LINE
  5
2EB
  8
002
 62
     3
 10
2123.112632
 20
170.030996
 30
0.0
 11
2121.544535
 21
167.28087
 31
0.0
  0
LINE
  5
2EC
  8
002
 62
     3
 10
2121.544456
 20
167.281
 30
0.0
 11
2121.872444
 21
167.281
 31
0.0
  0
ARC
  5
2ED
  8
002
 62
     3
 10
2090.063591
 20
187.239481
 30
0.0
 40
37.551865
 50
327.893833
 51
332.725563
  0
ARC
  5
2EE
  8
002
 62
     3
 10
2125.080476
 20
167.282099
 30
0.0
 40
1.193060999999998
 50
132.535858
 51
231.450134
  0
ARC
  5
2EF
  8
002
 62
     3
 10
2125.057613
 20
167.302484
 30
0.0
 40
1.162586000000002
 50
102.148453
 51
132.384811
  0
ARC
  5
2F0
  8
002
 62
     3
 10
2125.055341
 20
167.310057
 30
0.0
 40
1.154706000000001
 50
81.868683
 51
102.117325
  0
ARC
  5
2F1
  8
002
 62
     3
 10
2125.053601
 20
167.302343
 30
0.0
 40
1.162588999999998
 50
51.601257
 51
81.83757
  0
ARC
  5
2F2
  8
002
 62
     3
 10
2125.032211
 20
167.28042
 30
0.0
 40
1.193060999999998
 50
312.535862
 51
51.450119
  0
ARC
  5
2F3
  8
002
 62
     3
 10
2125.055073
 20
167.260034
 30
0.0
 40
1.162585999999999
 50
282.148451
 51
312.384815
  0
ARC
  5
2F4
  8
002
 62
     3
 10
2125.057345
 20
167.252462
 30
0.0
 40
1.154706000000002
 50
261.868683
 51
282.117327
  0
ARC
  5
2F5
  8
002
 62
     3
 10
2125.059085
 20
167.260176
 30
0.0
 40
1.162588999999999
 50
231.601257
 51
261.837555
  0
LINE
  5
2F6
  8
002
 62
     3
 10
2107.334358
 20
127.881296
 30
0.0
 11
2107.334358
 21
173.88122
 31
0.0
  0
LINE
  5
2F7
  8
002
 62
     3
 10
2108.334209
 20
126.881153
 30
0.0
 11
2107.334208
 21
127.881154
 31
0.0
  0
LINE
  5
2F8
  8
002
 62
     3
 10
2093.334389
 20
173.88122
 30
0.0
 11
2093.334389
 21
182.88122
 31
0.0
  0
LINE
  5
2F9
  8
002
 62
     3
 10
2093.334177
 20
182.881151
 30
0.0
 11
2094.33407
 21
183.881044
 31
0.0
  0
LINE
  5
2FA
  8
002
 62
     3
 10
2151.334286
 20
182.881212
 30
0.0
 11
2150.334297
 21
183.881204
 31
0.0
  0
LINE
  5
2FB
  8
002
 62
     3
 10
2151.334312
 20
173.88122
 30
0.0
 11
2151.334312
 21
182.88122
 31
0.0
  0
LINE
  5
2FC
  8
002
 62
     3
 10
2151.334312
 20
173.881235
 30
0.0
 11
2093.334389
 21
173.881235
 31
0.0
  0
LINE
  5
2FD
  8
002
 62
     3
 10
2150.334297
 20
183.881235
 30
0.0
 11
2094.33407
 21
183.881235
 31
0.0
  0
LINE
  5
2FE
  8
002
 62
     3
 10
2130.334053
 20
126.881296
 30
0.0
 11
2130.334053
 21
71.561577
 31
0.0
  0
LINE
  5
2FF
  8
002
 62
     3
 10
2114.334053
 20
71.561577
 30
0.0
 11
2114.334053
 21
126.881296
 31
0.0
  0
POLYLINE
  5
300
  8
002
 62
     3
 66
     1
 10
0.0
 20
0.0
 30
0.0
  0
VERTEX
  5
302
  8
002
 62
     3
 10
330.150549
 20
170.980626
 30
0.0
  0
VERTEX
  5
303
  8
002
 62
     3
 10
332.150549
 20
168.230626
 30
0.0
  0
VERTEX
  5
304
  8
002
 62
     3
 10
334.150549
 20
166.980626
 30
0.0
  0
VERTEX
  5
305
  8
002
 62
     3
 10
336.150549
 20
168.230626
 30
0.0
  0
VERTEX
  5
306
  8
002
 62
     3
 10
338.150549
 20
170.980626
 30
0.0
  0
VERTEX
  5
307
  8
002
 62
     3
 10
340.150549
 20
173.730626
 30
0.0
  0
VERTEX
  5
308
  8
002
 62
     3
 10
342.150549
 20
174.980626
 30
0.0
  0
VERTEX
  5
309
  8
002
 62
     3
 10
344.150549
 20
173.730626
 30
0.0
  0
VERTEX
  5
30A
  8
002
 62
     3
 10
346.150549
 20
170.980626
 30
0.0
  0
SEQEND
  5
301
  8
002
 62
     3
  0
POLYLINE
  5
30B
  8
002
 62
     3
 66
     1
 10
0.0
 20
0.0
 30
0.0
  0
VERTEX
  5
30D
  8
002
 62
     3
 10
330.150549
 20
178.980626
 30
0.0
  0
VERTEX
  5
30E
  8
002
 62
     3
 10
332.150549
 20
176.230626
 30
0.0
  0
VERTEX
  5
30F
  8
002
 62
     3
 10
334.150549
 20
174.980626
 30
0.0
  0
VERTEX
  5
310
  8
002
 62
     3
 10
336.150549
 20
176.230626
 30
0.0
  0
VERTEX
  5
311
  8
002
 62
     3
 10
338.150549
 20
178.980626
 30
0.0
  0
VERTEX
  5
312
  8
002
 62
     3
 10
340.150549
 20
181.730626
 30
0.0
  0
VERTEX
  5
313
  8
002
 62
     3
 10
342.150549
 20
182.980626
 30
0.0
  0
VERTEX
  5
314
  8
002
 62
     3
 10
344.150549
 20
181.730626
 30
0.0
  0
VERTEX
  5
315
  8
002
 62
     3
 10
346.150549
 20
178.980626
 30
0.0
  0
SEQEND
  5
30C
  8
002
 62
     3
  0
LINE
  5
316
  8
002
 62
     3
 10
346.150549
 20
206.945478
 30
0.0
 11
346.150549
 21
178.980626
 31
0.0
  0
LINE
  5
317
  8
002
 62
     3
 10
346.150549
 20
170.980626
 30
0.0
 11
346.150549
 21
143.015774
 31
0.0
  0
LINE
  5
318
  8
002
 62
     3
 10
330.150549
 20
143.015774
 30
0.0
 11
330.150549
 21
170.980626
 31
0.0
  0
LINE
  5
319
  8
002
 62
     3
 10
330.150549
 20
178.980626
 30
0.0
 11
330.150549
 21
206.945478
 31
0.0
  0
LINE
  5
31A
  8
002
 62
    40
 10
345.000549
 20
206.945478
 30
0.0
 11
345.000549
 21
180.658099
 31
0.0
  0
LINE
  5
31B
  8
002
 62
    40
 10
345.000549
 20
172.658099
 30
0.0
 11
345.000549
 21
143.015774
 31
0.0
  0
LINE
  5
31C
  8
002
 62
    40
 10
331.300549
 20
143.015774
 30
0.0
 11
331.300549
 21
169.303154
 31
0.0
  0
LINE
  5
31D
  8
002
 62
    40
 10
331.300549
 20
177.303154
 30
0.0
 11
331.300549
 21
206.945478
 31
0.0
  0
POLYLINE
  5
31E
  8
002
 62
     3
 66
     1
 10
0.0
 20
0.0
 30
0.0
  0
VERTEX
  5
320
  8
002
 62
     3
 10
849.754949
 20
170.980626
 30
0.0
  0
VERTEX
  5
321
  8
002
 62
     3
 10
851.754949
 20
168.230626
 30
0.0
  0
VERTEX
  5
322
  8
002
 62
     3
 10
853.754949
 20
166.980626
 30
0.0
  0
VERTEX
  5
323
  8
002
 62
     3
 10
855.754949
 20
168.230626
 30
0.0
  0
VERTEX
  5
324
  8
002
 62
     3
 10
857.754949
 20
170.980626
 30
0.0
  0
VERTEX
  5
325
  8
002
 62
     3
 10
859.754949
 20
173.730626
 30
0.0
  0
VERTEX
  5
326
  8
002
 62
     3
 10
861.754949
 20
174.980626
 30
0.0
  0
VERTEX
  5
327
  8
002
 62
     3
 10
863.754949
 20
173.730626
 30
0.0
  0
VERTEX
  5
328
  8
002
 62
     3
 10
865.754949
 20
170.980626
 30
0.0
  0
SEQEND
  5
31F
  8
002
 62
     3
  0
POLYLINE
  5
329
  8
002
 62
     3
 66
     1
 10
0.0
 20
0.0
 30
0.0
  0
VERTEX
  5
32B
  8
002
 62
     3
 10
849.754949
 20
178.980626
 30
0.0
  0
VERTEX
  5
32C
  8
002
 62
     3
 10
851.754949
 20
176.230626
 30
0.0
  0
VERTEX
  5
32D
  8
002
 62
     3
 10
853.754949
 20
174.980626
 30
0.0
  0
VERTEX
  5
32E
  8
002
 62
     3
 10
855.754949
 20
176.230626
 30
0.0
  0
VERTEX
  5
32F
  8
002
 62
     3
 10
857.754949
 20
178.980626
 30
0.0
  0
VERTEX
  5
330
  8
002
 62
     3
 10
859.754949
 20
181.730626
 30
0.0
  0
VERTEX
  5
331
  8
002
 62
     3
 10
861.754949
 20
182.980626
 30
0.0
  0
VERTEX
  5
332
  8
002
 62
     3
 10
863.754949
 20
181.730626
 30
0.0
  0
VERTEX
  5
333
  8
002
 62
     3
 10
865.754949
 20
178.980626
 30
0.0
  0
SEQEND
  5
32A
  8
002
 62
     3
  0
LINE
  5
334
  8
002
 62
    40
 10
864.604949
 20
206.945478
 30
0.0
 11
864.604949
 21
180.658099
 31
0.0
  0
LINE
  5
335
  8
002
 62
    40
 10
864.604949
 20
172.658099
 30
0.0
 11
864.604949
 21
143.015774
 31
0.0
  0
LINE
  5
336
  8
002
 62
    40
 10
850.904949
 20
143.015774
 30
0.0
 11
850.904949
 21
169.303154
 31
0.0
  0
LINE
  5
337
  8
002
 62
    40
 10
850.904949
 20
177.303154
 30
0.0
 11
850.904949
 21
206.945478
 31
0.0
  0
LINE
  5
338
  8
002
 62
     3
 10
865.754949
 20
206.945478
 30
0.0
 11
865.754949
 21
178.980626
 31
0.0
  0
LINE
  5
339
  8
002
 62
     3
 10
865.754949
 20
170.980626
 30
0.0
 11
865.754949
 21
143.015774
 31
0.0
  0
LINE
  5
33A
  8
002
 62
     3
 10
849.754949
 20
143.015774
 30
0.0
 11
849.754949
 21
170.980626
 31
0.0
  0
LINE
  5
33B
  8
002
 62
     3
 10
849.754949
 20
178.980626
 30
0.0
 11
849.754949
 21
206.945478
 31
0.0
  0
POLYLINE
  5
33C
  8
002
 62
     3
 66
     1
 10
0.0
 20
0.0
 30
0.0
  0
VERTEX
  5
33E
  8
002
 62
     3
 10
1534.729053
 20
216.221406
 30
0.0
  0
VERTEX
  5
33F
  8
002
 62
     3
 10
1536.729053
 20
213.471406
 30
0.0
  0
VERTEX
  5
340
  8
002
 62
     3
 10
1538.729053
 20
212.221406
 30
0.0
  0
VERTEX
  5
341
  8
002
 62
     3
 10
1540.729053
 20
213.471406
 30
0.0
  0
VERTEX
  5
342
  8
002
 62
     3
 10
1542.729053
 20
216.221406
 30
0.0
  0
VERTEX
  5
343
  8
002
 62
     3
 10
1544.729053
 20
218.971406
 30
0.0
  0
VERTEX
  5
344
  8
002
 62
     3
 10
1546.729053
 20
220.221406
 30
0.0
  0
VERTEX
  5
345
  8
002
 62
     3
 10
1548.729053
 20
218.971406
 30
0.0
  0
VERTEX
  5
346
  8
002
 62
     3
 10
1550.729053
 20
216.221406
 30
0.0
  0
SEQEND
  5
33D
  8
002
 62
     3
  0
POLYLINE
  5
347
  8
002
 62
     3
 66
     1
 10
0.0
 20
0.0
 30
0.0
  0
VERTEX
  5
349
  8
002
 62
     3
 10
1534.729053
 20
224.221406
 30
0.0
  0
VERTEX
  5
34A
  8
002
 62
     3
 10
1536.729053
 20
221.471406
 30
0.0
  0
VERTEX
  5
34B
  8
002
 62
     3
 10
1538.729053
 20
220.221406
 30
0.0
  0
VERTEX
  5
34C
  8
002
 62
     3
 10
1540.729053
 20
221.471406
 30
0.0
  0
VERTEX
  5
34D
  8
002
 62
     3
 10
1542.729053
 20
224.221406
 30
0.0
  0
VERTEX
  5
34E
  8
002
 62
     3
 10
1544.729053
 20
226.971406
 30
0.0
  0
VERTEX
  5
34F
  8
002
 62
     3
 10
1546.729053
 20
228.221406
 30
0.0
  0
VERTEX
  5
350
  8
002
 62
     3
 10
1548.729053
 20
226.971406
 30
0.0
  0
VERTEX
  5
351
  8
002
 62
     3
 10
1550.729053
 20
224.221406
 30
0.0
  0
SEQEND
  5
348
  8
002
 62
     3
  0
LINE
  5
352
  8
002
 62
     3
 10
1534.729053
 20
256.561577
 30
0.0
 11
1534.729053
 21
224.221406
 31
0.0
  0
LINE
  5
353
  8
002
 62
     3
 10
1534.729053
 20
216.221406
 30
0.0
 11
1534.729053
 21
183.881235
 31
0.0
  0
LINE
  5
354
  8
002
 62
     3
 10
1550.729053
 20
183.881235
 30
0.0
 11
1550.729053
 21
216.221406
 31
0.0
  0
LINE
  5
355
  8
002
 62
     3
 10
1550.729053
 20
224.221406
 30
0.0
 11
1550.729053
 21
256.561577
 31
0.0
  0
LINE
  5
356
  8
002
 62
    40
 10
1549.579053
 20
183.881235
 30
0.0
 11
1549.579053
 21
217.898878
 31
0.0
  0
LINE
  5
357
  8
002
 62
    40
 10
1549.579053
 20
225.898878
 30
0.0
 11
1549.579053
 21
256.561577
 31
0.0
  0
LINE
  5
358
  8
002
 62
    40
 10
1535.879053
 20
256.561577
 30
0.0
 11
1535.879053
 21
222.543933
 31
0.0
  0
LINE
  5
359
  8
002
 62
    40
 10
1535.879053
 20
214.543933
 30
0.0
 11
1535.879053
 21
183.881235
 31
0.0
  0
POLYLINE
  5
35A
  8
002
 62
     3
 66
     1
 10
0.0
 20
0.0
 30
0.0
  0
VERTEX
  5
35C
  8
002
 62
     3
 10
2114.334053
 20
216.221406
 30
0.0
  0
VERTEX
  5
35D
  8
002
 62
     3
 10
2116.334053
 20
213.471406
 30
0.0
  0
VERTEX
  5
35E
  8
002
 62
     3
 10
2118.334053
 20
212.221406
 30
0.0
  0
VERTEX
  5
35F
  8
002
 62
     3
 10
2120.334053
 20
213.471406
 30
0.0
  0
VERTEX
  5
360
  8
002
 62
     3
 10
2122.334053
 20
216.221406
 30
0.0
  0
VERTEX
  5
361
  8
002
 62
     3
 10
2124.334053
 20
218.971406
 30
0.0
  0
VERTEX
  5
362
  8
002
 62
     3
 10
2126.334053
 20
220.221406
 30
0.0
  0
VERTEX
  5
363
  8
002
 62
     3
 10
2128.334053
 20
218.971406
 30
0.0
  0
VERTEX
  5
364
  8
002
 62
     3
 10
2130.334053
 20
216.221406
 30
0.0
  0
SEQEND
  5
35B
  8
002
 62
     3
  0
POLYLINE
  5
365
  8
002
 62
     3
 66
     1
 10
0.0
 20
0.0
 30
0.0
  0
VERTEX
  5
367
  8
002
 62
     3
 10
2114.334053
 20
224.221406
 30
0.0
  0
VERTEX
  5
368
  8
002
 62
     3
 10
2116.334053
 20
221.471406
 30
0.0
  0
VERTEX
  5
369
  8
002
 62
     3
 10
2118.334053
 20
220.221406
 30
0.0
  0
VERTEX
  5
36A
  8
002
 62
     3
 10
2120.334053
 20
221.471406
 30
0.0
  0
VERTEX
  5
36B
  8
002
 62
     3
 10
2122.334053
 20
224.221406
 30
0.0
  0
VERTEX
  5
36C
  8
002
 62
     3
 10
2124.334053
 20
226.971406
 30
0.0
  0
VERTEX
  5
36D
  8
002
 62
     3
 10
2126.334053
 20
228.221406
 30
0.0
  0
VERTEX
  5
36E
  8
002
 62
     3
 10
2128.334053
 20
226.971406
 30
0.0
  0
VERTEX
  5
36F
  8
002
 62
     3
 10
2130.334053
 20
224.221406
 30
0.0
  0
SEQEND
  5
366
  8
002
 62
     3
  0
LINE
  5
370
  8
002
 62
    40
 10
2129.184053
 20
183.881235
 30
0.0
 11
2129.184053
 21
217.898878
 31
0.0
  0
LINE
  5
371
  8
002
 62
    40
 10
2129.184053
 20
225.898878
 30
0.0
 11
2129.184053
 21
256.561577
 31
0.0
  0
LINE
  5
372
  8
002
 62
    40
 10
2115.484053
 20
256.561577
 30
0.0
 11
2115.484053
 21
222.543933
 31
0.0
  0
LINE
  5
373
  8
002
 62
    40
 10
2115.484053
 20
214.543933
 30
0.0
 11
2115.484053
 21
183.881235
 31
0.0
  0
LINE
  5
374
  8
002
 62
     3
 10
2114.334053
 20
256.561577
 30
0.0
 11
2114.334053
 21
224.221406
 31
0.0
  0
LINE
  5
375
  8
002
 62
     3
 10
2114.334053
 20
216.221406
 30
0.0
 11
2114.334053
 21
183.881235
 31
0.0
  0
LINE
  5
376
  8
002
 62
     3
 10
2130.334053
 20
183.881235
 30
0.0
 11
2130.334053
 21
216.221406
 31
0.0
  0
LINE
  5
377
  8
002
 62
     3
 10
2130.334053
 20
224.221406
 30
0.0
 11
2130.334053
 21
256.561577
 31
0.0
  0
LINE
  5
378
  8
002
  6
CENTER
 62
    40
 10
1542.729053
 20
351.606691
 30
0.0
 11
1542.729053
 21
49.269975
 31
0.0
  0
LINE
  5
379
  8
002
  6
CENTER
 62
    40
 10
2122.334053
 20
351.606691
 30
0.0
 11
2122.334053
 21
49.269975
 31
0.0
  0
LINE
  5
37A
  8
002
  6
CENTER
 62
    40
 10
857.754649
 20
46.50129
 30
0.0
 11
857.754649
 21
350.121274
 31
0.0
  0
LINE
  5
37B
  8
002
  6
CENTER
 62
    40
 10
338.150249
 20
46.50129
 30
0.0
 11
338.150249
 21
350.121274
 31
0.0
  0
LINE
  5
37C
  8
002
  6
CENTER
 62
    40
 10
443.972949
 20
113.015774
 30
0.0
 11
600.96503
 21
113.015774
 31
0.0
  0
LINE
  5
37D
  8
003
  6
CENTER
 62
    40
 10
97.341189
 20
113.015774
 30
0.0
 11
254.368549
 21
113.015774
 31
0.0
  0
LINE
  5
37E
  8
002
 62
     3
 10
163.293349
 20
79.015774
 30
0.0
 11
163.293349
 21
74.015774
 31
0.0
  0
LINE
  5
37F
  8
002
 62
     3
 10
154.793349
 20
74.015774
 30
0.0
 11
154.793349
 21
79.015774
 31
0.0
  0
LINE
  5
380
  8
002
 62
     3
 10
154.793349
 20
74.015774
 30
0.0
 11
163.293349
 21
74.015774
 31
0.0
  0
LINE
  5
381
  8
002
 62
     3
 10
157.953249
 20
74.015774
 30
0.0
 11
157.953249
 21
53.015774
 31
0.0
  0
LINE
  5
382
  8
002
 62
     3
 10
157.953249
 20
53.015774
 30
0.0
 11
191.953249
 21
53.015774
 31
0.0
  0
LINE
  5
383
  8
002
 62
     3
 10
191.953249
 20
53.015774
 30
0.0
 11
191.953249
 21
74.015774
 31
0.0
  0
LINE
  5
384
  8
002
 62
     3
 10
195.113149
 20
74.015774
 30
0.0
 11
186.613149
 21
74.015774
 31
0.0
  0
LINE
  5
385
  8
002
 62
     3
 10
195.113149
 20
74.015774
 30
0.0
 11
195.113149
 21
79.015774
 31
0.0
  0
LINE
  5
386
  8
002
 62
     3
 10
186.613149
 20
74.015774
 30
0.0
 11
186.613149
 21
79.015774
 31
0.0
  0
LINE
  5
387
  8
002
 62
     3
 10
202.453249
 20
79.015774
 30
0.0
 11
147.453249
 21
79.015774
 31
0.0
  0
LINE
  5
388
  8
002
 62
     3
 10
147.453249
 20
79.015774
 30
0.0
 11
147.453249
 21
83.015774
 31
0.0
  0
LINE
  5
389
  8
002
  6
CENTER
 62
    40
 10
190.863149
 20
85.015774
 30
0.0
 11
190.863149
 21
71.294174
 31
0.0
  0
LINE
  5
38A
  8
002
  6
CENTER
 62
    40
 10
159.043349
 20
85.015774
 30
0.0
 11
159.043349
 21
71.294174
 31
0.0
  0
LINE
  5
38B
  8
002
 62
     3
 10
166.953549
 20
328.015774
 30
0.0
 11
182.953549
 21
328.015774
 31
0.0
  0
LINE
  5
38C
  8
002
 62
     3
 10
168.953849
 20
328.015774
 30
0.0
 11
168.953849
 21
348.015774
 31
0.0
  0
LINE
  5
38D
  8
002
 62
     3
 10
168.953849
 20
348.015774
 30
0.0
 11
180.953849
 21
348.015774
 31
0.0
  0
LINE
  5
38E
  8
002
 62
     3
 10
180.953849
 20
348.015774
 30
0.0
 11
180.953849
 21
328.015774
 31
0.0
  0
ARC
  5
38F
  8
002
 62
    40
 10
177.705513
 20
256.346288
 30
0.0
 40
1.512089
 50
132.101429
 51
231.016998
  0
ARC
  5
390
  8
002
 62
    40
 10
177.673967
 20
256.381917
 30
0.0
 40
1.463541
 50
81.435059
 51
101.68337
  0
ARC
  5
391
  8
002
 62
    40
 10
177.678228
 20
256.318743
 30
0.0
 40
1.473517999999999
 50
231.167908
 51
261.403961
  0
ARC
  5
392
  8
002
 62
    40
 10
177.673148
 20
256.318605
 30
0.0
 40
1.473517
 50
281.714478
 51
311.950531
  0
ARC
  5
393
  8
002
 62
    40
 10
177.675952
 20
256.308997
 30
0.0
 40
1.463541
 50
261.435059
 51
281.68338
  0
ARC
  5
394
  8
002
 62
    40
 10
177.644405
 20
256.344625
 30
0.0
 40
1.512089
 50
312.101425
 51
51.016998
  0
ARC
  5
395
  8
002
 62
    40
 10
177.67169
 20
256.37217
 30
0.0
 40
1.473518
 50
51.167908
 51
81.403961
  0
ARC
  5
396
  8
002
 62
    40
 10
177.67677
 20
256.372308
 30
0.0
 40
1.473518
 50
101.714477
 51
131.950531
  0
ARC
  5
397
  8
002
 62
    40
 10
172.232741
 20
223.57229
 30
0.0
 40
1.473534
 50
101.773849
 51
132.009747
  0
ARC
  5
398
  8
002
 62
    40
 10
172.261491
 20
223.546316
 30
0.0
 40
1.512082000000001
 50
132.160503
 51
231.076859
  0
ARC
  5
399
  8
002
 62
    40
 10
172.234253
 20
223.518762
 30
0.0
 40
1.473538000000003
 50
231.227692
 51
261.463562
  0
ARC
  5
39A
  8
002
 62
    40
 10
172.229177
 20
223.518617
 30
0.0
 40
1.473533999999997
 50
281.773849
 51
312.00975
  0
ARC
  5
39B
  8
002
 62
    40
 10
172.231988
 20
223.509019
 30
0.0
 40
1.463568000000003
 50
261.494629
 51
281.742783
  0
ARC
  5
39C
  8
002
 62
    40
 10
172.200427
 20
223.544591
 30
0.0
 40
1.512082000000001
 50
312.160507
 51
51.076843
  0
ARC
  5
39D
  8
002
 62
    40
 10
172.227665
 20
223.572145
 30
0.0
 40
1.473538000000003
 50
51.227692
 51
81.463562
  0
ARC
  5
39E
  8
002
 62
    40
 10
172.229929
 20
223.581888
 30
0.0
 40
1.463568000000001
 50
81.494629
 51
101.742781
  0
LINE
  5
39F
  8
002
  6
CENTER
 62
    40
 10
152.95299
 20
218.945493
 30
0.0
 11
152.95299
 21
204.945509
 31
0.0
  0
LINE
  5
3A0
  8
002
  6
CENTER
 62
    40
 10
196.952913
 20
218.945493
 30
0.0
 11
196.952913
 21
204.945509
 31
0.0
  0
LINE
  5
3A1
  8
002
 62
     3
 10
160.95299
 20
263.945417
 30
0.0
 11
188.952944
 21
263.945417
 31
0.0
  0
LINE
  5
3A2
  8
002
 62
     3
 10
160.953099
 20
263.945529
 30
0.0
 11
159.953206
 21
262.945636
 31
0.0
  0
ARC
  5
3A3
  8
002
 62
     3
 10
177.65081
 20
256.346205
 30
0.0
 40
1.193062
 50
308.767029
 51
47.680603
  0
ARC
  5
3A4
  8
002
 62
     3
 10
177.676312
 20
256.324228
 30
0.0
 40
1.162575
 50
227.831787
 51
258.068222
  0
ARC
  5
3A5
  8
002
 62
     3
 10
177.672294
 20
256.324353
 30
0.0
 40
1.162575
 50
278.379395
 51
308.615814
  0
ARC
  5
3A6
  8
002
 62
     3
 10
177.674066
 20
256.31664
 30
0.0
 40
1.154686
 50
258.099411
 51
278.348206
  0
ARC
  5
3A7
  8
002
 62
     3
 10
177.699108
 20
256.344708
 30
0.0
 40
1.193061
 50
128.767052
 51
227.680588
  0
ARC
  5
3A8
  8
002
 62
     3
 10
177.677624
 20
256.36656
 30
0.0
 40
1.162575
 50
98.379394
 51
128.615829
  0
ARC
  5
3A9
  8
002
 62
     3
 10
177.675853
 20
256.374273
 30
0.0
 40
1.154686000000001
 50
78.099396
 51
98.348207
  0
ARC
  5
3AA
  8
002
 62
     3
 10
177.673607
 20
256.366685
 30
0.0
 40
1.162575
 50
47.831787
 51
78.068237
  0
ARC
  5
3AB
  8
002
 62
     3
 10
177.669459
 20
256.392662
 30
0.0
 40
2.60322
 50
50.836029
 51
81.07196
  0
ARC
  5
3AC
  8
002
 62
     3
 10
177.67358
 20
256.409852
 30
0.0
 40
2.585599
 50
81.103058
 51
101.351277
  0
ARC
  5
3AD
  8
002
 62
     3
 10
177.678433
 20
256.392855
 30
0.0
 40
2.603219000000001
 50
101.382368
 51
131.618317
  0
ARC
  5
3AE
  8
002
 62
     3
 10
177.728923
 20
256.346613
 30
0.0
 40
2.671333
 50
131.769173
 51
230.68515
  0
ARC
  5
3AF
  8
002
 62
     3
 10
177.680459
 20
256.298251
 30
0.0
 40
2.603219000000001
 50
230.836014
 51
261.071976
  0
ARC
  5
3B0
  8
002
 62
     3
 10
177.676339
 20
256.281061
 30
0.0
 40
2.585599
 50
261.103058
 51
281.351273
  0
ARC
  5
3B1
  8
002
 62
     3
 10
177.671486
 20
256.298059
 30
0.0
 40
2.603218999999999
 50
281.38237
 51
311.618317
  0
ARC
  5
3B2
  8
002
 62
     3
 10
177.620995
 20
256.344301
 30
0.0
 40
2.671333000000001
 50
311.769165
 51
50.68515
  0
ARC
  5
3B3
  8
002
 62
     3
 10
147.388079
 20
239.135038
 30
0.0
 40
37.551865
 50
27.277893
 51
32.109558
  0
ARC
  5
3B4
  8
002
 62
     3
 10
147.388063
 20
273.55586
 30
0.0
 40
37.551865
 50
327.890488
 51
332.722153
  0
LINE
  5
3B5
  8
002
 62
     3
 10
175.731279
 20
253.59683
 30
0.0
 11
179.195772
 21
253.59683
 31
0.0
  0
ARC
  5
3B6
  8
002
 62
     3
 10
142.686464
 20
236.379835
 30
0.0
 40
37.551865
 50
27.287445
 51
32.119171
  0
LINE
  5
3B7
  8
002
 62
     3
 10
174.163273
 20
256.345244
 30
0.0
 11
175.731355
 21
253.595392
 31
0.0
  0
ARC
  5
3B8
  8
002
 62
     3
 10
142.682207
 20
276.303663
 30
0.0
 40
37.551865
 50
327.89386
 51
332.725601
  0
LINE
  5
3B9
  8
002
 62
     3
 10
175.731402
 20
259.095443
 30
0.0
 11
174.163305
 21
256.345319
 31
0.0
  0
LINE
  5
3BA
  8
002
 62
     3
 10
174.163134
 20
256.345304
 30
0.0
 11
174.491121
 21
256.345304
 31
0.0
  0
LINE
  5
3BB
  8
002
 62
     3
 10
179.195742
 20
259.095426
 30
0.0
 11
175.731203
 21
259.095426
 31
0.0
  0
ARC
  5
3BC
  8
002
 62
     3
 10
179.952959
 20
260.445432
 30
0.0
 40
1.0
 50
0.0
 51
89.999969
  0
LINE
  5
3BD
  8
002
 62
     3
 10
179.952959
 20
261.445432
 30
0.0
 11
169.953005
 21
261.445432
 31
0.0
  0
LINE
  5
3BE
  8
002
 62
     3
 10
169.143667
 20
261.033084
 30
0.0
 11
180.952703
 21
234.275819
 31
0.0
  0
ARC
  5
3BF
  8
002
 62
     3
 10
169.95299
 20
260.445432
 30
0.0
 40
0.9999999999999996
 50
89.999969
 51
179.999985
  0
LINE
  5
3C0
  8
002
 62
     3
 10
180.762301
 20
218.857896
 30
0.0
 11
168.953263
 21
245.61516
 31
0.0
  0
LINE
  5
3C1
  8
002
 62
     3
 10
168.952623
 20
247.596258
 30
0.0
 11
166.628954
 21
252.861298
 31
0.0
  0
LINE
  5
3C2
  8
002
 62
     3
 10
168.95277
 20
253.540371
 30
0.0
 11
167.855737
 21
256.026064
 31
0.0
  0
ARC
  5
3C3
  8
002
 62
     3
 10
168.824984
 20
253.830473
 30
0.0
 40
2.399998000000001
 50
86.94278
 51
203.813736
  0
LINE
  5
3C4
  8
002
 62
     3
 10
168.953005
 20
260.445432
 30
0.0
 11
168.953005
 21
219.445478
 31
0.0
  0
LINE
  5
3C5
  8
002
 62
     3
 10
159.95299
 20
262.945417
 30
0.0
 11
159.95299
 21
216.945493
 31
0.0
  0
LINE
  5
3C6
  8
002
 62
     3
 10
180.953344
 20
232.294721
 30
0.0
 11
183.277015
 21
227.02968
 31
0.0
  0
LINE
  5
3C7
  8
002
 62
     3
 10
180.953213
 20
226.350614
 30
0.0
 11
182.050247
 21
223.864923
 31
0.0
  0
ARC
  5
3C8
  8
002
 62
     3
 10
181.08095
 20
226.060438
 30
0.0
 40
2.399999000000001
 50
266.94278
 51
23.813782
  0
LINE
  5
3C9
  8
002
 62
     3
 10
180.952944
 20
219.445463
 30
0.0
 11
180.952944
 21
260.445432
 31
0.0
  0
ARC
  5
3CA
  8
002
 62
     3
 10
179.952944
 20
219.445463
 30
0.0
 40
1.0
 50
269.999969
 51
0.0
  0
LINE
  5
3CB
  8
002
 62
     3
 10
169.952974
 20
218.445463
 30
0.0
 11
179.952944
 21
218.445463
 31
0.0
  0
ARC
  5
3CC
  8
002
 62
     3
 10
169.952974
 20
219.445463
 30
0.0
 40
0.9999999999999971
 50
180.0
 51
269.999969
  0
ARC
  5
3CD
  8
002
 62
     3
 10
202.517839
 20
240.755857
 30
0.0
 40
37.551865
 50
207.277847
 51
212.10952
  0
LINE
  5
3CE
  8
002
 62
     3
 10
170.710176
 20
220.795484
 30
0.0
 11
174.174715
 21
220.795484
 31
0.0
  0
ARC
  5
3CF
  8
002
 62
     3
 10
172.236464
 20
223.49827
 30
0.0
 40
2.60324
 50
230.846054
 51
261.081894
  0
ARC
  5
3D0
  8
002
 62
     3
 10
172.232349
 20
223.481088
 30
0.0
 40
2.585629000000002
 50
261.112961
 51
281.361053
  0
ARC
  5
3D1
  8
002
 62
     3
 10
172.227496
 20
223.498075
 30
0.0
 40
2.603239999999998
 50
281.392136
 51
311.627975
  0
ARC
  5
3D2
  8
002
 62
     3
 10
172.177019
 20
223.54429
 30
0.0
 40
2.671325000000001
 50
311.778748
 51
50.695221
  0
ARC
  5
3D3
  8
002
 62
     3
 10
172.225454
 20
223.592638
 30
0.0
 40
2.603240000000003
 50
50.846039
 51
81.081879
  0
ARC
  5
3D4
  8
002
 62
     3
 10
172.229569
 20
223.609819
 30
0.0
 40
2.585629000000002
 50
81.112946
 51
101.361053
  0
ARC
  5
3D5
  8
002
 62
     3
 10
172.234422
 20
223.592832
 30
0.0
 40
2.603240000000002
 50
101.392129
 51
131.627968
  0
ARC
  5
3D6
  8
002
 62
     3
 10
172.284899
 20
223.546617
 30
0.0
 40
2.671325000000001
 50
131.77874
 51
230.695236
  0
ARC
  5
3D7
  8
002
 62
     3
 10
202.517855
 20
206.335035
 30
0.0
 40
37.55186500000001
 50
147.890446
 51
152.722118
  0
LINE
  5
3D8
  8
002
 62
     3
 10
174.174669
 20
226.296918
 30
0.0
 11
170.710176
 21
226.296918
 31
0.0
  0
ARC
  5
3D9
  8
002
 62
     3
 10
207.219454
 20
243.51106
 30
0.0
 40
37.551865
 50
207.287407
 51
212.119133
  0
LINE
  5
3DA
  8
002
 62
     3
 10
175.742786
 20
223.545812
 30
0.0
 11
174.174705
 21
226.295663
 31
0.0
  0
LINE
  5
3DB
  8
002
 62
     3
 10
174.17467
 20
220.795717
 30
0.0
 11
175.742767
 21
223.545843
 31
0.0
  0
LINE
  5
3DC
  8
002
 62
     3
 10
175.742846
 20
223.545713
 30
0.0
 11
175.414858
 21
223.545713
 31
0.0
  0
ARC
  5
3DD
  8
002
 62
     3
 10
207.223711
 20
203.587232
 30
0.0
 40
37.551865
 50
147.893833
 51
152.725563
  0
ARC
  5
3DE
  8
002
 62
     3
 10
172.206826
 20
223.544614
 30
0.0
 40
1.193060999999998
 50
312.535858
 51
51.450134
  0
ARC
  5
3DF
  8
002
 62
     3
 10
172.229689
 20
223.524229
 30
0.0
 40
1.162586000000002
 50
282.148453
 51
312.384811
  0
ARC
  5
3E0
  8
002
 62
     3
 10
172.231961
 20
223.516656
 30
0.0
 40
1.154706000000001
 50
261.868683
 51
282.117325
  0
ARC
  5
3E1
  8
002
 62
     3
 10
172.233701
 20
223.52437
 30
0.0
 40
1.162588999999998
 50
231.601257
 51
261.83757
  0
ARC
  5
3E2
  8
002
 62
     3
 10
172.255091
 20
223.546293
 30
0.0
 40
1.193060999999998
 50
132.535862
 51
231.450119
  0
ARC
  5
3E3
  8
002
 62
     3
 10
172.232229
 20
223.566679
 30
0.0
 40
1.162585999999999
 50
102.148451
 51
132.384815
  0
ARC
  5
3E4
  8
002
 62
     3
 10
172.229957
 20
223.574251
 30
0.0
 40
1.154706000000002
 50
81.868683
 51
102.117327
  0
ARC
  5
3E5
  8
002
 62
     3
 10
172.228217
 20
223.566537
 30
0.0
 40
1.162588999999999
 50
51.601257
 51
81.837555
  0
LINE
  5
3E6
  8
002
 62
     3
 10
189.952944
 20
262.945417
 30
0.0
 11
189.952944
 21
216.945493
 31
0.0
  0
LINE
  5
3E7
  8
002
 62
     3
 10
188.953093
 20
263.94556
 30
0.0
 11
189.953094
 21
262.945559
 31
0.0
  0
LINE
  5
3E8
  8
002
 62
     3
 10
203.952913
 20
216.945493
 30
0.0
 11
203.952913
 21
207.945493
 31
0.0
  0
LINE
  5
3E9
  8
002
 62
     3
 10
203.953125
 20
207.945562
 30
0.0
 11
202.953232
 21
206.945669
 31
0.0
  0
LINE
  5
3EA
  8
002
 62
     3
 10
145.953016
 20
207.945501
 30
0.0
 11
146.953005
 21
206.945509
 31
0.0
  0
LINE
  5
3EB
  8
002
 62
     3
 10
145.95299
 20
216.945493
 30
0.0
 11
145.95299
 21
207.945493
 31
0.0
  0
LINE
  5
3EC
  8
002
 62
     3
 10
145.95299
 20
216.945478
 30
0.0
 11
203.952913
 21
216.945478
 31
0.0
  0
LINE
  5
3ED
  8
002
 62
     3
 10
146.953005
 20
206.945478
 30
0.0
 11
202.953232
 21
206.945478
 31
0.0
  0
LINE
  5
3EE
  8
002
 62
     3
 10
166.953549
 20
263.945417
 30
0.0
 11
166.953549
 21
328.015774
 31
0.0
  0
LINE
  5
3EF
  8
002
 62
     3
 10
182.953549
 20
328.015774
 30
0.0
 11
182.953549
 21
263.945417
 31
0.0
  0
LINE
  5
3F0
  8
002
 62
    40
 10
181.803549
 20
263.945417
 30
0.0
 11
181.803549
 21
328.015774
 31
0.0
  0
LINE
  5
3F1
  8
002
 62
    40
 10
168.103549
 20
328.015774
 30
0.0
 11
168.103549
 21
263.945417
 31
0.0
  0
POLYLINE
  5
3F2
  8
002
 62
     3
 66
     1
 10
0.0
 20
0.0
 30
0.0
  0
VERTEX
  5
3F4
  8
002
 62
     3
 10
166.953549
 20
170.980626
 30
0.0
  0
VERTEX
  5
3F5
  8
002
 62
     3
 10
168.953549
 20
168.230626
 30
0.0
  0
VERTEX
  5
3F6
  8
002
 62
     3
 10
170.953549
 20
166.980626
 30
0.0
  0
VERTEX
  5
3F7
  8
002
 62
     3
 10
172.953549
 20
168.230626
 30
0.0
  0
VERTEX
  5
3F8
  8
002
 62
     3
 10
174.953549
 20
170.980626
 30
0.0
  0
VERTEX
  5
3F9
  8
002
 62
     3
 10
176.953549
 20
173.730626
 30
0.0
  0
VERTEX
  5
3FA
  8
002
 62
     3
 10
178.953549
 20
174.980626
 30
0.0
  0
VERTEX
  5
3FB
  8
002
 62
     3
 10
180.953549
 20
173.730626
 30
0.0
  0
VERTEX
  5
3FC
  8
002
 62
     3
 10
182.953549
 20
170.980626
 30
0.0
  0
SEQEND
  5
3F3
  8
002
 62
     3
  0
POLYLINE
  5
3FD
  8
002
 62
     3
 66
     1
 10
0.0
 20
0.0
 30
0.0
  0
VERTEX
  5
3FF
  8
002
 62
     3
 10
166.953549
 20
178.980626
 30
0.0
  0
VERTEX
  5
400
  8
002
 62
     3
 10
168.953549
 20
176.230626
 30
0.0
  0
VERTEX
  5
401
  8
002
 62
     3
 10
170.953549
 20
174.980626
 30
0.0
  0
VERTEX
  5
402
  8
002
 62
     3
 10
172.953549
 20
176.230626
 30
0.0
  0
VERTEX
  5
403
  8
002
 62
     3
 10
174.953549
 20
178.980626
 30
0.0
  0
VERTEX
  5
404
  8
002
 62
     3
 10
176.953549
 20
181.730626
 30
0.0
  0
VERTEX
  5
405
  8
002
 62
     3
 10
178.953549
 20
182.980626
 30
0.0
  0
VERTEX
  5
406
  8
002
 62
     3
 10
180.953549
 20
181.730626
 30
0.0
  0
VERTEX
  5
407
  8
002
 62
     3
 10
182.953549
 20
178.980626
 30
0.0
  0
SEQEND
  5
3FE
  8
002
 62
     3
  0
LINE
  5
408
  8
002
 62
     3
 10
182.953549
 20
206.945478
 30
0.0
 11
182.953549
 21
178.980626
 31
0.0
  0
LINE
  5
409
  8
002
 62
     3
 10
182.953549
 20
170.980626
 30
0.0
 11
182.953549
 21
143.015774
 31
0.0
  0
LINE
  5
40A
  8
002
 62
     3
 10
166.953549
 20
143.015774
 30
0.0
 11
166.953549
 21
170.980626
 31
0.0
  0
LINE
  5
40B
  8
002
 62
     3
 10
166.953549
 20
178.980626
 30
0.0
 11
166.953549
 21
206.945478
 31
0.0
  0
LINE
  5
40C
  8
002
 62
    40
 10
181.803549
 20
206.945478
 30
0.0
 11
181.803549
 21
180.658099
 31
0.0
  0
LINE
  5
40D
  8
002
 62
    40
 10
181.803549
 20
172.658099
 30
0.0
 11
181.803549
 21
143.015774
 31
0.0
  0
LINE
  5
40E
  8
002
 62
    40
 10
168.103549
 20
143.015774
 30
0.0
 11
168.103549
 21
169.303154
 31
0.0
  0
LINE
  5
40F
  8
002
 62
    40
 10
168.103549
 20
177.303154
 30
0.0
 11
168.103549
 21
206.945478
 31
0.0
  0
LINE
  5
410
  8
002
 62
     3
 10
511.46647
 20
79.015774
 30
0.0
 11
511.46647
 21
74.015774
 31
0.0
  0
LINE
  5
411
  8
002
 62
     3
 10
502.96647
 20
74.015774
 30
0.0
 11
502.96647
 21
79.015774
 31
0.0
  0
LINE
  5
412
  8
002
 62
     3
 10
502.96647
 20
74.015774
 30
0.0
 11
511.46647
 21
74.015774
 31
0.0
  0
LINE
  5
413
  8
002
 62
     3
 10
506.12637
 20
74.015774
 30
0.0
 11
506.12637
 21
53.015774
 31
0.0
  0
LINE
  5
414
  8
002
 62
     3
 10
506.12637
 20
53.015774
 30
0.0
 11
540.12637
 21
53.015774
 31
0.0
  0
LINE
  5
415
  8
002
 62
     3
 10
540.12637
 20
53.015774
 30
0.0
 11
540.12637
 21
74.015774
 31
0.0
  0
LINE
  5
416
  8
002
 62
     3
 10
543.28627
 20
74.015774
 30
0.0
 11
534.78627
 21
74.015774
 31
0.0
  0
LINE
  5
417
  8
002
 62
     3
 10
543.28627
 20
74.015774
 30
0.0
 11
543.28627
 21
79.015774
 31
0.0
  0
LINE
  5
418
  8
002
 62
     3
 10
534.78627
 20
74.015774
 30
0.0
 11
534.78627
 21
79.015774
 31
0.0
  0
LINE
  5
419
  8
002
 62
     3
 10
550.62637
 20
79.015774
 30
0.0
 11
495.62637
 21
79.015774
 31
0.0
  0
LINE
  5
41A
  8
002
 62
     3
 10
495.62637
 20
79.015774
 30
0.0
 11
495.62637
 21
83.015774
 31
0.0
  0
LINE
  5
41B
  8
002
  6
CENTER
 62
    40
 10
539.03627
 20
85.015774
 30
0.0
 11
539.03627
 21
71.294174
 31
0.0
  0
LINE
  5
41C
  8
002
  6
CENTER
 62
    40
 10
507.21647
 20
85.015774
 30
0.0
 11
507.21647
 21
71.294174
 31
0.0
  0
LINE
  5
41D
  8
002
 62
     3
 10
515.12667
 20
328.015774
 30
0.0
 11
531.12667
 21
328.015774
 31
0.0
  0
LINE
  5
41E
  8
002
 62
     3
 10
517.12697
 20
328.015774
 30
0.0
 11
517.12697
 21
348.015774
 31
0.0
  0
LINE
  5
41F
  8
002
 62
     3
 10
517.12697
 20
348.015774
 30
0.0
 11
529.12697
 21
348.015774
 31
0.0
  0
LINE
  5
420
  8
002
 62
     3
 10
529.12697
 20
348.015774
 30
0.0
 11
529.12697
 21
328.015774
 31
0.0
  0
ARC
  5
421
  8
002
 62
    40
 10
525.878634
 20
256.346288
 30
0.0
 40
1.512089
 50
132.101429
 51
231.016998
  0
ARC
  5
422
  8
002
 62
    40
 10
525.847088
 20
256.381917
 30
0.0
 40
1.463541
 50
81.435059
 51
101.68337
  0
ARC
  5
423
  8
002
 62
    40
 10
525.851349
 20
256.318743
 30
0.0
 40
1.473517999999999
 50
231.167908
 51
261.403961
  0
ARC
  5
424
  8
002
 62
    40
 10
525.846269
 20
256.318605
 30
0.0
 40
1.473517
 50
281.714478
 51
311.950531
  0
ARC
  5
425
  8
002
 62
    40
 10
525.849073
 20
256.308997
 30
0.0
 40
1.463541
 50
261.435059
 51
281.68338
  0
ARC
  5
426
  8
002
 62
    40
 10
525.817526
 20
256.344625
 30
0.0
 40
1.512089
 50
312.101425
 51
51.016998
  0
ARC
  5
427
  8
002
 62
    40
 10
525.844811
 20
256.37217
 30
0.0
 40
1.473518
 50
51.167908
 51
81.403961
  0
ARC
  5
428
  8
002
 62
    40
 10
525.849891
 20
256.372308
 30
0.0
 40
1.473518
 50
101.714477
 51
131.950531
  0
ARC
  5
429
  8
002
 62
    40
 10
520.405862
 20
223.57229
 30
0.0
 40
1.473534
 50
101.773849
 51
132.009747
  0
ARC
  5
42A
  8
002
 62
    40
 10
520.434612
 20
223.546316
 30
0.0
 40
1.512082000000001
 50
132.160503
 51
231.076859
  0
ARC
  5
42B
  8
002
 62
    40
 10
520.407374
 20
223.518762
 30
0.0
 40
1.473538000000003
 50
231.227692
 51
261.463562
  0
ARC
  5
42C
  8
002
 62
    40
 10
520.402298
 20
223.518617
 30
0.0
 40
1.473533999999997
 50
281.773849
 51
312.00975
  0
ARC
  5
42D
  8
002
 62
    40
 10
520.405109
 20
223.509019
 30
0.0
 40
1.463568000000003
 50
261.494629
 51
281.742783
  0
ARC
  5
42E
  8
002
 62
    40
 10
520.373548
 20
223.544591
 30
0.0
 40
1.512082000000001
 50
312.160507
 51
51.076843
  0
ARC
  5
42F
  8
002
 62
    40
 10
520.400786
 20
223.572145
 30
0.0
 40
1.473538000000003
 50
51.227692
 51
81.463562
  0
ARC
  5
430
  8
002
 62
    40
 10
520.40305
 20
223.581888
 30
0.0
 40
1.463568000000001
 50
81.494629
 51
101.742781
  0
LINE
  5
431
  8
002
  6
CENTER
 62
    40
 10
501.126111
 20
218.945493
 30
0.0
 11
501.126111
 21
204.945509
 31
0.0
  0
LINE
  5
432
  8
002
  6
CENTER
 62
    40
 10
545.126034
 20
218.945493
 30
0.0
 11
545.126034
 21
204.945509
 31
0.0
  0
LINE
  5
433
  8
002
 62
     3
 10
509.126111
 20
263.945417
 30
0.0
 11
537.126065
 21
263.945417
 31
0.0
  0
LINE
  5
434
  8
002
 62
     3
 10
509.12622
 20
263.945529
 30
0.0
 11
508.126327
 21
262.945636
 31
0.0
  0
ARC
  5
435
  8
002
 62
     3
 10
525.823931
 20
256.346205
 30
0.0
 40
1.193062
 50
308.767029
 51
47.680603
  0
ARC
  5
436
  8
002
 62
     3
 10
525.849433
 20
256.324228
 30
0.0
 40
1.162575
 50
227.831787
 51
258.068222
  0
ARC
  5
437
  8
002
 62
     3
 10
525.845415
 20
256.324353
 30
0.0
 40
1.162575
 50
278.379395
 51
308.615814
  0
ARC
  5
438
  8
002
 62
     3
 10
525.847187
 20
256.31664
 30
0.0
 40
1.154686
 50
258.099411
 51
278.348206
  0
ARC
  5
439
  8
002
 62
     3
 10
525.872229
 20
256.344708
 30
0.0
 40
1.193061
 50
128.767052
 51
227.680588
  0
ARC
  5
43A
  8
002
 62
     3
 10
525.850745
 20
256.36656
 30
0.0
 40
1.162575
 50
98.379394
 51
128.615829
  0
ARC
  5
43B
  8
002
 62
     3
 10
525.848974
 20
256.374273
 30
0.0
 40
1.154686000000001
 50
78.099396
 51
98.348207
  0
ARC
  5
43C
  8
002
 62
     3
 10
525.846728
 20
256.366685
 30
0.0
 40
1.162575
 50
47.831787
 51
78.068237
  0
ARC
  5
43D
  8
002
 62
     3
 10
525.84258
 20
256.392662
 30
0.0
 40
2.60322
 50
50.836029
 51
81.07196
  0
ARC
  5
43E
  8
002
 62
     3
 10
525.846701
 20
256.409852
 30
0.0
 40
2.585599
 50
81.103058
 51
101.351277
  0
ARC
  5
43F
  8
002
 62
     3
 10
525.851554
 20
256.392855
 30
0.0
 40
2.603219000000001
 50
101.382368
 51
131.618317
  0
ARC
  5
440
  8
002
 62
     3
 10
525.902044
 20
256.346613
 30
0.0
 40
2.671333
 50
131.769173
 51
230.68515
  0
ARC
  5
441
  8
002
 62
     3
 10
525.85358
 20
256.298251
 30
0.0
 40
2.603219000000001
 50
230.836014
 51
261.071976
  0
ARC
  5
442
  8
002
 62
     3
 10
525.84946
 20
256.281061
 30
0.0
 40
2.585599
 50
261.103058
 51
281.351273
  0
ARC
  5
443
  8
002
 62
     3
 10
525.844607
 20
256.298059
 30
0.0
 40
2.603218999999999
 50
281.38237
 51
311.618317
  0
ARC
  5
444
  8
002
 62
     3
 10
525.794116
 20
256.344301
 30
0.0
 40
2.671333000000001
 50
311.769165
 51
50.68515
  0
ARC
  5
445
  8
002
 62
     3
 10
495.5612
 20
239.135038
 30
0.0
 40
37.551865
 50
27.277893
 51
32.109558
  0
ARC
  5
446
  8
002
 62
     3
 10
495.561184
 20
273.55586
 30
0.0
 40
37.551865
 50
327.890488
 51
332.722153
  0
LINE
  5
447
  8
002
 62
     3
 10
523.9044
 20
253.59683
 30
0.0
 11
527.368893
 21
253.59683
 31
0.0
  0
ARC
  5
448
  8
002
 62
     3
 10
490.859585
 20
236.379835
 30
0.0
 40
37.551865
 50
27.287445
 51
32.119171
  0
LINE
  5
449
  8
002
 62
     3
 10
522.336394
 20
256.345244
 30
0.0
 11
523.904476
 21
253.595392
 31
0.0
  0
ARC
  5
44A
  8
002
 62
     3
 10
490.855328
 20
276.303663
 30
0.0
 40
37.551865
 50
327.89386
 51
332.725601
  0
LINE
  5
44B
  8
002
 62
     3
 10
523.904523
 20
259.095443
 30
0.0
 11
522.336426
 21
256.345319
 31
0.0
  0
LINE
  5
44C
  8
002
 62
     3
 10
522.336255
 20
256.345304
 30
0.0
 11
522.664242
 21
256.345304
 31
0.0
  0
LINE
  5
44D
  8
002
 62
     3
 10
527.368863
 20
259.095426
 30
0.0
 11
523.904324
 21
259.095426
 31
0.0
  0
ARC
  5
44E
  8
002
 62
     3
 10
528.12608
 20
260.445432
 30
0.0
 40
1.0
 50
0.0
 51
89.999969
  0
LINE
  5
44F
  8
002
 62
     3
 10
528.12608
 20
261.445432
 30
0.0
 11
518.126126
 21
261.445432
 31
0.0
  0
LINE
  5
450
  8
002
 62
     3
 10
517.316788
 20
261.033084
 30
0.0
 11
529.125824
 21
234.275819
 31
0.0
  0
ARC
  5
451
  8
002
 62
     3
 10
518.126111
 20
260.445432
 30
0.0
 40
0.9999999999999996
 50
89.999969
 51
179.999985
  0
LINE
  5
452
  8
002
 62
     3
 10
528.935422
 20
218.857896
 30
0.0
 11
517.126384
 21
245.61516
 31
0.0
  0
LINE
  5
453
  8
002
 62
     3
 10
517.125744
 20
247.596258
 30
0.0
 11
514.802075
 21
252.861298
 31
0.0
  0
LINE
  5
454
  8
002
 62
     3
 10
517.125891
 20
253.540371
 30
0.0
 11
516.028858
 21
256.026064
 31
0.0
  0
ARC
  5
455
  8
002
 62
     3
 10
516.998105
 20
253.830473
 30
0.0
 40
2.399998000000001
 50
86.94278
 51
203.813736
  0
LINE
  5
456
  8
002
 62
     3
 10
517.126126
 20
260.445432
 30
0.0
 11
517.126126
 21
219.445478
 31
0.0
  0
LINE
  5
457
  8
002
 62
     3
 10
508.126111
 20
262.945417
 30
0.0
 11
508.126111
 21
216.945493
 31
0.0
  0
LINE
  5
458
  8
002
 62
     3
 10
529.126465
 20
232.294721
 30
0.0
 11
531.450136
 21
227.02968
 31
0.0
  0
LINE
  5
459
  8
002
 62
     3
 10
529.126334
 20
226.350614
 30
0.0
 11
530.223368
 21
223.864923
 31
0.0
  0
ARC
  5
45A
  8
002
 62
     3
 10
529.254071
 20
226.060438
 30
0.0
 40
2.399999000000001
 50
266.94278
 51
23.813782
  0
LINE
  5
45B
  8
002
 62
     3
 10
529.126065
 20
219.445463
 30
0.0
 11
529.126065
 21
260.445432
 31
0.0
  0
ARC
  5
45C
  8
002
 62
     3
 10
528.126065
 20
219.445463
 30
0.0
 40
1.0
 50
269.999969
 51
0.0
  0
LINE
  5
45D
  8
002
 62
     3
 10
518.126095
 20
218.445463
 30
0.0
 11
528.126065
 21
218.445463
 31
0.0
  0
ARC
  5
45E
  8
002
 62
     3
 10
518.126095
 20
219.445463
 30
0.0
 40
0.9999999999999971
 50
180.0
 51
269.999969
  0
ARC
  5
45F
  8
002
 62
     3
 10
550.69096
 20
240.755857
 30
0.0
 40
37.551865
 50
207.277847
 51
212.10952
  0
LINE
  5
460
  8
002
 62
     3
 10
518.883297
 20
220.795484
 30
0.0
 11
522.347836
 21
220.795484
 31
0.0
  0
ARC
  5
461
  8
002
 62
     3
 10
520.409585
 20
223.49827
 30
0.0
 40
2.60324
 50
230.846054
 51
261.081894
  0
ARC
  5
462
  8
002
 62
     3
 10
520.40547
 20
223.481088
 30
0.0
 40
2.585629000000002
 50
261.112961
 51
281.361053
  0
ARC
  5
463
  8
002
 62
     3
 10
520.400617
 20
223.498075
 30
0.0
 40
2.603239999999998
 50
281.392136
 51
311.627975
  0
ARC
  5
464
  8
002
 62
     3
 10
520.35014
 20
223.54429
 30
0.0
 40
2.671325000000001
 50
311.778748
 51
50.695221
  0
ARC
  5
465
  8
002
 62
     3
 10
520.398575
 20
223.592638
 30
0.0
 40
2.603240000000003
 50
50.846039
 51
81.081879
  0
ARC
  5
466
  8
002
 62
     3
 10
520.40269
 20
223.609819
 30
0.0
 40
2.585629000000002
 50
81.112946
 51
101.361053
  0
ARC
  5
467
  8
002
 62
     3
 10
520.407543
 20
223.592832
 30
0.0
 40
2.603240000000002
 50
101.392129
 51
131.627968
  0
ARC
  5
468
  8
002
 62
     3
 10
520.45802
 20
223.546617
 30
0.0
 40
2.671325000000001
 50
131.77874
 51
230.695236
  0
ARC
  5
469
  8
002
 62
     3
 10
550.690976
 20
206.335035
 30
0.0
 40
37.55186500000001
 50
147.890446
 51
152.722118
  0
LINE
  5
46A
  8
002
 62
     3
 10
522.34779
 20
226.296918
 30
0.0
 11
518.883297
 21
226.296918
 31
0.0
  0
ARC
  5
46B
  8
002
 62
     3
 10
555.392575
 20
243.51106
 30
0.0
 40
37.551865
 50
207.287407
 51
212.119133
  0
LINE
  5
46C
  8
002
 62
     3
 10
523.915907
 20
223.545812
 30
0.0
 11
522.347826
 21
226.295663
 31
0.0
  0
LINE
  5
46D
  8
002
 62
     3
 10
522.347791
 20
220.795717
 30
0.0
 11
523.915888
 21
223.545843
 31
0.0
  0
LINE
  5
46E
  8
002
 62
     3
 10
523.915967
 20
223.545713
 30
0.0
 11
523.587979
 21
223.545713
 31
0.0
  0
ARC
  5
46F
  8
002
 62
     3
 10
555.396832
 20
203.587232
 30
0.0
 40
37.551865
 50
147.893833
 51
152.725563
  0
ARC
  5
470
  8
002
 62
     3
 10
520.379947
 20
223.544614
 30
0.0
 40
1.193060999999998
 50
312.535858
 51
51.450134
  0
ARC
  5
471
  8
002
 62
     3
 10
520.40281
 20
223.524229
 30
0.0
 40
1.162586000000002
 50
282.148453
 51
312.384811
  0
ARC
  5
472
  8
002
 62
     3
 10
520.405082
 20
223.516656
 30
0.0
 40
1.154706000000001
 50
261.868683
 51
282.117325
  0
ARC
  5
473
  8
002
 62
     3
 10
520.406822
 20
223.52437
 30
0.0
 40
1.162588999999998
 50
231.601257
 51
261.83757
  0
ARC
  5
474
  8
002
 62
     3
 10
520.428212
 20
223.546293
 30
0.0
 40
1.193060999999998
 50
132.535862
 51
231.450119
  0
ARC
  5
475
  8
002
 62
     3
 10
520.40535
 20
223.566679
 30
0.0
 40
1.162585999999999
 50
102.148451
 51
132.384815
  0
ARC
  5
476
  8
002
 62
     3
 10
520.403078
 20
223.574251
 30
0.0
 40
1.154706000000002
 50
81.868683
 51
102.117327
  0
ARC
  5
477
  8
002
 62
     3
 10
520.401338
 20
223.566537
 30
0.0
 40
1.162588999999999
 50
51.601257
 51
81.837555
  0
LINE
  5
478
  8
002
 62
     3
 10
538.126065
 20
262.945417
 30
0.0
 11
538.126065
 21
216.945493
 31
0.0
  0
LINE
  5
479
  8
002
 62
     3
 10
537.126214
 20
263.94556
 30
0.0
 11
538.126215
 21
262.945559
 31
0.0
  0
LINE
  5
47A
  8
002
 62
     3
 10
552.126034
 20
216.945493
 30
0.0
 11
552.126034
 21
207.945493
 31
0.0
  0
LINE
  5
47B
  8
002
 62
     3
 10
552.126246
 20
207.945562
 30
0.0
 11
551.126353
 21
206.945669
 31
0.0
  0
LINE
  5
47C
  8
002
 62
     3
 10
494.126137
 20
207.945501
 30
0.0
 11
495.126126
 21
206.945509
 31
0.0
  0
LINE
  5
47D
  8
002
 62
     3
 10
494.126111
 20
216.945493
 30
0.0
 11
494.126111
 21
207.945493
 31
0.0
  0
LINE
  5
47E
  8
002
 62
     3
 10
494.126111
 20
216.945478
 30
0.0
 11
552.126034
 21
216.945478
 31
0.0
  0
LINE
  5
47F
  8
002
 62
     3
 10
495.126126
 20
206.945478
 30
0.0
 11
551.126353
 21
206.945478
 31
0.0
  0
LINE
  5
480
  8
002
 62
     3
 10
515.12667
 20
263.945417
 30
0.0
 11
515.12667
 21
328.015774
 31
0.0
  0
LINE
  5
481
  8
002
 62
     3
 10
531.12667
 20
328.015774
 30
0.0
 11
531.12667
 21
263.945417
 31
0.0
  0
LINE
  5
482
  8
002
 62
    40
 10
529.97667
 20
263.945417
 30
0.0
 11
529.97667
 21
328.015774
 31
0.0
  0
LINE
  5
483
  8
002
 62
    40
 10
516.27667
 20
328.015774
 30
0.0
 11
516.27667
 21
263.945417
 31
0.0
  0
POLYLINE
  5
484
  8
002
 62
     3
 66
     1
 10
0.0
 20
0.0
 30
0.0
  0
VERTEX
  5
486
  8
002
 62
     3
 10
515.12667
 20
170.980626
 30
0.0
  0
VERTEX
  5
487
  8
002
 62
     3
 10
517.12667
 20
168.230626
 30
0.0
  0
VERTEX
  5
488
  8
002
 62
     3
 10
519.12667
 20
166.980626
 30
0.0
  0
VERTEX
  5
489
  8
002
 62
     3
 10
521.12667
 20
168.230626
 30
0.0
  0
VERTEX
  5
48A
  8
002
 62
     3
 10
523.12667
 20
170.980626
 30
0.0
  0
VERTEX
  5
48B
  8
002
 62
     3
 10
525.12667
 20
173.730626
 30
0.0
  0
VERTEX
  5
48C
  8
002
 62
     3
 10
527.12667
 20
174.980626
 30
0.0
  0
VERTEX
  5
48D
  8
002
 62
     3
 10
529.12667
 20
173.730626
 30
0.0
  0
VERTEX
  5
48E
  8
002
 62
     3
 10
531.12667
 20
170.980626
 30
0.0
  0
SEQEND
  5
485
  8
002
 62
     3
  0
POLYLINE
  5
48F
  8
002
 62
     3
 66
     1
 10
0.0
 20
0.0
 30
0.0
  0
VERTEX
  5
491
  8
002
 62
     3
 10
515.12667
 20
178.980626
 30
0.0
  0
VERTEX
  5
492
  8
002
 62
     3
 10
517.12667
 20
176.230626
 30
0.0
  0
VERTEX
  5
493
  8
002
 62
     3
 10
519.12667
 20
174.980626
 30
0.0
  0
VERTEX
  5
494
  8
002
 62
     3
 10
521.12667
 20
176.230626
 30
0.0
  0
VERTEX
  5
495
  8
002
 62
     3
 10
523.12667
 20
178.980626
 30
0.0
  0
VERTEX
  5
496
  8
002
 62
     3
 10
525.12667
 20
181.730626
 30
0.0
  0
VERTEX
  5
497
  8
002
 62
     3
 10
527.12667
 20
182.980626
 30
0.0
  0
VERTEX
  5
498
  8
002
 62
     3
 10
529.12667
 20
181.730626
 30
0.0
  0
VERTEX
  5
499
  8
002
 62
     3
 10
531.12667
 20
178.980626
 30
0.0
  0
SEQEND
  5
490
  8
002
 62
     3
  0
LINE
  5
49A
  8
002
 62
     3
 10
531.12667
 20
206.945478
 30
0.0
 11
531.12667
 21
178.980626
 31
0.0
  0
LINE
  5
49B
  8
002
 62
     3
 10
531.12667
 20
170.980626
 30
0.0
 11
531.12667
 21
143.015774
 31
0.0
  0
LINE
  5
49C
  8
002
 62
     3
 10
515.12667
 20
143.015774
 30
0.0
 11
515.12667
 21
170.980626
 31
0.0
  0
LINE
  5
49D
  8
002
 62
     3
 10
515.12667
 20
178.980626
 30
0.0
 11
515.12667
 21
206.945478
 31
0.0
  0
LINE
  5
49E
  8
002
 62
    40
 10
529.97667
 20
206.945478
 30
0.0
 11
529.97667
 21
180.658099
 31
0.0
  0
LINE
  5
49F
  8
002
 62
    40
 10
529.97667
 20
172.658099
 30
0.0
 11
529.97667
 21
143.015774
 31
0.0
  0
LINE
  5
4A0
  8
002
 62
    40
 10
516.27667
 20
143.015774
 30
0.0
 11
516.27667
 21
169.303154
 31
0.0
  0
LINE
  5
4A1
  8
002
 62
    40
 10
516.27667
 20
177.303154
 30
0.0
 11
516.27667
 21
206.945478
 31
0.0
  0
LINE
  5
4A2
  8
003
  6
CENTER
 62
    40
 10
174.953249
 20
46.50129
 30
0.0
 11
174.953249
 21
350.121274
 31
0.0
  0
LINE
  5
4A3
  8
002
  6
CENTER
 62
    40
 10
523.12637
 20
350.121274
 30
0.0
 11
523.12637
 21
46.50129
 31
0.0
  0
LINE
  5
4A4
  8
002
  6
CENTER
 62
    40
 10
1648.551753
 20
286.561577
 30
0.0
 11
1805.543834
 21
286.561577
 31
0.0
  0
LINE
  5
4A5
  8
003
  6
CENTER
 62
    40
 10
1301.919993
 20
286.561577
 30
0.0
 11
1458.947353
 21
286.561577
 31
0.0
  0
LINE
  5
4A6
  8
002
 62
     3
 10
1367.872053
 20
320.561577
 30
0.0
 11
1367.872053
 21
325.561577
 31
0.0
  0
LINE
  5
4A7
  8
002
 62
     3
 10
1367.872053
 20
325.561577
 30
0.0
 11
1359.372053
 21
325.561577
 31
0.0
  0
LINE
  5
4A8
  8
002
 62
     3
 10
1362.532053
 20
325.561577
 30
0.0
 11
1362.532053
 21
346.561577
 31
0.0
  0
LINE
  5
4A9
  8
002
 62
     3
 10
1362.532053
 20
346.561577
 30
0.0
 11
1396.532053
 21
346.561577
 31
0.0
  0
LINE
  5
4AA
  8
002
 62
     3
 10
1396.532053
 20
346.561577
 30
0.0
 11
1396.532053
 21
325.561577
 31
0.0
  0
LINE
  5
4AB
  8
002
 62
     3
 10
1391.192053
 20
325.561577
 30
0.0
 11
1391.192053
 21
320.561577
 31
0.0
  0
LINE
  5
4AC
  8
002
 62
     3
 10
1391.192053
 20
325.561577
 30
0.0
 11
1399.692053
 21
325.561577
 31
0.0
  0
LINE
  5
4AD
  8
002
 62
     3
 10
1399.692053
 20
325.561577
 30
0.0
 11
1399.692053
 21
320.561577
 31
0.0
  0
LINE
  5
4AE
  8
002
 62
     3
 10
1407.032053
 20
320.561577
 30
0.0
 11
1352.032053
 21
320.561577
 31
0.0
  0
LINE
  5
4AF
  8
002
 62
     3
 10
1352.032053
 20
320.561577
 30
0.0
 11
1352.032053
 21
316.561577
 31
0.0
  0
LINE
  5
4B0
  8
002
 62
     3
 10
1359.372053
 20
320.561577
 30
0.0
 11
1359.372053
 21
325.561577
 31
0.0
  0
LINE
  5
4B1
  8
002
  6
CENTER
 62
    40
 10
1395.442053
 20
314.561577
 30
0.0
 11
1395.442053
 21
328.283177
 31
0.0
  0
LINE
  5
4B2
  8
002
  6
CENTER
 62
    40
 10
1363.622053
 20
314.561577
 30
0.0
 11
1363.622053
 21
328.283177
 31
0.0
  0
LINE
  5
4B3
  8
002
 62
     3
 10
1387.532053
 20
71.561577
 30
0.0
 11
1371.532053
 21
71.561577
 31
0.0
  0
LINE
  5
4B4
  8
002
 62
     3
 10
1385.533053
 20
71.561577
 30
0.0
 11
1385.533053
 21
51.561577
 31
0.0
  0
LINE
  5
4B5
  8
002
 62
     3
 10
1385.533053
 20
51.561577
 30
0.0
 11
1373.533053
 21
51.561577
 31
0.0
  0
LINE
  5
4B6
  8
002
 62
     3
 10
1373.533053
 20
51.561577
 30
0.0
 11
1373.533053
 21
71.561577
 31
0.0
  0
ARC
  5
4B7
  8
002
 62
    40
 10
1382.284317
 20
176.282106
 30
0.0
 40
1.512089
 50
132.101429
 51
231.016998
  0
ARC
  5
4B8
  8
002
 62
    40
 10
1382.252771
 20
176.317735
 30
0.0
 40
1.463541
 50
81.435059
 51
101.68337
  0
ARC
  5
4B9
  8
002
 62
    40
 10
1382.257032
 20
176.254561
 30
0.0
 40
1.473517999999999
 50
231.167908
 51
261.403961
  0
ARC
  5
4BA
  8
002
 62
    40
 10
1382.251952
 20
176.254423
 30
0.0
 40
1.473517
 50
281.714478
 51
311.950531
  0
ARC
  5
4BB
  8
002
 62
    40
 10
1382.254756
 20
176.244815
 30
0.0
 40
1.463541
 50
261.435059
 51
281.68338
  0
ARC
  5
4BC
  8
002
 62
    40
 10
1382.223209
 20
176.280443
 30
0.0
 40
1.512089
 50
312.101425
 51
51.016998
  0
ARC
  5
4BD
  8
002
 62
    40
 10
1382.250494
 20
176.307988
 30
0.0
 40
1.473518
 50
51.167908
 51
81.403961
  0
ARC
  5
4BE
  8
002
 62
    40
 10
1382.255574
 20
176.308126
 30
0.0
 40
1.473518
 50
101.714477
 51
131.950531
  0
ARC
  5
4BF
  8
002
 62
    40
 10
1376.811545
 20
143.508108
 30
0.0
 40
1.473534
 50
101.773849
 51
132.009747
  0
ARC
  5
4C0
  8
002
 62
    40
 10
1376.840295
 20
143.482134
 30
0.0
 40
1.512082000000001
 50
132.160503
 51
231.076859
  0
ARC
  5
4C1
  8
002
 62
    40
 10
1376.813057
 20
143.45458
 30
0.0
 40
1.473538000000003
 50
231.227692
 51
261.463562
  0
ARC
  5
4C2
  8
002
 62
    40
 10
1376.807981
 20
143.454435
 30
0.0
 40
1.473533999999997
 50
281.773849
 51
312.00975
  0
ARC
  5
4C3
  8
002
 62
    40
 10
1376.810792
 20
143.444837
 30
0.0
 40
1.463568000000003
 50
261.494629
 51
281.742783
  0
ARC
  5
4C4
  8
002
 62
    40
 10
1376.779231
 20
143.480409
 30
0.0
 40
1.512082000000001
 50
312.160507
 51
51.076843
  0
ARC
  5
4C5
  8
002
 62
    40
 10
1376.806469
 20
143.507963
 30
0.0
 40
1.473538000000003
 50
51.227692
 51
81.463562
  0
ARC
  5
4C6
  8
002
 62
    40
 10
1376.808733
 20
143.517706
 30
0.0
 40
1.463568000000001
 50
81.494629
 51
101.742781
  0
LINE
  5
4C7
  8
002
  6
CENTER
 62
    40
 10
1357.531794
 20
138.881311
 30
0.0
 11
1357.531794
 21
124.881327
 31
0.0
  0
LINE
  5
4C8
  8
002
  6
CENTER
 62
    40
 10
1401.531717
 20
138.881311
 30
0.0
 11
1401.531717
 21
124.881327
 31
0.0
  0
LINE
  5
4C9
  8
002
 62
     3
 10
1365.531794
 20
183.881235
 30
0.0
 11
1393.531748
 21
183.881235
 31
0.0
  0
LINE
  5
4CA
  8
002
 62
     3
 10
1365.531903
 20
183.881347
 30
0.0
 11
1364.53201
 21
182.881454
 31
0.0
  0
ARC
  5
4CB
  8
002
 62
     3
 10
1382.229614
 20
176.282023
 30
0.0
 40
1.193062
 50
308.767029
 51
47.680603
  0
ARC
  5
4CC
  8
002
 62
     3
 10
1382.255116
 20
176.260046
 30
0.0
 40
1.162575
 50
227.831787
 51
258.068222
  0
ARC
  5
4CD
  8
002
 62
     3
 10
1382.251098
 20
176.260171
 30
0.0
 40
1.162575
 50
278.379395
 51
308.615814
  0
ARC
  5
4CE
  8
002
 62
     3
 10
1382.25287
 20
176.252458
 30
0.0
 40
1.154686
 50
258.099411
 51
278.348206
  0
ARC
  5
4CF
  8
002
 62
     3
 10
1382.277912
 20
176.280526
 30
0.0
 40
1.193061
 50
128.767052
 51
227.680588
  0
ARC
  5
4D0
  8
002
 62
     3
 10
1382.256428
 20
176.302378
 30
0.0
 40
1.162575
 50
98.379394
 51
128.615829
  0
ARC
  5
4D1
  8
002
 62
     3
 10
1382.254657
 20
176.310091
 30
0.0
 40
1.154686000000001
 50
78.099396
 51
98.348207
  0
ARC
  5
4D2
  8
002
 62
     3
 10
1382.252411
 20
176.302503
 30
0.0
 40
1.162575
 50
47.831787
 51
78.068237
  0
ARC
  5
4D3
  8
002
 62
     3
 10
1382.248263
 20
176.32848
 30
0.0
 40
2.60322
 50
50.836029
 51
81.07196
  0
ARC
  5
4D4
  8
002
 62
     3
 10
1382.252384
 20
176.34567
 30
0.0
 40
2.585599
 50
81.103058
 51
101.351277
  0
ARC
  5
4D5
  8
002
 62
     3
 10
1382.257237
 20
176.328673
 30
0.0
 40
2.603219000000001
 50
101.382368
 51
131.618317
  0
ARC
  5
4D6
  8
002
 62
     3
 10
1382.307727
 20
176.282431
 30
0.0
 40
2.671333
 50
131.769173
 51
230.68515
  0
ARC
  5
4D7
  8
002
 62
     3
 10
1382.259263
 20
176.234069
 30
0.0
 40
2.603219000000001
 50
230.836014
 51
261.071976
  0
ARC
  5
4D8
  8
002
 62
     3
 10
1382.255143
 20
176.216879
 30
0.0
 40
2.585599
 50
261.103058
 51
281.351273
  0
ARC
  5
4D9
  8
002
 62
     3
 10
1382.25029
 20
176.233877
 30
0.0
 40
2.603218999999999
 50
281.38237
 51
311.618317
  0
ARC
  5
4DA
  8
002
 62
     3
 10
1382.199799
 20
176.280119
 30
0.0
 40
2.671333000000001
 50
311.769165
 51
50.68515
  0
ARC
  5
4DB
  8
002
 62
     3
 10
1351.966883
 20
159.070856
 30
0.0
 40
37.551865
 50
27.277893
 51
32.109558
  0
ARC
  5
4DC
  8
002
 62
     3
 10
1351.966867
 20
193.491678
 30
0.0
 40
37.551865
 50
327.890488
 51
332.722153
  0
LINE
  5
4DD
  8
002
 62
     3
 10
1380.310083
 20
173.532648
 30
0.0
 11
1383.774576
 21
173.532648
 31
0.0
  0
ARC
  5
4DE
  8
002
 62
     3
 10
1347.265268
 20
156.315653
 30
0.0
 40
37.551865
 50
27.287445
 51
32.119171
  0
LINE
  5
4DF
  8
002
 62
     3
 10
1378.742077
 20
176.281062
 30
0.0
 11
1380.310159
 21
173.53121
 31
0.0
  0
ARC
  5
4E0
  8
002
 62
     3
 10
1347.261011
 20
196.239481
 30
0.0
 40
37.551865
 50
327.89386
 51
332.725601
  0
LINE
  5
4E1
  8
002
 62
     3
 10
1380.310206
 20
179.031261
 30
0.0
 11
1378.742109
 21
176.281137
 31
0.0
  0
LINE
  5
4E2
  8
002
 62
     3
 10
1378.741938
 20
176.281122
 30
0.0
 11
1379.069925
 21
176.281122
 31
0.0
  0
LINE
  5
4E3
  8
002
 62
     3
 10
1383.774546
 20
179.031244
 30
0.0
 11
1380.310007
 21
179.031244
 31
0.0
  0
ARC
  5
4E4
  8
002
 62
     3
 10
1384.531763
 20
180.38125
 30
0.0
 40
1.0
 50
0.0
 51
89.999969
  0
LINE
  5
4E5
  8
002
 62
     3
 10
1384.531763
 20
181.38125
 30
0.0
 11
1374.531809
 21
181.38125
 31
0.0
  0
LINE
  5
4E6
  8
002
 62
     3
 10
1373.722471
 20
180.968902
 30
0.0
 11
1385.531507
 21
154.211637
 31
0.0
  0
ARC
  5
4E7
  8
002
 62
     3
 10
1374.531794
 20
180.38125
 30
0.0
 40
0.9999999999999996
 50
89.999969
 51
179.999985
  0
LINE
  5
4E8
  8
002
 62
     3
 10
1385.341105
 20
138.793714
 30
0.0
 11
1373.532067
 21
165.550978
 31
0.0
  0
LINE
  5
4E9
  8
002
 62
     3
 10
1373.531427
 20
167.532076
 30
0.0
 11
1371.207758
 21
172.797116
 31
0.0
  0
LINE
  5
4EA
  8
002
 62
     3
 10
1373.531574
 20
173.476189
 30
0.0
 11
1372.434541
 21
175.961882
 31
0.0
  0
ARC
  5
4EB
  8
002
 62
     3
 10
1373.403788
 20
173.766291
 30
0.0
 40
2.399998000000001
 50
86.94278
 51
203.813736
  0
LINE
  5
4EC
  8
002
 62
     3
 10
1373.531809
 20
180.38125
 30
0.0
 11
1373.531809
 21
139.381296
 31
0.0
  0
LINE
  5
4ED
  8
002
 62
     3
 10
1364.531794
 20
182.881235
 30
0.0
 11
1364.531794
 21
136.881311
 31
0.0
  0
LINE
  5
4EE
  8
002
 62
     3
 10
1385.532148
 20
152.230539
 30
0.0
 11
1387.855819
 21
146.965498
 31
0.0
  0
LINE
  5
4EF
  8
002
 62
     3
 10
1385.532017
 20
146.286432
 30
0.0
 11
1386.629051
 21
143.800741
 31
0.0
  0
ARC
  5
4F0
  8
002
 62
     3
 10
1385.659754
 20
145.996256
 30
0.0
 40
2.399999000000001
 50
266.94278
 51
23.813782
  0
LINE
  5
4F1
  8
002
 62
     3
 10
1385.531748
 20
139.381281
 30
0.0
 11
1385.531748
 21
180.38125
 31
0.0
  0
ARC
  5
4F2
  8
002
 62
     3
 10
1384.531748
 20
139.381281
 30
0.0
 40
1.0
 50
269.999969
 51
0.0
  0
LINE
  5
4F3
  8
002
 62
     3
 10
1374.531778
 20
138.381281
 30
0.0
 11
1384.531748
 21
138.381281
 31
0.0
  0
ARC
  5
4F4
  8
002
 62
     3
 10
1374.531778
 20
139.381281
 30
0.0
 40
0.9999999999999971
 50
180.0
 51
269.999969
  0
ARC
  5
4F5
  8
002
 62
     3
 10
1407.096643
 20
160.691675
 30
0.0
 40
37.551865
 50
207.277847
 51
212.10952
  0
LINE
  5
4F6
  8
002
 62
     3
 10
1375.28898
 20
140.731302
 30
0.0
 11
1378.753519
 21
140.731302
 31
0.0
  0
ARC
  5
4F7
  8
002
 62
     3
 10
1376.815268
 20
143.434088
 30
0.0
 40
2.60324
 50
230.846054
 51
261.081894
  0
ARC
  5
4F8
  8
002
 62
     3
 10
1376.811153
 20
143.416906
 30
0.0
 40
2.585629000000002
 50
261.112961
 51
281.361053
  0
ARC
  5
4F9
  8
002
 62
     3
 10
1376.8063
 20
143.433893
 30
0.0
 40
2.603239999999998
 50
281.392136
 51
311.627975
  0
ARC
  5
4FA
  8
002
 62
     3
 10
1376.755823
 20
143.480108
 30
0.0
 40
2.671325000000001
 50
311.778748
 51
50.695221
  0
ARC
  5
4FB
  8
002
 62
     3
 10
1376.804258
 20
143.528456
 30
0.0
 40
2.603240000000003
 50
50.846039
 51
81.081879
  0
ARC
  5
4FC
  8
002
 62
     3
 10
1376.808373
 20
143.545637
 30
0.0
 40
2.585629000000002
 50
81.112946
 51
101.361053
  0
ARC
  5
4FD
  8
002
 62
     3
 10
1376.813226
 20
143.52865
 30
0.0
 40
2.603240000000002
 50
101.392129
 51
131.627968
  0
ARC
  5
4FE
  8
002
 62
     3
 10
1376.863703
 20
143.482435
 30
0.0
 40
2.671325000000001
 50
131.77874
 51
230.695236
  0
ARC
  5
4FF
  8
002
 62
     3
 10
1407.096659
 20
126.270853
 30
0.0
 40
37.55186500000001
 50
147.890446
 51
152.722118
  0
LINE
  5
500
  8
002
 62
     3
 10
1378.753473
 20
146.232736
 30
0.0
 11
1375.28898
 21
146.232736
 31
0.0
  0
ARC
  5
501
  8
002
 62
     3
 10
1411.798258
 20
163.446878
 30
0.0
 40
37.551865
 50
207.287407
 51
212.119133
  0
LINE
  5
502
  8
002
 62
     3
 10
1380.32159
 20
143.48163
 30
0.0
 11
1378.753509
 21
146.231481
 31
0.0
  0
LINE
  5
503
  8
002
 62
     3
 10
1378.753474
 20
140.731535
 30
0.0
 11
1380.321571
 21
143.481661
 31
0.0
  0
LINE
  5
504
  8
002
 62
     3
 10
1380.32165
 20
143.481531
 30
0.0
 11
1379.993662
 21
143.481531
 31
0.0
  0
ARC
  5
505
  8
002
 62
     3
 10
1411.802515
 20
123.52305
 30
0.0
 40
37.551865
 50
147.893833
 51
152.725563
  0
ARC
  5
506
  8
002
 62
     3
 10
1376.78563
 20
143.480432
 30
0.0
 40
1.193060999999998
 50
312.535858
 51
51.450134
  0
ARC
  5
507
  8
002
 62
     3
 10
1376.808493
 20
143.460047
 30
0.0
 40
1.162586000000002
 50
282.148453
 51
312.384811
  0
ARC
  5
508
  8
002
 62
     3
 10
1376.810765
 20
143.452474
 30
0.0
 40
1.154706000000001
 50
261.868683
 51
282.117325
  0
ARC
  5
509
  8
002
 62
     3
 10
1376.812505
 20
143.460188
 30
0.0
 40
1.162588999999998
 50
231.601257
 51
261.83757
  0
ARC
  5
50A
  8
002
 62
     3
 10
1376.833895
 20
143.482111
 30
0.0
 40
1.193060999999998
 50
132.535862
 51
231.450119
  0
ARC
  5
50B
  8
002
 62
     3
 10
1376.811033
 20
143.502497
 30
0.0
 40
1.162585999999999
 50
102.148451
 51
132.384815
  0
ARC
  5
50C
  8
002
 62
     3
 10
1376.808761
 20
143.510069
 30
0.0
 40
1.154706000000002
 50
81.868683
 51
102.117327
  0
ARC
  5
50D
  8
002
 62
     3
 10
1376.807021
 20
143.502355
 30
0.0
 40
1.162588999999999
 50
51.601257
 51
81.837555
  0
LINE
  5
50E
  8
002
 62
     3
 10
1394.531748
 20
182.881235
 30
0.0
 11
1394.531748
 21
136.881311
 31
0.0
  0
LINE
  5
50F
  8
002
 62
     3
 10
1393.531897
 20
183.881378
 30
0.0
 11
1394.531898
 21
182.881377
 31
0.0
  0
LINE
  5
510
  8
002
 62
     3
 10
1408.531717
 20
136.881311
 30
0.0
 11
1408.531717
 21
127.881311
 31
0.0
  0
LINE
  5
511
  8
002
 62
     3
 10
1408.531929
 20
127.88138
 30
0.0
 11
1407.532036
 21
126.881487
 31
0.0
  0
LINE
  5
512
  8
002
 62
     3
 10
1350.53182
 20
127.881319
 30
0.0
 11
1351.531809
 21
126.881327
 31
0.0
  0
LINE
  5
513
  8
002
 62
     3
 10
1350.531794
 20
136.881311
 30
0.0
 11
1350.531794
 21
127.881311
 31
0.0
  0
LINE
  5
514
  8
002
 62
     3
 10
1350.531794
 20
136.881296
 30
0.0
 11
1408.531717
 21
136.881296
 31
0.0
  0
LINE
  5
515
  8
002
 62
     3
 10
1351.531809
 20
126.881296
 30
0.0
 11
1407.532036
 21
126.881296
 31
0.0
  0
LINE
  5
516
  8
002
 62
     3
 10
1387.532053
 20
126.881296
 30
0.0
 11
1387.532053
 21
71.561577
 31
0.0
  0
LINE
  5
517
  8
002
 62
     3
 10
1371.532053
 20
71.561577
 30
0.0
 11
1371.532053
 21
126.881296
 31
0.0
  0
LINE
  5
518
  8
002
 62
    40
 10
1386.382053
 20
71.561577
 30
0.0
 11
1386.382053
 21
126.881296
 31
0.0
  0
LINE
  5
519
  8
002
 62
    40
 10
1372.682053
 20
126.881296
 30
0.0
 11
1372.682053
 21
71.561577
 31
0.0
  0
POLYLINE
  5
51A
  8
002
 62
     3
 66
     1
 10
0.0
 20
0.0
 30
0.0
  0
VERTEX
  5
51C
  8
002
 62
     3
 10
1371.532053
 20
216.221406
 30
0.0
  0
VERTEX
  5
51D
  8
002
 62
     3
 10
1373.532053
 20
213.471406
 30
0.0
  0
VERTEX
  5
51E
  8
002
 62
     3
 10
1375.532053
 20
212.221406
 30
0.0
  0
VERTEX
  5
51F
  8
002
 62
     3
 10
1377.532053
 20
213.471406
 30
0.0
  0
VERTEX
  5
520
  8
002
 62
     3
 10
1379.532053
 20
216.221406
 30
0.0
  0
VERTEX
  5
521
  8
002
 62
     3
 10
1381.532053
 20
218.971406
 30
0.0
  0
VERTEX
  5
522
  8
002
 62
     3
 10
1383.532053
 20
220.221406
 30
0.0
  0
VERTEX
  5
523
  8
002
 62
     3
 10
1385.532053
 20
218.971406
 30
0.0
  0
VERTEX
  5
524
  8
002
 62
     3
 10
1387.532053
 20
216.221406
 30
0.0
  0
SEQEND
  5
51B
  8
002
 62
     3
  0
POLYLINE
  5
525
  8
002
 62
     3
 66
     1
 10
0.0
 20
0.0
 30
0.0
  0
VERTEX
  5
527
  8
002
 62
     3
 10
1371.532053
 20
224.221406
 30
0.0
  0
VERTEX
  5
528
  8
002
 62
     3
 10
1373.532053
 20
221.471406
 30
0.0
  0
VERTEX
  5
529
  8
002
 62
     3
 10
1375.532053
 20
220.221406
 30
0.0
  0
VERTEX
  5
52A
  8
002
 62
     3
 10
1377.532053
 20
221.471406
 30
0.0
  0
VERTEX
  5
52B
  8
002
 62
     3
 10
1379.532053
 20
224.221406
 30
0.0
  0
VERTEX
  5
52C
  8
002
 62
     3
 10
1381.532053
 20
226.971406
 30
0.0
  0
VERTEX
  5
52D
  8
002
 62
     3
 10
1383.532053
 20
228.221406
 30
0.0
  0
VERTEX
  5
52E
  8
002
 62
     3
 10
1385.532053
 20
226.971406
 30
0.0
  0
VERTEX
  5
52F
  8
002
 62
     3
 10
1387.532053
 20
224.221406
 30
0.0
  0
SEQEND
  5
526
  8
002
 62
     3
  0
LINE
  5
530
  8
002
 62
     3
 10
1371.532053
 20
256.561577
 30
0.0
 11
1371.532053
 21
224.221406
 31
0.0
  0
LINE
  5
531
  8
002
 62
     3
 10
1371.532053
 20
216.221406
 30
0.0
 11
1371.532053
 21
183.881235
 31
0.0
  0
LINE
  5
532
  8
002
 62
     3
 10
1387.532053
 20
183.881235
 30
0.0
 11
1387.532053
 21
216.221406
 31
0.0
  0
LINE
  5
533
  8
002
 62
     3
 10
1387.532053
 20
224.221406
 30
0.0
 11
1387.532053
 21
256.561577
 31
0.0
  0
LINE
  5
534
  8
002
 62
    40
 10
1386.382053
 20
183.881235
 30
0.0
 11
1386.382053
 21
217.898878
 31
0.0
  0
LINE
  5
535
  8
002
 62
    40
 10
1386.382053
 20
225.898878
 30
0.0
 11
1386.382053
 21
256.561577
 31
0.0
  0
LINE
  5
536
  8
002
 62
    40
 10
1372.682053
 20
256.561577
 30
0.0
 11
1372.682053
 21
222.543933
 31
0.0
  0
LINE
  5
537
  8
002
 62
    40
 10
1372.682053
 20
214.543933
 30
0.0
 11
1372.682053
 21
183.881235
 31
0.0
  0
LINE
  5
538
  8
002
 62
     3
 10
1716.045174
 20
320.561577
 30
0.0
 11
1716.045174
 21
325.561577
 31
0.0
  0
LINE
  5
539
  8
002
 62
     3
 10
1716.045174
 20
325.561577
 30
0.0
 11
1707.545174
 21
325.561577
 31
0.0
  0
LINE
  5
53A
  8
002
 62
     3
 10
1710.705174
 20
325.561577
 30
0.0
 11
1710.705174
 21
346.561577
 31
0.0
  0
LINE
  5
53B
  8
002
 62
     3
 10
1710.705174
 20
346.561577
 30
0.0
 11
1744.705174
 21
346.561577
 31
0.0
  0
LINE
  5
53C
  8
002
 62
     3
 10
1744.705174
 20
346.561577
 30
0.0
 11
1744.705174
 21
325.561577
 31
0.0
  0
LINE
  5
53D
  8
002
 62
     3
 10
1739.365174
 20
325.561577
 30
0.0
 11
1739.365174
 21
320.561577
 31
0.0
  0
LINE
  5
53E
  8
002
 62
     3
 10
1739.365174
 20
325.561577
 30
0.0
 11
1747.865174
 21
325.561577
 31
0.0
  0
LINE
  5
53F
  8
002
 62
     3
 10
1747.865174
 20
325.561577
 30
0.0
 11
1747.865174
 21
320.561577
 31
0.0
  0
LINE
  5
540
  8
002
 62
     3
 10
1755.205174
 20
320.561577
 30
0.0
 11
1700.205174
 21
320.561577
 31
0.0
  0
LINE
  5
541
  8
002
 62
     3
 10
1700.205174
 20
320.561577
 30
0.0
 11
1700.205174
 21
316.561577
 31
0.0
  0
LINE
  5
542
  8
002
 62
     3
 10
1707.545174
 20
320.561577
 30
0.0
 11
1707.545174
 21
325.561577
 31
0.0
  0
LINE
  5
543
  8
002
  6
CENTER
 62
    40
 10
1743.615174
 20
314.561577
 30
0.0
 11
1743.615174
 21
328.283177
 31
0.0
  0
LINE
  5
544
  8
002
  6
CENTER
 62
    40
 10
1711.795174
 20
314.561577
 30
0.0
 11
1711.795174
 21
328.283177
 31
0.0
  0
LINE
  5
545
  8
002
 62
     3
 10
1735.705174
 20
71.561577
 30
0.0
 11
1719.705174
 21
71.561577
 31
0.0
  0
LINE
  5
546
  8
002
 62
     3
 10
1733.706174
 20
71.561577
 30
0.0
 11
1733.706174
 21
51.561577
 31
0.0
  0
LINE
  5
547
  8
002
 62
     3
 10
1733.706174
 20
51.561577
 30
0.0
 11
1721.706174
 21
51.561577
 31
0.0
  0
LINE
  5
548
  8
002
 62
     3
 10
1721.706174
 20
51.561577
 30
0.0
 11
1721.706174
 21
71.561577
 31
0.0
  0
ARC
  5
549
  8
002
 62
    40
 10
1730.457438
 20
176.282106
 30
0.0
 40
1.512089
 50
132.101429
 51
231.016998
  0
ARC
  5
54A
  8
002
 62
    40
 10
1730.425892
 20
176.317735
 30
0.0
 40
1.463541
 50
81.435059
 51
101.68337
  0
ARC
  5
54B
  8
002
 62
    40
 10
1730.430153
 20
176.254561
 30
0.0
 40
1.473517999999999
 50
231.167908
 51
261.403961
  0
ARC
  5
54C
  8
002
 62
    40
 10
1730.425073
 20
176.254423
 30
0.0
 40
1.473517
 50
281.714478
 51
311.950531
  0
ARC
  5
54D
  8
002
 62
    40
 10
1730.427877
 20
176.244815
 30
0.0
 40
1.463541
 50
261.435059
 51
281.68338
  0
ARC
  5
54E
  8
002
 62
    40
 10
1730.39633
 20
176.280443
 30
0.0
 40
1.512089
 50
312.101425
 51
51.016998
  0
ARC
  5
54F
  8
002
 62
    40
 10
1730.423615
 20
176.307988
 30
0.0
 40
1.473518
 50
51.167908
 51
81.403961
  0
ARC
  5
550
  8
002
 62
    40
 10
1730.428695
 20
176.308126
 30
0.0
 40
1.473518
 50
101.714477
 51
131.950531
  0
ARC
  5
551
  8
002
 62
    40
 10
1724.984666
 20
143.508108
 30
0.0
 40
1.473534
 50
101.773849
 51
132.009747
  0
ARC
  5
552
  8
002
 62
    40
 10
1725.013416
 20
143.482134
 30
0.0
 40
1.512082000000001
 50
132.160503
 51
231.076859
  0
ARC
  5
553
  8
002
 62
    40
 10
1724.986178
 20
143.45458
 30
0.0
 40
1.473538000000003
 50
231.227692
 51
261.463562
  0
ARC
  5
554
  8
002
 62
    40
 10
1724.981102
 20
143.454435
 30
0.0
 40
1.473533999999997
 50
281.773849
 51
312.00975
  0
ARC
  5
555
  8
002
 62
    40
 10
1724.983913
 20
143.444837
 30
0.0
 40
1.463568000000003
 50
261.494629
 51
281.742783
  0
ARC
  5
556
  8
002
 62
    40
 10
1724.952352
 20
143.480409
 30
0.0
 40
1.512082000000001
 50
312.160507
 51
51.076843
  0
ARC
  5
557
  8
002
 62
    40
 10
1724.97959
 20
143.507963
 30
0.0
 40
1.473538000000003
 50
51.227692
 51
81.463562
  0
ARC
  5
558
  8
002
 62
    40
 10
1724.981854
 20
143.517706
 30
0.0
 40
1.463568000000001
 50
81.494629
 51
101.742781
  0
LINE
  5
559
  8
002
  6
CENTER
 62
    40
 10
1705.704915
 20
138.881311
 30
0.0
 11
1705.704915
 21
124.881327
 31
0.0
  0
LINE
  5
55A
  8
002
  6
CENTER
 62
    40
 10
1749.704838
 20
138.881311
 30
0.0
 11
1749.704838
 21
124.881327
 31
0.0
  0
LINE
  5
55B
  8
002
 62
     3
 10
1713.704915
 20
183.881235
 30
0.0
 11
1741.704869
 21
183.881235
 31
0.0
  0
LINE
  5
55C
  8
002
 62
     3
 10
1713.705024
 20
183.881347
 30
0.0
 11
1712.705131
 21
182.881454
 31
0.0
  0
ARC
  5
55D
  8
002
 62
     3
 10
1730.402735
 20
176.282023
 30
0.0
 40
1.193062
 50
308.767029
 51
47.680603
  0
ARC
  5
55E
  8
002
 62
     3
 10
1730.428237
 20
176.260046
 30
0.0
 40
1.162575
 50
227.831787
 51
258.068222
  0
ARC
  5
55F
  8
002
 62
     3
 10
1730.424219
 20
176.260171
 30
0.0
 40
1.162575
 50
278.379395
 51
308.615814
  0
ARC
  5
560
  8
002
 62
     3
 10
1730.425991
 20
176.252458
 30
0.0
 40
1.154686
 50
258.099411
 51
278.348206
  0
ARC
  5
561
  8
002
 62
     3
 10
1730.451033
 20
176.280526
 30
0.0
 40
1.193061
 50
128.767052
 51
227.680588
  0
ARC
  5
562
  8
002
 62
     3
 10
1730.429549
 20
176.302378
 30
0.0
 40
1.162575
 50
98.379394
 51
128.615829
  0
ARC
  5
563
  8
002
 62
     3
 10
1730.427778
 20
176.310091
 30
0.0
 40
1.154686000000001
 50
78.099396
 51
98.348207
  0
ARC
  5
564
  8
002
 62
     3
 10
1730.425532
 20
176.302503
 30
0.0
 40
1.162575
 50
47.831787
 51
78.068237
  0
ARC
  5
565
  8
002
 62
     3
 10
1730.421384
 20
176.32848
 30
0.0
 40
2.60322
 50
50.836029
 51
81.07196
  0
ARC
  5
566
  8
002
 62
     3
 10
1730.425505
 20
176.34567
 30
0.0
 40
2.585599
 50
81.103058
 51
101.351277
  0
ARC
  5
567
  8
002
 62
     3
 10
1730.430358
 20
176.328673
 30
0.0
 40
2.603219000000001
 50
101.382368
 51
131.618317
  0
ARC
  5
568
  8
002
 62
     3
 10
1730.480848
 20
176.282431
 30
0.0
 40
2.671333
 50
131.769173
 51
230.68515
  0
ARC
  5
569
  8
002
 62
     3
 10
1730.432384
 20
176.234069
 30
0.0
 40
2.603219000000001
 50
230.836014
 51
261.071976
  0
ARC
  5
56A
  8
002
 62
     3
 10
1730.428264
 20
176.216879
 30
0.0
 40
2.585599
 50
261.103058
 51
281.351273
  0
ARC
  5
56B
  8
002
 62
     3
 10
1730.423411
 20
176.233877
 30
0.0
 40
2.603218999999999
 50
281.38237
 51
311.618317
  0
ARC
  5
56C
  8
002
 62
     3
 10
1730.37292
 20
176.280119
 30
0.0
 40
2.671333000000001
 50
311.769165
 51
50.68515
  0
ARC
  5
56D
  8
002
 62
     3
 10
1700.140004
 20
159.070856
 30
0.0
 40
37.551865
 50
27.277893
 51
32.109558
  0
ARC
  5
56E
  8
002
 62
     3
 10
1700.139988
 20
193.491678
 30
0.0
 40
37.551865
 50
327.890488
 51
332.722153
  0
LINE
  5
56F
  8
002
 62
     3
 10
1728.483204
 20
173.532648
 30
0.0
 11
1731.947697
 21
173.532648
 31
0.0
  0
ARC
  5
570
  8
002
 62
     3
 10
1695.438389
 20
156.315653
 30
0.0
 40
37.551865
 50
27.287445
 51
32.119171
  0
LINE
  5
571
  8
002
 62
     3
 10
1726.915198
 20
176.281062
 30
0.0
 11
1728.48328
 21
173.53121
 31
0.0
  0
ARC
  5
572
  8
002
 62
     3
 10
1695.434132
 20
196.239481
 30
0.0
 40
37.551865
 50
327.89386
 51
332.725601
  0
LINE
  5
573
  8
002
 62
     3
 10
1728.483327
 20
179.031261
 30
0.0
 11
1726.91523
 21
176.281137
 31
0.0
  0
LINE
  5
574
  8
002
 62
     3
 10
1726.915059
 20
176.281122
 30
0.0
 11
1727.243046
 21
176.281122
 31
0.0
  0
LINE
  5
575
  8
002
 62
     3
 10
1731.947667
 20
179.031244
 30
0.0
 11
1728.483128
 21
179.031244
 31
0.0
  0
ARC
  5
576
  8
002
 62
     3
 10
1732.704884
 20
180.38125
 30
0.0
 40
1.0
 50
0.0
 51
89.999969
  0
LINE
  5
577
  8
002
 62
     3
 10
1732.704884
 20
181.38125
 30
0.0
 11
1722.70493
 21
181.38125
 31
0.0
  0
LINE
  5
578
  8
002
 62
     3
 10
1721.895592
 20
180.968902
 30
0.0
 11
1733.704628
 21
154.211637
 31
0.0
  0
ARC
  5
579
  8
002
 62
     3
 10
1722.704915
 20
180.38125
 30
0.0
 40
0.9999999999999996
 50
89.999969
 51
179.999985
  0
LINE
  5
57A
  8
002
 62
     3
 10
1733.514226
 20
138.793714
 30
0.0
 11
1721.705188
 21
165.550978
 31
0.0
  0
LINE
  5
57B
  8
002
 62
     3
 10
1721.704548
 20
167.532076
 30
0.0
 11
1719.380879
 21
172.797116
 31
0.0
  0
LINE
  5
57C
  8
002
 62
     3
 10
1721.704695
 20
173.476189
 30
0.0
 11
1720.607662
 21
175.961882
 31
0.0
  0
ARC
  5
57D
  8
002
 62
     3
 10
1721.576909
 20
173.766291
 30
0.0
 40
2.399998000000001
 50
86.94278
 51
203.813736
  0
LINE
  5
57E
  8
002
 62
     3
 10
1721.70493
 20
180.38125
 30
0.0
 11
1721.70493
 21
139.381296
 31
0.0
  0
LINE
  5
57F
  8
002
 62
     3
 10
1712.704915
 20
182.881235
 30
0.0
 11
1712.704915
 21
136.881311
 31
0.0
  0
LINE
  5
580
  8
002
 62
     3
 10
1733.705269
 20
152.230539
 30
0.0
 11
1736.02894
 21
146.965498
 31
0.0
  0
LINE
  5
581
  8
002
 62
     3
 10
1733.705138
 20
146.286432
 30
0.0
 11
1734.802172
 21
143.800741
 31
0.0
  0
ARC
  5
582
  8
002
 62
     3
 10
1733.832875
 20
145.996256
 30
0.0
 40
2.399999000000001
 50
266.94278
 51
23.813782
  0
LINE
  5
583
  8
002
 62
     3
 10
1733.704869
 20
139.381281
 30
0.0
 11
1733.704869
 21
180.38125
 31
0.0
  0
ARC
  5
584
  8
002
 62
     3
 10
1732.704869
 20
139.381281
 30
0.0
 40
1.0
 50
269.999969
 51
0.0
  0
LINE
  5
585
  8
002
 62
     3
 10
1722.704899
 20
138.381281
 30
0.0
 11
1732.704869
 21
138.381281
 31
0.0
  0
ARC
  5
586
  8
002
 62
     3
 10
1722.704899
 20
139.381281
 30
0.0
 40
0.9999999999999971
 50
180.0
 51
269.999969
  0
ARC
  5
587
  8
002
 62
     3
 10
1755.269764
 20
160.691675
 30
0.0
 40
37.551865
 50
207.277847
 51
212.10952
  0
LINE
  5
588
  8
002
 62
     3
 10
1723.462101
 20
140.731302
 30
0.0
 11
1726.92664
 21
140.731302
 31
0.0
  0
ARC
  5
589
  8
002
 62
     3
 10
1724.988389
 20
143.434088
 30
0.0
 40
2.60324
 50
230.846054
 51
261.081894
  0
ARC
  5
58A
  8
002
 62
     3
 10
1724.984274
 20
143.416906
 30
0.0
 40
2.585629000000002
 50
261.112961
 51
281.361053
  0
ARC
  5
58B
  8
002
 62
     3
 10
1724.979421
 20
143.433893
 30
0.0
 40
2.603239999999998
 50
281.392136
 51
311.627975
  0
ARC
  5
58C
  8
002
 62
     3
 10
1724.928944
 20
143.480108
 30
0.0
 40
2.671325000000001
 50
311.778748
 51
50.695221
  0
ARC
  5
58D
  8
002
 62
     3
 10
1724.977379
 20
143.528456
 30
0.0
 40
2.603240000000003
 50
50.846039
 51
81.081879
  0
ARC
  5
58E
  8
002
 62
     3
 10
1724.981494
 20
143.545637
 30
0.0
 40
2.585629000000002
 50
81.112946
 51
101.361053
  0
ARC
  5
58F
  8
002
 62
     3
 10
1724.986347
 20
143.52865
 30
0.0
 40
2.603240000000002
 50
101.392129
 51
131.627968
  0
ARC
  5
590
  8
002
 62
     3
 10
1725.036824
 20
143.482435
 30
0.0
 40
2.671325000000001
 50
131.77874
 51
230.695236
  0
ARC
  5
591
  8
002
 62
     3
 10
1755.26978
 20
126.270853
 30
0.0
 40
37.55186500000001
 50
147.890446
 51
152.722118
  0
LINE
  5
592
  8
002
 62
     3
 10
1726.926594
 20
146.232736
 30
0.0
 11
1723.462101
 21
146.232736
 31
0.0
  0
ARC
  5
593
  8
002
 62
     3
 10
1759.971379
 20
163.446878
 30
0.0
 40
37.551865
 50
207.287407
 51
212.119133
  0
LINE
  5
594
  8
002
 62
     3
 10
1728.494711
 20
143.48163
 30
0.0
 11
1726.92663
 21
146.231481
 31
0.0
  0
LINE
  5
595
  8
002
 62
     3
 10
1726.926595
 20
140.731535
 30
0.0
 11
1728.494692
 21
143.481661
 31
0.0
  0
LINE
  5
596
  8
002
 62
     3
 10
1728.494771
 20
143.481531
 30
0.0
 11
1728.166783
 21
143.481531
 31
0.0
  0
ARC
  5
597
  8
002
 62
     3
 10
1759.975636
 20
123.52305
 30
0.0
 40
37.551865
 50
147.893833
 51
152.725563
  0
ARC
  5
598
  8
002
 62
     3
 10
1724.958751
 20
143.480432
 30
0.0
 40
1.193060999999998
 50
312.535858
 51
51.450134
  0
ARC
  5
599
  8
002
 62
     3
 10
1724.981614
 20
143.460047
 30
0.0
 40
1.162586000000002
 50
282.148453
 51
312.384811
  0
ARC
  5
59A
  8
002
 62
     3
 10
1724.983886
 20
143.452474
 30
0.0
 40
1.154706000000001
 50
261.868683
 51
282.117325
  0
ARC
  5
59B
  8
002
 62
     3
 10
1724.985626
 20
143.460188
 30
0.0
 40
1.162588999999998
 50
231.601257
 51
261.83757
  0
ARC
  5
59C
  8
002
 62
     3
 10
1725.007016
 20
143.482111
 30
0.0
 40
1.193060999999998
 50
132.535862
 51
231.450119
  0
ARC
  5
59D
  8
002
 62
     3
 10
1724.984154
 20
143.502497
 30
0.0
 40
1.162585999999999
 50
102.148451
 51
132.384815
  0
ARC
  5
59E
  8
002
 62
     3
 10
1724.981882
 20
143.510069
 30
0.0
 40
1.154706000000002
 50
81.868683
 51
102.117327
  0
ARC
  5
59F
  8
002
 62
     3
 10
1724.980142
 20
143.502355
 30
0.0
 40
1.162588999999999
 50
51.601257
 51
81.837555
  0
LINE
  5
5A0
  8
002
 62
     3
 10
1742.704869
 20
182.881235
 30
0.0
 11
1742.704869
 21
136.881311
 31
0.0
  0
LINE
  5
5A1
  8
002
 62
     3
 10
1741.705018
 20
183.881378
 30
0.0
 11
1742.705019
 21
182.881377
 31
0.0
  0
LINE
  5
5A2
  8
002
 62
     3
 10
1756.704838
 20
136.881311
 30
0.0
 11
1756.704838
 21
127.881311
 31
0.0
  0
LINE
  5
5A3
  8
002
 62
     3
 10
1756.70505
 20
127.88138
 30
0.0
 11
1755.705157
 21
126.881487
 31
0.0
  0
LINE
  5
5A4
  8
002
 62
     3
 10
1698.704941
 20
127.881319
 30
0.0
 11
1699.70493
 21
126.881327
 31
0.0
  0
LINE
  5
5A5
  8
002
 62
     3
 10
1698.704915
 20
136.881311
 30
0.0
 11
1698.704915
 21
127.881311
 31
0.0
  0
LINE
  5
5A6
  8
002
 62
     3
 10
1698.704915
 20
136.881296
 30
0.0
 11
1756.704838
 21
136.881296
 31
0.0
  0
LINE
  5
5A7
  8
002
 62
     3
 10
1699.70493
 20
126.881296
 30
0.0
 11
1755.705157
 21
126.881296
 31
0.0
  0
LINE
  5
5A8
  8
002
 62
     3
 10
1735.705174
 20
126.881296
 30
0.0
 11
1735.705174
 21
71.561577
 31
0.0
  0
LINE
  5
5A9
  8
002
 62
     3
 10
1719.705174
 20
71.561577
 30
0.0
 11
1719.705174
 21
126.881296
 31
0.0
  0
LINE
  5
5AA
  8
002
 62
    40
 10
1734.555174
 20
71.561577
 30
0.0
 11
1734.555174
 21
126.881296
 31
0.0
  0
LINE
  5
5AB
  8
002
 62
    40
 10
1720.855174
 20
126.881296
 30
0.0
 11
1720.855174
 21
71.561577
 31
0.0
  0
POLYLINE
  5
5AC
  8
002
 62
     3
 66
     1
 10
0.0
 20
0.0
 30
0.0
  0
VERTEX
  5
5AE
  8
002
 62
     3
 10
1719.705174
 20
216.221406
 30
0.0
  0
VERTEX
  5
5AF
  8
002
 62
     3
 10
1721.705174
 20
213.471406
 30
0.0
  0
VERTEX
  5
5B0
  8
002
 62
     3
 10
1723.705174
 20
212.221406
 30
0.0
  0
VERTEX
  5
5B1
  8
002
 62
     3
 10
1725.705174
 20
213.471406
 30
0.0
  0
VERTEX
  5
5B2
  8
002
 62
     3
 10
1727.705174
 20
216.221406
 30
0.0
  0
VERTEX
  5
5B3
  8
002
 62
     3
 10
1729.705174
 20
218.971406
 30
0.0
  0
VERTEX
  5
5B4
  8
002
 62
     3
 10
1731.705174
 20
220.221406
 30
0.0
  0
VERTEX
  5
5B5
  8
002
 62
     3
 10
1733.705174
 20
218.971406
 30
0.0
  0
VERTEX
  5
5B6
  8
002
 62
     3
 10
1735.705174
 20
216.221406
 30
0.0
  0
SEQEND
  5
5AD
  8
002
 62
     3
  0
POLYLINE
  5
5B7
  8
002
 62
     3
 66
     1
 10
0.0
 20
0.0
 30
0.0
  0
VERTEX
  5
5B9
  8
002
 62
     3
 10
1719.705174
 20
224.221406
 30
0.0
  0
VERTEX
  5
5BA
  8
002
 62
     3
 10
1721.705174
 20
221.471406
 30
0.0
  0
VERTEX
  5
5BB
  8
002
 62
     3
 10
1723.705174
 20
220.221406
 30
0.0
  0
VERTEX
  5
5BC
  8
002
 62
     3
 10
1725.705174
 20
221.471406
 30
0.0
  0
VERTEX
  5
5BD
  8
002
 62
     3
 10
1727.705174
 20
224.221406
 30
0.0
  0
VERTEX
  5
5BE
  8
002
 62
     3
 10
1729.705174
 20
226.971406
 30
0.0
  0
VERTEX
  5
5BF
  8
002
 62
     3
 10
1731.705174
 20
228.221406
 30
0.0
  0
VERTEX
  5
5C0
  8
002
 62
     3
 10
1733.705174
 20
226.971406
 30
0.0
  0
VERTEX
  5
5C1
  8
002
 62
     3
 10
1735.705174
 20
224.221406
 30
0.0
  0
SEQEND
  5
5B8
  8
002
 62
     3
  0
LINE
  5
5C2
  8
002
 62
     3
 10
1719.705174
 20
256.561577
 30
0.0
 11
1719.705174
 21
224.221406
 31
0.0
  0
LINE
  5
5C3
  8
002
 62
     3
 10
1719.705174
 20
216.221406
 30
0.0
 11
1719.705174
 21
183.881235
 31
0.0
  0
LINE
  5
5C4
  8
002
 62
     3
 10
1735.705174
 20
183.881235
 30
0.0
 11
1735.705174
 21
216.221406
 31
0.0
  0
LINE
  5
5C5
  8
002
 62
     3
 10
1735.705174
 20
224.221406
 30
0.0
 11
1735.705174
 21
256.561577
 31
0.0
  0
LINE
  5
5C6
  8
002
 62
    40
 10
1734.555174
 20
183.881235
 30
0.0
 11
1734.555174
 21
217.898878
 31
0.0
  0
LINE
  5
5C7
  8
002
 62
    40
 10
1734.555174
 20
225.898878
 30
0.0
 11
1734.555174
 21
256.561577
 31
0.0
  0
LINE
  5
5C8
  8
002
 62
    40
 10
1720.855174
 20
256.561577
 30
0.0
 11
1720.855174
 21
222.543933
 31
0.0
  0
LINE
  5
5C9
  8
002
 62
    40
 10
1720.855174
 20
214.543933
 30
0.0
 11
1720.855174
 21
183.881235
 31
0.0
  0
LINE
  5
5CA
  8
003
  6
CENTER
 62
    40
 10
1379.532053
 20
51.561577
 30
0.0
 11
1379.532053
 21
351.606691
 31
0.0
  0
LINE
  5
5CB
  8
002
  6
CENTER
 62
    40
 10
1727.705174
 20
351.606691
 30
0.0
 11
1727.705174
 21
51.561577
 31
0.0
  0
CIRCLE
  5
5CC
  8
001
 62
     3
 10
1542.729053
 20
517.608021
 30
0.0
 40
17.0
  0
CIRCLE
  5
5CD
  8
002
 62
     3
 10
1526.819153
 20
533.517921
 30
0.0
 40
4.25
  0
LINE
  5
5CE
  8
002
 62
     3
 10
1525.664453
 20
535.517921
 30
0.0
 11
1527.973853
 21
535.517921
 31
0.0
  0
LINE
  5
5CF
  8
002
 62
     3
 10
1527.973853
 20
535.517921
 30
0.0
 11
1529.128553
 21
533.517921
 31
0.0
  0
LINE
  5
5D0
  8
002
 62
     3
 10
1529.128553
 20
533.517921
 30
0.0
 11
1527.973853
 21
531.517921
 31
0.0
  0
LINE
  5
5D1
  8
002
 62
     3
 10
1527.973853
 20
531.517921
 30
0.0
 11
1525.664453
 21
531.517921
 31
0.0
  0
LINE
  5
5D2
  8
002
 62
     3
 10
1525.664453
 20
531.517921
 30
0.0
 11
1524.509753
 21
533.517921
 31
0.0
  0
LINE
  5
5D3
  8
002
 62
     3
 10
1524.509753
 20
533.517921
 30
0.0
 11
1525.664453
 21
535.517921
 31
0.0
  0
CIRCLE
  5
5D4
  8
002
 62
     3
 10
1542.729053
 20
517.608021
 30
0.0
 40
27.5
  0
CIRCLE
  5
5D5
  8
002
 62
     3
 10
1526.819153
 20
501.698121
 30
0.0
 40
4.25
  0
LINE
  5
5D6
  8
002
 62
     3
 10
1526.819153
 20
504.007521
 30
0.0
 11
1524.819153
 21
502.852821
 31
0.0
  0
LINE
  5
5D7
  8
002
 62
     3
 10
1524.819153
 20
502.852821
 30
0.0
 11
1524.819153
 21
500.543421
 31
0.0
  0
LINE
  5
5D8
  8
002
 62
     3
 10
1524.819153
 20
500.543421
 30
0.0
 11
1526.819153
 21
499.388721
 31
0.0
  0
LINE
  5
5D9
  8
002
 62
     3
 10
1526.819153
 20
499.388721
 30
0.0
 11
1528.819153
 21
500.543421
 31
0.0
  0
LINE
  5
5DA
  8
002
 62
     3
 10
1528.819153
 20
500.543421
 30
0.0
 11
1528.819153
 21
502.852821
 31
0.0
  0
LINE
  5
5DB
  8
002
 62
     3
 10
1528.819153
 20
502.852821
 30
0.0
 11
1526.819153
 21
504.007521
 31
0.0
  0
LINE
  5
5DC
  8
002
 62
     3
 10
1556.329553
 20
501.698121
 30
0.0
 11
1557.484253
 21
499.698121
 31
0.0
  0
LINE
  5
5DD
  8
002
 62
     3
 10
1557.484253
 20
499.698121
 30
0.0
 11
1559.793653
 21
499.698121
 31
0.0
  0
LINE
  5
5DE
  8
002
 62
     3
 10
1559.793653
 20
499.698121
 30
0.0
 11
1560.948353
 21
501.698121
 31
0.0
  0
LINE
  5
5DF
  8
002
 62
     3
 10
1560.948353
 20
501.698121
 30
0.0
 11
1559.793653
 21
503.698121
 31
0.0
  0
LINE
  5
5E0
  8
002
 62
     3
 10
1559.793653
 20
503.698121
 30
0.0
 11
1557.484253
 21
503.698121
 31
0.0
  0
LINE
  5
5E1
  8
002
 62
     3
 10
1557.484253
 20
503.698121
 30
0.0
 11
1556.329553
 21
501.698121
 31
0.0
  0
CIRCLE
  5
5E2
  8
002
 62
     3
 10
1558.638953
 20
501.698121
 30
0.0
 40
4.25
  0
LINE
  5
5E3
  8
002
 62
     3
 10
1558.638953
 20
531.208521
 30
0.0
 11
1560.638953
 21
532.363221
 31
0.0
  0
LINE
  5
5E4
  8
002
 62
     3
 10
1560.638953
 20
532.363221
 30
0.0
 11
1560.638953
 21
534.672621
 31
0.0
  0
LINE
  5
5E5
  8
002
 62
     3
 10
1560.638953
 20
534.672621
 30
0.0
 11
1558.638953
 21
535.827321
 31
0.0
  0
LINE
  5
5E6
  8
002
 62
     3
 10
1558.638953
 20
535.827321
 30
0.0
 11
1556.638953
 21
534.672621
 31
0.0
  0
LINE
  5
5E7
  8
002
 62
     3
 10
1556.638953
 20
534.672621
 30
0.0
 11
1556.638953
 21
532.363221
 31
0.0
  0
LINE
  5
5E8
  8
002
 62
     3
 10
1556.638953
 20
532.363221
 30
0.0
 11
1558.638953
 21
531.208521
 31
0.0
  0
LINE
  5
5E9
  8
002
  6
CENTER
 62
    40
 10
1532.482053
 20
507.361021
 30
0.0
 11
1521.712453
 21
496.591421
 31
0.0
  0
CIRCLE
  5
5EA
  8
002
  6
CENTER
 62
    40
 10
1542.729053
 20
517.608021
 30
0.0
 40
22.5
  0
LINE
  5
5EB
  8
002
  6
CENTER
 62
    40
 10
1563.745653
 20
496.591421
 30
0.0
 11
1552.976053
 21
507.361021
 31
0.0
  0
LINE
  5
5EC
  8
002
  6
CENTER
 62
    40
 10
1552.976053
 20
527.855021
 30
0.0
 11
1563.745653
 21
538.624621
 31
0.0
  0
LINE
  5
5ED
  8
002
  6
CENTER
 62
    40
 10
1521.712453
 20
538.624621
 30
0.0
 11
1532.482053
 21
527.855021
 31
0.0
  0
CIRCLE
  5
5EE
  8
002
 62
     3
 10
1558.638953
 20
533.517921
 30
0.0
 40
4.25
  0
LINE
  5
5EF
  8
002
 62
     3
 10
1577.229053
 20
408.402521
 30
0.0
 11
1576.979053
 21
408.652521
 31
0.0
  0
LINE
  5
5F0
  8
002
 62
     3
 10
1576.979053
 20
408.652521
 30
0.0
 11
1572.479053
 21
408.652521
 31
0.0
  0
LINE
  5
5F1
  8
002
 62
     3
 10
1572.479053
 20
408.652521
 30
0.0
 11
1572.229053
 21
408.402521
 31
0.0
  0
LINE
  5
5F2
  8
002
 62
     3
 10
1572.229053
 20
408.402521
 30
0.0
 11
1572.229053
 21
403.902521
 31
0.0
  0
LINE
  5
5F3
  8
002
 62
     3
 10
1572.229053
 20
403.902521
 30
0.0
 11
1572.479053
 21
403.652521
 31
0.0
  0
LINE
  5
5F4
  8
002
 62
     3
 10
1572.479053
 20
403.652521
 30
0.0
 11
1576.979053
 21
403.652521
 31
0.0
  0
LINE
  5
5F5
  8
002
 62
     3
 10
1576.979053
 20
403.652521
 30
0.0
 11
1577.229053
 21
403.902521
 31
0.0
  0
LINE
  5
5F6
  8
002
 62
     3
 10
1577.229053
 20
403.902521
 30
0.0
 11
1577.229053
 21
408.402521
 31
0.0
  0
ARC
  5
5F7
  8
002
 62
     3
 10
1577.029053
 20
403.852521
 30
0.0
 40
0.1999999999999318
 50
270.0
 51
0.0
  0
ARC
  5
5F8
  8
002
 62
     3
 10
1572.429053
 20
403.852521
 30
0.0
 40
0.1999999999999318
 50
180.0
 51
270.0
  0
ARC
  5
5F9
  8
002
 62
     3
 10
1574.729053
 20
399.152521
 30
0.0
 40
7.500030347271937
 50
109.471139
 51
70.528861
  0
LINE
  5
5FA
  8
002
  6
CENTER
 62
    40
 10
1574.729053
 20
389.029221
 30
0.0
 11
1574.729053
 21
410.964221
 31
0.0
  0
LINE
  5
5FB
  8
002
  6
CENTER
 62
    40
 10
1563.930153
 20
399.152521
 30
0.0
 11
1586.463453
 21
399.152521
 31
0.0
  0
LINE
  5
5FC
  8
002
  6
CENTER
 62
    40
 10
1542.729053
 20
-53.040125
 30
0.0
 11
1542.729053
 21
9.269975
 31
0.0
  0
LINE
  5
5FD
  8
002
  6
CENTER
 62
    40
 10
1512.038913
 20
-21.818925
 30
0.0
 11
1571.729023
 21
-21.818925
 31
0.0
  0
LINE
  5
5FE
  8
002
  6
HIDDEN
 62
    40
 10
1536.729068
 20
-35.566484
 30
0.0
 11
1536.729068
 21
-41.518633
 31
0.0
  0
LINE
  5
5FF
  8
002
  6
HIDDEN
 62
    40
 10
1548.729053
 20
-35.566484
 30
0.0
 11
1548.729053
 21
-41.518633
 31
0.0
  0
LINE
  5
600
  8
002
  6
HIDDEN
 62
    40
 10
1536.729068
 20
-41.518633
 30
0.0
 11
1548.729053
 21
-41.518633
 31
0.0
  0
LINE
  5
601
  8
002
  6
HIDDEN
 62
    40
 10
1534.151065
 20
-34.124101
 30
0.0
 11
1534.151065
 21
-35.718584
 31
0.0
  0
LINE
  5
602
  8
002
  6
HIDDEN
 62
    40
 10
1551.307041
 20
-35.718584
 30
0.0
 11
1551.307041
 21
-34.124101
 31
0.0
  0
LINE
  5
603
  8
002
  6
HIDDEN
 62
    40
 10
1548.729099
 20
-8.071367
 30
0.0
 11
1548.729099
 21
-2.119218
 31
0.0
  0
LINE
  5
604
  8
002
  6
HIDDEN
 62
    40
 10
1536.729114
 20
-8.071352
 30
0.0
 11
1536.729114
 21
-2.119203
 31
0.0
  0
LINE
  5
605
  8
002
  6
HIDDEN
 62
    40
 10
1548.729053
 20
-2.119264
 30
0.0
 11
1536.729068
 21
-2.119264
 31
0.0
  0
LINE
  5
606
  8
002
  6
HIDDEN
 62
    40
 10
1551.307102
 20
-9.51375
 30
0.0
 11
1551.307102
 21
-7.919267
 31
0.0
  0
LINE
  5
607
  8
002
  6
HIDDEN
 62
    40
 10
1534.151126
 20
-7.919252
 30
0.0
 11
1534.151126
 21
-9.513734
 31
0.0
  0
LINE
  5
608
  8
002
  6
HIDDEN
 62
    40
 10
1543.128415
 20
-4.040887
 30
0.0
 11
1543.393831
 21
-5.716653
 31
0.0
  0
LINE
  5
609
  8
002
  6
HIDDEN
 62
    40
 10
1537.121001
 20
-6.710184
 30
0.0
 11
1543.393838
 21
-5.716661
 31
0.0
  0
LINE
  5
60A
  8
002
  6
HIDDEN
 62
    40
 10
1537.327095
 20
-4.652582
 30
0.0
 11
1542.561936
 21
-3.823465
 31
0.0
  0
LINE
  5
60B
  8
002
  6
HIDDEN
 62
    40
 10
1542.561978
 20
-3.823473
 30
0.0
 11
1543.128442
 21
-4.040918
 31
0.0
  0
LINE
  5
60C
  8
002
  6
HIDDEN
 62
    40
 10
1541.560208
 20
-4.28927
 30
0.0
 11
1541.825623
 21
-5.965036
 31
0.0
  0
LINE
  5
60D
  8
002
  6
HIDDEN
 62
    40
 10
1537.121003
 20
-6.710191
 30
0.0
 11
1536.855588
 21
-5.034425
 31
0.0
  0
LINE
  5
60E
  8
002
  6
HIDDEN
 62
    40
 10
1536.855582
 20
-5.034433
 30
0.0
 11
1537.327128
 21
-4.652582
 31
0.0
  0
LINE
  5
60F
  8
002
  6
HIDDEN
 62
    40
 10
1538.68921
 20
-6.461809
 30
0.0
 11
1538.423795
 21
-4.786043
 31
0.0
  0
LINE
  5
610
  8
002
  6
HIDDEN
 62
    40
 10
1542.32973
 20
-39.596902
 30
0.0
 11
1542.064317
 21
-37.921152
 31
0.0
  0
LINE
  5
611
  8
002
  6
HIDDEN
 62
    40
 10
1548.33715
 20
-36.927614
 30
0.0
 11
1542.064313
 21
-37.921136
 31
0.0
  0
LINE
  5
612
  8
002
  6
HIDDEN
 62
    40
 10
1548.131009
 20
-38.985216
 30
0.0
 11
1542.896182
 21
-39.814325
 31
0.0
  0
LINE
  5
613
  8
002
  6
HIDDEN
 62
    40
 10
1542.896187
 20
-39.81434
 30
0.0
 11
1542.329722
 21
-39.596895
 31
0.0
  0
LINE
  5
614
  8
002
  6
HIDDEN
 62
    40
 10
1543.897937
 20
-39.34852
 30
0.0
 11
1543.632524
 21
-37.672769
 31
0.0
  0
LINE
  5
615
  8
002
  6
HIDDEN
 62
    40
 10
1548.337144
 20
-36.927621
 30
0.0
 11
1548.602558
 21
-38.603372
 31
0.0
  0
LINE
  5
616
  8
002
  6
HIDDEN
 62
    40
 10
1548.602585
 20
-38.60338
 30
0.0
 11
1548.13104
 21
-38.985231
 31
0.0
  0
LINE
  5
617
  8
002
  6
HIDDEN
 62
    40
 10
1546.768937
 20
-37.175996
 30
0.0
 11
1547.03435
 21
-38.851747
 31
0.0
  0
CIRCLE
  5
618
  8
002
 62
     3
 10
1542.729053
 20
-21.818925
 30
0.0
 40
7.999998000000005
  0
CIRCLE
  5
619
  8
002
 62
     3
 10
1542.729053
 20
-21.818925
 30
0.0
 40
8.599998
  0
CIRCLE
  5
61A
  8
002
  6
HIDDEN
 62
    40
 10
1542.729053
 20
-21.818925
 30
0.0
 40
14.99999800000001
  0
ARC
  5
61B
  8
002
  6
HIDDEN
 62
    40
 10
1542.729053
 20
-21.818925
 30
0.0
 40
15.8
 50
247.682022
 51
292.317963
  0
ARC
  5
61C
  8
002
  6
HIDDEN
 62
    40
 10
1539.151065
 20
-35.718584
 30
0.0
 40
4.999998999999998
 50
180.0
 51
241.026825
  0
ARC
  5
61D
  8
002
  6
HIDDEN
 62
    40
 10
1546.307041
 20
-35.718584
 30
0.0
 40
4.999996000000001
 50
298.973175
 51
0.0
  0
ARC
  5
61E
  8
002
  6
HIDDEN
 62
    40
 10
1542.729053
 20
-21.818925
 30
0.0
 40
15.799995
 50
67.682007
 51
112.317938
  0
ARC
  5
61F
  8
002
  6
HIDDEN
 62
    40
 10
1546.307056
 20
-7.919267
 30
0.0
 40
4.999998999999997
 50
0.0
 51
61.026825
  0
ARC
  5
620
  8
002
  6
HIDDEN
 62
    40
 10
1539.151081
 20
-7.919252
 30
0.0
 40
5.000002
 50
118.973114
 51
180.0
  0
LINE
  5
621
  8
002
  6
CENTER
 62
    40
 10
1566.328144
 20
-8.194032
 30
0.0
 11
1558.100919
 21
-12.944024
 31
0.0
  0
LINE
  5
622
  8
002
  6
CENTER
 62
    40
 10
1558.100928
 20
-30.693789
 30
0.0
 11
1566.328153
 21
-35.443789
 31
0.0
  0
LINE
  5
623
  8
002
  6
CENTER
 62
    40
 10
1519.130078
 20
-35.443728
 30
0.0
 11
1527.357315
 21
-30.69372
 31
0.0
  0
LINE
  5
624
  8
002
  6
CENTER
 62
    40
 10
1527.357245
 20
-12.943894
 30
0.0
 11
1519.130018
 21
-8.193894
 31
0.0
  0
CIRCLE
  5
625
  8
002
 62
    40
 10
1542.729053
 20
-21.818925
 30
0.0
 40
6.873000000000005
  0
CIRCLE
  5
626
  8
002
 62
    40
 10
1542.729053
 20
-21.818925
 30
0.0
 40
9.726996999999997
  0
LINE
  5
627
  8
002
  6
PHANTOM
 62
    40
 10
1551.229053
 20
-44.818925
 30
0.0
 11
1534.229053
 21
-44.818925
 31
0.0
  0
ARC
  5
628
  8
002
  6
PHANTOM
 62
    40
 10
1534.229053
 20
-41.818925
 30
0.0
 40
3.0
 50
180.0
 51
270.0
  0
ARC
  5
629
  8
002
  6
PHANTOM
 62
    40
 10
1551.229053
 20
-41.818925
 30
0.0
 40
3.0
 50
270.0
 51
0.0
  0
LINE
  5
62A
  8
002
  6
PHANTOM
 62
    40
 10
1554.229053
 20
-41.818925
 30
0.0
 11
1554.229053
 21
-31.449602
 31
0.0
  0
LINE
  5
62B
  8
002
  6
PHANTOM
 62
    40
 10
1531.229053
 20
-41.818925
 30
0.0
 11
1531.229053
 21
-31.449602
 31
0.0
  0
LINE
  5
62C
  8
002
  6
PHANTOM
 62
    40
 10
1551.229053
 20
1.181075
 30
0.0
 11
1534.229053
 21
1.181075
 31
0.0
  0
ARC
  5
62D
  8
002
  6
PHANTOM
 62
    40
 10
1534.229053
 20
-1.818925
 30
0.0
 40
3.0
 50
90.0
 51
180.0
  0
ARC
  5
62E
  8
002
  6
PHANTOM
 62
    40
 10
1551.229053
 20
-1.818925
 30
0.0
 40
3.0
 50
0.0
 51
90.0
  0
LINE
  5
62F
  8
002
  6
PHANTOM
 62
    40
 10
1554.229053
 20
-1.818925
 30
0.0
 11
1554.229053
 21
-12.188248
 31
0.0
  0
LINE
  5
630
  8
002
  6
PHANTOM
 62
    40
 10
1531.229053
 20
-1.818925
 30
0.0
 11
1531.229053
 21
-12.188248
 31
0.0
  0
CIRCLE
  5
631
  8
002
 62
     3
 10
1542.729053
 20
-21.818925
 30
0.0
 40
29.0
  0
CIRCLE
  5
632
  8
002
  6
CENTER
 62
    40
 10
1542.729053
 20
-21.818925
 30
0.0
 40
22.5
  0
CIRCLE
  5
633
  8
002
 62
     3
 10
1562.214646
 20
-10.568963
 30
0.0
 40
3.3
  0
CIRCLE
  5
634
  8
002
 62
     3
 10
1562.214662
 20
-33.068859
 30
0.0
 40
3.3
  0
CIRCLE
  5
635
  8
002
 62
     3
 10
1523.243448
 20
-33.068868
 30
0.0
 40
3.3
  0
CIRCLE
  5
636
  8
002
 62
     3
 10
1523.243532
 20
-10.568837
 30
0.0
 40
3.3
  0
CIRCLE
  5
637
  8
002
 62
     3
 10
398.150249
 20
608.931374
 30
0.0
 40
8.0
  0
CIRCLE
  5
638
  8
002
 62
     3
 10
398.150249
 20
678.931374
 30
0.0
 40
8.0
  0
CIRCLE
  5
639
  8
002
 62
     3
 10
303.150249
 20
678.931374
 30
0.0
 40
8.0
  0
CIRCLE
  5
63A
  8
002
 62
     3
 10
303.150249
 20
608.931374
 30
0.0
 40
8.0
  0
LINE
  5
63B
  8
002
 62
     3
 10
394.150249
 20
616.931374
 30
0.0
 11
398.150249
 21
616.931374
 31
0.0
  0
LINE
  5
63C
  8
002
 62
     3
 10
394.150249
 20
600.931374
 30
0.0
 11
398.150249
 21
600.931374
 31
0.0
  0
LINE
  5
63D
  8
002
 62
     3
 10
394.150249
 20
686.931374
 30
0.0
 11
398.150249
 21
686.931374
 31
0.0
  0
LINE
  5
63E
  8
002
 62
     3
 10
394.150249
 20
670.931374
 30
0.0
 11
398.150249
 21
670.931374
 31
0.0
  0
LINE
  5
63F
  8
002
 62
     3
 10
392.150249
 20
668.931374
 30
0.0
 11
392.150249
 21
618.931374
 31
0.0
  0
ARC
  5
640
  8
002
 62
     3
 10
338.150249
 20
643.931374
 30
0.0
 40
36.00000000000006
 50
270.0
 51
90.0
  0
ARC
  5
641
  8
002
 62
     3
 10
338.150249
 20
689.931374
 30
0.0
 40
10.0
 50
270.0
 51
0.0
  0
ARC
  5
642
  8
002
 62
     3
 10
338.150249
 20
597.931374
 30
0.0
 40
10.0
 50
360.0
 51
90.0
  0
ARC
  5
643
  8
002
 62
     3
 10
338.150249
 20
643.931374
 30
0.0
 40
36.00000000000006
 50
90.0
 51
102.306598
  0
ARC
  5
644
  8
002
 62
     3
 10
278.551966
 20
656.933091
 30
0.0
 40
25.0
 50
347.693402
 51
41.806316
  0
ARC
  5
645
  8
002
 62
     3
 10
325.148532
 20
703.529657
 30
0.0
 40
25.0
 50
228.193684
 51
282.306598
  0
ARC
  5
646
  8
002
 62
     3
 10
278.551966
 20
630.929657
 30
0.0
 40
25.0
 50
318.193684
 51
12.306598
  0
ARC
  5
647
  8
002
 62
     3
 10
325.148532
 20
584.333091
 30
0.0
 40
25.0
 50
77.693402
 51
131.806316
  0
ARC
  5
648
  8
002
 62
     3
 10
338.150249
 20
643.931374
 30
0.0
 40
36.00000000000006
 50
167.693402
 51
192.306598
  0
ARC
  5
649
  8
002
 62
     3
 10
338.150249
 20
643.931374
 30
0.0
 40
36.00000000000006
 50
257.693402
 51
270.0
  0
LINE
  5
64A
  8
002
  6
CENTER
 62
    40
 10
398.150249
 20
668.931374
 30
0.0
 11
398.150249
 21
688.931374
 31
0.0
  0
LINE
  5
64B
  8
002
  6
CENTER
 62
    40
 10
408.150249
 20
678.931374
 30
0.0
 11
388.150249
 21
678.931374
 31
0.0
  0
LINE
  5
64C
  8
002
  6
CENTER
 62
    40
 10
398.150249
 20
598.931374
 30
0.0
 11
398.150249
 21
618.931374
 31
0.0
  0
LINE
  5
64D
  8
002
  6
CENTER
 62
    40
 10
408.150249
 20
608.931374
 30
0.0
 11
388.150249
 21
608.931374
 31
0.0
  0
LINE
  5
64E
  8
002
  6
CENTER
 62
    40
 10
303.150249
 20
598.931374
 30
0.0
 11
303.150249
 21
618.931374
 31
0.0
  0
LINE
  5
64F
  8
002
  6
CENTER
 62
    40
 10
313.150249
 20
608.931374
 30
0.0
 11
293.150249
 21
608.931374
 31
0.0
  0
LINE
  5
650
  8
002
  6
CENTER
 62
    40
 10
303.150249
 20
668.931374
 30
0.0
 11
303.150249
 21
688.931374
 31
0.0
  0
LINE
  5
651
  8
002
  6
CENTER
 62
    40
 10
313.150249
 20
678.931374
 30
0.0
 11
293.150249
 21
678.931374
 31
0.0
  0
LINE
  5
652
  8
002
  6
CENTER
 62
    40
 10
299.305713
 20
643.931374
 30
0.0
 11
398.964299
 21
643.931374
 31
0.0
  0
ARC
  5
653
  8
002
 62
     3
 10
394.150249
 20
618.931374
 30
0.0
 40
2.0
 50
180.0
 51
270.0
  0
ARC
  5
654
  8
002
 62
     3
 10
394.150249
 20
598.931374
 30
0.0
 40
2.0
 50
90.0
 51
180.0
  0
ARC
  5
655
  8
002
 62
     3
 10
394.150249
 20
668.931374
 30
0.0
 40
2.0
 50
90.0
 51
180.0
  0
ARC
  5
656
  8
002
 62
     3
 10
394.150249
 20
688.931374
 30
0.0
 40
2.0
 50
180.0
 51
270.0
  0
CIRCLE
  5
657
  8
002
 62
    40
 10
338.150249
 20
643.931374
 30
0.0
 40
31.0
  0
CIRCLE
  5
658
  8
002
 62
    40
 10
338.150249
 20
643.931374
 30
0.0
 40
29.9175
  0
LINE
  5
659
  8
002
 62
     3
 10
348.150249
 20
690.931374
 30
0.0
 11
392.150249
 21
690.931374
 31
0.0
  0
LINE
  5
65A
  8
002
 62
     3
 10
348.100123
 20
596.931374
 30
0.0
 11
392.150249
 21
596.931374
 31
0.0
  0
LINE
  5
65B
  8
002
 62
     3
 10
348.150249
 20
689.931374
 30
0.0
 11
348.150249
 21
690.931374
 31
0.0
  0
LINE
  5
65C
  8
002
 62
     3
 10
392.150249
 20
688.931374
 30
0.0
 11
392.150249
 21
690.931374
 31
0.0
  0
LINE
  5
65D
  8
002
 62
     3
 10
392.150249
 20
598.931374
 30
0.0
 11
392.150249
 21
596.931374
 31
0.0
  0
LINE
  5
65E
  8
002
 62
     3
 10
348.150249
 20
597.931374
 30
0.0
 11
348.150249
 21
596.931374
 31
0.0
  0
LINE
  5
65F
  8
002
 62
     3
 10
362.650249
 20
690.931374
 30
0.0
 11
362.650249
 21
717.931374
 31
0.0
  0
LINE
  5
660
  8
002
 62
     3
 10
362.650249
 20
717.931374
 30
0.0
 11
363.650249
 21
718.931374
 31
0.0
  0
LINE
  5
661
  8
002
 62
     3
 10
363.650249
 20
718.931374
 30
0.0
 11
376.650249
 21
718.931374
 31
0.0
  0
LINE
  5
662
  8
002
 62
     3
 10
376.650249
 20
718.931374
 30
0.0
 11
377.650249
 21
717.931374
 31
0.0
  0
LINE
  5
663
  8
002
 62
     3
 10
377.650249
 20
717.931374
 30
0.0
 11
372.650249
 21
717.931374
 31
0.0
  0
LINE
  5
664
  8
002
 62
     3
 10
372.650249
 20
718.931374
 30
0.0
 11
372.650249
 21
696.931374
 31
0.0
  0
LINE
  5
665
  8
002
 62
     3
 10
372.650249
 20
696.931374
 30
0.0
 11
367.650249
 21
696.931374
 31
0.0
  0
LINE
  5
666
  8
002
 62
     3
 10
367.650249
 20
696.931374
 30
0.0
 11
367.650249
 21
718.931374
 31
0.0
  0
LINE
  5
667
  8
002
 62
     3
 10
367.650249
 20
717.931374
 30
0.0
 11
362.650249
 21
717.931374
 31
0.0
  0
LINE
  5
668
  8
002
 62
     3
 10
377.650249
 20
717.931374
 30
0.0
 11
377.650249
 21
690.931374
 31
0.0
  0
ARC
  5
669
  8
002
 62
     3
 10
370.150249
 20
696.931374
 30
0.0
 40
2.5
 50
180.0
 51
0.0
  0
LINE
  5
66A
  8
002
 62
     3
 10
377.650249
 20
596.931374
 30
0.0
 11
377.650249
 21
569.931374
 31
0.0
  0
LINE
  5
66B
  8
002
 62
     3
 10
377.650249
 20
569.931374
 30
0.0
 11
376.650249
 21
568.931374
 31
0.0
  0
LINE
  5
66C
  8
002
 62
     3
 10
376.650249
 20
568.931374
 30
0.0
 11
363.650249
 21
568.931374
 31
0.0
  0
LINE
  5
66D
  8
002
 62
     3
 10
363.650249
 20
568.931374
 30
0.0
 11
362.650249
 21
569.931374
 31
0.0
  0
LINE
  5
66E
  8
002
 62
     3
 10
362.650249
 20
569.931374
 30
0.0
 11
362.650249
 21
596.931374
 31
0.0
  0
LINE
  5
66F
  8
002
 62
     3
 10
367.650249
 20
590.931374
 30
0.0
 11
372.650249
 21
590.931374
 31
0.0
  0
LINE
  5
670
  8
002
 62
     3
 10
372.650249
 20
590.931374
 30
0.0
 11
372.650249
 21
568.931374
 31
0.0
  0
LINE
  5
671
  8
002
 62
     3
 10
372.650249
 20
569.931374
 30
0.0
 11
377.650249
 21
569.931374
 31
0.0
  0
LINE
  5
672
  8
002
 62
     3
 10
367.650249
 20
569.931374
 30
0.0
 11
362.650249
 21
569.931374
 31
0.0
  0
LINE
  5
673
  8
002
 62
     3
 10
367.650249
 20
568.931374
 30
0.0
 11
367.650249
 21
590.931374
 31
0.0
  0
ARC
  5
674
  8
002
 62
     3
 10
370.150249
 20
590.931374
 30
0.0
 40
2.5
 50
0.0
 51
180.0
  0
LINE
  5
675
  8
002
  6
CENTER
 62
    40
 10
338.150249
 20
684.301158
 30
0.0
 11
338.150249
 21
600.456321
 31
0.0
  0
LINE
  5
676
  8
002
  6
CENTER
 62
    40
 10
370.150249
 20
722.314315
 30
0.0
 11
370.150249
 21
564.468881
 31
0.0
  0
CIRCLE
  5
677
  8
002
 62
     3
 10
338.150249
 20
643.931374
 30
0.0
 40
10.0
  0
LINE
  5
678
  8
002
 62
     3
 10
202.453249
 20
83.015774
 30
0.0
 11
202.453249
 21
79.015774
 31
0.0
  0
LINE
  5
679
  8
002
 62
     3
 10
217.953249
 20
143.015774
 30
0.0
 11
131.953249
 21
143.015774
 31
0.0
  0
LINE
  5
67A
  8
002
 62
     3
 10
127.953249
 20
135.015774
 30
0.0
 11
131.043257
 21
135.015774
 31
0.0
  0
LINE
  5
67B
  8
002
 62
     3
 10
127.953249
 20
91.015774
 30
0.0
 11
131.043257
 21
91.015774
 31
0.0
  0
LINE
  5
67C
  8
002
 62
     3
 10
221.953249
 20
91.015774
 30
0.0
 11
218.863241
 21
91.015774
 31
0.0
  0
LINE
  5
67D
  8
002
 62
     3
 10
221.953249
 20
135.015774
 30
0.0
 11
218.863241
 21
135.015774
 31
0.0
  0
LINE
  5
67E
  8
002
 62
     3
 10
127.953249
 20
105.515774
 30
0.0
 11
100.953209
 21
105.515774
 31
0.0
  0
LINE
  5
67F
  8
002
 62
     3
 10
100.953209
 20
105.515774
 30
0.0
 11
99.953209
 21
106.515774
 31
0.0
  0
LINE
  5
680
  8
002
 62
     3
 10
99.953209
 20
106.515774
 30
0.0
 11
99.953209
 21
122.515774
 31
0.0
  0
LINE
  5
681
  8
002
 62
     3
 10
99.953209
 20
122.515774
 30
0.0
 11
121.953249
 21
122.515774
 31
0.0
  0
LINE
  5
682
  8
002
 62
     3
 10
121.953249
 20
122.515774
 30
0.0
 11
121.953249
 21
120.086874
 31
0.0
  0
LINE
  5
683
  8
002
 62
     3
 10
121.953249
 20
120.086874
 30
0.0
 11
124.453249
 21
120.515774
 31
0.0
  0
LINE
  5
684
  8
002
 62
     3
 10
124.453249
 20
120.515774
 30
0.0
 11
127.953249
 21
120.515774
 31
0.0
  0
LINE
  5
685
  8
002
 62
     3
 10
221.953249
 20
120.515774
 30
0.0
 11
225.453249
 21
120.515774
 31
0.0
  0
LINE
  5
686
  8
002
 62
     3
 10
225.453249
 20
120.515774
 30
0.0
 11
227.953249
 21
120.086874
 31
0.0
  0
LINE
  5
687
  8
002
 62
     3
 10
227.953249
 20
120.086874
 30
0.0
 11
227.953249
 21
122.515774
 31
0.0
  0
LINE
  5
688
  8
002
 62
     3
 10
227.953249
 20
122.515774
 30
0.0
 11
249.953249
 21
122.515774
 31
0.0
  0
LINE
  5
689
  8
002
 62
     3
 10
249.953249
 20
122.515774
 30
0.0
 11
249.953249
 21
106.515774
 31
0.0
  0
LINE
  5
68A
  8
002
 62
     3
 10
249.953249
 20
106.515774
 30
0.0
 11
248.953249
 21
105.515774
 31
0.0
  0
LINE
  5
68B
  8
002
 62
     3
 10
248.953249
 20
105.515774
 30
0.0
 11
221.953249
 21
105.515774
 31
0.0
  0
LINE
  5
68C
  8
002
 62
     3
 10
121.953249
 20
120.086874
 30
0.0
 11
100.524279
 21
120.086874
 31
0.0
  0
LINE
  5
68D
  8
002
 62
     3
 10
100.524279
 20
120.086874
 30
0.0
 11
99.953209
 21
119.515774
 31
0.0
  0
LINE
  5
68E
  8
002
 62
     3
 10
100.953209
 20
120.086874
 30
0.0
 11
100.953209
 21
105.515774
 31
0.0
  0
LINE
  5
68F
  8
002
 62
     3
 10
227.953249
 20
120.086874
 30
0.0
 11
249.382149
 21
120.086874
 31
0.0
  0
LINE
  5
690
  8
002
 62
     3
 10
249.382149
 20
120.086874
 30
0.0
 11
249.953249
 21
119.515774
 31
0.0
  0
LINE
  5
691
  8
002
 62
     3
 10
248.953249
 20
120.086874
 30
0.0
 11
248.953249
 21
105.515774
 31
0.0
  0
LINE
  5
692
  8
002
 62
     3
 10
217.953249
 20
83.015774
 30
0.0
 11
217.953249
 21
143.015774
 31
0.0
  0
LINE
  5
693
  8
002
 62
     3
 10
201.953249
 20
89.015774
 30
0.0
 11
201.953249
 21
83.015774
 31
0.0
  0
LINE
  5
694
  8
002
 62
     3
 10
204.620332
 20
89.015774
 30
0.0
 11
204.620332
 21
143.015774
 31
0.0
  0
LINE
  5
695
  8
002
 62
     3
 10
147.953249
 20
83.015774
 30
0.0
 11
147.953249
 21
89.015774
 31
0.0
  0
LINE
  5
696
  8
002
 62
     3
 10
131.953249
 20
143.015774
 30
0.0
 11
131.953249
 21
83.015774
 31
0.0
  0
LINE
  5
697
  8
002
 62
     3
 10
145.286166
 20
89.015774
 30
0.0
 11
145.286166
 21
143.015774
 31
0.0
  0
POLYLINE
  5
698
  8
002
 62
     3
 66
     1
 10
0.0
 20
0.0
 30
0.0
  0
VERTEX
  5
69A
  8
002
 62
     3
 10
204.620332
 20
143.015774
 30
0.0
  0
VERTEX
  5
69B
  8
002
 62
     3
 10
204.615299
 20
143.011896
 30
0.0
  0
VERTEX
  5
69C
  8
002
 62
     3
 10
204.610266
 20
143.008019
 30
0.0
  0
VERTEX
  5
69D
  8
002
 62
     3
 10
204.287316
 20
142.761703
 30
0.0
  0
VERTEX
  5
69E
  8
002
 62
     3
 10
203.960879
 20
142.52004
 30
0.0
  0
VERTEX
  5
69F
  8
002
 62
     3
 10
203.625239
 20
142.282483
 30
0.0
  0
VERTEX
  5
6A0
  8
002
 62
     3
 10
203.283053
 20
142.054353
 30
0.0
  0
VERTEX
  5
6A1
  8
002
 62
     3
 10
202.925249
 20
141.833663
 30
0.0
  0
VERTEX
  5
6A2
  8
002
 62
     3
 10
202.557845
 20
141.629685
 30
0.0
  0
VERTEX
  5
6A3
  8
002
 62
     3
 10
202.17773
 20
141.445749
 30
0.0
  0
VERTEX
  5
6A4
  8
002
 62
     3
 10
201.78638
 20
141.285867
 30
0.0
  0
VERTEX
  5
6A5
  8
002
 62
     3
 10
201.451141
 20
141.17424
 30
0.0
  0
VERTEX
  5
6A6
  8
002
 62
     3
 10
201.108607
 20
141.091827
 30
0.0
  0
VERTEX
  5
6A7
  8
002
 62
     3
 10
200.748719
 20
141.043199
 30
0.0
  0
VERTEX
  5
6A8
  8
002
 62
     3
 10
200.385277
 20
141.015774
 30
0.0
  0
SEQEND
  5
699
  8
002
 62
     3
  0
POLYLINE
  5
6A9
  8
002
 62
     3
 66
     1
 10
0.0
 20
0.0
 30
0.0
  0
VERTEX
  5
6AB
  8
002
 62
     3
 10
200.385277
 20
91.015774
 30
0.0
  0
VERTEX
  5
6AC
  8
002
 62
     3
 10
200.740593
 20
90.989496
 30
0.0
  0
VERTEX
  5
6AD
  8
002
 62
     3
 10
201.092577
 20
90.942953
 30
0.0
  0
VERTEX
  5
6AE
  8
002
 62
     3
 10
201.443274
 20
90.859606
 30
0.0
  0
VERTEX
  5
6AF
  8
002
 62
     3
 10
201.78638
 20
90.745682
 30
0.0
  0
VERTEX
  5
6B0
  8
002
 62
     3
 10
202.171356
 20
90.588665
 30
0.0
  0
VERTEX
  5
6B1
  8
002
 62
     3
 10
202.545437
 20
90.408312
 30
0.0
  0
VERTEX
  5
6B2
  8
002
 62
     3
 10
202.907204
 20
90.208435
 30
0.0
  0
VERTEX
  5
6B3
  8
002
 62
     3
 10
203.259636
 20
89.992214
 30
0.0
  0
VERTEX
  5
6B4
  8
002
 62
     3
 10
203.608107
 20
89.760858
 30
0.0
  0
VERTEX
  5
6B5
  8
002
 62
     3
 10
203.949732
 20
89.519604
 30
0.0
  0
VERTEX
  5
6B6
  8
002
 62
     3
 10
204.281815
 20
89.273991
 30
0.0
  0
VERTEX
  5
6B7
  8
002
 62
     3
 10
204.610266
 20
89.02353
 30
0.0
  0
VERTEX
  5
6B8
  8
002
 62
     3
 10
204.615299
 20
89.019652
 30
0.0
  0
VERTEX
  5
6B9
  8
002
 62
     3
 10
204.620332
 20
89.015774
 30
0.0
  0
SEQEND
  5
6AA
  8
002
 62
     3
  0
ARC
  5
6BA
  8
002
 62
     3
 10
199.953249
 20
89.015774
 30
0.0
 40
2.0
 50
0.0
 51
90.0
  0
ARC
  5
6BB
  8
002
 62
     3
 10
199.953249
 20
143.015774
 30
0.0
 40
2.0
 50
270.0
 51
360.0
  0
ARC
  5
6BC
  8
002
 62
     3
 10
149.953249
 20
143.015774
 30
0.0
 40
2.0
 50
180.0
 51
270.0
  0
POLYLINE
  5
6BD
  8
002
 62
     3
 66
     1
 10
0.0
 20
0.0
 30
0.0
  0
VERTEX
  5
6BF
  8
002
 62
     3
 10
149.52122
 20
141.015774
 30
0.0
  0
VERTEX
  5
6C0
  8
002
 62
     3
 10
149.165905
 20
141.042052
 30
0.0
  0
VERTEX
  5
6C1
  8
002
 62
     3
 10
148.813921
 20
141.088596
 30
0.0
  0
VERTEX
  5
6C2
  8
002
 62
     3
 10
148.463224
 20
141.171942
 30
0.0
  0
VERTEX
  5
6C3
  8
002
 62
     3
 10
148.120117
 20
141.285867
 30
0.0
  0
VERTEX
  5
6C4
  8
002
 62
     3
 10
147.735142
 20
141.442884
 30
0.0
  0
VERTEX
  5
6C5
  8
002
 62
     3
 10
147.36106
 20
141.623236
 30
0.0
  0
VERTEX
  5
6C6
  8
002
 62
     3
 10
146.999294
 20
141.823113
 30
0.0
  0
VERTEX
  5
6C7
  8
002
 62
     3
 10
146.646862
 20
142.039334
 30
0.0
  0
VERTEX
  5
6C8
  8
002
 62
     3
 10
146.298391
 20
142.27069
 30
0.0
  0
VERTEX
  5
6C9
  8
002
 62
     3
 10
145.956766
 20
142.511945
 30
0.0
  0
VERTEX
  5
6CA
  8
002
 62
     3
 10
145.624683
 20
142.757557
 30
0.0
  0
VERTEX
  5
6CB
  8
002
 62
     3
 10
145.296232
 20
143.008019
 30
0.0
  0
VERTEX
  5
6CC
  8
002
 62
     3
 10
145.291199
 20
143.011896
 30
0.0
  0
VERTEX
  5
6CD
  8
002
 62
     3
 10
145.286166
 20
143.015774
 30
0.0
  0
SEQEND
  5
6BE
  8
002
 62
     3
  0
ARC
  5
6CE
  8
002
 62
     3
 10
149.953249
 20
89.015774
 30
0.0
 40
2.0
 50
90.0
 51
180.0
  0
POLYLINE
  5
6CF
  8
002
 62
     3
 66
     1
 10
0.0
 20
0.0
 30
0.0
  0
VERTEX
  5
6D1
  8
002
 62
     3
 10
145.286166
 20
89.015774
 30
0.0
  0
VERTEX
  5
6D2
  8
002
 62
     3
 10
145.291199
 20
89.019652
 30
0.0
  0
VERTEX
  5
6D3
  8
002
 62
     3
 10
145.296232
 20
89.02353
 30
0.0
  0
VERTEX
  5
6D4
  8
002
 62
     3
 10
145.619182
 20
89.269845
 30
0.0
  0
VERTEX
  5
6D5
  8
002
 62
     3
 10
145.945619
 20
89.511508
 30
0.0
  0
VERTEX
  5
6D6
  8
002
 62
     3
 10
146.281259
 20
89.749065
 30
0.0
  0
VERTEX
  5
6D7
  8
002
 62
     3
 10
146.623445
 20
89.977195
 30
0.0
  0
VERTEX
  5
6D8
  8
002
 62
     3
 10
146.981249
 20
90.197886
 30
0.0
  0
VERTEX
  5
6D9
  8
002
 62
     3
 10
147.348653
 20
90.401863
 30
0.0
  0
VERTEX
  5
6DA
  8
002
 62
     3
 10
147.728768
 20
90.585799
 30
0.0
  0
VERTEX
  5
6DB
  8
002
 62
     3
 10
148.120117
 20
90.745682
 30
0.0
  0
VERTEX
  5
6DC
  8
002
 62
     3
 10
148.455357
 20
90.857308
 30
0.0
  0
VERTEX
  5
6DD
  8
002
 62
     3
 10
148.797891
 20
90.939722
 30
0.0
  0
VERTEX
  5
6DE
  8
002
 62
     3
 10
149.157779
 20
90.98835
 30
0.0
  0
VERTEX
  5
6DF
  8
002
 62
     3
 10
149.52122
 20
91.015774
 30
0.0
  0
SEQEND
  5
6D0
  8
002
 62
     3
  0
LINE
  5
6E0
  8
002
 62
     3
 10
200.385277
 20
91.015774
 30
0.0
 11
149.52122
 21
91.015774
 31
0.0
  0
LINE
  5
6E1
  8
002
 62
     3
 10
200.385277
 20
141.015774
 30
0.0
 11
149.52122
 21
141.015774
 31
0.0
  0
LINE
  5
6E2
  8
002
 62
     3
 10
217.953249
 20
83.015774
 30
0.0
 11
131.953249
 21
83.015774
 31
0.0
  0
LINE
  5
6E3
  8
002
 62
     3
 10
221.953249
 20
135.015774
 30
0.0
 11
221.953249
 21
91.015774
 31
0.0
  0
LINE
  5
6E4
  8
002
 62
     3
 10
127.953249
 20
135.015774
 30
0.0
 11
127.953249
 21
91.015774
 31
0.0
  0
POLYLINE
  5
6E5
  8
002
 62
     3
 66
     1
 10
0.0
 20
0.0
 30
0.0
  0
VERTEX
  5
6E7
  8
002
 62
     3
 10
218.863241
 20
91.015774
 30
0.0
  0
VERTEX
  5
6E8
  8
002
 62
     3
 10
218.741252
 20
91.004847
 30
0.0
  0
VERTEX
  5
6E9
  8
002
 62
     3
 10
218.621729
 20
90.982814
 30
0.0
  0
VERTEX
  5
6EA
  8
002
 62
     3
 10
218.51378
 20
90.94407
 30
0.0
  0
VERTEX
  5
6EB
  8
002
 62
     3
 10
218.412539
 20
90.888811
 30
0.0
  0
VERTEX
  5
6EC
  8
002
 62
     3
 10
218.297172
 20
90.799645
 30
0.0
  0
VERTEX
  5
6ED
  8
002
 62
     3
 10
218.198264
 20
90.692865
 30
0.0
  0
VERTEX
  5
6EE
  8
002
 62
     3
 10
218.116358
 20
90.570975
 30
0.0
  0
VERTEX
  5
6EF
  8
002
 62
     3
 10
218.051227
 20
90.438972
 30
0.0
  0
VERTEX
  5
6F0
  8
002
 62
     3
 10
218.008464
 20
90.322585
 30
0.0
  0
VERTEX
  5
6F1
  8
002
 62
     3
 10
217.978437
 20
90.202743
 30
0.0
  0
VERTEX
  5
6F2
  8
002
 62
     3
 10
217.962679
 20
90.09048
 30
0.0
  0
VERTEX
  5
6F3
  8
002
 62
     3
 10
217.953249
 20
89.97714
 30
0.0
  0
SEQEND
  5
6E6
  8
002
 62
     3
  0
POLYLINE
  5
6F4
  8
002
 62
     3
 66
     1
 10
0.0
 20
0.0
 30
0.0
  0
VERTEX
  5
6F6
  8
002
 62
     3
 10
217.953249
 20
136.054408
 30
0.0
  0
VERTEX
  5
6F7
  8
002
 62
     3
 10
217.974664
 20
135.876811
 30
0.0
  0
VERTEX
  5
6F8
  8
002
 62
     3
 10
218.011241
 20
135.702542
 30
0.0
  0
VERTEX
  5
6F9
  8
002
 62
     3
 10
218.084008
 20
135.517447
 30
0.0
  0
VERTEX
  5
6FA
  8
002
 62
     3
 10
218.190301
 20
135.348956
 30
0.0
  0
VERTEX
  5
6FB
  8
002
 62
     3
 10
218.265237
 20
135.262863
 30
0.0
  0
VERTEX
  5
6FC
  8
002
 62
     3
 10
218.350235
 20
135.186638
 30
0.0
  0
VERTEX
  5
6FD
  8
002
 62
     3
 10
218.451364
 20
135.118744
 30
0.0
  0
VERTEX
  5
6FE
  8
002
 62
     3
 10
218.561533
 20
135.068542
 30
0.0
  0
VERTEX
  5
6FF
  8
002
 62
     3
 10
218.70982
 20
135.033179
 30
0.0
  0
VERTEX
  5
700
  8
002
 62
     3
 10
218.863241
 20
135.015774
 30
0.0
  0
SEQEND
  5
6F5
  8
002
 62
     3
  0
POLYLINE
  5
701
  8
002
 62
     3
 66
     1
 10
0.0
 20
0.0
 30
0.0
  0
VERTEX
  5
703
  8
002
 62
     3
 10
131.043257
 20
135.015774
 30
0.0
  0
VERTEX
  5
704
  8
002
 62
     3
 10
131.165246
 20
135.026702
 30
0.0
  0
VERTEX
  5
705
  8
002
 62
     3
 10
131.284768
 20
135.048734
 30
0.0
  0
VERTEX
  5
706
  8
002
 62
     3
 10
131.392718
 20
135.087478
 30
0.0
  0
VERTEX
  5
707
  8
002
 62
     3
 10
131.493959
 20
135.142737
 30
0.0
  0
VERTEX
  5
708
  8
002
 62
     3
 10
131.609326
 20
135.231904
 30
0.0
  0
VERTEX
  5
709
  8
002
 62
     3
 10
131.708234
 20
135.338683
 30
0.0
  0
VERTEX
  5
70A
  8
002
 62
     3
 10
131.79014
 20
135.460573
 30
0.0
  0
VERTEX
  5
70B
  8
002
 62
     3
 10
131.855271
 20
135.592576
 30
0.0
  0
VERTEX
  5
70C
  8
002
 62
     3
 10
131.898034
 20
135.708963
 30
0.0
  0
VERTEX
  5
70D
  8
002
 62
     3
 10
131.92806
 20
135.828805
 30
0.0
  0
VERTEX
  5
70E
  8
002
 62
     3
 10
131.943818
 20
135.941069
 30
0.0
  0
VERTEX
  5
70F
  8
002
 62
     3
 10
131.953249
 20
136.054408
 30
0.0
  0
SEQEND
  5
702
  8
002
 62
     3
  0
POLYLINE
  5
710
  8
002
 62
     3
 66
     1
 10
0.0
 20
0.0
 30
0.0
  0
VERTEX
  5
712
  8
002
 62
     3
 10
131.953249
 20
89.97714
 30
0.0
  0
VERTEX
  5
713
  8
002
 62
     3
 10
131.931834
 20
90.154737
 30
0.0
  0
VERTEX
  5
714
  8
002
 62
     3
 10
131.895257
 20
90.329007
 30
0.0
  0
VERTEX
  5
715
  8
002
 62
     3
 10
131.82249
 20
90.514102
 30
0.0
  0
VERTEX
  5
716
  8
002
 62
     3
 10
131.716197
 20
90.682592
 30
0.0
  0
VERTEX
  5
717
  8
002
 62
     3
 10
131.64126
 20
90.768686
 30
0.0
  0
VERTEX
  5
718
  8
002
 62
     3
 10
131.556262
 20
90.84491
 30
0.0
  0
VERTEX
  5
719
  8
002
 62
     3
 10
131.455133
 20
90.912804
 30
0.0
  0
VERTEX
  5
71A
  8
002
 62
     3
 10
131.344965
 20
90.963006
 30
0.0
  0
VERTEX
  5
71B
  8
002
 62
     3
 10
131.196677
 20
90.99837
 30
0.0
  0
VERTEX
  5
71C
  8
002
 62
     3
 10
131.043257
 20
91.015774
 30
0.0
  0
SEQEND
  5
711
  8
002
 62
     3
  0
LINE
  5
71D
  8
002
 62
     3
 10
365.650249
 20
83.015774
 30
0.0
 11
365.650249
 21
79.015774
 31
0.0
  0
LINE
  5
71E
  8
002
 62
     3
 10
295.150249
 20
143.015774
 30
0.0
 11
295.150249
 21
83.015774
 31
0.0
  0
LINE
  5
71F
  8
002
 62
     3
 10
406.150249
 20
143.015774
 30
0.0
 11
406.150249
 21
83.015774
 31
0.0
  0
LINE
  5
720
  8
002
 62
     3
 10
311.150249
 20
143.015774
 30
0.0
 11
311.150249
 21
83.015774
 31
0.0
  0
LINE
  5
721
  8
002
 62
     3
 10
406.150249
 20
143.015774
 30
0.0
 11
390.150249
 21
143.015774
 31
0.0
  0
LINE
  5
722
  8
002
 62
     3
 10
390.150249
 20
83.015774
 30
0.0
 11
406.150249
 21
83.015774
 31
0.0
  0
LINE
  5
723
  8
002
 62
     3
 10
374.150249
 20
137.015774
 30
0.0
 11
374.150249
 21
141.015774
 31
0.0
  0
LINE
  5
724
  8
002
 62
     3
 10
390.150249
 20
89.015774
 30
0.0
 11
390.150249
 21
83.015774
 31
0.0
  0
LINE
  5
725
  8
002
 62
     3
 10
390.150249
 20
137.015774
 30
0.0
 11
390.150249
 21
143.015774
 31
0.0
  0
ARC
  5
726
  8
002
 62
     3
 10
367.650249
 20
89.015774
 30
0.0
 40
2.0
 50
90.0
 51
180.0
  0
LINE
  5
727
  8
002
 62
     3
 10
365.650249
 20
89.015774
 30
0.0
 11
365.650249
 21
83.015774
 31
0.0
  0
LINE
  5
728
  8
002
 62
     3
 10
313.150249
 20
141.015774
 30
0.0
 11
374.150249
 21
141.015774
 31
0.0
  0
ARC
  5
729
  8
002
 62
     3
 10
313.150249
 20
143.015774
 30
0.0
 40
2.0
 50
180.0
 51
270.0
  0
ARC
  5
72A
  8
002
 62
     3
 10
388.150249
 20
137.015774
 30
0.0
 40
2.0
 50
270.0
 51
0.0
  0
ARC
  5
72B
  8
002
 62
     3
 10
376.150249
 20
137.015774
 30
0.0
 40
2.0
 50
180.0
 51
270.0
  0
ARC
  5
72C
  8
002
 62
     3
 10
388.150249
 20
89.015774
 30
0.0
 40
2.0
 50
0.0
 51
90.0
  0
LINE
  5
72D
  8
002
 62
     3
 10
348.150249
 20
133.015774
 30
0.0
 11
348.150249
 21
93.015774
 31
0.0
  0
LINE
  5
72E
  8
002
 62
     3
 10
390.150249
 20
135.015774
 30
0.0
 11
350.150249
 21
135.015774
 31
0.0
  0
LINE
  5
72F
  8
002
 62
     3
 10
392.150249
 20
93.015774
 30
0.0
 11
392.150249
 21
133.015774
 31
0.0
  0
LINE
  5
730
  8
002
 62
     3
 10
390.150249
 20
91.015774
 30
0.0
 11
350.150249
 21
91.015774
 31
0.0
  0
ARC
  5
731
  8
002
 62
     3
 10
350.150249
 20
93.015774
 30
0.0
 40
2.0
 50
180.0
 51
270.0
  0
ARC
  5
732
  8
002
 62
     3
 10
350.150249
 20
133.015774
 30
0.0
 40
2.0
 50
90.0
 51
180.0
  0
ARC
  5
733
  8
002
 62
     3
 10
390.150249
 20
133.015774
 30
0.0
 40
2.0
 50
0.0
 51
90.0
  0
ARC
  5
734
  8
002
 62
     3
 10
390.150249
 20
93.015774
 30
0.0
 40
2.0
 50
270.0
 51
0.0
  0
LINE
  5
735
  8
002
 62
     3
 10
369.150249
 20
141.015774
 30
0.0
 11
369.150249
 21
143.015774
 31
0.0
  0
LINE
  5
736
  8
002
 62
    40
 10
368.067749
 20
143.015774
 30
0.0
 11
368.067749
 21
141.015774
 31
0.0
  0
LINE
  5
737
  8
002
 62
     3
 10
369.150249
 20
143.015774
 30
0.0
 11
295.150249
 21
143.015774
 31
0.0
  0
LINE
  5
738
  8
002
 62
     3
 10
365.650249
 20
83.015774
 30
0.0
 11
295.150249
 21
83.015774
 31
0.0
  0
LINE
  5
739
  8
002
 62
     3
 10
368.436049
 20
97.133174
 30
0.0
 11
368.436049
 21
99.187174
 31
0.0
  0
CIRCLE
  5
73A
  8
002
 62
     3
 10
366.150249
 20
99.187174
 30
0.0
 40
1.0
  0
ARC
  5
73B
  8
002
 62
     3
 10
366.150249
 20
99.187174
 30
0.0
 40
2.285799999999995
 50
0.0
 51
134.849339
  0
LINE
  5
73C
  8
002
 62
     3
 10
371.864549
 20
99.187174
 30
0.0
 11
371.864549
 21
97.133174
 31
0.0
  0
ARC
  5
73D
  8
002
 62
     3
 10
374.150249
 20
99.187174
 30
0.0
 40
2.285730572486588
 50
45.150661
 51
180.0
  0
ARC
  5
73E
  8
002
 62
     3
 10
377.374249
 20
102.428174
 30
0.0
 40
2.285730572486588
 50
225.150661
 51
306.868895
  0
CIRCLE
  5
73F
  8
002
 62
     3
 10
374.150249
 20
99.187174
 30
0.0
 40
1.0
  0
ARC
  5
740
  8
002
 62
     3
 10
362.926349
 20
102.428174
 30
0.0
 40
2.28572000035006
 50
233.131105
 51
314.847561
  0
ARC
  5
741
  8
002
 62
     3
 10
370.150249
 20
112.060874
 30
0.0
 40
14.32628000738505
 50
306.868058
 51
233.132262
  0
LINE
  5
742
  8
002
 62
     3
 10
372.400249
 20
117.515774
 30
0.0
 11
367.900249
 21
117.515774
 31
0.0
  0
LINE
  5
743
  8
002
 62
     3
 10
367.900249
 20
117.515774
 30
0.0
 11
367.650249
 21
117.765774
 31
0.0
  0
LINE
  5
744
  8
002
 62
     3
 10
367.650249
 20
117.765774
 30
0.0
 11
367.650249
 21
122.265774
 31
0.0
  0
LINE
  5
745
  8
002
 62
     3
 10
367.650249
 20
122.265774
 30
0.0
 11
367.900249
 21
122.515774
 31
0.0
  0
LINE
  5
746
  8
002
 62
     3
 10
367.900249
 20
122.515774
 30
0.0
 11
372.400249
 21
122.515774
 31
0.0
  0
LINE
  5
747
  8
002
 62
     3
 10
372.400249
 20
122.515774
 30
0.0
 11
372.650249
 21
122.265774
 31
0.0
  0
LINE
  5
748
  8
002
 62
     3
 10
372.650249
 20
122.265774
 30
0.0
 11
372.650249
 21
117.765774
 31
0.0
  0
LINE
  5
749
  8
002
 62
     3
 10
372.650249
 20
117.765774
 30
0.0
 11
372.400249
 21
117.515774
 31
0.0
  0
ARC
  5
74A
  8
002
 62
     3
 10
372.450249
 20
117.715774
 30
0.0
 40
0.1999999999999886
 50
270.0
 51
0.0
  0
ARC
  5
74B
  8
002
 62
     3
 10
370.150249
 20
113.015774
 30
0.0
 40
7.499936066394191
 50
109.471393
 51
70.528607
  0
ARC
  5
74C
  8
002
 62
     3
 10
367.850249
 20
117.715774
 30
0.0
 40
0.2000000000000455
 50
180.0
 51
270.0
  0
CIRCLE
  5
74D
  8
002
 62
     3
 10
370.150249
 20
113.015774
 30
0.0
 40
16.0
  0
LINE
  5
74E
  8
002
  6
CENTER
 62
    40
 10
303.150249
 20
78.603574
 30
0.0
 11
303.150249
 21
147.910474
 31
0.0
  0
LINE
  5
74F
  8
002
  6
CENTER
 62
    40
 10
398.150349
 20
78.603574
 30
0.0
 11
398.150349
 21
147.910474
 31
0.0
  0
LINE
  5
750
  8
002
  6
CENTER
 62
    40
 10
370.150249
 20
143.015774
 30
0.0
 11
370.150249
 21
81.56432
 31
0.0
  0
LINE
  5
751
  8
002
 62
     3
 10
550.62637
 20
83.015774
 30
0.0
 11
550.62637
 21
79.015774
 31
0.0
  0
LINE
  5
752
  8
002
 62
     3
 10
550.12637
 20
83.015774
 30
0.0
 11
550.12637
 21
143.015774
 31
0.0
  0
LINE
  5
753
  8
002
 62
     3
 10
566.12637
 20
143.015774
 30
0.0
 11
566.12637
 21
83.015774
 31
0.0
  0
LINE
  5
754
  8
002
 62
     3
 10
480.12637
 20
83.015774
 30
0.0
 11
480.12637
 21
143.015774
 31
0.0
  0
LINE
  5
755
  8
002
 62
     3
 10
496.12637
 20
143.015774
 30
0.0
 11
496.12637
 21
83.015774
 31
0.0
  0
POLYLINE
  5
756
  8
002
 62
     3
 66
     1
 10
0.0
 20
0.0
 30
0.0
  0
VERTEX
  5
758
  8
002
 62
     3
 10
550.12637
 20
136.054408
 30
0.0
  0
VERTEX
  5
759
  8
002
 62
     3
 10
550.104955
 20
135.876811
 30
0.0
  0
VERTEX
  5
75A
  8
002
 62
     3
 10
550.068378
 20
135.702542
 30
0.0
  0
VERTEX
  5
75B
  8
002
 62
     3
 10
549.995612
 20
135.517447
 30
0.0
  0
VERTEX
  5
75C
  8
002
 62
     3
 10
549.889318
 20
135.348956
 30
0.0
  0
VERTEX
  5
75D
  8
002
 62
     3
 10
549.814382
 20
135.262863
 30
0.0
  0
VERTEX
  5
75E
  8
002
 62
     3
 10
549.729384
 20
135.186638
 30
0.0
  0
VERTEX
  5
75F
  8
002
 62
     3
 10
549.628255
 20
135.118744
 30
0.0
  0
VERTEX
  5
760
  8
002
 62
     3
 10
549.518086
 20
135.068542
 30
0.0
  0
VERTEX
  5
761
  8
002
 62
     3
 10
549.369799
 20
135.033179
 30
0.0
  0
VERTEX
  5
762
  8
002
 62
     3
 10
549.216378
 20
135.015774
 30
0.0
  0
SEQEND
  5
757
  8
002
 62
     3
  0
POLYLINE
  5
763
  8
002
 62
     3
 66
     1
 10
0.0
 20
0.0
 30
0.0
  0
VERTEX
  5
765
  8
002
 62
     3
 10
567.036362
 20
135.015774
 30
0.0
  0
VERTEX
  5
766
  8
002
 62
     3
 10
566.914373
 20
135.026702
 30
0.0
  0
VERTEX
  5
767
  8
002
 62
     3
 10
566.794851
 20
135.048734
 30
0.0
  0
VERTEX
  5
768
  8
002
 62
     3
 10
566.686902
 20
135.087478
 30
0.0
  0
VERTEX
  5
769
  8
002
 62
     3
 10
566.58566
 20
135.142737
 30
0.0
  0
VERTEX
  5
76A
  8
002
 62
     3
 10
566.470293
 20
135.231904
 30
0.0
  0
VERTEX
  5
76B
  8
002
 62
     3
 10
566.371385
 20
135.338683
 30
0.0
  0
VERTEX
  5
76C
  8
002
 62
     3
 10
566.289479
 20
135.460573
 30
0.0
  0
VERTEX
  5
76D
  8
002
 62
     3
 10
566.224348
 20
135.592576
 30
0.0
  0
VERTEX
  5
76E
  8
002
 62
     3
 10
566.181585
 20
135.708963
 30
0.0
  0
VERTEX
  5
76F
  8
002
 62
     3
 10
566.151559
 20
135.828805
 30
0.0
  0
VERTEX
  5
770
  8
002
 62
     3
 10
566.135801
 20
135.941069
 30
0.0
  0
VERTEX
  5
771
  8
002
 62
     3
 10
566.12637
 20
136.054408
 30
0.0
  0
SEQEND
  5
764
  8
002
 62
     3
  0
POLYLINE
  5
772
  8
002
 62
     3
 66
     1
 10
0.0
 20
0.0
 30
0.0
  0
VERTEX
  5
774
  8
002
 62
     3
 10
566.12637
 20
89.97714
 30
0.0
  0
VERTEX
  5
775
  8
002
 62
     3
 10
566.147785
 20
90.154737
 30
0.0
  0
VERTEX
  5
776
  8
002
 62
     3
 10
566.184362
 20
90.329007
 30
0.0
  0
VERTEX
  5
777
  8
002
 62
     3
 10
566.257129
 20
90.514102
 30
0.0
  0
VERTEX
  5
778
  8
002
 62
     3
 10
566.363423
 20
90.682592
 30
0.0
  0
VERTEX
  5
779
  8
002
 62
     3
 10
566.438359
 20
90.768686
 30
0.0
  0
VERTEX
  5
77A
  8
002
 62
     3
 10
566.523357
 20
90.84491
 30
0.0
  0
VERTEX
  5
77B
  8
002
 62
     3
 10
566.624486
 20
90.912804
 30
0.0
  0
VERTEX
  5
77C
  8
002
 62
     3
 10
566.734654
 20
90.963006
 30
0.0
  0
VERTEX
  5
77D
  8
002
 62
     3
 10
566.882942
 20
90.99837
 30
0.0
  0
VERTEX
  5
77E
  8
002
 62
     3
 10
567.036362
 20
91.015774
 30
0.0
  0
SEQEND
  5
773
  8
002
 62
     3
  0
POLYLINE
  5
77F
  8
002
 62
     3
 66
     1
 10
0.0
 20
0.0
 30
0.0
  0
VERTEX
  5
781
  8
002
 62
     3
 10
549.216378
 20
91.015774
 30
0.0
  0
VERTEX
  5
782
  8
002
 62
     3
 10
549.338367
 20
91.004847
 30
0.0
  0
VERTEX
  5
783
  8
002
 62
     3
 10
549.45789
 20
90.982814
 30
0.0
  0
VERTEX
  5
784
  8
002
 62
     3
 10
549.565839
 20
90.94407
 30
0.0
  0
VERTEX
  5
785
  8
002
 62
     3
 10
549.66708
 20
90.888811
 30
0.0
  0
VERTEX
  5
786
  8
002
 62
     3
 10
549.782447
 20
90.799645
 30
0.0
  0
VERTEX
  5
787
  8
002
 62
     3
 10
549.881355
 20
90.692865
 30
0.0
  0
VERTEX
  5
788
  8
002
 62
     3
 10
549.963261
 20
90.570975
 30
0.0
  0
VERTEX
  5
789
  8
002
 62
     3
 10
550.028392
 20
90.438972
 30
0.0
  0
VERTEX
  5
78A
  8
002
 62
     3
 10
550.071156
 20
90.322585
 30
0.0
  0
VERTEX
  5
78B
  8
002
 62
     3
 10
550.101182
 20
90.202743
 30
0.0
  0
VERTEX
  5
78C
  8
002
 62
     3
 10
550.11694
 20
90.09048
 30
0.0
  0
VERTEX
  5
78D
  8
002
 62
     3
 10
550.12637
 20
89.97714
 30
0.0
  0
SEQEND
  5
780
  8
002
 62
     3
  0
POLYLINE
  5
78E
  8
002
 62
     3
 66
     1
 10
0.0
 20
0.0
 30
0.0
  0
VERTEX
  5
790
  8
002
 62
     3
 10
496.12637
 20
89.97714
 30
0.0
  0
VERTEX
  5
791
  8
002
 62
     3
 10
496.147785
 20
90.154737
 30
0.0
  0
VERTEX
  5
792
  8
002
 62
     3
 10
496.184362
 20
90.329007
 30
0.0
  0
VERTEX
  5
793
  8
002
 62
     3
 10
496.257129
 20
90.514102
 30
0.0
  0
VERTEX
  5
794
  8
002
 62
     3
 10
496.363423
 20
90.682592
 30
0.0
  0
VERTEX
  5
795
  8
002
 62
     3
 10
496.438359
 20
90.768686
 30
0.0
  0
VERTEX
  5
796
  8
002
 62
     3
 10
496.523357
 20
90.84491
 30
0.0
  0
VERTEX
  5
797
  8
002
 62
     3
 10
496.624486
 20
90.912804
 30
0.0
  0
VERTEX
  5
798
  8
002
 62
     3
 10
496.734654
 20
90.963006
 30
0.0
  0
VERTEX
  5
799
  8
002
 62
     3
 10
496.882942
 20
90.99837
 30
0.0
  0
VERTEX
  5
79A
  8
002
 62
     3
 10
497.036362
 20
91.015774
 30
0.0
  0
SEQEND
  5
78F
  8
002
 62
     3
  0
POLYLINE
  5
79B
  8
002
 62
     3
 66
     1
 10
0.0
 20
0.0
 30
0.0
  0
VERTEX
  5
79D
  8
002
 62
     3
 10
479.216378
 20
91.015774
 30
0.0
  0
VERTEX
  5
79E
  8
002
 62
     3
 10
479.338367
 20
91.004847
 30
0.0
  0
VERTEX
  5
79F
  8
002
 62
     3
 10
479.45789
 20
90.982814
 30
0.0
  0
VERTEX
  5
7A0
  8
002
 62
     3
 10
479.565839
 20
90.94407
 30
0.0
  0
VERTEX
  5
7A1
  8
002
 62
     3
 10
479.66708
 20
90.888811
 30
0.0
  0
VERTEX
  5
7A2
  8
002
 62
     3
 10
479.782447
 20
90.799645
 30
0.0
  0
VERTEX
  5
7A3
  8
002
 62
     3
 10
479.881355
 20
90.692865
 30
0.0
  0
VERTEX
  5
7A4
  8
002
 62
     3
 10
479.963261
 20
90.570975
 30
0.0
  0
VERTEX
  5
7A5
  8
002
 62
     3
 10
480.028392
 20
90.438972
 30
0.0
  0
VERTEX
  5
7A6
  8
002
 62
     3
 10
480.071156
 20
90.322585
 30
0.0
  0
VERTEX
  5
7A7
  8
002
 62
     3
 10
480.101182
 20
90.202743
 30
0.0
  0
VERTEX
  5
7A8
  8
002
 62
     3
 10
480.11694
 20
90.09048
 30
0.0
  0
VERTEX
  5
7A9
  8
002
 62
     3
 10
480.12637
 20
89.97714
 30
0.0
  0
SEQEND
  5
79C
  8
002
 62
     3
  0
POLYLINE
  5
7AA
  8
002
 62
     3
 66
     1
 10
0.0
 20
0.0
 30
0.0
  0
VERTEX
  5
7AC
  8
002
 62
     3
 10
480.12637
 20
136.054408
 30
0.0
  0
VERTEX
  5
7AD
  8
002
 62
     3
 10
480.104955
 20
135.876811
 30
0.0
  0
VERTEX
  5
7AE
  8
002
 62
     3
 10
480.068378
 20
135.702542
 30
0.0
  0
VERTEX
  5
7AF
  8
002
 62
     3
 10
479.995612
 20
135.517447
 30
0.0
  0
VERTEX
  5
7B0
  8
002
 62
     3
 10
479.889318
 20
135.348956
 30
0.0
  0
VERTEX
  5
7B1
  8
002
 62
     3
 10
479.814382
 20
135.262863
 30
0.0
  0
VERTEX
  5
7B2
  8
002
 62
     3
 10
479.729384
 20
135.186638
 30
0.0
  0
VERTEX
  5
7B3
  8
002
 62
     3
 10
479.628255
 20
135.118744
 30
0.0
  0
VERTEX
  5
7B4
  8
002
 62
     3
 10
479.518086
 20
135.068542
 30
0.0
  0
VERTEX
  5
7B5
  8
002
 62
     3
 10
479.369799
 20
135.033179
 30
0.0
  0
VERTEX
  5
7B6
  8
002
 62
     3
 10
479.216378
 20
135.015774
 30
0.0
  0
SEQEND
  5
7AB
  8
002
 62
     3
  0
POLYLINE
  5
7B7
  8
002
 62
     3
 66
     1
 10
0.0
 20
0.0
 30
0.0
  0
VERTEX
  5
7B9
  8
002
 62
     3
 10
497.036362
 20
135.015774
 30
0.0
  0
VERTEX
  5
7BA
  8
002
 62
     3
 10
496.914373
 20
135.026702
 30
0.0
  0
VERTEX
  5
7BB
  8
002
 62
     3
 10
496.794851
 20
135.048734
 30
0.0
  0
VERTEX
  5
7BC
  8
002
 62
     3
 10
496.686902
 20
135.087478
 30
0.0
  0
VERTEX
  5
7BD
  8
002
 62
     3
 10
496.58566
 20
135.142737
 30
0.0
  0
VERTEX
  5
7BE
  8
002
 62
     3
 10
496.470293
 20
135.231904
 30
0.0
  0
VERTEX
  5
7BF
  8
002
 62
     3
 10
496.371385
 20
135.338683
 30
0.0
  0
VERTEX
  5
7C0
  8
002
 62
     3
 10
496.289479
 20
135.460573
 30
0.0
  0
VERTEX
  5
7C1
  8
002
 62
     3
 10
496.224348
 20
135.592576
 30
0.0
  0
VERTEX
  5
7C2
  8
002
 62
     3
 10
496.181585
 20
135.708963
 30
0.0
  0
VERTEX
  5
7C3
  8
002
 62
     3
 10
496.151559
 20
135.828805
 30
0.0
  0
VERTEX
  5
7C4
  8
002
 62
     3
 10
496.135801
 20
135.941069
 30
0.0
  0
VERTEX
  5
7C5
  8
002
 62
     3
 10
496.12637
 20
136.054408
 30
0.0
  0
SEQEND
  5
7B8
  8
002
 62
     3
  0
LINE
  5
7C6
  8
002
 62
     3
 10
570.12637
 20
91.015774
 30
0.0
 11
570.12637
 21
135.015774
 31
0.0
  0
LINE
  5
7C7
  8
002
 62
     3
 10
476.12637
 20
91.015774
 30
0.0
 11
476.12637
 21
135.015774
 31
0.0
  0
LINE
  5
7C8
  8
002
 62
     3
 10
549.216378
 20
91.015774
 30
0.0
 11
497.036362
 21
91.015774
 31
0.0
  0
LINE
  5
7C9
  8
002
 62
     3
 10
549.216378
 20
135.015774
 30
0.0
 11
497.036362
 21
135.015774
 31
0.0
  0
LINE
  5
7CA
  8
002
 62
     3
 10
550.12637
 20
141.015774
 30
0.0
 11
496.12637
 21
141.015774
 31
0.0
  0
LINE
  5
7CB
  8
002
 62
     3
 10
566.12637
 20
83.015774
 30
0.0
 11
480.12637
 21
83.015774
 31
0.0
  0
ARC
  5
7CC
  8
002
 62
     3
 10
548.12637
 20
143.015774
 30
0.0
 40
2.0
 50
270.0
 51
360.0
  0
ARC
  5
7CD
  8
002
 62
     3
 10
498.12637
 20
143.015774
 30
0.0
 40
2.0
 50
180.0
 51
270.0
  0
LINE
  5
7CE
  8
002
 62
     3
 10
476.12637
 20
135.015774
 30
0.0
 11
479.216378
 21
135.015774
 31
0.0
  0
LINE
  5
7CF
  8
002
 62
     3
 10
476.12637
 20
91.015774
 30
0.0
 11
479.216378
 21
91.015774
 31
0.0
  0
LINE
  5
7D0
  8
002
 62
     3
 10
570.12637
 20
91.015774
 30
0.0
 11
567.036362
 21
91.015774
 31
0.0
  0
LINE
  5
7D1
  8
002
 62
     3
 10
570.12637
 20
135.015774
 30
0.0
 11
567.036362
 21
135.015774
 31
0.0
  0
LINE
  5
7D2
  8
002
 62
     3
 10
566.12637
 20
143.015774
 30
0.0
 11
480.12637
 21
143.015774
 31
0.0
  0
LINE
  5
7D3
  8
002
 62
     3
 10
476.12637
 20
105.515774
 30
0.0
 11
449.12633
 21
105.515774
 31
0.0
  0
LINE
  5
7D4
  8
002
 62
     3
 10
449.12633
 20
105.515774
 30
0.0
 11
448.12633
 21
106.515774
 31
0.0
  0
LINE
  5
7D5
  8
002
 62
     3
 10
448.12633
 20
106.515774
 30
0.0
 11
448.12633
 21
122.515774
 31
0.0
  0
LINE
  5
7D6
  8
002
 62
     3
 10
448.12633
 20
122.515774
 30
0.0
 11
470.12637
 21
122.515774
 31
0.0
  0
LINE
  5
7D7
  8
002
 62
     3
 10
470.12637
 20
122.515774
 30
0.0
 11
470.12637
 21
120.086874
 31
0.0
  0
LINE
  5
7D8
  8
002
 62
     3
 10
470.12637
 20
120.086874
 30
0.0
 11
472.62637
 21
120.515774
 31
0.0
  0
LINE
  5
7D9
  8
002
 62
     3
 10
472.62637
 20
120.515774
 30
0.0
 11
476.12637
 21
120.515774
 31
0.0
  0
LINE
  5
7DA
  8
002
 62
     3
 10
570.12637
 20
120.515774
 30
0.0
 11
573.62637
 21
120.515774
 31
0.0
  0
LINE
  5
7DB
  8
002
 62
     3
 10
573.62637
 20
120.515774
 30
0.0
 11
576.12637
 21
120.086874
 31
0.0
  0
LINE
  5
7DC
  8
002
 62
     3
 10
576.12637
 20
120.086874
 30
0.0
 11
576.12637
 21
122.515774
 31
0.0
  0
LINE
  5
7DD
  8
002
 62
     3
 10
576.12637
 20
122.515774
 30
0.0
 11
598.12637
 21
122.515774
 31
0.0
  0
LINE
  5
7DE
  8
002
 62
     3
 10
598.12637
 20
122.515774
 30
0.0
 11
598.12637
 21
106.515774
 31
0.0
  0
LINE
  5
7DF
  8
002
 62
     3
 10
598.12637
 20
106.515774
 30
0.0
 11
597.12637
 21
105.515774
 31
0.0
  0
LINE
  5
7E0
  8
002
 62
     3
 10
597.12637
 20
105.515774
 30
0.0
 11
570.12637
 21
105.515774
 31
0.0
  0
LINE
  5
7E1
  8
002
 62
     3
 10
470.12637
 20
120.086874
 30
0.0
 11
448.6974
 21
120.086874
 31
0.0
  0
LINE
  5
7E2
  8
002
 62
     3
 10
448.6974
 20
120.086874
 30
0.0
 11
448.12633
 21
119.515774
 31
0.0
  0
LINE
  5
7E3
  8
002
 62
     3
 10
449.12633
 20
120.086874
 30
0.0
 11
449.12633
 21
105.515774
 31
0.0
  0
LINE
  5
7E4
  8
002
 62
     3
 10
576.12637
 20
120.086874
 30
0.0
 11
597.55527
 21
120.086874
 31
0.0
  0
LINE
  5
7E5
  8
002
 62
     3
 10
597.55527
 20
120.086874
 30
0.0
 11
598.12637
 21
119.515774
 31
0.0
  0
LINE
  5
7E6
  8
002
 62
     3
 10
597.12637
 20
120.086874
 30
0.0
 11
597.12637
 21
105.515774
 31
0.0
  0
LINE
  5
7E7
  8
002
 62
     3
 10
885.254649
 20
83.015774
 30
0.0
 11
885.254649
 21
79.015774
 31
0.0
  0
LINE
  5
7E8
  8
002
 62
     3
 10
814.754649
 20
143.015774
 30
0.0
 11
814.754649
 21
83.015774
 31
0.0
  0
LINE
  5
7E9
  8
002
 62
     3
 10
925.754649
 20
143.015774
 30
0.0
 11
925.754649
 21
83.015774
 31
0.0
  0
LINE
  5
7EA
  8
002
 62
     3
 10
830.754649
 20
143.015774
 30
0.0
 11
830.754649
 21
83.015774
 31
0.0
  0
LINE
  5
7EB
  8
002
 62
     3
 10
925.754649
 20
143.015774
 30
0.0
 11
909.754649
 21
143.015774
 31
0.0
  0
LINE
  5
7EC
  8
002
 62
     3
 10
909.754649
 20
83.015774
 30
0.0
 11
925.754649
 21
83.015774
 31
0.0
  0
LINE
  5
7ED
  8
002
 62
     3
 10
893.754649
 20
137.015774
 30
0.0
 11
893.754649
 21
141.015774
 31
0.0
  0
LINE
  5
7EE
  8
002
 62
     3
 10
909.754649
 20
89.015774
 30
0.0
 11
909.754649
 21
83.015774
 31
0.0
  0
LINE
  5
7EF
  8
002
 62
     3
 10
909.754649
 20
137.015774
 30
0.0
 11
909.754649
 21
143.015774
 31
0.0
  0
ARC
  5
7F0
  8
002
 62
     3
 10
887.254649
 20
89.015774
 30
0.0
 40
2.0
 50
90.0
 51
180.0
  0
LINE
  5
7F1
  8
002
 62
     3
 10
885.254649
 20
89.015774
 30
0.0
 11
885.254649
 21
83.015774
 31
0.0
  0
LINE
  5
7F2
  8
002
 62
     3
 10
832.754649
 20
141.015774
 30
0.0
 11
893.754649
 21
141.015774
 31
0.0
  0
ARC
  5
7F3
  8
002
 62
     3
 10
832.754649
 20
143.015774
 30
0.0
 40
2.0
 50
180.0
 51
270.0
  0
ARC
  5
7F4
  8
002
 62
     3
 10
907.754649
 20
137.015774
 30
0.0
 40
2.0
 50
270.0
 51
0.0
  0
ARC
  5
7F5
  8
002
 62
     3
 10
895.754649
 20
137.015774
 30
0.0
 40
2.0
 50
180.0
 51
270.0
  0
ARC
  5
7F6
  8
002
 62
     3
 10
907.754649
 20
89.015774
 30
0.0
 40
2.0
 50
0.0
 51
90.0
  0
LINE
  5
7F7
  8
002
 62
     3
 10
867.754649
 20
133.015774
 30
0.0
 11
867.754649
 21
93.015774
 31
0.0
  0
LINE
  5
7F8
  8
002
 62
     3
 10
909.754649
 20
135.015774
 30
0.0
 11
869.754649
 21
135.015774
 31
0.0
  0
LINE
  5
7F9
  8
002
 62
     3
 10
911.754649
 20
93.015774
 30
0.0
 11
911.754649
 21
133.015774
 31
0.0
  0
LINE
  5
7FA
  8
002
 62
     3
 10
909.754649
 20
91.015774
 30
0.0
 11
869.754649
 21
91.015774
 31
0.0
  0
ARC
  5
7FB
  8
002
 62
     3
 10
869.754649
 20
93.015774
 30
0.0
 40
2.0
 50
180.0
 51
270.0
  0
ARC
  5
7FC
  8
002
 62
     3
 10
869.754649
 20
133.015774
 30
0.0
 40
2.0
 50
90.0
 51
180.0
  0
ARC
  5
7FD
  8
002
 62
     3
 10
909.754649
 20
133.015774
 30
0.0
 40
2.0
 50
0.0
 51
90.0
  0
ARC
  5
7FE
  8
002
 62
     3
 10
909.754649
 20
93.015774
 30
0.0
 40
2.0
 50
270.0
 51
0.0
  0
LINE
  5
7FF
  8
002
 62
     3
 10
888.754649
 20
141.015774
 30
0.0
 11
888.754649
 21
143.015774
 31
0.0
  0
LINE
  5
800
  8
002
 62
    40
 10
887.672149
 20
143.015774
 30
0.0
 11
887.672149
 21
141.015774
 31
0.0
  0
LINE
  5
801
  8
002
 62
     3
 10
888.754649
 20
143.015774
 30
0.0
 11
814.754649
 21
143.015774
 31
0.0
  0
LINE
  5
802
  8
002
 62
     3
 10
885.254649
 20
83.015774
 30
0.0
 11
814.754649
 21
83.015774
 31
0.0
  0
LINE
  5
803
  8
002
 62
     3
 10
888.040449
 20
97.133174
 30
0.0
 11
888.040449
 21
99.187174
 31
0.0
  0
CIRCLE
  5
804
  8
002
 62
     3
 10
885.754649
 20
99.187174
 30
0.0
 40
1.0
  0
ARC
  5
805
  8
002
 62
     3
 10
885.754649
 20
99.187174
 30
0.0
 40
2.285799999999995
 50
0.0
 51
134.849339
  0
LINE
  5
806
  8
002
 62
     3
 10
891.468949
 20
99.187174
 30
0.0
 11
891.468949
 21
97.133174
 31
0.0
  0
ARC
  5
807
  8
002
 62
     3
 10
893.754649
 20
99.187174
 30
0.0
 40
2.285730572486588
 50
45.150661
 51
180.0
  0
ARC
  5
808
  8
002
 62
     3
 10
896.978649
 20
102.428174
 30
0.0
 40
2.285730572486588
 50
225.150661
 51
306.868895
  0
CIRCLE
  5
809
  8
002
 62
     3
 10
893.754649
 20
99.187174
 30
0.0
 40
1.0
  0
ARC
  5
80A
  8
002
 62
     3
 10
882.530749
 20
102.428174
 30
0.0
 40
2.28572000035006
 50
233.131105
 51
314.847561
  0
ARC
  5
80B
  8
002
 62
     3
 10
889.754649
 20
112.060874
 30
0.0
 40
14.32628000738505
 50
306.868058
 51
233.132262
  0
LINE
  5
80C
  8
002
 62
     3
 10
892.004649
 20
117.515774
 30
0.0
 11
887.504649
 21
117.515774
 31
0.0
  0
LINE
  5
80D
  8
002
 62
     3
 10
887.504649
 20
117.515774
 30
0.0
 11
887.254649
 21
117.765774
 31
0.0
  0
LINE
  5
80E
  8
002
 62
     3
 10
887.254649
 20
117.765774
 30
0.0
 11
887.254649
 21
122.265774
 31
0.0
  0
LINE
  5
80F
  8
002
 62
     3
 10
887.254649
 20
122.265774
 30
0.0
 11
887.504649
 21
122.515774
 31
0.0
  0
LINE
  5
810
  8
002
 62
     3
 10
887.504649
 20
122.515774
 30
0.0
 11
892.004649
 21
122.515774
 31
0.0
  0
LINE
  5
811
  8
002
 62
     3
 10
892.004649
 20
122.515774
 30
0.0
 11
892.254649
 21
122.265774
 31
0.0
  0
LINE
  5
812
  8
002
 62
     3
 10
892.254649
 20
122.265774
 30
0.0
 11
892.254649
 21
117.765774
 31
0.0
  0
LINE
  5
813
  8
002
 62
     3
 10
892.254649
 20
117.765774
 30
0.0
 11
892.004649
 21
117.515774
 31
0.0
  0
ARC
  5
814
  8
002
 62
     3
 10
892.054649
 20
117.715774
 30
0.0
 40
0.1999999999999886
 50
270.0
 51
0.0
  0
ARC
  5
815
  8
002
 62
     3
 10
889.754649
 20
113.015774
 30
0.0
 40
7.499936066394191
 50
109.471393
 51
70.528607
  0
ARC
  5
816
  8
002
 62
     3
 10
887.454649
 20
117.715774
 30
0.0
 40
0.2000000000000455
 50
180.0
 51
270.0
  0
CIRCLE
  5
817
  8
002
 62
     3
 10
889.754649
 20
113.015774
 30
0.0
 40
16.0
  0
LINE
  5
818
  8
002
  6
CENTER
 62
    40
 10
822.754649
 20
78.603574
 30
0.0
 11
822.754649
 21
147.910474
 31
0.0
  0
LINE
  5
819
  8
002
  6
CENTER
 62
    40
 10
917.754749
 20
78.603574
 30
0.0
 11
917.754749
 21
147.910474
 31
0.0
  0
LINE
  5
81A
  8
002
  6
CENTER
 62
    40
 10
889.754649
 20
143.015774
 30
0.0
 11
889.754649
 21
81.56432
 31
0.0
  0
LINE
  5
81B
  8
002
 62
     3
 10
1552.729053
 20
471.608021
 30
0.0
 11
1552.729053
 21
470.608021
 31
0.0
  0
LINE
  5
81C
  8
002
 62
     3
 10
1552.729053
 20
563.608021
 30
0.0
 11
1552.729053
 21
564.608021
 31
0.0
  0
LINE
  5
81D
  8
002
 62
     3
 10
1567.229053
 20
443.608021
 30
0.0
 11
1567.229053
 21
470.608021
 31
0.0
  0
LINE
  5
81E
  8
002
 62
     3
 10
1582.229053
 20
470.608021
 30
0.0
 11
1582.229053
 21
443.608021
 31
0.0
  0
LINE
  5
81F
  8
002
 62
     3
 10
1582.229053
 20
591.608021
 30
0.0
 11
1582.229053
 21
564.608021
 31
0.0
  0
LINE
  5
820
  8
002
 62
     3
 10
1567.229053
 20
564.608021
 30
0.0
 11
1567.229053
 21
591.608021
 31
0.0
  0
LINE
  5
821
  8
002
  6
CENTER
 62
    40
 10
1542.729053
 20
472.134514
 30
0.0
 11
1542.729053
 21
563.582721
 31
0.0
  0
CIRCLE
  5
822
  8
002
 62
     3
 10
1602.729053
 20
552.608021
 30
0.0
 40
8.0
  0
CIRCLE
  5
823
  8
002
 62
     3
 10
1602.729053
 20
482.608021
 30
0.0
 40
8.0
  0
LINE
  5
824
  8
002
 62
     3
 10
1596.729053
 20
470.608021
 30
0.0
 11
1552.729053
 21
470.608021
 31
0.0
  0
LINE
  5
825
  8
002
 62
     3
 10
1596.729053
 20
564.608021
 30
0.0
 11
1552.729053
 21
564.608021
 31
0.0
  0
CIRCLE
  5
826
  8
002
 62
     3
 10
1507.729053
 20
482.608021
 30
0.0
 40
8.0
  0
CIRCLE
  5
827
  8
002
 62
     3
 10
1507.729053
 20
552.608021
 30
0.0
 40
8.0
  0
LINE
  5
828
  8
002
 62
     3
 10
1600.729053
 20
544.608021
 30
0.0
 11
1602.729053
 21
544.608021
 31
0.0
  0
LINE
  5
829
  8
002
 62
     3
 10
1600.729053
 20
560.608021
 30
0.0
 11
1602.729053
 21
560.608021
 31
0.0
  0
LINE
  5
82A
  8
002
 62
     3
 10
1600.729053
 20
474.608021
 30
0.0
 11
1602.729053
 21
474.608021
 31
0.0
  0
LINE
  5
82B
  8
002
 62
     3
 10
1600.729053
 20
490.608021
 30
0.0
 11
1602.729053
 21
490.608021
 31
0.0
  0
LINE
  5
82C
  8
002
 62
     3
 10
1596.729053
 20
494.608021
 30
0.0
 11
1596.729053
 21
540.608021
 31
0.0
  0
LINE
  5
82D
  8
002
  6
CENTER
 62
    40
 10
1500.998914
 20
517.608021
 30
0.0
 11
1603.543103
 21
517.608021
 31
0.0
  0
ARC
  5
82E
  8
002
 62
     3
 10
1542.729053
 20
471.608021
 30
0.0
 40
10.0
 50
360.0
 51
90.0
  0
ARC
  5
82F
  8
002
 62
     3
 10
1542.729053
 20
563.608021
 30
0.0
 40
10.0
 50
270.0
 51
0.0
  0
ARC
  5
830
  8
002
 62
     3
 10
1542.729053
 20
517.608021
 30
0.0
 40
36.00000000000006
 50
257.693402
 51
270.0
  0
ARC
  5
831
  8
002
 62
     3
 10
1483.13077
 20
504.606304
 30
0.0
 40
25.0
 50
318.193684
 51
12.306598
  0
ARC
  5
832
  8
002
 62
     3
 10
1529.727336
 20
458.009738
 30
0.0
 40
25.0
 50
77.693402
 51
131.806316
  0
ARC
  5
833
  8
002
 62
     3
 10
1483.13077
 20
530.609738
 30
0.0
 40
25.0
 50
347.693402
 51
41.806316
  0
ARC
  5
834
  8
002
 62
     3
 10
1529.727336
 20
577.206304
 30
0.0
 40
25.0
 50
228.193684
 51
282.306598
  0
ARC
  5
835
  8
002
 62
     3
 10
1542.729053
 20
517.608021
 30
0.0
 40
36.00000000000006
 50
167.693402
 51
192.306598
  0
ARC
  5
836
  8
002
 62
     3
 10
1542.729053
 20
517.608021
 30
0.0
 40
36.00000000000006
 50
90.0
 51
102.306598
  0
ARC
  5
837
  8
002
 62
     3
 10
1600.729053
 20
470.608021
 30
0.0
 40
4.0
 50
90.0
 51
180.0
  0
ARC
  5
838
  8
002
 62
     3
 10
1600.729053
 20
564.608021
 30
0.0
 40
4.0
 50
180.0
 51
270.0
  0
ARC
  5
839
  8
002
 62
     3
 10
1600.729053
 20
540.608021
 30
0.0
 40
4.0
 50
90.0
 51
180.0
  0
ARC
  5
83A
  8
002
 62
     3
 10
1600.729053
 20
494.608021
 30
0.0
 40
4.0
 50
180.0
 51
270.0
  0
LINE
  5
83B
  8
002
  6
CENTER
 62
    40
 10
1602.729053
 20
492.608021
 30
0.0
 11
1602.729053
 21
472.608021
 31
0.0
  0
LINE
  5
83C
  8
002
  6
CENTER
 62
    40
 10
1612.729053
 20
482.608021
 30
0.0
 11
1592.729053
 21
482.608021
 31
0.0
  0
LINE
  5
83D
  8
002
  6
CENTER
 62
    40
 10
1602.729053
 20
562.608021
 30
0.0
 11
1602.729053
 21
542.608021
 31
0.0
  0
LINE
  5
83E
  8
002
  6
CENTER
 62
    40
 10
1612.729053
 20
552.608021
 30
0.0
 11
1592.729053
 21
552.608021
 31
0.0
  0
LINE
  5
83F
  8
002
  6
CENTER
 62
    40
 10
1507.729053
 20
562.608021
 30
0.0
 11
1507.729053
 21
542.608021
 31
0.0
  0
LINE
  5
840
  8
002
  6
CENTER
 62
    40
 10
1517.729053
 20
552.608021
 30
0.0
 11
1497.729053
 21
552.608021
 31
0.0
  0
LINE
  5
841
  8
002
  6
CENTER
 62
    40
 10
1507.729053
 20
492.608021
 30
0.0
 11
1507.729053
 21
472.608021
 31
0.0
  0
LINE
  5
842
  8
002
  6
CENTER
 62
    40
 10
1517.729053
 20
482.608021
 30
0.0
 11
1497.729053
 21
482.608021
 31
0.0
  0
LINE
  5
843
  8
002
 62
     3
 10
1567.229053
 20
591.608021
 30
0.0
 11
1568.229053
 21
592.608021
 31
0.0
  0
LINE
  5
844
  8
002
 62
     3
 10
1568.229053
 20
592.608021
 30
0.0
 11
1581.229053
 21
592.608021
 31
0.0
  0
LINE
  5
845
  8
002
 62
     3
 10
1581.229053
 20
592.608021
 30
0.0
 11
1582.229053
 21
591.608021
 31
0.0
  0
LINE
  5
846
  8
002
 62
     3
 10
1582.229053
 20
591.608021
 30
0.0
 11
1577.229053
 21
591.608021
 31
0.0
  0
LINE
  5
847
  8
002
 62
     3
 10
1577.229053
 20
592.608021
 30
0.0
 11
1577.229053
 21
570.608021
 31
0.0
  0
LINE
  5
848
  8
002
 62
     3
 10
1577.229053
 20
570.608021
 30
0.0
 11
1572.229053
 21
570.608021
 31
0.0
  0
LINE
  5
849
  8
002
 62
     3
 10
1572.229053
 20
570.608021
 30
0.0
 11
1572.229053
 21
592.608021
 31
0.0
  0
LINE
  5
84A
  8
002
 62
     3
 10
1572.229053
 20
591.608021
 30
0.0
 11
1567.229053
 21
591.608021
 31
0.0
  0
ARC
  5
84B
  8
002
 62
     3
 10
1574.729053
 20
570.608021
 30
0.0
 40
2.5
 50
180.0
 51
0.0
  0
LINE
  5
84C
  8
002
 62
     3
 10
1582.229053
 20
443.608021
 30
0.0
 11
1581.229053
 21
442.608021
 31
0.0
  0
LINE
  5
84D
  8
002
 62
     3
 10
1581.229053
 20
442.608021
 30
0.0
 11
1568.229053
 21
442.608021
 31
0.0
  0
LINE
  5
84E
  8
002
 62
     3
 10
1568.229053
 20
442.608021
 30
0.0
 11
1567.229053
 21
443.608021
 31
0.0
  0
LINE
  5
84F
  8
002
 62
     3
 10
1572.229053
 20
464.608021
 30
0.0
 11
1577.229053
 21
464.608021
 31
0.0
  0
LINE
  5
850
  8
002
 62
     3
 10
1577.229053
 20
464.608021
 30
0.0
 11
1577.229053
 21
442.608021
 31
0.0
  0
LINE
  5
851
  8
002
 62
     3
 10
1577.229053
 20
443.608021
 30
0.0
 11
1582.229053
 21
443.608021
 31
0.0
  0
LINE
  5
852
  8
002
 62
     3
 10
1572.229053
 20
443.608021
 30
0.0
 11
1567.229053
 21
443.608021
 31
0.0
  0
LINE
  5
853
  8
002
 62
     3
 10
1572.229053
 20
442.608021
 30
0.0
 11
1572.229053
 21
464.608021
 31
0.0
  0
ARC
  5
854
  8
002
 62
     3
 10
1574.729053
 20
464.608021
 30
0.0
 40
2.5
 50
0.0
 51
180.0
  0
LINE
  5
855
  8
002
  6
CENTER
 62
    40
 10
1574.729053
 20
439.910662
 30
0.0
 11
1574.729053
 21
596.289286
 31
0.0
  0
LINE
  5
856
  8
001
 62
     3
 10
1585.615803
 20
517.608021
 30
0.0
 11
1584.172427
 21
515.108021
 31
0.0
  0
LINE
  5
857
  8
001
 62
     3
 10
1584.172427
 20
520.108021
 30
0.0
 11
1581.285678
 21
520.108021
 31
0.0
  0
LINE
  5
858
  8
001
 62
     3
 10
1579.842303
 20
517.608021
 30
0.0
 11
1581.285678
 21
520.108021
 31
0.0
  0
LINE
  5
859
  8
001
 62
     3
 10
1581.285678
 20
515.108021
 30
0.0
 11
1579.842303
 21
517.608021
 31
0.0
  0
LINE
  5
85A
  8
001
 62
     3
 10
1584.172427
 20
515.108021
 30
0.0
 11
1581.285678
 21
515.108021
 31
0.0
  0
CIRCLE
  5
85B
  8
001
 62
    40
 10
1582.729053
 20
517.608021
 30
0.0
 40
4.573499999999999
  0
CIRCLE
  5
85C
  8
001
 62
     3
 10
1582.729053
 20
517.608021
 30
0.0
 40
4.863999999999999
  0
LINE
  5
85D
  8
001
 62
     3
 10
1585.615308
 20
517.608878
 30
0.0
 11
1584.172427
 21
520.108021
 31
0.0
  0
LINE
  5
85E
  8
002
 62
     3
 10
1422.532053
 20
256.561577
 30
0.0
 11
1336.532053
 21
256.561577
 31
0.0
  0
LINE
  5
85F
  8
002
 62
     3
 10
1332.532053
 20
264.561577
 30
0.0
 11
1335.622061
 21
264.561577
 31
0.0
  0
LINE
  5
860
  8
002
 62
     3
 10
1332.532053
 20
308.561577
 30
0.0
 11
1335.622061
 21
308.561577
 31
0.0
  0
LINE
  5
861
  8
002
 62
     3
 10
1426.532053
 20
308.561577
 30
0.0
 11
1423.442045
 21
308.561577
 31
0.0
  0
LINE
  5
862
  8
002
 62
     3
 10
1426.532053
 20
264.561577
 30
0.0
 11
1423.442045
 21
264.561577
 31
0.0
  0
LINE
  5
863
  8
002
 62
     3
 10
1332.532053
 20
279.061577
 30
0.0
 11
1305.532013
 21
279.061577
 31
0.0
  0
LINE
  5
864
  8
002
 62
     3
 10
1305.532013
 20
279.061577
 30
0.0
 11
1304.532013
 21
280.061577
 31
0.0
  0
LINE
  5
865
  8
002
 62
     3
 10
1304.532013
 20
280.061577
 30
0.0
 11
1304.532013
 21
296.061577
 31
0.0
  0
LINE
  5
866
  8
002
 62
     3
 10
1304.532013
 20
296.061577
 30
0.0
 11
1326.532053
 21
296.061577
 31
0.0
  0
LINE
  5
867
  8
002
 62
     3
 10
1326.532053
 20
296.061577
 30
0.0
 11
1326.532053
 21
293.632677
 31
0.0
  0
LINE
  5
868
  8
002
 62
     3
 10
1326.532053
 20
293.632677
 30
0.0
 11
1329.032053
 21
294.061577
 31
0.0
  0
LINE
  5
869
  8
002
 62
     3
 10
1329.032053
 20
294.061577
 30
0.0
 11
1332.532053
 21
294.061577
 31
0.0
  0
LINE
  5
86A
  8
002
 62
     3
 10
1426.532053
 20
294.061577
 30
0.0
 11
1430.032053
 21
294.061577
 31
0.0
  0
LINE
  5
86B
  8
002
 62
     3
 10
1430.032053
 20
294.061577
 30
0.0
 11
1432.532053
 21
293.632677
 31
0.0
  0
LINE
  5
86C
  8
002
 62
     3
 10
1432.532053
 20
293.632677
 30
0.0
 11
1432.532053
 21
296.061577
 31
0.0
  0
LINE
  5
86D
  8
002
 62
     3
 10
1432.532053
 20
296.061577
 30
0.0
 11
1454.532053
 21
296.061577
 31
0.0
  0
LINE
  5
86E
  8
002
 62
     3
 10
1454.532053
 20
296.061577
 30
0.0
 11
1454.532053
 21
280.061577
 31
0.0
  0
LINE
  5
86F
  8
002
 62
     3
 10
1454.532053
 20
280.061577
 30
0.0
 11
1453.532053
 21
279.061577
 31
0.0
  0
LINE
  5
870
  8
002
 62
     3
 10
1453.532053
 20
279.061577
 30
0.0
 11
1426.532053
 21
279.061577
 31
0.0
  0
LINE
  5
871
  8
002
 62
     3
 10
1326.532053
 20
293.632677
 30
0.0
 11
1305.103083
 21
293.632677
 31
0.0
  0
LINE
  5
872
  8
002
 62
     3
 10
1305.103083
 20
293.632677
 30
0.0
 11
1304.532013
 21
293.061577
 31
0.0
  0
LINE
  5
873
  8
002
 62
     3
 10
1305.532013
 20
293.632677
 30
0.0
 11
1305.532013
 21
279.061577
 31
0.0
  0
LINE
  5
874
  8
002
 62
     3
 10
1432.532053
 20
293.632677
 30
0.0
 11
1453.960953
 21
293.632677
 31
0.0
  0
LINE
  5
875
  8
002
 62
     3
 10
1453.960953
 20
293.632677
 30
0.0
 11
1454.532053
 21
293.061577
 31
0.0
  0
LINE
  5
876
  8
002
 62
     3
 10
1453.532053
 20
293.632677
 30
0.0
 11
1453.532053
 21
279.061577
 31
0.0
  0
LINE
  5
877
  8
002
 62
     3
 10
1422.532053
 20
316.561577
 30
0.0
 11
1422.532053
 21
256.561577
 31
0.0
  0
LINE
  5
878
  8
002
 62
     3
 10
1406.532053
 20
310.561577
 30
0.0
 11
1406.532053
 21
316.561577
 31
0.0
  0
LINE
  5
879
  8
002
 62
     3
 10
1409.199136
 20
310.561577
 30
0.0
 11
1409.199136
 21
256.561577
 31
0.0
  0
LINE
  5
87A
  8
002
 62
     3
 10
1352.532053
 20
316.561577
 30
0.0
 11
1352.532053
 21
310.561577
 31
0.0
  0
LINE
  5
87B
  8
002
 62
     3
 10
1336.532053
 20
256.561577
 30
0.0
 11
1336.532053
 21
316.561577
 31
0.0
  0
LINE
  5
87C
  8
002
 62
     3
 10
1349.86497
 20
310.561577
 30
0.0
 11
1349.86497
 21
256.561577
 31
0.0
  0
POLYLINE
  5
87D
  8
002
 62
     3
 66
     1
 10
0.0
 20
0.0
 30
0.0
  0
VERTEX
  5
87F
  8
002
 62
     3
 10
1409.199136
 20
256.561577
 30
0.0
  0
VERTEX
  5
880
  8
002
 62
     3
 10
1409.194103
 20
256.565455
 30
0.0
  0
VERTEX
  5
881
  8
002
 62
     3
 10
1409.18907
 20
256.569333
 30
0.0
  0
VERTEX
  5
882
  8
002
 62
     3
 10
1408.86612
 20
256.815648
 30
0.0
  0
VERTEX
  5
883
  8
002
 62
     3
 10
1408.539683
 20
257.057311
 30
0.0
  0
VERTEX
  5
884
  8
002
 62
     3
 10
1408.204043
 20
257.294868
 30
0.0
  0
VERTEX
  5
885
  8
002
 62
     3
 10
1407.861857
 20
257.522998
 30
0.0
  0
VERTEX
  5
886
  8
002
 62
     3
 10
1407.504053
 20
257.743688
 30
0.0
  0
VERTEX
  5
887
  8
002
 62
     3
 10
1407.136648
 20
257.947666
 30
0.0
  0
VERTEX
  5
888
  8
002
 62
     3
 10
1406.756534
 20
258.131602
 30
0.0
  0
VERTEX
  5
889
  8
002
 62
     3
 10
1406.365184
 20
258.291484
 30
0.0
  0
VERTEX
  5
88A
  8
002
 62
     3
 10
1406.029945
 20
258.403111
 30
0.0
  0
VERTEX
  5
88B
  8
002
 62
     3
 10
1405.68741
 20
258.485525
 30
0.0
  0
VERTEX
  5
88C
  8
002
 62
     3
 10
1405.327523
 20
258.534153
 30
0.0
  0
VERTEX
  5
88D
  8
002
 62
     3
 10
1404.964081
 20
258.561577
 30
0.0
  0
SEQEND
  5
87E
  8
002
 62
     3
  0
POLYLINE
  5
88E
  8
002
 62
     3
 66
     1
 10
0.0
 20
0.0
 30
0.0
  0
VERTEX
  5
890
  8
002
 62
     3
 10
1404.964081
 20
308.561577
 30
0.0
  0
VERTEX
  5
891
  8
002
 62
     3
 10
1405.319397
 20
308.587855
 30
0.0
  0
VERTEX
  5
892
  8
002
 62
     3
 10
1405.671381
 20
308.634399
 30
0.0
  0
VERTEX
  5
893
  8
002
 62
     3
 10
1406.022078
 20
308.717745
 30
0.0
  0
VERTEX
  5
894
  8
002
 62
     3
 10
1406.365184
 20
308.83167
 30
0.0
  0
VERTEX
  5
895
  8
002
 62
     3
 10
1406.75016
 20
308.988686
 30
0.0
  0
VERTEX
  5
896
  8
002
 62
     3
 10
1407.124241
 20
309.169039
 30
0.0
  0
VERTEX
  5
897
  8
002
 62
     3
 10
1407.486008
 20
309.368916
 30
0.0
  0
VERTEX
  5
898
  8
002
 62
     3
 10
1407.83844
 20
309.585137
 30
0.0
  0
VERTEX
  5
899
  8
002
 62
     3
 10
1408.186911
 20
309.816493
 30
0.0
  0
VERTEX
  5
89A
  8
002
 62
     3
 10
1408.528536
 20
310.057748
 30
0.0
  0
VERTEX
  5
89B
  8
002
 62
     3
 10
1408.860619
 20
310.30336
 30
0.0
  0
VERTEX
  5
89C
  8
002
 62
     3
 10
1409.18907
 20
310.553821
 30
0.0
  0
VERTEX
  5
89D
  8
002
 62
     3
 10
1409.194103
 20
310.557699
 30
0.0
  0
VERTEX
  5
89E
  8
002
 62
     3
 10
1409.199136
 20
310.561577
 30
0.0
  0
SEQEND
  5
88F
  8
002
 62
     3
  0
ARC
  5
89F
  8
002
 62
     3
 10
1404.532053
 20
310.561577
 30
0.0
 40
2.0
 50
270.0
 51
0.0
  0
ARC
  5
8A0
  8
002
 62
     3
 10
1404.532053
 20
256.561577
 30
0.0
 40
2.0
 50
0.0
 51
90.0
  0
ARC
  5
8A1
  8
002
 62
     3
 10
1354.532053
 20
256.561577
 30
0.0
 40
2.0
 50
90.0
 51
180.0
  0
POLYLINE
  5
8A2
  8
002
 62
     3
 66
     1
 10
0.0
 20
0.0
 30
0.0
  0
VERTEX
  5
8A4
  8
002
 62
     3
 10
1354.100024
 20
258.561577
 30
0.0
  0
VERTEX
  5
8A5
  8
002
 62
     3
 10
1353.744708
 20
258.535299
 30
0.0
  0
VERTEX
  5
8A6
  8
002
 62
     3
 10
1353.392725
 20
258.488755
 30
0.0
  0
VERTEX
  5
8A7
  8
002
 62
     3
 10
1353.042028
 20
258.405409
 30
0.0
  0
VERTEX
  5
8A8
  8
002
 62
     3
 10
1352.698921
 20
258.291484
 30
0.0
  0
VERTEX
  5
8A9
  8
002
 62
     3
 10
1352.313946
 20
258.134468
 30
0.0
  0
VERTEX
  5
8AA
  8
002
 62
     3
 10
1351.939864
 20
257.954115
 30
0.0
  0
VERTEX
  5
8AB
  8
002
 62
     3
 10
1351.578098
 20
257.754238
 30
0.0
  0
VERTEX
  5
8AC
  8
002
 62
     3
 10
1351.225666
 20
257.538017
 30
0.0
  0
VERTEX
  5
8AD
  8
002
 62
     3
 10
1350.877194
 20
257.306661
 30
0.0
  0
VERTEX
  5
8AE
  8
002
 62
     3
 10
1350.53557
 20
257.065407
 30
0.0
  0
VERTEX
  5
8AF
  8
002
 62
     3
 10
1350.203487
 20
256.819794
 30
0.0
  0
VERTEX
  5
8B0
  8
002
 62
     3
 10
1349.875036
 20
256.569333
 30
0.0
  0
VERTEX
  5
8B1
  8
002
 62
     3
 10
1349.870003
 20
256.565455
 30
0.0
  0
VERTEX
  5
8B2
  8
002
 62
     3
 10
1349.86497
 20
256.561577
 30
0.0
  0
SEQEND
  5
8A3
  8
002
 62
     3
  0
ARC
  5
8B3
  8
002
 62
     3
 10
1354.532053
 20
310.561577
 30
0.0
 40
2.0
 50
180.0
 51
270.0
  0
POLYLINE
  5
8B4
  8
002
 62
     3
 66
     1
 10
0.0
 20
0.0
 30
0.0
  0
VERTEX
  5
8B6
  8
002
 62
     3
 10
1349.86497
 20
310.561577
 30
0.0
  0
VERTEX
  5
8B7
  8
002
 62
     3
 10
1349.870003
 20
310.557699
 30
0.0
  0
VERTEX
  5
8B8
  8
002
 62
     3
 10
1349.875036
 20
310.553821
 30
0.0
  0
VERTEX
  5
8B9
  8
002
 62
     3
 10
1350.197986
 20
310.307506
 30
0.0
  0
VERTEX
  5
8BA
  8
002
 62
     3
 10
1350.524422
 20
310.065843
 30
0.0
  0
VERTEX
  5
8BB
  8
002
 62
     3
 10
1350.860063
 20
309.828286
 30
0.0
  0
VERTEX
  5
8BC
  8
002
 62
     3
 10
1351.202249
 20
309.600156
 30
0.0
  0
VERTEX
  5
8BD
  8
002
 62
     3
 10
1351.560053
 20
309.379466
 30
0.0
  0
VERTEX
  5
8BE
  8
002
 62
     3
 10
1351.927457
 20
309.175488
 30
0.0
  0
VERTEX
  5
8BF
  8
002
 62
     3
 10
1352.307572
 20
308.991552
 30
0.0
  0
VERTEX
  5
8C0
  8
002
 62
     3
 10
1352.698921
 20
308.83167
 30
0.0
  0
VERTEX
  5
8C1
  8
002
 62
     3
 10
1353.03416
 20
308.720043
 30
0.0
  0
VERTEX
  5
8C2
  8
002
 62
     3
 10
1353.376695
 20
308.637629
 30
0.0
  0
VERTEX
  5
8C3
  8
002
 62
     3
 10
1353.736583
 20
308.589002
 30
0.0
  0
VERTEX
  5
8C4
  8
002
 62
     3
 10
1354.100024
 20
308.561577
 30
0.0
  0
SEQEND
  5
8B5
  8
002
 62
     3
  0
LINE
  5
8C5
  8
002
 62
     3
 10
1404.964081
 20
308.561577
 30
0.0
 11
1354.100024
 21
308.561577
 31
0.0
  0
LINE
  5
8C6
  8
002
 62
     3
 10
1404.964081
 20
258.561577
 30
0.0
 11
1354.100024
 21
258.561577
 31
0.0
  0
LINE
  5
8C7
  8
002
 62
     3
 10
1422.532053
 20
316.561577
 30
0.0
 11
1336.532053
 21
316.561577
 31
0.0
  0
LINE
  5
8C8
  8
002
 62
     3
 10
1426.532053
 20
264.561577
 30
0.0
 11
1426.532053
 21
308.561577
 31
0.0
  0
LINE
  5
8C9
  8
002
 62
     3
 10
1332.532053
 20
264.561577
 30
0.0
 11
1332.532053
 21
308.561577
 31
0.0
  0
POLYLINE
  5
8CA
  8
002
 62
     3
 66
     1
 10
0.0
 20
0.0
 30
0.0
  0
VERTEX
  5
8CC
  8
002
 62
     3
 10
1423.442045
 20
308.561577
 30
0.0
  0
VERTEX
  5
8CD
  8
002
 62
     3
 10
1423.320056
 20
308.572504
 30
0.0
  0
VERTEX
  5
8CE
  8
002
 62
     3
 10
1423.200533
 20
308.594537
 30
0.0
  0
VERTEX
  5
8CF
  8
002
 62
     3
 10
1423.092584
 20
308.633281
 30
0.0
  0
VERTEX
  5
8D0
  8
002
 62
     3
 10
1422.991343
 20
308.68854
 30
0.0
  0
VERTEX
  5
8D1
  8
002
 62
     3
 10
1422.875976
 20
308.777707
 30
0.0
  0
VERTEX
  5
8D2
  8
002
 62
     3
 10
1422.777068
 20
308.884486
 30
0.0
  0
VERTEX
  5
8D3
  8
002
 62
     3
 10
1422.695162
 20
309.006376
 30
0.0
  0
VERTEX
  5
8D4
  8
002
 62
     3
 10
1422.630031
 20
309.138379
 30
0.0
  0
VERTEX
  5
8D5
  8
002
 62
     3
 10
1422.587267
 20
309.254766
 30
0.0
  0
VERTEX
  5
8D6
  8
002
 62
     3
 10
1422.557241
 20
309.374608
 30
0.0
  0
VERTEX
  5
8D7
  8
002
 62
     3
 10
1422.541483
 20
309.486871
 30
0.0
  0
VERTEX
  5
8D8
  8
002
 62
     3
 10
1422.532053
 20
309.600211
 30
0.0
  0
SEQEND
  5
8CB
  8
002
 62
     3
  0
POLYLINE
  5
8D9
  8
002
 62
     3
 66
     1
 10
0.0
 20
0.0
 30
0.0
  0
VERTEX
  5
8DB
  8
002
 62
     3
 10
1422.532053
 20
263.522943
 30
0.0
  0
VERTEX
  5
8DC
  8
002
 62
     3
 10
1422.553468
 20
263.70054
 30
0.0
  0
VERTEX
  5
8DD
  8
002
 62
     3
 10
1422.590045
 20
263.874809
 30
0.0
  0
VERTEX
  5
8DE
  8
002
 62
     3
 10
1422.662811
 20
264.059905
 30
0.0
  0
VERTEX
  5
8DF
  8
002
 62
     3
 10
1422.769105
 20
264.228395
 30
0.0
  0
VERTEX
  5
8E0
  8
002
 62
     3
 10
1422.844041
 20
264.314488
 30
0.0
  0
VERTEX
  5
8E1
  8
002
 62
     3
 10
1422.929039
 20
264.390713
 30
0.0
  0
VERTEX
  5
8E2
  8
002
 62
     3
 10
1423.030168
 20
264.458607
 30
0.0
  0
VERTEX
  5
8E3
  8
002
 62
     3
 10
1423.140337
 20
264.508809
 30
0.0
  0
VERTEX
  5
8E4
  8
002
 62
     3
 10
1423.288624
 20
264.544172
 30
0.0
  0
VERTEX
  5
8E5
  8
002
 62
     3
 10
1423.442045
 20
264.561577
 30
0.0
  0
SEQEND
  5
8DA
  8
002
 62
     3
  0
POLYLINE
  5
8E6
  8
002
 62
     3
 66
     1
 10
0.0
 20
0.0
 30
0.0
  0
VERTEX
  5
8E8
  8
002
 62
     3
 10
1335.622061
 20
264.561577
 30
0.0
  0
VERTEX
  5
8E9
  8
002
 62
     3
 10
1335.74405
 20
264.55065
 30
0.0
  0
VERTEX
  5
8EA
  8
002
 62
     3
 10
1335.863572
 20
264.528617
 30
0.0
  0
VERTEX
  5
8EB
  8
002
 62
     3
 10
1335.971521
 20
264.489873
 30
0.0
  0
VERTEX
  5
8EC
  8
002
 62
     3
 10
1336.072763
 20
264.434614
 30
0.0
  0
VERTEX
  5
8ED
  8
002
 62
     3
 10
1336.18813
 20
264.345447
 30
0.0
  0
VERTEX
  5
8EE
  8
002
 62
     3
 10
1336.287038
 20
264.238668
 30
0.0
  0
VERTEX
  5
8EF
  8
002
 62
     3
 10
1336.368944
 20
264.116778
 30
0.0
  0
VERTEX
  5
8F0
  8
002
 62
     3
 10
1336.434075
 20
263.984775
 30
0.0
  0
VERTEX
  5
8F1
  8
002
 62
     3
 10
1336.476838
 20
263.868388
 30
0.0
  0
VERTEX
  5
8F2
  8
002
 62
     3
 10
1336.506864
 20
263.748546
 30
0.0
  0
VERTEX
  5
8F3
  8
002
 62
     3
 10
1336.522622
 20
263.636283
 30
0.0
  0
VERTEX
  5
8F4
  8
002
 62
     3
 10
1336.532053
 20
263.522943
 30
0.0
  0
SEQEND
  5
8E7
  8
002
 62
     3
  0
POLYLINE
  5
8F5
  8
002
 62
     3
 66
     1
 10
0.0
 20
0.0
 30
0.0
  0
VERTEX
  5
8F7
  8
002
 62
     3
 10
1336.532053
 20
309.600211
 30
0.0
  0
VERTEX
  5
8F8
  8
002
 62
     3
 10
1336.510638
 20
309.422614
 30
0.0
  0
VERTEX
  5
8F9
  8
002
 62
     3
 10
1336.474061
 20
309.248345
 30
0.0
  0
VERTEX
  5
8FA
  8
002
 62
     3
 10
1336.401294
 20
309.063249
 30
0.0
  0
VERTEX
  5
8FB
  8
002
 62
     3
 10
1336.295001
 20
308.894759
 30
0.0
  0
VERTEX
  5
8FC
  8
002
 62
     3
 10
1336.220064
 20
308.808666
 30
0.0
  0
VERTEX
  5
8FD
  8
002
 62
     3
 10
1336.135066
 20
308.732441
 30
0.0
  0
VERTEX
  5
8FE
  8
002
 62
     3
 10
1336.033937
 20
308.664547
 30
0.0
  0
VERTEX
  5
8FF
  8
002
 62
     3
 10
1335.923769
 20
308.614345
 30
0.0
  0
VERTEX
  5
900
  8
002
 62
     3
 10
1335.775481
 20
308.578982
 30
0.0
  0
VERTEX
  5
901
  8
002
 62
     3
 10
1335.622061
 20
308.561577
 30
0.0
  0
SEQEND
  5
8F6
  8
002
 62
     3
  0
LINE
  5
902
  8
002
 62
     3
 10
1407.032053
 20
320.561577
 30
0.0
 11
1407.032053
 21
316.561577
 31
0.0
  0
LINE
  5
903
  8
002
 62
     3
 10
1499.729053
 20
256.561577
 30
0.0
 11
1499.729053
 21
316.561577
 31
0.0
  0
LINE
  5
904
  8
002
 62
     3
 10
1610.729053
 20
256.561577
 30
0.0
 11
1610.729053
 21
316.561577
 31
0.0
  0
LINE
  5
905
  8
002
 62
     3
 10
1515.729053
 20
256.561577
 30
0.0
 11
1515.729053
 21
316.561577
 31
0.0
  0
LINE
  5
906
  8
002
 62
     3
 10
1610.729053
 20
256.561577
 30
0.0
 11
1594.729053
 21
256.561577
 31
0.0
  0
LINE
  5
907
  8
002
 62
     3
 10
1594.729053
 20
316.561577
 30
0.0
 11
1610.729053
 21
316.561577
 31
0.0
  0
LINE
  5
908
  8
002
 62
     3
 10
1578.729053
 20
262.561577
 30
0.0
 11
1578.729053
 21
258.561577
 31
0.0
  0
LINE
  5
909
  8
002
 62
     3
 10
1594.729053
 20
310.561577
 30
0.0
 11
1594.729053
 21
316.561577
 31
0.0
  0
LINE
  5
90A
  8
002
 62
     3
 10
1594.729053
 20
262.561577
 30
0.0
 11
1594.729053
 21
256.561577
 31
0.0
  0
ARC
  5
90B
  8
002
 62
     3
 10
1572.229053
 20
310.561577
 30
0.0
 40
2.0
 50
180.0
 51
270.0
  0
LINE
  5
90C
  8
002
 62
     3
 10
1570.229053
 20
310.561577
 30
0.0
 11
1570.229053
 21
316.561577
 31
0.0
  0
LINE
  5
90D
  8
002
 62
     3
 10
1517.729053
 20
258.561577
 30
0.0
 11
1578.729053
 21
258.561577
 31
0.0
  0
ARC
  5
90E
  8
002
 62
     3
 10
1517.729053
 20
256.561577
 30
0.0
 40
2.0
 50
90.0
 51
180.0
  0
ARC
  5
90F
  8
002
 62
     3
 10
1592.729053
 20
262.561577
 30
0.0
 40
2.0
 50
360.0
 51
90.0
  0
ARC
  5
910
  8
002
 62
     3
 10
1580.729053
 20
262.561577
 30
0.0
 40
2.0
 50
90.0
 51
180.0
  0
ARC
  5
911
  8
002
 62
     3
 10
1592.729053
 20
310.561577
 30
0.0
 40
2.0
 50
270.0
 51
0.0
  0
LINE
  5
912
  8
002
 62
     3
 10
1552.729053
 20
266.561577
 30
0.0
 11
1552.729053
 21
306.561577
 31
0.0
  0
LINE
  5
913
  8
002
 62
     3
 10
1594.729053
 20
264.561577
 30
0.0
 11
1554.729053
 21
264.561577
 31
0.0
  0
LINE
  5
914
  8
002
 62
     3
 10
1596.729053
 20
306.561577
 30
0.0
 11
1596.729053
 21
266.561577
 31
0.0
  0
LINE
  5
915
  8
002
 62
     3
 10
1594.729053
 20
308.561577
 30
0.0
 11
1554.729053
 21
308.561577
 31
0.0
  0
ARC
  5
916
  8
002
 62
     3
 10
1554.729053
 20
306.561577
 30
0.0
 40
2.0
 50
90.0
 51
180.0
  0
ARC
  5
917
  8
002
 62
     3
 10
1554.729053
 20
266.561577
 30
0.0
 40
2.0
 50
180.0
 51
270.0
  0
ARC
  5
918
  8
002
 62
     3
 10
1594.729053
 20
266.561577
 30
0.0
 40
2.0
 50
270.0
 51
0.0
  0
ARC
  5
919
  8
002
 62
     3
 10
1594.729053
 20
306.561577
 30
0.0
 40
2.0
 50
360.0
 51
90.0
  0
LINE
  5
91A
  8
002
 62
     3
 10
1573.729053
 20
258.561577
 30
0.0
 11
1573.729053
 21
256.561577
 31
0.0
  0
LINE
  5
91B
  8
002
 62
    40
 10
1572.646553
 20
256.561577
 30
0.0
 11
1572.646553
 21
258.561577
 31
0.0
  0
LINE
  5
91C
  8
002
 62
     3
 10
1573.729053
 20
256.561577
 30
0.0
 11
1499.729053
 21
256.561577
 31
0.0
  0
LINE
  5
91D
  8
002
 62
     3
 10
1570.229053
 20
316.561577
 30
0.0
 11
1499.729053
 21
316.561577
 31
0.0
  0
LINE
  5
91E
  8
002
 62
     3
 10
1573.014853
 20
270.678977
 30
0.0
 11
1573.014853
 21
272.732977
 31
0.0
  0
CIRCLE
  5
91F
  8
002
 62
     3
 10
1570.729053
 20
272.732977
 30
0.0
 40
1.0
  0
ARC
  5
920
  8
002
 62
     3
 10
1570.729053
 20
272.732977
 30
0.0
 40
2.285799999999995
 50
0.0
 51
134.849339
  0
LINE
  5
921
  8
002
 62
     3
 10
1576.443353
 20
272.732977
 30
0.0
 11
1576.443353
 21
270.678977
 31
0.0
  0
ARC
  5
922
  8
002
 62
     3
 10
1578.729053
 20
272.732977
 30
0.0
 40
2.285730572486588
 50
45.150661
 51
180.0
  0
ARC
  5
923
  8
002
 62
     3
 10
1581.953053
 20
275.973977
 30
0.0
 40
2.285730572486588
 50
225.150661
 51
306.868895
  0
CIRCLE
  5
924
  8
002
 62
     3
 10
1578.729053
 20
272.732977
 30
0.0
 40
1.0
  0
ARC
  5
925
  8
002
 62
     3
 10
1567.505153
 20
275.973977
 30
0.0
 40
2.28572000035006
 50
233.131105
 51
314.847561
  0
ARC
  5
926
  8
002
 62
     3
 10
1574.729053
 20
285.606677
 30
0.0
 40
14.32628000738505
 50
306.868058
 51
233.132262
  0
LINE
  5
927
  8
002
 62
     3
 10
1576.979053
 20
291.061577
 30
0.0
 11
1572.479053
 21
291.061577
 31
0.0
  0
LINE
  5
928
  8
002
 62
     3
 10
1572.479053
 20
291.061577
 30
0.0
 11
1572.229053
 21
291.311577
 31
0.0
  0
LINE
  5
929
  8
002
 62
     3
 10
1572.229053
 20
291.311577
 30
0.0
 11
1572.229053
 21
295.811577
 31
0.0
  0
LINE
  5
92A
  8
002
 62
     3
 10
1572.229053
 20
295.811577
 30
0.0
 11
1572.479053
 21
296.061577
 31
0.0
  0
LINE
  5
92B
  8
002
 62
     3
 10
1572.479053
 20
296.061577
 30
0.0
 11
1576.979053
 21
296.061577
 31
0.0
  0
LINE
  5
92C
  8
002
 62
     3
 10
1576.979053
 20
296.061577
 30
0.0
 11
1577.229053
 21
295.811577
 31
0.0
  0
LINE
  5
92D
  8
002
 62
     3
 10
1577.229053
 20
295.811577
 30
0.0
 11
1577.229053
 21
291.311577
 31
0.0
  0
LINE
  5
92E
  8
002
 62
     3
 10
1577.229053
 20
291.311577
 30
0.0
 11
1576.979053
 21
291.061577
 31
0.0
  0
ARC
  5
92F
  8
002
 62
     3
 10
1577.029053
 20
291.261577
 30
0.0
 40
0.1999999999999886
 50
270.0
 51
0.0
  0
ARC
  5
930
  8
002
 62
     3
 10
1574.729053
 20
286.561577
 30
0.0
 40
7.499936066394191
 50
109.471393
 51
70.528607
  0
ARC
  5
931
  8
002
 62
     3
 10
1572.429053
 20
291.261577
 30
0.0
 40
0.2000000000000455
 50
180.0
 51
270.0
  0
CIRCLE
  5
932
  8
002
 62
     3
 10
1574.729053
 20
286.561577
 30
0.0
 40
16.0
  0
LINE
  5
933
  8
002
  6
CENTER
 62
    40
 10
1507.729053
 20
320.973777
 30
0.0
 11
1507.729053
 21
251.666877
 31
0.0
  0
LINE
  5
934
  8
002
  6
CENTER
 62
    40
 10
1602.729153
 20
320.973777
 30
0.0
 11
1602.729153
 21
251.666877
 31
0.0
  0
LINE
  5
935
  8
002
  6
CENTER
 62
    40
 10
1574.729053
 20
256.561577
 30
0.0
 11
1574.729053
 21
318.013031
 31
0.0
  0
LINE
  5
936
  8
002
 62
     3
 10
1570.229053
 20
316.561577
 30
0.0
 11
1570.229053
 21
320.561577
 31
0.0
  0
LINE
  5
937
  8
002
 62
     3
 10
1754.705174
 20
316.561577
 30
0.0
 11
1754.705174
 21
256.561577
 31
0.0
  0
LINE
  5
938
  8
002
 62
     3
 10
1770.705174
 20
256.561577
 30
0.0
 11
1770.705174
 21
316.561577
 31
0.0
  0
LINE
  5
939
  8
002
 62
     3
 10
1684.705174
 20
316.561577
 30
0.0
 11
1684.705174
 21
256.561577
 31
0.0
  0
LINE
  5
93A
  8
002
 62
     3
 10
1700.705174
 20
256.561577
 30
0.0
 11
1700.705174
 21
316.561577
 31
0.0
  0
POLYLINE
  5
93B
  8
002
 62
     3
 66
     1
 10
0.0
 20
0.0
 30
0.0
  0
VERTEX
  5
93D
  8
002
 62
     3
 10
1754.705174
 20
263.522943
 30
0.0
  0
VERTEX
  5
93E
  8
002
 62
     3
 10
1754.683759
 20
263.70054
 30
0.0
  0
VERTEX
  5
93F
  8
002
 62
     3
 10
1754.647182
 20
263.874809
 30
0.0
  0
VERTEX
  5
940
  8
002
 62
     3
 10
1754.574415
 20
264.059905
 30
0.0
  0
VERTEX
  5
941
  8
002
 62
     3
 10
1754.468122
 20
264.228395
 30
0.0
  0
VERTEX
  5
942
  8
002
 62
     3
 10
1754.393186
 20
264.314488
 30
0.0
  0
VERTEX
  5
943
  8
002
 62
     3
 10
1754.308188
 20
264.390713
 30
0.0
  0
VERTEX
  5
944
  8
002
 62
     3
 10
1754.207059
 20
264.458607
 30
0.0
  0
VERTEX
  5
945
  8
002
 62
     3
 10
1754.09689
 20
264.508809
 30
0.0
  0
VERTEX
  5
946
  8
002
 62
     3
 10
1753.948603
 20
264.544172
 30
0.0
  0
VERTEX
  5
947
  8
002
 62
     3
 10
1753.795182
 20
264.561577
 30
0.0
  0
SEQEND
  5
93C
  8
002
 62
     3
  0
POLYLINE
  5
948
  8
002
 62
     3
 66
     1
 10
0.0
 20
0.0
 30
0.0
  0
VERTEX
  5
94A
  8
002
 62
     3
 10
1771.615166
 20
264.561577
 30
0.0
  0
VERTEX
  5
94B
  8
002
 62
     3
 10
1771.493177
 20
264.55065
 30
0.0
  0
VERTEX
  5
94C
  8
002
 62
     3
 10
1771.373655
 20
264.528617
 30
0.0
  0
VERTEX
  5
94D
  8
002
 62
     3
 10
1771.265706
 20
264.489873
 30
0.0
  0
VERTEX
  5
94E
  8
002
 62
     3
 10
1771.164464
 20
264.434614
 30
0.0
  0
VERTEX
  5
94F
  8
002
 62
     3
 10
1771.049097
 20
264.345447
 30
0.0
  0
VERTEX
  5
950
  8
002
 62
     3
 10
1770.950189
 20
264.238668
 30
0.0
  0
VERTEX
  5
951
  8
002
 62
     3
 10
1770.868283
 20
264.116778
 30
0.0
  0
VERTEX
  5
952
  8
002
 62
     3
 10
1770.803152
 20
263.984775
 30
0.0
  0
VERTEX
  5
953
  8
002
 62
     3
 10
1770.760389
 20
263.868388
 30
0.0
  0
VERTEX
  5
954
  8
002
 62
     3
 10
1770.730363
 20
263.748546
 30
0.0
  0
VERTEX
  5
955
  8
002
 62
     3
 10
1770.714605
 20
263.636283
 30
0.0
  0
VERTEX
  5
956
  8
002
 62
     3
 10
1770.705174
 20
263.522943
 30
0.0
  0
SEQEND
  5
949
  8
002
 62
     3
  0
POLYLINE
  5
957
  8
002
 62
     3
 66
     1
 10
0.0
 20
0.0
 30
0.0
  0
VERTEX
  5
959
  8
002
 62
     3
 10
1770.705174
 20
309.600211
 30
0.0
  0
VERTEX
  5
95A
  8
002
 62
     3
 10
1770.726589
 20
309.422614
 30
0.0
  0
VERTEX
  5
95B
  8
002
 62
     3
 10
1770.763166
 20
309.248345
 30
0.0
  0
VERTEX
  5
95C
  8
002
 62
     3
 10
1770.835933
 20
309.063249
 30
0.0
  0
VERTEX
  5
95D
  8
002
 62
     3
 10
1770.942226
 20
308.894759
 30
0.0
  0
VERTEX
  5
95E
  8
002
 62
     3
 10
1771.017163
 20
308.808666
 30
0.0
  0
VERTEX
  5
95F
  8
002
 62
     3
 10
1771.102161
 20
308.732441
 30
0.0
  0
VERTEX
  5
960
  8
002
 62
     3
 10
1771.20329
 20
308.664547
 30
0.0
  0
VERTEX
  5
961
  8
002
 62
     3
 10
1771.313458
 20
308.614345
 30
0.0
  0
VERTEX
  5
962
  8
002
 62
     3
 10
1771.461746
 20
308.578982
 30
0.0
  0
VERTEX
  5
963
  8
002
 62
     3
 10
1771.615166
 20
308.561577
 30
0.0
  0
SEQEND
  5
958
  8
002
 62
     3
  0
POLYLINE
  5
964
  8
002
 62
     3
 66
     1
 10
0.0
 20
0.0
 30
0.0
  0
VERTEX
  5
966
  8
002
 62
     3
 10
1753.795182
 20
308.561577
 30
0.0
  0
VERTEX
  5
967
  8
002
 62
     3
 10
1753.917171
 20
308.572504
 30
0.0
  0
VERTEX
  5
968
  8
002
 62
     3
 10
1754.036694
 20
308.594537
 30
0.0
  0
VERTEX
  5
969
  8
002
 62
     3
 10
1754.144643
 20
308.633281
 30
0.0
  0
VERTEX
  5
96A
  8
002
 62
     3
 10
1754.245884
 20
308.68854
 30
0.0
  0
VERTEX
  5
96B
  8
002
 62
     3
 10
1754.361251
 20
308.777707
 30
0.0
  0
VERTEX
  5
96C
  8
002
 62
     3
 10
1754.460159
 20
308.884486
 30
0.0
  0
VERTEX
  5
96D
  8
002
 62
     3
 10
1754.542065
 20
309.006376
 30
0.0
  0
VERTEX
  5
96E
  8
002
 62
     3
 10
1754.607196
 20
309.138379
 30
0.0
  0
VERTEX
  5
96F
  8
002
 62
     3
 10
1754.64996
 20
309.254766
 30
0.0
  0
VERTEX
  5
970
  8
002
 62
     3
 10
1754.679986
 20
309.374608
 30
0.0
  0
VERTEX
  5
971
  8
002
 62
     3
 10
1754.695744
 20
309.486871
 30
0.0
  0
VERTEX
  5
972
  8
002
 62
     3
 10
1754.705174
 20
309.600211
 30
0.0
  0
SEQEND
  5
965
  8
002
 62
     3
  0
POLYLINE
  5
973
  8
002
 62
     3
 66
     1
 10
0.0
 20
0.0
 30
0.0
  0
VERTEX
  5
975
  8
002
 62
     3
 10
1700.705174
 20
309.600211
 30
0.0
  0
VERTEX
  5
976
  8
002
 62
     3
 10
1700.726589
 20
309.422614
 30
0.0
  0
VERTEX
  5
977
  8
002
 62
     3
 10
1700.763166
 20
309.248345
 30
0.0
  0
VERTEX
  5
978
  8
002
 62
     3
 10
1700.835933
 20
309.063249
 30
0.0
  0
VERTEX
  5
979
  8
002
 62
     3
 10
1700.942226
 20
308.894759
 30
0.0
  0
VERTEX
  5
97A
  8
002
 62
     3
 10
1701.017163
 20
308.808666
 30
0.0
  0
VERTEX
  5
97B
  8
002
 62
     3
 10
1701.102161
 20
308.732441
 30
0.0
  0
VERTEX
  5
97C
  8
002
 62
     3
 10
1701.20329
 20
308.664547
 30
0.0
  0
VERTEX
  5
97D
  8
002
 62
     3
 10
1701.313458
 20
308.614345
 30
0.0
  0
VERTEX
  5
97E
  8
002
 62
     3
 10
1701.461746
 20
308.578982
 30
0.0
  0
VERTEX
  5
97F
  8
002
 62
     3
 10
1701.615166
 20
308.561577
 30
0.0
  0
SEQEND
  5
974
  8
002
 62
     3
  0
POLYLINE
  5
980
  8
002
 62
     3
 66
     1
 10
0.0
 20
0.0
 30
0.0
  0
VERTEX
  5
982
  8
002
 62
     3
 10
1683.795182
 20
308.561577
 30
0.0
  0
VERTEX
  5
983
  8
002
 62
     3
 10
1683.917171
 20
308.572504
 30
0.0
  0
VERTEX
  5
984
  8
002
 62
     3
 10
1684.036694
 20
308.594537
 30
0.0
  0
VERTEX
  5
985
  8
002
 62
     3
 10
1684.144643
 20
308.633281
 30
0.0
  0
VERTEX
  5
986
  8
002
 62
     3
 10
1684.245884
 20
308.68854
 30
0.0
  0
VERTEX
  5
987
  8
002
 62
     3
 10
1684.361251
 20
308.777707
 30
0.0
  0
VERTEX
  5
988
  8
002
 62
     3
 10
1684.460159
 20
308.884486
 30
0.0
  0
VERTEX
  5
989
  8
002
 62
     3
 10
1684.542065
 20
309.006376
 30
0.0
  0
VERTEX
  5
98A
  8
002
 62
     3
 10
1684.607196
 20
309.138379
 30
0.0
  0
VERTEX
  5
98B
  8
002
 62
     3
 10
1684.64996
 20
309.254766
 30
0.0
  0
VERTEX
  5
98C
  8
002
 62
     3
 10
1684.679986
 20
309.374608
 30
0.0
  0
VERTEX
  5
98D
  8
002
 62
     3
 10
1684.695744
 20
309.486871
 30
0.0
  0
VERTEX
  5
98E
  8
002
 62
     3
 10
1684.705174
 20
309.600211
 30
0.0
  0
SEQEND
  5
981
  8
002
 62
     3
  0
POLYLINE
  5
98F
  8
002
 62
     3
 66
     1
 10
0.0
 20
0.0
 30
0.0
  0
VERTEX
  5
991
  8
002
 62
     3
 10
1684.705174
 20
263.522943
 30
0.0
  0
VERTEX
  5
992
  8
002
 62
     3
 10
1684.683759
 20
263.70054
 30
0.0
  0
VERTEX
  5
993
  8
002
 62
     3
 10
1684.647182
 20
263.874809
 30
0.0
  0
VERTEX
  5
994
  8
002
 62
     3
 10
1684.574415
 20
264.059905
 30
0.0
  0
VERTEX
  5
995
  8
002
 62
     3
 10
1684.468122
 20
264.228395
 30
0.0
  0
VERTEX
  5
996
  8
002
 62
     3
 10
1684.393186
 20
264.314488
 30
0.0
  0
VERTEX
  5
997
  8
002
 62
     3
 10
1684.308188
 20
264.390713
 30
0.0
  0
VERTEX
  5
998
  8
002
 62
     3
 10
1684.207059
 20
264.458607
 30
0.0
  0
VERTEX
  5
999
  8
002
 62
     3
 10
1684.09689
 20
264.508809
 30
0.0
  0
VERTEX
  5
99A
  8
002
 62
     3
 10
1683.948603
 20
264.544172
 30
0.0
  0
VERTEX
  5
99B
  8
002
 62
     3
 10
1683.795182
 20
264.561577
 30
0.0
  0
SEQEND
  5
990
  8
002
 62
     3
  0
POLYLINE
  5
99C
  8
002
 62
     3
 66
     1
 10
0.0
 20
0.0
 30
0.0
  0
VERTEX
  5
99E
  8
002
 62
     3
 10
1701.615166
 20
264.561577
 30
0.0
  0
VERTEX
  5
99F
  8
002
 62
     3
 10
1701.493177
 20
264.55065
 30
0.0
  0
VERTEX
  5
9A0
  8
002
 62
     3
 10
1701.373655
 20
264.528617
 30
0.0
  0
VERTEX
  5
9A1
  8
002
 62
     3
 10
1701.265706
 20
264.489873
 30
0.0
  0
VERTEX
  5
9A2
  8
002
 62
     3
 10
1701.164464
 20
264.434614
 30
0.0
  0
VERTEX
  5
9A3
  8
002
 62
     3
 10
1701.049097
 20
264.345447
 30
0.0
  0
VERTEX
  5
9A4
  8
002
 62
     3
 10
1700.950189
 20
264.238668
 30
0.0
  0
VERTEX
  5
9A5
  8
002
 62
     3
 10
1700.868283
 20
264.116778
 30
0.0
  0
VERTEX
  5
9A6
  8
002
 62
     3
 10
1700.803152
 20
263.984775
 30
0.0
  0
VERTEX
  5
9A7
  8
002
 62
     3
 10
1700.760389
 20
263.868388
 30
0.0
  0
VERTEX
  5
9A8
  8
002
 62
     3
 10
1700.730363
 20
263.748546
 30
0.0
  0
VERTEX
  5
9A9
  8
002
 62
     3
 10
1700.714605
 20
263.636283
 30
0.0
  0
VERTEX
  5
9AA
  8
002
 62
     3
 10
1700.705174
 20
263.522943
 30
0.0
  0
SEQEND
  5
99D
  8
002
 62
     3
  0
LINE
  5
9AB
  8
002
 62
     3
 10
1774.705174
 20
308.561577
 30
0.0
 11
1774.705174
 21
264.561577
 31
0.0
  0
LINE
  5
9AC
  8
002
 62
     3
 10
1680.705174
 20
308.561577
 30
0.0
 11
1680.705174
 21
264.561577
 31
0.0
  0
LINE
  5
9AD
  8
002
 62
     3
 10
1753.795182
 20
308.561577
 30
0.0
 11
1701.615166
 21
308.561577
 31
0.0
  0
LINE
  5
9AE
  8
002
 62
     3
 10
1753.795182
 20
264.561577
 30
0.0
 11
1701.615166
 21
264.561577
 31
0.0
  0
LINE
  5
9AF
  8
002
 62
     3
 10
1754.705174
 20
258.561577
 30
0.0
 11
1700.705174
 21
258.561577
 31
0.0
  0
LINE
  5
9B0
  8
002
 62
     3
 10
1770.705174
 20
316.561577
 30
0.0
 11
1684.705174
 21
316.561577
 31
0.0
  0
ARC
  5
9B1
  8
002
 62
     3
 10
1752.705174
 20
256.561577
 30
0.0
 40
2.0
 50
0.0
 51
90.0
  0
ARC
  5
9B2
  8
002
 62
     3
 10
1702.705174
 20
256.561577
 30
0.0
 40
2.0
 50
90.0
 51
180.0
  0
LINE
  5
9B3
  8
002
 62
     3
 10
1680.705174
 20
264.561577
 30
0.0
 11
1683.795182
 21
264.561577
 31
0.0
  0
LINE
  5
9B4
  8
002
 62
     3
 10
1680.705174
 20
308.561577
 30
0.0
 11
1683.795182
 21
308.561577
 31
0.0
  0
LINE
  5
9B5
  8
002
 62
     3
 10
1774.705174
 20
308.561577
 30
0.0
 11
1771.615166
 21
308.561577
 31
0.0
  0
LINE
  5
9B6
  8
002
 62
     3
 10
1774.705174
 20
264.561577
 30
0.0
 11
1771.615166
 21
264.561577
 31
0.0
  0
LINE
  5
9B7
  8
002
 62
     3
 10
1770.705174
 20
256.561577
 30
0.0
 11
1684.705174
 21
256.561577
 31
0.0
  0
LINE
  5
9B8
  8
002
 62
     3
 10
1680.705174
 20
279.061577
 30
0.0
 11
1653.705134
 21
279.061577
 31
0.0
  0
LINE
  5
9B9
  8
002
 62
     3
 10
1653.705134
 20
279.061577
 30
0.0
 11
1652.705134
 21
280.061577
 31
0.0
  0
LINE
  5
9BA
  8
002
 62
     3
 10
1652.705134
 20
280.061577
 30
0.0
 11
1652.705134
 21
296.061577
 31
0.0
  0
LINE
  5
9BB
  8
002
 62
     3
 10
1652.705134
 20
296.061577
 30
0.0
 11
1674.705174
 21
296.061577
 31
0.0
  0
LINE
  5
9BC
  8
002
 62
     3
 10
1674.705174
 20
296.061577
 30
0.0
 11
1674.705174
 21
293.632677
 31
0.0
  0
LINE
  5
9BD
  8
002
 62
     3
 10
1674.705174
 20
293.632677
 30
0.0
 11
1677.205174
 21
294.061577
 31
0.0
  0
LINE
  5
9BE
  8
002
 62
     3
 10
1677.205174
 20
294.061577
 30
0.0
 11
1680.705174
 21
294.061577
 31
0.0
  0
LINE
  5
9BF
  8
002
 62
     3
 10
1774.705174
 20
294.061577
 30
0.0
 11
1778.205174
 21
294.061577
 31
0.0
  0
LINE
  5
9C0
  8
002
 62
     3
 10
1778.205174
 20
294.061577
 30
0.0
 11
1780.705174
 21
293.632677
 31
0.0
  0
LINE
  5
9C1
  8
002
 62
     3
 10
1780.705174
 20
293.632677
 30
0.0
 11
1780.705174
 21
296.061577
 31
0.0
  0
LINE
  5
9C2
  8
002
 62
     3
 10
1780.705174
 20
296.061577
 30
0.0
 11
1802.705174
 21
296.061577
 31
0.0
  0
LINE
  5
9C3
  8
002
 62
     3
 10
1802.705174
 20
296.061577
 30
0.0
 11
1802.705174
 21
280.061577
 31
0.0
  0
LINE
  5
9C4
  8
002
 62
     3
 10
1802.705174
 20
280.061577
 30
0.0
 11
1801.705174
 21
279.061577
 31
0.0
  0
LINE
  5
9C5
  8
002
 62
     3
 10
1801.705174
 20
279.061577
 30
0.0
 11
1774.705174
 21
279.061577
 31
0.0
  0
LINE
  5
9C6
  8
002
 62
     3
 10
1674.705174
 20
293.632677
 30
0.0
 11
1653.276204
 21
293.632677
 31
0.0
  0
LINE
  5
9C7
  8
002
 62
     3
 10
1653.276204
 20
293.632677
 30
0.0
 11
1652.705134
 21
293.061577
 31
0.0
  0
LINE
  5
9C8
  8
002
 62
     3
 10
1653.705134
 20
293.632677
 30
0.0
 11
1653.705134
 21
279.061577
 31
0.0
  0
LINE
  5
9C9
  8
002
 62
     3
 10
1780.705174
 20
293.632677
 30
0.0
 11
1802.134074
 21
293.632677
 31
0.0
  0
LINE
  5
9CA
  8
002
 62
     3
 10
1802.134074
 20
293.632677
 30
0.0
 11
1802.705174
 21
293.061577
 31
0.0
  0
LINE
  5
9CB
  8
002
 62
     3
 10
1801.705174
 20
293.632677
 30
0.0
 11
1801.705174
 21
279.061577
 31
0.0
  0
LINE
  5
9CC
  8
002
 62
     3
 10
1755.205174
 20
320.561577
 30
0.0
 11
1755.205174
 21
316.561577
 31
0.0
  0
LINE
  5
9CD
  8
002
 62
     3
 10
2149.834053
 20
316.561577
 30
0.0
 11
2149.834053
 21
320.561577
 31
0.0
  0
LINE
  5
9CE
  8
002
 62
     3
 10
2079.334053
 20
256.561577
 30
0.0
 11
2079.334053
 21
316.561577
 31
0.0
  0
LINE
  5
9CF
  8
002
 62
     3
 10
2190.334053
 20
256.561577
 30
0.0
 11
2190.334053
 21
316.561577
 31
0.0
  0
LINE
  5
9D0
  8
002
 62
     3
 10
2095.334053
 20
256.561577
 30
0.0
 11
2095.334053
 21
316.561577
 31
0.0
  0
LINE
  5
9D1
  8
002
 62
     3
 10
2190.334053
 20
256.561577
 30
0.0
 11
2174.334053
 21
256.561577
 31
0.0
  0
LINE
  5
9D2
  8
002
 62
     3
 10
2174.334053
 20
316.561577
 30
0.0
 11
2190.334053
 21
316.561577
 31
0.0
  0
LINE
  5
9D3
  8
002
 62
     3
 10
2158.334053
 20
262.561577
 30
0.0
 11
2158.334053
 21
258.561577
 31
0.0
  0
LINE
  5
9D4
  8
002
 62
     3
 10
2174.334053
 20
310.561577
 30
0.0
 11
2174.334053
 21
316.561577
 31
0.0
  0
LINE
  5
9D5
  8
002
 62
     3
 10
2174.334053
 20
262.561577
 30
0.0
 11
2174.334053
 21
256.561577
 31
0.0
  0
ARC
  5
9D6
  8
002
 62
     3
 10
2151.834053
 20
310.561577
 30
0.0
 40
2.0
 50
180.0
 51
270.0
  0
LINE
  5
9D7
  8
002
 62
     3
 10
2149.834053
 20
310.561577
 30
0.0
 11
2149.834053
 21
316.561577
 31
0.0
  0
LINE
  5
9D8
  8
002
 62
     3
 10
2097.334053
 20
258.561577
 30
0.0
 11
2158.334053
 21
258.561577
 31
0.0
  0
ARC
  5
9D9
  8
002
 62
     3
 10
2097.334053
 20
256.561577
 30
0.0
 40
2.0
 50
90.0
 51
180.0
  0
ARC
  5
9DA
  8
002
 62
     3
 10
2172.334053
 20
262.561577
 30
0.0
 40
2.0
 50
360.0
 51
90.0
  0
ARC
  5
9DB
  8
002
 62
     3
 10
2160.334053
 20
262.561577
 30
0.0
 40
2.0
 50
90.0
 51
180.0
  0
ARC
  5
9DC
  8
002
 62
     3
 10
2172.334053
 20
310.561577
 30
0.0
 40
2.0
 50
270.0
 51
0.0
  0
LINE
  5
9DD
  8
002
 62
     3
 10
2132.334053
 20
266.561577
 30
0.0
 11
2132.334053
 21
306.561577
 31
0.0
  0
LINE
  5
9DE
  8
002
 62
     3
 10
2174.334053
 20
264.561577
 30
0.0
 11
2134.334053
 21
264.561577
 31
0.0
  0
LINE
  5
9DF
  8
002
 62
     3
 10
2176.334053
 20
306.561577
 30
0.0
 11
2176.334053
 21
266.561577
 31
0.0
  0
LINE
  5
9E0
  8
002
 62
     3
 10
2174.334053
 20
308.561577
 30
0.0
 11
2134.334053
 21
308.561577
 31
0.0
  0
ARC
  5
9E1
  8
002
 62
     3
 10
2134.334053
 20
306.561577
 30
0.0
 40
2.0
 50
90.0
 51
180.0
  0
ARC
  5
9E2
  8
002
 62
     3
 10
2134.334053
 20
266.561577
 30
0.0
 40
2.0
 50
180.0
 51
270.0
  0
ARC
  5
9E3
  8
002
 62
     3
 10
2174.334053
 20
266.561577
 30
0.0
 40
2.0
 50
270.0
 51
0.0
  0
ARC
  5
9E4
  8
002
 62
     3
 10
2174.334053
 20
306.561577
 30
0.0
 40
2.0
 50
360.0
 51
90.0
  0
LINE
  5
9E5
  8
002
 62
     3
 10
2153.334053
 20
258.561577
 30
0.0
 11
2153.334053
 21
256.561577
 31
0.0
  0
LINE
  5
9E6
  8
002
 62
    40
 10
2152.251553
 20
256.561577
 30
0.0
 11
2152.251553
 21
258.561577
 31
0.0
  0
LINE
  5
9E7
  8
002
 62
     3
 10
2153.334053
 20
256.561577
 30
0.0
 11
2079.334053
 21
256.561577
 31
0.0
  0
LINE
  5
9E8
  8
002
 62
     3
 10
2149.834053
 20
316.561577
 30
0.0
 11
2079.334053
 21
316.561577
 31
0.0
  0
LINE
  5
9E9
  8
002
 62
     3
 10
2152.619853
 20
270.678977
 30
0.0
 11
2152.619853
 21
272.732977
 31
0.0
  0
CIRCLE
  5
9EA
  8
002
 62
     3
 10
2150.334053
 20
272.732977
 30
0.0
 40
1.0
  0
ARC
  5
9EB
  8
002
 62
     3
 10
2150.334053
 20
272.732977
 30
0.0
 40
2.285799999999995
 50
0.0
 51
134.849339
  0
LINE
  5
9EC
  8
002
 62
     3
 10
2156.048353
 20
272.732977
 30
0.0
 11
2156.048353
 21
270.678977
 31
0.0
  0
ARC
  5
9ED
  8
002
 62
     3
 10
2158.334053
 20
272.732977
 30
0.0
 40
2.285730572486588
 50
45.150661
 51
180.0
  0
ARC
  5
9EE
  8
002
 62
     3
 10
2161.558053
 20
275.973977
 30
0.0
 40
2.285730572486588
 50
225.150661
 51
306.868895
  0
CIRCLE
  5
9EF
  8
002
 62
     3
 10
2158.334053
 20
272.732977
 30
0.0
 40
1.0
  0
ARC
  5
9F0
  8
002
 62
     3
 10
2147.110153
 20
275.973977
 30
0.0
 40
2.28572000035006
 50
233.131105
 51
314.847561
  0
ARC
  5
9F1
  8
002
 62
     3
 10
2154.334053
 20
285.606677
 30
0.0
 40
14.32628000738505
 50
306.868058
 51
233.132262
  0
LINE
  5
9F2
  8
002
 62
     3
 10
2156.584053
 20
291.061577
 30
0.0
 11
2152.084053
 21
291.061577
 31
0.0
  0
LINE
  5
9F3
  8
002
 62
     3
 10
2152.084053
 20
291.061577
 30
0.0
 11
2151.834053
 21
291.311577
 31
0.0
  0
LINE
  5
9F4
  8
002
 62
     3
 10
2151.834053
 20
291.311577
 30
0.0
 11
2151.834053
 21
295.811577
 31
0.0
  0
LINE
  5
9F5
  8
002
 62
     3
 10
2151.834053
 20
295.811577
 30
0.0
 11
2152.084053
 21
296.061577
 31
0.0
  0
LINE
  5
9F6
  8
002
 62
     3
 10
2152.084053
 20
296.061577
 30
0.0
 11
2156.584053
 21
296.061577
 31
0.0
  0
LINE
  5
9F7
  8
002
 62
     3
 10
2156.584053
 20
296.061577
 30
0.0
 11
2156.834053
 21
295.811577
 31
0.0
  0
LINE
  5
9F8
  8
002
 62
     3
 10
2156.834053
 20
295.811577
 30
0.0
 11
2156.834053
 21
291.311577
 31
0.0
  0
LINE
  5
9F9
  8
002
 62
     3
 10
2156.834053
 20
291.311577
 30
0.0
 11
2156.584053
 21
291.061577
 31
0.0
  0
ARC
  5
9FA
  8
002
 62
     3
 10
2156.634053
 20
291.261577
 30
0.0
 40
0.1999999999999886
 50
270.0
 51
0.0
  0
ARC
  5
9FB
  8
002
 62
     3
 10
2154.334053
 20
286.561577
 30
0.0
 40
7.499936066394191
 50
109.471393
 51
70.528607
  0
ARC
  5
9FC
  8
002
 62
     3
 10
2152.034053
 20
291.261577
 30
0.0
 40
0.2000000000000455
 50
180.0
 51
270.0
  0
CIRCLE
  5
9FD
  8
002
 62
     3
 10
2154.334053
 20
286.561577
 30
0.0
 40
16.0
  0
LINE
  5
9FE
  8
002
  6
CENTER
 62
    40
 10
2087.334053
 20
320.973777
 30
0.0
 11
2087.334053
 21
251.666877
 31
0.0
  0
LINE
  5
9FF
  8
002
  6
CENTER
 62
    40
 10
2182.334153
 20
320.973777
 30
0.0
 11
2182.334153
 21
251.666877
 31
0.0
  0
LINE
  5
A00
  8
002
  6
CENTER
 62
    40
 10
2154.334053
 20
256.561577
 30
0.0
 11
2154.334053
 21
318.013031
 31
0.0
  0
CIRCLE
  5
A01
  8
002
 62
     3
 10
338.150249
 20
643.931374
 30
0.0
 40
5.999399999999866
  0
CIRCLE
  5
A02
  8
002
 62
    40
 10
338.150249
 20
643.931374
 30
0.0
 40
6.849700000000098
  0
ENDSEC
  0
EOF
