  0
SECTION
  2
HEADER
  9
$ACADVER
  1
AC1015
  9
$ACADMAINTVER
 70
     6
  9
$DWGCODEPAGE
  3
ANSI_932
  9
$INSBASE
 10
0.0
 20
0.0
 30
0.0
  9
$EXTMIN
 10
167.080139
 20
99.2258
 30
0.0
  9
$EXTMAX
 10
837.483643
 20
1069.689697
 30
0.0
  9
$LIMMIN
 10
0.0
 20
0.0
  9
$LIMMAX
 10
12.0
 20
9.0
  9
$ORTHOMODE
 70
     0
  9
$REGENMODE
 70
     1
  9
$FILLMODE
 70
     1
  9
$QTEXTMODE
 70
     0
  9
$MIRRTEXT
 70
     1
  9
$LTSCALE
 40
11.795088
  9
$ATTMODE
 70
     1
  9
$TEXTSIZE
 40
3.2
  9
$TRACEWID
 40
1.0
  9
$TEXTSTYLE
  7
Standard
  9
$CLAYER
  8
0
  9
$CELTYPE
  6
ByLayer
  9
$CECOLOR
 62
   256
  9
$CELTSCALE
 40
1.0
  9
$DISPSILH
 70
     0
  9
$DIMSCALE
 40
1.0
  9
$DIMASZ
 40
2.5
  9
$DIMEXO
 40
0.625
  9
$DIMDLI
 40
3.75
  9
$DIMRND
 40
0.0
  9
$DIMDLE
 40
0.0
  9
$DIMEXE
 40
1.25
  9
$DIMTP
 40
0.0
  9
$DIMTM
 40
0.0
  9
$DIMTXT
 40
2.5
  9
$DIMCEN
 40
0.09
  9
$DIMTSZ
 40
0.0
  9
$DIMTOL
 70
     0
  9
$DIMLIM
 70
     0
  9
$DIMTIH
 70
     0
  9
$DIMTOH
 70
     0
  9
$DIMSE1
 70
     0
  9
$DIMSE2
 70
     0
  9
$DIMTAD
 70
     0
  9
$DIMZIN
 70
     8
  9
$DIMBLK
  1

  9
$DIMASO
 70
     1
  9
$DIMSHO
 70
     0
  9
$DIMPOST
  1

  9
$DIMAPOST
  1

  9
$DIMALT
 70
     0
  9
$DIMALTD
 70
     3
  9
$DIMALTF
 40
0.03937
  9
$DIMLFAC
 40
1.0
  9
$DIMTOFL
 70
     1
  9
$DIMTVP
 40
0.0
  9
$DIMTIX
 70
     0
  9
$DIMSOXD
 70
     0
  9
$DIMSAH
 70
     0
  9
$DIMBLK1
  1

  9
$DIMBLK2
  1

  9
$DIMSTYLE
  2
ISO-25
  9
$DIMCLRD
 70
     0
  9
$DIMCLRE
 70
     0
  9
$DIMCLRT
 70
     0
  9
$DIMTFAC
 40
1.0
  9
$DIMGAP
 40
0.625
  9
$DIMJUST
 70
     0
  9
$DIMSD1
 70
     0
  9
$DIMSD2
 70
     0
  9
$DIMTOLJ
 70
     0
  9
$DIMTZIN
 70
     8
  9
$DIMALTZ
 70
     0
  9
$DIMALTTZ
 70
     0
  9
$DIMUPT
 70
     0
  9
$DIMDEC
 70
     2
  9
$DIMTDEC
 70
     2
  9
$DIMALTU
 70
     2
  9
$DIMALTTD
 70
     3
  9
$DIMTXSTY
  7
Standard
  9
$DIMAUNIT
 70
     0
  9
$DIMADEC
 70
     0
  9
$DIMALTRND
 40
0.0
  9
$DIMAZIN
 70
     0
  9
$DIMDSEP
 70
    44
  9
$DIMATFIT
 70
     3
  9
$DIMFRAC
 70
     0
  9
$DIMLDRBLK
  1

  9
$DIMLUNIT
 70
     2
  9
$DIMLWD
 70
    -2
  9
$DIMLWE
 70
    -2
  9
$DIMTMOVE
 70
     0
  9
$LUNITS
 70
     2
  9
$LUPREC
 70
     4
  9
$SKETCHINC
 40
1.0
  9
$FILLETRAD
 40
0.0
  9
$AUNITS
 70
     0
  9
$AUPREC
 70
     0
  9
$MENU
  1
.
  9
$ELEVATION
 40
0.0
  9
$PELEVATION
 40
0.0
  9
$THICKNESS
 40
0.0
  9
$LIMCHECK
 70
     0
  9
$CHAMFERA
 40
10.0
  9
$CHAMFERB
 40
10.0
  9
$CHAMFERC
 40
20.0
  9
$CHAMFERD
 40
0.0
  9
$SKPOLY
 70
     0
  9
$TDCREATE
 40
2455649.656732303
  9
$TDUCREATE
 40
2455649.281732303
  9
$TDUPDATE
 40
2455649.656732315
  9
$TDUUPDATE
 40
2455649.281732315
  9
$TDINDWG
 40
0.0000000116
  9
$TDUSRTIMER
 40
0.0000000116
  9
$USRTIMER
 70
     1
  9
$ANGBASE
 50
0.0
  9
$ANGDIR
 70
     0
  9
$PDMODE
 70
     0
  9
$PDSIZE
 40
0.0
  9
$PLINEWID
 40
0.0
  9
$SPLFRAME
 70
     0
  9
$SPLINETYPE
 70
     6
  9
$SPLINESEGS
 70
     8
  9
$HANDSEED
  5
53B
  9
$SURFTAB1
 70
     6
  9
$SURFTAB2
 70
     6
  9
$SURFTYPE
 70
     6
  9
$SURFU
 70
     6
  9
$SURFV
 70
     6
  9
$UCSBASE
  2

  9
$UCSNAME
  2

  9
$UCSORG
 10
0.0
 20
0.0
 30
0.0
  9
$UCSXDIR
 10
1.0
 20
0.0
 30
0.0
  9
$UCSYDIR
 10
0.0
 20
1.0
 30
0.0
  9
$UCSORTHOREF
  2

  9
$UCSORTHOVIEW
 70
     0
  9
$UCSORGTOP
 10
0.0
 20
0.0
 30
0.0
  9
$UCSORGBOTTOM
 10
0.0
 20
0.0
 30
0.0
  9
$UCSORGLEFT
 10
0.0
 20
0.0
 30
0.0
  9
$UCSORGRIGHT
 10
0.0
 20
0.0
 30
0.0
  9
$UCSORGFRONT
 10
0.0
 20
0.0
 30
0.0
  9
$UCSORGBACK
 10
0.0
 20
0.0
 30
0.0
  9
$PUCSBASE
  2

  9
$PUCSNAME
  2

  9
$PUCSORG
 10
0.0
 20
0.0
 30
0.0
  9
$PUCSXDIR
 10
1.0
 20
0.0
 30
0.0
  9
$PUCSYDIR
 10
0.0
 20
1.0
 30
0.0
  9
$PUCSORTHOREF
  2

  9
$PUCSORTHOVIEW
 70
     0
  9
$PUCSORGTOP
 10
0.0
 20
0.0
 30
0.0
  9
$PUCSORGBOTTOM
 10
0.0
 20
0.0
 30
0.0
  9
$PUCSORGLEFT
 10
0.0
 20
0.0
 30
0.0
  9
$PUCSORGRIGHT
 10
0.0
 20
0.0
 30
0.0
  9
$PUCSORGFRONT
 10
0.0
 20
0.0
 30
0.0
  9
$PUCSORGBACK
 10
0.0
 20
0.0
 30
0.0
  9
$USERI1
 70
     0
  9
$USERI2
 70
     0
  9
$USERI3
 70
     0
  9
$USERI4
 70
     0
  9
$USERI5
 70
     0
  9
$USERR1
 40
0.0
  9
$USERR2
 40
0.0
  9
$USERR3
 40
0.0
  9
$USERR4
 40
0.0
  9
$USERR5
 40
0.0
  9
$WORLDVIEW
 70
     1
  9
$SHADEDGE
 70
     3
  9
$SHADEDIF
 70
    70
  9
$TILEMODE
 70
     1
  9
$MAXACTVP
 70
    64
  9
$PINSBASE
 10
0.0
 20
0.0
 30
0.0
  9
$PLIMCHECK
 70
     0
  9
$PEXTMIN
 10
1.000000E+20
 20
1.000000E+20
 30
0.0
  9
$PEXTMAX
 10
-1.000000E+20
 20
-1.000000E+20
 30
0.0
  9
$PLIMMIN
 10
0.0
 20
0.0
  9
$PLIMMAX
 10
12.0
 20
9.0
  9
$UNITMODE
 70
     0
  9
$VISRETAIN
 70
     1
  9
$PLINEGEN
 70
     0
  9
$PSLTSCALE
 70
     1
  9
$TREEDEPTH
 70
  3020
  9
$CMLSTYLE
  2
Standard
  9
$CMLJUST
 70
     0
  9
$CMLSCALE
 40
20.0
  9
$PROXYGRAPHICS
 70
     1
  9
$MEASUREMENT
 70
     1
  9
$CELWEIGHT
370
    -1
  9
$ENDCAPS
280
     0
  9
$JOINSTYLE
280
     0
  9
$LWDISPLAY
290
     0
  9
$INSUNITS
 70
     4
  9
$HYPERLINKBASE
  1

  9
$STYLESHEET
  1

  9
$XEDIT
290
     1
  9
$CEPSNTYPE
380
     0
  9
$PSTYLEMODE
290
     1
  9
$FINGERPRINTGUID
  2
{4E3D32FA-783F-4C58-AD04-2229B3CBB807}
  9
$VERSIONGUID
  2
{FAEB1C32-E019-11D5-929B-00C0DF256EC4}
  9
$EXTNAMES
290
     1
  9
$PSVPSCALE
 40
0.0
  9
$OLESTARTUP
290
     0
  0
ENDSEC
  0
SECTION
  2
CLASSES
  0
CLASS
  1
ACDBDICTIONARYWDFLT
  2
AcDbDictionaryWithDefault
  3
ObjectDBX Classes
 90
        0
280
     0
281
     0
  0
CLASS
  1
VISUALSTYLE
  2
AcDbVisualStyle
  3
ObjectDBX Classes
 90
     4095
280
     0
281
     0
  0
CLASS
  1
DICTIONARYVAR
  2
AcDbDictionaryVar
  3
ObjectDBX Classes
 90
        0
280
     0
281
     0
  0
CLASS
  1
ACDBPLACEHOLDER
  2
AcDbPlaceHolder
  3
ObjectDBX Classes
 90
        0
280
     0
281
     0
  0
CLASS
  1
LAYOUT
  2
AcDbLayout
  3
ObjectDBX Classes
 90
        0
280
     0
281
     0
  0
ENDSEC
  0
SECTION
  2
TABLES
  0
TABLE
  2
VPORT
  5
8
330
0
100
AcDbSymbolTable
 70
     1
  0
VPORT
  5
29
330
8
100
AcDbSymbolTableRecord
100
AcDbViewportTableRecord
  2
*Active
 70
     0
 10
0.0
 20
0.0
 11
1.0
 21
1.0
 12
502.281891
 22
584.457748
 13
0.0
 23
0.0
 14
1.0
 24
1.0
 15
0.0
 25
0.0
 16
0.0
 26
0.0
 36
1.0
 17
0.0
 27
0.0
 37
0.0
 40
980.168537
 41
1.691288
 42
50.0
 43
0.0
 44
0.0
 50
0.0
 51
0.0
 71
     0
 72
   100
 73
     1
 74
     3
 75
     0
 76
     0
 77
     0
 78
     0
281
     0
 65
     1
110
0.0
120
0.0
130
0.0
111
1.0
121
0.0
131
0.0
112
0.0
122
1.0
132
0.0
 79
     0
146
0.0
  0
ENDTAB
  0
TABLE
  2
LTYPE
  5
5
330
0
100
AcDbSymbolTable
 70
     5
  0
LTYPE
  5
14
330
5
100
AcDbSymbolTableRecord
100
AcDbLinetypeTableRecord
  2
ByBlock
 70
     0
  3

 72
    65
 73
     0
 40
0.0
  0
LTYPE
  5
15
330
5
100
AcDbSymbolTableRecord
100
AcDbLinetypeTableRecord
  2
ByLayer
 70
     0
  3

 72
    65
 73
     0
 40
0.0
  0
LTYPE
  5
16
330
5
100
AcDbSymbolTableRecord
100
AcDbLinetypeTableRecord
  2
Continuous
 70
     0
  3
Solid line
 72
    65
 73
     0
 40
0.0
  0
LTYPE
  5
3B
330
5
100
AcDbSymbolTableRecord
100
AcDbLinetypeTableRecord
  2
DASHED
 70
     0
  3
DASHED
 72
    83
 73
     2
 40
0.75
 49
0.5
 74
     0
 49
-0.25
 74
     0
  0
LTYPE
  5
3C
330
5
100
AcDbSymbolTableRecord
100
AcDbLinetypeTableRecord
  2
HIDDEN
 70
     0
  3
HIDDEN
 72
    83
 73
     2
 40
0.375
 49
0.25
 74
     0
 49
-0.125
 74
     0
  0
LTYPE
  5
3D
330
5
100
AcDbSymbolTableRecord
100
AcDbLinetypeTableRecord
  2
CENTER
 70
     0
  3
CENTER
 72
    83
 73
     4
 40
2.0
 49
1.25
 74
     0
 49
-0.25
 74
     0
 49
0.25
 74
     0
 49
-0.25
 74
     0
  0
LTYPE
  5
3E
330
5
100
AcDbSymbolTableRecord
100
AcDbLinetypeTableRecord
  2
PHANTOM
 70
     0
  3
PHANTOM
 72
    83
 73
     6
 40
2.5
 49
1.25
 74
     0
 49
-0.25
 74
     0
 49
0.25
 74
     0
 49
-0.25
 74
     0
 49
0.25
 74
     0
 49
-0.25
 74
     0
  0
ENDTAB
  0
TABLE
  2
LAYER
  5
2
330
0
100
AcDbSymbolTable
 70
     3
  0
LAYER
  5
10
330
2
100
AcDbSymbolTableRecord
100
AcDbLayerTableRecord
  2
0
 70
     0
 62
     7
  6
Continuous
370
    -3
390
F
  0
LAYER
  5
3F
330
2
100
AcDbSymbolTableRecord
100
AcDbLayerTableRecord
  2
002
 70
     0
 62
     7
  6
Continuous
370
    -3
390
F
  0
LAYER
  5
40
330
2
100
AcDbSymbolTableRecord
100
AcDbLayerTableRecord
  2
003
 70
     0
 62
     7
  6
Continuous
370
    -3
390
F
  0
ENDTAB
  0
TABLE
  2
STYLE
  5
3
330
0
100
AcDbSymbolTable
 70
     2
  0
STYLE
  5
11
330
3
100
AcDbSymbolTableRecord
100
AcDbTextStyleTableRecord
  2
Standard
 70
     0
 40
0.0
 41
1.0
 50
0.0
 71
     0
 42
0.2
  3
TXT
  4
BIGFONT
  0
STYLE
  5
41
330
3
100
AcDbSymbolTableRecord
100
AcDbTextStyleTableRecord
  2
TATEGAKI
 70
     4
 40
1.0
 41
1.0
 50
0.0
 71
     0
 42
0.2
  3
TXT
  4
BIGFONT
  0
ENDTAB
  0
TABLE
  2
VIEW
  5
6
330
0
100
AcDbSymbolTable
 70
     0
  0
ENDTAB
  0
TABLE
  2
UCS
  5
7
330
0
100
AcDbSymbolTable
 70
     0
  0
ENDTAB
  0
TABLE
  2
APPID
  5
9
330
0
100
AcDbSymbolTable
 70
     1
  0
APPID
  5
12
330
9
100
AcDbSymbolTableRecord
100
AcDbRegAppTableRecord
  2
ACAD
 70
     0
  0
ENDTAB
  0
TABLE
  2
DIMSTYLE
  5
A
330
0
100
AcDbSymbolTable
 70
     2
100
AcDbDimStyleTable
  0
DIMSTYLE
105
27
330
A
100
AcDbSymbolTableRecord
100
AcDbDimStyleTableRecord
  2
ISO-25
 70
     0
 41
2.5
 42
0.625
 43
3.75
 44
1.25
 73
     0
 74
     0
 77
     1
 78
     8
140
2.5
141
2.5
143
0.03937
147
0.625
171
     3
172
     1
271
     2
272
     2
274
     3
278
    44
283
     0
284
     8
340
11
  0
DIMSTYLE
105
42
330
A
100
AcDbSymbolTableRecord
100
AcDbDimStyleTableRecord
  2
Standard
 70
     0
 41
3.0
 42
0.5
 44
0.7
 73
     0
 74
     0
 77
     1
 78
     8
 79
     2
140
4.0
146
0.65
147
1.0
172
     1
179
     3
271
     3
283
     2
340
11
  0
ENDTAB
  0
TABLE
  2
BLOCK_RECORD
  5
1
330
0
100
AcDbSymbolTable
 70
     1
  0
BLOCK_RECORD
  5
1F
330
1
100
AcDbSymbolTableRecord
100
AcDbBlockTableRecord
  2
*Model_Space
340
22
  0
BLOCK_RECORD
  5
1B
330
1
100
AcDbSymbolTableRecord
100
AcDbBlockTableRecord
  2
*Paper_Space
340
1E
  0
BLOCK_RECORD
  5
23
330
1
100
AcDbSymbolTableRecord
100
AcDbBlockTableRecord
  2
*Paper_Space0
340
26
  0
ENDTAB
  0
ENDSEC
  0
SECTION
  2
BLOCKS
  0
BLOCK
  5
20
330
1F
100
AcDbEntity
  8
0
100
AcDbBlockBegin
  2
*Model_Space
 70
     0
 10
0.0
 20
0.0
 30
0.0
  3
*Model_Space
  1

  0
ENDBLK
  5
21
330
1F
100
AcDbEntity
  8
0
100
AcDbBlockEnd
  0
BLOCK
  5
1C
330
1B
100
AcDbEntity
 67
     1
  8
0
100
AcDbBlockBegin
  2
*Paper_Space
 70
     0
 10
0.0
 20
0.0
 30
0.0
  3
*Paper_Space
  1

  0
ENDBLK
  5
1D
330
1B
100
AcDbEntity
 67
     1
  8
0
100
AcDbBlockEnd
  0
BLOCK
  5
24
330
23
100
AcDbEntity
  8
0
100
AcDbBlockBegin
  2
*Paper_Space0
 70
     0
 10
0.0
 20
0.0
 30
0.0
  3
*Paper_Space0
  1

  0
ENDBLK
  5
25
330
23
100
AcDbEntity
  8
0
100
AcDbBlockEnd
  0
ENDSEC
  0
SECTION
  2
ENTITIES
  0
LINE
  5
43
330
1F
100
AcDbEntity
  8
002
 62
     3
370
    30
100
AcDbLine
 10
195.039231
 20
344.573176
 30
0.0
 11
193.639231
 21
343.173176
 31
0.0
  0
LINE
  5
44
330
1F
100
AcDbEntity
  8
002
 62
     3
370
    30
100
AcDbLine
 10
236.139231
 20
525.073176
 30
0.0
 11
211.139231
 21
525.073176
 31
0.0
  0
LINE
  5
45
330
1F
100
AcDbEntity
  8
002
 62
     3
370
    30
100
AcDbLine
 10
236.139231
 20
510.073176
 30
0.0
 11
211.139231
 21
510.073176
 31
0.0
  0
LINE
  5
46
330
1F
100
AcDbEntity
  8
002
 62
     3
370
    30
100
AcDbLine
 10
195.039231
 20
344.573176
 30
0.0
 11
223.639231
 21
344.573176
 31
0.0
  0
LINE
  5
47
330
1F
100
AcDbEntity
  8
002
  6
CENTER
 62
    40
370
     9
100
AcDbLine
 10
255.639231
 20
280.903978
 30
0.0
 11
255.639231
 21
328.144472
 31
0.0
  0
LINE
  5
48
330
1F
100
AcDbEntity
  8
002
  6
CENTER
 62
    40
370
     9
100
AcDbLine
 10
306.839664
 20
305.073176
 30
0.0
 11
167.244641
 21
305.073176
 31
0.0
  0
LINE
  5
49
330
1F
100
AcDbEntity
  8
002
 62
     3
370
    30
100
AcDbLine
 10
189.198429
 20
343.473176
 30
0.0
 11
223.639231
 21
343.473176
 31
0.0
  0
LINE
  5
4A
330
1F
100
AcDbEntity
  8
002
 62
     3
370
    30
100
AcDbLine
 10
192.583358
 20
345.073176
 30
0.0
 11
170.695104
 21
345.073176
 31
0.0
  0
LINE
  5
4B
330
1F
100
AcDbEntity
  8
002
 62
     3
370
    30
100
AcDbLine
 10
272.695104
 20
265.073176
 30
0.0
 11
294.583358
 21
265.073176
 31
0.0
  0
LINE
  5
4C
330
1F
100
AcDbEntity
  8
002
 62
     3
370
    30
100
AcDbLine
 10
294.583358
 20
265.073176
 30
0.0
 11
295.980188
 21
305.073176
 31
0.0
  0
LINE
  5
4D
330
1F
100
AcDbEntity
  8
002
 62
     3
370
    30
100
AcDbLine
 10
272.695104
 20
265.073176
 30
0.0
 11
272.636738
 21
266.744564
 31
0.0
  0
LINE
  5
4E
330
1F
100
AcDbEntity
  8
002
 62
     3
370
    30
100
AcDbLine
 10
170.695104
 20
345.073176
 30
0.0
 11
169.298273
 21
305.073176
 31
0.0
  0
LINE
  5
4F
330
1F
100
AcDbEntity
  8
002
 62
     3
370
    30
100
AcDbLine
 10
192.583358
 20
345.073176
 30
0.0
 11
192.639231
 21
343.473176
 31
0.0
  0
LINE
  5
50
330
1F
100
AcDbEntity
  8
002
 62
     3
370
    30
100
AcDbLine
 10
170.695104
 20
265.073176
 30
0.0
 11
169.298273
 21
305.073176
 31
0.0
  0
LINE
  5
51
330
1F
100
AcDbEntity
  8
002
  6
CENTER
 62
    40
370
     9
100
AcDbLine
 10
181.639231
 20
260.242603
 30
0.0
 11
181.639231
 21
348.307022
 31
0.0
  0
LINE
  5
52
330
1F
100
AcDbEntity
  8
002
 62
     3
370
    30
100
AcDbLine
 10
170.695104
 20
265.073176
 30
0.0
 11
192.583358
 21
265.073176
 31
0.0
  0
LINE
  5
53
330
1F
100
AcDbEntity
  8
002
 62
     3
370
    30
100
AcDbLine
 10
261.715896
 20
271.664374
 30
0.0
 11
261.279223
 21
266.673176
 31
0.0
  0
LINE
  5
54
330
1F
100
AcDbEntity
  8
002
 62
     3
370
    30
100
AcDbLine
 10
189.198429
 20
343.473176
 30
0.0
 11
187.024382
 21
318.623704
 31
0.0
  0
LINE
  5
55
330
1F
100
AcDbEntity
  8
002
 62
     3
370
    30
100
AcDbLine
 10
187.024382
 20
291.522647
 30
0.0
 11
189.198429
 21
266.673176
 31
0.0
  0
LINE
  5
56
330
1F
100
AcDbEntity
  8
002
 62
     3
370
    30
100
AcDbLine
 10
192.583358
 20
265.073176
 30
0.0
 11
192.639231
 21
266.673176
 31
0.0
  0
LINE
  5
57
330
1F
100
AcDbEntity
  8
002
 62
     3
370
    30
100
AcDbLine
 10
261.833532
 20
273.008954
 30
0.0
 11
261.715896
 21
271.664374
 31
0.0
  0
LINE
  5
58
330
1F
100
AcDbEntity
  8
002
 62
     3
370
    30
100
AcDbLine
 10
223.139231
 20
311.073176
 30
0.0
 11
169.507798
 21
311.073176
 31
0.0
  0
ARC
  5
59
330
1F
100
AcDbEntity
  8
002
 62
     3
370
    30
100
AcDbCircle
 10
181.782141
 20
316.073176
 30
0.0
 40
5.0
100
AcDbArc
 50
270.0
 51
355.0
  0
LINE
  5
5A
330
1F
100
AcDbEntity
  8
002
 62
     3
370
    30
100
AcDbLine
 10
187.024382
 20
318.623704
 30
0.0
 11
186.763114
 21
315.637397
 31
0.0
  0
LINE
  5
5B
330
1F
100
AcDbEntity
  8
002
 62
     3
370
    30
100
AcDbLine
 10
223.139231
 20
299.073176
 30
0.0
 11
169.507798
 21
299.073176
 31
0.0
  0
ARC
  5
5C
330
1F
100
AcDbEntity
  8
002
 62
     3
370
    30
100
AcDbCircle
 10
181.782141
 20
294.073176
 30
0.0
 40
5.0
100
AcDbArc
 50
5.0
 51
90.0
  0
LINE
  5
5D
330
1F
100
AcDbEntity
  8
002
 62
     3
370
    30
100
AcDbLine
 10
187.024382
 20
291.522647
 30
0.0
 11
186.763114
 21
294.508954
 31
0.0
  0
LINE
  5
5E
330
1F
100
AcDbEntity
  8
002
 62
     3
370
    30
100
AcDbLine
 10
223.639231
 20
266.673176
 30
0.0
 11
278.09665
 21
266.673176
 31
0.0
  0
LINE
  5
5F
330
1F
100
AcDbEntity
  8
002
 62
     3
370
    30
100
AcDbLine
 10
223.639231
 20
266.673176
 30
0.0
 11
189.198429
 21
266.673176
 31
0.0
  0
LINE
  5
60
330
1F
100
AcDbEntity
  8
002
 62
     3
370
    30
100
AcDbLine
 10
288.139231
 20
311.073176
 30
0.0
 11
295.770664
 21
311.073176
 31
0.0
  0
LINE
  5
61
330
1F
100
AcDbEntity
  8
002
 62
     3
370
    30
100
AcDbLine
 10
288.139231
 20
299.073176
 30
0.0
 11
295.770664
 21
299.073176
 31
0.0
  0
ARC
  5
62
330
1F
100
AcDbEntity
  8
002
 62
     3
370
    30
100
AcDbCircle
 10
285.639231
 20
333.880169
 30
0.0
 40
3.0
100
AcDbArc
 50
180.0
 51
266.347819
  0
LINE
  5
63
330
1F
100
AcDbEntity
  8
002
 62
     3
370
    30
100
AcDbLine
 10
285.448133
 20
330.886262
 30
0.0
 11
290.579913
 21
330.558705
 31
0.0
  0
ARC
  5
64
330
1F
100
AcDbEntity
  8
002
 62
     3
370
    30
100
AcDbCircle
 10
290.261416
 20
325.568859
 30
0.0
 40
5.0
100
AcDbArc
 50
2.0
 51
86.347819
  0
LINE
  5
65
330
1F
100
AcDbEntity
  8
002
 62
     3
370
    30
100
AcDbLine
 10
282.639231
 20
276.266182
 30
0.0
 11
282.639231
 21
275.073176
 31
0.0
  0
LINE
  5
66
330
1F
100
AcDbEntity
  8
002
 62
     3
370
    30
100
AcDbLine
 10
285.448133
 20
279.26009
 30
0.0
 11
290.579913
 21
279.587646
 31
0.0
  0
ARC
  5
67
330
1F
100
AcDbEntity
  8
002
 62
     3
370
    30
100
AcDbCircle
 10
290.261416
 20
284.577492
 30
0.0
 40
5.0
100
AcDbArc
 50
273.652181
 51
358.0
  0
ARC
  5
68
330
1F
100
AcDbEntity
  8
002
 62
     3
370
    30
100
AcDbCircle
 10
266.595783
 20
270.073176
 30
0.0
 40
5.0
100
AcDbArc
 50
90.0
 51
175.0
  0
LINE
  5
69
330
1F
100
AcDbEntity
  8
002
 62
     3
370
    30
100
AcDbLine
 10
266.595783
 20
275.073176
 30
0.0
 11
282.639231
 21
275.073176
 31
0.0
  0
ARC
  5
6A
330
1F
100
AcDbEntity
  8
002
 62
     3
370
    30
100
AcDbCircle
 10
285.639231
 20
276.266182
 30
0.0
 40
3.0
100
AcDbArc
 50
93.652181
 51
180.0
  0
LINE
  5
6B
330
1F
100
AcDbEntity
  8
002
 62
     3
370
    30
100
AcDbLine
 10
278.831554
 20
275.073176
 30
0.0
 11
278.09665
 21
266.673176
 31
0.0
  0
LINE
  5
6C
330
1F
100
AcDbEntity
  8
002
 62
     3
370
    30
100
AcDbLine
 10
228.139231
 20
282.573176
 30
0.0
 11
228.139231
 21
327.573176
 31
0.0
  0
LINE
  5
6D
330
1F
100
AcDbEntity
  8
002
 62
     3
370
    30
100
AcDbLine
 10
278.139231
 20
277.573176
 30
0.0
 11
233.139231
 21
277.573176
 31
0.0
  0
LINE
  5
6E
330
1F
100
AcDbEntity
  8
002
 62
     3
370
    30
100
AcDbLine
 10
283.139231
 20
327.573176
 30
0.0
 11
283.139231
 21
282.573176
 31
0.0
  0
LINE
  5
6F
330
1F
100
AcDbEntity
  8
002
 62
     3
370
    30
100
AcDbLine
 10
278.139231
 20
332.573176
 30
0.0
 11
233.139231
 21
332.573176
 31
0.0
  0
ARC
  5
70
330
1F
100
AcDbEntity
  8
002
 62
     3
370
    30
100
AcDbCircle
 10
233.139231
 20
327.573176
 30
0.0
 40
5.0
100
AcDbArc
 50
90.0
 51
180.0
  0
ARC
  5
71
330
1F
100
AcDbEntity
  8
002
 62
     3
370
    30
100
AcDbCircle
 10
233.139231
 20
282.573176
 30
0.0
 40
5.0
100
AcDbArc
 50
180.0
 51
270.0
  0
ARC
  5
72
330
1F
100
AcDbEntity
  8
002
 62
     3
370
    30
100
AcDbCircle
 10
278.139231
 20
282.573176
 30
0.0
 40
5.0
100
AcDbArc
 50
270.0
 51
0.0
  0
ARC
  5
73
330
1F
100
AcDbEntity
  8
002
 62
     3
370
    30
100
AcDbCircle
 10
278.139231
 20
327.573176
 30
0.0
 40
5.0
100
AcDbArc
 50
0.0
 51
90.0
  0
ARC
  5
74
330
1F
100
AcDbEntity
  8
002
 62
     3
370
    30
100
AcDbCircle
 10
288.139231
 20
316.073176
 30
0.0
 40
5.0
100
AcDbArc
 50
180.0
 51
270.0
  0
ARC
  5
75
330
1F
100
AcDbEntity
  8
002
 62
     3
370
    30
100
AcDbCircle
 10
288.139231
 20
294.073176
 30
0.0
 40
5.0
100
AcDbArc
 50
90.0
 51
180.0
  0
ARC
  5
76
330
1F
100
AcDbEntity
  8
002
 62
     3
370
    30
100
AcDbCircle
 10
266.814505
 20
272.573176
 30
0.0
 40
5.0
100
AcDbArc
 50
90.0
 51
175.0
  0
ARC
  5
77
330
1F
100
AcDbEntity
  8
002
 62
     3
370
    30
100
AcDbCircle
 10
223.139231
 20
316.073176
 30
0.0
 40
5.0
100
AcDbArc
 50
270.0
 51
0.0
  0
ARC
  5
78
330
1F
100
AcDbEntity
  8
002
 62
     3
370
    30
100
AcDbCircle
 10
223.139231
 20
294.073176
 30
0.0
 40
5.0
100
AcDbArc
 50
0.0
 51
90.0
  0
LINE
  5
79
330
1F
100
AcDbEntity
  8
002
 62
     3
370
    30
100
AcDbLine
 10
252.239231
 20
344.573176
 30
0.0
 11
223.639231
 21
344.573176
 31
0.0
  0
LINE
  5
7A
330
1F
100
AcDbEntity
  8
002
 62
     3
370
    30
100
AcDbLine
 10
252.239231
 20
344.573176
 30
0.0
 11
253.639231
 21
343.173176
 31
0.0
  0
LINE
  5
7B
330
1F
100
AcDbEntity
  8
002
 62
     3
370
    30
100
AcDbLine
 10
249.389231
 20
262.673176
 30
0.0
 11
249.389231
 21
257.673176
 31
0.0
  0
LINE
  5
7C
330
1F
100
AcDbEntity
  8
002
 62
     3
370
    30
100
AcDbLine
 10
257.889231
 20
257.673176
 30
0.0
 11
257.889231
 21
262.673176
 31
0.0
  0
LINE
  5
7D
330
1F
100
AcDbEntity
  8
002
 62
     3
370
    30
100
AcDbLine
 10
261.139231
 20
262.673176
 30
0.0
 11
186.139231
 21
262.673176
 31
0.0
  0
LINE
  5
7E
330
1F
100
AcDbEntity
  8
002
 62
     3
370
    30
100
AcDbLine
 10
186.139231
 20
262.673176
 30
0.0
 11
186.139231
 21
265.073176
 31
0.0
  0
LINE
  5
7F
330
1F
100
AcDbEntity
  8
002
 62
     3
370
    30
100
AcDbLine
 10
189.389231
 20
262.673176
 30
0.0
 11
189.389231
 21
257.673176
 31
0.0
  0
LINE
  5
80
330
1F
100
AcDbEntity
  8
002
 62
     3
370
    30
100
AcDbLine
 10
189.389231
 20
257.673176
 30
0.0
 11
197.889231
 21
257.673176
 31
0.0
  0
LINE
  5
81
330
1F
100
AcDbEntity
  8
002
 62
     3
370
    30
100
AcDbLine
 10
197.889231
 20
257.673176
 30
0.0
 11
197.889231
 21
262.673176
 31
0.0
  0
LINE
  5
82
330
1F
100
AcDbEntity
  8
002
 62
     3
370
    30
100
AcDbLine
 10
199.759831
 20
259.769076
 30
0.0
 11
201.139231
 21
216.673176
 31
0.0
  0
LINE
  5
83
330
1F
100
AcDbEntity
  8
002
 62
     3
370
    30
100
AcDbLine
 10
201.139231
 20
216.673176
 30
0.0
 11
246.139231
 21
216.673176
 31
0.0
  0
LINE
  5
84
330
1F
100
AcDbEntity
  8
002
 62
     3
370
    30
100
AcDbLine
 10
246.139231
 20
216.673176
 30
0.0
 11
247.518631
 21
259.769076
 31
0.0
  0
LINE
  5
85
330
1F
100
AcDbEntity
  8
002
 62
     3
370
    30
100
AcDbLine
 10
249.389231
 20
257.673176
 30
0.0
 11
257.889231
 21
257.673176
 31
0.0
  0
LINE
  5
86
330
1F
100
AcDbEntity
  8
002
 62
     3
370
    30
100
AcDbLine
 10
261.139231
 20
262.673176
 30
0.0
 11
261.139231
 21
266.673176
 31
0.0
  0
ARC
  5
87
330
1F
100
AcDbEntity
  8
002
 62
     3
370
    30
100
AcDbCircle
 10
250.517131
 20
259.673176
 30
0.0
 40
3.000033176483255
100
AcDbArc
 50
90.0
 51
178.168153
  0
LINE
  5
88
330
1F
100
AcDbEntity
  8
002
 62
     3
370
    30
100
AcDbLine
 10
219.389231
 20
257.673176
 30
0.0
 11
219.389231
 21
262.673176
 31
0.0
  0
LINE
  5
89
330
1F
100
AcDbEntity
  8
002
 62
     3
370
    30
100
AcDbLine
 10
219.389231
 20
257.673176
 30
0.0
 11
227.889231
 21
257.673176
 31
0.0
  0
LINE
  5
8A
330
1F
100
AcDbEntity
  8
002
 62
     3
370
    30
100
AcDbLine
 10
227.889231
 20
257.673176
 30
0.0
 11
227.889231
 21
262.673176
 31
0.0
  0
ARC
  5
8B
330
1F
100
AcDbEntity
  8
002
 62
     3
370
    30
100
AcDbCircle
 10
196.761331
 20
259.673176
 30
0.0
 40
3.0
100
AcDbArc
 50
1.831847
 51
90.0
  0
LINE
  5
8C
330
1F
100
AcDbEntity
  8
002
 62
     3
370
    30
100
AcDbLine
 10
201.639231
 20
131.673176
 30
0.0
 11
201.639231
 21
114.673176
 31
0.0
  0
ARC
  5
8D
330
1F
100
AcDbEntity
  8
002
 62
     3
370
    30
100
AcDbCircle
 10
204.639231
 20
114.673176
 30
0.0
 40
3.0
100
AcDbArc
 50
180.0
 51
270.0
  0
LINE
  5
8E
330
1F
100
AcDbEntity
  8
002
 62
     3
370
    30
100
AcDbLine
 10
204.639231
 20
111.673176
 30
0.0
 11
242.639231
 21
111.673176
 31
0.0
  0
ARC
  5
8F
330
1F
100
AcDbEntity
  8
002
 62
     3
370
    30
100
AcDbCircle
 10
242.639231
 20
114.673176
 30
0.0
 40
3.0
100
AcDbArc
 50
270.0
 51
0.0
  0
LINE
  5
90
330
1F
100
AcDbEntity
  8
002
 62
     3
370
    30
100
AcDbLine
 10
245.639231
 20
114.673176
 30
0.0
 11
245.639231
 21
131.673176
 31
0.0
  0
LINE
  5
91
330
1F
100
AcDbEntity
  8
002
 62
     3
370
    30
100
AcDbLine
 10
245.639231
 20
131.673176
 30
0.0
 11
201.639231
 21
131.673176
 31
0.0
  0
LINE
  5
92
330
1F
100
AcDbEntity
  8
002
  6
CENTER
 62
    40
370
     9
100
AcDbLine
 10
253.639231
 20
268.797976
 30
0.0
 11
253.639231
 21
256.519076
 31
0.0
  0
LINE
  5
93
330
1F
100
AcDbEntity
  8
002
  6
CENTER
 62
    40
370
     9
100
AcDbLine
 10
193.639231
 20
256.519076
 30
0.0
 11
193.639231
 21
268.797976
 31
0.0
  0
LINE
  5
94
330
1F
100
AcDbEntity
  8
002
 62
     3
370
    30
100
AcDbLine
 10
253.139231
 20
314.323176
 30
0.0
 11
253.139231
 21
309.823176
 31
0.0
  0
LINE
  5
95
330
1F
100
AcDbEntity
  8
002
 62
     3
370
    30
100
AcDbLine
 10
253.139231
 20
309.823176
 30
0.0
 11
253.389231
 21
309.573176
 31
0.0
  0
LINE
  5
96
330
1F
100
AcDbEntity
  8
002
 62
     3
370
    30
100
AcDbLine
 10
253.389231
 20
309.573176
 30
0.0
 11
257.889231
 21
309.573176
 31
0.0
  0
LINE
  5
97
330
1F
100
AcDbEntity
  8
002
 62
     3
370
    30
100
AcDbLine
 10
257.889231
 20
309.573176
 30
0.0
 11
258.139231
 21
309.823176
 31
0.0
  0
LINE
  5
98
330
1F
100
AcDbEntity
  8
002
 62
     3
370
    30
100
AcDbLine
 10
258.139231
 20
309.823176
 30
0.0
 11
258.139231
 21
314.323176
 31
0.0
  0
LINE
  5
99
330
1F
100
AcDbEntity
  8
002
 62
     3
370
    30
100
AcDbLine
 10
258.139231
 20
314.323176
 30
0.0
 11
257.889231
 21
314.573176
 31
0.0
  0
LINE
  5
9A
330
1F
100
AcDbEntity
  8
002
 62
     3
370
    30
100
AcDbLine
 10
257.889231
 20
314.573176
 30
0.0
 11
253.389231
 21
314.573176
 31
0.0
  0
LINE
  5
9B
330
1F
100
AcDbEntity
  8
002
 62
     3
370
    30
100
AcDbLine
 10
253.389231
 20
314.573176
 30
0.0
 11
253.139231
 21
314.323176
 31
0.0
  0
ARC
  5
9C
330
1F
100
AcDbEntity
  8
002
 62
     3
370
    30
100
AcDbCircle
 10
257.939231
 20
309.773176
 30
0.0
 40
0.1999999999999318
100
AcDbArc
 50
270.0
 51
0.0
  0
ARC
  5
9D
330
1F
100
AcDbEntity
  8
002
 62
     3
370
    30
100
AcDbCircle
 10
253.339231
 20
309.773176
 30
0.0
 40
0.2000000000000455
100
AcDbArc
 50
180.0
 51
270.0
  0
ARC
  5
9E
330
1F
100
AcDbEntity
  8
002
 62
     3
370
    30
100
AcDbCircle
 10
255.639231
 20
305.073176
 30
0.0
 40
7.499936066394191
100
AcDbArc
 50
109.471393
 51
70.528607
  0
CIRCLE
  5
9F
330
1F
100
AcDbEntity
  8
002
 62
     3
370
    30
100
AcDbCircle
 10
255.639231
 20
305.073176
 30
0.0
 40
17.5
  0
ARC
  5
A0
330
1F
100
AcDbEntity
  8
002
 62
     3
370
    30
100
AcDbCircle
 10
255.639231
 20
304.028776
 30
0.0
 40
15.66944001073419
100
AcDbArc
 50
306.867484
 51
233.132223
  0
ARC
  5
A1
330
1F
100
AcDbEntity
  8
002
 62
     3
370
    30
100
AcDbCircle
 10
247.738031
 20
293.492976
 30
0.0
 40
2.499984673953072
100
AcDbArc
 50
233.131477
 51
314.849286
  0
CIRCLE
  5
A2
330
1F
100
AcDbEntity
  8
002
 62
     3
370
    30
100
AcDbCircle
 10
251.264231
 20
289.948176
 30
0.0
 40
1.09375
  0
ARC
  5
A3
330
1F
100
AcDbEntity
  8
002
 62
     3
370
    30
100
AcDbCircle
 10
251.264231
 20
289.948176
 30
0.0
 40
2.499984673952911
100
AcDbArc
 50
0.0
 51
134.849286
  0
LINE
  5
A4
330
1F
100
AcDbEntity
  8
002
 62
     3
370
    30
100
AcDbLine
 10
253.764231
 20
289.948176
 30
0.0
 11
253.764231
 21
287.701576
 31
0.0
  0
LINE
  5
A5
330
1F
100
AcDbEntity
  8
002
 62
     3
370
    30
100
AcDbLine
 10
257.514231
 20
287.701576
 30
0.0
 11
257.514231
 21
289.948176
 31
0.0
  0
CIRCLE
  5
A6
330
1F
100
AcDbEntity
  8
002
 62
     3
370
    30
100
AcDbCircle
 10
260.014231
 20
289.948176
 30
0.0
 40
1.09375
  0
ARC
  5
A7
330
1F
100
AcDbEntity
  8
002
 62
     3
370
    30
100
AcDbCircle
 10
263.540431
 20
293.492976
 30
0.0
 40
2.500020003919964
100
AcDbArc
 50
225.150714
 51
306.866689
  0
ARC
  5
A8
330
1F
100
AcDbEntity
  8
002
 62
     3
370
    30
100
AcDbCircle
 10
260.014231
 20
289.948176
 30
0.0
 40
2.5
100
AcDbArc
 50
45.150714
 51
180.0
  0
LINE
  5
A9
330
1F
100
AcDbEntity
  8
002
 62
     3
370
    30
100
AcDbLine
 10
216.639231
 20
545.073176
 30
0.0
 11
216.639231
 21
525.073176
 31
0.0
  0
LINE
  5
AA
330
1F
100
AcDbEntity
  8
002
 62
     3
370
    30
100
AcDbLine
 10
216.639231
 20
545.073176
 30
0.0
 11
230.639231
 21
545.073176
 31
0.0
  0
LINE
  5
AB
330
1F
100
AcDbEntity
  8
002
 62
     3
370
    30
100
AcDbLine
 10
230.639231
 20
545.073176
 30
0.0
 11
230.639231
 21
525.073176
 31
0.0
  0
LINE
  5
AC
330
1F
100
AcDbEntity
  8
002
 62
    40
370
     9
100
AcDbLine
 10
217.451231
 20
545.073176
 30
0.0
 11
217.451231
 21
525.073176
 31
0.0
  0
LINE
  5
AD
330
1F
100
AcDbEntity
  8
002
 62
    40
370
     9
100
AcDbLine
 10
229.827231
 20
525.073176
 30
0.0
 11
229.827231
 21
545.073176
 31
0.0
  0
LINE
  5
AE
330
1F
100
AcDbEntity
  8
002
 62
     3
370
    30
100
AcDbLine
 10
294.583358
 20
345.073176
 30
0.0
 11
295.980188
 21
305.073176
 31
0.0
  0
LINE
  5
AF
330
1F
100
AcDbEntity
  8
002
 62
     3
370
    30
100
AcDbLine
 10
261.715896
 20
338.481978
 30
0.0
 11
261.29635
 21
343.277405
 31
0.0
  0
LINE
  5
B0
330
1F
100
AcDbEntity
  8
002
 62
     3
370
    30
100
AcDbLine
 10
223.639231
 20
343.473176
 30
0.0
 11
269.639231
 21
343.473176
 31
0.0
  0
LINE
  5
B1
330
1F
100
AcDbEntity
  8
002
 62
     3
370
    30
100
AcDbLine
 10
282.865829
 20
345.073176
 30
0.0
 11
294.583358
 21
345.073176
 31
0.0
  0
LINE
  5
B2
330
1F
100
AcDbEntity
  8
002
 62
     3
370
    30
100
AcDbLine
 10
261.715896
 20
338.481978
 30
0.0
 11
261.877306
 21
336.637056
 31
0.0
  0
ARC
  5
B3
330
1F
100
AcDbEntity
  8
002
 62
     3
370
    30
100
AcDbCircle
 10
266.595783
 20
340.073176
 30
0.0
 40
5.0
100
AcDbArc
 50
185.0
 51
270.0
  0
LINE
  5
B4
330
1F
100
AcDbEntity
  8
002
 62
     3
370
    30
100
AcDbLine
 10
266.595783
 20
335.073176
 30
0.0
 11
282.639231
 21
335.073176
 31
0.0
  0
LINE
  5
B5
330
1F
100
AcDbEntity
  8
002
 62
     3
370
    30
100
AcDbLine
 10
282.639231
 20
333.880169
 30
0.0
 11
282.639231
 21
335.073176
 31
0.0
  0
LINE
  5
B6
330
1F
100
AcDbEntity
  8
002
 62
     3
370
    30
100
AcDbLine
 10
278.831554
 20
335.073176
 30
0.0
 11
278.352277
 21
340.551346
 31
0.0
  0
LINE
  5
B7
330
1F
100
AcDbEntity
  8
002
 62
     3
370
    30
100
AcDbLine
 10
269.639231
 20
338.573176
 30
0.0
 11
277.639231
 21
338.573176
 31
0.0
  0
LINE
  5
B8
330
1F
100
AcDbEntity
  8
002
 62
     3
370
    30
100
AcDbLine
 10
269.074231
 20
335.976729
 30
0.0
 11
270.639231
 21
335.073176
 31
0.0
  0
LINE
  5
B9
330
1F
100
AcDbEntity
  8
002
 62
     3
370
    30
100
AcDbLine
 10
269.149927
 20
338.290676
 30
0.0
 11
269.639231
 21
338.573176
 31
0.0
  0
LINE
  5
BA
330
1F
100
AcDbEntity
  8
002
 62
     3
370
    30
100
AcDbLine
 10
278.128535
 20
338.290676
 30
0.0
 11
277.639231
 21
338.573176
 31
0.0
  0
LINE
  5
BB
330
1F
100
AcDbEntity
  8
002
 62
     3
370
    30
100
AcDbLine
 10
278.204231
 20
335.976729
 30
0.0
 11
276.639231
 21
335.073176
 31
0.0
  0
ARC
  5
BC
330
1F
100
AcDbEntity
  8
002
 62
     3
370
    30
100
AcDbCircle
 10
273.639231
 20
329.433453
 30
0.0
 40
9.139722999187002
100
AcDbArc
 50
74.646222
 51
105.353778
  0
ARC
  5
BD
330
1F
100
AcDbEntity
  8
002
 62
     3
370
    30
100
AcDbCircle
 10
270.146731
 20
336.647042
 30
0.0
 40
1.926144835808743
100
AcDbArc
 50
56.164408
 51
123.835592
  0
ARC
  5
BE
330
1F
100
AcDbEntity
  8
002
 62
     3
370
    30
100
AcDbCircle
 10
277.131731
 20
336.647042
 30
0.0
 40
1.926144835808743
100
AcDbArc
 50
56.164408
 51
123.835592
  0
ARC
  5
BF
330
1F
100
AcDbEntity
  8
002
 62
     3
370
    30
100
AcDbCircle
 10
270.146731
 20
337.576659
 30
0.0
 40
1.926144835808743
100
AcDbArc
 50
236.164408
 51
303.835592
  0
ARC
  5
C0
330
1F
100
AcDbEntity
  8
002
 62
     3
370
    30
100
AcDbCircle
 10
273.639231
 20
344.790249
 30
0.0
 40
9.139722999187002
100
AcDbArc
 50
254.646222
 51
285.353778
  0
ARC
  5
C1
330
1F
100
AcDbEntity
  8
002
 62
     3
370
    30
100
AcDbCircle
 10
277.131731
 20
337.576659
 30
0.0
 40
1.926144835808743
100
AcDbArc
 50
236.164408
 51
303.835592
  0
ARC
  5
C2
330
1F
100
AcDbEntity
  8
002
 62
     3
370
    30
100
AcDbCircle
 10
273.639231
 20
343.073176
 30
0.0
 40
4.0
100
AcDbArc
 50
54.895863
 51
180.0
  0
LINE
  5
C3
330
1F
100
AcDbEntity
  8
002
 62
     3
370
    30
100
AcDbLine
 10
269.639231
 20
343.473176
 30
0.0
 11
269.639231
 21
338.573176
 31
0.0
  0
LINE
  5
C4
330
1F
100
AcDbEntity
  8
002
 62
     3
370
    30
100
AcDbLine
 10
277.639231
 20
340.360286
 30
0.0
 11
277.639231
 21
338.573176
 31
0.0
  0
LINE
  5
C5
330
1F
100
AcDbEntity
  8
002
 62
     3
370
    30
100
AcDbLine
 10
275.867356
 20
346.614808
 30
0.0
 11
277.54968
 21
340.336291
 31
0.0
  0
LINE
  5
C6
330
1F
100
AcDbEntity
  8
002
 62
     3
370
    30
100
AcDbLine
 10
278.998569
 20
340.724519
 30
0.0
 11
277.54968
 21
340.336291
 31
0.0
  0
LINE
  5
C7
330
1F
100
AcDbEntity
  8
002
 62
     3
370
    30
100
AcDbLine
 10
277.316245
 20
347.003037
 30
0.0
 11
275.867356
 21
346.614808
 31
0.0
  0
LINE
  5
C8
330
1F
100
AcDbEntity
  8
002
 62
     3
370
    30
100
AcDbLine
 10
277.316245
 20
347.003037
 30
0.0
 11
278.998569
 21
340.724519
 31
0.0
  0
ARC
  5
C9
330
1F
100
AcDbEntity
  8
002
 62
     3
370
    30
100
AcDbCircle
 10
277.373241
 20
347.346699
 30
0.0
 40
1.000001999998009
100
AcDbArc
 50
276.720641
 51
317.005383
  0
LINE
  5
CA
330
1F
100
AcDbEntity
  8
002
 62
     3
370
    30
100
AcDbLine
 10
281.879918
 20
347.449412
 30
0.0
 11
283.174013
 21
342.619783
 31
0.0
  0
ARC
  5
CB
330
1F
100
AcDbEntity
  8
002
 62
     3
370
    30
100
AcDbCircle
 10
281.888102
 20
344.863415
 30
0.0
 40
0.9999749796870392
100
AcDbArc
 50
326.407997
 51
63.592003
  0
LINE
  5
CC
330
1F
100
AcDbEntity
  8
002
 62
     3
370
    30
100
AcDbLine
 10
278.98214
 20
346.672955
 30
0.0
 11
280.276236
 21
341.843326
 31
0.0
  0
LINE
  5
CD
330
1F
100
AcDbEntity
  8
002
 62
     3
370
    30
100
AcDbLine
 10
278.788026
 20
347.3974
 30
0.0
 11
281.879918
 21
347.449412
 31
0.0
  0
LINE
  5
CE
330
1F
100
AcDbEntity
  8
002
 62
     3
370
    30
100
AcDbLine
 10
278.10466
 20
346.664768
 30
0.0
 11
278.788026
 21
347.3974
 31
0.0
  0
LINE
  5
CF
330
1F
100
AcDbEntity
  8
002
 62
     3
370
    30
100
AcDbLine
 10
283.174013
 20
342.619783
 30
0.0
 11
280.47035
 21
341.118882
 31
0.0
  0
LINE
  5
D0
330
1F
100
AcDbEntity
  8
002
 62
     3
370
    30
100
AcDbLine
 10
280.47035
 20
341.118882
 30
0.0
 11
279.512196
 21
341.411773
 31
0.0
  0
ARC
  5
D1
330
1F
100
AcDbEntity
  8
002
 62
     3
370
    30
100
AcDbCircle
 10
279.219734
 20
340.455494
 30
0.0
 40
0.9999197017761513
100
AcDbArc
 50
72.994617
 51
113.280045
  0
LINE
  5
D2
330
1F
100
AcDbEntity
  8
002
 62
     3
370
    30
100
AcDbLine
 10
269.074231
 20
338.246973
 30
0.0
 11
269.074231
 21
335.976729
 31
0.0
  0
LINE
  5
D3
330
1F
100
AcDbEntity
  8
002
 62
     3
370
    30
100
AcDbLine
 10
271.219231
 20
338.246973
 30
0.0
 11
271.219231
 21
335.976729
 31
0.0
  0
LINE
  5
D4
330
1F
100
AcDbEntity
  8
002
 62
     3
370
    30
100
AcDbLine
 10
276.059231
 20
338.246973
 30
0.0
 11
276.059231
 21
335.976729
 31
0.0
  0
LINE
  5
D5
330
1F
100
AcDbEntity
  8
002
 62
     3
370
    30
100
AcDbLine
 10
278.204231
 20
338.246973
 30
0.0
 11
278.204231
 21
335.976729
 31
0.0
  0
LINE
  5
D6
330
1F
100
AcDbEntity
  8
002
  6
CENTER
 62
    40
370
     9
100
AcDbLine
 10
271.080674
 20
341.915353
 30
0.0
 11
284.69266
 21
345.562673
 31
0.0
  0
LINE
  5
D7
330
1F
100
AcDbEntity
  8
002
  6
CENTER
 62
    40
370
     9
100
AcDbLine
 10
283.639231
 20
260.242603
 30
0.0
 11
283.639231
 21
348.307022
 31
0.0
  0
ARC
  5
D8
330
1F
100
AcDbEntity
  8
002
 62
     3
370
    30
100
AcDbCircle
 10
266.814505
 20
337.573176
 30
0.0
 40
5.0
100
AcDbArc
 50
185.0
 51
270.0
  0
LINE
  5
D9
330
1F
100
AcDbEntity
  8
002
  6
CENTER
 62
    40
370
     9
100
AcDbLine
 10
273.639231
 20
348.224592
 30
0.0
 11
273.639231
 21
320.236571
 31
0.0
  0
LINE
  5
DA
330
1F
100
AcDbEntity
  8
002
  6
CENTER
 62
    40
370
     9
100
AcDbLine
 10
223.639231
 20
1026.468648
 30
0.0
 11
223.639231
 21
935.323933
 31
0.0
  0
LINE
  5
DB
330
1F
100
AcDbEntity
  8
002
  6
CENTER
 62
    40
370
     9
100
AcDbLine
 10
255.639231
 20
889.379091
 30
0.0
 11
255.639231
 21
1069.689719
 31
0.0
  0
LINE
  5
DC
330
1F
100
AcDbEntity
  8
002
 62
     3
370
    30
100
AcDbLine
 10
283.419029
 20
931.057573
 30
0.0
 11
255.639231
 21
931.057573
 31
0.0
  0
LINE
  5
DD
330
1F
100
AcDbEntity
  8
002
 62
     3
370
    30
100
AcDbLine
 10
255.639231
 20
931.057573
 30
0.0
 11
228.139231
 21
931.057573
 31
0.0
  0
LINE
  5
DE
330
1F
100
AcDbEntity
  8
002
  6
CENTER
 62
    40
370
     9
100
AcDbLine
 10
283.639231
 20
1028.057573
 30
0.0
 11
283.639231
 21
1004.509641
 31
0.0
  0
LINE
  5
DF
330
1F
100
AcDbEntity
  8
002
  6
CENTER
 62
    40
370
     9
100
AcDbLine
 10
294.202471
 20
1016.057573
 30
0.0
 11
273.639231
 21
1016.057573
 31
0.0
  0
CIRCLE
  5
E0
330
1F
100
AcDbEntity
  8
002
 62
     3
370
    30
100
AcDbCircle
 10
283.639231
 20
1016.057573
 30
0.0
 40
4.25
  0
LINE
  5
E1
330
1F
100
AcDbEntity
  8
002
  6
CENTER
 62
    40
370
     9
100
AcDbLine
 10
283.639231
 20
934.057573
 30
0.0
 11
283.639231
 21
957.605506
 31
0.0
  0
LINE
  5
E2
330
1F
100
AcDbEntity
  8
002
  6
CENTER
 62
    40
370
     9
100
AcDbLine
 10
294.202471
 20
946.057573
 30
0.0
 11
273.639231
 21
946.057573
 31
0.0
  0
CIRCLE
  5
E3
330
1F
100
AcDbEntity
  8
002
 62
     3
370
    30
100
AcDbCircle
 10
283.639231
 20
946.057573
 30
0.0
 40
4.25
  0
LINE
  5
E4
330
1F
100
AcDbEntity
  8
002
 62
     3
370
    30
100
AcDbLine
 10
181.639231
 20
1028.398531
 30
0.0
 11
227.88063
 21
1028.398531
 31
0.0
  0
LINE
  5
E5
330
1F
100
AcDbEntity
  8
002
  6
CENTER
 62
    40
370
     9
100
AcDbLine
 10
192.202471
 20
1016.057573
 30
0.0
 11
171.639231
 21
1016.057573
 31
0.0
  0
LINE
  5
E6
330
1F
100
AcDbEntity
  8
002
  6
CENTER
 62
    40
370
     9
100
AcDbLine
 10
181.639231
 20
1004.509641
 30
0.0
 11
181.639231
 21
1028.057573
 31
0.0
  0
CIRCLE
  5
E7
330
1F
100
AcDbEntity
  8
002
 62
     3
370
    30
100
AcDbCircle
 10
181.639231
 20
1016.057573
 30
0.0
 40
4.25
  0
LINE
  5
E8
330
1F
100
AcDbEntity
  8
002
 62
     3
370
    30
100
AcDbLine
 10
169.298273
 20
1016.057573
 30
0.0
 11
169.298273
 21
981.057573
 31
0.0
  0
ARC
  5
E9
330
1F
100
AcDbEntity
  8
002
 62
     3
370
    30
100
AcDbCircle
 10
181.639231
 20
1016.057573
 30
0.0
 40
12.34095754848317
100
AcDbArc
 50
90.0
 51
180.0
  0
ARC
  5
EA
330
1F
100
AcDbEntity
  8
002
 62
     3
370
    30
100
AcDbCircle
 10
283.639231
 20
1016.057573
 30
0.0
 40
12.34095754848317
100
AcDbArc
 50
0.0
 51
74.95953
  0
LINE
  5
EB
330
1F
100
AcDbEntity
  8
002
 62
     3
370
    30
100
AcDbLine
 10
295.980188
 20
1016.057573
 30
0.0
 11
295.980188
 21
981.057573
 31
0.0
  0
ARC
  5
EC
330
1F
100
AcDbEntity
  8
002
 62
     3
370
    30
100
AcDbCircle
 10
283.639231
 20
946.057573
 30
0.0
 40
12.34095754848317
100
AcDbArc
 50
285.04047
 51
0.0
  0
LINE
  5
ED
330
1F
100
AcDbEntity
  8
002
 62
     3
370
    30
100
AcDbLine
 10
295.980188
 20
946.057573
 30
0.0
 11
295.980188
 21
981.057573
 31
0.0
  0
CIRCLE
  5
EE
330
1F
100
AcDbEntity
  8
002
 62
     3
370
    30
100
AcDbCircle
 10
223.639231
 20
981.057573
 30
0.0
 40
28.91750000000047
  0
CIRCLE
  5
EF
330
1F
100
AcDbEntity
  8
002
 62
    40
370
     9
100
AcDbCircle
 10
223.639231
 20
981.057573
 30
0.0
 40
30.00000000000045
  0
ARC
  5
F0
330
1F
100
AcDbEntity
  8
002
 62
     3
370
    30
100
AcDbCircle
 10
223.639231
 20
981.057573
 30
0.0
 40
37.50000999999997
100
AcDbArc
 50
163.805287
 51
180.0
  0
CIRCLE
  5
F1
330
1F
100
AcDbEntity
  8
002
 62
     3
370
    30
100
AcDbCircle
 10
181.639231
 20
1016.057573
 30
0.0
 40
11.0
  0
CIRCLE
  5
F2
330
1F
100
AcDbEntity
  8
002
 62
     3
370
    30
100
AcDbCircle
 10
283.639231
 20
946.057573
 30
0.0
 40
11.0
  0
LINE
  5
F3
330
1F
100
AcDbEntity
  8
002
 62
     3
370
    30
100
AcDbLine
 10
294.639231
 20
946.057573
 30
0.0
 11
294.639231
 21
981.057573
 31
0.0
  0
LINE
  5
F4
330
1F
100
AcDbEntity
  8
002
 62
     3
370
    30
100
AcDbLine
 10
294.639231
 20
1016.057573
 30
0.0
 11
294.639231
 21
981.057573
 31
0.0
  0
CIRCLE
  5
F5
330
1F
100
AcDbEntity
  8
002
 62
     3
370
    30
100
AcDbCircle
 10
283.639231
 20
1016.057573
 30
0.0
 40
11.0
  0
LINE
  5
F6
330
1F
100
AcDbEntity
  8
002
 62
     3
370
    30
100
AcDbLine
 10
252.106411
 20
1010.398169
 30
0.0
 11
278.09665
 21
1025.559141
 31
0.0
  0
LINE
  5
F7
330
1F
100
AcDbEntity
  8
002
 62
     3
370
    30
100
AcDbLine
 10
263.191573
 20
991.395033
 30
0.0
 11
289.181812
 21
1006.556005
 31
0.0
  0
ARC
  5
F8
330
1F
100
AcDbEntity
  8
002
 62
     3
370
    30
100
AcDbCircle
 10
249.587056
 20
1014.717063
 30
0.0
 40
5.0
100
AcDbArc
 50
232.371665
 51
300.256437
  0
ARC
  5
F9
330
1F
100
AcDbEntity
  8
002
 62
     3
370
    30
100
AcDbCircle
 10
265.710928
 20
987.076138
 30
0.0
 40
5.0
100
AcDbArc
 50
120.256437
 51
188.141209
  0
ARC
  5
FA
330
1F
100
AcDbEntity
  8
002
 62
     3
370
    30
100
AcDbCircle
 10
249.587056
 20
947.398084
 30
0.0
 40
5.0
100
AcDbArc
 50
59.743563
 51
127.628335
  0
LINE
  5
FB
330
1F
100
AcDbEntity
  8
002
 62
     3
370
    30
100
AcDbLine
 10
252.106411
 20
951.716978
 30
0.0
 11
278.09665
 21
936.556005
 31
0.0
  0
LINE
  5
FC
330
1F
100
AcDbEntity
  8
002
 62
     3
370
    30
100
AcDbLine
 10
263.191573
 20
970.720114
 30
0.0
 11
289.181812
 21
955.559141
 31
0.0
  0
ARC
  5
FD
330
1F
100
AcDbEntity
  8
002
 62
     3
370
    30
100
AcDbCircle
 10
265.710928
 20
975.039009
 30
0.0
 40
5.0
100
AcDbArc
 50
171.858791
 51
239.743563
  0
ARC
  5
FE
330
1F
100
AcDbEntity
  8
002
 62
     3
370
    30
100
AcDbCircle
 10
223.639231
 20
981.057573
 30
0.0
 40
37.50000999999997
100
AcDbArc
 50
351.858791
 51
0.0
  0
ARC
  5
FF
330
1F
100
AcDbEntity
  8
002
 62
     3
370
    30
100
AcDbCircle
 10
223.639231
 20
981.057573
 30
0.0
 40
37.50000999999997
100
AcDbArc
 50
0.0
 51
8.141209
  0
ARC
  5
100
330
1F
100
AcDbEntity
  8
002
 62
     3
370
    30
100
AcDbCircle
 10
223.639231
 20
981.057573
 30
0.0
 40
37.50000999999997
100
AcDbArc
 50
52.371665
 51
119.396213
  0
LINE
  5
101
330
1F
100
AcDbEntity
  8
002
 62
     3
370
    30
100
AcDbLine
 10
227.751314
 20
938.816383
 30
0.0
 11
228.139231
 21
931.057573
 31
0.0
  0
LINE
  5
102
330
1F
100
AcDbEntity
  8
002
  6
CENTER
 62
    40
370
     9
100
AcDbLine
 10
273.639231
 20
988.058753
 30
0.0
 11
273.639231
 21
974.011999
 31
0.0
  0
LINE
  5
103
330
1F
100
AcDbEntity
  8
002
 62
     3
370
    30
100
AcDbLine
 10
268.296627
 20
990.057573
 30
0.0
 11
273.639231
 21
990.057573
 31
0.0
  0
LINE
  5
104
330
1F
100
AcDbEntity
  8
002
 62
     3
370
    30
100
AcDbLine
 10
268.296627
 20
972.057573
 30
0.0
 11
273.639231
 21
972.057573
 31
0.0
  0
ARC
  5
105
330
1F
100
AcDbEntity
  8
002
 62
     3
370
    30
100
AcDbCircle
 10
268.296627
 20
992.057573
 30
0.0
 40
2.0
100
AcDbArc
 50
120.256437
 51
270.0
  0
ARC
  5
106
330
1F
100
AcDbEntity
  8
002
 62
     3
370
    30
100
AcDbCircle
 10
268.296627
 20
970.057573
 30
0.0
 40
2.0
100
AcDbArc
 50
90.0
 51
239.743563
  0
LINE
  5
107
330
1F
100
AcDbEntity
  8
002
 62
     3
370
    30
100
AcDbLine
 10
182.783423
 20
987.764573
 30
0.0
 11
169.298273
 21
987.764573
 31
0.0
  0
ARC
  5
108
330
1F
100
AcDbEntity
  8
002
 62
     3
370
    30
100
AcDbCircle
 10
182.783423
 20
992.764573
 30
0.0
 40
5.0
100
AcDbArc
 50
270.0
 51
344.010645
  0
CIRCLE
  5
109
330
1F
100
AcDbEntity
  8
002
 62
    40
370
     9
100
AcDbCircle
 10
283.639231
 20
946.057573
 30
0.0
 40
5.0
  0
CIRCLE
  5
10A
330
1F
100
AcDbEntity
  8
002
 62
    40
370
     9
100
AcDbCircle
 10
283.639231
 20
1016.057573
 30
0.0
 40
5.0
  0
CIRCLE
  5
10B
330
1F
100
AcDbEntity
  8
002
 62
    40
370
     9
100
AcDbCircle
 10
181.639231
 20
1016.057573
 30
0.0
 40
5.0
  0
ARC
  5
10C
330
1F
100
AcDbEntity
  8
002
 62
     3
370
    30
100
AcDbCircle
 10
222.757552
 20
938.56671
 30
0.0
 40
5.0
100
AcDbArc
 50
2.862231
 51
88.811292
  0
ARC
  5
10D
330
1F
100
AcDbEntity
  8
002
 62
     3
370
    30
100
AcDbCircle
 10
288.139231
 20
930.703421
 30
0.0
 40
5.0
100
AcDbArc
 50
106.334823
 51
175.948477
  0
ARC
  5
10E
330
1F
100
AcDbEntity
  8
002
 62
     3
370
    30
100
AcDbCircle
 10
288.139231
 20
929.310669
 30
0.0
 40
5.0
100
AcDbArc
 50
105.04047
 51
160.741561
  0
LINE
  5
10F
330
1F
100
AcDbEntity
  8
002
 62
     3
370
    30
100
AcDbLine
 10
255.639231
 20
1031.057573
 30
0.0
 11
228.139231
 21
1031.057573
 31
0.0
  0
LINE
  5
110
330
1F
100
AcDbEntity
  8
002
 62
     3
370
    30
100
AcDbLine
 10
227.751314
 20
1023.298764
 30
0.0
 11
228.139231
 21
1031.057573
 31
0.0
  0
ARC
  5
111
330
1F
100
AcDbEntity
  8
002
 62
     3
370
    30
100
AcDbCircle
 10
222.757552
 20
1023.548437
 30
0.0
 40
5.0
100
AcDbArc
 50
271.188708
 51
357.137769
  0
LINE
  5
112
330
1F
100
AcDbEntity
  8
002
 62
     3
370
    30
100
AcDbLine
 10
283.419029
 20
1031.057573
 30
0.0
 11
255.639231
 21
1031.057573
 31
0.0
  0
ARC
  5
113
330
1F
100
AcDbEntity
  8
002
 62
     3
370
    30
100
AcDbCircle
 10
288.139231
 20
1031.411726
 30
0.0
 40
5.0
100
AcDbArc
 50
184.051523
 51
253.665177
  0
ARC
  5
114
330
1F
100
AcDbEntity
  8
002
 62
     3
370
    30
100
AcDbCircle
 10
288.139231
 20
1032.804478
 30
0.0
 40
5.0
100
AcDbArc
 50
199.258439
 51
254.95953
  0
LINE
  5
115
330
1F
100
AcDbEntity
  8
002
 62
     3
370
    30
100
AcDbLine
 10
186.261645
 20
996.543274
 30
0.0
 11
174.080032
 21
1008.066421
 31
0.0
  0
LINE
  5
116
330
1F
100
AcDbEntity
  8
002
 62
     3
370
    30
100
AcDbLine
 10
199.342265
 20
1014.453206
 30
0.0
 11
189.198429
 21
1024.048726
 31
0.0
  0
ARC
  5
117
330
1F
100
AcDbEntity
  8
002
 62
     3
370
    30
100
AcDbCircle
 10
202.778264
 20
1018.085548
 30
0.0
 40
5.0
100
AcDbArc
 50
226.59114
 51
299.396213
  0
ARC
  5
118
330
1F
100
AcDbEntity
  8
002
 62
     3
370
    30
100
AcDbCircle
 10
182.825646
 20
992.910932
 30
0.0
 40
5.0
100
AcDbArc
 50
343.805287
 51
46.59114
  0
LINE
  5
119
330
1F
100
AcDbEntity
  8
002
 62
     3
370
    30
100
AcDbLine
 10
181.639231
 20
933.716616
 30
0.0
 11
227.88063
 21
933.716616
 31
0.0
  0
LINE
  5
11A
330
1F
100
AcDbEntity
  8
002
  6
CENTER
 62
    40
370
     9
100
AcDbLine
 10
192.202471
 20
946.057573
 30
0.0
 11
171.639231
 21
946.057573
 31
0.0
  0
LINE
  5
11B
330
1F
100
AcDbEntity
  8
002
  6
CENTER
 62
    40
370
     9
100
AcDbLine
 10
181.639231
 20
957.605506
 30
0.0
 11
181.639231
 21
934.057573
 31
0.0
  0
CIRCLE
  5
11C
330
1F
100
AcDbEntity
  8
002
 62
     3
370
    30
100
AcDbCircle
 10
181.639231
 20
946.057573
 30
0.0
 40
4.25
  0
LINE
  5
11D
330
1F
100
AcDbEntity
  8
002
 62
     3
370
    30
100
AcDbLine
 10
169.298273
 20
946.057573
 30
0.0
 11
169.298273
 21
981.057573
 31
0.0
  0
ARC
  5
11E
330
1F
100
AcDbEntity
  8
002
 62
     3
370
    30
100
AcDbCircle
 10
181.639231
 20
946.057573
 30
0.0
 40
12.34095754848317
100
AcDbArc
 50
180.0
 51
270.0
  0
ARC
  5
11F
330
1F
100
AcDbEntity
  8
002
 62
     3
370
    30
100
AcDbCircle
 10
223.639231
 20
981.057573
 30
0.0
 40
37.50000999999997
100
AcDbArc
 50
180.0
 51
196.194713
  0
CIRCLE
  5
120
330
1F
100
AcDbEntity
  8
002
 62
     3
370
    30
100
AcDbCircle
 10
181.639231
 20
946.057573
 30
0.0
 40
11.0
  0
LINE
  5
121
330
1F
100
AcDbEntity
  8
002
 62
     3
370
    30
100
AcDbLine
 10
182.783423
 20
974.350573
 30
0.0
 11
169.298273
 21
974.350573
 31
0.0
  0
ARC
  5
122
330
1F
100
AcDbEntity
  8
002
 62
     3
370
    30
100
AcDbCircle
 10
182.783423
 20
969.350573
 30
0.0
 40
5.0
100
AcDbArc
 50
15.989355
 51
90.0
  0
CIRCLE
  5
123
330
1F
100
AcDbEntity
  8
002
 62
    40
370
     9
100
AcDbCircle
 10
181.639231
 20
946.057573
 30
0.0
 40
5.0
  0
LINE
  5
124
330
1F
100
AcDbEntity
  8
002
 62
     3
370
    30
100
AcDbLine
 10
186.261645
 20
965.571873
 30
0.0
 11
174.080032
 21
954.048726
 31
0.0
  0
LINE
  5
125
330
1F
100
AcDbEntity
  8
002
 62
     3
370
    30
100
AcDbLine
 10
199.342265
 20
947.661941
 30
0.0
 11
189.198429
 21
938.066421
 31
0.0
  0
ARC
  5
126
330
1F
100
AcDbEntity
  8
002
 62
     3
370
    30
100
AcDbCircle
 10
182.825646
 20
969.204215
 30
0.0
 40
5.0
100
AcDbArc
 50
313.40886
 51
16.194713
  0
ARC
  5
127
330
1F
100
AcDbEntity
  8
002
 62
     3
370
    30
100
AcDbCircle
 10
202.778264
 20
944.029599
 30
0.0
 40
5.0
100
AcDbArc
 50
60.603787
 51
133.40886
  0
ARC
  5
128
330
1F
100
AcDbEntity
  8
002
 62
     3
370
    30
100
AcDbCircle
 10
223.639231
 20
981.057573
 30
0.0
 40
37.50000999999997
100
AcDbArc
 50
240.603787
 51
307.628335
  0
LINE
  5
129
330
1F
100
AcDbEntity
  8
002
 62
     3
370
    30
100
AcDbLine
 10
264.139231
 20
1032.057573
 30
0.0
 11
263.139231
 21
1033.057573
 31
0.0
  0
LINE
  5
12A
330
1F
100
AcDbEntity
  8
002
 62
     3
370
    30
100
AcDbLine
 10
247.139231
 20
1032.057573
 30
0.0
 11
248.139231
 21
1033.057573
 31
0.0
  0
LINE
  5
12B
330
1F
100
AcDbEntity
  8
002
 62
     3
370
    30
100
AcDbLine
 10
264.139231
 20
1032.057573
 30
0.0
 11
247.139231
 21
1032.057573
 31
0.0
  0
LINE
  5
12C
330
1F
100
AcDbEntity
  8
002
 62
     3
370
    30
100
AcDbLine
 10
247.139231
 20
1032.057573
 30
0.0
 11
247.139231
 21
1031.057573
 31
0.0
  0
LINE
  5
12D
330
1F
100
AcDbEntity
  8
002
 62
     3
370
    30
100
AcDbLine
 10
264.139231
 20
1031.057573
 30
0.0
 11
264.139231
 21
1032.057573
 31
0.0
  0
LINE
  5
12E
330
1F
100
AcDbEntity
  8
002
 62
     3
370
    30
100
AcDbLine
 10
263.139231
 20
1065.057573
 30
0.0
 11
263.139231
 21
1033.057573
 31
0.0
  0
LINE
  5
12F
330
1F
100
AcDbEntity
  8
002
 62
     3
370
    30
100
AcDbLine
 10
248.139231
 20
1033.057573
 30
0.0
 11
248.139231
 21
1065.057573
 31
0.0
  0
LINE
  5
130
330
1F
100
AcDbEntity
  8
002
 62
     3
370
    30
100
AcDbLine
 10
258.139231
 20
1038.557573
 30
0.0
 11
258.139231
 21
1066.057573
 31
0.0
  0
LINE
  5
131
330
1F
100
AcDbEntity
  8
002
 62
     3
370
    30
100
AcDbLine
 10
249.139231
 20
1066.057573
 30
0.0
 11
262.139231
 21
1066.057573
 31
0.0
  0
LINE
  5
132
330
1F
100
AcDbEntity
  8
002
 62
     3
370
    30
100
AcDbLine
 10
262.139231
 20
1066.057573
 30
0.0
 11
263.139231
 21
1065.057573
 31
0.0
  0
LINE
  5
133
330
1F
100
AcDbEntity
  8
002
 62
     3
370
    30
100
AcDbLine
 10
253.139231
 20
1066.057573
 30
0.0
 11
253.139231
 21
1038.557573
 31
0.0
  0
LINE
  5
134
330
1F
100
AcDbEntity
  8
002
 62
     3
370
    30
100
AcDbLine
 10
248.139231
 20
1065.057573
 30
0.0
 11
249.139231
 21
1066.057573
 31
0.0
  0
LINE
  5
135
330
1F
100
AcDbEntity
  8
002
 62
     3
370
    30
100
AcDbLine
 10
258.139231
 20
1044.057573
 30
0.0
 11
253.139231
 21
1044.057573
 31
0.0
  0
ARC
  5
136
330
1F
100
AcDbEntity
  8
002
 62
     3
370
    30
100
AcDbCircle
 10
255.639231
 20
1038.557573
 30
0.0
 40
2.5
100
AcDbArc
 50
180.0
 51
0.0
  0
LINE
  5
137
330
1F
100
AcDbEntity
  8
002
 62
     3
370
    30
100
AcDbLine
 10
264.139231
 20
930.057573
 30
0.0
 11
263.139231
 21
929.057573
 31
0.0
  0
LINE
  5
138
330
1F
100
AcDbEntity
  8
002
 62
     3
370
    30
100
AcDbLine
 10
247.139231
 20
930.057573
 30
0.0
 11
248.139231
 21
929.057573
 31
0.0
  0
LINE
  5
139
330
1F
100
AcDbEntity
  8
002
 62
     3
370
    30
100
AcDbLine
 10
264.139231
 20
930.057573
 30
0.0
 11
247.139231
 21
930.057573
 31
0.0
  0
LINE
  5
13A
330
1F
100
AcDbEntity
  8
002
 62
     3
370
    30
100
AcDbLine
 10
247.139231
 20
930.057573
 30
0.0
 11
247.139231
 21
931.057573
 31
0.0
  0
LINE
  5
13B
330
1F
100
AcDbEntity
  8
002
 62
     3
370
    30
100
AcDbLine
 10
264.139231
 20
931.057573
 30
0.0
 11
264.139231
 21
930.057573
 31
0.0
  0
LINE
  5
13C
330
1F
100
AcDbEntity
  8
002
 62
     3
370
    30
100
AcDbLine
 10
263.139231
 20
897.057573
 30
0.0
 11
263.139231
 21
929.057573
 31
0.0
  0
LINE
  5
13D
330
1F
100
AcDbEntity
  8
002
 62
     3
370
    30
100
AcDbLine
 10
248.139231
 20
929.057573
 30
0.0
 11
248.139231
 21
897.057573
 31
0.0
  0
LINE
  5
13E
330
1F
100
AcDbEntity
  8
002
 62
     3
370
    30
100
AcDbLine
 10
258.139231
 20
923.557573
 30
0.0
 11
258.139231
 21
896.057573
 31
0.0
  0
LINE
  5
13F
330
1F
100
AcDbEntity
  8
002
 62
     3
370
    30
100
AcDbLine
 10
249.139231
 20
896.057573
 30
0.0
 11
262.139231
 21
896.057573
 31
0.0
  0
LINE
  5
140
330
1F
100
AcDbEntity
  8
002
 62
     3
370
    30
100
AcDbLine
 10
262.139231
 20
896.057573
 30
0.0
 11
263.139231
 21
897.057573
 31
0.0
  0
LINE
  5
141
330
1F
100
AcDbEntity
  8
002
 62
     3
370
    30
100
AcDbLine
 10
253.139231
 20
896.057573
 30
0.0
 11
253.139231
 21
923.557573
 31
0.0
  0
LINE
  5
142
330
1F
100
AcDbEntity
  8
002
 62
     3
370
    30
100
AcDbLine
 10
248.139231
 20
897.057573
 30
0.0
 11
249.139231
 21
896.057573
 31
0.0
  0
LINE
  5
143
330
1F
100
AcDbEntity
  8
002
 62
     3
370
    30
100
AcDbLine
 10
258.139231
 20
918.057573
 30
0.0
 11
253.139231
 21
918.057573
 31
0.0
  0
ARC
  5
144
330
1F
100
AcDbEntity
  8
002
 62
     3
370
    30
100
AcDbCircle
 10
255.639231
 20
923.557573
 30
0.0
 40
2.5
100
AcDbArc
 50
0.0
 51
180.0
  0
CIRCLE
  5
145
330
1F
100
AcDbEntity
  8
002
 62
     3
370
    30
100
AcDbCircle
 10
223.639231
 20
981.057573
 30
0.0
 40
12.5
  0
CIRCLE
  5
146
330
1F
100
AcDbEntity
  8
002
 62
     3
370
    30
100
AcDbCircle
 10
223.639231
 20
981.057573
 30
0.0
 40
7.0
  0
CIRCLE
  5
147
330
1F
100
AcDbEntity
  8
002
 62
    40
370
     9
100
AcDbCircle
 10
223.639231
 20
981.057573
 30
0.0
 40
6.25
  0
ARC
  5
148
330
1F
100
AcDbEntity
  8
002
 62
     3
370
    30
100
AcDbCircle
 10
273.761461
 20
981.513741
 30
0.0
 40
4.0
100
AcDbArc
 50
39.895863
 51
186.548369
  0
LINE
  5
149
330
1F
100
AcDbEntity
  8
002
 62
     3
370
    30
100
AcDbLine
 10
276.830307
 20
984.358015
 30
0.0
 11
276.830307
 21
977.858015
 31
0.0
  0
LINE
  5
14A
330
1F
100
AcDbEntity
  8
002
 62
     3
370
    30
100
AcDbLine
 10
278.330307
 20
977.858015
 30
0.0
 11
276.830307
 21
977.858015
 31
0.0
  0
LINE
  5
14B
330
1F
100
AcDbEntity
  8
002
 62
     3
370
    30
100
AcDbLine
 10
278.330307
 20
984.358015
 30
0.0
 11
276.830307
 21
984.358015
 31
0.0
  0
LINE
  5
14C
330
1F
100
AcDbEntity
  8
002
 62
     3
370
    30
100
AcDbLine
 10
278.330307
 20
984.358015
 30
0.0
 11
278.330307
 21
977.858015
 31
0.0
  0
ARC
  5
14D
330
1F
100
AcDbEntity
  8
002
 62
     3
370
    30
100
AcDbCircle
 10
278.474307
 20
984.675215
 30
0.0
 40
1.000001999998009
100
AcDbArc
 50
261.720641
 51
302.005383
  0
LINE
  5
14E
330
1F
100
AcDbEntity
  8
002
 62
     3
370
    30
100
AcDbLine
 10
282.854007
 20
983.608015
 30
0.0
 11
282.854007
 21
978.608015
 31
0.0
  0
ARC
  5
14F
330
1F
100
AcDbEntity
  8
002
 62
     3
370
    30
100
AcDbCircle
 10
282.192607
 20
981.108015
 30
0.0
 40
0.9999749796870392
100
AcDbArc
 50
311.407997
 51
48.592003
  0
LINE
  5
150
330
1F
100
AcDbEntity
  8
002
 62
     3
370
    30
100
AcDbLine
 10
279.854007
 20
983.608015
 30
0.0
 11
279.854007
 21
978.608015
 31
0.0
  0
LINE
  5
151
330
1F
100
AcDbEntity
  8
002
 62
     3
370
    30
100
AcDbLine
 10
279.854007
 20
984.358015
 30
0.0
 11
282.854007
 21
983.608015
 31
0.0
  0
LINE
  5
152
330
1F
100
AcDbEntity
  8
002
 62
     3
370
    30
100
AcDbLine
 10
279.004307
 20
983.827215
 30
0.0
 11
279.854007
 21
984.358015
 31
0.0
  0
LINE
  5
153
330
1F
100
AcDbEntity
  8
002
 62
     3
370
    30
100
AcDbLine
 10
282.854007
 20
978.608015
 30
0.0
 11
279.854007
 21
977.858015
 31
0.0
  0
LINE
  5
154
330
1F
100
AcDbEntity
  8
002
 62
     3
370
    30
100
AcDbLine
 10
279.854007
 20
977.858015
 30
0.0
 11
279.004307
 21
978.388915
 31
0.0
  0
ARC
  5
155
330
1F
100
AcDbEntity
  8
002
 62
     3
370
    30
100
AcDbCircle
 10
278.474307
 20
977.540915
 30
0.0
 40
0.9999197017761513
100
AcDbArc
 50
57.994617
 51
98.280045
  0
ARC
  5
156
330
1F
100
AcDbEntity
  8
002
 62
     3
370
    30
100
AcDbCircle
 10
273.639231
 20
981.057573
 30
0.0
 40
9.0
100
AcDbArc
 50
270.0
 51
343.214401
  0
ARC
  5
157
330
1F
100
AcDbEntity
  8
002
 62
     3
370
    30
100
AcDbCircle
 10
273.639231
 20
981.057573
 30
0.0
 40
9.0
100
AcDbArc
 50
17.513912
 51
90.0
  0
ARC
  5
158
330
1F
100
AcDbEntity
  8
002
 62
     3
370
    30
100
AcDbCircle
 10
273.761461
 20
980.601406
 30
0.0
 40
4.0
100
AcDbArc
 50
173.451631
 51
320.104137
  0
LINE
  5
159
330
1F
100
AcDbEntity
  8
002
  6
CENTER
 62
    40
370
     9
100
AcDbLine
 10
307.218586
 20
981.057573
 30
0.0
 11
167.080122
 21
981.057573
 31
0.0
  0
ARC
  5
15A
330
1F
100
AcDbEntity
  8
003
 62
     3
370
    30
100
AcDbCircle
 10
223.639231
 20
981.057573
 30
0.0
 40
43.33464269824003
100
AcDbArc
 50
90.699032
 51
120.280203
  0
ARC
  5
15B
330
1F
100
AcDbEntity
  8
003
 62
     3
370
    30
100
AcDbCircle
 10
223.049543
 20
1029.388619
 30
0.0
 40
5.0
100
AcDbArc
 50
270.699032
 51
357.137769
  0
ARC
  5
15C
330
1F
100
AcDbEntity
  8
003
 62
     3
370
    30
100
AcDbCircle
 10
199.267489
 20
1022.797912
 30
0.0
 40
5.0
100
AcDbArc
 50
224.169685
 51
300.280203
  0
ARC
  5
15D
330
1F
100
AcDbEntity
  8
003
 62
     3
370
    30
100
AcDbCircle
 10
177.493435
 20
995.438229
 30
0.0
 40
5.0
100
AcDbArc
 50
342.691126
 51
44.169685
  0
ARC
  5
15E
330
1F
100
AcDbEntity
  8
003
 62
     3
370
    30
100
AcDbCircle
 10
177.493435
 20
966.676918
 30
0.0
 40
5.0
100
AcDbArc
 50
315.830315
 51
17.308874
  0
ARC
  5
15F
330
1F
100
AcDbEntity
  8
003
 62
     3
370
    30
100
AcDbCircle
 10
199.267489
 20
939.317235
 30
0.0
 40
5.0
100
AcDbArc
 50
59.719797
 51
135.830315
  0
ARC
  5
160
330
1F
100
AcDbEntity
  8
003
 62
     3
370
    30
100
AcDbCircle
 10
223.639231
 20
981.057573
 30
0.0
 40
43.33464269824003
100
AcDbArc
 50
239.719797
 51
269.300968
  0
ARC
  5
161
330
1F
100
AcDbEntity
  8
003
 62
     3
370
    30
100
AcDbCircle
 10
223.049543
 20
932.726528
 30
0.0
 40
5.0
100
AcDbArc
 50
2.862231
 51
89.300968
  0
ARC
  5
162
330
1F
100
AcDbEntity
  8
003
 62
     3
370
    30
100
AcDbCircle
 10
223.639231
 20
981.057573
 30
0.0
 40
43.33464269824003
100
AcDbArc
 50
162.691126
 51
165.98315
  0
ARC
  5
163
330
1F
100
AcDbEntity
  8
003
 62
     3
370
    30
100
AcDbCircle
 10
223.639231
 20
981.057573
 30
0.0
 40
43.33464269824003
100
AcDbArc
 50
194.01685
 51
197.308874
  0
ARC
  5
164
330
1F
100
AcDbEntity
  8
003
 62
     3
370
    30
100
AcDbCircle
 10
176.743774
 20
992.764573
 30
0.0
 40
5.0
100
AcDbArc
 50
270.0
 51
345.98315
  0
ARC
  5
165
330
1F
100
AcDbEntity
  8
003
 62
     3
370
    30
100
AcDbCircle
 10
176.743774
 20
969.350573
 30
0.0
 40
5.0
100
AcDbArc
 50
14.01685
 51
90.0
  0
LINE
  5
166
330
1F
100
AcDbEntity
  8
002
 62
     3
370
    30
100
AcDbLine
 10
258.270924
 20
695.982089
 30
0.0
 11
253.770924
 21
695.982089
 31
0.0
  0
LINE
  5
167
330
1F
100
AcDbEntity
  8
002
 62
     3
370
    30
100
AcDbLine
 10
253.770924
 20
695.982089
 30
0.0
 11
253.520924
 21
695.732089
 31
0.0
  0
LINE
  5
168
330
1F
100
AcDbEntity
  8
002
 62
     3
370
    30
100
AcDbLine
 10
253.520924
 20
695.732089
 30
0.0
 11
253.520924
 21
691.232089
 31
0.0
  0
LINE
  5
169
330
1F
100
AcDbEntity
  8
002
 62
     3
370
    30
100
AcDbLine
 10
253.520924
 20
691.232089
 30
0.0
 11
253.770924
 21
690.982089
 31
0.0
  0
LINE
  5
16A
330
1F
100
AcDbEntity
  8
002
 62
     3
370
    30
100
AcDbLine
 10
253.770924
 20
690.982089
 30
0.0
 11
258.270924
 21
690.982089
 31
0.0
  0
LINE
  5
16B
330
1F
100
AcDbEntity
  8
002
 62
     3
370
    30
100
AcDbLine
 10
258.270924
 20
690.982089
 30
0.0
 11
258.520924
 21
691.232089
 31
0.0
  0
LINE
  5
16C
330
1F
100
AcDbEntity
  8
002
 62
     3
370
    30
100
AcDbLine
 10
258.520924
 20
691.232089
 30
0.0
 11
258.520924
 21
695.732089
 31
0.0
  0
LINE
  5
16D
330
1F
100
AcDbEntity
  8
002
 62
     3
370
    30
100
AcDbLine
 10
258.520924
 20
695.732089
 30
0.0
 11
258.270924
 21
695.982089
 31
0.0
  0
ARC
  5
16E
330
1F
100
AcDbEntity
  8
002
 62
     3
370
    30
100
AcDbCircle
 10
258.320924
 20
691.182089
 30
0.0
 40
0.1999999999999318
100
AcDbArc
 50
270.0
 51
0.0
  0
ARC
  5
16F
330
1F
100
AcDbEntity
  8
002
 62
     3
370
    30
100
AcDbCircle
 10
253.720924
 20
691.182089
 30
0.0
 40
0.1999999999998181
100
AcDbArc
 50
180.0
 51
270.0
  0
ARC
  5
170
330
1F
100
AcDbEntity
  8
002
 62
     3
370
    30
100
AcDbCircle
 10
256.020924
 20
686.482089
 30
0.0
 40
7.499936066394084
100
AcDbArc
 50
109.471393
 51
70.528607
  0
LINE
  5
171
330
1F
100
AcDbEntity
  8
002
  6
CENTER
 62
    40
370
     9
100
AcDbLine
 10
245.222024
 20
686.482089
 30
0.0
 11
267.755224
 21
686.482089
 31
0.0
  0
LINE
  5
172
330
1F
100
AcDbEntity
  8
002
  6
CENTER
 62
    40
370
     9
100
AcDbLine
 10
256.020924
 20
698.294089
 30
0.0
 11
256.020924
 21
676.359089
 31
0.0
  0
LINE
  5
173
330
1F
100
AcDbEntity
  8
002
 62
     3
370
    30
100
AcDbLine
 10
369.306141
 20
344.573176
 30
0.0
 11
367.906141
 21
343.173176
 31
0.0
  0
LINE
  5
174
330
1F
100
AcDbEntity
  8
002
 62
     3
370
    30
100
AcDbLine
 10
411.403236
 20
525.073176
 30
0.0
 11
384.403236
 21
525.073176
 31
0.0
  0
LINE
  5
175
330
1F
100
AcDbEntity
  8
002
 62
     3
370
    30
100
AcDbLine
 10
369.306141
 20
344.573176
 30
0.0
 11
397.906141
 21
344.573176
 31
0.0
  0
LINE
  5
176
330
1F
100
AcDbEntity
  8
002
  6
CENTER
 62
    40
370
     9
100
AcDbLine
 10
429.906141
 20
280.903978
 30
0.0
 11
429.906141
 21
328.144472
 31
0.0
  0
LINE
  5
177
330
1F
100
AcDbEntity
  8
002
  6
CENTER
 62
    40
370
     9
100
AcDbLine
 10
481.106575
 20
305.073176
 30
0.0
 11
341.511551
 21
305.073176
 31
0.0
  0
LINE
  5
178
330
1F
100
AcDbEntity
  8
002
 62
     3
370
    30
100
AcDbLine
 10
363.46534
 20
343.473176
 30
0.0
 11
397.906141
 21
343.473176
 31
0.0
  0
LINE
  5
179
330
1F
100
AcDbEntity
  8
002
 62
     3
370
    30
100
AcDbLine
 10
366.850268
 20
345.073176
 30
0.0
 11
344.962014
 21
345.073176
 31
0.0
  0
LINE
  5
17A
330
1F
100
AcDbEntity
  8
002
 62
     3
370
    30
100
AcDbLine
 10
446.962014
 20
265.073176
 30
0.0
 11
468.850268
 21
265.073176
 31
0.0
  0
LINE
  5
17B
330
1F
100
AcDbEntity
  8
002
 62
     3
370
    30
100
AcDbLine
 10
468.850268
 20
265.073176
 30
0.0
 11
470.247099
 21
305.073176
 31
0.0
  0
LINE
  5
17C
330
1F
100
AcDbEntity
  8
002
 62
     3
370
    30
100
AcDbLine
 10
446.962014
 20
265.073176
 30
0.0
 11
446.903648
 21
266.744564
 31
0.0
  0
LINE
  5
17D
330
1F
100
AcDbEntity
  8
002
 62
     3
370
    30
100
AcDbLine
 10
344.962014
 20
345.073176
 30
0.0
 11
343.565184
 21
305.073176
 31
0.0
  0
LINE
  5
17E
330
1F
100
AcDbEntity
  8
002
 62
     3
370
    30
100
AcDbLine
 10
366.850268
 20
345.073176
 30
0.0
 11
366.906141
 21
343.473176
 31
0.0
  0
LINE
  5
17F
330
1F
100
AcDbEntity
  8
002
 62
     3
370
    30
100
AcDbLine
 10
344.962014
 20
265.073176
 30
0.0
 11
343.565184
 21
305.073176
 31
0.0
  0
LINE
  5
180
330
1F
100
AcDbEntity
  8
002
  6
CENTER
 62
    40
370
     9
100
AcDbLine
 10
355.906141
 20
260.242603
 30
0.0
 11
355.906141
 21
348.307022
 31
0.0
  0
LINE
  5
181
330
1F
100
AcDbEntity
  8
002
 62
     3
370
    30
100
AcDbLine
 10
344.962014
 20
265.073176
 30
0.0
 11
366.850268
 21
265.073176
 31
0.0
  0
LINE
  5
182
330
1F
100
AcDbEntity
  8
002
 62
     3
370
    30
100
AcDbLine
 10
435.982806
 20
271.664374
 30
0.0
 11
435.546133
 21
266.673176
 31
0.0
  0
LINE
  5
183
330
1F
100
AcDbEntity
  8
002
 62
     3
370
    30
100
AcDbLine
 10
363.46534
 20
343.473176
 30
0.0
 11
361.291293
 21
318.623704
 31
0.0
  0
LINE
  5
184
330
1F
100
AcDbEntity
  8
002
 62
     3
370
    30
100
AcDbLine
 10
361.291293
 20
291.522647
 30
0.0
 11
363.46534
 21
266.673176
 31
0.0
  0
LINE
  5
185
330
1F
100
AcDbEntity
  8
002
 62
     3
370
    30
100
AcDbLine
 10
366.850268
 20
265.073176
 30
0.0
 11
366.906141
 21
266.673176
 31
0.0
  0
LINE
  5
186
330
1F
100
AcDbEntity
  8
002
 62
     3
370
    30
100
AcDbLine
 10
436.100442
 20
273.008954
 30
0.0
 11
435.982806
 21
271.664374
 31
0.0
  0
LINE
  5
187
330
1F
100
AcDbEntity
  8
002
 62
     3
370
    30
100
AcDbLine
 10
397.406141
 20
311.073176
 30
0.0
 11
343.774708
 21
311.073176
 31
0.0
  0
ARC
  5
188
330
1F
100
AcDbEntity
  8
002
 62
     3
370
    30
100
AcDbCircle
 10
356.049051
 20
316.073176
 30
0.0
 40
5.0
100
AcDbArc
 50
270.0
 51
355.0
  0
LINE
  5
189
330
1F
100
AcDbEntity
  8
002
 62
     3
370
    30
100
AcDbLine
 10
361.291293
 20
318.623704
 30
0.0
 11
361.030025
 21
315.637397
 31
0.0
  0
LINE
  5
18A
330
1F
100
AcDbEntity
  8
002
 62
     3
370
    30
100
AcDbLine
 10
397.406141
 20
299.073176
 30
0.0
 11
343.774708
 21
299.073176
 31
0.0
  0
ARC
  5
18B
330
1F
100
AcDbEntity
  8
002
 62
     3
370
    30
100
AcDbCircle
 10
356.049051
 20
294.073176
 30
0.0
 40
5.0
100
AcDbArc
 50
5.0
 51
90.0
  0
LINE
  5
18C
330
1F
100
AcDbEntity
  8
002
 62
     3
370
    30
100
AcDbLine
 10
361.291293
 20
291.522647
 30
0.0
 11
361.030025
 21
294.508954
 31
0.0
  0
LINE
  5
18D
330
1F
100
AcDbEntity
  8
002
 62
     3
370
    30
100
AcDbLine
 10
397.906141
 20
266.673176
 30
0.0
 11
452.36356
 21
266.673176
 31
0.0
  0
LINE
  5
18E
330
1F
100
AcDbEntity
  8
002
 62
     3
370
    30
100
AcDbLine
 10
397.906141
 20
266.673176
 30
0.0
 11
363.46534
 21
266.673176
 31
0.0
  0
LINE
  5
18F
330
1F
100
AcDbEntity
  8
002
 62
     3
370
    30
100
AcDbLine
 10
462.406141
 20
311.073176
 30
0.0
 11
470.037574
 21
311.073176
 31
0.0
  0
LINE
  5
190
330
1F
100
AcDbEntity
  8
002
 62
     3
370
    30
100
AcDbLine
 10
462.406141
 20
299.073176
 30
0.0
 11
470.037574
 21
299.073176
 31
0.0
  0
ARC
  5
191
330
1F
100
AcDbEntity
  8
002
 62
     3
370
    30
100
AcDbCircle
 10
459.906141
 20
333.880169
 30
0.0
 40
3.0
100
AcDbArc
 50
180.0
 51
266.347819
  0
LINE
  5
192
330
1F
100
AcDbEntity
  8
002
 62
     3
370
    30
100
AcDbLine
 10
459.715043
 20
330.886262
 30
0.0
 11
464.846823
 21
330.558705
 31
0.0
  0
ARC
  5
193
330
1F
100
AcDbEntity
  8
002
 62
     3
370
    30
100
AcDbCircle
 10
464.528326
 20
325.568859
 30
0.0
 40
5.0
100
AcDbArc
 50
2.0
 51
86.347819
  0
LINE
  5
194
330
1F
100
AcDbEntity
  8
002
 62
     3
370
    30
100
AcDbLine
 10
456.906141
 20
276.266182
 30
0.0
 11
456.906141
 21
275.073176
 31
0.0
  0
LINE
  5
195
330
1F
100
AcDbEntity
  8
002
 62
     3
370
    30
100
AcDbLine
 10
459.715043
 20
279.26009
 30
0.0
 11
464.846823
 21
279.587646
 31
0.0
  0
ARC
  5
196
330
1F
100
AcDbEntity
  8
002
 62
     3
370
    30
100
AcDbCircle
 10
464.528326
 20
284.577492
 30
0.0
 40
5.0
100
AcDbArc
 50
273.652181
 51
358.0
  0
ARC
  5
197
330
1F
100
AcDbEntity
  8
002
 62
     3
370
    30
100
AcDbCircle
 10
440.862694
 20
270.073176
 30
0.0
 40
5.0
100
AcDbArc
 50
90.0
 51
175.0
  0
LINE
  5
198
330
1F
100
AcDbEntity
  8
002
 62
     3
370
    30
100
AcDbLine
 10
440.862694
 20
275.073176
 30
0.0
 11
456.906141
 21
275.073176
 31
0.0
  0
ARC
  5
199
330
1F
100
AcDbEntity
  8
002
 62
     3
370
    30
100
AcDbCircle
 10
459.906141
 20
276.266182
 30
0.0
 40
3.0
100
AcDbArc
 50
93.652181
 51
180.0
  0
LINE
  5
19A
330
1F
100
AcDbEntity
  8
002
 62
     3
370
    30
100
AcDbLine
 10
453.098465
 20
275.073176
 30
0.0
 11
452.36356
 21
266.673176
 31
0.0
  0
LINE
  5
19B
330
1F
100
AcDbEntity
  8
002
 62
     3
370
    30
100
AcDbLine
 10
402.406141
 20
282.573176
 30
0.0
 11
402.406141
 21
327.573176
 31
0.0
  0
LINE
  5
19C
330
1F
100
AcDbEntity
  8
002
 62
     3
370
    30
100
AcDbLine
 10
452.406141
 20
277.573176
 30
0.0
 11
407.406141
 21
277.573176
 31
0.0
  0
LINE
  5
19D
330
1F
100
AcDbEntity
  8
002
 62
     3
370
    30
100
AcDbLine
 10
457.406141
 20
327.573176
 30
0.0
 11
457.406141
 21
282.573176
 31
0.0
  0
LINE
  5
19E
330
1F
100
AcDbEntity
  8
002
 62
     3
370
    30
100
AcDbLine
 10
452.406141
 20
332.573176
 30
0.0
 11
407.406141
 21
332.573176
 31
0.0
  0
ARC
  5
19F
330
1F
100
AcDbEntity
  8
002
 62
     3
370
    30
100
AcDbCircle
 10
407.406141
 20
327.573176
 30
0.0
 40
5.0
100
AcDbArc
 50
90.0
 51
180.0
  0
ARC
  5
1A0
330
1F
100
AcDbEntity
  8
002
 62
     3
370
    30
100
AcDbCircle
 10
407.406141
 20
282.573176
 30
0.0
 40
5.0
100
AcDbArc
 50
180.0
 51
270.0
  0
ARC
  5
1A1
330
1F
100
AcDbEntity
  8
002
 62
     3
370
    30
100
AcDbCircle
 10
452.406141
 20
282.573176
 30
0.0
 40
5.0
100
AcDbArc
 50
270.0
 51
0.0
  0
ARC
  5
1A2
330
1F
100
AcDbEntity
  8
002
 62
     3
370
    30
100
AcDbCircle
 10
452.406141
 20
327.573176
 30
0.0
 40
5.0
100
AcDbArc
 50
0.0
 51
90.0
  0
ARC
  5
1A3
330
1F
100
AcDbEntity
  8
002
 62
     3
370
    30
100
AcDbCircle
 10
462.406141
 20
316.073176
 30
0.0
 40
5.0
100
AcDbArc
 50
180.0
 51
270.0
  0
ARC
  5
1A4
330
1F
100
AcDbEntity
  8
002
 62
     3
370
    30
100
AcDbCircle
 10
462.406141
 20
294.073176
 30
0.0
 40
5.0
100
AcDbArc
 50
90.0
 51
180.0
  0
ARC
  5
1A5
330
1F
100
AcDbEntity
  8
002
 62
     3
370
    30
100
AcDbCircle
 10
441.081415
 20
272.573176
 30
0.0
 40
5.0
100
AcDbArc
 50
90.0
 51
175.0
  0
ARC
  5
1A6
330
1F
100
AcDbEntity
  8
002
 62
     3
370
    30
100
AcDbCircle
 10
397.406141
 20
316.073176
 30
0.0
 40
5.0
100
AcDbArc
 50
270.0
 51
0.0
  0
ARC
  5
1A7
330
1F
100
AcDbEntity
  8
002
 62
     3
370
    30
100
AcDbCircle
 10
397.406141
 20
294.073176
 30
0.0
 40
5.0
100
AcDbArc
 50
0.0
 51
90.0
  0
LINE
  5
1A8
330
1F
100
AcDbEntity
  8
002
 62
     3
370
    30
100
AcDbLine
 10
426.506141
 20
344.573176
 30
0.0
 11
397.906141
 21
344.573176
 31
0.0
  0
LINE
  5
1A9
330
1F
100
AcDbEntity
  8
002
 62
     3
370
    30
100
AcDbLine
 10
426.506141
 20
344.573176
 30
0.0
 11
427.906141
 21
343.173176
 31
0.0
  0
LINE
  5
1AA
330
1F
100
AcDbEntity
  8
002
 62
     3
370
    30
100
AcDbLine
 10
423.656141
 20
262.673176
 30
0.0
 11
423.656141
 21
257.673176
 31
0.0
  0
LINE
  5
1AB
330
1F
100
AcDbEntity
  8
002
 62
     3
370
    30
100
AcDbLine
 10
432.156141
 20
257.673176
 30
0.0
 11
432.156141
 21
262.673176
 31
0.0
  0
LINE
  5
1AC
330
1F
100
AcDbEntity
  8
002
 62
     3
370
    30
100
AcDbLine
 10
435.406141
 20
262.673176
 30
0.0
 11
360.406141
 21
262.673176
 31
0.0
  0
LINE
  5
1AD
330
1F
100
AcDbEntity
  8
002
 62
     3
370
    30
100
AcDbLine
 10
360.406141
 20
262.673176
 30
0.0
 11
360.406141
 21
265.073176
 31
0.0
  0
LINE
  5
1AE
330
1F
100
AcDbEntity
  8
002
 62
     3
370
    30
100
AcDbLine
 10
363.656141
 20
262.673176
 30
0.0
 11
363.656141
 21
257.673176
 31
0.0
  0
LINE
  5
1AF
330
1F
100
AcDbEntity
  8
002
 62
     3
370
    30
100
AcDbLine
 10
363.656141
 20
257.673176
 30
0.0
 11
372.156141
 21
257.673176
 31
0.0
  0
LINE
  5
1B0
330
1F
100
AcDbEntity
  8
002
 62
     3
370
    30
100
AcDbLine
 10
372.156141
 20
257.673176
 30
0.0
 11
372.156141
 21
262.673176
 31
0.0
  0
LINE
  5
1B1
330
1F
100
AcDbEntity
  8
002
 62
     3
370
    30
100
AcDbLine
 10
374.026741
 20
259.769076
 30
0.0
 11
375.406141
 21
216.673176
 31
0.0
  0
LINE
  5
1B2
330
1F
100
AcDbEntity
  8
002
 62
     3
370
    30
100
AcDbLine
 10
375.406141
 20
216.673176
 30
0.0
 11
420.406141
 21
216.673176
 31
0.0
  0
LINE
  5
1B3
330
1F
100
AcDbEntity
  8
002
 62
     3
370
    30
100
AcDbLine
 10
420.406141
 20
216.673176
 30
0.0
 11
421.785541
 21
259.769076
 31
0.0
  0
LINE
  5
1B4
330
1F
100
AcDbEntity
  8
002
 62
     3
370
    30
100
AcDbLine
 10
423.656141
 20
257.673176
 30
0.0
 11
432.156141
 21
257.673176
 31
0.0
  0
LINE
  5
1B5
330
1F
100
AcDbEntity
  8
002
 62
     3
370
    30
100
AcDbLine
 10
435.406141
 20
262.673176
 30
0.0
 11
435.406141
 21
266.673176
 31
0.0
  0
ARC
  5
1B6
330
1F
100
AcDbEntity
  8
002
 62
     3
370
    30
100
AcDbCircle
 10
424.784041
 20
259.673176
 30
0.0
 40
3.000033176483255
100
AcDbArc
 50
90.0
 51
178.168153
  0
LINE
  5
1B7
330
1F
100
AcDbEntity
  8
002
 62
     3
370
    30
100
AcDbLine
 10
393.656141
 20
257.673176
 30
0.0
 11
393.656141
 21
262.673176
 31
0.0
  0
LINE
  5
1B8
330
1F
100
AcDbEntity
  8
002
 62
     3
370
    30
100
AcDbLine
 10
393.656141
 20
257.673176
 30
0.0
 11
402.156141
 21
257.673176
 31
0.0
  0
LINE
  5
1B9
330
1F
100
AcDbEntity
  8
002
 62
     3
370
    30
100
AcDbLine
 10
402.156141
 20
257.673176
 30
0.0
 11
402.156141
 21
262.673176
 31
0.0
  0
ARC
  5
1BA
330
1F
100
AcDbEntity
  8
002
 62
     3
370
    30
100
AcDbCircle
 10
371.028241
 20
259.673176
 30
0.0
 40
3.0
100
AcDbArc
 50
1.831847
 51
90.0
  0
LINE
  5
1BB
330
1F
100
AcDbEntity
  8
002
 62
     3
370
    30
100
AcDbLine
 10
375.906141
 20
131.673176
 30
0.0
 11
375.906141
 21
114.673176
 31
0.0
  0
ARC
  5
1BC
330
1F
100
AcDbEntity
  8
002
 62
     3
370
    30
100
AcDbCircle
 10
378.906141
 20
114.673176
 30
0.0
 40
3.0
100
AcDbArc
 50
180.0
 51
270.0
  0
LINE
  5
1BD
330
1F
100
AcDbEntity
  8
002
 62
     3
370
    30
100
AcDbLine
 10
378.906141
 20
111.673176
 30
0.0
 11
416.906141
 21
111.673176
 31
0.0
  0
ARC
  5
1BE
330
1F
100
AcDbEntity
  8
002
 62
     3
370
    30
100
AcDbCircle
 10
416.906141
 20
114.673176
 30
0.0
 40
3.0
100
AcDbArc
 50
270.0
 51
0.0
  0
LINE
  5
1BF
330
1F
100
AcDbEntity
  8
002
 62
     3
370
    30
100
AcDbLine
 10
419.906141
 20
114.673176
 30
0.0
 11
419.906141
 21
131.673176
 31
0.0
  0
LINE
  5
1C0
330
1F
100
AcDbEntity
  8
002
 62
     3
370
    30
100
AcDbLine
 10
419.906141
 20
131.673176
 30
0.0
 11
375.906141
 21
131.673176
 31
0.0
  0
LINE
  5
1C1
330
1F
100
AcDbEntity
  8
002
  6
CENTER
 62
    40
370
     9
100
AcDbLine
 10
427.906141
 20
268.797976
 30
0.0
 11
427.906141
 21
256.519076
 31
0.0
  0
LINE
  5
1C2
330
1F
100
AcDbEntity
  8
002
  6
CENTER
 62
    40
370
     9
100
AcDbLine
 10
367.906141
 20
256.519076
 30
0.0
 11
367.906141
 21
268.797976
 31
0.0
  0
LINE
  5
1C3
330
1F
100
AcDbEntity
  8
002
 62
     3
370
    30
100
AcDbLine
 10
427.406141
 20
314.323176
 30
0.0
 11
427.406141
 21
309.823176
 31
0.0
  0
LINE
  5
1C4
330
1F
100
AcDbEntity
  8
002
 62
     3
370
    30
100
AcDbLine
 10
427.406141
 20
309.823176
 30
0.0
 11
427.656141
 21
309.573176
 31
0.0
  0
LINE
  5
1C5
330
1F
100
AcDbEntity
  8
002
 62
     3
370
    30
100
AcDbLine
 10
427.656141
 20
309.573176
 30
0.0
 11
432.156141
 21
309.573176
 31
0.0
  0
LINE
  5
1C6
330
1F
100
AcDbEntity
  8
002
 62
     3
370
    30
100
AcDbLine
 10
432.156141
 20
309.573176
 30
0.0
 11
432.406141
 21
309.823176
 31
0.0
  0
LINE
  5
1C7
330
1F
100
AcDbEntity
  8
002
 62
     3
370
    30
100
AcDbLine
 10
432.406141
 20
309.823176
 30
0.0
 11
432.406141
 21
314.323176
 31
0.0
  0
LINE
  5
1C8
330
1F
100
AcDbEntity
  8
002
 62
     3
370
    30
100
AcDbLine
 10
432.406141
 20
314.323176
 30
0.0
 11
432.156141
 21
314.573176
 31
0.0
  0
LINE
  5
1C9
330
1F
100
AcDbEntity
  8
002
 62
     3
370
    30
100
AcDbLine
 10
432.156141
 20
314.573176
 30
0.0
 11
427.656141
 21
314.573176
 31
0.0
  0
LINE
  5
1CA
330
1F
100
AcDbEntity
  8
002
 62
     3
370
    30
100
AcDbLine
 10
427.656141
 20
314.573176
 30
0.0
 11
427.406141
 21
314.323176
 31
0.0
  0
ARC
  5
1CB
330
1F
100
AcDbEntity
  8
002
 62
     3
370
    30
100
AcDbCircle
 10
432.206141
 20
309.773176
 30
0.0
 40
0.1999999999999318
100
AcDbArc
 50
270.0
 51
0.0
  0
ARC
  5
1CC
330
1F
100
AcDbEntity
  8
002
 62
     3
370
    30
100
AcDbCircle
 10
427.606141
 20
309.773176
 30
0.0
 40
0.2000000000000455
100
AcDbArc
 50
180.0
 51
270.0
  0
ARC
  5
1CD
330
1F
100
AcDbEntity
  8
002
 62
     3
370
    30
100
AcDbCircle
 10
429.906141
 20
305.073176
 30
0.0
 40
7.499936066394191
100
AcDbArc
 50
109.471393
 51
70.528607
  0
CIRCLE
  5
1CE
330
1F
100
AcDbEntity
  8
002
 62
     3
370
    30
100
AcDbCircle
 10
429.906141
 20
305.073176
 30
0.0
 40
17.5
  0
ARC
  5
1CF
330
1F
100
AcDbEntity
  8
002
 62
     3
370
    30
100
AcDbCircle
 10
429.906141
 20
304.028776
 30
0.0
 40
15.66944001073419
100
AcDbArc
 50
306.867484
 51
233.132223
  0
ARC
  5
1D0
330
1F
100
AcDbEntity
  8
002
 62
     3
370
    30
100
AcDbCircle
 10
422.004941
 20
293.492976
 30
0.0
 40
2.499984673953072
100
AcDbArc
 50
233.131477
 51
314.849286
  0
CIRCLE
  5
1D1
330
1F
100
AcDbEntity
  8
002
 62
     3
370
    30
100
AcDbCircle
 10
425.531141
 20
289.948176
 30
0.0
 40
1.09375
  0
ARC
  5
1D2
330
1F
100
AcDbEntity
  8
002
 62
     3
370
    30
100
AcDbCircle
 10
425.531141
 20
289.948176
 30
0.0
 40
2.499984673952911
100
AcDbArc
 50
0.0
 51
134.849286
  0
LINE
  5
1D3
330
1F
100
AcDbEntity
  8
002
 62
     3
370
    30
100
AcDbLine
 10
428.031141
 20
289.948176
 30
0.0
 11
428.031141
 21
287.701576
 31
0.0
  0
LINE
  5
1D4
330
1F
100
AcDbEntity
  8
002
 62
     3
370
    30
100
AcDbLine
 10
431.781141
 20
287.701576
 30
0.0
 11
431.781141
 21
289.948176
 31
0.0
  0
CIRCLE
  5
1D5
330
1F
100
AcDbEntity
  8
002
 62
     3
370
    30
100
AcDbCircle
 10
434.281141
 20
289.948176
 30
0.0
 40
1.09375
  0
ARC
  5
1D6
330
1F
100
AcDbEntity
  8
002
 62
     3
370
    30
100
AcDbCircle
 10
437.807341
 20
293.492976
 30
0.0
 40
2.500020003919964
100
AcDbArc
 50
225.150714
 51
306.866689
  0
ARC
  5
1D7
330
1F
100
AcDbEntity
  8
002
 62
     3
370
    30
100
AcDbCircle
 10
434.281141
 20
289.948176
 30
0.0
 40
2.5
100
AcDbArc
 50
45.150714
 51
180.0
  0
LINE
  5
1D8
330
1F
100
AcDbEntity
  8
002
 62
     3
370
    30
100
AcDbLine
 10
390.906141
 20
545.073176
 30
0.0
 11
390.906141
 21
525.073176
 31
0.0
  0
LINE
  5
1D9
330
1F
100
AcDbEntity
  8
002
 62
     3
370
    30
100
AcDbLine
 10
390.906141
 20
545.073176
 30
0.0
 11
404.906141
 21
545.073176
 31
0.0
  0
LINE
  5
1DA
330
1F
100
AcDbEntity
  8
002
 62
     3
370
    30
100
AcDbLine
 10
404.906141
 20
545.073176
 30
0.0
 11
404.906141
 21
525.073176
 31
0.0
  0
LINE
  5
1DB
330
1F
100
AcDbEntity
  8
002
 62
    40
370
     9
100
AcDbLine
 10
391.718141
 20
545.073176
 30
0.0
 11
391.718141
 21
525.073176
 31
0.0
  0
LINE
  5
1DC
330
1F
100
AcDbEntity
  8
002
 62
    40
370
     9
100
AcDbLine
 10
404.094141
 20
525.073176
 30
0.0
 11
404.094141
 21
545.073176
 31
0.0
  0
LINE
  5
1DD
330
1F
100
AcDbEntity
  8
002
 62
     3
370
    30
100
AcDbLine
 10
468.850268
 20
345.073176
 30
0.0
 11
470.247099
 21
305.073176
 31
0.0
  0
LINE
  5
1DE
330
1F
100
AcDbEntity
  8
002
 62
     3
370
    30
100
AcDbLine
 10
435.982806
 20
338.481978
 30
0.0
 11
435.563261
 21
343.277405
 31
0.0
  0
LINE
  5
1DF
330
1F
100
AcDbEntity
  8
002
 62
     3
370
    30
100
AcDbLine
 10
397.906141
 20
343.473176
 30
0.0
 11
443.906141
 21
343.473176
 31
0.0
  0
LINE
  5
1E0
330
1F
100
AcDbEntity
  8
002
 62
     3
370
    30
100
AcDbLine
 10
457.13274
 20
345.073176
 30
0.0
 11
468.850268
 21
345.073176
 31
0.0
  0
LINE
  5
1E1
330
1F
100
AcDbEntity
  8
002
 62
     3
370
    30
100
AcDbLine
 10
435.982806
 20
338.481978
 30
0.0
 11
436.144216
 21
336.637056
 31
0.0
  0
ARC
  5
1E2
330
1F
100
AcDbEntity
  8
002
 62
     3
370
    30
100
AcDbCircle
 10
440.862694
 20
340.073176
 30
0.0
 40
5.0
100
AcDbArc
 50
185.0
 51
270.0
  0
LINE
  5
1E3
330
1F
100
AcDbEntity
  8
002
 62
     3
370
    30
100
AcDbLine
 10
440.862694
 20
335.073176
 30
0.0
 11
456.906141
 21
335.073176
 31
0.0
  0
LINE
  5
1E4
330
1F
100
AcDbEntity
  8
002
 62
     3
370
    30
100
AcDbLine
 10
456.906141
 20
333.880169
 30
0.0
 11
456.906141
 21
335.073176
 31
0.0
  0
LINE
  5
1E5
330
1F
100
AcDbEntity
  8
002
 62
     3
370
    30
100
AcDbLine
 10
453.098465
 20
335.073176
 30
0.0
 11
452.619187
 21
340.551346
 31
0.0
  0
LINE
  5
1E6
330
1F
100
AcDbEntity
  8
002
 62
     3
370
    30
100
AcDbLine
 10
443.906141
 20
338.573176
 30
0.0
 11
451.906141
 21
338.573176
 31
0.0
  0
LINE
  5
1E7
330
1F
100
AcDbEntity
  8
002
 62
     3
370
    30
100
AcDbLine
 10
443.341141
 20
335.976729
 30
0.0
 11
444.906141
 21
335.073176
 31
0.0
  0
LINE
  5
1E8
330
1F
100
AcDbEntity
  8
002
 62
     3
370
    30
100
AcDbLine
 10
443.416837
 20
338.290676
 30
0.0
 11
443.906141
 21
338.573176
 31
0.0
  0
LINE
  5
1E9
330
1F
100
AcDbEntity
  8
002
 62
     3
370
    30
100
AcDbLine
 10
452.395446
 20
338.290676
 30
0.0
 11
451.906141
 21
338.573176
 31
0.0
  0
LINE
  5
1EA
330
1F
100
AcDbEntity
  8
002
 62
     3
370
    30
100
AcDbLine
 10
452.471141
 20
335.976729
 30
0.0
 11
450.906141
 21
335.073176
 31
0.0
  0
ARC
  5
1EB
330
1F
100
AcDbEntity
  8
002
 62
     3
370
    30
100
AcDbCircle
 10
447.906141
 20
329.433453
 30
0.0
 40
9.139722999187002
100
AcDbArc
 50
74.646222
 51
105.353778
  0
ARC
  5
1EC
330
1F
100
AcDbEntity
  8
002
 62
     3
370
    30
100
AcDbCircle
 10
444.413641
 20
336.647042
 30
0.0
 40
1.926144835808743
100
AcDbArc
 50
56.164408
 51
123.835592
  0
ARC
  5
1ED
330
1F
100
AcDbEntity
  8
002
 62
     3
370
    30
100
AcDbCircle
 10
451.398641
 20
336.647042
 30
0.0
 40
1.926144835808743
100
AcDbArc
 50
56.164408
 51
123.835592
  0
ARC
  5
1EE
330
1F
100
AcDbEntity
  8
002
 62
     3
370
    30
100
AcDbCircle
 10
444.413641
 20
337.576659
 30
0.0
 40
1.926144835808743
100
AcDbArc
 50
236.164408
 51
303.835592
  0
ARC
  5
1EF
330
1F
100
AcDbEntity
  8
002
 62
     3
370
    30
100
AcDbCircle
 10
447.906141
 20
344.790249
 30
0.0
 40
9.139722999187002
100
AcDbArc
 50
254.646222
 51
285.353778
  0
ARC
  5
1F0
330
1F
100
AcDbEntity
  8
002
 62
     3
370
    30
100
AcDbCircle
 10
451.398641
 20
337.576659
 30
0.0
 40
1.926144835808743
100
AcDbArc
 50
236.164408
 51
303.835592
  0
ARC
  5
1F1
330
1F
100
AcDbEntity
  8
002
 62
     3
370
    30
100
AcDbCircle
 10
447.906141
 20
343.073176
 30
0.0
 40
4.0
100
AcDbArc
 50
54.895863
 51
180.0
  0
LINE
  5
1F2
330
1F
100
AcDbEntity
  8
002
 62
     3
370
    30
100
AcDbLine
 10
443.906141
 20
343.473176
 30
0.0
 11
443.906141
 21
338.573176
 31
0.0
  0
LINE
  5
1F3
330
1F
100
AcDbEntity
  8
002
 62
     3
370
    30
100
AcDbLine
 10
451.906141
 20
340.360286
 30
0.0
 11
451.906141
 21
338.573176
 31
0.0
  0
LINE
  5
1F4
330
1F
100
AcDbEntity
  8
002
 62
     3
370
    30
100
AcDbLine
 10
450.134267
 20
346.614808
 30
0.0
 11
451.81659
 21
340.336291
 31
0.0
  0
LINE
  5
1F5
330
1F
100
AcDbEntity
  8
002
 62
     3
370
    30
100
AcDbLine
 10
453.265479
 20
340.724519
 30
0.0
 11
451.81659
 21
340.336291
 31
0.0
  0
LINE
  5
1F6
330
1F
100
AcDbEntity
  8
002
 62
     3
370
    30
100
AcDbLine
 10
451.583155
 20
347.003037
 30
0.0
 11
450.134267
 21
346.614808
 31
0.0
  0
LINE
  5
1F7
330
1F
100
AcDbEntity
  8
002
 62
     3
370
    30
100
AcDbLine
 10
451.583155
 20
347.003037
 30
0.0
 11
453.265479
 21
340.724519
 31
0.0
  0
ARC
  5
1F8
330
1F
100
AcDbEntity
  8
002
 62
     3
370
    30
100
AcDbCircle
 10
451.640151
 20
347.346699
 30
0.0
 40
1.000001999998009
100
AcDbArc
 50
276.720641
 51
317.005383
  0
LINE
  5
1F9
330
1F
100
AcDbEntity
  8
002
 62
     3
370
    30
100
AcDbLine
 10
456.146828
 20
347.449412
 30
0.0
 11
457.440924
 21
342.619783
 31
0.0
  0
ARC
  5
1FA
330
1F
100
AcDbEntity
  8
002
 62
     3
370
    30
100
AcDbCircle
 10
456.155013
 20
344.863415
 30
0.0
 40
0.9999749796870392
100
AcDbArc
 50
326.407997
 51
63.592003
  0
LINE
  5
1FB
330
1F
100
AcDbEntity
  8
002
 62
     3
370
    30
100
AcDbLine
 10
453.249051
 20
346.672955
 30
0.0
 11
454.543146
 21
341.843326
 31
0.0
  0
LINE
  5
1FC
330
1F
100
AcDbEntity
  8
002
 62
     3
370
    30
100
AcDbLine
 10
453.054937
 20
347.3974
 30
0.0
 11
456.146828
 21
347.449412
 31
0.0
  0
LINE
  5
1FD
330
1F
100
AcDbEntity
  8
002
 62
     3
370
    30
100
AcDbLine
 10
452.371571
 20
346.664768
 30
0.0
 11
453.054937
 21
347.3974
 31
0.0
  0
LINE
  5
1FE
330
1F
100
AcDbEntity
  8
002
 62
     3
370
    30
100
AcDbLine
 10
457.440924
 20
342.619783
 30
0.0
 11
454.73726
 21
341.118882
 31
0.0
  0
LINE
  5
1FF
330
1F
100
AcDbEntity
  8
002
 62
     3
370
    30
100
AcDbLine
 10
454.73726
 20
341.118882
 30
0.0
 11
453.779106
 21
341.411773
 31
0.0
  0
ARC
  5
200
330
1F
100
AcDbEntity
  8
002
 62
     3
370
    30
100
AcDbCircle
 10
453.486644
 20
340.455494
 30
0.0
 40
0.9999197017761513
100
AcDbArc
 50
72.994617
 51
113.280045
  0
LINE
  5
201
330
1F
100
AcDbEntity
  8
002
 62
     3
370
    30
100
AcDbLine
 10
443.341141
 20
338.246973
 30
0.0
 11
443.341141
 21
335.976729
 31
0.0
  0
LINE
  5
202
330
1F
100
AcDbEntity
  8
002
 62
     3
370
    30
100
AcDbLine
 10
445.486141
 20
338.246973
 30
0.0
 11
445.486141
 21
335.976729
 31
0.0
  0
LINE
  5
203
330
1F
100
AcDbEntity
  8
002
 62
     3
370
    30
100
AcDbLine
 10
450.326141
 20
338.246973
 30
0.0
 11
450.326141
 21
335.976729
 31
0.0
  0
LINE
  5
204
330
1F
100
AcDbEntity
  8
002
 62
     3
370
    30
100
AcDbLine
 10
452.471141
 20
338.246973
 30
0.0
 11
452.471141
 21
335.976729
 31
0.0
  0
LINE
  5
205
330
1F
100
AcDbEntity
  8
002
  6
CENTER
 62
    40
370
     9
100
AcDbLine
 10
445.347584
 20
341.915353
 30
0.0
 11
458.95957
 21
345.562673
 31
0.0
  0
LINE
  5
206
330
1F
100
AcDbEntity
  8
002
  6
CENTER
 62
    40
370
     9
100
AcDbLine
 10
457.906141
 20
260.242603
 30
0.0
 11
457.906141
 21
348.307022
 31
0.0
  0
ARC
  5
207
330
1F
100
AcDbEntity
  8
002
 62
     3
370
    30
100
AcDbCircle
 10
441.081415
 20
337.573176
 30
0.0
 40
5.0
100
AcDbArc
 50
185.0
 51
270.0
  0
LINE
  5
208
330
1F
100
AcDbEntity
  8
002
  6
CENTER
 62
    40
370
     9
100
AcDbLine
 10
447.906141
 20
348.224592
 30
0.0
 11
447.906141
 21
320.236571
 31
0.0
  0
LINE
  5
209
330
1F
100
AcDbEntity
  8
002
 62
     3
370
    30
100
AcDbLine
 10
371.403236
 20
351.573176
 30
0.0
 11
371.403236
 21
364.573176
 31
0.0
  0
LINE
  5
20A
330
1F
100
AcDbEntity
  8
002
 62
     3
370
    30
100
AcDbLine
 10
371.403236
 20
364.573176
 30
0.0
 11
432.403236
 21
364.573176
 31
0.0
  0
LINE
  5
20B
330
1F
100
AcDbEntity
  8
002
 62
     3
370
    30
100
AcDbLine
 10
433.549336
 20
368.578476
 30
0.0
 11
425.257036
 21
367.567776
 31
0.0
  0
ARC
  5
20C
330
1F
100
AcDbEntity
  8
002
 62
     3
370
    30
100
AcDbCircle
 10
425.403236
 20
365.573176
 30
0.0
 40
2.0
100
AcDbArc
 50
94.192164
 51
180.0
  0
LINE
  5
20D
330
1F
100
AcDbEntity
  8
002
 62
     3
370
    30
100
AcDbLine
 10
423.403236
 20
365.573176
 30
0.0
 11
423.403236
 21
364.573176
 31
0.0
  0
LINE
  5
20E
330
1F
100
AcDbEntity
  8
002
 62
     3
370
    30
100
AcDbLine
 10
424.403236
 20
364.573176
 30
0.0
 11
424.403236
 21
351.573176
 31
0.0
  0
LINE
  5
20F
330
1F
100
AcDbEntity
  8
002
 62
     3
370
    30
100
AcDbLine
 10
432.153236
 20
351.573176
 30
0.0
 11
432.403236
 21
351.573176
 31
0.0
  0
ARC
  5
210
330
1F
100
AcDbEntity
  8
002
 62
     3
370
    30
100
AcDbCircle
 10
432.403236
 20
354.573176
 30
0.0
 40
3.0
100
AcDbArc
 50
270.0
 51
0.0
  0
LINE
  5
211
330
1F
100
AcDbEntity
  8
002
 62
     3
370
    30
100
AcDbLine
 10
435.403236
 20
354.573176
 30
0.0
 11
435.403236
 21
361.573176
 31
0.0
  0
ARC
  5
212
330
1F
100
AcDbEntity
  8
002
 62
     3
370
    30
100
AcDbCircle
 10
432.403236
 20
361.573176
 30
0.0
 40
3.0
100
AcDbArc
 50
0.0
 51
90.0
  0
ARC
  5
213
330
1F
100
AcDbEntity
  8
002
 62
     3
370
    30
100
AcDbCircle
 10
433.403236
 20
370.573176
 30
0.0
 40
1.999943591704517
100
AcDbArc
 50
274.189097
 51
85.810693
  0
LINE
  5
214
330
1F
100
AcDbEntity
  8
002
 62
     3
370
    30
100
AcDbLine
 10
433.549336
 20
372.567776
 30
0.0
 11
419.757036
 21
373.578476
 31
0.0
  0
ARC
  5
215
330
1F
100
AcDbEntity
  8
002
 62
     3
370
    30
100
AcDbCircle
 10
419.903236
 20
375.573176
 30
0.0
 40
2.000050631859072
100
AcDbArc
 50
94.192164
 51
265.808046
  0
LINE
  5
216
330
1F
100
AcDbEntity
  8
002
 62
     3
370
    30
100
AcDbLine
 10
419.757036
 20
377.567776
 30
0.0
 11
433.549336
 21
378.578476
 31
0.0
  0
ARC
  5
217
330
1F
100
AcDbEntity
  8
002
 62
     3
370
    30
100
AcDbCircle
 10
433.403236
 20
380.573176
 30
0.0
 40
1.999943591704517
100
AcDbArc
 50
274.189097
 51
85.810693
  0
LINE
  5
218
330
1F
100
AcDbEntity
  8
002
 62
     3
370
    30
100
AcDbLine
 10
433.549336
 20
382.567776
 30
0.0
 11
419.757036
 21
383.578476
 31
0.0
  0
ARC
  5
219
330
1F
100
AcDbEntity
  8
002
 62
     3
370
    30
100
AcDbCircle
 10
419.903236
 20
385.573176
 30
0.0
 40
2.000050631859072
100
AcDbArc
 50
180.0
 51
265.808046
  0
LINE
  5
21A
330
1F
100
AcDbEntity
  8
002
 62
     3
370
    30
100
AcDbLine
 10
415.903236
 20
385.573176
 30
0.0
 11
379.903236
 21
385.573176
 31
0.0
  0
ARC
  5
21B
330
1F
100
AcDbEntity
  8
002
 62
     3
370
    30
100
AcDbCircle
 10
375.903236
 20
385.573176
 30
0.0
 40
2.0
100
AcDbArc
 50
274.189097
 51
0.0
  0
LINE
  5
21C
330
1F
100
AcDbEntity
  8
002
 62
     3
370
    30
100
AcDbLine
 10
376.049336
 20
383.578476
 30
0.0
 11
362.257036
 21
382.567776
 31
0.0
  0
ARC
  5
21D
330
1F
100
AcDbEntity
  8
002
 62
     3
370
    30
100
AcDbCircle
 10
362.403236
 20
380.573176
 30
0.0
 40
2.000050631859069
100
AcDbArc
 50
94.192164
 51
265.808046
  0
LINE
  5
21E
330
1F
100
AcDbEntity
  8
002
 62
     3
370
    30
100
AcDbLine
 10
362.257036
 20
378.578476
 30
0.0
 11
376.049336
 21
377.567776
 31
0.0
  0
ARC
  5
21F
330
1F
100
AcDbEntity
  8
002
 62
     3
370
    30
100
AcDbCircle
 10
375.903236
 20
375.573176
 30
0.0
 40
1.999943591704517
100
AcDbArc
 50
274.189097
 51
85.810693
  0
LINE
  5
220
330
1F
100
AcDbEntity
  8
002
 62
     3
370
    30
100
AcDbLine
 10
376.049336
 20
373.578476
 30
0.0
 11
362.257036
 21
372.567776
 31
0.0
  0
ARC
  5
221
330
1F
100
AcDbEntity
  8
002
 62
     3
370
    30
100
AcDbCircle
 10
362.403236
 20
370.573176
 30
0.0
 40
2.000050631859069
100
AcDbArc
 50
94.192164
 51
265.808046
  0
LINE
  5
222
330
1F
100
AcDbEntity
  8
002
 62
     3
370
    30
100
AcDbLine
 10
362.257036
 20
368.578476
 30
0.0
 11
370.549336
 21
367.567776
 31
0.0
  0
ARC
  5
223
330
1F
100
AcDbEntity
  8
002
 62
     3
370
    30
100
AcDbCircle
 10
370.403236
 20
365.573176
 30
0.0
 40
1.999943591704517
100
AcDbArc
 50
0.0
 51
85.810693
  0
LINE
  5
224
330
1F
100
AcDbEntity
  8
002
 62
     3
370
    30
100
AcDbLine
 10
372.403236
 20
365.573176
 30
0.0
 11
372.403236
 21
364.573176
 31
0.0
  0
LINE
  5
225
330
1F
100
AcDbEntity
  8
002
 62
     3
370
    30
100
AcDbLine
 10
415.903236
 20
375.573176
 30
0.0
 11
379.903236
 21
375.573176
 31
0.0
  0
LINE
  5
226
330
1F
100
AcDbEntity
  8
002
 62
     3
370
    30
100
AcDbLine
 10
362.403236
 20
370.573176
 30
0.0
 11
433.403236
 21
370.573176
 31
0.0
  0
LINE
  5
227
330
1F
100
AcDbEntity
  8
002
 62
     3
370
    30
100
AcDbLine
 10
433.403236
 20
380.573176
 30
0.0
 11
362.403236
 21
380.573176
 31
0.0
  0
LINE
  5
228
330
1F
100
AcDbEntity
  8
002
 62
     3
370
    30
100
AcDbLine
 10
432.403236
 20
351.573176
 30
0.0
 11
371.403236
 21
351.573176
 31
0.0
  0
CIRCLE
  5
229
330
1F
100
AcDbEntity
  8
002
 62
     3
370
    30
100
AcDbCircle
 10
429.903236
 20
358.073176
 30
0.0
 40
1.0
  0
LINE
  5
22A
330
1F
100
AcDbEntity
  8
002
  6
CENTER
 62
    40
370
     9
100
AcDbLine
 10
429.903236
 20
355.972976
 30
0.0
 11
429.903236
 21
359.944076
 31
0.0
  0
LINE
  5
22B
330
1F
100
AcDbEntity
  8
002
  6
CENTER
 62
    40
370
     9
100
AcDbLine
 10
427.647436
 20
358.073176
 30
0.0
 11
432.248036
 21
358.073176
 31
0.0
  0
LINE
  5
22C
330
1F
100
AcDbEntity
  8
002
  6
PHANTOM
 62
    40
370
     9
100
AcDbLine
 10
435.403236
 20
380.573176
 30
0.0
 11
435.403236
 21
494.769178
 31
0.0
  0
LINE
  5
22D
330
1F
100
AcDbEntity
  8
002
  6
PHANTOM
 62
    40
370
     9
100
AcDbLine
 10
417.903236
 20
489.769178
 30
0.0
 11
417.903236
 21
385.573176
 31
0.0
  0
LINE
  5
22E
330
1F
100
AcDbEntity
  8
002
  6
PHANTOM
 62
    40
370
     9
100
AcDbLine
 10
377.903236
 20
385.573176
 30
0.0
 11
377.903236
 21
489.769178
 31
0.0
  0
LINE
  5
22F
330
1F
100
AcDbEntity
  8
002
  6
PHANTOM
 62
    40
370
     9
100
AcDbLine
 10
360.403236
 20
494.769178
 30
0.0
 11
360.403236
 21
380.573176
 31
0.0
  0
LINE
  5
230
330
1F
100
AcDbEntity
  8
002
 62
     3
370
    30
100
AcDbLine
 10
415.903236
 20
489.769178
 30
0.0
 11
379.903236
 21
489.769178
 31
0.0
  0
ARC
  5
231
330
1F
100
AcDbEntity
  8
002
 62
     3
370
    30
100
AcDbCircle
 10
375.903236
 20
489.769178
 30
0.0
 40
1.999943591704517
100
AcDbArc
 50
0.0
 51
85.810693
  0
LINE
  5
232
330
1F
100
AcDbEntity
  8
002
 62
     3
370
    30
100
AcDbLine
 10
376.049336
 20
491.763778
 30
0.0
 11
362.257036
 21
492.774478
 31
0.0
  0
LINE
  5
233
330
1F
100
AcDbEntity
  8
002
 62
     3
370
    30
100
AcDbLine
 10
362.403236
 20
494.769178
 30
0.0
 11
433.403236
 21
494.769178
 31
0.0
  0
LINE
  5
234
330
1F
100
AcDbEntity
  8
002
 62
     3
370
    30
100
AcDbLine
 10
433.549336
 20
496.763778
 30
0.0
 11
419.757036
 21
497.774478
 31
0.0
  0
ARC
  5
235
330
1F
100
AcDbEntity
  8
002
 62
     3
370
    30
100
AcDbCircle
 10
419.903236
 20
499.769178
 30
0.0
 40
2.000050631859185
100
AcDbArc
 50
94.192164
 51
265.808046
  0
LINE
  5
236
330
1F
100
AcDbEntity
  8
002
 62
     3
370
    30
100
AcDbLine
 10
419.757036
 20
501.763778
 30
0.0
 11
433.549336
 21
502.774478
 31
0.0
  0
ARC
  5
237
330
1F
100
AcDbEntity
  8
002
 62
     3
370
    30
100
AcDbCircle
 10
433.403236
 20
504.769178
 30
0.0
 40
1.999943591704517
100
AcDbArc
 50
274.189097
 51
85.810693
  0
LINE
  5
238
330
1F
100
AcDbEntity
  8
002
 62
     3
370
    30
100
AcDbLine
 10
433.549336
 20
506.763778
 30
0.0
 11
413.257036
 21
507.774478
 31
0.0
  0
ARC
  5
239
330
1F
100
AcDbEntity
  8
002
 62
     3
370
    30
100
AcDbCircle
 10
413.403236
 20
509.769178
 30
0.0
 40
2.000050631859183
100
AcDbArc
 50
180.0
 51
265.808046
  0
LINE
  5
23A
330
1F
100
AcDbEntity
  8
002
 62
     3
370
    30
100
AcDbLine
 10
411.403236
 20
509.769178
 30
0.0
 11
411.403236
 21
510.769178
 31
0.0
  0
LINE
  5
23B
330
1F
100
AcDbEntity
  8
002
 62
     3
370
    30
100
AcDbLine
 10
412.403236
 20
510.769178
 30
0.0
 11
412.403236
 21
522.769178
 31
0.0
  0
LINE
  5
23C
330
1F
100
AcDbEntity
  8
002
 62
     3
370
    30
100
AcDbLine
 10
411.403236
 20
522.769178
 30
0.0
 11
411.403236
 21
525.073176
 31
0.0
  0
LINE
  5
23D
330
1F
100
AcDbEntity
  8
002
 62
     3
370
    30
100
AcDbLine
 10
384.403236
 20
525.073176
 30
0.0
 11
384.403236
 21
522.769178
 31
0.0
  0
LINE
  5
23E
330
1F
100
AcDbEntity
  8
002
 62
     3
370
    30
100
AcDbLine
 10
383.403236
 20
522.769178
 30
0.0
 11
420.403236
 21
522.769178
 31
0.0
  0
LINE
  5
23F
330
1F
100
AcDbEntity
  8
002
 62
     3
370
    30
100
AcDbLine
 10
423.403236
 20
519.769178
 30
0.0
 11
423.403236
 21
513.769178
 31
0.0
  0
LINE
  5
240
330
1F
100
AcDbEntity
  8
002
 62
     3
370
    30
100
AcDbLine
 10
420.403236
 20
510.769178
 30
0.0
 11
383.403236
 21
510.769178
 31
0.0
  0
LINE
  5
241
330
1F
100
AcDbEntity
  8
002
 62
     3
370
    30
100
AcDbLine
 10
383.403236
 20
510.769178
 30
0.0
 11
383.403236
 21
522.769178
 31
0.0
  0
CIRCLE
  5
242
330
1F
100
AcDbEntity
  8
002
 62
     3
370
    30
100
AcDbCircle
 10
417.903236
 20
517.269178
 30
0.0
 40
1.0
  0
ARC
  5
243
330
1F
100
AcDbEntity
  8
002
 62
     3
370
    30
100
AcDbCircle
 10
420.403236
 20
519.769178
 30
0.0
 40
3.0
100
AcDbArc
 50
0.0
 51
90.0
  0
ARC
  5
244
330
1F
100
AcDbEntity
  8
002
 62
     3
370
    30
100
AcDbCircle
 10
420.403236
 20
513.769178
 30
0.0
 40
3.0
100
AcDbArc
 50
270.0
 51
0.0
  0
LINE
  5
245
330
1F
100
AcDbEntity
  8
002
 62
     3
370
    30
100
AcDbLine
 10
433.403236
 20
504.769178
 30
0.0
 11
362.403236
 21
504.769178
 31
0.0
  0
LINE
  5
246
330
1F
100
AcDbEntity
  8
002
 62
     3
370
    30
100
AcDbLine
 10
362.257036
 20
502.774478
 30
0.0
 11
376.049336
 21
501.763778
 31
0.0
  0
LINE
  5
247
330
1F
100
AcDbEntity
  8
002
 62
     3
370
    30
100
AcDbLine
 10
376.049336
 20
497.774478
 30
0.0
 11
362.257036
 21
496.763778
 31
0.0
  0
ARC
  5
248
330
1F
100
AcDbEntity
  8
002
 62
     3
370
    30
100
AcDbCircle
 10
362.403236
 20
494.769178
 30
0.0
 40
2.000050631859183
100
AcDbArc
 50
94.192164
 51
265.808046
  0
ARC
  5
249
330
1F
100
AcDbEntity
  8
002
 62
     3
370
    30
100
AcDbCircle
 10
362.403236
 20
504.769178
 30
0.0
 40
2.000050631859183
100
AcDbArc
 50
94.192164
 51
265.808046
  0
LINE
  5
24A
330
1F
100
AcDbEntity
  8
002
 62
     3
370
    30
100
AcDbLine
 10
362.257036
 20
506.763778
 30
0.0
 11
382.549336
 21
507.774478
 31
0.0
  0
ARC
  5
24B
330
1F
100
AcDbEntity
  8
002
 62
     3
370
    30
100
AcDbCircle
 10
382.403236
 20
509.769178
 30
0.0
 40
2.0
100
AcDbArc
 50
274.189097
 51
0.0
  0
LINE
  5
24C
330
1F
100
AcDbEntity
  8
002
 62
     3
370
    30
100
AcDbLine
 10
384.403236
 20
509.769178
 30
0.0
 11
384.403236
 21
510.769178
 31
0.0
  0
LINE
  5
24D
330
1F
100
AcDbEntity
  8
002
 62
     3
370
    30
100
AcDbLine
 10
379.903236
 20
499.769178
 30
0.0
 11
415.903236
 21
499.769178
 31
0.0
  0
LINE
  5
24E
330
1F
100
AcDbEntity
  8
002
 62
     3
370
    30
100
AcDbLine
 10
419.757036
 20
491.763778
 30
0.0
 11
433.549336
 21
492.774478
 31
0.0
  0
ARC
  5
24F
330
1F
100
AcDbEntity
  8
002
 62
     3
370
    30
100
AcDbCircle
 10
433.403236
 20
494.769178
 30
0.0
 40
1.999943591704517
100
AcDbArc
 50
274.189097
 51
85.810693
  0
ARC
  5
250
330
1F
100
AcDbEntity
  8
002
 62
     3
370
    30
100
AcDbCircle
 10
419.903236
 20
489.769178
 30
0.0
 40
2.0
100
AcDbArc
 50
94.192164
 51
180.0
  0
ARC
  5
251
330
1F
100
AcDbEntity
  8
002
 62
     3
370
    30
100
AcDbCircle
 10
375.903236
 20
499.769178
 30
0.0
 40
1.999943591704517
100
AcDbArc
 50
274.189097
 51
85.810693
  0
LINE
  5
252
330
1F
100
AcDbEntity
  8
002
  6
CENTER
 62
    40
370
     9
100
AcDbLine
 10
417.903236
 20
519.140078
 30
0.0
 11
417.903236
 21
515.168978
 31
0.0
  0
LINE
  5
253
330
1F
100
AcDbEntity
  8
002
  6
CENTER
 62
    40
370
     9
100
AcDbLine
 10
415.647436
 20
517.269178
 30
0.0
 11
420.248036
 21
517.269178
 31
0.0
  0
LINE
  5
254
330
1F
100
AcDbEntity
  8
002
 62
     3
370
    30
100
AcDbLine
 10
421.906141
 20
351.573176
 30
0.0
 11
421.906141
 21
344.573176
 31
0.0
  0
LINE
  5
255
330
1F
100
AcDbEntity
  8
002
 62
     3
370
    30
100
AcDbLine
 10
373.906141
 20
351.573176
 30
0.0
 11
373.906141
 21
344.573176
 31
0.0
  0
LINE
  5
256
330
1F
100
AcDbEntity
  8
002
 62
     3
370
    30
100
AcDbLine
 10
536.088175
 20
344.573176
 30
0.0
 11
534.688175
 21
343.173176
 31
0.0
  0
LINE
  5
257
330
1F
100
AcDbEntity
  8
002
 62
     3
370
    30
100
AcDbLine
 10
577.188175
 20
135.073176
 30
0.0
 11
552.188175
 21
135.073176
 31
0.0
  0
LINE
  5
258
330
1F
100
AcDbEntity
  8
002
 62
     3
370
    30
100
AcDbLine
 10
577.188175
 20
150.073176
 30
0.0
 11
552.188175
 21
150.073176
 31
0.0
  0
LINE
  5
259
330
1F
100
AcDbEntity
  8
002
 62
     3
370
    30
100
AcDbLine
 10
536.088175
 20
344.573176
 30
0.0
 11
564.688175
 21
344.573176
 31
0.0
  0
LINE
  5
25A
330
1F
100
AcDbEntity
  8
002
  6
CENTER
 62
    40
370
     9
100
AcDbLine
 10
596.688175
 20
280.903978
 30
0.0
 11
596.688175
 21
328.144472
 31
0.0
  0
LINE
  5
25B
330
1F
100
AcDbEntity
  8
002
  6
CENTER
 62
    40
370
     9
100
AcDbLine
 10
647.888609
 20
305.073176
 30
0.0
 11
508.293585
 21
305.073176
 31
0.0
  0
LINE
  5
25C
330
1F
100
AcDbEntity
  8
002
 62
     3
370
    30
100
AcDbLine
 10
530.247373
 20
343.473176
 30
0.0
 11
564.688175
 21
343.473176
 31
0.0
  0
LINE
  5
25D
330
1F
100
AcDbEntity
  8
002
 62
     3
370
    30
100
AcDbLine
 10
533.632302
 20
345.073176
 30
0.0
 11
511.744048
 21
345.073176
 31
0.0
  0
LINE
  5
25E
330
1F
100
AcDbEntity
  8
002
 62
     3
370
    30
100
AcDbLine
 10
613.744048
 20
265.073176
 30
0.0
 11
635.632302
 21
265.073176
 31
0.0
  0
LINE
  5
25F
330
1F
100
AcDbEntity
  8
002
 62
     3
370
    30
100
AcDbLine
 10
635.632302
 20
265.073176
 30
0.0
 11
637.029133
 21
305.073176
 31
0.0
  0
LINE
  5
260
330
1F
100
AcDbEntity
  8
002
 62
     3
370
    30
100
AcDbLine
 10
613.744048
 20
265.073176
 30
0.0
 11
613.685682
 21
266.744564
 31
0.0
  0
LINE
  5
261
330
1F
100
AcDbEntity
  8
002
 62
     3
370
    30
100
AcDbLine
 10
511.744048
 20
345.073176
 30
0.0
 11
510.347217
 21
305.073176
 31
0.0
  0
LINE
  5
262
330
1F
100
AcDbEntity
  8
002
 62
     3
370
    30
100
AcDbLine
 10
533.632302
 20
345.073176
 30
0.0
 11
533.688175
 21
343.473176
 31
0.0
  0
LINE
  5
263
330
1F
100
AcDbEntity
  8
002
 62
     3
370
    30
100
AcDbLine
 10
511.744048
 20
265.073176
 30
0.0
 11
510.347217
 21
305.073176
 31
0.0
  0
LINE
  5
264
330
1F
100
AcDbEntity
  8
002
  6
CENTER
 62
    40
370
     9
100
AcDbLine
 10
522.688175
 20
260.242603
 30
0.0
 11
522.688175
 21
348.307022
 31
0.0
  0
LINE
  5
265
330
1F
100
AcDbEntity
  8
002
 62
     3
370
    30
100
AcDbLine
 10
511.744048
 20
265.073176
 30
0.0
 11
533.632302
 21
265.073176
 31
0.0
  0
LINE
  5
266
330
1F
100
AcDbEntity
  8
002
 62
     3
370
    30
100
AcDbLine
 10
602.76484
 20
271.664374
 30
0.0
 11
602.328167
 21
266.673176
 31
0.0
  0
LINE
  5
267
330
1F
100
AcDbEntity
  8
002
 62
     3
370
    30
100
AcDbLine
 10
530.247373
 20
343.473176
 30
0.0
 11
528.073326
 21
318.623704
 31
0.0
  0
LINE
  5
268
330
1F
100
AcDbEntity
  8
002
 62
     3
370
    30
100
AcDbLine
 10
528.073326
 20
291.522647
 30
0.0
 11
530.247373
 21
266.673176
 31
0.0
  0
LINE
  5
269
330
1F
100
AcDbEntity
  8
002
 62
     3
370
    30
100
AcDbLine
 10
533.632302
 20
265.073176
 30
0.0
 11
533.688175
 21
266.673176
 31
0.0
  0
LINE
  5
26A
330
1F
100
AcDbEntity
  8
002
 62
     3
370
    30
100
AcDbLine
 10
602.882476
 20
273.008954
 30
0.0
 11
602.76484
 21
271.664374
 31
0.0
  0
LINE
  5
26B
330
1F
100
AcDbEntity
  8
002
 62
     3
370
    30
100
AcDbLine
 10
564.188175
 20
311.073176
 30
0.0
 11
510.556742
 21
311.073176
 31
0.0
  0
ARC
  5
26C
330
1F
100
AcDbEntity
  8
002
 62
     3
370
    30
100
AcDbCircle
 10
522.831085
 20
316.073176
 30
0.0
 40
5.0
100
AcDbArc
 50
270.0
 51
355.0
  0
LINE
  5
26D
330
1F
100
AcDbEntity
  8
002
 62
     3
370
    30
100
AcDbLine
 10
528.073326
 20
318.623704
 30
0.0
 11
527.812058
 21
315.637397
 31
0.0
  0
LINE
  5
26E
330
1F
100
AcDbEntity
  8
002
 62
     3
370
    30
100
AcDbLine
 10
564.188175
 20
299.073176
 30
0.0
 11
510.556742
 21
299.073176
 31
0.0
  0
ARC
  5
26F
330
1F
100
AcDbEntity
  8
002
 62
     3
370
    30
100
AcDbCircle
 10
522.831085
 20
294.073176
 30
0.0
 40
5.0
100
AcDbArc
 50
5.0
 51
90.0
  0
LINE
  5
270
330
1F
100
AcDbEntity
  8
002
 62
     3
370
    30
100
AcDbLine
 10
528.073326
 20
291.522647
 30
0.0
 11
527.812058
 21
294.508954
 31
0.0
  0
LINE
  5
271
330
1F
100
AcDbEntity
  8
002
 62
     3
370
    30
100
AcDbLine
 10
564.688175
 20
266.673176
 30
0.0
 11
619.145594
 21
266.673176
 31
0.0
  0
LINE
  5
272
330
1F
100
AcDbEntity
  8
002
 62
     3
370
    30
100
AcDbLine
 10
564.688175
 20
266.673176
 30
0.0
 11
530.247373
 21
266.673176
 31
0.0
  0
LINE
  5
273
330
1F
100
AcDbEntity
  8
002
 62
     3
370
    30
100
AcDbLine
 10
629.188175
 20
311.073176
 30
0.0
 11
636.819608
 21
311.073176
 31
0.0
  0
LINE
  5
274
330
1F
100
AcDbEntity
  8
002
 62
     3
370
    30
100
AcDbLine
 10
629.188175
 20
299.073176
 30
0.0
 11
636.819608
 21
299.073176
 31
0.0
  0
ARC
  5
275
330
1F
100
AcDbEntity
  8
002
 62
     3
370
    30
100
AcDbCircle
 10
626.688175
 20
333.880169
 30
0.0
 40
3.0
100
AcDbArc
 50
180.0
 51
266.347819
  0
LINE
  5
276
330
1F
100
AcDbEntity
  8
002
 62
     3
370
    30
100
AcDbLine
 10
626.497077
 20
330.886262
 30
0.0
 11
631.628857
 21
330.558705
 31
0.0
  0
ARC
  5
277
330
1F
100
AcDbEntity
  8
002
 62
     3
370
    30
100
AcDbCircle
 10
631.31036
 20
325.568859
 30
0.0
 40
5.0
100
AcDbArc
 50
2.0
 51
86.347819
  0
LINE
  5
278
330
1F
100
AcDbEntity
  8
002
 62
     3
370
    30
100
AcDbLine
 10
623.688175
 20
276.266182
 30
0.0
 11
623.688175
 21
275.073176
 31
0.0
  0
LINE
  5
279
330
1F
100
AcDbEntity
  8
002
 62
     3
370
    30
100
AcDbLine
 10
626.497077
 20
279.26009
 30
0.0
 11
631.628857
 21
279.587646
 31
0.0
  0
ARC
  5
27A
330
1F
100
AcDbEntity
  8
002
 62
     3
370
    30
100
AcDbCircle
 10
631.31036
 20
284.577492
 30
0.0
 40
5.0
100
AcDbArc
 50
273.652181
 51
358.0
  0
ARC
  5
27B
330
1F
100
AcDbEntity
  8
002
 62
     3
370
    30
100
AcDbCircle
 10
607.644728
 20
270.073176
 30
0.0
 40
5.0
100
AcDbArc
 50
90.0
 51
175.0
  0
LINE
  5
27C
330
1F
100
AcDbEntity
  8
002
 62
     3
370
    30
100
AcDbLine
 10
607.644728
 20
275.073176
 30
0.0
 11
623.688175
 21
275.073176
 31
0.0
  0
ARC
  5
27D
330
1F
100
AcDbEntity
  8
002
 62
     3
370
    30
100
AcDbCircle
 10
626.688175
 20
276.266182
 30
0.0
 40
3.0
100
AcDbArc
 50
93.652181
 51
180.0
  0
LINE
  5
27E
330
1F
100
AcDbEntity
  8
002
 62
     3
370
    30
100
AcDbLine
 10
619.880498
 20
275.073176
 30
0.0
 11
619.145594
 21
266.673176
 31
0.0
  0
LINE
  5
27F
330
1F
100
AcDbEntity
  8
002
 62
     3
370
    30
100
AcDbLine
 10
569.188175
 20
282.573176
 30
0.0
 11
569.188175
 21
327.573176
 31
0.0
  0
LINE
  5
280
330
1F
100
AcDbEntity
  8
002
 62
     3
370
    30
100
AcDbLine
 10
619.188175
 20
277.573176
 30
0.0
 11
574.188175
 21
277.573176
 31
0.0
  0
LINE
  5
281
330
1F
100
AcDbEntity
  8
002
 62
     3
370
    30
100
AcDbLine
 10
624.188175
 20
327.573176
 30
0.0
 11
624.188175
 21
282.573176
 31
0.0
  0
LINE
  5
282
330
1F
100
AcDbEntity
  8
002
 62
     3
370
    30
100
AcDbLine
 10
619.188175
 20
332.573176
 30
0.0
 11
574.188175
 21
332.573176
 31
0.0
  0
ARC
  5
283
330
1F
100
AcDbEntity
  8
002
 62
     3
370
    30
100
AcDbCircle
 10
574.188175
 20
327.573176
 30
0.0
 40
5.0
100
AcDbArc
 50
90.0
 51
180.0
  0
ARC
  5
284
330
1F
100
AcDbEntity
  8
002
 62
     3
370
    30
100
AcDbCircle
 10
574.188175
 20
282.573176
 30
0.0
 40
5.0
100
AcDbArc
 50
180.0
 51
270.0
  0
ARC
  5
285
330
1F
100
AcDbEntity
  8
002
 62
     3
370
    30
100
AcDbCircle
 10
619.188175
 20
282.573176
 30
0.0
 40
5.0
100
AcDbArc
 50
270.0
 51
0.0
  0
ARC
  5
286
330
1F
100
AcDbEntity
  8
002
 62
     3
370
    30
100
AcDbCircle
 10
619.188175
 20
327.573176
 30
0.0
 40
5.0
100
AcDbArc
 50
0.0
 51
90.0
  0
ARC
  5
287
330
1F
100
AcDbEntity
  8
002
 62
     3
370
    30
100
AcDbCircle
 10
629.188175
 20
316.073176
 30
0.0
 40
5.0
100
AcDbArc
 50
180.0
 51
270.0
  0
ARC
  5
288
330
1F
100
AcDbEntity
  8
002
 62
     3
370
    30
100
AcDbCircle
 10
629.188175
 20
294.073176
 30
0.0
 40
5.0
100
AcDbArc
 50
90.0
 51
180.0
  0
ARC
  5
289
330
1F
100
AcDbEntity
  8
002
 62
     3
370
    30
100
AcDbCircle
 10
607.863449
 20
272.573176
 30
0.0
 40
5.0
100
AcDbArc
 50
90.0
 51
175.0
  0
ARC
  5
28A
330
1F
100
AcDbEntity
  8
002
 62
     3
370
    30
100
AcDbCircle
 10
564.188175
 20
316.073176
 30
0.0
 40
5.0
100
AcDbArc
 50
270.0
 51
0.0
  0
ARC
  5
28B
330
1F
100
AcDbEntity
  8
002
 62
     3
370
    30
100
AcDbCircle
 10
564.188175
 20
294.073176
 30
0.0
 40
5.0
100
AcDbArc
 50
0.0
 51
90.0
  0
LINE
  5
28C
330
1F
100
AcDbEntity
  8
002
 62
     3
370
    30
100
AcDbLine
 10
593.288175
 20
344.573176
 30
0.0
 11
564.688175
 21
344.573176
 31
0.0
  0
LINE
  5
28D
330
1F
100
AcDbEntity
  8
002
 62
     3
370
    30
100
AcDbLine
 10
593.288175
 20
344.573176
 30
0.0
 11
594.688175
 21
343.173176
 31
0.0
  0
LINE
  5
28E
330
1F
100
AcDbEntity
  8
002
 62
     3
370
    30
100
AcDbLine
 10
590.438175
 20
347.473176
 30
0.0
 11
590.438175
 21
352.473176
 31
0.0
  0
LINE
  5
28F
330
1F
100
AcDbEntity
  8
002
 62
     3
370
    30
100
AcDbLine
 10
598.938175
 20
352.473176
 30
0.0
 11
598.938175
 21
347.473176
 31
0.0
  0
LINE
  5
290
330
1F
100
AcDbEntity
  8
002
 62
     3
370
    30
100
AcDbLine
 10
602.188175
 20
347.473176
 30
0.0
 11
527.188175
 21
347.473176
 31
0.0
  0
LINE
  5
291
330
1F
100
AcDbEntity
  8
002
 62
     3
370
    30
100
AcDbLine
 10
527.188175
 20
347.473176
 30
0.0
 11
527.188175
 21
345.073176
 31
0.0
  0
LINE
  5
292
330
1F
100
AcDbEntity
  8
002
 62
     3
370
    30
100
AcDbLine
 10
530.438175
 20
347.473176
 30
0.0
 11
530.438175
 21
352.473176
 31
0.0
  0
LINE
  5
293
330
1F
100
AcDbEntity
  8
002
 62
     3
370
    30
100
AcDbLine
 10
530.438175
 20
352.473176
 30
0.0
 11
538.938175
 21
352.473176
 31
0.0
  0
LINE
  5
294
330
1F
100
AcDbEntity
  8
002
 62
     3
370
    30
100
AcDbLine
 10
538.938175
 20
352.473176
 30
0.0
 11
538.938175
 21
347.473176
 31
0.0
  0
LINE
  5
295
330
1F
100
AcDbEntity
  8
002
 62
     3
370
    30
100
AcDbLine
 10
540.808775
 20
350.377276
 30
0.0
 11
542.188175
 21
393.473176
 31
0.0
  0
LINE
  5
296
330
1F
100
AcDbEntity
  8
002
 62
     3
370
    30
100
AcDbLine
 10
542.188175
 20
393.473176
 30
0.0
 11
587.188175
 21
393.473176
 31
0.0
  0
LINE
  5
297
330
1F
100
AcDbEntity
  8
002
 62
     3
370
    30
100
AcDbLine
 10
587.188175
 20
393.473176
 30
0.0
 11
588.567575
 21
350.377276
 31
0.0
  0
LINE
  5
298
330
1F
100
AcDbEntity
  8
002
 62
     3
370
    30
100
AcDbLine
 10
590.438175
 20
352.473176
 30
0.0
 11
598.938175
 21
352.473176
 31
0.0
  0
LINE
  5
299
330
1F
100
AcDbEntity
  8
002
 62
     3
370
    30
100
AcDbLine
 10
602.188175
 20
347.473176
 30
0.0
 11
602.188175
 21
343.473176
 31
0.0
  0
ARC
  5
29A
330
1F
100
AcDbEntity
  8
002
 62
     3
370
    30
100
AcDbCircle
 10
591.566075
 20
350.473176
 30
0.0
 40
3.000033176483255
100
AcDbArc
 50
181.831847
 51
270.0
  0
LINE
  5
29B
330
1F
100
AcDbEntity
  8
002
 62
     3
370
    30
100
AcDbLine
 10
560.438175
 20
352.473176
 30
0.0
 11
560.438175
 21
347.473176
 31
0.0
  0
LINE
  5
29C
330
1F
100
AcDbEntity
  8
002
 62
     3
370
    30
100
AcDbLine
 10
560.438175
 20
352.473176
 30
0.0
 11
568.938175
 21
352.473176
 31
0.0
  0
LINE
  5
29D
330
1F
100
AcDbEntity
  8
002
 62
     3
370
    30
100
AcDbLine
 10
568.938175
 20
352.473176
 30
0.0
 11
568.938175
 21
347.473176
 31
0.0
  0
ARC
  5
29E
330
1F
100
AcDbEntity
  8
002
 62
     3
370
    30
100
AcDbCircle
 10
537.810275
 20
350.473176
 30
0.0
 40
3.0
100
AcDbArc
 50
270.0
 51
358.168153
  0
LINE
  5
29F
330
1F
100
AcDbEntity
  8
002
 62
     3
370
    30
100
AcDbLine
 10
542.688175
 20
478.473176
 30
0.0
 11
542.688175
 21
495.473176
 31
0.0
  0
ARC
  5
2A0
330
1F
100
AcDbEntity
  8
002
 62
     3
370
    30
100
AcDbCircle
 10
545.688175
 20
495.473176
 30
0.0
 40
3.0
100
AcDbArc
 50
90.0
 51
180.0
  0
LINE
  5
2A1
330
1F
100
AcDbEntity
  8
002
 62
     3
370
    30
100
AcDbLine
 10
545.688175
 20
498.473176
 30
0.0
 11
583.688175
 21
498.473176
 31
0.0
  0
ARC
  5
2A2
330
1F
100
AcDbEntity
  8
002
 62
     3
370
    30
100
AcDbCircle
 10
583.688175
 20
495.473176
 30
0.0
 40
3.0
100
AcDbArc
 50
0.0
 51
90.0
  0
LINE
  5
2A3
330
1F
100
AcDbEntity
  8
002
 62
     3
370
    30
100
AcDbLine
 10
586.688175
 20
495.473176
 30
0.0
 11
586.688175
 21
478.473176
 31
0.0
  0
LINE
  5
2A4
330
1F
100
AcDbEntity
  8
002
 62
     3
370
    30
100
AcDbLine
 10
586.688175
 20
478.473176
 30
0.0
 11
542.688175
 21
478.473176
 31
0.0
  0
LINE
  5
2A5
330
1F
100
AcDbEntity
  8
002
  6
CENTER
 62
    40
370
     9
100
AcDbLine
 10
594.688175
 20
341.348376
 30
0.0
 11
594.688175
 21
353.627276
 31
0.0
  0
LINE
  5
2A6
330
1F
100
AcDbEntity
  8
002
  6
CENTER
 62
    40
370
     9
100
AcDbLine
 10
534.688175
 20
353.627276
 30
0.0
 11
534.688175
 21
341.348376
 31
0.0
  0
LINE
  5
2A7
330
1F
100
AcDbEntity
  8
002
 62
     3
370
    30
100
AcDbLine
 10
594.188175
 20
314.323176
 30
0.0
 11
594.188175
 21
309.823176
 31
0.0
  0
LINE
  5
2A8
330
1F
100
AcDbEntity
  8
002
 62
     3
370
    30
100
AcDbLine
 10
594.188175
 20
309.823176
 30
0.0
 11
594.438175
 21
309.573176
 31
0.0
  0
LINE
  5
2A9
330
1F
100
AcDbEntity
  8
002
 62
     3
370
    30
100
AcDbLine
 10
594.438175
 20
309.573176
 30
0.0
 11
598.938175
 21
309.573176
 31
0.0
  0
LINE
  5
2AA
330
1F
100
AcDbEntity
  8
002
 62
     3
370
    30
100
AcDbLine
 10
598.938175
 20
309.573176
 30
0.0
 11
599.188175
 21
309.823176
 31
0.0
  0
LINE
  5
2AB
330
1F
100
AcDbEntity
  8
002
 62
     3
370
    30
100
AcDbLine
 10
599.188175
 20
309.823176
 30
0.0
 11
599.188175
 21
314.323176
 31
0.0
  0
LINE
  5
2AC
330
1F
100
AcDbEntity
  8
002
 62
     3
370
    30
100
AcDbLine
 10
599.188175
 20
314.323176
 30
0.0
 11
598.938175
 21
314.573176
 31
0.0
  0
LINE
  5
2AD
330
1F
100
AcDbEntity
  8
002
 62
     3
370
    30
100
AcDbLine
 10
598.938175
 20
314.573176
 30
0.0
 11
594.438175
 21
314.573176
 31
0.0
  0
LINE
  5
2AE
330
1F
100
AcDbEntity
  8
002
 62
     3
370
    30
100
AcDbLine
 10
594.438175
 20
314.573176
 30
0.0
 11
594.188175
 21
314.323176
 31
0.0
  0
ARC
  5
2AF
330
1F
100
AcDbEntity
  8
002
 62
     3
370
    30
100
AcDbCircle
 10
598.988175
 20
309.773176
 30
0.0
 40
0.1999999999999318
100
AcDbArc
 50
270.0
 51
0.0
  0
ARC
  5
2B0
330
1F
100
AcDbEntity
  8
002
 62
     3
370
    30
100
AcDbCircle
 10
594.388175
 20
309.773176
 30
0.0
 40
0.2000000000000455
100
AcDbArc
 50
180.0
 51
270.0
  0
ARC
  5
2B1
330
1F
100
AcDbEntity
  8
002
 62
     3
370
    30
100
AcDbCircle
 10
596.688175
 20
305.073176
 30
0.0
 40
7.499936066394191
100
AcDbArc
 50
109.471393
 51
70.528607
  0
CIRCLE
  5
2B2
330
1F
100
AcDbEntity
  8
002
 62
     3
370
    30
100
AcDbCircle
 10
596.688175
 20
305.073176
 30
0.0
 40
17.5
  0
ARC
  5
2B3
330
1F
100
AcDbEntity
  8
002
 62
     3
370
    30
100
AcDbCircle
 10
596.688175
 20
304.028776
 30
0.0
 40
15.66944001073419
100
AcDbArc
 50
306.867484
 51
233.132223
  0
ARC
  5
2B4
330
1F
100
AcDbEntity
  8
002
 62
     3
370
    30
100
AcDbCircle
 10
588.786975
 20
293.492976
 30
0.0
 40
2.499984673953072
100
AcDbArc
 50
233.131477
 51
314.849286
  0
CIRCLE
  5
2B5
330
1F
100
AcDbEntity
  8
002
 62
     3
370
    30
100
AcDbCircle
 10
592.313175
 20
289.948176
 30
0.0
 40
1.09375
  0
ARC
  5
2B6
330
1F
100
AcDbEntity
  8
002
 62
     3
370
    30
100
AcDbCircle
 10
592.313175
 20
289.948176
 30
0.0
 40
2.499984673952911
100
AcDbArc
 50
0.0
 51
134.849286
  0
LINE
  5
2B7
330
1F
100
AcDbEntity
  8
002
 62
     3
370
    30
100
AcDbLine
 10
594.813175
 20
289.948176
 30
0.0
 11
594.813175
 21
287.701576
 31
0.0
  0
LINE
  5
2B8
330
1F
100
AcDbEntity
  8
002
 62
     3
370
    30
100
AcDbLine
 10
598.563175
 20
287.701576
 30
0.0
 11
598.563175
 21
289.948176
 31
0.0
  0
CIRCLE
  5
2B9
330
1F
100
AcDbEntity
  8
002
 62
     3
370
    30
100
AcDbCircle
 10
601.063175
 20
289.948176
 30
0.0
 40
1.09375
  0
ARC
  5
2BA
330
1F
100
AcDbEntity
  8
002
 62
     3
370
    30
100
AcDbCircle
 10
604.589375
 20
293.492976
 30
0.0
 40
2.500020003919964
100
AcDbArc
 50
225.150714
 51
306.866689
  0
ARC
  5
2BB
330
1F
100
AcDbEntity
  8
002
 62
     3
370
    30
100
AcDbCircle
 10
601.063175
 20
289.948176
 30
0.0
 40
2.5
100
AcDbArc
 50
45.150714
 51
180.0
  0
LINE
  5
2BC
330
1F
100
AcDbEntity
  8
002
 62
     3
370
    30
100
AcDbLine
 10
557.688175
 20
115.073176
 30
0.0
 11
557.688175
 21
135.073176
 31
0.0
  0
LINE
  5
2BD
330
1F
100
AcDbEntity
  8
002
 62
     3
370
    30
100
AcDbLine
 10
557.688175
 20
115.073176
 30
0.0
 11
571.688175
 21
115.073176
 31
0.0
  0
LINE
  5
2BE
330
1F
100
AcDbEntity
  8
002
 62
     3
370
    30
100
AcDbLine
 10
571.688175
 20
115.073176
 30
0.0
 11
571.688175
 21
135.073176
 31
0.0
  0
LINE
  5
2BF
330
1F
100
AcDbEntity
  8
002
 62
    40
370
     9
100
AcDbLine
 10
558.500175
 20
115.073176
 30
0.0
 11
558.500175
 21
135.073176
 31
0.0
  0
LINE
  5
2C0
330
1F
100
AcDbEntity
  8
002
 62
    40
370
     9
100
AcDbLine
 10
570.876175
 20
135.073176
 30
0.0
 11
570.876175
 21
115.073176
 31
0.0
  0
LINE
  5
2C1
330
1F
100
AcDbEntity
  8
002
 62
     3
370
    30
100
AcDbLine
 10
635.632302
 20
345.073176
 30
0.0
 11
637.029133
 21
305.073176
 31
0.0
  0
LINE
  5
2C2
330
1F
100
AcDbEntity
  8
002
 62
     3
370
    30
100
AcDbLine
 10
602.76484
 20
338.481978
 30
0.0
 11
602.345295
 21
343.277405
 31
0.0
  0
LINE
  5
2C3
330
1F
100
AcDbEntity
  8
002
 62
     3
370
    30
100
AcDbLine
 10
564.688175
 20
343.473176
 30
0.0
 11
610.688175
 21
343.473176
 31
0.0
  0
LINE
  5
2C4
330
1F
100
AcDbEntity
  8
002
 62
     3
370
    30
100
AcDbLine
 10
623.914773
 20
345.073176
 30
0.0
 11
635.632302
 21
345.073176
 31
0.0
  0
LINE
  5
2C5
330
1F
100
AcDbEntity
  8
002
 62
     3
370
    30
100
AcDbLine
 10
602.76484
 20
338.481978
 30
0.0
 11
602.92625
 21
336.637056
 31
0.0
  0
ARC
  5
2C6
330
1F
100
AcDbEntity
  8
002
 62
     3
370
    30
100
AcDbCircle
 10
607.644728
 20
340.073176
 30
0.0
 40
5.0
100
AcDbArc
 50
185.0
 51
270.0
  0
LINE
  5
2C7
330
1F
100
AcDbEntity
  8
002
 62
     3
370
    30
100
AcDbLine
 10
607.644728
 20
335.073176
 30
0.0
 11
623.688175
 21
335.073176
 31
0.0
  0
LINE
  5
2C8
330
1F
100
AcDbEntity
  8
002
 62
     3
370
    30
100
AcDbLine
 10
623.688175
 20
333.880169
 30
0.0
 11
623.688175
 21
335.073176
 31
0.0
  0
LINE
  5
2C9
330
1F
100
AcDbEntity
  8
002
 62
     3
370
    30
100
AcDbLine
 10
619.880498
 20
335.073176
 30
0.0
 11
619.401221
 21
340.551346
 31
0.0
  0
LINE
  5
2CA
330
1F
100
AcDbEntity
  8
002
 62
     3
370
    30
100
AcDbLine
 10
610.688175
 20
338.573176
 30
0.0
 11
618.688175
 21
338.573176
 31
0.0
  0
LINE
  5
2CB
330
1F
100
AcDbEntity
  8
002
 62
     3
370
    30
100
AcDbLine
 10
610.123175
 20
335.976729
 30
0.0
 11
611.688175
 21
335.073176
 31
0.0
  0
LINE
  5
2CC
330
1F
100
AcDbEntity
  8
002
 62
     3
370
    30
100
AcDbLine
 10
610.198871
 20
338.290676
 30
0.0
 11
610.688175
 21
338.573176
 31
0.0
  0
LINE
  5
2CD
330
1F
100
AcDbEntity
  8
002
 62
     3
370
    30
100
AcDbLine
 10
619.177479
 20
338.290676
 30
0.0
 11
618.688175
 21
338.573176
 31
0.0
  0
LINE
  5
2CE
330
1F
100
AcDbEntity
  8
002
 62
     3
370
    30
100
AcDbLine
 10
619.253175
 20
335.976729
 30
0.0
 11
617.688175
 21
335.073176
 31
0.0
  0
ARC
  5
2CF
330
1F
100
AcDbEntity
  8
002
 62
     3
370
    30
100
AcDbCircle
 10
614.688175
 20
329.433453
 30
0.0
 40
9.139722999187002
100
AcDbArc
 50
74.646222
 51
105.353778
  0
ARC
  5
2D0
330
1F
100
AcDbEntity
  8
002
 62
     3
370
    30
100
AcDbCircle
 10
611.195675
 20
336.647042
 30
0.0
 40
1.926144835808743
100
AcDbArc
 50
56.164408
 51
123.835592
  0
ARC
  5
2D1
330
1F
100
AcDbEntity
  8
002
 62
     3
370
    30
100
AcDbCircle
 10
618.180675
 20
336.647042
 30
0.0
 40
1.926144835808743
100
AcDbArc
 50
56.164408
 51
123.835592
  0
ARC
  5
2D2
330
1F
100
AcDbEntity
  8
002
 62
     3
370
    30
100
AcDbCircle
 10
611.195675
 20
337.576659
 30
0.0
 40
1.926144835808743
100
AcDbArc
 50
236.164408
 51
303.835592
  0
ARC
  5
2D3
330
1F
100
AcDbEntity
  8
002
 62
     3
370
    30
100
AcDbCircle
 10
614.688175
 20
344.790249
 30
0.0
 40
9.139722999187002
100
AcDbArc
 50
254.646222
 51
285.353778
  0
ARC
  5
2D4
330
1F
100
AcDbEntity
  8
002
 62
     3
370
    30
100
AcDbCircle
 10
618.180675
 20
337.576659
 30
0.0
 40
1.926144835808743
100
AcDbArc
 50
236.164408
 51
303.835592
  0
ARC
  5
2D5
330
1F
100
AcDbEntity
  8
002
 62
     3
370
    30
100
AcDbCircle
 10
614.688175
 20
343.073176
 30
0.0
 40
4.0
100
AcDbArc
 50
54.895863
 51
180.0
  0
LINE
  5
2D6
330
1F
100
AcDbEntity
  8
002
 62
     3
370
    30
100
AcDbLine
 10
610.688175
 20
343.473176
 30
0.0
 11
610.688175
 21
338.573176
 31
0.0
  0
LINE
  5
2D7
330
1F
100
AcDbEntity
  8
002
 62
     3
370
    30
100
AcDbLine
 10
618.688175
 20
340.360286
 30
0.0
 11
618.688175
 21
338.573176
 31
0.0
  0
LINE
  5
2D8
330
1F
100
AcDbEntity
  8
002
 62
     3
370
    30
100
AcDbLine
 10
616.9163
 20
346.614808
 30
0.0
 11
618.598624
 21
340.336291
 31
0.0
  0
LINE
  5
2D9
330
1F
100
AcDbEntity
  8
002
 62
     3
370
    30
100
AcDbLine
 10
620.047513
 20
340.724519
 30
0.0
 11
618.598624
 21
340.336291
 31
0.0
  0
LINE
  5
2DA
330
1F
100
AcDbEntity
  8
002
 62
     3
370
    30
100
AcDbLine
 10
618.365189
 20
347.003037
 30
0.0
 11
616.9163
 21
346.614808
 31
0.0
  0
LINE
  5
2DB
330
1F
100
AcDbEntity
  8
002
 62
     3
370
    30
100
AcDbLine
 10
618.365189
 20
347.003037
 30
0.0
 11
620.047513
 21
340.724519
 31
0.0
  0
ARC
  5
2DC
330
1F
100
AcDbEntity
  8
002
 62
     3
370
    30
100
AcDbCircle
 10
618.422185
 20
347.346699
 30
0.0
 40
1.000001999998009
100
AcDbArc
 50
276.720641
 51
317.005383
  0
LINE
  5
2DD
330
1F
100
AcDbEntity
  8
002
 62
     3
370
    30
100
AcDbLine
 10
622.928862
 20
347.449412
 30
0.0
 11
624.222957
 21
342.619783
 31
0.0
  0
ARC
  5
2DE
330
1F
100
AcDbEntity
  8
002
 62
     3
370
    30
100
AcDbCircle
 10
622.937046
 20
344.863415
 30
0.0
 40
0.9999749796870392
100
AcDbArc
 50
326.407997
 51
63.592003
  0
LINE
  5
2DF
330
1F
100
AcDbEntity
  8
002
 62
     3
370
    30
100
AcDbLine
 10
620.031085
 20
346.672955
 30
0.0
 11
621.32518
 21
341.843326
 31
0.0
  0
LINE
  5
2E0
330
1F
100
AcDbEntity
  8
002
 62
     3
370
    30
100
AcDbLine
 10
619.83697
 20
347.3974
 30
0.0
 11
622.928862
 21
347.449412
 31
0.0
  0
LINE
  5
2E1
330
1F
100
AcDbEntity
  8
002
 62
     3
370
    30
100
AcDbLine
 10
619.153604
 20
346.664768
 30
0.0
 11
619.83697
 21
347.3974
 31
0.0
  0
LINE
  5
2E2
330
1F
100
AcDbEntity
  8
002
 62
     3
370
    30
100
AcDbLine
 10
624.222957
 20
342.619783
 30
0.0
 11
621.519294
 21
341.118882
 31
0.0
  0
LINE
  5
2E3
330
1F
100
AcDbEntity
  8
002
 62
     3
370
    30
100
AcDbLine
 10
621.519294
 20
341.118882
 30
0.0
 11
620.56114
 21
341.411773
 31
0.0
  0
ARC
  5
2E4
330
1F
100
AcDbEntity
  8
002
 62
     3
370
    30
100
AcDbCircle
 10
620.268678
 20
340.455494
 30
0.0
 40
0.9999197017761513
100
AcDbArc
 50
72.994617
 51
113.280045
  0
LINE
  5
2E5
330
1F
100
AcDbEntity
  8
002
 62
     3
370
    30
100
AcDbLine
 10
610.123175
 20
338.246973
 30
0.0
 11
610.123175
 21
335.976729
 31
0.0
  0
LINE
  5
2E6
330
1F
100
AcDbEntity
  8
002
 62
     3
370
    30
100
AcDbLine
 10
612.268175
 20
338.246973
 30
0.0
 11
612.268175
 21
335.976729
 31
0.0
  0
LINE
  5
2E7
330
1F
100
AcDbEntity
  8
002
 62
     3
370
    30
100
AcDbLine
 10
617.108175
 20
338.246973
 30
0.0
 11
617.108175
 21
335.976729
 31
0.0
  0
LINE
  5
2E8
330
1F
100
AcDbEntity
  8
002
 62
     3
370
    30
100
AcDbLine
 10
619.253175
 20
338.246973
 30
0.0
 11
619.253175
 21
335.976729
 31
0.0
  0
LINE
  5
2E9
330
1F
100
AcDbEntity
  8
002
  6
CENTER
 62
    40
370
     9
100
AcDbLine
 10
612.129618
 20
341.915353
 30
0.0
 11
625.741604
 21
345.562673
 31
0.0
  0
LINE
  5
2EA
330
1F
100
AcDbEntity
  8
002
  6
CENTER
 62
    40
370
     9
100
AcDbLine
 10
624.688175
 20
260.242603
 30
0.0
 11
624.688175
 21
348.307022
 31
0.0
  0
ARC
  5
2EB
330
1F
100
AcDbEntity
  8
002
 62
     3
370
    30
100
AcDbCircle
 10
607.863449
 20
337.573176
 30
0.0
 40
5.0
100
AcDbArc
 50
185.0
 51
270.0
  0
LINE
  5
2EC
330
1F
100
AcDbEntity
  8
002
  6
CENTER
 62
    40
370
     9
100
AcDbLine
 10
614.688175
 20
348.224592
 30
0.0
 11
614.688175
 21
320.236571
 31
0.0
  0
LINE
  5
2ED
330
1F
100
AcDbEntity
  8
002
 62
     3
370
    30
100
AcDbLine
 10
492.869531
 20
684.575287
 30
0.0
 11
472.869531
 21
684.575287
 31
0.0
  0
LINE
  5
2EE
330
1F
100
AcDbEntity
  8
002
 62
     3
370
    30
100
AcDbLine
 10
468.869531
 20
694.575287
 30
0.0
 11
466.869531
 21
696.575287
 31
0.0
  0
LINE
  5
2EF
330
1F
100
AcDbEntity
  8
002
 62
     3
370
    30
100
AcDbLine
 10
466.869531
 20
696.575287
 30
0.0
 11
466.869531
 21
751.575287
 31
0.0
  0
LINE
  5
2F0
330
1F
100
AcDbEntity
  8
002
 62
     3
370
    30
100
AcDbLine
 10
466.869531
 20
751.575287
 30
0.0
 11
469.869531
 21
754.575287
 31
0.0
  0
LINE
  5
2F1
330
1F
100
AcDbEntity
  8
002
 62
     3
370
    30
100
AcDbLine
 10
469.869531
 20
754.575287
 30
0.0
 11
495.869531
 21
754.575287
 31
0.0
  0
LINE
  5
2F2
330
1F
100
AcDbEntity
  8
002
 62
     3
370
    30
100
AcDbLine
 10
495.869531
 20
754.575287
 30
0.0
 11
498.869531
 21
751.575287
 31
0.0
  0
LINE
  5
2F3
330
1F
100
AcDbEntity
  8
002
 62
     3
370
    30
100
AcDbLine
 10
498.869531
 20
751.575287
 30
0.0
 11
498.869531
 21
696.575287
 31
0.0
  0
LINE
  5
2F4
330
1F
100
AcDbEntity
  8
002
 62
     3
370
    30
100
AcDbLine
 10
498.869531
 20
696.575287
 30
0.0
 11
496.869531
 21
694.575287
 31
0.0
  0
LINE
  5
2F5
330
1F
100
AcDbEntity
  8
002
 62
     3
370
    30
100
AcDbLine
 10
466.869531
 20
696.575287
 30
0.0
 11
498.869531
 21
696.575287
 31
0.0
  0
LINE
  5
2F6
330
1F
100
AcDbEntity
  8
002
 62
     3
370
    30
100
AcDbLine
 10
490.869531
 20
721.575287
 30
0.0
 11
474.869531
 21
721.575287
 31
0.0
  0
ARC
  5
2F7
330
1F
100
AcDbEntity
  8
002
 62
     3
370
    30
100
AcDbCircle
 10
475.876431
 20
726.472787
 30
0.0
 40
4.999945705705185
100
AcDbArc
 50
202.30297
 51
258.382178
  0
LINE
  5
2F8
330
1F
100
AcDbEntity
  8
002
 62
     3
370
    30
100
AcDbLine
 10
471.250531
 20
724.575287
 30
0.0
 11
471.250531
 21
751.575287
 31
0.0
  0
LINE
  5
2F9
330
1F
100
AcDbEntity
  8
002
 62
     3
370
    30
100
AcDbLine
 10
471.250531
 20
751.575287
 30
0.0
 11
475.123531
 21
754.575287
 31
0.0
  0
LINE
  5
2FA
330
1F
100
AcDbEntity
  8
002
 62
     3
370
    30
100
AcDbLine
 10
471.250531
 20
751.575287
 30
0.0
 11
466.869531
 21
751.575287
 31
0.0
  0
CIRCLE
  5
2FB
330
1F
100
AcDbEntity
  8
002
 62
     3
370
    30
100
AcDbCircle
 10
482.869531
 20
739.575287
 30
0.0
 40
7.5
  0
LINE
  5
2FC
330
1F
100
AcDbEntity
  8
002
 62
     3
370
    30
100
AcDbLine
 10
471.250531
 20
724.575287
 30
0.0
 11
494.488431
 21
724.575287
 31
0.0
  0
ARC
  5
2FD
330
1F
100
AcDbEntity
  8
002
 62
     3
370
    30
100
AcDbCircle
 10
489.862531
 20
726.472787
 30
0.0
 40
4.999955524802121
100
AcDbArc
 50
281.618944
 51
337.69703
  0
LINE
  5
2FE
330
1F
100
AcDbEntity
  8
002
 62
     3
370
    30
100
AcDbLine
 10
494.488431
 20
724.575287
 30
0.0
 11
494.488431
 21
751.575287
 31
0.0
  0
LINE
  5
2FF
330
1F
100
AcDbEntity
  8
002
 62
     3
370
    30
100
AcDbLine
 10
494.488431
 20
751.575287
 30
0.0
 11
498.869531
 21
751.575287
 31
0.0
  0
LINE
  5
300
330
1F
100
AcDbEntity
  8
002
 62
     3
370
    30
100
AcDbLine
 10
494.488431
 20
751.575287
 30
0.0
 11
490.615431
 21
754.575287
 31
0.0
  0
LINE
  5
301
330
1F
100
AcDbEntity
  8
002
  6
CENTER
 62
    40
370
     9
100
AcDbLine
 10
495.699131
 20
739.575287
 30
0.0
 11
470.553231
 21
739.575287
 31
0.0
  0
CIRCLE
  5
302
330
1F
100
AcDbEntity
  8
002
 62
     3
370
    30
100
AcDbCircle
 10
482.869531
 20
849.575287
 30
0.0
 40
16.0
  0
ARC
  5
303
330
1F
100
AcDbEntity
  8
002
 62
     3
370
    30
100
AcDbCircle
 10
482.869531
 20
849.575287
 30
0.0
 40
12.99999827846152
100
AcDbArc
 50
302.204215
 51
57.795785
  0
LINE
  5
304
330
1F
100
AcDbEntity
  8
002
 62
     3
370
    30
100
AcDbLine
 10
471.250531
 20
860.575287
 30
0.0
 11
494.488431
 21
860.575287
 31
0.0
  0
ARC
  5
305
330
1F
100
AcDbEntity
  8
002
 62
     3
370
    30
100
AcDbCircle
 10
482.869531
 20
849.575287
 30
0.0
 40
13.00005157259
100
AcDbArc
 50
122.204588
 51
237.795412
  0
LINE
  5
306
330
1F
100
AcDbEntity
  8
002
 62
     3
370
    30
100
AcDbLine
 10
494.488431
 20
838.575287
 30
0.0
 11
471.250531
 21
838.575287
 31
0.0
  0
LINE
  5
307
330
1F
100
AcDbEntity
  8
002
 62
     3
370
    30
100
AcDbLine
 10
496.869531
 20
694.575287
 30
0.0
 11
468.869531
 21
694.575287
 31
0.0
  0
LINE
  5
308
330
1F
100
AcDbEntity
  8
002
  6
HIDDEN
 62
    40
370
     9
100
AcDbLine
 10
490.369531
 20
860.575287
 30
0.0
 11
490.369531
 21
838.575287
 31
0.0
  0
LINE
  5
309
330
1F
100
AcDbEntity
  8
002
  6
HIDDEN
 62
    40
370
     9
100
AcDbLine
 10
475.369531
 20
860.575287
 30
0.0
 11
475.369531
 21
838.575287
 31
0.0
  0
LINE
  5
30A
330
1F
100
AcDbEntity
  8
002
  6
CENTER
 62
    40
370
     9
100
AcDbLine
 10
482.869531
 20
875.575287
 30
0.0
 11
482.869531
 21
823.575287
 31
0.0
  0
LINE
  5
30B
330
1F
100
AcDbEntity
  8
002
  6
CENTER
 62
    40
370
     9
100
AcDbLine
 10
508.869531
 20
849.575287
 30
0.0
 11
456.869531
 21
849.575287
 31
0.0
  0
LINE
  5
30C
330
1F
100
AcDbEntity
  8
002
 62
     3
370
    30
100
AcDbLine
 10
716.271661
 20
670.263324
 30
0.0
 11
716.271661
 21
697.269355
 31
0.0
  0
LINE
  5
30D
330
1F
100
AcDbEntity
  8
002
 62
     3
370
    30
100
AcDbLine
 10
696.271661
 20
697.269355
 30
0.0
 11
696.271661
 21
670.263324
 31
0.0
  0
LINE
  5
30E
330
1F
100
AcDbEntity
  8
002
 62
    40
370
     9
100
AcDbLine
 10
714.271661
 20
670.263324
 30
0.0
 11
714.271661
 21
687.269355
 31
0.0
  0
LINE
  5
30F
330
1F
100
AcDbEntity
  8
002
 62
    40
370
     9
100
AcDbLine
 10
698.271661
 20
687.269355
 30
0.0
 11
698.271661
 21
670.263324
 31
0.0
  0
LINE
  5
310
330
1F
100
AcDbEntity
  8
002
  6
CENTER
 62
    40
370
     9
100
AcDbLine
 10
706.271661
 20
729.269355
 30
0.0
 11
706.271661
 21
670.263324
 31
0.0
  0
CIRCLE
  5
311
330
1F
100
AcDbEntity
  8
002
 62
     3
370
    30
100
AcDbCircle
 10
706.271661
 20
849.575287
 30
0.0
 40
50.0
  0
CIRCLE
  5
312
330
1F
100
AcDbEntity
  8
002
 62
     3
370
    30
100
AcDbCircle
 10
706.271661
 20
817.075287
 30
0.0
 40
4.5
  0
CIRCLE
  5
313
330
1F
100
AcDbEntity
  8
002
 62
     3
370
    30
100
AcDbCircle
 10
738.771661
 20
849.575287
 30
0.0
 40
4.5
  0
CIRCLE
  5
314
330
1F
100
AcDbEntity
  8
002
 62
     3
370
    30
100
AcDbCircle
 10
706.271661
 20
849.575287
 30
0.0
 40
6.188
  0
CIRCLE
  5
315
330
1F
100
AcDbEntity
  8
002
 62
     3
370
    30
100
AcDbCircle
 10
673.771661
 20
849.575287
 30
0.0
 40
4.5
  0
CIRCLE
  5
316
330
1F
100
AcDbEntity
  8
002
 62
     3
370
    30
100
AcDbCircle
 10
706.271661
 20
882.075187
 30
0.0
 40
4.5
  0
CIRCLE
  5
317
330
1F
100
AcDbEntity
  8
002
 62
    40
370
     9
100
AcDbCircle
 10
706.271661
 20
849.575287
 30
0.0
 40
7.0
  0
CIRCLE
  5
318
330
1F
100
AcDbEntity
  8
002
  6
CENTER
 62
    40
370
     9
100
AcDbCircle
 10
706.271661
 20
849.575287
 30
0.0
 40
32.5
  0
LINE
  5
319
330
1F
100
AcDbEntity
  8
002
 62
     3
370
    30
100
AcDbLine
 10
690.271661
 20
708.269355
 30
0.0
 11
690.271661
 21
698.269355
 31
0.0
  0
LINE
  5
31A
330
1F
100
AcDbEntity
  8
002
 62
     3
370
    30
100
AcDbLine
 10
690.271661
 20
698.269355
 30
0.0
 11
691.271661
 21
697.269355
 31
0.0
  0
ARC
  5
31B
330
1F
100
AcDbEntity
  8
002
 62
     3
370
    30
100
AcDbCircle
 10
689.271661
 20
708.269355
 30
0.0
 40
1.0
100
AcDbArc
 50
0.0
 51
90.0
  0
LINE
  5
31C
330
1F
100
AcDbEntity
  8
002
 62
     3
370
    30
100
AcDbLine
 10
691.271661
 20
697.269355
 30
0.0
 11
721.231361
 21
697.269355
 31
0.0
  0
LINE
  5
31D
330
1F
100
AcDbEntity
  8
002
 62
     3
370
    30
100
AcDbLine
 10
656.271661
 20
718.269355
 30
0.0
 11
657.271661
 21
719.269355
 31
0.0
  0
LINE
  5
31E
330
1F
100
AcDbEntity
  8
002
 62
     3
370
    30
100
AcDbLine
 10
657.271661
 20
709.269355
 30
0.0
 11
656.271661
 21
710.269355
 31
0.0
  0
LINE
  5
31F
330
1F
100
AcDbEntity
  8
002
 62
     3
370
    30
100
AcDbLine
 10
657.271661
 20
719.269355
 30
0.0
 11
755.271661
 21
719.269355
 31
0.0
  0
LINE
  5
320
330
1F
100
AcDbEntity
  8
002
 62
     3
370
    30
100
AcDbLine
 10
755.271661
 20
709.269355
 30
0.0
 11
657.271661
 21
709.269355
 31
0.0
  0
LINE
  5
321
330
1F
100
AcDbEntity
  8
002
 62
     3
370
    30
100
AcDbLine
 10
656.271661
 20
710.269355
 30
0.0
 11
656.271661
 21
718.269355
 31
0.0
  0
LINE
  5
322
330
1F
100
AcDbEntity
  8
002
 62
     3
370
    30
100
AcDbLine
 10
721.271661
 20
697.269355
 30
0.0
 11
722.271661
 21
698.269355
 31
0.0
  0
LINE
  5
323
330
1F
100
AcDbEntity
  8
002
 62
     3
370
    30
100
AcDbLine
 10
722.271661
 20
698.269355
 30
0.0
 11
722.271661
 21
708.269355
 31
0.0
  0
ARC
  5
324
330
1F
100
AcDbEntity
  8
002
 62
     3
370
    30
100
AcDbCircle
 10
723.271661
 20
708.269355
 30
0.0
 40
1.0
100
AcDbArc
 50
90.0
 51
180.0
  0
LINE
  5
325
330
1F
100
AcDbEntity
  8
002
 62
     3
370
    30
100
AcDbLine
 10
755.271661
 20
719.269355
 30
0.0
 11
756.271661
 21
718.269355
 31
0.0
  0
LINE
  5
326
330
1F
100
AcDbEntity
  8
002
 62
     3
370
    30
100
AcDbLine
 10
756.271661
 20
718.269355
 30
0.0
 11
756.271661
 21
710.269355
 31
0.0
  0
LINE
  5
327
330
1F
100
AcDbEntity
  8
002
 62
     3
370
    30
100
AcDbLine
 10
756.271661
 20
710.269355
 30
0.0
 11
755.271661
 21
709.269355
 31
0.0
  0
LINE
  5
328
330
1F
100
AcDbEntity
  8
002
  6
CENTER
 62
    40
370
     9
100
AcDbLine
 10
673.771661
 20
724.269355
 30
0.0
 11
673.771661
 21
704.269355
 31
0.0
  0
LINE
  5
329
330
1F
100
AcDbEntity
  8
002
  6
CENTER
 62
    40
370
     9
100
AcDbLine
 10
738.771661
 20
704.269355
 30
0.0
 11
738.771661
 21
724.269355
 31
0.0
  0
LINE
  5
32A
330
1F
100
AcDbEntity
  8
002
  6
CENTER
 62
    40
370
     9
100
AcDbLine
 10
651.271661
 20
849.575287
 30
0.0
 11
761.271661
 21
849.575287
 31
0.0
  0
LINE
  5
32B
330
1F
100
AcDbEntity
  8
002
  6
CENTER
 62
    40
370
     9
100
AcDbLine
 10
706.271661
 20
794.575287
 30
0.0
 11
706.271661
 21
904.575287
 31
0.0
  0
LINE
  5
32C
330
1F
100
AcDbEntity
  8
002
 62
     3
370
    30
100
AcDbLine
 10
492.869531
 20
670.263324
 30
0.0
 11
492.869531
 21
694.575287
 31
0.0
  0
LINE
  5
32D
330
1F
100
AcDbEntity
  8
002
 62
     3
370
    30
100
AcDbLine
 10
472.869531
 20
694.575287
 30
0.0
 11
472.869531
 21
670.263324
 31
0.0
  0
LINE
  5
32E
330
1F
100
AcDbEntity
  8
002
 62
    40
370
     9
100
AcDbLine
 10
490.869531
 20
670.263324
 30
0.0
 11
490.869531
 21
684.575287
 31
0.0
  0
LINE
  5
32F
330
1F
100
AcDbEntity
  8
002
 62
    40
370
     9
100
AcDbLine
 10
474.869531
 20
684.575287
 30
0.0
 11
474.869531
 21
670.263324
 31
0.0
  0
LINE
  5
330
330
1F
100
AcDbEntity
  8
002
  6
CENTER
 62
    40
370
     9
100
AcDbLine
 10
482.869531
 20
764.575287
 30
0.0
 11
482.869531
 21
670.263324
 31
0.0
  0
LINE
  5
331
330
1F
100
AcDbEntity
  8
002
  6
HIDDEN
 62
    40
370
     9
100
AcDbLine
 10
489.869531
 20
714.575287
 30
0.0
 11
489.869531
 21
694.575287
 31
0.0
  0
LINE
  5
332
330
1F
100
AcDbEntity
  8
002
  6
HIDDEN
 62
    40
370
     9
100
AcDbLine
 10
475.869531
 20
714.575287
 30
0.0
 11
489.869531
 21
714.575287
 31
0.0
  0
LINE
  5
333
330
1F
100
AcDbEntity
  8
002
  6
HIDDEN
 62
    40
370
     9
100
AcDbLine
 10
475.869531
 20
714.575287
 30
0.0
 11
475.869531
 21
694.575287
 31
0.0
  0
LINE
  5
334
330
1F
100
AcDbEntity
  8
002
  6
HIDDEN
 62
    40
370
     9
100
AcDbLine
 10
476.681531
 20
694.575287
 30
0.0
 11
476.681531
 21
714.575287
 31
0.0
  0
LINE
  5
335
330
1F
100
AcDbEntity
  8
002
  6
HIDDEN
 62
    40
370
     9
100
AcDbLine
 10
489.057531
 20
714.575287
 30
0.0
 11
489.057531
 21
694.575287
 31
0.0
  0
LINE
  5
336
330
1F
100
AcDbEntity
  8
002
 62
     3
370
    30
100
AcDbLine
 10
716.271661
 20
687.269355
 30
0.0
 11
696.271661
 21
687.269355
 31
0.0
  0
LINE
  5
337
330
1F
100
AcDbEntity
  8
002
  6
HIDDEN
 62
    40
370
     9
100
AcDbLine
 10
713.271661
 20
717.269355
 30
0.0
 11
713.271661
 21
697.269355
 31
0.0
  0
LINE
  5
338
330
1F
100
AcDbEntity
  8
002
  6
HIDDEN
 62
    40
370
     9
100
AcDbLine
 10
699.271661
 20
717.269355
 30
0.0
 11
713.271661
 21
717.269355
 31
0.0
  0
LINE
  5
339
330
1F
100
AcDbEntity
  8
002
  6
HIDDEN
 62
    40
370
     9
100
AcDbLine
 10
699.271661
 20
717.269355
 30
0.0
 11
699.271661
 21
697.269355
 31
0.0
  0
LINE
  5
33A
330
1F
100
AcDbEntity
  8
002
  6
HIDDEN
 62
    40
370
     9
100
AcDbLine
 10
700.083661
 20
697.269355
 30
0.0
 11
700.083661
 21
717.269355
 31
0.0
  0
LINE
  5
33B
330
1F
100
AcDbEntity
  8
002
  6
HIDDEN
 62
    40
370
     9
100
AcDbLine
 10
712.459661
 20
717.269355
 30
0.0
 11
712.459661
 21
697.269355
 31
0.0
  0
LINE
  5
33C
330
1F
100
AcDbEntity
  8
002
 62
     3
370
    30
100
AcDbLine
 10
725.683198
 20
344.573176
 30
0.0
 11
724.283198
 21
343.173176
 31
0.0
  0
LINE
  5
33D
330
1F
100
AcDbEntity
  8
002
 62
     3
370
    30
100
AcDbLine
 10
725.683198
 20
344.573176
 30
0.0
 11
754.283198
 21
344.573176
 31
0.0
  0
LINE
  5
33E
330
1F
100
AcDbEntity
  8
002
  6
CENTER
 62
    40
370
     9
100
AcDbLine
 10
786.283198
 20
280.903978
 30
0.0
 11
786.283198
 21
328.144472
 31
0.0
  0
LINE
  5
33F
330
1F
100
AcDbEntity
  8
002
  6
CENTER
 62
    40
370
     9
100
AcDbLine
 10
837.483632
 20
305.073176
 30
0.0
 11
697.888609
 21
305.073176
 31
0.0
  0
LINE
  5
340
330
1F
100
AcDbEntity
  8
002
 62
     3
370
    30
100
AcDbLine
 10
719.842397
 20
343.473176
 30
0.0
 11
754.283198
 21
343.473176
 31
0.0
  0
LINE
  5
341
330
1F
100
AcDbEntity
  8
002
 62
     3
370
    30
100
AcDbLine
 10
723.227325
 20
345.073176
 30
0.0
 11
701.339072
 21
345.073176
 31
0.0
  0
LINE
  5
342
330
1F
100
AcDbEntity
  8
002
 62
     3
370
    30
100
AcDbLine
 10
803.339072
 20
265.073176
 30
0.0
 11
825.227325
 21
265.073176
 31
0.0
  0
LINE
  5
343
330
1F
100
AcDbEntity
  8
002
 62
     3
370
    30
100
AcDbLine
 10
825.227325
 20
265.073176
 30
0.0
 11
826.624156
 21
305.073176
 31
0.0
  0
LINE
  5
344
330
1F
100
AcDbEntity
  8
002
 62
     3
370
    30
100
AcDbLine
 10
803.339072
 20
265.073176
 30
0.0
 11
803.280705
 21
266.744564
 31
0.0
  0
LINE
  5
345
330
1F
100
AcDbEntity
  8
002
 62
     3
370
    30
100
AcDbLine
 10
701.339072
 20
345.073176
 30
0.0
 11
699.942241
 21
305.073176
 31
0.0
  0
LINE
  5
346
330
1F
100
AcDbEntity
  8
002
 62
     3
370
    30
100
AcDbLine
 10
723.227325
 20
345.073176
 30
0.0
 11
723.283198
 21
343.473176
 31
0.0
  0
LINE
  5
347
330
1F
100
AcDbEntity
  8
002
 62
     3
370
    30
100
AcDbLine
 10
701.339072
 20
265.073176
 30
0.0
 11
699.942241
 21
305.073176
 31
0.0
  0
LINE
  5
348
330
1F
100
AcDbEntity
  8
002
  6
CENTER
 62
    40
370
     9
100
AcDbLine
 10
712.283198
 20
260.242603
 30
0.0
 11
712.283198
 21
348.307022
 31
0.0
  0
LINE
  5
349
330
1F
100
AcDbEntity
  8
002
 62
     3
370
    30
100
AcDbLine
 10
701.339072
 20
265.073176
 30
0.0
 11
723.227325
 21
265.073176
 31
0.0
  0
LINE
  5
34A
330
1F
100
AcDbEntity
  8
002
 62
     3
370
    30
100
AcDbLine
 10
792.359864
 20
271.664374
 30
0.0
 11
791.92319
 21
266.673176
 31
0.0
  0
LINE
  5
34B
330
1F
100
AcDbEntity
  8
002
 62
     3
370
    30
100
AcDbLine
 10
719.842397
 20
343.473176
 30
0.0
 11
717.66835
 21
318.623704
 31
0.0
  0
LINE
  5
34C
330
1F
100
AcDbEntity
  8
002
 62
     3
370
    30
100
AcDbLine
 10
717.66835
 20
291.522647
 30
0.0
 11
719.842397
 21
266.673176
 31
0.0
  0
LINE
  5
34D
330
1F
100
AcDbEntity
  8
002
 62
     3
370
    30
100
AcDbLine
 10
723.227325
 20
265.073176
 30
0.0
 11
723.283198
 21
266.673176
 31
0.0
  0
LINE
  5
34E
330
1F
100
AcDbEntity
  8
002
 62
     3
370
    30
100
AcDbLine
 10
792.477499
 20
273.008954
 30
0.0
 11
792.359864
 21
271.664374
 31
0.0
  0
LINE
  5
34F
330
1F
100
AcDbEntity
  8
002
 62
     3
370
    30
100
AcDbLine
 10
753.783198
 20
311.073176
 30
0.0
 11
700.151765
 21
311.073176
 31
0.0
  0
ARC
  5
350
330
1F
100
AcDbEntity
  8
002
 62
     3
370
    30
100
AcDbCircle
 10
712.426108
 20
316.073176
 30
0.0
 40
5.0
100
AcDbArc
 50
270.0
 51
355.0
  0
LINE
  5
351
330
1F
100
AcDbEntity
  8
002
 62
     3
370
    30
100
AcDbLine
 10
717.66835
 20
318.623704
 30
0.0
 11
717.407082
 21
315.637397
 31
0.0
  0
LINE
  5
352
330
1F
100
AcDbEntity
  8
002
 62
     3
370
    30
100
AcDbLine
 10
753.783198
 20
299.073176
 30
0.0
 11
700.151765
 21
299.073176
 31
0.0
  0
ARC
  5
353
330
1F
100
AcDbEntity
  8
002
 62
     3
370
    30
100
AcDbCircle
 10
712.426108
 20
294.073176
 30
0.0
 40
5.0
100
AcDbArc
 50
5.0
 51
90.0
  0
LINE
  5
354
330
1F
100
AcDbEntity
  8
002
 62
     3
370
    30
100
AcDbLine
 10
717.66835
 20
291.522647
 30
0.0
 11
717.407082
 21
294.508954
 31
0.0
  0
LINE
  5
355
330
1F
100
AcDbEntity
  8
002
 62
     3
370
    30
100
AcDbLine
 10
754.283198
 20
266.673176
 30
0.0
 11
808.740617
 21
266.673176
 31
0.0
  0
LINE
  5
356
330
1F
100
AcDbEntity
  8
002
 62
     3
370
    30
100
AcDbLine
 10
754.283198
 20
266.673176
 30
0.0
 11
719.842397
 21
266.673176
 31
0.0
  0
LINE
  5
357
330
1F
100
AcDbEntity
  8
002
 62
     3
370
    30
100
AcDbLine
 10
818.783198
 20
311.073176
 30
0.0
 11
826.414631
 21
311.073176
 31
0.0
  0
LINE
  5
358
330
1F
100
AcDbEntity
  8
002
 62
     3
370
    30
100
AcDbLine
 10
818.783198
 20
299.073176
 30
0.0
 11
826.414631
 21
299.073176
 31
0.0
  0
ARC
  5
359
330
1F
100
AcDbEntity
  8
002
 62
     3
370
    30
100
AcDbCircle
 10
816.283198
 20
333.880169
 30
0.0
 40
3.0
100
AcDbArc
 50
180.0
 51
266.347819
  0
LINE
  5
35A
330
1F
100
AcDbEntity
  8
002
 62
     3
370
    30
100
AcDbLine
 10
816.0921
 20
330.886262
 30
0.0
 11
821.22388
 21
330.558705
 31
0.0
  0
ARC
  5
35B
330
1F
100
AcDbEntity
  8
002
 62
     3
370
    30
100
AcDbCircle
 10
820.905383
 20
325.568859
 30
0.0
 40
5.0
100
AcDbArc
 50
2.0
 51
86.347819
  0
LINE
  5
35C
330
1F
100
AcDbEntity
  8
002
 62
     3
370
    30
100
AcDbLine
 10
813.283198
 20
276.266182
 30
0.0
 11
813.283198
 21
275.073176
 31
0.0
  0
LINE
  5
35D
330
1F
100
AcDbEntity
  8
002
 62
     3
370
    30
100
AcDbLine
 10
816.0921
 20
279.26009
 30
0.0
 11
821.22388
 21
279.587646
 31
0.0
  0
ARC
  5
35E
330
1F
100
AcDbEntity
  8
002
 62
     3
370
    30
100
AcDbCircle
 10
820.905383
 20
284.577492
 30
0.0
 40
5.0
100
AcDbArc
 50
273.652181
 51
358.0
  0
ARC
  5
35F
330
1F
100
AcDbEntity
  8
002
 62
     3
370
    30
100
AcDbCircle
 10
797.239751
 20
270.073176
 30
0.0
 40
5.0
100
AcDbArc
 50
90.0
 51
175.0
  0
LINE
  5
360
330
1F
100
AcDbEntity
  8
002
 62
     3
370
    30
100
AcDbLine
 10
797.239751
 20
275.073176
 30
0.0
 11
813.283198
 21
275.073176
 31
0.0
  0
ARC
  5
361
330
1F
100
AcDbEntity
  8
002
 62
     3
370
    30
100
AcDbCircle
 10
816.283198
 20
276.266182
 30
0.0
 40
3.0
100
AcDbArc
 50
93.652181
 51
180.0
  0
LINE
  5
362
330
1F
100
AcDbEntity
  8
002
 62
     3
370
    30
100
AcDbLine
 10
809.475522
 20
275.073176
 30
0.0
 11
808.740617
 21
266.673176
 31
0.0
  0
LINE
  5
363
330
1F
100
AcDbEntity
  8
002
 62
     3
370
    30
100
AcDbLine
 10
758.783198
 20
282.573176
 30
0.0
 11
758.783198
 21
327.573176
 31
0.0
  0
LINE
  5
364
330
1F
100
AcDbEntity
  8
002
 62
     3
370
    30
100
AcDbLine
 10
808.783198
 20
277.573176
 30
0.0
 11
763.783198
 21
277.573176
 31
0.0
  0
LINE
  5
365
330
1F
100
AcDbEntity
  8
002
 62
     3
370
    30
100
AcDbLine
 10
813.783198
 20
327.573176
 30
0.0
 11
813.783198
 21
282.573176
 31
0.0
  0
LINE
  5
366
330
1F
100
AcDbEntity
  8
002
 62
     3
370
    30
100
AcDbLine
 10
808.783198
 20
332.573176
 30
0.0
 11
763.783198
 21
332.573176
 31
0.0
  0
ARC
  5
367
330
1F
100
AcDbEntity
  8
002
 62
     3
370
    30
100
AcDbCircle
 10
763.783198
 20
327.573176
 30
0.0
 40
5.0
100
AcDbArc
 50
90.0
 51
180.0
  0
ARC
  5
368
330
1F
100
AcDbEntity
  8
002
 62
     3
370
    30
100
AcDbCircle
 10
763.783198
 20
282.573176
 30
0.0
 40
5.0
100
AcDbArc
 50
180.0
 51
270.0
  0
ARC
  5
369
330
1F
100
AcDbEntity
  8
002
 62
     3
370
    30
100
AcDbCircle
 10
808.783198
 20
282.573176
 30
0.0
 40
5.0
100
AcDbArc
 50
270.0
 51
0.0
  0
ARC
  5
36A
330
1F
100
AcDbEntity
  8
002
 62
     3
370
    30
100
AcDbCircle
 10
808.783198
 20
327.573176
 30
0.0
 40
5.0
100
AcDbArc
 50
0.0
 51
90.0
  0
ARC
  5
36B
330
1F
100
AcDbEntity
  8
002
 62
     3
370
    30
100
AcDbCircle
 10
818.783198
 20
316.073176
 30
0.0
 40
5.0
100
AcDbArc
 50
180.0
 51
270.0
  0
ARC
  5
36C
330
1F
100
AcDbEntity
  8
002
 62
     3
370
    30
100
AcDbCircle
 10
818.783198
 20
294.073176
 30
0.0
 40
5.0
100
AcDbArc
 50
90.0
 51
180.0
  0
ARC
  5
36D
330
1F
100
AcDbEntity
  8
002
 62
     3
370
    30
100
AcDbCircle
 10
797.458473
 20
272.573176
 30
0.0
 40
5.0
100
AcDbArc
 50
90.0
 51
175.0
  0
ARC
  5
36E
330
1F
100
AcDbEntity
  8
002
 62
     3
370
    30
100
AcDbCircle
 10
753.783198
 20
316.073176
 30
0.0
 40
5.0
100
AcDbArc
 50
270.0
 51
0.0
  0
ARC
  5
36F
330
1F
100
AcDbEntity
  8
002
 62
     3
370
    30
100
AcDbCircle
 10
753.783198
 20
294.073176
 30
0.0
 40
5.0
100
AcDbArc
 50
0.0
 51
90.0
  0
LINE
  5
370
330
1F
100
AcDbEntity
  8
002
 62
     3
370
    30
100
AcDbLine
 10
782.883198
 20
344.573176
 30
0.0
 11
754.283198
 21
344.573176
 31
0.0
  0
LINE
  5
371
330
1F
100
AcDbEntity
  8
002
 62
     3
370
    30
100
AcDbLine
 10
782.883198
 20
344.573176
 30
0.0
 11
784.283198
 21
343.173176
 31
0.0
  0
LINE
  5
372
330
1F
100
AcDbEntity
  8
002
 62
     3
370
    30
100
AcDbLine
 10
780.033198
 20
347.473176
 30
0.0
 11
780.033198
 21
352.473176
 31
0.0
  0
LINE
  5
373
330
1F
100
AcDbEntity
  8
002
 62
     3
370
    30
100
AcDbLine
 10
788.533198
 20
352.473176
 30
0.0
 11
788.533198
 21
347.473176
 31
0.0
  0
LINE
  5
374
330
1F
100
AcDbEntity
  8
002
 62
     3
370
    30
100
AcDbLine
 10
791.783198
 20
347.473176
 30
0.0
 11
716.783198
 21
347.473176
 31
0.0
  0
LINE
  5
375
330
1F
100
AcDbEntity
  8
002
 62
     3
370
    30
100
AcDbLine
 10
716.783198
 20
347.473176
 30
0.0
 11
716.783198
 21
345.073176
 31
0.0
  0
LINE
  5
376
330
1F
100
AcDbEntity
  8
002
 62
     3
370
    30
100
AcDbLine
 10
720.033198
 20
347.473176
 30
0.0
 11
720.033198
 21
352.473176
 31
0.0
  0
LINE
  5
377
330
1F
100
AcDbEntity
  8
002
 62
     3
370
    30
100
AcDbLine
 10
720.033198
 20
352.473176
 30
0.0
 11
728.533198
 21
352.473176
 31
0.0
  0
LINE
  5
378
330
1F
100
AcDbEntity
  8
002
 62
     3
370
    30
100
AcDbLine
 10
728.533198
 20
352.473176
 30
0.0
 11
728.533198
 21
347.473176
 31
0.0
  0
LINE
  5
379
330
1F
100
AcDbEntity
  8
002
 62
     3
370
    30
100
AcDbLine
 10
730.403798
 20
350.377276
 30
0.0
 11
731.783198
 21
393.473176
 31
0.0
  0
LINE
  5
37A
330
1F
100
AcDbEntity
  8
002
 62
     3
370
    30
100
AcDbLine
 10
731.783198
 20
393.473176
 30
0.0
 11
776.783198
 21
393.473176
 31
0.0
  0
LINE
  5
37B
330
1F
100
AcDbEntity
  8
002
 62
     3
370
    30
100
AcDbLine
 10
776.783198
 20
393.473176
 30
0.0
 11
778.162598
 21
350.377276
 31
0.0
  0
LINE
  5
37C
330
1F
100
AcDbEntity
  8
002
 62
     3
370
    30
100
AcDbLine
 10
780.033198
 20
352.473176
 30
0.0
 11
788.533198
 21
352.473176
 31
0.0
  0
LINE
  5
37D
330
1F
100
AcDbEntity
  8
002
 62
     3
370
    30
100
AcDbLine
 10
791.783198
 20
347.473176
 30
0.0
 11
791.783198
 21
343.473176
 31
0.0
  0
ARC
  5
37E
330
1F
100
AcDbEntity
  8
002
 62
     3
370
    30
100
AcDbCircle
 10
781.161098
 20
350.473176
 30
0.0
 40
3.000033176483255
100
AcDbArc
 50
181.831847
 51
270.0
  0
LINE
  5
37F
330
1F
100
AcDbEntity
  8
002
 62
     3
370
    30
100
AcDbLine
 10
750.033198
 20
352.473176
 30
0.0
 11
750.033198
 21
347.473176
 31
0.0
  0
LINE
  5
380
330
1F
100
AcDbEntity
  8
002
 62
     3
370
    30
100
AcDbLine
 10
750.033198
 20
352.473176
 30
0.0
 11
758.533198
 21
352.473176
 31
0.0
  0
LINE
  5
381
330
1F
100
AcDbEntity
  8
002
 62
     3
370
    30
100
AcDbLine
 10
758.533198
 20
352.473176
 30
0.0
 11
758.533198
 21
347.473176
 31
0.0
  0
ARC
  5
382
330
1F
100
AcDbEntity
  8
002
 62
     3
370
    30
100
AcDbCircle
 10
727.405298
 20
350.473176
 30
0.0
 40
3.0
100
AcDbArc
 50
270.0
 51
358.168153
  0
LINE
  5
383
330
1F
100
AcDbEntity
  8
002
 62
     3
370
    30
100
AcDbLine
 10
732.283198
 20
478.473176
 30
0.0
 11
732.283198
 21
495.473176
 31
0.0
  0
ARC
  5
384
330
1F
100
AcDbEntity
  8
002
 62
     3
370
    30
100
AcDbCircle
 10
735.283198
 20
495.473176
 30
0.0
 40
3.0
100
AcDbArc
 50
90.0
 51
180.0
  0
LINE
  5
385
330
1F
100
AcDbEntity
  8
002
 62
     3
370
    30
100
AcDbLine
 10
735.283198
 20
498.473176
 30
0.0
 11
773.283198
 21
498.473176
 31
0.0
  0
ARC
  5
386
330
1F
100
AcDbEntity
  8
002
 62
     3
370
    30
100
AcDbCircle
 10
773.283198
 20
495.473176
 30
0.0
 40
3.0
100
AcDbArc
 50
0.0
 51
90.0
  0
LINE
  5
387
330
1F
100
AcDbEntity
  8
002
 62
     3
370
    30
100
AcDbLine
 10
776.283198
 20
495.473176
 30
0.0
 11
776.283198
 21
478.473176
 31
0.0
  0
LINE
  5
388
330
1F
100
AcDbEntity
  8
002
 62
     3
370
    30
100
AcDbLine
 10
776.283198
 20
478.473176
 30
0.0
 11
732.283198
 21
478.473176
 31
0.0
  0
LINE
  5
389
330
1F
100
AcDbEntity
  8
002
  6
CENTER
 62
    40
370
     9
100
AcDbLine
 10
784.283198
 20
341.348376
 30
0.0
 11
784.283198
 21
353.627276
 31
0.0
  0
LINE
  5
38A
330
1F
100
AcDbEntity
  8
002
  6
CENTER
 62
    40
370
     9
100
AcDbLine
 10
724.283198
 20
353.627276
 30
0.0
 11
724.283198
 21
341.348376
 31
0.0
  0
LINE
  5
38B
330
1F
100
AcDbEntity
  8
002
 62
     3
370
    30
100
AcDbLine
 10
783.783198
 20
314.323176
 30
0.0
 11
783.783198
 21
309.823176
 31
0.0
  0
LINE
  5
38C
330
1F
100
AcDbEntity
  8
002
 62
     3
370
    30
100
AcDbLine
 10
783.783198
 20
309.823176
 30
0.0
 11
784.033198
 21
309.573176
 31
0.0
  0
LINE
  5
38D
330
1F
100
AcDbEntity
  8
002
 62
     3
370
    30
100
AcDbLine
 10
784.033198
 20
309.573176
 30
0.0
 11
788.533198
 21
309.573176
 31
0.0
  0
LINE
  5
38E
330
1F
100
AcDbEntity
  8
002
 62
     3
370
    30
100
AcDbLine
 10
788.533198
 20
309.573176
 30
0.0
 11
788.783198
 21
309.823176
 31
0.0
  0
LINE
  5
38F
330
1F
100
AcDbEntity
  8
002
 62
     3
370
    30
100
AcDbLine
 10
788.783198
 20
309.823176
 30
0.0
 11
788.783198
 21
314.323176
 31
0.0
  0
LINE
  5
390
330
1F
100
AcDbEntity
  8
002
 62
     3
370
    30
100
AcDbLine
 10
788.783198
 20
314.323176
 30
0.0
 11
788.533198
 21
314.573176
 31
0.0
  0
LINE
  5
391
330
1F
100
AcDbEntity
  8
002
 62
     3
370
    30
100
AcDbLine
 10
788.533198
 20
314.573176
 30
0.0
 11
784.033198
 21
314.573176
 31
0.0
  0
LINE
  5
392
330
1F
100
AcDbEntity
  8
002
 62
     3
370
    30
100
AcDbLine
 10
784.033198
 20
314.573176
 30
0.0
 11
783.783198
 21
314.323176
 31
0.0
  0
ARC
  5
393
330
1F
100
AcDbEntity
  8
002
 62
     3
370
    30
100
AcDbCircle
 10
788.583198
 20
309.773176
 30
0.0
 40
0.1999999999999318
100
AcDbArc
 50
270.0
 51
0.0
  0
ARC
  5
394
330
1F
100
AcDbEntity
  8
002
 62
     3
370
    30
100
AcDbCircle
 10
783.983198
 20
309.773176
 30
0.0
 40
0.2000000000000455
100
AcDbArc
 50
180.0
 51
270.0
  0
ARC
  5
395
330
1F
100
AcDbEntity
  8
002
 62
     3
370
    30
100
AcDbCircle
 10
786.283198
 20
305.073176
 30
0.0
 40
7.499936066394191
100
AcDbArc
 50
109.471393
 51
70.528607
  0
CIRCLE
  5
396
330
1F
100
AcDbEntity
  8
002
 62
     3
370
    30
100
AcDbCircle
 10
786.283198
 20
305.073176
 30
0.0
 40
17.5
  0
ARC
  5
397
330
1F
100
AcDbEntity
  8
002
 62
     3
370
    30
100
AcDbCircle
 10
786.283198
 20
304.028776
 30
0.0
 40
15.66944001073419
100
AcDbArc
 50
306.867484
 51
233.132223
  0
ARC
  5
398
330
1F
100
AcDbEntity
  8
002
 62
     3
370
    30
100
AcDbCircle
 10
778.381998
 20
293.492976
 30
0.0
 40
2.499984673953072
100
AcDbArc
 50
233.131477
 51
314.849286
  0
CIRCLE
  5
399
330
1F
100
AcDbEntity
  8
002
 62
     3
370
    30
100
AcDbCircle
 10
781.908198
 20
289.948176
 30
0.0
 40
1.09375
  0
ARC
  5
39A
330
1F
100
AcDbEntity
  8
002
 62
     3
370
    30
100
AcDbCircle
 10
781.908198
 20
289.948176
 30
0.0
 40
2.499984673952911
100
AcDbArc
 50
0.0
 51
134.849286
  0
LINE
  5
39B
330
1F
100
AcDbEntity
  8
002
 62
     3
370
    30
100
AcDbLine
 10
784.408198
 20
289.948176
 30
0.0
 11
784.408198
 21
287.701576
 31
0.0
  0
LINE
  5
39C
330
1F
100
AcDbEntity
  8
002
 62
     3
370
    30
100
AcDbLine
 10
788.158198
 20
287.701576
 30
0.0
 11
788.158198
 21
289.948176
 31
0.0
  0
CIRCLE
  5
39D
330
1F
100
AcDbEntity
  8
002
 62
     3
370
    30
100
AcDbCircle
 10
790.658198
 20
289.948176
 30
0.0
 40
1.09375
  0
ARC
  5
39E
330
1F
100
AcDbEntity
  8
002
 62
     3
370
    30
100
AcDbCircle
 10
794.184398
 20
293.492976
 30
0.0
 40
2.500020003919964
100
AcDbArc
 50
225.150714
 51
306.866689
  0
ARC
  5
39F
330
1F
100
AcDbEntity
  8
002
 62
     3
370
    30
100
AcDbCircle
 10
790.658198
 20
289.948176
 30
0.0
 40
2.5
100
AcDbArc
 50
45.150714
 51
180.0
  0
LINE
  5
3A0
330
1F
100
AcDbEntity
  8
002
 62
     3
370
    30
100
AcDbLine
 10
825.227325
 20
345.073176
 30
0.0
 11
826.624156
 21
305.073176
 31
0.0
  0
LINE
  5
3A1
330
1F
100
AcDbEntity
  8
002
 62
     3
370
    30
100
AcDbLine
 10
792.359864
 20
338.481978
 30
0.0
 11
791.940318
 21
343.277405
 31
0.0
  0
LINE
  5
3A2
330
1F
100
AcDbEntity
  8
002
 62
     3
370
    30
100
AcDbLine
 10
754.283198
 20
343.473176
 30
0.0
 11
800.283198
 21
343.473176
 31
0.0
  0
LINE
  5
3A3
330
1F
100
AcDbEntity
  8
002
 62
     3
370
    30
100
AcDbLine
 10
813.509797
 20
345.073176
 30
0.0
 11
825.227325
 21
345.073176
 31
0.0
  0
LINE
  5
3A4
330
1F
100
AcDbEntity
  8
002
 62
     3
370
    30
100
AcDbLine
 10
792.359864
 20
338.481978
 30
0.0
 11
792.521273
 21
336.637056
 31
0.0
  0
ARC
  5
3A5
330
1F
100
AcDbEntity
  8
002
 62
     3
370
    30
100
AcDbCircle
 10
797.239751
 20
340.073176
 30
0.0
 40
5.0
100
AcDbArc
 50
185.0
 51
270.0
  0
LINE
  5
3A6
330
1F
100
AcDbEntity
  8
002
 62
     3
370
    30
100
AcDbLine
 10
797.239751
 20
335.073176
 30
0.0
 11
813.283198
 21
335.073176
 31
0.0
  0
LINE
  5
3A7
330
1F
100
AcDbEntity
  8
002
 62
     3
370
    30
100
AcDbLine
 10
813.283198
 20
333.880169
 30
0.0
 11
813.283198
 21
335.073176
 31
0.0
  0
LINE
  5
3A8
330
1F
100
AcDbEntity
  8
002
 62
     3
370
    30
100
AcDbLine
 10
809.475522
 20
335.073176
 30
0.0
 11
808.996244
 21
340.551346
 31
0.0
  0
LINE
  5
3A9
330
1F
100
AcDbEntity
  8
002
 62
     3
370
    30
100
AcDbLine
 10
800.283198
 20
338.573176
 30
0.0
 11
808.283198
 21
338.573176
 31
0.0
  0
LINE
  5
3AA
330
1F
100
AcDbEntity
  8
002
 62
     3
370
    30
100
AcDbLine
 10
799.718198
 20
335.976729
 30
0.0
 11
801.283198
 21
335.073176
 31
0.0
  0
LINE
  5
3AB
330
1F
100
AcDbEntity
  8
002
 62
     3
370
    30
100
AcDbLine
 10
799.793894
 20
338.290676
 30
0.0
 11
800.283198
 21
338.573176
 31
0.0
  0
LINE
  5
3AC
330
1F
100
AcDbEntity
  8
002
 62
     3
370
    30
100
AcDbLine
 10
808.772503
 20
338.290676
 30
0.0
 11
808.283198
 21
338.573176
 31
0.0
  0
LINE
  5
3AD
330
1F
100
AcDbEntity
  8
002
 62
     3
370
    30
100
AcDbLine
 10
808.848198
 20
335.976729
 30
0.0
 11
807.283198
 21
335.073176
 31
0.0
  0
ARC
  5
3AE
330
1F
100
AcDbEntity
  8
002
 62
     3
370
    30
100
AcDbCircle
 10
804.283198
 20
329.433453
 30
0.0
 40
9.139722999187002
100
AcDbArc
 50
74.646222
 51
105.353778
  0
ARC
  5
3AF
330
1F
100
AcDbEntity
  8
002
 62
     3
370
    30
100
AcDbCircle
 10
800.790698
 20
336.647042
 30
0.0
 40
1.926144835808743
100
AcDbArc
 50
56.164408
 51
123.835592
  0
ARC
  5
3B0
330
1F
100
AcDbEntity
  8
002
 62
     3
370
    30
100
AcDbCircle
 10
807.775698
 20
336.647042
 30
0.0
 40
1.926144835808743
100
AcDbArc
 50
56.164408
 51
123.835592
  0
ARC
  5
3B1
330
1F
100
AcDbEntity
  8
002
 62
     3
370
    30
100
AcDbCircle
 10
800.790698
 20
337.576659
 30
0.0
 40
1.926144835808743
100
AcDbArc
 50
236.164408
 51
303.835592
  0
ARC
  5
3B2
330
1F
100
AcDbEntity
  8
002
 62
     3
370
    30
100
AcDbCircle
 10
804.283198
 20
344.790249
 30
0.0
 40
9.139722999187002
100
AcDbArc
 50
254.646222
 51
285.353778
  0
ARC
  5
3B3
330
1F
100
AcDbEntity
  8
002
 62
     3
370
    30
100
AcDbCircle
 10
807.775698
 20
337.576659
 30
0.0
 40
1.926144835808743
100
AcDbArc
 50
236.164408
 51
303.835592
  0
ARC
  5
3B4
330
1F
100
AcDbEntity
  8
002
 62
     3
370
    30
100
AcDbCircle
 10
804.283198
 20
343.073176
 30
0.0
 40
4.0
100
AcDbArc
 50
54.895863
 51
180.0
  0
LINE
  5
3B5
330
1F
100
AcDbEntity
  8
002
 62
     3
370
    30
100
AcDbLine
 10
800.283198
 20
343.473176
 30
0.0
 11
800.283198
 21
338.573176
 31
0.0
  0
LINE
  5
3B6
330
1F
100
AcDbEntity
  8
002
 62
     3
370
    30
100
AcDbLine
 10
808.283198
 20
340.360286
 30
0.0
 11
808.283198
 21
338.573176
 31
0.0
  0
LINE
  5
3B7
330
1F
100
AcDbEntity
  8
002
 62
     3
370
    30
100
AcDbLine
 10
806.511324
 20
346.614808
 30
0.0
 11
808.193648
 21
340.336291
 31
0.0
  0
LINE
  5
3B8
330
1F
100
AcDbEntity
  8
002
 62
     3
370
    30
100
AcDbLine
 10
809.642536
 20
340.724519
 30
0.0
 11
808.193648
 21
340.336291
 31
0.0
  0
LINE
  5
3B9
330
1F
100
AcDbEntity
  8
002
 62
     3
370
    30
100
AcDbLine
 10
807.960212
 20
347.003037
 30
0.0
 11
806.511324
 21
346.614808
 31
0.0
  0
LINE
  5
3BA
330
1F
100
AcDbEntity
  8
002
 62
     3
370
    30
100
AcDbLine
 10
807.960212
 20
347.003037
 30
0.0
 11
809.642536
 21
340.724519
 31
0.0
  0
ARC
  5
3BB
330
1F
100
AcDbEntity
  8
002
 62
     3
370
    30
100
AcDbCircle
 10
808.017208
 20
347.346699
 30
0.0
 40
1.000001999998009
100
AcDbArc
 50
276.720641
 51
317.005383
  0
LINE
  5
3BC
330
1F
100
AcDbEntity
  8
002
 62
     3
370
    30
100
AcDbLine
 10
812.523885
 20
347.449412
 30
0.0
 11
813.817981
 21
342.619783
 31
0.0
  0
ARC
  5
3BD
330
1F
100
AcDbEntity
  8
002
 62
     3
370
    30
100
AcDbCircle
 10
812.53207
 20
344.863415
 30
0.0
 40
0.9999749796870392
100
AcDbArc
 50
326.407997
 51
63.592003
  0
LINE
  5
3BE
330
1F
100
AcDbEntity
  8
002
 62
     3
370
    30
100
AcDbLine
 10
809.626108
 20
346.672955
 30
0.0
 11
810.920203
 21
341.843326
 31
0.0
  0
LINE
  5
3BF
330
1F
100
AcDbEntity
  8
002
 62
     3
370
    30
100
AcDbLine
 10
809.431994
 20
347.3974
 30
0.0
 11
812.523885
 21
347.449412
 31
0.0
  0
LINE
  5
3C0
330
1F
100
AcDbEntity
  8
002
 62
     3
370
    30
100
AcDbLine
 10
808.748628
 20
346.664768
 30
0.0
 11
809.431994
 21
347.3974
 31
0.0
  0
LINE
  5
3C1
330
1F
100
AcDbEntity
  8
002
 62
     3
370
    30
100
AcDbLine
 10
813.817981
 20
342.619783
 30
0.0
 11
811.114317
 21
341.118882
 31
0.0
  0
LINE
  5
3C2
330
1F
100
AcDbEntity
  8
002
 62
     3
370
    30
100
AcDbLine
 10
811.114317
 20
341.118882
 30
0.0
 11
810.156163
 21
341.411773
 31
0.0
  0
ARC
  5
3C3
330
1F
100
AcDbEntity
  8
002
 62
     3
370
    30
100
AcDbCircle
 10
809.863701
 20
340.455494
 30
0.0
 40
0.9999197017761513
100
AcDbArc
 50
72.994617
 51
113.280045
  0
LINE
  5
3C4
330
1F
100
AcDbEntity
  8
002
 62
     3
370
    30
100
AcDbLine
 10
799.718198
 20
338.246973
 30
0.0
 11
799.718198
 21
335.976729
 31
0.0
  0
LINE
  5
3C5
330
1F
100
AcDbEntity
  8
002
 62
     3
370
    30
100
AcDbLine
 10
801.863198
 20
338.246973
 30
0.0
 11
801.863198
 21
335.976729
 31
0.0
  0
LINE
  5
3C6
330
1F
100
AcDbEntity
  8
002
 62
     3
370
    30
100
AcDbLine
 10
806.703198
 20
338.246973
 30
0.0
 11
806.703198
 21
335.976729
 31
0.0
  0
LINE
  5
3C7
330
1F
100
AcDbEntity
  8
002
 62
     3
370
    30
100
AcDbLine
 10
808.848198
 20
338.246973
 30
0.0
 11
808.848198
 21
335.976729
 31
0.0
  0
LINE
  5
3C8
330
1F
100
AcDbEntity
  8
002
  6
CENTER
 62
    40
370
     9
100
AcDbLine
 10
801.724641
 20
341.915353
 30
0.0
 11
815.336628
 21
345.562673
 31
0.0
  0
LINE
  5
3C9
330
1F
100
AcDbEntity
  8
002
  6
CENTER
 62
    40
370
     9
100
AcDbLine
 10
814.283198
 20
260.242603
 30
0.0
 11
814.283198
 21
348.307022
 31
0.0
  0
ARC
  5
3CA
330
1F
100
AcDbEntity
  8
002
 62
     3
370
    30
100
AcDbCircle
 10
797.458473
 20
337.573176
 30
0.0
 40
5.0
100
AcDbArc
 50
185.0
 51
270.0
  0
LINE
  5
3CB
330
1F
100
AcDbEntity
  8
002
  6
CENTER
 62
    40
370
     9
100
AcDbLine
 10
804.283198
 20
348.224592
 30
0.0
 11
804.283198
 21
320.236571
 31
0.0
  0
LINE
  5
3CC
330
1F
100
AcDbEntity
  8
002
 62
     3
370
    30
100
AcDbLine
 10
767.783198
 20
135.073176
 30
0.0
 11
740.782798
 21
135.073176
 31
0.0
  0
LINE
  5
3CD
330
1F
100
AcDbEntity
  8
002
 62
     3
370
    30
100
AcDbLine
 10
747.283198
 20
115.073176
 30
0.0
 11
747.283198
 21
135.073176
 31
0.0
  0
LINE
  5
3CE
330
1F
100
AcDbEntity
  8
002
 62
     3
370
    30
100
AcDbLine
 10
747.283198
 20
115.073176
 30
0.0
 11
761.283198
 21
115.073176
 31
0.0
  0
LINE
  5
3CF
330
1F
100
AcDbEntity
  8
002
 62
     3
370
    30
100
AcDbLine
 10
761.283198
 20
115.073176
 30
0.0
 11
761.283198
 21
135.073176
 31
0.0
  0
LINE
  5
3D0
330
1F
100
AcDbEntity
  8
002
 62
    40
370
     9
100
AcDbLine
 10
748.095198
 20
115.073176
 30
0.0
 11
748.095198
 21
135.073176
 31
0.0
  0
LINE
  5
3D1
330
1F
100
AcDbEntity
  8
002
 62
    40
370
     9
100
AcDbLine
 10
760.471198
 20
135.073176
 30
0.0
 11
760.471198
 21
115.073176
 31
0.0
  0
LINE
  5
3D2
330
1F
100
AcDbEntity
  8
002
 62
     3
370
    30
100
AcDbLine
 10
727.782798
 20
259.673176
 30
0.0
 11
727.782798
 21
246.673176
 31
0.0
  0
LINE
  5
3D3
330
1F
100
AcDbEntity
  8
002
 62
     3
370
    30
100
AcDbLine
 10
728.782798
 20
246.673176
 30
0.0
 11
728.782798
 21
245.673176
 31
0.0
  0
ARC
  5
3D4
330
1F
100
AcDbEntity
  8
002
 62
     3
370
    30
100
AcDbCircle
 10
781.783198
 20
245.673176
 30
0.0
 40
2.000109269515078
100
AcDbArc
 50
180.0
 51
265.78519
  0
LINE
  5
3D5
330
1F
100
AcDbEntity
  8
002
 62
     3
370
    30
100
AcDbLine
 10
781.636198
 20
243.678476
 30
0.0
 11
789.929198
 21
242.667776
 31
0.0
  0
LINE
  5
3D6
330
1F
100
AcDbEntity
  8
002
 62
     3
370
    30
100
AcDbLine
 10
789.783198
 20
240.673176
 30
0.0
 11
718.782798
 21
240.673176
 31
0.0
  0
ARC
  5
3D7
330
1F
100
AcDbEntity
  8
002
 62
     3
370
    30
100
AcDbCircle
 10
718.782798
 20
240.673176
 30
0.0
 40
2.00005063185912
100
AcDbArc
 50
94.192164
 51
265.808046
  0
LINE
  5
3D8
330
1F
100
AcDbEntity
  8
002
 62
     3
370
    30
100
AcDbLine
 10
718.636598
 20
238.678476
 30
0.0
 11
732.428998
 21
237.667776
 31
0.0
  0
ARC
  5
3D9
330
1F
100
AcDbEntity
  8
002
 62
     3
370
    30
100
AcDbCircle
 10
732.282798
 20
235.673176
 30
0.0
 40
1.999950899397276
100
AcDbArc
 50
274.191954
 51
85.807836
  0
LINE
  5
3DA
330
1F
100
AcDbEntity
  8
002
 62
     3
370
    30
100
AcDbLine
 10
732.428998
 20
233.678476
 30
0.0
 11
718.636598
 21
232.667776
 31
0.0
  0
ARC
  5
3DB
330
1F
100
AcDbEntity
  8
002
 62
     3
370
    30
100
AcDbCircle
 10
718.782798
 20
230.673176
 30
0.0
 40
2.00005063185912
100
AcDbArc
 50
94.192164
 51
265.808046
  0
LINE
  5
3DC
330
1F
100
AcDbEntity
  8
002
 62
     3
370
    30
100
AcDbLine
 10
718.636598
 20
228.678476
 30
0.0
 11
732.428998
 21
227.667776
 31
0.0
  0
ARC
  5
3DD
330
1F
100
AcDbEntity
  8
002
 62
     3
370
    30
100
AcDbCircle
 10
732.282798
 20
225.673176
 30
0.0
 40
1.999950899397276
100
AcDbArc
 50
0.0
 51
85.807836
  0
LINE
  5
3DE
330
1F
100
AcDbEntity
  8
002
 62
     3
370
    30
100
AcDbLine
 10
736.282798
 20
225.673176
 30
0.0
 11
772.283198
 21
225.673176
 31
0.0
  0
ARC
  5
3DF
330
1F
100
AcDbEntity
  8
002
 62
     3
370
    30
100
AcDbCircle
 10
776.283198
 20
225.673176
 30
0.0
 40
2.0
100
AcDbArc
 50
94.215021
 51
180.0
  0
LINE
  5
3E0
330
1F
100
AcDbEntity
  8
002
 62
     3
370
    30
100
AcDbLine
 10
776.136198
 20
227.667776
 30
0.0
 11
789.929198
 21
228.678476
 31
0.0
  0
ARC
  5
3E1
330
1F
100
AcDbEntity
  8
002
 62
     3
370
    30
100
AcDbCircle
 10
789.783198
 20
230.673176
 30
0.0
 40
1.999936288985215
100
AcDbArc
 50
274.18624
 51
85.813551
  0
LINE
  5
3E2
330
1F
100
AcDbEntity
  8
002
 62
     3
370
    30
100
AcDbLine
 10
789.929198
 20
232.667776
 30
0.0
 11
776.136198
 21
233.678476
 31
0.0
  0
ARC
  5
3E3
330
1F
100
AcDbEntity
  8
002
 62
     3
370
    30
100
AcDbCircle
 10
776.283198
 20
235.673176
 30
0.0
 40
2.000109269515078
100
AcDbArc
 50
94.215021
 51
265.78519
  0
LINE
  5
3E4
330
1F
100
AcDbEntity
  8
002
 62
     3
370
    30
100
AcDbLine
 10
776.136198
 20
237.667776
 30
0.0
 11
789.929198
 21
238.678476
 31
0.0
  0
ARC
  5
3E5
330
1F
100
AcDbEntity
  8
002
 62
     3
370
    30
100
AcDbCircle
 10
789.783198
 20
240.673176
 30
0.0
 40
1.999936288985215
100
AcDbArc
 50
274.18624
 51
85.813551
  0
LINE
  5
3E6
330
1F
100
AcDbEntity
  8
002
 62
     3
370
    30
100
AcDbLine
 10
780.783198
 20
246.673176
 30
0.0
 11
719.782798
 21
246.673176
 31
0.0
  0
LINE
  5
3E7
330
1F
100
AcDbEntity
  8
002
 62
     3
370
    30
100
AcDbLine
 10
718.636598
 20
242.667776
 30
0.0
 11
726.928998
 21
243.678476
 31
0.0
  0
ARC
  5
3E8
330
1F
100
AcDbEntity
  8
002
 62
     3
370
    30
100
AcDbCircle
 10
726.782798
 20
245.673176
 30
0.0
 40
2.0
100
AcDbArc
 50
274.191954
 51
0.0
  0
CIRCLE
  5
3E9
330
1F
100
AcDbEntity
  8
002
 62
     3
370
    30
100
AcDbCircle
 10
722.282798
 20
253.173176
 30
0.0
 40
1.0
  0
LINE
  5
3EA
330
1F
100
AcDbEntity
  8
002
 62
     3
370
    30
100
AcDbLine
 10
780.783198
 20
259.673176
 30
0.0
 11
719.782798
 21
259.673176
 31
0.0
  0
ARC
  5
3EB
330
1F
100
AcDbEntity
  8
002
 62
     3
370
    30
100
AcDbCircle
 10
719.782798
 20
256.673176
 30
0.0
 40
3.0
100
AcDbArc
 50
90.0
 51
180.0
  0
LINE
  5
3EC
330
1F
100
AcDbEntity
  8
002
 62
     3
370
    30
100
AcDbLine
 10
716.782798
 20
256.673176
 30
0.0
 11
716.782798
 21
249.673176
 31
0.0
  0
ARC
  5
3ED
330
1F
100
AcDbEntity
  8
002
 62
     3
370
    30
100
AcDbCircle
 10
719.782798
 20
249.673176
 30
0.0
 40
3.0
100
AcDbArc
 50
180.0
 51
270.0
  0
LINE
  5
3EE
330
1F
100
AcDbEntity
  8
002
 62
     3
370
    30
100
AcDbLine
 10
780.783198
 20
259.673176
 30
0.0
 11
780.783198
 21
246.673176
 31
0.0
  0
LINE
  5
3EF
330
1F
100
AcDbEntity
  8
002
 62
     3
370
    30
100
AcDbLine
 10
779.783198
 20
246.673176
 30
0.0
 11
779.783198
 21
245.673176
 31
0.0
  0
LINE
  5
3F0
330
1F
100
AcDbEntity
  8
002
 62
     3
370
    30
100
AcDbLine
 10
718.782798
 20
230.673176
 30
0.0
 11
789.783198
 21
230.673176
 31
0.0
  0
LINE
  5
3F1
330
1F
100
AcDbEntity
  8
002
 62
     3
370
    30
100
AcDbLine
 10
772.283198
 20
235.673176
 30
0.0
 11
736.282798
 21
235.673176
 31
0.0
  0
LINE
  5
3F2
330
1F
100
AcDbEntity
  8
002
  6
CENTER
 62
    40
370
     9
100
AcDbLine
 10
724.538598
 20
253.173176
 30
0.0
 11
719.937898
 21
253.173176
 31
0.0
  0
LINE
  5
3F3
330
1F
100
AcDbEntity
  8
002
  6
CENTER
 62
    40
370
     9
100
AcDbLine
 10
722.282798
 20
255.273276
 30
0.0
 11
722.282798
 21
251.302176
 31
0.0
  0
LINE
  5
3F4
330
1F
100
AcDbEntity
  8
002
  6
PHANTOM
 62
    40
370
     9
100
AcDbLine
 10
791.783198
 20
165.073176
 30
0.0
 11
791.783198
 21
230.673176
 31
0.0
  0
LINE
  5
3F5
330
1F
100
AcDbEntity
  8
002
  6
PHANTOM
 62
    40
370
     9
100
AcDbLine
 10
774.283198
 20
225.673176
 30
0.0
 11
774.283198
 21
170.073176
 31
0.0
  0
LINE
  5
3F6
330
1F
100
AcDbEntity
  8
002
  6
PHANTOM
 62
    40
370
     9
100
AcDbLine
 10
734.282798
 20
170.073176
 30
0.0
 11
734.282798
 21
225.673176
 31
0.0
  0
LINE
  5
3F7
330
1F
100
AcDbEntity
  8
002
  6
PHANTOM
 62
    40
370
     9
100
AcDbLine
 10
716.782798
 20
230.673176
 30
0.0
 11
716.782798
 21
165.073176
 31
0.0
  0
LINE
  5
3F8
330
1F
100
AcDbEntity
  8
002
 62
     3
370
    30
100
AcDbLine
 10
736.282798
 20
170.073176
 30
0.0
 11
772.283198
 21
170.073176
 31
0.0
  0
ARC
  5
3F9
330
1F
100
AcDbEntity
  8
002
 62
     3
370
    30
100
AcDbCircle
 10
776.283198
 20
170.073176
 30
0.0
 40
2.000109269515078
100
AcDbArc
 50
180.0
 51
265.78519
  0
LINE
  5
3FA
330
1F
100
AcDbEntity
  8
002
 62
     3
370
    30
100
AcDbLine
 10
776.136198
 20
168.078476
 30
0.0
 11
789.929198
 21
167.067776
 31
0.0
  0
LINE
  5
3FB
330
1F
100
AcDbEntity
  8
002
 62
     3
370
    30
100
AcDbLine
 10
789.783198
 20
165.073176
 30
0.0
 11
718.782798
 21
165.073176
 31
0.0
  0
LINE
  5
3FC
330
1F
100
AcDbEntity
  8
002
 62
     3
370
    30
100
AcDbLine
 10
718.636598
 20
163.078476
 30
0.0
 11
732.428998
 21
162.067776
 31
0.0
  0
ARC
  5
3FD
330
1F
100
AcDbEntity
  8
002
 62
     3
370
    30
100
AcDbCircle
 10
732.282798
 20
160.073176
 30
0.0
 40
1.999950899397276
100
AcDbArc
 50
274.191954
 51
85.807836
  0
LINE
  5
3FE
330
1F
100
AcDbEntity
  8
002
 62
     3
370
    30
100
AcDbLine
 10
732.428998
 20
158.078476
 30
0.0
 11
718.636598
 21
157.067776
 31
0.0
  0
ARC
  5
3FF
330
1F
100
AcDbEntity
  8
002
 62
     3
370
    30
100
AcDbCircle
 10
718.782798
 20
155.073176
 30
0.0
 40
2.00005063185912
100
AcDbArc
 50
94.192164
 51
265.808046
  0
LINE
  5
400
330
1F
100
AcDbEntity
  8
002
 62
     3
370
    30
100
AcDbLine
 10
718.636598
 20
153.078476
 30
0.0
 11
738.928998
 21
152.067776
 31
0.0
  0
ARC
  5
401
330
1F
100
AcDbEntity
  8
002
 62
     3
370
    30
100
AcDbCircle
 10
738.782798
 20
150.073176
 30
0.0
 40
1.999950899397276
100
AcDbArc
 50
0.0
 51
85.807836
  0
LINE
  5
402
330
1F
100
AcDbEntity
  8
002
 62
     3
370
    30
100
AcDbLine
 10
740.782798
 20
150.073176
 30
0.0
 11
740.782798
 21
149.073176
 31
0.0
  0
LINE
  5
403
330
1F
100
AcDbEntity
  8
002
 62
     3
370
    30
100
AcDbLine
 10
739.782798
 20
149.073176
 30
0.0
 11
739.782798
 21
137.073176
 31
0.0
  0
LINE
  5
404
330
1F
100
AcDbEntity
  8
002
 62
     3
370
    30
100
AcDbLine
 10
740.782798
 20
137.073176
 30
0.0
 11
740.782798
 21
135.073176
 31
0.0
  0
LINE
  5
405
330
1F
100
AcDbEntity
  8
002
 62
     3
370
    30
100
AcDbLine
 10
767.783198
 20
135.073176
 30
0.0
 11
767.783198
 21
137.073176
 31
0.0
  0
LINE
  5
406
330
1F
100
AcDbEntity
  8
002
 62
     3
370
    30
100
AcDbLine
 10
768.783198
 20
137.073176
 30
0.0
 11
731.782798
 21
137.073176
 31
0.0
  0
LINE
  5
407
330
1F
100
AcDbEntity
  8
002
 62
     3
370
    30
100
AcDbLine
 10
728.782798
 20
140.073176
 30
0.0
 11
728.782798
 21
146.073176
 31
0.0
  0
LINE
  5
408
330
1F
100
AcDbEntity
  8
002
 62
     3
370
    30
100
AcDbLine
 10
731.782798
 20
149.073176
 30
0.0
 11
768.783198
 21
149.073176
 31
0.0
  0
LINE
  5
409
330
1F
100
AcDbEntity
  8
002
 62
     3
370
    30
100
AcDbLine
 10
768.783198
 20
149.073176
 30
0.0
 11
768.783198
 21
137.073176
 31
0.0
  0
CIRCLE
  5
40A
330
1F
100
AcDbEntity
  8
002
 62
     3
370
    30
100
AcDbCircle
 10
734.282798
 20
142.573176
 30
0.0
 40
1.0
  0
ARC
  5
40B
330
1F
100
AcDbEntity
  8
002
 62
     3
370
    30
100
AcDbCircle
 10
731.782798
 20
140.073176
 30
0.0
 40
3.0
100
AcDbArc
 50
180.0
 51
270.0
  0
ARC
  5
40C
330
1F
100
AcDbEntity
  8
002
 62
     3
370
    30
100
AcDbCircle
 10
731.782798
 20
146.073176
 30
0.0
 40
3.0
100
AcDbArc
 50
90.0
 51
180.0
  0
LINE
  5
40D
330
1F
100
AcDbEntity
  8
002
 62
     3
370
    30
100
AcDbLine
 10
718.782798
 20
155.073176
 30
0.0
 11
789.783198
 21
155.073176
 31
0.0
  0
LINE
  5
40E
330
1F
100
AcDbEntity
  8
002
 62
     3
370
    30
100
AcDbLine
 10
789.929198
 20
157.067776
 30
0.0
 11
776.136198
 21
158.078476
 31
0.0
  0
LINE
  5
40F
330
1F
100
AcDbEntity
  8
002
 62
     3
370
    30
100
AcDbLine
 10
776.136198
 20
162.067776
 30
0.0
 11
789.929198
 21
163.078476
 31
0.0
  0
ARC
  5
410
330
1F
100
AcDbEntity
  8
002
 62
     3
370
    30
100
AcDbCircle
 10
789.783198
 20
165.073176
 30
0.0
 40
1.999936288985215
100
AcDbArc
 50
274.18624
 51
85.813551
  0
ARC
  5
411
330
1F
100
AcDbEntity
  8
002
 62
     3
370
    30
100
AcDbCircle
 10
789.783198
 20
155.073176
 30
0.0
 40
1.999936288985215
100
AcDbArc
 50
274.18624
 51
85.813551
  0
LINE
  5
412
330
1F
100
AcDbEntity
  8
002
 62
     3
370
    30
100
AcDbLine
 10
789.929198
 20
153.078476
 30
0.0
 11
769.636198
 21
152.067776
 31
0.0
  0
ARC
  5
413
330
1F
100
AcDbEntity
  8
002
 62
     3
370
    30
100
AcDbCircle
 10
769.783198
 20
150.073176
 30
0.0
 40
2.0
100
AcDbArc
 50
94.215021
 51
180.0
  0
LINE
  5
414
330
1F
100
AcDbEntity
  8
002
 62
     3
370
    30
100
AcDbLine
 10
767.783198
 20
150.073176
 30
0.0
 11
767.783198
 21
149.073176
 31
0.0
  0
LINE
  5
415
330
1F
100
AcDbEntity
  8
002
 62
     3
370
    30
100
AcDbLine
 10
772.283198
 20
160.073176
 30
0.0
 11
736.282798
 21
160.073176
 31
0.0
  0
LINE
  5
416
330
1F
100
AcDbEntity
  8
002
 62
     3
370
    30
100
AcDbLine
 10
732.428998
 20
168.078476
 30
0.0
 11
718.636598
 21
167.067776
 31
0.0
  0
ARC
  5
417
330
1F
100
AcDbEntity
  8
002
 62
     3
370
    30
100
AcDbCircle
 10
718.782798
 20
165.073176
 30
0.0
 40
2.00005063185912
100
AcDbArc
 50
94.192164
 51
265.808046
  0
ARC
  5
418
330
1F
100
AcDbEntity
  8
002
 62
     3
370
    30
100
AcDbCircle
 10
732.282798
 20
170.073176
 30
0.0
 40
2.0
100
AcDbArc
 50
274.191954
 51
0.0
  0
ARC
  5
419
330
1F
100
AcDbEntity
  8
002
 62
     3
370
    30
100
AcDbCircle
 10
776.283198
 20
160.073176
 30
0.0
 40
2.000109269515078
100
AcDbArc
 50
94.215021
 51
265.78519
  0
LINE
  5
41A
330
1F
100
AcDbEntity
  8
002
  6
CENTER
 62
    40
370
     9
100
AcDbLine
 10
736.538598
 20
142.573176
 30
0.0
 11
731.937898
 21
142.573176
 31
0.0
  0
LINE
  5
41B
330
1F
100
AcDbEntity
  8
002
  6
CENTER
 62
    40
370
     9
100
AcDbLine
 10
734.282798
 20
144.673276
 30
0.0
 11
734.282798
 21
140.702176
 31
0.0
  0
LINE
  5
41C
330
1F
100
AcDbEntity
  8
002
 62
     3
370
    30
100
AcDbLine
 10
778.283198
 20
266.673176
 30
0.0
 11
778.283198
 21
259.673176
 31
0.0
  0
LINE
  5
41D
330
1F
100
AcDbEntity
  8
002
 62
     3
370
    30
100
AcDbLine
 10
730.283198
 20
266.673176
 30
0.0
 11
730.283198
 21
259.673176
 31
0.0
  0
POLYLINE
  5
41E
330
1F
100
AcDbEntity
  8
002
 62
     3
370
     9
100
AcDb2dPolyline
 66
     1
 10
0.0
 20
0.0
 30
0.0
  0
VERTEX
  5
420
330
41E
100
AcDbEntity
  8
002
 62
     3
370
     9
100
AcDbVertex
100
AcDb2dVertex
 10
211.139231
 20
430.823176
 30
0.0
  0
VERTEX
  5
421
330
41E
100
AcDbEntity
  8
002
 62
     3
370
     9
100
AcDbVertex
100
AcDb2dVertex
 10
213.222564
 20
428.89725
 30
0.0
  0
VERTEX
  5
422
330
41E
100
AcDbEntity
  8
002
 62
     3
370
     9
100
AcDbVertex
100
AcDb2dVertex
 10
215.305898
 20
427.415768
 30
0.0
  0
VERTEX
  5
423
330
41E
100
AcDbEntity
  8
002
 62
     3
370
     9
100
AcDbVertex
100
AcDb2dVertex
 10
217.389231
 20
426.823176
 30
0.0
  0
VERTEX
  5
424
330
41E
100
AcDbEntity
  8
002
 62
     3
370
     9
100
AcDbVertex
100
AcDb2dVertex
 10
219.472564
 20
427.415768
 30
0.0
  0
VERTEX
  5
425
330
41E
100
AcDbEntity
  8
002
 62
     3
370
     9
100
AcDbVertex
100
AcDb2dVertex
 10
221.555898
 20
428.89725
 30
0.0
  0
VERTEX
  5
426
330
41E
100
AcDbEntity
  8
002
 62
     3
370
     9
100
AcDbVertex
100
AcDb2dVertex
 10
223.639231
 20
430.823176
 30
0.0
  0
VERTEX
  5
427
330
41E
100
AcDbEntity
  8
002
 62
     3
370
     9
100
AcDbVertex
100
AcDb2dVertex
 10
225.722564
 20
432.749102
 30
0.0
  0
VERTEX
  5
428
330
41E
100
AcDbEntity
  8
002
 62
     3
370
     9
100
AcDbVertex
100
AcDb2dVertex
 10
227.805898
 20
434.230583
 30
0.0
  0
VERTEX
  5
429
330
41E
100
AcDbEntity
  8
002
 62
     3
370
     9
100
AcDbVertex
100
AcDb2dVertex
 10
229.889231
 20
434.823176
 30
0.0
  0
VERTEX
  5
42A
330
41E
100
AcDbEntity
  8
002
 62
     3
370
     9
100
AcDbVertex
100
AcDb2dVertex
 10
231.972564
 20
434.230583
 30
0.0
  0
VERTEX
  5
42B
330
41E
100
AcDbEntity
  8
002
 62
     3
370
     9
100
AcDbVertex
100
AcDb2dVertex
 10
234.055898
 20
432.749102
 30
0.0
  0
VERTEX
  5
42C
330
41E
100
AcDbEntity
  8
002
 62
     3
370
     9
100
AcDbVertex
100
AcDb2dVertex
 10
236.139231
 20
430.823176
 30
0.0
  0
SEQEND
  5
41F
330
41E
100
AcDbEntity
  8
002
370
     9
  0
POLYLINE
  5
42D
330
1F
100
AcDbEntity
  8
002
 62
     3
370
     9
100
AcDb2dPolyline
 66
     1
 10
0.0
 20
0.0
 30
0.0
  0
VERTEX
  5
42F
330
42D
100
AcDbEntity
  8
002
 62
     3
370
     9
100
AcDbVertex
100
AcDb2dVertex
 10
211.139231
 20
438.823176
 30
0.0
  0
VERTEX
  5
430
330
42D
100
AcDbEntity
  8
002
 62
     3
370
     9
100
AcDbVertex
100
AcDb2dVertex
 10
213.222564
 20
436.89725
 30
0.0
  0
VERTEX
  5
431
330
42D
100
AcDbEntity
  8
002
 62
     3
370
     9
100
AcDbVertex
100
AcDb2dVertex
 10
215.305898
 20
435.415768
 30
0.0
  0
VERTEX
  5
432
330
42D
100
AcDbEntity
  8
002
 62
     3
370
     9
100
AcDbVertex
100
AcDb2dVertex
 10
217.389231
 20
434.823176
 30
0.0
  0
VERTEX
  5
433
330
42D
100
AcDbEntity
  8
002
 62
     3
370
     9
100
AcDbVertex
100
AcDb2dVertex
 10
219.472564
 20
435.415768
 30
0.0
  0
VERTEX
  5
434
330
42D
100
AcDbEntity
  8
002
 62
     3
370
     9
100
AcDbVertex
100
AcDb2dVertex
 10
221.555898
 20
436.89725
 30
0.0
  0
VERTEX
  5
435
330
42D
100
AcDbEntity
  8
002
 62
     3
370
     9
100
AcDbVertex
100
AcDb2dVertex
 10
223.639231
 20
438.823176
 30
0.0
  0
VERTEX
  5
436
330
42D
100
AcDbEntity
  8
002
 62
     3
370
     9
100
AcDbVertex
100
AcDb2dVertex
 10
225.722564
 20
440.749102
 30
0.0
  0
VERTEX
  5
437
330
42D
100
AcDbEntity
  8
002
 62
     3
370
     9
100
AcDbVertex
100
AcDb2dVertex
 10
227.805898
 20
442.230583
 30
0.0
  0
VERTEX
  5
438
330
42D
100
AcDbEntity
  8
002
 62
     3
370
     9
100
AcDbVertex
100
AcDb2dVertex
 10
229.889231
 20
442.823176
 30
0.0
  0
VERTEX
  5
439
330
42D
100
AcDbEntity
  8
002
 62
     3
370
     9
100
AcDbVertex
100
AcDb2dVertex
 10
231.972564
 20
442.230583
 30
0.0
  0
VERTEX
  5
43A
330
42D
100
AcDbEntity
  8
002
 62
     3
370
     9
100
AcDbVertex
100
AcDb2dVertex
 10
234.055898
 20
440.749102
 30
0.0
  0
VERTEX
  5
43B
330
42D
100
AcDbEntity
  8
002
 62
     3
370
     9
100
AcDbVertex
100
AcDb2dVertex
 10
236.139231
 20
438.823176
 30
0.0
  0
SEQEND
  5
42E
330
42D
100
AcDbEntity
  8
002
370
     9
  0
LINE
  5
43C
330
1F
100
AcDbEntity
  8
002
 62
    40
370
     9
100
AcDbLine
 10
233.389231
 20
344.573176
 30
0.0
 11
233.389231
 21
433.292808
 31
0.0
  0
LINE
  5
43D
330
1F
100
AcDbEntity
  8
002
 62
    40
370
     9
100
AcDbLine
 10
233.389231
 20
441.292808
 30
0.0
 11
233.389231
 21
510.073176
 31
0.0
  0
LINE
  5
43E
330
1F
100
AcDbEntity
  8
002
 62
     3
370
    30
100
AcDbLine
 10
236.139231
 20
344.573176
 30
0.0
 11
236.139231
 21
430.823176
 31
0.0
  0
LINE
  5
43F
330
1F
100
AcDbEntity
  8
002
 62
     3
370
    30
100
AcDbLine
 10
236.139231
 20
438.823176
 30
0.0
 11
236.139231
 21
525.073176
 31
0.0
  0
LINE
  5
440
330
1F
100
AcDbEntity
  8
002
 62
    40
370
     9
100
AcDbLine
 10
213.889231
 20
344.573176
 30
0.0
 11
213.889231
 21
428.353544
 31
0.0
  0
LINE
  5
441
330
1F
100
AcDbEntity
  8
002
 62
    40
370
     9
100
AcDbLine
 10
213.889231
 20
436.353544
 30
0.0
 11
213.889231
 21
510.073176
 31
0.0
  0
LINE
  5
442
330
1F
100
AcDbEntity
  8
002
 62
     3
370
    30
100
AcDbLine
 10
211.139231
 20
344.573176
 30
0.0
 11
211.139231
 21
430.823176
 31
0.0
  0
LINE
  5
443
330
1F
100
AcDbEntity
  8
002
 62
     3
370
    30
100
AcDbLine
 10
211.139231
 20
438.823176
 30
0.0
 11
211.139231
 21
525.073176
 31
0.0
  0
POLYLINE
  5
444
330
1F
100
AcDbEntity
  8
002
 62
     3
370
     9
100
AcDb2dPolyline
 66
     1
 10
0.0
 20
0.0
 30
0.0
  0
VERTEX
  5
446
330
444
100
AcDbEntity
  8
002
 62
     3
370
     9
100
AcDbVertex
100
AcDb2dVertex
 10
242.639231
 20
178.173176
 30
0.0
  0
VERTEX
  5
447
330
444
100
AcDbEntity
  8
002
 62
     3
370
     9
100
AcDbVertex
100
AcDb2dVertex
 10
240.739231
 20
179.357176
 30
0.0
  0
VERTEX
  5
448
330
444
100
AcDbEntity
  8
002
 62
     3
370
     9
100
AcDbVertex
100
AcDb2dVertex
 10
238.839231
 20
180.445176
 30
0.0
  0
VERTEX
  5
449
330
444
100
AcDbEntity
  8
002
 62
     3
370
     9
100
AcDbVertex
100
AcDb2dVertex
 10
236.939231
 20
181.341176
 30
0.0
  0
VERTEX
  5
44A
330
444
100
AcDbEntity
  8
002
 62
     3
370
     9
100
AcDbVertex
100
AcDb2dVertex
 10
235.039231
 20
181.949176
 30
0.0
  0
VERTEX
  5
44B
330
444
100
AcDbEntity
  8
002
 62
     3
370
     9
100
AcDbVertex
100
AcDb2dVertex
 10
233.139231
 20
182.173176
 30
0.0
  0
VERTEX
  5
44C
330
444
100
AcDbEntity
  8
002
 62
     3
370
     9
100
AcDbVertex
100
AcDb2dVertex
 10
231.239231
 20
181.949176
 30
0.0
  0
VERTEX
  5
44D
330
444
100
AcDbEntity
  8
002
 62
     3
370
     9
100
AcDbVertex
100
AcDb2dVertex
 10
229.339231
 20
181.341176
 30
0.0
  0
VERTEX
  5
44E
330
444
100
AcDbEntity
  8
002
 62
     3
370
     9
100
AcDbVertex
100
AcDb2dVertex
 10
227.439231
 20
180.445176
 30
0.0
  0
VERTEX
  5
44F
330
444
100
AcDbEntity
  8
002
 62
     3
370
     9
100
AcDbVertex
100
AcDb2dVertex
 10
225.539231
 20
179.357176
 30
0.0
  0
VERTEX
  5
450
330
444
100
AcDbEntity
  8
002
 62
     3
370
     9
100
AcDbVertex
100
AcDb2dVertex
 10
223.639231
 20
178.173176
 30
0.0
  0
VERTEX
  5
451
330
444
100
AcDbEntity
  8
002
 62
     3
370
     9
100
AcDbVertex
100
AcDb2dVertex
 10
221.739231
 20
176.989176
 30
0.0
  0
VERTEX
  5
452
330
444
100
AcDbEntity
  8
002
 62
     3
370
     9
100
AcDbVertex
100
AcDb2dVertex
 10
219.839231
 20
175.901176
 30
0.0
  0
VERTEX
  5
453
330
444
100
AcDbEntity
  8
002
 62
     3
370
     9
100
AcDbVertex
100
AcDb2dVertex
 10
217.939231
 20
175.005176
 30
0.0
  0
VERTEX
  5
454
330
444
100
AcDbEntity
  8
002
 62
     3
370
     9
100
AcDbVertex
100
AcDb2dVertex
 10
216.039231
 20
174.397176
 30
0.0
  0
VERTEX
  5
455
330
444
100
AcDbEntity
  8
002
 62
     3
370
     9
100
AcDbVertex
100
AcDb2dVertex
 10
214.139231
 20
174.173176
 30
0.0
  0
VERTEX
  5
456
330
444
100
AcDbEntity
  8
002
 62
     3
370
     9
100
AcDbVertex
100
AcDb2dVertex
 10
212.239231
 20
174.397176
 30
0.0
  0
VERTEX
  5
457
330
444
100
AcDbEntity
  8
002
 62
     3
370
     9
100
AcDbVertex
100
AcDb2dVertex
 10
210.339231
 20
175.005176
 30
0.0
  0
VERTEX
  5
458
330
444
100
AcDbEntity
  8
002
 62
     3
370
     9
100
AcDbVertex
100
AcDb2dVertex
 10
208.439231
 20
175.901176
 30
0.0
  0
VERTEX
  5
459
330
444
100
AcDbEntity
  8
002
 62
     3
370
     9
100
AcDbVertex
100
AcDb2dVertex
 10
206.539231
 20
176.989176
 30
0.0
  0
VERTEX
  5
45A
330
444
100
AcDbEntity
  8
002
 62
     3
370
     9
100
AcDbVertex
100
AcDb2dVertex
 10
204.639231
 20
178.173176
 30
0.0
  0
SEQEND
  5
445
330
444
100
AcDbEntity
  8
002
370
     9
  0
POLYLINE
  5
45B
330
1F
100
AcDbEntity
  8
002
 62
     3
370
     9
100
AcDb2dPolyline
 66
     1
 10
0.0
 20
0.0
 30
0.0
  0
VERTEX
  5
45D
330
45B
100
AcDbEntity
  8
002
 62
     3
370
     9
100
AcDbVertex
100
AcDb2dVertex
 10
242.639231
 20
170.173176
 30
0.0
  0
VERTEX
  5
45E
330
45B
100
AcDbEntity
  8
002
 62
     3
370
     9
100
AcDbVertex
100
AcDb2dVertex
 10
240.739231
 20
171.357176
 30
0.0
  0
VERTEX
  5
45F
330
45B
100
AcDbEntity
  8
002
 62
     3
370
     9
100
AcDbVertex
100
AcDb2dVertex
 10
238.839231
 20
172.445176
 30
0.0
  0
VERTEX
  5
460
330
45B
100
AcDbEntity
  8
002
 62
     3
370
     9
100
AcDbVertex
100
AcDb2dVertex
 10
236.939231
 20
173.341176
 30
0.0
  0
VERTEX
  5
461
330
45B
100
AcDbEntity
  8
002
 62
     3
370
     9
100
AcDbVertex
100
AcDb2dVertex
 10
235.039231
 20
173.949176
 30
0.0
  0
VERTEX
  5
462
330
45B
100
AcDbEntity
  8
002
 62
     3
370
     9
100
AcDbVertex
100
AcDb2dVertex
 10
233.139231
 20
174.173176
 30
0.0
  0
VERTEX
  5
463
330
45B
100
AcDbEntity
  8
002
 62
     3
370
     9
100
AcDbVertex
100
AcDb2dVertex
 10
231.239231
 20
173.949176
 30
0.0
  0
VERTEX
  5
464
330
45B
100
AcDbEntity
  8
002
 62
     3
370
     9
100
AcDbVertex
100
AcDb2dVertex
 10
229.339231
 20
173.341176
 30
0.0
  0
VERTEX
  5
465
330
45B
100
AcDbEntity
  8
002
 62
     3
370
     9
100
AcDbVertex
100
AcDb2dVertex
 10
227.439231
 20
172.445176
 30
0.0
  0
VERTEX
  5
466
330
45B
100
AcDbEntity
  8
002
 62
     3
370
     9
100
AcDbVertex
100
AcDb2dVertex
 10
225.539231
 20
171.357176
 30
0.0
  0
VERTEX
  5
467
330
45B
100
AcDbEntity
  8
002
 62
     3
370
     9
100
AcDbVertex
100
AcDb2dVertex
 10
223.639231
 20
170.173176
 30
0.0
  0
VERTEX
  5
468
330
45B
100
AcDbEntity
  8
002
 62
     3
370
     9
100
AcDbVertex
100
AcDb2dVertex
 10
221.739231
 20
168.989176
 30
0.0
  0
VERTEX
  5
469
330
45B
100
AcDbEntity
  8
002
 62
     3
370
     9
100
AcDbVertex
100
AcDb2dVertex
 10
219.839231
 20
167.901176
 30
0.0
  0
VERTEX
  5
46A
330
45B
100
AcDbEntity
  8
002
 62
     3
370
     9
100
AcDbVertex
100
AcDb2dVertex
 10
217.939231
 20
167.005176
 30
0.0
  0
VERTEX
  5
46B
330
45B
100
AcDbEntity
  8
002
 62
     3
370
     9
100
AcDbVertex
100
AcDb2dVertex
 10
216.039231
 20
166.397176
 30
0.0
  0
VERTEX
  5
46C
330
45B
100
AcDbEntity
  8
002
 62
     3
370
     9
100
AcDbVertex
100
AcDb2dVertex
 10
214.139231
 20
166.173176
 30
0.0
  0
VERTEX
  5
46D
330
45B
100
AcDbEntity
  8
002
 62
     3
370
     9
100
AcDbVertex
100
AcDb2dVertex
 10
212.239231
 20
166.397176
 30
0.0
  0
VERTEX
  5
46E
330
45B
100
AcDbEntity
  8
002
 62
     3
370
     9
100
AcDbVertex
100
AcDb2dVertex
 10
210.339231
 20
167.005176
 30
0.0
  0
VERTEX
  5
46F
330
45B
100
AcDbEntity
  8
002
 62
     3
370
     9
100
AcDbVertex
100
AcDb2dVertex
 10
208.439231
 20
167.901176
 30
0.0
  0
VERTEX
  5
470
330
45B
100
AcDbEntity
  8
002
 62
     3
370
     9
100
AcDbVertex
100
AcDb2dVertex
 10
206.539231
 20
168.989176
 30
0.0
  0
VERTEX
  5
471
330
45B
100
AcDbEntity
  8
002
 62
     3
370
     9
100
AcDbVertex
100
AcDb2dVertex
 10
204.639231
 20
170.173176
 30
0.0
  0
SEQEND
  5
45C
330
45B
100
AcDbEntity
  8
002
370
     9
  0
LINE
  5
472
330
1F
100
AcDbEntity
  8
002
 62
     3
370
    30
100
AcDbLine
 10
204.639231
 20
216.673176
 30
0.0
 11
204.639231
 21
178.173176
 31
0.0
  0
LINE
  5
473
330
1F
100
AcDbEntity
  8
002
 62
     3
370
    30
100
AcDbLine
 10
204.639231
 20
170.173176
 30
0.0
 11
204.639231
 21
131.673176
 31
0.0
  0
LINE
  5
474
330
1F
100
AcDbEntity
  8
002
 62
     3
370
    30
100
AcDbLine
 10
242.639231
 20
131.673176
 30
0.0
 11
242.639231
 21
170.173176
 31
0.0
  0
LINE
  5
475
330
1F
100
AcDbEntity
  8
002
 62
     3
370
    30
100
AcDbLine
 10
242.639231
 20
178.173176
 30
0.0
 11
242.639231
 21
216.673176
 31
0.0
  0
POLYLINE
  5
476
330
1F
100
AcDbEntity
  8
002
 62
     3
370
     9
100
AcDb2dPolyline
 66
     1
 10
0.0
 20
0.0
 30
0.0
  0
VERTEX
  5
478
330
476
100
AcDbEntity
  8
002
 62
     3
370
     9
100
AcDbVertex
100
AcDb2dVertex
 10
378.906141
 20
170.173176
 30
0.0
  0
VERTEX
  5
479
330
476
100
AcDbEntity
  8
002
 62
     3
370
     9
100
AcDbVertex
100
AcDb2dVertex
 10
380.806141
 20
168.989176
 30
0.0
  0
VERTEX
  5
47A
330
476
100
AcDbEntity
  8
002
 62
     3
370
     9
100
AcDbVertex
100
AcDb2dVertex
 10
382.706141
 20
167.901176
 30
0.0
  0
VERTEX
  5
47B
330
476
100
AcDbEntity
  8
002
 62
     3
370
     9
100
AcDbVertex
100
AcDb2dVertex
 10
384.606141
 20
167.005176
 30
0.0
  0
VERTEX
  5
47C
330
476
100
AcDbEntity
  8
002
 62
     3
370
     9
100
AcDbVertex
100
AcDb2dVertex
 10
386.506141
 20
166.397176
 30
0.0
  0
VERTEX
  5
47D
330
476
100
AcDbEntity
  8
002
 62
     3
370
     9
100
AcDbVertex
100
AcDb2dVertex
 10
388.406141
 20
166.173176
 30
0.0
  0
VERTEX
  5
47E
330
476
100
AcDbEntity
  8
002
 62
     3
370
     9
100
AcDbVertex
100
AcDb2dVertex
 10
390.306141
 20
166.397176
 30
0.0
  0
VERTEX
  5
47F
330
476
100
AcDbEntity
  8
002
 62
     3
370
     9
100
AcDbVertex
100
AcDb2dVertex
 10
392.206141
 20
167.005176
 30
0.0
  0
VERTEX
  5
480
330
476
100
AcDbEntity
  8
002
 62
     3
370
     9
100
AcDbVertex
100
AcDb2dVertex
 10
394.106141
 20
167.901176
 30
0.0
  0
VERTEX
  5
481
330
476
100
AcDbEntity
  8
002
 62
     3
370
     9
100
AcDbVertex
100
AcDb2dVertex
 10
396.006141
 20
168.989176
 30
0.0
  0
VERTEX
  5
482
330
476
100
AcDbEntity
  8
002
 62
     3
370
     9
100
AcDbVertex
100
AcDb2dVertex
 10
397.906141
 20
170.173176
 30
0.0
  0
VERTEX
  5
483
330
476
100
AcDbEntity
  8
002
 62
     3
370
     9
100
AcDbVertex
100
AcDb2dVertex
 10
399.806141
 20
171.357176
 30
0.0
  0
VERTEX
  5
484
330
476
100
AcDbEntity
  8
002
 62
     3
370
     9
100
AcDbVertex
100
AcDb2dVertex
 10
401.706141
 20
172.445176
 30
0.0
  0
VERTEX
  5
485
330
476
100
AcDbEntity
  8
002
 62
     3
370
     9
100
AcDbVertex
100
AcDb2dVertex
 10
403.606141
 20
173.341176
 30
0.0
  0
VERTEX
  5
486
330
476
100
AcDbEntity
  8
002
 62
     3
370
     9
100
AcDbVertex
100
AcDb2dVertex
 10
405.506141
 20
173.949176
 30
0.0
  0
VERTEX
  5
487
330
476
100
AcDbEntity
  8
002
 62
     3
370
     9
100
AcDbVertex
100
AcDb2dVertex
 10
407.406141
 20
174.173176
 30
0.0
  0
VERTEX
  5
488
330
476
100
AcDbEntity
  8
002
 62
     3
370
     9
100
AcDbVertex
100
AcDb2dVertex
 10
409.306141
 20
173.949176
 30
0.0
  0
VERTEX
  5
489
330
476
100
AcDbEntity
  8
002
 62
     3
370
     9
100
AcDbVertex
100
AcDb2dVertex
 10
411.206141
 20
173.341176
 30
0.0
  0
VERTEX
  5
48A
330
476
100
AcDbEntity
  8
002
 62
     3
370
     9
100
AcDbVertex
100
AcDb2dVertex
 10
413.106141
 20
172.445176
 30
0.0
  0
VERTEX
  5
48B
330
476
100
AcDbEntity
  8
002
 62
     3
370
     9
100
AcDbVertex
100
AcDb2dVertex
 10
415.006141
 20
171.357176
 30
0.0
  0
VERTEX
  5
48C
330
476
100
AcDbEntity
  8
002
 62
     3
370
     9
100
AcDbVertex
100
AcDb2dVertex
 10
416.906141
 20
170.173176
 30
0.0
  0
SEQEND
  5
477
330
476
100
AcDbEntity
  8
002
370
     9
  0
POLYLINE
  5
48D
330
1F
100
AcDbEntity
  8
002
 62
     3
370
     9
100
AcDb2dPolyline
 66
     1
 10
0.0
 20
0.0
 30
0.0
  0
VERTEX
  5
48F
330
48D
100
AcDbEntity
  8
002
 62
     3
370
     9
100
AcDbVertex
100
AcDb2dVertex
 10
378.906141
 20
178.173176
 30
0.0
  0
VERTEX
  5
490
330
48D
100
AcDbEntity
  8
002
 62
     3
370
     9
100
AcDbVertex
100
AcDb2dVertex
 10
380.806141
 20
176.989176
 30
0.0
  0
VERTEX
  5
491
330
48D
100
AcDbEntity
  8
002
 62
     3
370
     9
100
AcDbVertex
100
AcDb2dVertex
 10
382.706141
 20
175.901176
 30
0.0
  0
VERTEX
  5
492
330
48D
100
AcDbEntity
  8
002
 62
     3
370
     9
100
AcDbVertex
100
AcDb2dVertex
 10
384.606141
 20
175.005176
 30
0.0
  0
VERTEX
  5
493
330
48D
100
AcDbEntity
  8
002
 62
     3
370
     9
100
AcDbVertex
100
AcDb2dVertex
 10
386.506141
 20
174.397176
 30
0.0
  0
VERTEX
  5
494
330
48D
100
AcDbEntity
  8
002
 62
     3
370
     9
100
AcDbVertex
100
AcDb2dVertex
 10
388.406141
 20
174.173176
 30
0.0
  0
VERTEX
  5
495
330
48D
100
AcDbEntity
  8
002
 62
     3
370
     9
100
AcDbVertex
100
AcDb2dVertex
 10
390.306141
 20
174.397176
 30
0.0
  0
VERTEX
  5
496
330
48D
100
AcDbEntity
  8
002
 62
     3
370
     9
100
AcDbVertex
100
AcDb2dVertex
 10
392.206141
 20
175.005176
 30
0.0
  0
VERTEX
  5
497
330
48D
100
AcDbEntity
  8
002
 62
     3
370
     9
100
AcDbVertex
100
AcDb2dVertex
 10
394.106141
 20
175.901176
 30
0.0
  0
VERTEX
  5
498
330
48D
100
AcDbEntity
  8
002
 62
     3
370
     9
100
AcDbVertex
100
AcDb2dVertex
 10
396.006141
 20
176.989176
 30
0.0
  0
VERTEX
  5
499
330
48D
100
AcDbEntity
  8
002
 62
     3
370
     9
100
AcDbVertex
100
AcDb2dVertex
 10
397.906141
 20
178.173176
 30
0.0
  0
VERTEX
  5
49A
330
48D
100
AcDbEntity
  8
002
 62
     3
370
     9
100
AcDbVertex
100
AcDb2dVertex
 10
399.806141
 20
179.357176
 30
0.0
  0
VERTEX
  5
49B
330
48D
100
AcDbEntity
  8
002
 62
     3
370
     9
100
AcDbVertex
100
AcDb2dVertex
 10
401.706141
 20
180.445176
 30
0.0
  0
VERTEX
  5
49C
330
48D
100
AcDbEntity
  8
002
 62
     3
370
     9
100
AcDbVertex
100
AcDb2dVertex
 10
403.606141
 20
181.341176
 30
0.0
  0
VERTEX
  5
49D
330
48D
100
AcDbEntity
  8
002
 62
     3
370
     9
100
AcDbVertex
100
AcDb2dVertex
 10
405.506141
 20
181.949176
 30
0.0
  0
VERTEX
  5
49E
330
48D
100
AcDbEntity
  8
002
 62
     3
370
     9
100
AcDbVertex
100
AcDb2dVertex
 10
407.406141
 20
182.173176
 30
0.0
  0
VERTEX
  5
49F
330
48D
100
AcDbEntity
  8
002
 62
     3
370
     9
100
AcDbVertex
100
AcDb2dVertex
 10
409.306141
 20
181.949176
 30
0.0
  0
VERTEX
  5
4A0
330
48D
100
AcDbEntity
  8
002
 62
     3
370
     9
100
AcDbVertex
100
AcDb2dVertex
 10
411.206141
 20
181.341176
 30
0.0
  0
VERTEX
  5
4A1
330
48D
100
AcDbEntity
  8
002
 62
     3
370
     9
100
AcDbVertex
100
AcDb2dVertex
 10
413.106141
 20
180.445176
 30
0.0
  0
VERTEX
  5
4A2
330
48D
100
AcDbEntity
  8
002
 62
     3
370
     9
100
AcDbVertex
100
AcDb2dVertex
 10
415.006141
 20
179.357176
 30
0.0
  0
VERTEX
  5
4A3
330
48D
100
AcDbEntity
  8
002
 62
     3
370
     9
100
AcDbVertex
100
AcDb2dVertex
 10
416.906141
 20
178.173176
 30
0.0
  0
SEQEND
  5
48E
330
48D
100
AcDbEntity
  8
002
370
     9
  0
LINE
  5
4A4
330
1F
100
AcDbEntity
  8
002
 62
     3
370
    30
100
AcDbLine
 10
378.906141
 20
216.673176
 30
0.0
 11
378.906141
 21
178.173176
 31
0.0
  0
LINE
  5
4A5
330
1F
100
AcDbEntity
  8
002
 62
     3
370
    30
100
AcDbLine
 10
378.906141
 20
170.173176
 30
0.0
 11
378.906141
 21
131.673176
 31
0.0
  0
LINE
  5
4A6
330
1F
100
AcDbEntity
  8
002
 62
     3
370
    30
100
AcDbLine
 10
416.906141
 20
131.673176
 30
0.0
 11
416.906141
 21
170.173176
 31
0.0
  0
LINE
  5
4A7
330
1F
100
AcDbEntity
  8
002
 62
     3
370
    30
100
AcDbLine
 10
416.906141
 20
178.173176
 30
0.0
 11
416.906141
 21
216.673176
 31
0.0
  0
POLYLINE
  5
4A8
330
1F
100
AcDbEntity
  8
002
 62
     3
370
     9
100
AcDb2dPolyline
 66
     1
 10
0.0
 20
0.0
 30
0.0
  0
VERTEX
  5
4AA
330
4A8
100
AcDbEntity
  8
002
 62
     3
370
     9
100
AcDbVertex
100
AcDb2dVertex
 10
552.188175
 20
196.873176
 30
0.0
  0
VERTEX
  5
4AB
330
4A8
100
AcDbEntity
  8
002
 62
     3
370
     9
100
AcDbVertex
100
AcDb2dVertex
 10
554.271508
 20
194.94725
 30
0.0
  0
VERTEX
  5
4AC
330
4A8
100
AcDbEntity
  8
002
 62
     3
370
     9
100
AcDbVertex
100
AcDb2dVertex
 10
556.354842
 20
193.465768
 30
0.0
  0
VERTEX
  5
4AD
330
4A8
100
AcDbEntity
  8
002
 62
     3
370
     9
100
AcDbVertex
100
AcDb2dVertex
 10
558.438175
 20
192.873176
 30
0.0
  0
VERTEX
  5
4AE
330
4A8
100
AcDbEntity
  8
002
 62
     3
370
     9
100
AcDbVertex
100
AcDb2dVertex
 10
560.521508
 20
193.465768
 30
0.0
  0
VERTEX
  5
4AF
330
4A8
100
AcDbEntity
  8
002
 62
     3
370
     9
100
AcDbVertex
100
AcDb2dVertex
 10
562.604842
 20
194.94725
 30
0.0
  0
VERTEX
  5
4B0
330
4A8
100
AcDbEntity
  8
002
 62
     3
370
     9
100
AcDbVertex
100
AcDb2dVertex
 10
564.688175
 20
196.873176
 30
0.0
  0
VERTEX
  5
4B1
330
4A8
100
AcDbEntity
  8
002
 62
     3
370
     9
100
AcDbVertex
100
AcDb2dVertex
 10
566.771508
 20
198.799102
 30
0.0
  0
VERTEX
  5
4B2
330
4A8
100
AcDbEntity
  8
002
 62
     3
370
     9
100
AcDbVertex
100
AcDb2dVertex
 10
568.854842
 20
200.280583
 30
0.0
  0
VERTEX
  5
4B3
330
4A8
100
AcDbEntity
  8
002
 62
     3
370
     9
100
AcDbVertex
100
AcDb2dVertex
 10
570.938175
 20
200.873176
 30
0.0
  0
VERTEX
  5
4B4
330
4A8
100
AcDbEntity
  8
002
 62
     3
370
     9
100
AcDbVertex
100
AcDb2dVertex
 10
573.021508
 20
200.280583
 30
0.0
  0
VERTEX
  5
4B5
330
4A8
100
AcDbEntity
  8
002
 62
     3
370
     9
100
AcDbVertex
100
AcDb2dVertex
 10
575.104842
 20
198.799102
 30
0.0
  0
VERTEX
  5
4B6
330
4A8
100
AcDbEntity
  8
002
 62
     3
370
     9
100
AcDbVertex
100
AcDb2dVertex
 10
577.188175
 20
196.873176
 30
0.0
  0
SEQEND
  5
4A9
330
4A8
100
AcDbEntity
  8
002
370
     9
  0
POLYLINE
  5
4B7
330
1F
100
AcDbEntity
  8
002
 62
     3
370
     9
100
AcDb2dPolyline
 66
     1
 10
0.0
 20
0.0
 30
0.0
  0
VERTEX
  5
4B9
330
4B7
100
AcDbEntity
  8
002
 62
     3
370
     9
100
AcDbVertex
100
AcDb2dVertex
 10
552.188175
 20
204.873176
 30
0.0
  0
VERTEX
  5
4BA
330
4B7
100
AcDbEntity
  8
002
 62
     3
370
     9
100
AcDbVertex
100
AcDb2dVertex
 10
554.271508
 20
202.94725
 30
0.0
  0
VERTEX
  5
4BB
330
4B7
100
AcDbEntity
  8
002
 62
     3
370
     9
100
AcDbVertex
100
AcDb2dVertex
 10
556.354842
 20
201.465768
 30
0.0
  0
VERTEX
  5
4BC
330
4B7
100
AcDbEntity
  8
002
 62
     3
370
     9
100
AcDbVertex
100
AcDb2dVertex
 10
558.438175
 20
200.873176
 30
0.0
  0
VERTEX
  5
4BD
330
4B7
100
AcDbEntity
  8
002
 62
     3
370
     9
100
AcDbVertex
100
AcDb2dVertex
 10
560.521508
 20
201.465768
 30
0.0
  0
VERTEX
  5
4BE
330
4B7
100
AcDbEntity
  8
002
 62
     3
370
     9
100
AcDbVertex
100
AcDb2dVertex
 10
562.604842
 20
202.94725
 30
0.0
  0
VERTEX
  5
4BF
330
4B7
100
AcDbEntity
  8
002
 62
     3
370
     9
100
AcDbVertex
100
AcDb2dVertex
 10
564.688175
 20
204.873176
 30
0.0
  0
VERTEX
  5
4C0
330
4B7
100
AcDbEntity
  8
002
 62
     3
370
     9
100
AcDbVertex
100
AcDb2dVertex
 10
566.771508
 20
206.799102
 30
0.0
  0
VERTEX
  5
4C1
330
4B7
100
AcDbEntity
  8
002
 62
     3
370
     9
100
AcDbVertex
100
AcDb2dVertex
 10
568.854842
 20
208.280583
 30
0.0
  0
VERTEX
  5
4C2
330
4B7
100
AcDbEntity
  8
002
 62
     3
370
     9
100
AcDbVertex
100
AcDb2dVertex
 10
570.938175
 20
208.873176
 30
0.0
  0
VERTEX
  5
4C3
330
4B7
100
AcDbEntity
  8
002
 62
     3
370
     9
100
AcDbVertex
100
AcDb2dVertex
 10
573.021508
 20
208.280583
 30
0.0
  0
VERTEX
  5
4C4
330
4B7
100
AcDbEntity
  8
002
 62
     3
370
     9
100
AcDbVertex
100
AcDb2dVertex
 10
575.104842
 20
206.799102
 30
0.0
  0
VERTEX
  5
4C5
330
4B7
100
AcDbEntity
  8
002
 62
     3
370
     9
100
AcDbVertex
100
AcDb2dVertex
 10
577.188175
 20
204.873176
 30
0.0
  0
SEQEND
  5
4B8
330
4B7
100
AcDbEntity
  8
002
370
     9
  0
LINE
  5
4C6
330
1F
100
AcDbEntity
  8
002
 62
    40
370
     9
100
AcDbLine
 10
574.438175
 20
266.673176
 30
0.0
 11
574.438175
 21
207.342808
 31
0.0
  0
LINE
  5
4C7
330
1F
100
AcDbEntity
  8
002
 62
    40
370
     9
100
AcDbLine
 10
574.438175
 20
199.342808
 30
0.0
 11
574.438175
 21
150.073176
 31
0.0
  0
LINE
  5
4C8
330
1F
100
AcDbEntity
  8
002
 62
     3
370
    30
100
AcDbLine
 10
577.188175
 20
266.673176
 30
0.0
 11
577.188175
 21
204.873176
 31
0.0
  0
LINE
  5
4C9
330
1F
100
AcDbEntity
  8
002
 62
     3
370
    30
100
AcDbLine
 10
577.188175
 20
196.873176
 30
0.0
 11
577.188175
 21
135.073176
 31
0.0
  0
LINE
  5
4CA
330
1F
100
AcDbEntity
  8
002
 62
    40
370
     9
100
AcDbLine
 10
554.938175
 20
266.673176
 30
0.0
 11
554.938175
 21
202.403544
 31
0.0
  0
LINE
  5
4CB
330
1F
100
AcDbEntity
  8
002
 62
    40
370
     9
100
AcDbLine
 10
554.938175
 20
194.403544
 30
0.0
 11
554.938175
 21
150.073176
 31
0.0
  0
LINE
  5
4CC
330
1F
100
AcDbEntity
  8
002
 62
     3
370
    30
100
AcDbLine
 10
552.188175
 20
266.673176
 30
0.0
 11
552.188175
 21
204.873176
 31
0.0
  0
LINE
  5
4CD
330
1F
100
AcDbEntity
  8
002
 62
     3
370
    30
100
AcDbLine
 10
552.188175
 20
196.873176
 30
0.0
 11
552.188175
 21
135.073176
 31
0.0
  0
POLYLINE
  5
4CE
330
1F
100
AcDbEntity
  8
002
 62
     3
370
     9
100
AcDb2dPolyline
 66
     1
 10
0.0
 20
0.0
 30
0.0
  0
VERTEX
  5
4D0
330
4CE
100
AcDbEntity
  8
002
 62
     3
370
     9
100
AcDbVertex
100
AcDb2dVertex
 10
545.688175
 20
431.973176
 30
0.0
  0
VERTEX
  5
4D1
330
4CE
100
AcDbEntity
  8
002
 62
     3
370
     9
100
AcDbVertex
100
AcDb2dVertex
 10
547.588175
 20
430.789176
 30
0.0
  0
VERTEX
  5
4D2
330
4CE
100
AcDbEntity
  8
002
 62
     3
370
     9
100
AcDbVertex
100
AcDb2dVertex
 10
549.488175
 20
429.701176
 30
0.0
  0
VERTEX
  5
4D3
330
4CE
100
AcDbEntity
  8
002
 62
     3
370
     9
100
AcDbVertex
100
AcDb2dVertex
 10
551.388175
 20
428.805176
 30
0.0
  0
VERTEX
  5
4D4
330
4CE
100
AcDbEntity
  8
002
 62
     3
370
     9
100
AcDbVertex
100
AcDb2dVertex
 10
553.288175
 20
428.197176
 30
0.0
  0
VERTEX
  5
4D5
330
4CE
100
AcDbEntity
  8
002
 62
     3
370
     9
100
AcDbVertex
100
AcDb2dVertex
 10
555.188175
 20
427.973176
 30
0.0
  0
VERTEX
  5
4D6
330
4CE
100
AcDbEntity
  8
002
 62
     3
370
     9
100
AcDbVertex
100
AcDb2dVertex
 10
557.088175
 20
428.197176
 30
0.0
  0
VERTEX
  5
4D7
330
4CE
100
AcDbEntity
  8
002
 62
     3
370
     9
100
AcDbVertex
100
AcDb2dVertex
 10
558.988175
 20
428.805176
 30
0.0
  0
VERTEX
  5
4D8
330
4CE
100
AcDbEntity
  8
002
 62
     3
370
     9
100
AcDbVertex
100
AcDb2dVertex
 10
560.888175
 20
429.701176
 30
0.0
  0
VERTEX
  5
4D9
330
4CE
100
AcDbEntity
  8
002
 62
     3
370
     9
100
AcDbVertex
100
AcDb2dVertex
 10
562.788175
 20
430.789176
 30
0.0
  0
VERTEX
  5
4DA
330
4CE
100
AcDbEntity
  8
002
 62
     3
370
     9
100
AcDbVertex
100
AcDb2dVertex
 10
564.688175
 20
431.973176
 30
0.0
  0
VERTEX
  5
4DB
330
4CE
100
AcDbEntity
  8
002
 62
     3
370
     9
100
AcDbVertex
100
AcDb2dVertex
 10
566.588175
 20
433.157176
 30
0.0
  0
VERTEX
  5
4DC
330
4CE
100
AcDbEntity
  8
002
 62
     3
370
     9
100
AcDbVertex
100
AcDb2dVertex
 10
568.488175
 20
434.245176
 30
0.0
  0
VERTEX
  5
4DD
330
4CE
100
AcDbEntity
  8
002
 62
     3
370
     9
100
AcDbVertex
100
AcDb2dVertex
 10
570.388175
 20
435.141176
 30
0.0
  0
VERTEX
  5
4DE
330
4CE
100
AcDbEntity
  8
002
 62
     3
370
     9
100
AcDbVertex
100
AcDb2dVertex
 10
572.288175
 20
435.749176
 30
0.0
  0
VERTEX
  5
4DF
330
4CE
100
AcDbEntity
  8
002
 62
     3
370
     9
100
AcDbVertex
100
AcDb2dVertex
 10
574.188175
 20
435.973176
 30
0.0
  0
VERTEX
  5
4E0
330
4CE
100
AcDbEntity
  8
002
 62
     3
370
     9
100
AcDbVertex
100
AcDb2dVertex
 10
576.088175
 20
435.749176
 30
0.0
  0
VERTEX
  5
4E1
330
4CE
100
AcDbEntity
  8
002
 62
     3
370
     9
100
AcDbVertex
100
AcDb2dVertex
 10
577.988175
 20
435.141176
 30
0.0
  0
VERTEX
  5
4E2
330
4CE
100
AcDbEntity
  8
002
 62
     3
370
     9
100
AcDbVertex
100
AcDb2dVertex
 10
579.888175
 20
434.245176
 30
0.0
  0
VERTEX
  5
4E3
330
4CE
100
AcDbEntity
  8
002
 62
     3
370
     9
100
AcDbVertex
100
AcDb2dVertex
 10
581.788175
 20
433.157176
 30
0.0
  0
VERTEX
  5
4E4
330
4CE
100
AcDbEntity
  8
002
 62
     3
370
     9
100
AcDbVertex
100
AcDb2dVertex
 10
583.688175
 20
431.973176
 30
0.0
  0
SEQEND
  5
4CF
330
4CE
100
AcDbEntity
  8
002
370
     9
  0
POLYLINE
  5
4E5
330
1F
100
AcDbEntity
  8
002
 62
     3
370
     9
100
AcDb2dPolyline
 66
     1
 10
0.0
 20
0.0
 30
0.0
  0
VERTEX
  5
4E7
330
4E5
100
AcDbEntity
  8
002
 62
     3
370
     9
100
AcDbVertex
100
AcDb2dVertex
 10
545.688175
 20
439.973176
 30
0.0
  0
VERTEX
  5
4E8
330
4E5
100
AcDbEntity
  8
002
 62
     3
370
     9
100
AcDbVertex
100
AcDb2dVertex
 10
547.588175
 20
438.789176
 30
0.0
  0
VERTEX
  5
4E9
330
4E5
100
AcDbEntity
  8
002
 62
     3
370
     9
100
AcDbVertex
100
AcDb2dVertex
 10
549.488175
 20
437.701176
 30
0.0
  0
VERTEX
  5
4EA
330
4E5
100
AcDbEntity
  8
002
 62
     3
370
     9
100
AcDbVertex
100
AcDb2dVertex
 10
551.388175
 20
436.805176
 30
0.0
  0
VERTEX
  5
4EB
330
4E5
100
AcDbEntity
  8
002
 62
     3
370
     9
100
AcDbVertex
100
AcDb2dVertex
 10
553.288175
 20
436.197176
 30
0.0
  0
VERTEX
  5
4EC
330
4E5
100
AcDbEntity
  8
002
 62
     3
370
     9
100
AcDbVertex
100
AcDb2dVertex
 10
555.188175
 20
435.973176
 30
0.0
  0
VERTEX
  5
4ED
330
4E5
100
AcDbEntity
  8
002
 62
     3
370
     9
100
AcDbVertex
100
AcDb2dVertex
 10
557.088175
 20
436.197176
 30
0.0
  0
VERTEX
  5
4EE
330
4E5
100
AcDbEntity
  8
002
 62
     3
370
     9
100
AcDbVertex
100
AcDb2dVertex
 10
558.988175
 20
436.805176
 30
0.0
  0
VERTEX
  5
4EF
330
4E5
100
AcDbEntity
  8
002
 62
     3
370
     9
100
AcDbVertex
100
AcDb2dVertex
 10
560.888175
 20
437.701176
 30
0.0
  0
VERTEX
  5
4F0
330
4E5
100
AcDbEntity
  8
002
 62
     3
370
     9
100
AcDbVertex
100
AcDb2dVertex
 10
562.788175
 20
438.789176
 30
0.0
  0
VERTEX
  5
4F1
330
4E5
100
AcDbEntity
  8
002
 62
     3
370
     9
100
AcDbVertex
100
AcDb2dVertex
 10
564.688175
 20
439.973176
 30
0.0
  0
VERTEX
  5
4F2
330
4E5
100
AcDbEntity
  8
002
 62
     3
370
     9
100
AcDbVertex
100
AcDb2dVertex
 10
566.588175
 20
441.157176
 30
0.0
  0
VERTEX
  5
4F3
330
4E5
100
AcDbEntity
  8
002
 62
     3
370
     9
100
AcDbVertex
100
AcDb2dVertex
 10
568.488175
 20
442.245176
 30
0.0
  0
VERTEX
  5
4F4
330
4E5
100
AcDbEntity
  8
002
 62
     3
370
     9
100
AcDbVertex
100
AcDb2dVertex
 10
570.388175
 20
443.141176
 30
0.0
  0
VERTEX
  5
4F5
330
4E5
100
AcDbEntity
  8
002
 62
     3
370
     9
100
AcDbVertex
100
AcDb2dVertex
 10
572.288175
 20
443.749176
 30
0.0
  0
VERTEX
  5
4F6
330
4E5
100
AcDbEntity
  8
002
 62
     3
370
     9
100
AcDbVertex
100
AcDb2dVertex
 10
574.188175
 20
443.973176
 30
0.0
  0
VERTEX
  5
4F7
330
4E5
100
AcDbEntity
  8
002
 62
     3
370
     9
100
AcDbVertex
100
AcDb2dVertex
 10
576.088175
 20
443.749176
 30
0.0
  0
VERTEX
  5
4F8
330
4E5
100
AcDbEntity
  8
002
 62
     3
370
     9
100
AcDbVertex
100
AcDb2dVertex
 10
577.988175
 20
443.141176
 30
0.0
  0
VERTEX
  5
4F9
330
4E5
100
AcDbEntity
  8
002
 62
     3
370
     9
100
AcDbVertex
100
AcDb2dVertex
 10
579.888175
 20
442.245176
 30
0.0
  0
VERTEX
  5
4FA
330
4E5
100
AcDbEntity
  8
002
 62
     3
370
     9
100
AcDbVertex
100
AcDb2dVertex
 10
581.788175
 20
441.157176
 30
0.0
  0
VERTEX
  5
4FB
330
4E5
100
AcDbEntity
  8
002
 62
     3
370
     9
100
AcDbVertex
100
AcDb2dVertex
 10
583.688175
 20
439.973176
 30
0.0
  0
SEQEND
  5
4E6
330
4E5
100
AcDbEntity
  8
002
370
     9
  0
LINE
  5
4FC
330
1F
100
AcDbEntity
  8
002
 62
     3
370
    30
100
AcDbLine
 10
545.688175
 20
393.473176
 30
0.0
 11
545.688175
 21
431.973176
 31
0.0
  0
LINE
  5
4FD
330
1F
100
AcDbEntity
  8
002
 62
     3
370
    30
100
AcDbLine
 10
545.688175
 20
439.973176
 30
0.0
 11
545.688175
 21
478.473176
 31
0.0
  0
LINE
  5
4FE
330
1F
100
AcDbEntity
  8
002
 62
     3
370
    30
100
AcDbLine
 10
583.688175
 20
478.473176
 30
0.0
 11
583.688175
 21
439.973176
 31
0.0
  0
LINE
  5
4FF
330
1F
100
AcDbEntity
  8
002
 62
     3
370
    30
100
AcDbLine
 10
583.688175
 20
431.973176
 30
0.0
 11
583.688175
 21
393.473176
 31
0.0
  0
POLYLINE
  5
500
330
1F
100
AcDbEntity
  8
002
 62
     3
370
     9
100
AcDb2dPolyline
 66
     1
 10
0.0
 20
0.0
 30
0.0
  0
VERTEX
  5
502
330
500
100
AcDbEntity
  8
002
 62
     3
370
     9
100
AcDbVertex
100
AcDb2dVertex
 10
735.283198
 20
431.973176
 30
0.0
  0
VERTEX
  5
503
330
500
100
AcDbEntity
  8
002
 62
     3
370
     9
100
AcDbVertex
100
AcDb2dVertex
 10
737.183198
 20
430.789176
 30
0.0
  0
VERTEX
  5
504
330
500
100
AcDbEntity
  8
002
 62
     3
370
     9
100
AcDbVertex
100
AcDb2dVertex
 10
739.083198
 20
429.701176
 30
0.0
  0
VERTEX
  5
505
330
500
100
AcDbEntity
  8
002
 62
     3
370
     9
100
AcDbVertex
100
AcDb2dVertex
 10
740.983198
 20
428.805176
 30
0.0
  0
VERTEX
  5
506
330
500
100
AcDbEntity
  8
002
 62
     3
370
     9
100
AcDbVertex
100
AcDb2dVertex
 10
742.883198
 20
428.197176
 30
0.0
  0
VERTEX
  5
507
330
500
100
AcDbEntity
  8
002
 62
     3
370
     9
100
AcDbVertex
100
AcDb2dVertex
 10
744.783198
 20
427.973176
 30
0.0
  0
VERTEX
  5
508
330
500
100
AcDbEntity
  8
002
 62
     3
370
     9
100
AcDbVertex
100
AcDb2dVertex
 10
746.683198
 20
428.197176
 30
0.0
  0
VERTEX
  5
509
330
500
100
AcDbEntity
  8
002
 62
     3
370
     9
100
AcDbVertex
100
AcDb2dVertex
 10
748.583198
 20
428.805176
 30
0.0
  0
VERTEX
  5
50A
330
500
100
AcDbEntity
  8
002
 62
     3
370
     9
100
AcDbVertex
100
AcDb2dVertex
 10
750.483198
 20
429.701176
 30
0.0
  0
VERTEX
  5
50B
330
500
100
AcDbEntity
  8
002
 62
     3
370
     9
100
AcDbVertex
100
AcDb2dVertex
 10
752.383198
 20
430.789176
 30
0.0
  0
VERTEX
  5
50C
330
500
100
AcDbEntity
  8
002
 62
     3
370
     9
100
AcDbVertex
100
AcDb2dVertex
 10
754.283198
 20
431.973176
 30
0.0
  0
VERTEX
  5
50D
330
500
100
AcDbEntity
  8
002
 62
     3
370
     9
100
AcDbVertex
100
AcDb2dVertex
 10
756.183198
 20
433.157176
 30
0.0
  0
VERTEX
  5
50E
330
500
100
AcDbEntity
  8
002
 62
     3
370
     9
100
AcDbVertex
100
AcDb2dVertex
 10
758.083198
 20
434.245176
 30
0.0
  0
VERTEX
  5
50F
330
500
100
AcDbEntity
  8
002
 62
     3
370
     9
100
AcDbVertex
100
AcDb2dVertex
 10
759.983198
 20
435.141176
 30
0.0
  0
VERTEX
  5
510
330
500
100
AcDbEntity
  8
002
 62
     3
370
     9
100
AcDbVertex
100
AcDb2dVertex
 10
761.883198
 20
435.749176
 30
0.0
  0
VERTEX
  5
511
330
500
100
AcDbEntity
  8
002
 62
     3
370
     9
100
AcDbVertex
100
AcDb2dVertex
 10
763.783198
 20
435.973176
 30
0.0
  0
VERTEX
  5
512
330
500
100
AcDbEntity
  8
002
 62
     3
370
     9
100
AcDbVertex
100
AcDb2dVertex
 10
765.683198
 20
435.749176
 30
0.0
  0
VERTEX
  5
513
330
500
100
AcDbEntity
  8
002
 62
     3
370
     9
100
AcDbVertex
100
AcDb2dVertex
 10
767.583198
 20
435.141176
 30
0.0
  0
VERTEX
  5
514
330
500
100
AcDbEntity
  8
002
 62
     3
370
     9
100
AcDbVertex
100
AcDb2dVertex
 10
769.483198
 20
434.245176
 30
0.0
  0
VERTEX
  5
515
330
500
100
AcDbEntity
  8
002
 62
     3
370
     9
100
AcDbVertex
100
AcDb2dVertex
 10
771.383198
 20
433.157176
 30
0.0
  0
VERTEX
  5
516
330
500
100
AcDbEntity
  8
002
 62
     3
370
     9
100
AcDbVertex
100
AcDb2dVertex
 10
773.283198
 20
431.973176
 30
0.0
  0
SEQEND
  5
501
330
500
100
AcDbEntity
  8
002
370
     9
  0
POLYLINE
  5
517
330
1F
100
AcDbEntity
  8
002
 62
     3
370
     9
100
AcDb2dPolyline
 66
     1
 10
0.0
 20
0.0
 30
0.0
  0
VERTEX
  5
519
330
517
100
AcDbEntity
  8
002
 62
     3
370
     9
100
AcDbVertex
100
AcDb2dVertex
 10
735.283198
 20
439.973176
 30
0.0
  0
VERTEX
  5
51A
330
517
100
AcDbEntity
  8
002
 62
     3
370
     9
100
AcDbVertex
100
AcDb2dVertex
 10
737.183198
 20
438.789176
 30
0.0
  0
VERTEX
  5
51B
330
517
100
AcDbEntity
  8
002
 62
     3
370
     9
100
AcDbVertex
100
AcDb2dVertex
 10
739.083198
 20
437.701176
 30
0.0
  0
VERTEX
  5
51C
330
517
100
AcDbEntity
  8
002
 62
     3
370
     9
100
AcDbVertex
100
AcDb2dVertex
 10
740.983198
 20
436.805176
 30
0.0
  0
VERTEX
  5
51D
330
517
100
AcDbEntity
  8
002
 62
     3
370
     9
100
AcDbVertex
100
AcDb2dVertex
 10
742.883198
 20
436.197176
 30
0.0
  0
VERTEX
  5
51E
330
517
100
AcDbEntity
  8
002
 62
     3
370
     9
100
AcDbVertex
100
AcDb2dVertex
 10
744.783198
 20
435.973176
 30
0.0
  0
VERTEX
  5
51F
330
517
100
AcDbEntity
  8
002
 62
     3
370
     9
100
AcDbVertex
100
AcDb2dVertex
 10
746.683198
 20
436.197176
 30
0.0
  0
VERTEX
  5
520
330
517
100
AcDbEntity
  8
002
 62
     3
370
     9
100
AcDbVertex
100
AcDb2dVertex
 10
748.583198
 20
436.805176
 30
0.0
  0
VERTEX
  5
521
330
517
100
AcDbEntity
  8
002
 62
     3
370
     9
100
AcDbVertex
100
AcDb2dVertex
 10
750.483198
 20
437.701176
 30
0.0
  0
VERTEX
  5
522
330
517
100
AcDbEntity
  8
002
 62
     3
370
     9
100
AcDbVertex
100
AcDb2dVertex
 10
752.383198
 20
438.789176
 30
0.0
  0
VERTEX
  5
523
330
517
100
AcDbEntity
  8
002
 62
     3
370
     9
100
AcDbVertex
100
AcDb2dVertex
 10
754.283198
 20
439.973176
 30
0.0
  0
VERTEX
  5
524
330
517
100
AcDbEntity
  8
002
 62
     3
370
     9
100
AcDbVertex
100
AcDb2dVertex
 10
756.183198
 20
441.157176
 30
0.0
  0
VERTEX
  5
525
330
517
100
AcDbEntity
  8
002
 62
     3
370
     9
100
AcDbVertex
100
AcDb2dVertex
 10
758.083198
 20
442.245176
 30
0.0
  0
VERTEX
  5
526
330
517
100
AcDbEntity
  8
002
 62
     3
370
     9
100
AcDbVertex
100
AcDb2dVertex
 10
759.983198
 20
443.141176
 30
0.0
  0
VERTEX
  5
527
330
517
100
AcDbEntity
  8
002
 62
     3
370
     9
100
AcDbVertex
100
AcDb2dVertex
 10
761.883198
 20
443.749176
 30
0.0
  0
VERTEX
  5
528
330
517
100
AcDbEntity
  8
002
 62
     3
370
     9
100
AcDbVertex
100
AcDb2dVertex
 10
763.783198
 20
443.973176
 30
0.0
  0
VERTEX
  5
529
330
517
100
AcDbEntity
  8
002
 62
     3
370
     9
100
AcDbVertex
100
AcDb2dVertex
 10
765.683198
 20
443.749176
 30
0.0
  0
VERTEX
  5
52A
330
517
100
AcDbEntity
  8
002
 62
     3
370
     9
100
AcDbVertex
100
AcDb2dVertex
 10
767.583198
 20
443.141176
 30
0.0
  0
VERTEX
  5
52B
330
517
100
AcDbEntity
  8
002
 62
     3
370
     9
100
AcDbVertex
100
AcDb2dVertex
 10
769.483198
 20
442.245176
 30
0.0
  0
VERTEX
  5
52C
330
517
100
AcDbEntity
  8
002
 62
     3
370
     9
100
AcDbVertex
100
AcDb2dVertex
 10
771.383198
 20
441.157176
 30
0.0
  0
VERTEX
  5
52D
330
517
100
AcDbEntity
  8
002
 62
     3
370
     9
100
AcDbVertex
100
AcDb2dVertex
 10
773.283198
 20
439.973176
 30
0.0
  0
SEQEND
  5
518
330
517
100
AcDbEntity
  8
002
370
     9
  0
LINE
  5
52E
330
1F
100
AcDbEntity
  8
002
 62
     3
370
    30
100
AcDbLine
 10
735.283198
 20
393.473176
 30
0.0
 11
735.283198
 21
431.973176
 31
0.0
  0
LINE
  5
52F
330
1F
100
AcDbEntity
  8
002
 62
     3
370
    30
100
AcDbLine
 10
735.283198
 20
439.973176
 30
0.0
 11
735.283198
 21
478.473176
 31
0.0
  0
LINE
  5
530
330
1F
100
AcDbEntity
  8
002
 62
     3
370
    30
100
AcDbLine
 10
773.283198
 20
478.473176
 30
0.0
 11
773.283198
 21
439.973176
 31
0.0
  0
LINE
  5
531
330
1F
100
AcDbEntity
  8
002
 62
     3
370
    30
100
AcDbLine
 10
773.283198
 20
431.973176
 30
0.0
 11
773.283198
 21
393.473176
 31
0.0
  0
LINE
  5
532
330
1F
100
AcDbEntity
  8
002
  6
CENTER
 62
    40
370
     9
100
AcDbLine
 10
564.688175
 20
503.473176
 30
0.0
 11
564.688175
 21
106.673176
 31
0.0
  0
LINE
  5
533
330
1F
100
AcDbEntity
  8
002
  6
CENTER
 62
    40
370
     9
100
AcDbLine
 10
754.283198
 20
503.473176
 30
0.0
 11
754.283198
 21
106.673176
 31
0.0
  0
LINE
  5
534
330
1F
100
AcDbEntity
  8
002
  6
CENTER
 62
    40
370
     9
100
AcDbLine
 10
223.639231
 20
550.073176
 30
0.0
 11
223.639231
 21
99.225772
 31
0.0
  0
LINE
  5
535
330
1F
100
AcDbEntity
  8
002
  6
CENTER
 62
    40
370
     9
100
AcDbLine
 10
397.906141
 20
550.073176
 30
0.0
 11
397.906141
 21
99.225772
 31
0.0
  0
ENDSEC
  0
SECTION
  2
OBJECTS
  0
DICTIONARY
  5
C
330
0
100
AcDbDictionary
281
     1
  3
ACAD_GROUP
350
D
  3
ACAD_LAYOUT
350
1A
  3
ACAD_MLEADERSTYLE
350
538
  3
ACAD_MLINESTYLE
350
17
  3
ACAD_PLOTSETTINGS
350
19
  3
ACAD_PLOTSTYLENAME
350
E
  3
ACAD_VISUALSTYLE
350
2A
  3
AcDbVariableDictionary
350
536
  0
DICTIONARY
  5
D
102
{ACAD_REACTORS
330
C
102
}
330
C
100
AcDbDictionary
281
     1
  0
DICTIONARY
  5
1A
102
{ACAD_REACTORS
330
C
102
}
330
C
100
AcDbDictionary
281
     1
  3
Layout1
350
1E
  3
Layout2
350
26
  3
Model
350
22
  0
DICTIONARY
  5
538
102
{ACAD_REACTORS
330
C
102
}
330
C
100
AcDbDictionary
281
     1
  0
DICTIONARY
  5
17
102
{ACAD_REACTORS
330
C
102
}
330
C
100
AcDbDictionary
281
     1
  3
Standard
350
18
  0
DICTIONARY
  5
19
102
{ACAD_REACTORS
330
C
102
}
330
C
100
AcDbDictionary
281
     1
  0
ACDBDICTIONARYWDFLT
  5
E
102
{ACAD_REACTORS
330
C
102
}
330
C
100
AcDbDictionary
281
     1
  3
Normal
350
F
100
AcDbDictionaryWithDefault
340
F
  0
DICTIONARY
  5
2A
102
{ACAD_REACTORS
330
C
102
}
330
C
100
AcDbDictionary
281
     1
  3
2dWireframe
350
2F
  3
3D Hidden
350
31
  3
3dWireframe
350
30
  3
Basic
350
32
  3
Brighten
350
36
  3
ColorChange
350
3A
  3
Conceptual
350
34
  3
Dim
350
35
  3
Facepattern
350
39
  3
Flat
350
2B
  3
FlatWithEdges
350
2C
  3
Gouraud
350
2D
  3
GouraudWithEdges
350
2E
  3
Linepattern
350
38
  3
Realistic
350
33
  3
Thicken
350
37
  0
DICTIONARY
  5
536
102
{ACAD_REACTORS
330
C
102
}
330
C
100
AcDbDictionary
281
     1
  3
PSOLHEIGHT
350
53A
  3
PSOLWIDTH
350
539
  0
LAYOUT
  5
1E
102
{ACAD_REACTORS
330
1A
102
}
330
1A
100
AcDbPlotSettings
  1

  2
none_device
  4

  6

 40
0.0
 41
0.0
 42
0.0
 43
0.0
 44
0.0
 45
0.0
 46
0.0
 47
0.0
 48
0.0
 49
0.0
140
0.0
141
0.0
142
1.0
143
1.0
 70
   688
 72
     0
 73
     0
 74
     5
  7

 75
    16
147
1.0
148
0.0
149
0.0
100
AcDbLayout
  1
Layout1
 70
     1
 71
     1
 10
0.0
 20
0.0
 11
12.0
 21
9.0
 12
0.0
 22
0.0
 32
0.0
 14
1.000000E+20
 24
1.000000E+20
 34
0.0
 15
-1.000000E+20
 25
-1.000000E+20
 35
0.0
146
0.0
 13
0.0
 23
0.0
 33
0.0
 16
1.0
 26
0.0
 36
0.0
 17
0.0
 27
1.0
 37
0.0
 76
     0
330
1B
  0
LAYOUT
  5
26
102
{ACAD_REACTORS
330
1A
102
}
330
1A
100
AcDbPlotSettings
  1

  2
none_device
  4

  6

 40
0.0
 41
0.0
 42
0.0
 43
0.0
 44
0.0
 45
0.0
 46
0.0
 47
0.0
 48
0.0
 49
0.0
140
0.0
141
0.0
142
1.0
143
1.0
 70
   688
 72
     0
 73
     0
 74
     5
  7

 75
    16
147
1.0
148
0.0
149
0.0
100
AcDbLayout
  1
Layout2
 70
     1
 71
     2
 10
0.0
 20
0.0
 11
0.0
 21
0.0
 12
0.0
 22
0.0
 32
0.0
 14
0.0
 24
0.0
 34
0.0
 15
0.0
 25
0.0
 35
0.0
146
0.0
 13
0.0
 23
0.0
 33
0.0
 16
1.0
 26
0.0
 36
0.0
 17
0.0
 27
1.0
 37
0.0
 76
     0
330
23
  0
LAYOUT
  5
22
102
{ACAD_REACTORS
330
1A
102
}
330
1A
100
AcDbPlotSettings
  1

  2
none_device
  4

  6

 40
0.0
 41
0.0
 42
0.0
 43
0.0
 44
0.0
 45
0.0
 46
0.0
 47
0.0
 48
0.0
 49
0.0
140
0.0
141
0.0
142
1.0
143
1.0
 70
  1712
 72
     0
 73
     0
 74
     0
  7

 75
     0
147
1.0
148
0.0
149
0.0
100
AcDbLayout
  1
Model
 70
     1
 71
     0
 10
0.0
 20
0.0
 11
12.0
 21
9.0
 12
0.0
 22
0.0
 32
0.0
 14
167.080139
 24
99.2258
 34
0.0
 15
837.483643
 25
1069.689697
 35
0.0
146
0.0
 13
0.0
 23
0.0
 33
0.0
 16
1.0
 26
0.0
 36
0.0
 17
0.0
 27
1.0
 37
0.0
 76
     0
330
1F
331
29
  0
MLINESTYLE
  5
18
102
{ACAD_REACTORS
330
17
102
}
330
17
100
AcDbMlineStyle
  2
Standard
 70
     0
  3

 62
   256
 51
90.0
 52
90.0
 71
     2
 49
0.5
 62
   256
  6
BYLAYER
 49
-0.5
 62
   256
  6
BYLAYER
  0
ACDBPLACEHOLDER
  5
F
102
{ACAD_REACTORS
330
E
102
}
330
E
  0
VISUALSTYLE
  5
2F
102
{ACAD_REACTORS
330
2A
102
}
330
2A
100
AcDbVisualStyle
  2
2dWireframe
 70
     4
 71
     0
 72
     2
 73
     0
 90
        0
 40
-0.6
 41
-30.0
 62
     5
 63
     7
 74
     1
 91
        4
 64
     7
 65
   257
 75
     1
175
     1
 42
1.0
 92
        0
 66
   257
 43
1.0
 76
     1
 77
     6
 78
     2
 67
     7
 79
     5
170
     0
171
     0
290
     0
174
     0
 93
        1
 44
0.0
173
     0
291
     0
 45
0.0
1001
ACAD
1000
AcDbSavedByObjectVersion
1070
     0
  0
VISUALSTYLE
  5
31
102
{ACAD_REACTORS
330
2A
102
}
330
2A
100
AcDbVisualStyle
  2
3D Hidden
 70
     6
 71
     1
 72
     2
 73
     2
 90
        0
 40
-0.6
 41
-30.0
 62
     5
 63
     7
 74
     2
 91
        2
 64
     7
 65
   257
 75
     2
175
     1
 42
40.0
 92
        0
 66
   257
 43
1.0
 76
     1
 77
     6
 78
     2
 67
     7
 79
     3
170
     0
171
     0
290
     0
174
     0
 93
        1
 44
0.0
173
     0
291
     0
 45
0.0
1001
ACAD
1000
AcDbSavedByObjectVersion
1070
     0
  0
VISUALSTYLE
  5
30
102
{ACAD_REACTORS
330
2A
102
}
330
2A
100
AcDbVisualStyle
  2
3dWireframe
 70
     5
 71
     0
 72
     2
 73
     0
 90
        0
 40
-0.6
 41
-30.0
 62
     5
 63
     7
 74
     1
 91
        4
 64
     7
 65
   257
 75
     1
175
     1
 42
1.0
 92
        0
 66
   257
 43
1.0
 76
     1
 77
     6
 78
     2
 67
     7
 79
     5
170
     0
171
     0
290
     0
174
     0
 93
        1
 44
0.0
173
     0
291
     0
 45
0.0
1001
ACAD
1000
AcDbSavedByObjectVersion
1070
     0
  0
VISUALSTYLE
  5
32
102
{ACAD_REACTORS
330
2A
102
}
330
2A
100
AcDbVisualStyle
  2
Basic
 70
     7
 71
     1
 72
     0
 73
     1
 90
        0
 40
-0.6
 41
-30.0
 62
     5
 63
     7
 74
     0
 91
        4
 64
     7
 65
   257
 75
     1
175
     1
 42
1.0
 92
        8
 66
     7
 43
1.0
 76
     1
 77
     6
 78
     2
 67
     7
 79
     5
170
     0
171
     0
290
     0
174
     0
 93
        1
 44
0.0
173
     0
291
     1
 45
0.0
1001
ACAD
1000
AcDbSavedByObjectVersion
1070
     0
  0
VISUALSTYLE
  5
36
102
{ACAD_REACTORS
330
2A
102
}
330
2A
100
AcDbVisualStyle
  2
Brighten
 70
    12
 71
     2
 72
     2
 73
     0
 90
        0
 40
-0.6
 41
-30.0
 62
     5
 63
     7
 74
     1
 91
        4
 64
     7
 65
   257
 75
     1
175
     1
 42
1.0
 92
        8
 66
     7
 43
1.0
 76
     1
 77
     6
 78
     2
 67
     7
 79
     5
170
     0
171
     0
290
     0
174
     0
 93
        1
 44
50.0
173
     0
291
     1
 45
0.0
1001
ACAD
1000
AcDbSavedByObjectVersion
1070
     0
  0
VISUALSTYLE
  5
3A
102
{ACAD_REACTORS
330
2A
102
}
330
2A
100
AcDbVisualStyle
  2
ColorChange
 70
    16
 71
     2
 72
     2
 73
     3
 90
        0
 40
-0.6
 41
-30.0
 62
     5
 63
     8
 74
     1
 91
        4
 64
     7
 65
   257
 75
     1
175
     1
 42
1.0
 92
        8
 66
     8
 43
1.0
 76
     1
 77
     6
 78
     2
 67
     7
 79
     5
170
     0
171
     0
290
     0
174
     0
 93
        1
 44
0.0
173
     0
291
     1
 45
0.0
1001
ACAD
1000
AcDbSavedByObjectVersion
1070
     0
  0
VISUALSTYLE
  5
34
102
{ACAD_REACTORS
330
2A
102
}
330
2A
100
AcDbVisualStyle
  2
Conceptual
 70
     9
 71
     3
 72
     2
 73
     0
 90
        0
 40
-0.6
 41
-30.0
 62
     5
 63
     7
 74
     2
 91
        2
 64
     7
 65
   257
 75
     1
175
     1
 42
40.0
 92
        8
 66
     7
 43
1.0
 76
     1
 77
     6
 78
     2
 67
     7
 79
     3
170
     0
171
     0
290
     0
174
     0
 93
        1
 44
0.0
173
     0
291
     0
 45
0.0
1001
ACAD
1000
AcDbSavedByObjectVersion
1070
     0
  0
VISUALSTYLE
  5
35
102
{ACAD_REACTORS
330
2A
102
}
330
2A
100
AcDbVisualStyle
  2
Dim
 70
    11
 71
     2
 72
     2
 73
     0
 90
        0
 40
-0.6
 41
-30.0
 62
     5
 63
     7
 74
     1
 91
        4
 64
     7
 65
   257
 75
     1
175
     1
 42
1.0
 92
        8
 66
     7
 43
1.0
 76
     1
 77
     6
 78
     2
 67
     7
 79
     5
170
     0
171
     0
290
     0
174
     0
 93
        1
 44
-50.0
173
     0
291
     1
 45
0.0
1001
ACAD
1000
AcDbSavedByObjectVersion
1070
     0
  0
VISUALSTYLE
  5
39
102
{ACAD_REACTORS
330
2A
102
}
330
2A
100
AcDbVisualStyle
  2
Facepattern
 70
    15
 71
     2
 72
     2
 73
     0
 90
        0
 40
-0.6
 41
-30.0
 62
     5
 63
     7
 74
     1
 91
        4
 64
     7
 65
   257
 75
     1
175
     1
 42
1.0
 92
        8
 66
     7
 43
1.0
 76
     1
 77
     6
 78
     2
 67
     7
 79
     5
170
     0
171
     0
290
     0
174
     0
 93
        1
 44
0.0
173
     0
291
     1
 45
0.0
1001
ACAD
1000
AcDbSavedByObjectVersion
1070
     0
  0
VISUALSTYLE
  5
2B
102
{ACAD_REACTORS
330
2A
102
}
330
2A
100
AcDbVisualStyle
  2
Flat
 70
     0
 71
     2
 72
     1
 73
     1
 90
        2
 40
-0.6
 41
30.0
 62
     5
 63
     7
 74
     0
 91
        4
 64
     7
 65
   257
 75
     1
175
     1
 42
1.0
 92
        8
 66
     7
 43
1.0
 76
     1
 77
     6
 78
     2
 67
     7
 79
     5
170
     0
171
     0
290
     0
174
     0
 93
       13
 44
0.0
173
     0
291
     1
 45
0.0
1001
ACAD
1000
AcDbSavedByObjectVersion
1070
     0
  0
VISUALSTYLE
  5
2C
102
{ACAD_REACTORS
330
2A
102
}
330
2A
100
AcDbVisualStyle
  2
FlatWithEdges
 70
     1
 71
     2
 72
     1
 73
     1
 90
        2
 40
-0.6
 41
30.0
 62
     5
 63
     7
 74
     1
 91
        4
 64
     7
 65
   257
 75
     1
175
     1
 42
1.0
 92
        0
 66
   257
 43
1.0
 76
     1
 77
     6
 78
     2
 67
     7
 79
     5
170
     0
171
     0
290
     0
174
     0
 93
       13
 44
0.0
173
     0
291
     1
 45
0.0
1001
ACAD
1000
AcDbSavedByObjectVersion
1070
     0
  0
VISUALSTYLE
  5
2D
102
{ACAD_REACTORS
330
2A
102
}
330
2A
100
AcDbVisualStyle
  2
Gouraud
 70
     2
 71
     2
 72
     2
 73
     1
 90
        2
 40
-0.6
 41
30.0
 62
     5
 63
     7
 74
     0
 91
        4
 64
     7
 65
   257
 75
     1
175
     1
 42
1.0
 92
        0
 66
     7
 43
1.0
 76
     1
 77
     6
 78
     2
 67
     7
 79
     5
170
     0
171
     0
290
     0
174
     0
 93
       13
 44
0.0
173
     0
291
     1
 45
0.0
1001
ACAD
1000
AcDbSavedByObjectVersion
1070
     0
  0
VISUALSTYLE
  5
2E
102
{ACAD_REACTORS
330
2A
102
}
330
2A
100
AcDbVisualStyle
  2
GouraudWithEdges
 70
     3
 71
     2
 72
     2
 73
     1
 90
        2
 40
-0.6
 41
30.0
 62
     5
 63
     7
 74
     1
 91
        4
 64
     7
 65
   257
 75
     1
175
     1
 42
1.0
 92
        0
 66
   257
 43
1.0
 76
     1
 77
     6
 78
     2
 67
     7
 79
     5
170
     0
171
     0
290
     0
174
     0
 93
       13
 44
0.0
173
     0
291
     1
 45
0.0
1001
ACAD
1000
AcDbSavedByObjectVersion
1070
     0
  0
VISUALSTYLE
  5
38
102
{ACAD_REACTORS
330
2A
102
}
330
2A
100
AcDbVisualStyle
  2
Linepattern
 70
    14
 71
     2
 72
     2
 73
     0
 90
        0
 40
-0.6
 41
-30.0
 62
     5
 63
     7
 74
     1
 91
        4
 64
     7
 65
   257
 75
     7
175
     7
 42
1.0
 92
        8
 66
     7
 43
1.0
 76
     1
 77
     6
 78
     2
 67
     7
 79
     5
170
     0
171
     0
290
     0
174
     0
 93
        1
 44
0.0
173
     0
291
     1
 45
0.0
1001
ACAD
1000
AcDbSavedByObjectVersion
1070
     0
  0
VISUALSTYLE
  5
33
102
{ACAD_REACTORS
330
2A
102
}
330
2A
100
AcDbVisualStyle
  2
Realistic
 70
     8
 71
     2
 72
     2
 73
     0
 90
        0
 40
-0.6
 41
-30.0
 62
     5
 63
     7
 74
     1
 91
        0
 64
     7
 65
   257
 75
     1
175
     1
 42
1.0
 92
        8
 66
     8
 43
1.0
 76
     1
 77
     6
 78
     2
 67
     7
 79
     5
170
     0
171
     0
290
     0
174
     0
 93
       13
 44
0.0
173
     0
291
     0
 45
0.0
1001
ACAD
1000
AcDbSavedByObjectVersion
1070
     0
  0
VISUALSTYLE
  5
37
102
{ACAD_REACTORS
330
2A
102
}
330
2A
100
AcDbVisualStyle
  2
Thicken
 70
    13
 71
     2
 72
     2
 73
     0
 90
        0
 40
-0.6
 41
-30.0
 62
     5
 63
     7
 74
     1
 91
        4
 64
     7
 65
   257
 75
     1
175
     1
 42
1.0
 92
       12
 66
     7
 43
1.0
 76
     1
 77
     6
 78
     2
 67
     7
 79
     5
170
     0
171
     0
290
     0
174
     0
 93
        1
 44
0.0
173
     0
291
     1
 45
0.0
1001
ACAD
1000
AcDbSavedByObjectVersion
1070
     0
  0
DICTIONARYVAR
  5
53A
102
{ACAD_REACTORS
330
536
102
}
330
536
100
DictionaryVariables
280
     0
  1
80.000000
  0
DICTIONARYVAR
  5
539
102
{ACAD_REACTORS
330
536
102
}
330
536
100
DictionaryVariables
280
     0
  1
5.000000
  0
ENDSEC
  0
EOF
