  0
SECTION
  2
HEADER
  9
$ACADVER
  1
AC1015
  9
$ACADMAINTVER
 70
     6
  9
$DWGCODEPAGE
  3
ANSI_932
  9
$INSBASE
 10
0.0
 20
0.0
 30
0.0
  9
$EXTMIN
 10
204.093597
 20
43.875854
 30
0.0
  9
$EXTMAX
 10
890.988525
 20
1111.28772
 30
0.0
  9
$LIMMIN
 10
0.0
 20
0.0
  9
$LIMMAX
 10
12.0
 20
9.0
  9
$ORTHOMODE
 70
     0
  9
$REGENMODE
 70
     1
  9
$FILLMODE
 70
     1
  9
$QTEXTMODE
 70
     0
  9
$MIRRTEXT
 70
     1
  9
$LTSCALE
 40
12.693277
  9
$ATTMODE
 70
     1
  9
$TEXTSIZE
 40
3.2
  9
$TRACEWID
 40
1.0
  9
$TEXTSTYLE
  7
Standard
  9
$CLAYER
  8
0
  9
$CELTYPE
  6
ByLayer
  9
$CECOLOR
 62
   256
  9
$CELTSCALE
 40
1.0
  9
$DISPSILH
 70
     0
  9
$DIMSCALE
 40
1.0
  9
$DIMASZ
 40
2.5
  9
$DIMEXO
 40
0.625
  9
$DIMDLI
 40
3.75
  9
$DIMRND
 40
0.0
  9
$DIMDLE
 40
0.0
  9
$DIMEXE
 40
1.25
  9
$DIMTP
 40
0.0
  9
$DIMTM
 40
0.0
  9
$DIMTXT
 40
2.5
  9
$DIMCEN
 40
0.09
  9
$DIMTSZ
 40
0.0
  9
$DIMTOL
 70
     0
  9
$DIMLIM
 70
     0
  9
$DIMTIH
 70
     0
  9
$DIMTOH
 70
     0
  9
$DIMSE1
 70
     0
  9
$DIMSE2
 70
     0
  9
$DIMTAD
 70
     0
  9
$DIMZIN
 70
     8
  9
$DIMBLK
  1

  9
$DIMASO
 70
     1
  9
$DIMSHO
 70
     0
  9
$DIMPOST
  1

  9
$DIMAPOST
  1

  9
$DIMALT
 70
     0
  9
$DIMALTD
 70
     3
  9
$DIMALTF
 40
0.03937
  9
$DIMLFAC
 40
1.0
  9
$DIMTOFL
 70
     1
  9
$DIMTVP
 40
0.0
  9
$DIMTIX
 70
     0
  9
$DIMSOXD
 70
     0
  9
$DIMSAH
 70
     0
  9
$DIMBLK1
  1

  9
$DIMBLK2
  1

  9
$DIMSTYLE
  2
ISO-25
  9
$DIMCLRD
 70
     0
  9
$DIMCLRE
 70
     0
  9
$DIMCLRT
 70
     0
  9
$DIMTFAC
 40
1.0
  9
$DIMGAP
 40
0.625
  9
$DIMJUST
 70
     0
  9
$DIMSD1
 70
     0
  9
$DIMSD2
 70
     0
  9
$DIMTOLJ
 70
     0
  9
$DIMTZIN
 70
     8
  9
$DIMALTZ
 70
     0
  9
$DIMALTTZ
 70
     0
  9
$DIMUPT
 70
     0
  9
$DIMDEC
 70
     2
  9
$DIMTDEC
 70
     2
  9
$DIMALTU
 70
     2
  9
$DIMALTTD
 70
     3
  9
$DIMTXSTY
  7
Standard
  9
$DIMAUNIT
 70
     0
  9
$DIMADEC
 70
     0
  9
$DIMALTRND
 40
0.0
  9
$DIMAZIN
 70
     0
  9
$DIMDSEP
 70
    44
  9
$DIMATFIT
 70
     3
  9
$DIMFRAC
 70
     0
  9
$DIMLDRBLK
  1

  9
$DIMLUNIT
 70
     2
  9
$DIMLWD
 70
    -2
  9
$DIMLWE
 70
    -2
  9
$DIMTMOVE
 70
     0
  9
$LUNITS
 70
     2
  9
$LUPREC
 70
     4
  9
$SKETCHINC
 40
1.0
  9
$FILLETRAD
 40
0.0
  9
$AUNITS
 70
     0
  9
$AUPREC
 70
     0
  9
$MENU
  1
.
  9
$ELEVATION
 40
0.0
  9
$PELEVATION
 40
0.0
  9
$THICKNESS
 40
0.0
  9
$LIMCHECK
 70
     0
  9
$CHAMFERA
 40
10.0
  9
$CHAMFERB
 40
10.0
  9
$CHAMFERC
 40
20.0
  9
$CHAMFERD
 40
0.0
  9
$SKPOLY
 70
     0
  9
$TDCREATE
 40
2455649.656727963
  9
$TDUCREATE
 40
2455649.281727963
  9
$TDUPDATE
 40
2455649.656727975
  9
$TDUUPDATE
 40
2455649.281727975
  9
$TDINDWG
 40
0.0000000116
  9
$TDUSRTIMER
 40
0.0000000116
  9
$USRTIMER
 70
     1
  9
$ANGBASE
 50
0.0
  9
$ANGDIR
 70
     0
  9
$PDMODE
 70
     0
  9
$PDSIZE
 40
0.0
  9
$PLINEWID
 40
0.0
  9
$SPLFRAME
 70
     0
  9
$SPLINETYPE
 70
     6
  9
$SPLINESEGS
 70
     8
  9
$HANDSEED
  5
428
  9
$SURFTAB1
 70
     6
  9
$SURFTAB2
 70
     6
  9
$SURFTYPE
 70
     6
  9
$SURFU
 70
     6
  9
$SURFV
 70
     6
  9
$UCSBASE
  2

  9
$UCSNAME
  2

  9
$UCSORG
 10
0.0
 20
0.0
 30
0.0
  9
$UCSXDIR
 10
1.0
 20
0.0
 30
0.0
  9
$UCSYDIR
 10
0.0
 20
1.0
 30
0.0
  9
$UCSORTHOREF
  2

  9
$UCSORTHOVIEW
 70
     0
  9
$UCSORGTOP
 10
0.0
 20
0.0
 30
0.0
  9
$UCSORGBOTTOM
 10
0.0
 20
0.0
 30
0.0
  9
$UCSORGLEFT
 10
0.0
 20
0.0
 30
0.0
  9
$UCSORGRIGHT
 10
0.0
 20
0.0
 30
0.0
  9
$UCSORGFRONT
 10
0.0
 20
0.0
 30
0.0
  9
$UCSORGBACK
 10
0.0
 20
0.0
 30
0.0
  9
$PUCSBASE
  2

  9
$PUCSNAME
  2

  9
$PUCSORG
 10
0.0
 20
0.0
 30
0.0
  9
$PUCSXDIR
 10
1.0
 20
0.0
 30
0.0
  9
$PUCSYDIR
 10
0.0
 20
1.0
 30
0.0
  9
$PUCSORTHOREF
  2

  9
$PUCSORTHOVIEW
 70
     0
  9
$PUCSORGTOP
 10
0.0
 20
0.0
 30
0.0
  9
$PUCSORGBOTTOM
 10
0.0
 20
0.0
 30
0.0
  9
$PUCSORGLEFT
 10
0.0
 20
0.0
 30
0.0
  9
$PUCSORGRIGHT
 10
0.0
 20
0.0
 30
0.0
  9
$PUCSORGFRONT
 10
0.0
 20
0.0
 30
0.0
  9
$PUCSORGBACK
 10
0.0
 20
0.0
 30
0.0
  9
$USERI1
 70
     0
  9
$USERI2
 70
     0
  9
$USERI3
 70
     0
  9
$USERI4
 70
     0
  9
$USERI5
 70
     0
  9
$USERR1
 40
0.0
  9
$USERR2
 40
0.0
  9
$USERR3
 40
0.0
  9
$USERR4
 40
0.0
  9
$USERR5
 40
0.0
  9
$WORLDVIEW
 70
     1
  9
$SHADEDGE
 70
     3
  9
$SHADEDIF
 70
    70
  9
$TILEMODE
 70
     1
  9
$MAXACTVP
 70
    64
  9
$PINSBASE
 10
0.0
 20
0.0
 30
0.0
  9
$PLIMCHECK
 70
     0
  9
$PEXTMIN
 10
1.000000E+20
 20
1.000000E+20
 30
0.0
  9
$PEXTMAX
 10
-1.000000E+20
 20
-1.000000E+20
 30
0.0
  9
$PLIMMIN
 10
0.0
 20
0.0
  9
$PLIMMAX
 10
12.0
 20
9.0
  9
$UNITMODE
 70
     0
  9
$VISRETAIN
 70
     1
  9
$PLINEGEN
 70
     0
  9
$PSLTSCALE
 70
     1
  9
$TREEDEPTH
 70
  3020
  9
$CMLSTYLE
  2
Standard
  9
$CMLJUST
 70
     0
  9
$CMLSCALE
 40
20.0
  9
$PROXYGRAPHICS
 70
     1
  9
$MEASUREMENT
 70
     1
  9
$CELWEIGHT
370
    -1
  9
$ENDCAPS
280
     0
  9
$JOINSTYLE
280
     0
  9
$LWDISPLAY
290
     0
  9
$INSUNITS
 70
     4
  9
$HYPERLINKBASE
  1

  9
$STYLESHEET
  1

  9
$XEDIT
290
     1
  9
$CEPSNTYPE
380
     0
  9
$PSTYLEMODE
290
     1
  9
$FINGERPRINTGUID
  2
{0328F383-98CE-4E41-8C03-62710DB1C695}
  9
$VERSIONGUID
  2
{FAEB1C32-E019-11D5-929B-00C0DF256EC4}
  9
$EXTNAMES
290
     1
  9
$PSVPSCALE
 40
0.0
  9
$OLESTARTUP
290
     0
  0
ENDSEC
  0
SECTION
  2
CLASSES
  0
CLASS
  1
ACDBDICTIONARYWDFLT
  2
AcDbDictionaryWithDefault
  3
ObjectDBX Classes
 90
        0
280
     0
281
     0
  0
CLASS
  1
VISUALSTYLE
  2
AcDbVisualStyle
  3
ObjectDBX Classes
 90
     4095
280
     0
281
     0
  0
CLASS
  1
DICTIONARYVAR
  2
AcDbDictionaryVar
  3
ObjectDBX Classes
 90
        0
280
     0
281
     0
  0
CLASS
  1
ACDBPLACEHOLDER
  2
AcDbPlaceHolder
  3
ObjectDBX Classes
 90
        0
280
     0
281
     0
  0
CLASS
  1
LAYOUT
  2
AcDbLayout
  3
ObjectDBX Classes
 90
        0
280
     0
281
     0
  0
ENDSEC
  0
SECTION
  2
TABLES
  0
TABLE
  2
VPORT
  5
8
330
0
100
AcDbSymbolTable
 70
     1
  0
VPORT
  5
29
330
8
100
AcDbSymbolTableRecord
100
AcDbViewportTableRecord
  2
*Active
 70
     0
 10
0.0
 20
0.0
 11
1.0
 21
1.0
 12
547.541061
 22
577.581787
 13
0.0
 23
0.0
 14
1.0
 24
1.0
 15
0.0
 25
0.0
 16
0.0
 26
0.0
 36
1.0
 17
0.0
 27
0.0
 37
0.0
 40
1078.085984
 41
1.691288
 42
50.0
 43
0.0
 44
0.0
 50
0.0
 51
0.0
 71
     0
 72
   100
 73
     1
 74
     3
 75
     0
 76
     0
 77
     0
 78
     0
281
     0
 65
     1
110
0.0
120
0.0
130
0.0
111
1.0
121
0.0
131
0.0
112
0.0
122
1.0
132
0.0
 79
     0
146
0.0
  0
ENDTAB
  0
TABLE
  2
LTYPE
  5
5
330
0
100
AcDbSymbolTable
 70
     5
  0
LTYPE
  5
14
330
5
100
AcDbSymbolTableRecord
100
AcDbLinetypeTableRecord
  2
ByBlock
 70
     0
  3

 72
    65
 73
     0
 40
0.0
  0
LTYPE
  5
15
330
5
100
AcDbSymbolTableRecord
100
AcDbLinetypeTableRecord
  2
ByLayer
 70
     0
  3

 72
    65
 73
     0
 40
0.0
  0
LTYPE
  5
16
330
5
100
AcDbSymbolTableRecord
100
AcDbLinetypeTableRecord
  2
Continuous
 70
     0
  3
Solid line
 72
    65
 73
     0
 40
0.0
  0
LTYPE
  5
3B
330
5
100
AcDbSymbolTableRecord
100
AcDbLinetypeTableRecord
  2
DASHED
 70
     0
  3
DASHED
 72
    83
 73
     2
 40
0.75
 49
0.5
 74
     0
 49
-0.25
 74
     0
  0
LTYPE
  5
3C
330
5
100
AcDbSymbolTableRecord
100
AcDbLinetypeTableRecord
  2
HIDDEN
 70
     0
  3
HIDDEN
 72
    83
 73
     2
 40
0.375
 49
0.25
 74
     0
 49
-0.125
 74
     0
  0
LTYPE
  5
3D
330
5
100
AcDbSymbolTableRecord
100
AcDbLinetypeTableRecord
  2
CENTER
 70
     0
  3
CENTER
 72
    83
 73
     4
 40
2.0
 49
1.25
 74
     0
 49
-0.25
 74
     0
 49
0.25
 74
     0
 49
-0.25
 74
     0
  0
LTYPE
  5
3E
330
5
100
AcDbSymbolTableRecord
100
AcDbLinetypeTableRecord
  2
PHANTOM
 70
     0
  3
PHANTOM
 72
    83
 73
     6
 40
2.5
 49
1.25
 74
     0
 49
-0.25
 74
     0
 49
0.25
 74
     0
 49
-0.25
 74
     0
 49
0.25
 74
     0
 49
-0.25
 74
     0
  0
ENDTAB
  0
TABLE
  2
LAYER
  5
2
330
0
100
AcDbSymbolTable
 70
     3
  0
LAYER
  5
10
330
2
100
AcDbSymbolTableRecord
100
AcDbLayerTableRecord
  2
0
 70
     0
 62
     7
  6
Continuous
370
    -3
390
F
  0
LAYER
  5
3F
330
2
100
AcDbSymbolTableRecord
100
AcDbLayerTableRecord
  2
002
 70
     0
 62
     7
  6
Continuous
370
    -3
390
F
  0
LAYER
  5
40
330
2
100
AcDbSymbolTableRecord
100
AcDbLayerTableRecord
  2
003
 70
     0
 62
     7
  6
Continuous
370
    -3
390
F
  0
ENDTAB
  0
TABLE
  2
STYLE
  5
3
330
0
100
AcDbSymbolTable
 70
     2
  0
STYLE
  5
11
330
3
100
AcDbSymbolTableRecord
100
AcDbTextStyleTableRecord
  2
Standard
 70
     0
 40
0.0
 41
1.0
 50
0.0
 71
     0
 42
0.2
  3
TXT
  4
BIGFONT
  0
STYLE
  5
41
330
3
100
AcDbSymbolTableRecord
100
AcDbTextStyleTableRecord
  2
TATEGAKI
 70
     4
 40
1.0
 41
1.0
 50
0.0
 71
     0
 42
0.2
  3
TXT
  4
BIGFONT
  0
ENDTAB
  0
TABLE
  2
VIEW
  5
6
330
0
100
AcDbSymbolTable
 70
     0
  0
ENDTAB
  0
TABLE
  2
UCS
  5
7
330
0
100
AcDbSymbolTable
 70
     0
  0
ENDTAB
  0
TABLE
  2
APPID
  5
9
330
0
100
AcDbSymbolTable
 70
     1
  0
APPID
  5
12
330
9
100
AcDbSymbolTableRecord
100
AcDbRegAppTableRecord
  2
ACAD
 70
     0
  0
ENDTAB
  0
TABLE
  2
DIMSTYLE
  5
A
330
0
100
AcDbSymbolTable
 70
     2
100
AcDbDimStyleTable
  0
DIMSTYLE
105
27
330
A
100
AcDbSymbolTableRecord
100
AcDbDimStyleTableRecord
  2
ISO-25
 70
     0
 41
2.5
 42
0.625
 43
3.75
 44
1.25
 73
     0
 74
     0
 77
     1
 78
     8
140
2.5
141
2.5
143
0.03937
147
0.625
171
     3
172
     1
271
     2
272
     2
274
     3
278
    44
283
     0
284
     8
340
11
  0
DIMSTYLE
105
42
330
A
100
AcDbSymbolTableRecord
100
AcDbDimStyleTableRecord
  2
Standard
 70
     0
 41
3.0
 42
0.5
 44
0.7
 73
     0
 74
     0
 77
     1
 78
     8
 79
     2
140
4.0
146
0.65
147
1.0
172
     1
179
     3
271
     3
283
     2
340
11
  0
ENDTAB
  0
TABLE
  2
BLOCK_RECORD
  5
1
330
0
100
AcDbSymbolTable
 70
     1
  0
BLOCK_RECORD
  5
1F
330
1
100
AcDbSymbolTableRecord
100
AcDbBlockTableRecord
  2
*Model_Space
340
22
  0
BLOCK_RECORD
  5
1B
330
1
100
AcDbSymbolTableRecord
100
AcDbBlockTableRecord
  2
*Paper_Space
340
1E
  0
BLOCK_RECORD
  5
23
330
1
100
AcDbSymbolTableRecord
100
AcDbBlockTableRecord
  2
*Paper_Space0
340
26
  0
ENDTAB
  0
ENDSEC
  0
SECTION
  2
BLOCKS
  0
BLOCK
  5
20
330
1F
100
AcDbEntity
  8
0
100
AcDbBlockBegin
  2
*Model_Space
 70
     0
 10
0.0
 20
0.0
 30
0.0
  3
*Model_Space
  1

  0
ENDBLK
  5
21
330
1F
100
AcDbEntity
  8
0
100
AcDbBlockEnd
  0
BLOCK
  5
1C
330
1B
100
AcDbEntity
 67
     1
  8
0
100
AcDbBlockBegin
  2
*Paper_Space
 70
     0
 10
0.0
 20
0.0
 30
0.0
  3
*Paper_Space
  1

  0
ENDBLK
  5
1D
330
1B
100
AcDbEntity
 67
     1
  8
0
100
AcDbBlockEnd
  0
BLOCK
  5
24
330
23
100
AcDbEntity
  8
0
100
AcDbBlockBegin
  2
*Paper_Space0
 70
     0
 10
0.0
 20
0.0
 30
0.0
  3
*Paper_Space0
  1

  0
ENDBLK
  5
25
330
23
100
AcDbEntity
  8
0
100
AcDbBlockEnd
  0
ENDSEC
  0
SECTION
  2
ENTITIES
  0
LINE
  5
43
330
1F
100
AcDbEntity
  8
002
  6
CENTER
 62
    40
370
     9
100
AcDbLine
 10
260.652719
 20
1068.066678
 30
0.0
 11
260.652719
 21
976.921964
 31
0.0
  0
LINE
  5
44
330
1F
100
AcDbEntity
  8
002
  6
CENTER
 62
    40
370
     9
100
AcDbLine
 10
292.652719
 20
930.977122
 30
0.0
 11
292.652719
 21
1111.28775
 31
0.0
  0
LINE
  5
45
330
1F
100
AcDbEntity
  8
002
 62
     3
370
    30
100
AcDbLine
 10
320.432517
 20
972.655604
 30
0.0
 11
292.652719
 21
972.655604
 31
0.0
  0
LINE
  5
46
330
1F
100
AcDbEntity
  8
002
 62
     3
370
    30
100
AcDbLine
 10
292.652719
 20
972.655604
 30
0.0
 11
265.152719
 21
972.655604
 31
0.0
  0
LINE
  5
47
330
1F
100
AcDbEntity
  8
002
  6
CENTER
 62
    40
370
     9
100
AcDbLine
 10
320.652719
 20
1069.655604
 30
0.0
 11
320.652719
 21
1046.107672
 31
0.0
  0
LINE
  5
48
330
1F
100
AcDbEntity
  8
002
  6
CENTER
 62
    40
370
     9
100
AcDbLine
 10
331.215959
 20
1057.655604
 30
0.0
 11
310.652719
 21
1057.655604
 31
0.0
  0
CIRCLE
  5
49
330
1F
100
AcDbEntity
  8
002
 62
     3
370
    30
100
AcDbCircle
 10
320.652719
 20
1057.655604
 30
0.0
 40
4.25
  0
LINE
  5
4A
330
1F
100
AcDbEntity
  8
002
  6
CENTER
 62
    40
370
     9
100
AcDbLine
 10
320.652719
 20
975.655604
 30
0.0
 11
320.652719
 21
999.203536
 31
0.0
  0
LINE
  5
4B
330
1F
100
AcDbEntity
  8
002
  6
CENTER
 62
    40
370
     9
100
AcDbLine
 10
331.215959
 20
987.655604
 30
0.0
 11
310.652719
 21
987.655604
 31
0.0
  0
CIRCLE
  5
4C
330
1F
100
AcDbEntity
  8
002
 62
     3
370
    30
100
AcDbCircle
 10
320.652719
 20
987.655604
 30
0.0
 40
4.25
  0
LINE
  5
4D
330
1F
100
AcDbEntity
  8
002
 62
     3
370
    30
100
AcDbLine
 10
218.652719
 20
1069.996562
 30
0.0
 11
264.894118
 21
1069.996562
 31
0.0
  0
LINE
  5
4E
330
1F
100
AcDbEntity
  8
002
  6
CENTER
 62
    40
370
     9
100
AcDbLine
 10
229.215959
 20
1057.655604
 30
0.0
 11
208.652719
 21
1057.655604
 31
0.0
  0
LINE
  5
4F
330
1F
100
AcDbEntity
  8
002
  6
CENTER
 62
    40
370
     9
100
AcDbLine
 10
218.652719
 20
1046.107672
 30
0.0
 11
218.652719
 21
1069.655604
 31
0.0
  0
CIRCLE
  5
50
330
1F
100
AcDbEntity
  8
002
 62
     3
370
    30
100
AcDbCircle
 10
218.652719
 20
1057.655604
 30
0.0
 40
4.25
  0
LINE
  5
51
330
1F
100
AcDbEntity
  8
002
 62
     3
370
    30
100
AcDbLine
 10
206.311761
 20
1057.655604
 30
0.0
 11
206.311761
 21
1022.655604
 31
0.0
  0
ARC
  5
52
330
1F
100
AcDbEntity
  8
002
 62
     3
370
    30
100
AcDbCircle
 10
218.652719
 20
1057.655604
 30
0.0
 40
12.34095754848317
100
AcDbArc
 50
90.0
 51
180.0
  0
ARC
  5
53
330
1F
100
AcDbEntity
  8
002
 62
     3
370
    30
100
AcDbCircle
 10
320.652719
 20
1057.655604
 30
0.0
 40
12.34095754848317
100
AcDbArc
 50
0.0
 51
74.95953
  0
LINE
  5
54
330
1F
100
AcDbEntity
  8
002
 62
     3
370
    30
100
AcDbLine
 10
332.993676
 20
1057.655604
 30
0.0
 11
332.993676
 21
1022.655604
 31
0.0
  0
ARC
  5
55
330
1F
100
AcDbEntity
  8
002
 62
     3
370
    30
100
AcDbCircle
 10
320.652719
 20
987.655604
 30
0.0
 40
12.34095754848317
100
AcDbArc
 50
285.04047
 51
0.0
  0
LINE
  5
56
330
1F
100
AcDbEntity
  8
002
 62
     3
370
    30
100
AcDbLine
 10
332.993676
 20
987.655604
 30
0.0
 11
332.993676
 21
1022.655604
 31
0.0
  0
CIRCLE
  5
57
330
1F
100
AcDbEntity
  8
002
 62
     3
370
    30
100
AcDbCircle
 10
260.652719
 20
1022.655604
 30
0.0
 40
28.91750000000047
  0
CIRCLE
  5
58
330
1F
100
AcDbEntity
  8
002
 62
    40
370
     9
100
AcDbCircle
 10
260.652719
 20
1022.655604
 30
0.0
 40
30.00000000000045
  0
ARC
  5
59
330
1F
100
AcDbEntity
  8
002
 62
     3
370
    30
100
AcDbCircle
 10
260.652719
 20
1022.655604
 30
0.0
 40
37.50000999999997
100
AcDbArc
 50
163.805287
 51
180.0
  0
CIRCLE
  5
5A
330
1F
100
AcDbEntity
  8
002
 62
     3
370
    30
100
AcDbCircle
 10
218.652719
 20
1057.655604
 30
0.0
 40
11.0
  0
CIRCLE
  5
5B
330
1F
100
AcDbEntity
  8
002
 62
     3
370
    30
100
AcDbCircle
 10
320.652719
 20
987.655604
 30
0.0
 40
11.0
  0
LINE
  5
5C
330
1F
100
AcDbEntity
  8
002
 62
     3
370
    30
100
AcDbLine
 10
331.652719
 20
987.655604
 30
0.0
 11
331.652719
 21
1022.655604
 31
0.0
  0
LINE
  5
5D
330
1F
100
AcDbEntity
  8
002
 62
     3
370
    30
100
AcDbLine
 10
331.652719
 20
1057.655604
 30
0.0
 11
331.652719
 21
1022.655604
 31
0.0
  0
CIRCLE
  5
5E
330
1F
100
AcDbEntity
  8
002
 62
     3
370
    30
100
AcDbCircle
 10
320.652719
 20
1057.655604
 30
0.0
 40
11.0
  0
LINE
  5
5F
330
1F
100
AcDbEntity
  8
002
 62
     3
370
    30
100
AcDbLine
 10
289.119899
 20
1051.996199
 30
0.0
 11
315.110138
 21
1067.157172
 31
0.0
  0
LINE
  5
60
330
1F
100
AcDbEntity
  8
002
 62
     3
370
    30
100
AcDbLine
 10
300.205061
 20
1032.993063
 30
0.0
 11
326.1953
 21
1048.154036
 31
0.0
  0
ARC
  5
61
330
1F
100
AcDbEntity
  8
002
 62
     3
370
    30
100
AcDbCircle
 10
286.600543
 20
1056.315094
 30
0.0
 40
5.0
100
AcDbArc
 50
232.371665
 51
300.256437
  0
ARC
  5
62
330
1F
100
AcDbEntity
  8
002
 62
     3
370
    30
100
AcDbCircle
 10
302.724416
 20
1028.674169
 30
0.0
 40
5.0
100
AcDbArc
 50
120.256437
 51
188.141209
  0
ARC
  5
63
330
1F
100
AcDbEntity
  8
002
 62
     3
370
    30
100
AcDbCircle
 10
286.600543
 20
988.996114
 30
0.0
 40
5.0
100
AcDbArc
 50
59.743563
 51
127.628335
  0
LINE
  5
64
330
1F
100
AcDbEntity
  8
002
 62
     3
370
    30
100
AcDbLine
 10
289.119899
 20
993.315009
 30
0.0
 11
315.110138
 21
978.154036
 31
0.0
  0
LINE
  5
65
330
1F
100
AcDbEntity
  8
002
 62
     3
370
    30
100
AcDbLine
 10
300.205061
 20
1012.318145
 30
0.0
 11
326.1953
 21
997.157172
 31
0.0
  0
ARC
  5
66
330
1F
100
AcDbEntity
  8
002
 62
     3
370
    30
100
AcDbCircle
 10
302.724416
 20
1016.637039
 30
0.0
 40
5.0
100
AcDbArc
 50
171.858791
 51
239.743563
  0
ARC
  5
67
330
1F
100
AcDbEntity
  8
002
 62
     3
370
    30
100
AcDbCircle
 10
260.652719
 20
1022.655604
 30
0.0
 40
37.50000999999997
100
AcDbArc
 50
351.858791
 51
0.0
  0
ARC
  5
68
330
1F
100
AcDbEntity
  8
002
 62
     3
370
    30
100
AcDbCircle
 10
260.652719
 20
1022.655604
 30
0.0
 40
37.50000999999997
100
AcDbArc
 50
0.0
 51
8.141209
  0
ARC
  5
69
330
1F
100
AcDbEntity
  8
002
 62
     3
370
    30
100
AcDbCircle
 10
260.652719
 20
1022.655604
 30
0.0
 40
37.50000999999997
100
AcDbArc
 50
52.371665
 51
119.396213
  0
LINE
  5
6A
330
1F
100
AcDbEntity
  8
002
 62
     3
370
    30
100
AcDbLine
 10
264.764802
 20
980.414413
 30
0.0
 11
265.152719
 21
972.655604
 31
0.0
  0
LINE
  5
6B
330
1F
100
AcDbEntity
  8
002
  6
CENTER
 62
    40
370
     9
100
AcDbLine
 10
310.652719
 20
1029.656784
 30
0.0
 11
310.652719
 21
1015.61003
 31
0.0
  0
LINE
  5
6C
330
1F
100
AcDbEntity
  8
002
 62
     3
370
    30
100
AcDbLine
 10
305.310115
 20
1031.655604
 30
0.0
 11
310.652719
 21
1031.655604
 31
0.0
  0
LINE
  5
6D
330
1F
100
AcDbEntity
  8
002
 62
     3
370
    30
100
AcDbLine
 10
305.310115
 20
1013.655604
 30
0.0
 11
310.652719
 21
1013.655604
 31
0.0
  0
ARC
  5
6E
330
1F
100
AcDbEntity
  8
002
 62
     3
370
    30
100
AcDbCircle
 10
305.310115
 20
1033.655604
 30
0.0
 40
2.0
100
AcDbArc
 50
120.256437
 51
270.0
  0
ARC
  5
6F
330
1F
100
AcDbEntity
  8
002
 62
     3
370
    30
100
AcDbCircle
 10
305.310115
 20
1011.655604
 30
0.0
 40
2.0
100
AcDbArc
 50
90.0
 51
239.743563
  0
LINE
  5
70
330
1F
100
AcDbEntity
  8
002
 62
     3
370
    30
100
AcDbLine
 10
219.796911
 20
1029.362604
 30
0.0
 11
206.311761
 21
1029.362604
 31
0.0
  0
ARC
  5
71
330
1F
100
AcDbEntity
  8
002
 62
     3
370
    30
100
AcDbCircle
 10
219.796911
 20
1034.362604
 30
0.0
 40
5.0
100
AcDbArc
 50
270.0
 51
344.010645
  0
CIRCLE
  5
72
330
1F
100
AcDbEntity
  8
002
 62
    40
370
     9
100
AcDbCircle
 10
320.652719
 20
987.655604
 30
0.0
 40
5.0
  0
CIRCLE
  5
73
330
1F
100
AcDbEntity
  8
002
 62
    40
370
     9
100
AcDbCircle
 10
320.652719
 20
1057.655604
 30
0.0
 40
5.0
  0
CIRCLE
  5
74
330
1F
100
AcDbEntity
  8
002
 62
    40
370
     9
100
AcDbCircle
 10
218.652719
 20
1057.655604
 30
0.0
 40
5.0
  0
ARC
  5
75
330
1F
100
AcDbEntity
  8
002
 62
     3
370
    30
100
AcDbCircle
 10
259.77104
 20
980.16474
 30
0.0
 40
5.0
100
AcDbArc
 50
2.862231
 51
88.811292
  0
ARC
  5
76
330
1F
100
AcDbEntity
  8
002
 62
     3
370
    30
100
AcDbCircle
 10
325.152719
 20
972.301451
 30
0.0
 40
5.0
100
AcDbArc
 50
106.334823
 51
175.948477
  0
ARC
  5
77
330
1F
100
AcDbEntity
  8
002
 62
     3
370
    30
100
AcDbCircle
 10
325.152719
 20
970.9087
 30
0.0
 40
5.0
100
AcDbArc
 50
105.04047
 51
160.741561
  0
LINE
  5
78
330
1F
100
AcDbEntity
  8
002
 62
     3
370
    30
100
AcDbLine
 10
292.652719
 20
1072.655604
 30
0.0
 11
265.152719
 21
1072.655604
 31
0.0
  0
LINE
  5
79
330
1F
100
AcDbEntity
  8
002
 62
     3
370
    30
100
AcDbLine
 10
264.764802
 20
1064.896795
 30
0.0
 11
265.152719
 21
1072.655604
 31
0.0
  0
ARC
  5
7A
330
1F
100
AcDbEntity
  8
002
 62
     3
370
    30
100
AcDbCircle
 10
259.77104
 20
1065.146468
 30
0.0
 40
5.0
100
AcDbArc
 50
271.188708
 51
357.137769
  0
LINE
  5
7B
330
1F
100
AcDbEntity
  8
002
 62
     3
370
    30
100
AcDbLine
 10
320.432517
 20
1072.655604
 30
0.0
 11
292.652719
 21
1072.655604
 31
0.0
  0
ARC
  5
7C
330
1F
100
AcDbEntity
  8
002
 62
     3
370
    30
100
AcDbCircle
 10
325.152719
 20
1073.009757
 30
0.0
 40
5.0
100
AcDbArc
 50
184.051523
 51
253.665177
  0
ARC
  5
7D
330
1F
100
AcDbEntity
  8
002
 62
     3
370
    30
100
AcDbCircle
 10
325.152719
 20
1074.402508
 30
0.0
 40
5.0
100
AcDbArc
 50
199.258439
 51
254.95953
  0
LINE
  5
7E
330
1F
100
AcDbEntity
  8
002
 62
     3
370
    30
100
AcDbLine
 10
223.275133
 20
1038.141305
 30
0.0
 11
211.09352
 21
1049.664451
 31
0.0
  0
LINE
  5
7F
330
1F
100
AcDbEntity
  8
002
 62
     3
370
    30
100
AcDbLine
 10
236.355753
 20
1056.051237
 30
0.0
 11
226.211917
 21
1065.646757
 31
0.0
  0
ARC
  5
80
330
1F
100
AcDbEntity
  8
002
 62
     3
370
    30
100
AcDbCircle
 10
239.791752
 20
1059.683579
 30
0.0
 40
5.0
100
AcDbArc
 50
226.59114
 51
299.396213
  0
ARC
  5
81
330
1F
100
AcDbEntity
  8
002
 62
     3
370
    30
100
AcDbCircle
 10
219.839134
 20
1034.508962
 30
0.0
 40
5.0
100
AcDbArc
 50
343.805287
 51
46.59114
  0
LINE
  5
82
330
1F
100
AcDbEntity
  8
002
 62
     3
370
    30
100
AcDbLine
 10
218.652719
 20
975.314646
 30
0.0
 11
264.894118
 21
975.314646
 31
0.0
  0
LINE
  5
83
330
1F
100
AcDbEntity
  8
002
  6
CENTER
 62
    40
370
     9
100
AcDbLine
 10
229.215959
 20
987.655604
 30
0.0
 11
208.652719
 21
987.655604
 31
0.0
  0
LINE
  5
84
330
1F
100
AcDbEntity
  8
002
  6
CENTER
 62
    40
370
     9
100
AcDbLine
 10
218.652719
 20
999.203536
 30
0.0
 11
218.652719
 21
975.655604
 31
0.0
  0
CIRCLE
  5
85
330
1F
100
AcDbEntity
  8
002
 62
     3
370
    30
100
AcDbCircle
 10
218.652719
 20
987.655604
 30
0.0
 40
4.25
  0
LINE
  5
86
330
1F
100
AcDbEntity
  8
002
 62
     3
370
    30
100
AcDbLine
 10
206.311761
 20
987.655604
 30
0.0
 11
206.311761
 21
1022.655604
 31
0.0
  0
ARC
  5
87
330
1F
100
AcDbEntity
  8
002
 62
     3
370
    30
100
AcDbCircle
 10
218.652719
 20
987.655604
 30
0.0
 40
12.34095754848317
100
AcDbArc
 50
180.0
 51
270.0
  0
ARC
  5
88
330
1F
100
AcDbEntity
  8
002
 62
     3
370
    30
100
AcDbCircle
 10
260.652719
 20
1022.655604
 30
0.0
 40
37.50000999999997
100
AcDbArc
 50
180.0
 51
196.194713
  0
CIRCLE
  5
89
330
1F
100
AcDbEntity
  8
002
 62
     3
370
    30
100
AcDbCircle
 10
218.652719
 20
987.655604
 30
0.0
 40
11.0
  0
LINE
  5
8A
330
1F
100
AcDbEntity
  8
002
 62
     3
370
    30
100
AcDbLine
 10
219.796911
 20
1015.948604
 30
0.0
 11
206.311761
 21
1015.948604
 31
0.0
  0
ARC
  5
8B
330
1F
100
AcDbEntity
  8
002
 62
     3
370
    30
100
AcDbCircle
 10
219.796911
 20
1010.948604
 30
0.0
 40
5.0
100
AcDbArc
 50
15.989355
 51
90.0
  0
CIRCLE
  5
8C
330
1F
100
AcDbEntity
  8
002
 62
    40
370
     9
100
AcDbCircle
 10
218.652719
 20
987.655604
 30
0.0
 40
5.0
  0
LINE
  5
8D
330
1F
100
AcDbEntity
  8
002
 62
     3
370
    30
100
AcDbLine
 10
223.275133
 20
1007.169903
 30
0.0
 11
211.09352
 21
995.646757
 31
0.0
  0
LINE
  5
8E
330
1F
100
AcDbEntity
  8
002
 62
     3
370
    30
100
AcDbLine
 10
236.355753
 20
989.259971
 30
0.0
 11
226.211917
 21
979.664451
 31
0.0
  0
ARC
  5
8F
330
1F
100
AcDbEntity
  8
002
 62
     3
370
    30
100
AcDbCircle
 10
219.839134
 20
1010.802246
 30
0.0
 40
5.0
100
AcDbArc
 50
313.40886
 51
16.194713
  0
ARC
  5
90
330
1F
100
AcDbEntity
  8
002
 62
     3
370
    30
100
AcDbCircle
 10
239.791752
 20
985.627629
 30
0.0
 40
5.0
100
AcDbArc
 50
60.603787
 51
133.40886
  0
ARC
  5
91
330
1F
100
AcDbEntity
  8
002
 62
     3
370
    30
100
AcDbCircle
 10
260.652719
 20
1022.655604
 30
0.0
 40
37.50000999999997
100
AcDbArc
 50
240.603787
 51
307.628335
  0
LINE
  5
92
330
1F
100
AcDbEntity
  8
002
 62
     3
370
    30
100
AcDbLine
 10
301.152719
 20
1073.655604
 30
0.0
 11
300.152719
 21
1074.655604
 31
0.0
  0
LINE
  5
93
330
1F
100
AcDbEntity
  8
002
 62
     3
370
    30
100
AcDbLine
 10
284.152719
 20
1073.655604
 30
0.0
 11
285.152719
 21
1074.655604
 31
0.0
  0
LINE
  5
94
330
1F
100
AcDbEntity
  8
002
 62
     3
370
    30
100
AcDbLine
 10
301.152719
 20
1073.655604
 30
0.0
 11
284.152719
 21
1073.655604
 31
0.0
  0
LINE
  5
95
330
1F
100
AcDbEntity
  8
002
 62
     3
370
    30
100
AcDbLine
 10
284.152719
 20
1073.655604
 30
0.0
 11
284.152719
 21
1072.655604
 31
0.0
  0
LINE
  5
96
330
1F
100
AcDbEntity
  8
002
 62
     3
370
    30
100
AcDbLine
 10
301.152719
 20
1072.655604
 30
0.0
 11
301.152719
 21
1073.655604
 31
0.0
  0
LINE
  5
97
330
1F
100
AcDbEntity
  8
002
 62
     3
370
    30
100
AcDbLine
 10
300.152719
 20
1106.655604
 30
0.0
 11
300.152719
 21
1074.655604
 31
0.0
  0
LINE
  5
98
330
1F
100
AcDbEntity
  8
002
 62
     3
370
    30
100
AcDbLine
 10
285.152719
 20
1074.655604
 30
0.0
 11
285.152719
 21
1106.655604
 31
0.0
  0
LINE
  5
99
330
1F
100
AcDbEntity
  8
002
 62
     3
370
    30
100
AcDbLine
 10
295.152719
 20
1080.155604
 30
0.0
 11
295.152719
 21
1107.655604
 31
0.0
  0
LINE
  5
9A
330
1F
100
AcDbEntity
  8
002
 62
     3
370
    30
100
AcDbLine
 10
286.152719
 20
1107.655604
 30
0.0
 11
299.152719
 21
1107.655604
 31
0.0
  0
LINE
  5
9B
330
1F
100
AcDbEntity
  8
002
 62
     3
370
    30
100
AcDbLine
 10
299.152719
 20
1107.655604
 30
0.0
 11
300.152719
 21
1106.655604
 31
0.0
  0
LINE
  5
9C
330
1F
100
AcDbEntity
  8
002
 62
     3
370
    30
100
AcDbLine
 10
290.152719
 20
1107.655604
 30
0.0
 11
290.152719
 21
1080.155604
 31
0.0
  0
LINE
  5
9D
330
1F
100
AcDbEntity
  8
002
 62
     3
370
    30
100
AcDbLine
 10
285.152719
 20
1106.655604
 30
0.0
 11
286.152719
 21
1107.655604
 31
0.0
  0
LINE
  5
9E
330
1F
100
AcDbEntity
  8
002
 62
     3
370
    30
100
AcDbLine
 10
295.152719
 20
1085.655604
 30
0.0
 11
290.152719
 21
1085.655604
 31
0.0
  0
ARC
  5
9F
330
1F
100
AcDbEntity
  8
002
 62
     3
370
    30
100
AcDbCircle
 10
292.652719
 20
1080.155604
 30
0.0
 40
2.5
100
AcDbArc
 50
180.0
 51
0.0
  0
LINE
  5
A0
330
1F
100
AcDbEntity
  8
002
 62
     3
370
    30
100
AcDbLine
 10
301.152719
 20
971.655604
 30
0.0
 11
300.152719
 21
970.655604
 31
0.0
  0
LINE
  5
A1
330
1F
100
AcDbEntity
  8
002
 62
     3
370
    30
100
AcDbLine
 10
284.152719
 20
971.655604
 30
0.0
 11
285.152719
 21
970.655604
 31
0.0
  0
LINE
  5
A2
330
1F
100
AcDbEntity
  8
002
 62
     3
370
    30
100
AcDbLine
 10
301.152719
 20
971.655604
 30
0.0
 11
284.152719
 21
971.655604
 31
0.0
  0
LINE
  5
A3
330
1F
100
AcDbEntity
  8
002
 62
     3
370
    30
100
AcDbLine
 10
284.152719
 20
971.655604
 30
0.0
 11
284.152719
 21
972.655604
 31
0.0
  0
LINE
  5
A4
330
1F
100
AcDbEntity
  8
002
 62
     3
370
    30
100
AcDbLine
 10
301.152719
 20
972.655604
 30
0.0
 11
301.152719
 21
971.655604
 31
0.0
  0
LINE
  5
A5
330
1F
100
AcDbEntity
  8
002
 62
     3
370
    30
100
AcDbLine
 10
300.152719
 20
938.655604
 30
0.0
 11
300.152719
 21
970.655604
 31
0.0
  0
LINE
  5
A6
330
1F
100
AcDbEntity
  8
002
 62
     3
370
    30
100
AcDbLine
 10
285.152719
 20
970.655604
 30
0.0
 11
285.152719
 21
938.655604
 31
0.0
  0
LINE
  5
A7
330
1F
100
AcDbEntity
  8
002
 62
     3
370
    30
100
AcDbLine
 10
295.152719
 20
965.155604
 30
0.0
 11
295.152719
 21
937.655604
 31
0.0
  0
LINE
  5
A8
330
1F
100
AcDbEntity
  8
002
 62
     3
370
    30
100
AcDbLine
 10
286.152719
 20
937.655604
 30
0.0
 11
299.152719
 21
937.655604
 31
0.0
  0
LINE
  5
A9
330
1F
100
AcDbEntity
  8
002
 62
     3
370
    30
100
AcDbLine
 10
299.152719
 20
937.655604
 30
0.0
 11
300.152719
 21
938.655604
 31
0.0
  0
LINE
  5
AA
330
1F
100
AcDbEntity
  8
002
 62
     3
370
    30
100
AcDbLine
 10
290.152719
 20
937.655604
 30
0.0
 11
290.152719
 21
965.155604
 31
0.0
  0
LINE
  5
AB
330
1F
100
AcDbEntity
  8
002
 62
     3
370
    30
100
AcDbLine
 10
285.152719
 20
938.655604
 30
0.0
 11
286.152719
 21
937.655604
 31
0.0
  0
LINE
  5
AC
330
1F
100
AcDbEntity
  8
002
 62
     3
370
    30
100
AcDbLine
 10
295.152719
 20
959.655604
 30
0.0
 11
290.152719
 21
959.655604
 31
0.0
  0
ARC
  5
AD
330
1F
100
AcDbEntity
  8
002
 62
     3
370
    30
100
AcDbCircle
 10
292.652719
 20
965.155604
 30
0.0
 40
2.5
100
AcDbArc
 50
0.0
 51
180.0
  0
CIRCLE
  5
AE
330
1F
100
AcDbEntity
  8
002
 62
     3
370
    30
100
AcDbCircle
 10
260.652719
 20
1022.655604
 30
0.0
 40
12.5
  0
CIRCLE
  5
AF
330
1F
100
AcDbEntity
  8
002
 62
     3
370
    30
100
AcDbCircle
 10
260.652719
 20
1022.655604
 30
0.0
 40
7.0
  0
CIRCLE
  5
B0
330
1F
100
AcDbEntity
  8
002
 62
    40
370
     9
100
AcDbCircle
 10
260.652719
 20
1022.655604
 30
0.0
 40
6.25
  0
ARC
  5
B1
330
1F
100
AcDbEntity
  8
002
 62
     3
370
    30
100
AcDbCircle
 10
310.774949
 20
1023.111772
 30
0.0
 40
4.0
100
AcDbArc
 50
39.895863
 51
186.548369
  0
LINE
  5
B2
330
1F
100
AcDbEntity
  8
002
 62
     3
370
    30
100
AcDbLine
 10
313.843794
 20
1025.956045
 30
0.0
 11
313.843794
 21
1019.456045
 31
0.0
  0
LINE
  5
B3
330
1F
100
AcDbEntity
  8
002
 62
     3
370
    30
100
AcDbLine
 10
315.343794
 20
1019.456045
 30
0.0
 11
313.843794
 21
1019.456045
 31
0.0
  0
LINE
  5
B4
330
1F
100
AcDbEntity
  8
002
 62
     3
370
    30
100
AcDbLine
 10
315.343794
 20
1025.956045
 30
0.0
 11
313.843794
 21
1025.956045
 31
0.0
  0
LINE
  5
B5
330
1F
100
AcDbEntity
  8
002
 62
     3
370
    30
100
AcDbLine
 10
315.343794
 20
1025.956045
 30
0.0
 11
315.343794
 21
1019.456045
 31
0.0
  0
ARC
  5
B6
330
1F
100
AcDbEntity
  8
002
 62
     3
370
    30
100
AcDbCircle
 10
315.487794
 20
1026.273245
 30
0.0
 40
1.000001999998009
100
AcDbArc
 50
261.720641
 51
302.005383
  0
LINE
  5
B7
330
1F
100
AcDbEntity
  8
002
 62
     3
370
    30
100
AcDbLine
 10
319.867494
 20
1025.206045
 30
0.0
 11
319.867494
 21
1020.206045
 31
0.0
  0
ARC
  5
B8
330
1F
100
AcDbEntity
  8
002
 62
     3
370
    30
100
AcDbCircle
 10
319.206094
 20
1022.706045
 30
0.0
 40
0.9999749796870392
100
AcDbArc
 50
311.407997
 51
48.592003
  0
LINE
  5
B9
330
1F
100
AcDbEntity
  8
002
 62
     3
370
    30
100
AcDbLine
 10
316.867494
 20
1025.206045
 30
0.0
 11
316.867494
 21
1020.206045
 31
0.0
  0
LINE
  5
BA
330
1F
100
AcDbEntity
  8
002
 62
     3
370
    30
100
AcDbLine
 10
316.867494
 20
1025.956045
 30
0.0
 11
319.867494
 21
1025.206045
 31
0.0
  0
LINE
  5
BB
330
1F
100
AcDbEntity
  8
002
 62
     3
370
    30
100
AcDbLine
 10
316.017794
 20
1025.425245
 30
0.0
 11
316.867494
 21
1025.956045
 31
0.0
  0
LINE
  5
BC
330
1F
100
AcDbEntity
  8
002
 62
     3
370
    30
100
AcDbLine
 10
319.867494
 20
1020.206045
 30
0.0
 11
316.867494
 21
1019.456045
 31
0.0
  0
LINE
  5
BD
330
1F
100
AcDbEntity
  8
002
 62
     3
370
    30
100
AcDbLine
 10
316.867494
 20
1019.456045
 30
0.0
 11
316.017794
 21
1019.986945
 31
0.0
  0
ARC
  5
BE
330
1F
100
AcDbEntity
  8
002
 62
     3
370
    30
100
AcDbCircle
 10
315.487794
 20
1019.138945
 30
0.0
 40
0.9999197017761513
100
AcDbArc
 50
57.994617
 51
98.280045
  0
ARC
  5
BF
330
1F
100
AcDbEntity
  8
002
 62
     3
370
    30
100
AcDbCircle
 10
310.652719
 20
1022.655604
 30
0.0
 40
9.0
100
AcDbArc
 50
270.0
 51
343.214401
  0
ARC
  5
C0
330
1F
100
AcDbEntity
  8
002
 62
     3
370
    30
100
AcDbCircle
 10
310.652719
 20
1022.655604
 30
0.0
 40
9.0
100
AcDbArc
 50
17.513912
 51
90.0
  0
ARC
  5
C1
330
1F
100
AcDbEntity
  8
002
 62
     3
370
    30
100
AcDbCircle
 10
310.774949
 20
1022.199436
 30
0.0
 40
4.0
100
AcDbArc
 50
173.451631
 51
320.104137
  0
LINE
  5
C2
330
1F
100
AcDbEntity
  8
002
  6
CENTER
 62
    40
370
     9
100
AcDbLine
 10
344.232074
 20
1022.655604
 30
0.0
 11
204.09361
 21
1022.655604
 31
0.0
  0
ARC
  5
C3
330
1F
100
AcDbEntity
  8
003
 62
     3
370
    30
100
AcDbCircle
 10
260.652719
 20
1022.655604
 30
0.0
 40
43.33464269824003
100
AcDbArc
 50
90.699032
 51
120.280203
  0
ARC
  5
C4
330
1F
100
AcDbEntity
  8
003
 62
     3
370
    30
100
AcDbCircle
 10
260.063031
 20
1070.986649
 30
0.0
 40
5.0
100
AcDbArc
 50
270.699032
 51
357.137769
  0
ARC
  5
C5
330
1F
100
AcDbEntity
  8
003
 62
     3
370
    30
100
AcDbCircle
 10
236.280977
 20
1064.395943
 30
0.0
 40
5.0
100
AcDbArc
 50
224.169685
 51
300.280203
  0
ARC
  5
C6
330
1F
100
AcDbEntity
  8
003
 62
     3
370
    30
100
AcDbCircle
 10
214.506923
 20
1037.03626
 30
0.0
 40
5.0
100
AcDbArc
 50
342.691126
 51
44.169685
  0
ARC
  5
C7
330
1F
100
AcDbEntity
  8
003
 62
     3
370
    30
100
AcDbCircle
 10
214.506923
 20
1008.274948
 30
0.0
 40
5.0
100
AcDbArc
 50
315.830315
 51
17.308874
  0
ARC
  5
C8
330
1F
100
AcDbEntity
  8
003
 62
     3
370
    30
100
AcDbCircle
 10
236.280977
 20
980.915265
 30
0.0
 40
5.0
100
AcDbArc
 50
59.719797
 51
135.830315
  0
ARC
  5
C9
330
1F
100
AcDbEntity
  8
003
 62
     3
370
    30
100
AcDbCircle
 10
260.652719
 20
1022.655604
 30
0.0
 40
43.33464269824003
100
AcDbArc
 50
239.719797
 51
269.300968
  0
ARC
  5
CA
330
1F
100
AcDbEntity
  8
003
 62
     3
370
    30
100
AcDbCircle
 10
260.063031
 20
974.324559
 30
0.0
 40
5.0
100
AcDbArc
 50
2.862231
 51
89.300968
  0
ARC
  5
CB
330
1F
100
AcDbEntity
  8
003
 62
     3
370
    30
100
AcDbCircle
 10
260.652719
 20
1022.655604
 30
0.0
 40
43.33464269824003
100
AcDbArc
 50
162.691126
 51
165.98315
  0
ARC
  5
CC
330
1F
100
AcDbEntity
  8
003
 62
     3
370
    30
100
AcDbCircle
 10
260.652719
 20
1022.655604
 30
0.0
 40
43.33464269824003
100
AcDbArc
 50
194.01685
 51
197.308874
  0
ARC
  5
CD
330
1F
100
AcDbEntity
  8
003
 62
     3
370
    30
100
AcDbCircle
 10
213.757262
 20
1034.362604
 30
0.0
 40
5.0
100
AcDbArc
 50
270.0
 51
345.98315
  0
ARC
  5
CE
330
1F
100
AcDbEntity
  8
003
 62
     3
370
    30
100
AcDbCircle
 10
213.757262
 20
1010.948604
 30
0.0
 40
5.0
100
AcDbArc
 50
14.01685
 51
90.0
  0
LINE
  5
CF
330
1F
100
AcDbEntity
  8
002
 62
     3
370
    30
100
AcDbLine
 10
295.284412
 20
737.58012
 30
0.0
 11
290.784412
 21
737.58012
 31
0.0
  0
LINE
  5
D0
330
1F
100
AcDbEntity
  8
002
 62
     3
370
    30
100
AcDbLine
 10
290.784412
 20
737.58012
 30
0.0
 11
290.534412
 21
737.33012
 31
0.0
  0
LINE
  5
D1
330
1F
100
AcDbEntity
  8
002
 62
     3
370
    30
100
AcDbLine
 10
290.534412
 20
737.33012
 30
0.0
 11
290.534412
 21
732.83012
 31
0.0
  0
LINE
  5
D2
330
1F
100
AcDbEntity
  8
002
 62
     3
370
    30
100
AcDbLine
 10
290.534412
 20
732.83012
 30
0.0
 11
290.784412
 21
732.58012
 31
0.0
  0
LINE
  5
D3
330
1F
100
AcDbEntity
  8
002
 62
     3
370
    30
100
AcDbLine
 10
290.784412
 20
732.58012
 30
0.0
 11
295.284412
 21
732.58012
 31
0.0
  0
LINE
  5
D4
330
1F
100
AcDbEntity
  8
002
 62
     3
370
    30
100
AcDbLine
 10
295.284412
 20
732.58012
 30
0.0
 11
295.534412
 21
732.83012
 31
0.0
  0
LINE
  5
D5
330
1F
100
AcDbEntity
  8
002
 62
     3
370
    30
100
AcDbLine
 10
295.534412
 20
732.83012
 30
0.0
 11
295.534412
 21
737.33012
 31
0.0
  0
LINE
  5
D6
330
1F
100
AcDbEntity
  8
002
 62
     3
370
    30
100
AcDbLine
 10
295.534412
 20
737.33012
 30
0.0
 11
295.284412
 21
737.58012
 31
0.0
  0
ARC
  5
D7
330
1F
100
AcDbEntity
  8
002
 62
     3
370
    30
100
AcDbCircle
 10
295.334412
 20
732.78012
 30
0.0
 40
0.1999999999999318
100
AcDbArc
 50
270.0
 51
0.0
  0
ARC
  5
D8
330
1F
100
AcDbEntity
  8
002
 62
     3
370
    30
100
AcDbCircle
 10
290.734412
 20
732.78012
 30
0.0
 40
0.1999999999998181
100
AcDbArc
 50
180.0
 51
270.0
  0
ARC
  5
D9
330
1F
100
AcDbEntity
  8
002
 62
     3
370
    30
100
AcDbCircle
 10
293.034412
 20
728.08012
 30
0.0
 40
7.499936066394084
100
AcDbArc
 50
109.471393
 51
70.528607
  0
LINE
  5
DA
330
1F
100
AcDbEntity
  8
002
  6
CENTER
 62
    40
370
     9
100
AcDbLine
 10
282.235512
 20
728.08012
 30
0.0
 11
304.768712
 21
728.08012
 31
0.0
  0
LINE
  5
DB
330
1F
100
AcDbEntity
  8
002
  6
CENTER
 62
    40
370
     9
100
AcDbLine
 10
293.034412
 20
739.89212
 30
0.0
 11
293.034412
 21
717.95712
 31
0.0
  0
LINE
  5
DC
330
1F
100
AcDbEntity
  8
002
 62
     3
370
    30
100
AcDbLine
 10
232.052719
 20
176.738104
 30
0.0
 11
230.652719
 21
175.338104
 31
0.0
  0
LINE
  5
DD
330
1F
100
AcDbEntity
  8
002
 62
     3
370
    30
100
AcDbLine
 10
232.052719
 20
176.738104
 30
0.0
 11
260.652719
 21
176.738104
 31
0.0
  0
LINE
  5
DE
330
1F
100
AcDbEntity
  8
002
  6
CENTER
 62
    40
370
     9
100
AcDbLine
 10
292.652719
 20
113.068906
 30
0.0
 11
292.652719
 21
160.3094
 31
0.0
  0
LINE
  5
DF
330
1F
100
AcDbEntity
  8
002
  6
CENTER
 62
    40
370
     9
100
AcDbLine
 10
343.853152
 20
137.238104
 30
0.0
 11
204.258129
 21
137.238104
 31
0.0
  0
LINE
  5
E0
330
1F
100
AcDbEntity
  8
002
 62
     3
370
    30
100
AcDbLine
 10
226.211917
 20
175.638104
 30
0.0
 11
260.652719
 21
175.638104
 31
0.0
  0
LINE
  5
E1
330
1F
100
AcDbEntity
  8
002
 62
     3
370
    30
100
AcDbLine
 10
229.596846
 20
177.238104
 30
0.0
 11
207.708592
 21
177.238104
 31
0.0
  0
LINE
  5
E2
330
1F
100
AcDbEntity
  8
002
 62
     3
370
    30
100
AcDbLine
 10
331.596846
 20
177.238104
 30
0.0
 11
332.993676
 21
137.238104
 31
0.0
  0
LINE
  5
E3
330
1F
100
AcDbEntity
  8
002
 62
     3
370
    30
100
AcDbLine
 10
309.708592
 20
97.238104
 30
0.0
 11
331.596846
 21
97.238104
 31
0.0
  0
LINE
  5
E4
330
1F
100
AcDbEntity
  8
002
 62
     3
370
    30
100
AcDbLine
 10
331.596846
 20
97.238104
 30
0.0
 11
332.993676
 21
137.238104
 31
0.0
  0
LINE
  5
E5
330
1F
100
AcDbEntity
  8
002
 62
     3
370
    30
100
AcDbLine
 10
309.708592
 20
97.238104
 30
0.0
 11
309.650226
 21
98.909493
 31
0.0
  0
LINE
  5
E6
330
1F
100
AcDbEntity
  8
002
 62
     3
370
    30
100
AcDbLine
 10
207.708592
 20
177.238104
 30
0.0
 11
206.311761
 21
137.238104
 31
0.0
  0
LINE
  5
E7
330
1F
100
AcDbEntity
  8
002
 62
     3
370
    30
100
AcDbLine
 10
229.596846
 20
177.238104
 30
0.0
 11
229.652719
 21
175.638104
 31
0.0
  0
LINE
  5
E8
330
1F
100
AcDbEntity
  8
002
 62
     3
370
    30
100
AcDbLine
 10
207.708592
 20
97.238104
 30
0.0
 11
206.311761
 21
137.238104
 31
0.0
  0
LINE
  5
E9
330
1F
100
AcDbEntity
  8
002
  6
CENTER
 62
    40
370
     9
100
AcDbLine
 10
218.652719
 20
92.407531
 30
0.0
 11
218.652719
 21
180.471951
 31
0.0
  0
LINE
  5
EA
330
1F
100
AcDbEntity
  8
002
 62
     3
370
    30
100
AcDbLine
 10
207.708592
 20
97.238104
 30
0.0
 11
229.596846
 21
97.238104
 31
0.0
  0
LINE
  5
EB
330
1F
100
AcDbEntity
  8
002
 62
     3
370
    30
100
AcDbLine
 10
298.729384
 20
170.646906
 30
0.0
 11
298.309838
 21
175.442334
 31
0.0
  0
LINE
  5
EC
330
1F
100
AcDbEntity
  8
002
 62
     3
370
    30
100
AcDbLine
 10
298.729384
 20
103.829302
 30
0.0
 11
298.292711
 21
98.838104
 31
0.0
  0
LINE
  5
ED
330
1F
100
AcDbEntity
  8
002
 62
     3
370
    30
100
AcDbLine
 10
226.211917
 20
175.638104
 30
0.0
 11
224.03787
 21
150.788633
 31
0.0
  0
LINE
  5
EE
330
1F
100
AcDbEntity
  8
002
 62
     3
370
    30
100
AcDbLine
 10
224.03787
 20
123.687575
 30
0.0
 11
226.211917
 21
98.838104
 31
0.0
  0
LINE
  5
EF
330
1F
100
AcDbEntity
  8
002
 62
     3
370
    30
100
AcDbLine
 10
229.596846
 20
97.238104
 30
0.0
 11
229.652719
 21
98.838104
 31
0.0
  0
ARC
  5
F0
330
1F
100
AcDbEntity
  8
002
 62
     3
370
    30
100
AcDbCircle
 10
303.871767
 20
169.237763
 30
0.0
 40
5.0
100
AcDbArc
 50
185.0
 51
270.0
  0
LINE
  5
F1
330
1F
100
AcDbEntity
  8
002
 62
     3
370
    30
100
AcDbLine
 10
298.729384
 20
170.646906
 30
0.0
 11
298.890794
 21
168.801984
 31
0.0
  0
LINE
  5
F2
330
1F
100
AcDbEntity
  8
002
 62
     3
370
    30
100
AcDbLine
 10
298.847019
 20
105.173883
 30
0.0
 11
298.729384
 21
103.829302
 31
0.0
  0
LINE
  5
F3
330
1F
100
AcDbEntity
  8
002
 62
     3
370
    30
100
AcDbLine
 10
260.152719
 20
143.238104
 30
0.0
 11
206.521286
 21
143.238104
 31
0.0
  0
ARC
  5
F4
330
1F
100
AcDbEntity
  8
002
 62
     3
370
    30
100
AcDbCircle
 10
218.795629
 20
148.238104
 30
0.0
 40
5.0
100
AcDbArc
 50
270.0
 51
355.0
  0
LINE
  5
F5
330
1F
100
AcDbEntity
  8
002
 62
     3
370
    30
100
AcDbLine
 10
224.03787
 20
150.788633
 30
0.0
 11
223.776602
 21
147.802325
 31
0.0
  0
LINE
  5
F6
330
1F
100
AcDbEntity
  8
002
 62
     3
370
    30
100
AcDbLine
 10
260.152719
 20
131.238104
 30
0.0
 11
206.521286
 21
131.238104
 31
0.0
  0
ARC
  5
F7
330
1F
100
AcDbEntity
  8
002
 62
     3
370
    30
100
AcDbCircle
 10
218.795629
 20
126.238104
 30
0.0
 40
5.0
100
AcDbArc
 50
5.0
 51
90.0
  0
LINE
  5
F8
330
1F
100
AcDbEntity
  8
002
 62
     3
370
    30
100
AcDbLine
 10
224.03787
 20
123.687575
 30
0.0
 11
223.776602
 21
126.673883
 31
0.0
  0
LINE
  5
F9
330
1F
100
AcDbEntity
  8
002
 62
     3
370
    30
100
AcDbLine
 10
260.652719
 20
98.838104
 30
0.0
 11
315.110138
 21
98.838104
 31
0.0
  0
LINE
  5
FA
330
1F
100
AcDbEntity
  8
002
 62
     3
370
    30
100
AcDbLine
 10
260.652719
 20
98.838104
 30
0.0
 11
226.211917
 21
98.838104
 31
0.0
  0
LINE
  5
FB
330
1F
100
AcDbEntity
  8
002
 62
     3
370
    30
100
AcDbLine
 10
325.152719
 20
143.238104
 30
0.0
 11
332.784152
 21
143.238104
 31
0.0
  0
LINE
  5
FC
330
1F
100
AcDbEntity
  8
002
 62
     3
370
    30
100
AcDbLine
 10
325.152719
 20
131.238104
 30
0.0
 11
332.784152
 21
131.238104
 31
0.0
  0
LINE
  5
FD
330
1F
100
AcDbEntity
  8
002
 62
     3
370
    30
100
AcDbLine
 10
322.461621
 20
163.05119
 30
0.0
 11
327.593401
 21
162.723633
 31
0.0
  0
ARC
  5
FE
330
1F
100
AcDbEntity
  8
002
 62
     3
370
    30
100
AcDbCircle
 10
327.274904
 20
157.733788
 30
0.0
 40
5.0
100
AcDbArc
 50
2.0
 51
86.347819
  0
LINE
  5
FF
330
1F
100
AcDbEntity
  8
002
 62
     3
370
    30
100
AcDbLine
 10
319.652719
 20
108.431111
 30
0.0
 11
319.652719
 21
107.238104
 31
0.0
  0
LINE
  5
100
330
1F
100
AcDbEntity
  8
002
 62
     3
370
    30
100
AcDbLine
 10
322.461621
 20
111.425018
 30
0.0
 11
327.593401
 21
111.752575
 31
0.0
  0
ARC
  5
101
330
1F
100
AcDbEntity
  8
002
 62
     3
370
    30
100
AcDbCircle
 10
327.274904
 20
116.74242
 30
0.0
 40
5.0
100
AcDbArc
 50
273.652181
 51
358.0
  0
ARC
  5
102
330
1F
100
AcDbEntity
  8
002
 62
     3
370
    30
100
AcDbCircle
 10
303.609271
 20
102.238104
 30
0.0
 40
5.0
100
AcDbArc
 50
90.0
 51
175.0
  0
LINE
  5
103
330
1F
100
AcDbEntity
  8
002
 62
     3
370
    30
100
AcDbLine
 10
303.609271
 20
107.238104
 30
0.0
 11
319.652719
 21
107.238104
 31
0.0
  0
ARC
  5
104
330
1F
100
AcDbEntity
  8
002
 62
     3
370
    30
100
AcDbCircle
 10
322.652719
 20
108.431111
 30
0.0
 40
3.0
100
AcDbArc
 50
93.652181
 51
180.0
  0
LINE
  5
105
330
1F
100
AcDbEntity
  8
002
 62
     3
370
    30
100
AcDbLine
 10
315.845042
 20
107.238104
 30
0.0
 11
315.110138
 21
98.838104
 31
0.0
  0
LINE
  5
106
330
1F
100
AcDbEntity
  8
002
 62
     3
370
    30
100
AcDbLine
 10
265.152719
 20
114.738104
 30
0.0
 11
265.152719
 21
159.738104
 31
0.0
  0
LINE
  5
107
330
1F
100
AcDbEntity
  8
002
 62
     3
370
    30
100
AcDbLine
 10
315.152719
 20
109.738104
 30
0.0
 11
270.152719
 21
109.738104
 31
0.0
  0
LINE
  5
108
330
1F
100
AcDbEntity
  8
002
 62
     3
370
    30
100
AcDbLine
 10
320.152719
 20
159.738104
 30
0.0
 11
320.152719
 21
114.738104
 31
0.0
  0
LINE
  5
109
330
1F
100
AcDbEntity
  8
002
 62
     3
370
    30
100
AcDbLine
 10
315.152719
 20
164.738104
 30
0.0
 11
270.152719
 21
164.738104
 31
0.0
  0
ARC
  5
10A
330
1F
100
AcDbEntity
  8
002
 62
     3
370
    30
100
AcDbCircle
 10
270.152719
 20
159.738104
 30
0.0
 40
5.0
100
AcDbArc
 50
90.0
 51
180.0
  0
ARC
  5
10B
330
1F
100
AcDbEntity
  8
002
 62
     3
370
    30
100
AcDbCircle
 10
270.152719
 20
114.738104
 30
0.0
 40
5.0
100
AcDbArc
 50
180.0
 51
270.0
  0
ARC
  5
10C
330
1F
100
AcDbEntity
  8
002
 62
     3
370
    30
100
AcDbCircle
 10
315.152719
 20
114.738104
 30
0.0
 40
5.0
100
AcDbArc
 50
270.0
 51
0.0
  0
ARC
  5
10D
330
1F
100
AcDbEntity
  8
002
 62
     3
370
    30
100
AcDbCircle
 10
315.152719
 20
159.738104
 30
0.0
 40
5.0
100
AcDbArc
 50
0.0
 51
90.0
  0
ARC
  5
10E
330
1F
100
AcDbEntity
  8
002
 62
     3
370
    30
100
AcDbCircle
 10
325.152719
 20
148.238104
 30
0.0
 40
5.0
100
AcDbArc
 50
180.0
 51
270.0
  0
ARC
  5
10F
330
1F
100
AcDbEntity
  8
002
 62
     3
370
    30
100
AcDbCircle
 10
325.152719
 20
126.238104
 30
0.0
 40
5.0
100
AcDbArc
 50
90.0
 51
180.0
  0
ARC
  5
110
330
1F
100
AcDbEntity
  8
002
 62
     3
370
    30
100
AcDbCircle
 10
303.827993
 20
104.738104
 30
0.0
 40
5.0
100
AcDbArc
 50
90.0
 51
175.0
  0
ARC
  5
111
330
1F
100
AcDbEntity
  8
002
 62
     3
370
    30
100
AcDbCircle
 10
260.152719
 20
148.238104
 30
0.0
 40
5.0
100
AcDbArc
 50
270.0
 51
0.0
  0
ARC
  5
112
330
1F
100
AcDbEntity
  8
002
 62
     3
370
    30
100
AcDbCircle
 10
260.152719
 20
126.238104
 30
0.0
 40
5.0
100
AcDbArc
 50
0.0
 51
90.0
  0
LINE
  5
113
330
1F
100
AcDbEntity
  8
002
 62
     3
370
    30
100
AcDbLine
 10
289.252719
 20
176.738104
 30
0.0
 11
260.652719
 21
176.738104
 31
0.0
  0
LINE
  5
114
330
1F
100
AcDbEntity
  8
002
 62
     3
370
    30
100
AcDbLine
 10
289.252719
 20
176.738104
 30
0.0
 11
290.652719
 21
175.338104
 31
0.0
  0
LINE
  5
115
330
1F
100
AcDbEntity
  8
002
 62
     3
370
    30
100
AcDbLine
 10
290.152719
 20
146.488104
 30
0.0
 11
290.152719
 21
141.988104
 31
0.0
  0
LINE
  5
116
330
1F
100
AcDbEntity
  8
002
 62
     3
370
    30
100
AcDbLine
 10
290.152719
 20
141.988104
 30
0.0
 11
290.402719
 21
141.738104
 31
0.0
  0
LINE
  5
117
330
1F
100
AcDbEntity
  8
002
 62
     3
370
    30
100
AcDbLine
 10
290.402719
 20
141.738104
 30
0.0
 11
294.902719
 21
141.738104
 31
0.0
  0
LINE
  5
118
330
1F
100
AcDbEntity
  8
002
 62
     3
370
    30
100
AcDbLine
 10
294.902719
 20
141.738104
 30
0.0
 11
295.152719
 21
141.988104
 31
0.0
  0
LINE
  5
119
330
1F
100
AcDbEntity
  8
002
 62
     3
370
    30
100
AcDbLine
 10
295.152719
 20
141.988104
 30
0.0
 11
295.152719
 21
146.488104
 31
0.0
  0
LINE
  5
11A
330
1F
100
AcDbEntity
  8
002
 62
     3
370
    30
100
AcDbLine
 10
295.152719
 20
146.488104
 30
0.0
 11
294.902719
 21
146.738104
 31
0.0
  0
LINE
  5
11B
330
1F
100
AcDbEntity
  8
002
 62
     3
370
    30
100
AcDbLine
 10
294.902719
 20
146.738104
 30
0.0
 11
290.402719
 21
146.738104
 31
0.0
  0
LINE
  5
11C
330
1F
100
AcDbEntity
  8
002
 62
     3
370
    30
100
AcDbLine
 10
290.402719
 20
146.738104
 30
0.0
 11
290.152719
 21
146.488104
 31
0.0
  0
ARC
  5
11D
330
1F
100
AcDbEntity
  8
002
 62
     3
370
    30
100
AcDbCircle
 10
294.952719
 20
141.938104
 30
0.0
 40
0.1999999999999318
100
AcDbArc
 50
270.0
 51
0.0
  0
ARC
  5
11E
330
1F
100
AcDbEntity
  8
002
 62
     3
370
    30
100
AcDbCircle
 10
290.352719
 20
141.938104
 30
0.0
 40
0.2000000000000455
100
AcDbArc
 50
180.0
 51
270.0
  0
ARC
  5
11F
330
1F
100
AcDbEntity
  8
002
 62
     3
370
    30
100
AcDbCircle
 10
292.652719
 20
137.238104
 30
0.0
 40
7.499936066394191
100
AcDbArc
 50
109.471393
 51
70.528607
  0
CIRCLE
  5
120
330
1F
100
AcDbEntity
  8
002
 62
     3
370
    30
100
AcDbCircle
 10
292.652719
 20
137.238104
 30
0.0
 40
17.5
  0
ARC
  5
121
330
1F
100
AcDbEntity
  8
002
 62
     3
370
    30
100
AcDbCircle
 10
292.652719
 20
136.193704
 30
0.0
 40
15.66944001073419
100
AcDbArc
 50
306.867484
 51
233.132223
  0
ARC
  5
122
330
1F
100
AcDbEntity
  8
002
 62
     3
370
    30
100
AcDbCircle
 10
284.751519
 20
125.657904
 30
0.0
 40
2.499984673953072
100
AcDbArc
 50
233.131477
 51
314.849286
  0
CIRCLE
  5
123
330
1F
100
AcDbEntity
  8
002
 62
     3
370
    30
100
AcDbCircle
 10
288.277719
 20
122.113104
 30
0.0
 40
1.09375
  0
ARC
  5
124
330
1F
100
AcDbEntity
  8
002
 62
     3
370
    30
100
AcDbCircle
 10
288.277719
 20
122.113104
 30
0.0
 40
2.499984673952911
100
AcDbArc
 50
0.0
 51
134.849286
  0
LINE
  5
125
330
1F
100
AcDbEntity
  8
002
 62
     3
370
    30
100
AcDbLine
 10
290.777719
 20
122.113104
 30
0.0
 11
290.777719
 21
119.866504
 31
0.0
  0
LINE
  5
126
330
1F
100
AcDbEntity
  8
002
 62
     3
370
    30
100
AcDbLine
 10
294.527719
 20
119.866504
 30
0.0
 11
294.527719
 21
122.113104
 31
0.0
  0
CIRCLE
  5
127
330
1F
100
AcDbEntity
  8
002
 62
     3
370
    30
100
AcDbCircle
 10
297.027719
 20
122.113104
 30
0.0
 40
1.09375
  0
ARC
  5
128
330
1F
100
AcDbEntity
  8
002
 62
     3
370
    30
100
AcDbCircle
 10
300.553919
 20
125.657904
 30
0.0
 40
2.500020003919964
100
AcDbArc
 50
225.150714
 51
306.866689
  0
ARC
  5
129
330
1F
100
AcDbEntity
  8
002
 62
     3
370
    30
100
AcDbCircle
 10
297.027719
 20
122.113104
 30
0.0
 40
2.5
100
AcDbArc
 50
45.150714
 51
180.0
  0
LINE
  5
12A
330
1F
100
AcDbEntity
  8
002
 62
     3
370
    30
100
AcDbLine
 10
223.152719
 20
97.238104
 30
0.0
 11
223.152719
 21
92.838104
 31
0.0
  0
LINE
  5
12B
330
1F
100
AcDbEntity
  8
002
 62
     3
370
    30
100
AcDbLine
 10
223.152719
 20
92.838104
 30
0.0
 11
298.152719
 21
92.838104
 31
0.0
  0
LINE
  5
12C
330
1F
100
AcDbEntity
  8
002
 62
     3
370
    30
100
AcDbLine
 10
298.152719
 20
92.838104
 30
0.0
 11
298.152719
 21
98.838104
 31
0.0
  0
LINE
  5
12D
330
1F
100
AcDbEntity
  8
002
 62
     3
370
    30
100
AcDbLine
 10
294.902719
 20
92.838104
 30
0.0
 11
294.902719
 21
87.838104
 31
0.0
  0
LINE
  5
12E
330
1F
100
AcDbEntity
  8
002
 62
     3
370
    30
100
AcDbLine
 10
294.902719
 20
87.838104
 30
0.0
 11
286.402719
 21
87.838104
 31
0.0
  0
LINE
  5
12F
330
1F
100
AcDbEntity
  8
002
 62
     3
370
    30
100
AcDbLine
 10
286.402719
 20
87.838104
 30
0.0
 11
286.402719
 21
92.838104
 31
0.0
  0
LINE
  5
130
330
1F
100
AcDbEntity
  8
002
 62
     3
370
    30
100
AcDbLine
 10
284.952719
 20
92.838104
 30
0.0
 11
284.952719
 21
72.838104
 31
0.0
  0
LINE
  5
131
330
1F
100
AcDbEntity
  8
002
 62
     3
370
    30
100
AcDbLine
 10
284.952719
 20
72.838104
 30
0.0
 11
236.352719
 21
72.838104
 31
0.0
  0
LINE
  5
132
330
1F
100
AcDbEntity
  8
002
 62
     3
370
    30
100
AcDbLine
 10
236.352719
 20
72.838104
 30
0.0
 11
236.352719
 21
92.838104
 31
0.0
  0
LINE
  5
133
330
1F
100
AcDbEntity
  8
002
 62
     3
370
    30
100
AcDbLine
 10
234.902719
 20
92.838104
 30
0.0
 11
234.902719
 21
87.838104
 31
0.0
  0
LINE
  5
134
330
1F
100
AcDbEntity
  8
002
 62
     3
370
    30
100
AcDbLine
 10
234.902719
 20
87.838104
 30
0.0
 11
226.402719
 21
87.838104
 31
0.0
  0
LINE
  5
135
330
1F
100
AcDbEntity
  8
002
 62
     3
370
    30
100
AcDbLine
 10
226.402719
 20
87.838104
 30
0.0
 11
226.402719
 21
92.838104
 31
0.0
  0
LINE
  5
136
330
1F
100
AcDbEntity
  8
002
 62
     3
370
    30
100
AcDbLine
 10
256.402719
 20
87.838104
 30
0.0
 11
264.902719
 21
87.838104
 31
0.0
  0
LINE
  5
137
330
1F
100
AcDbEntity
  8
002
 62
     3
370
    30
100
AcDbLine
 10
264.902719
 20
87.838104
 30
0.0
 11
264.902719
 21
92.838104
 31
0.0
  0
LINE
  5
138
330
1F
100
AcDbEntity
  8
002
 62
     3
370
    30
100
AcDbLine
 10
256.402719
 20
87.838104
 30
0.0
 11
256.402719
 21
92.838104
 31
0.0
  0
LINE
  5
139
330
1F
100
AcDbEntity
  8
002
  6
CENTER
 62
    40
370
     9
100
AcDbLine
 10
290.652719
 20
108.773204
 30
0.0
 11
290.652719
 21
88.684004
 31
0.0
  0
LINE
  5
13A
330
1F
100
AcDbEntity
  8
002
  6
CENTER
 62
    40
370
     9
100
AcDbLine
 10
230.652719
 20
88.684004
 30
0.0
 11
230.652719
 21
108.773204
 31
0.0
  0
LINE
  5
13B
330
1F
100
AcDbEntity
  8
002
 62
     3
370
    30
100
AcDbLine
 10
230.152719
 20
269.13487
 30
0.0
 11
230.152719
 21
275.13487
 31
0.0
  0
LINE
  5
13C
330
1F
100
AcDbEntity
  8
002
 62
     3
370
    30
100
AcDbLine
 10
291.152719
 20
269.13487
 30
0.0
 11
291.152719
 21
275.13487
 31
0.0
  0
LINE
  5
13D
330
1F
100
AcDbEntity
  8
002
 62
     3
370
    30
100
AcDbLine
 10
230.152719
 20
269.13487
 30
0.0
 11
230.652719
 21
268.63487
 31
0.0
  0
LINE
  5
13E
330
1F
100
AcDbEntity
  8
002
 62
     3
370
    30
100
AcDbLine
 10
290.652719
 20
268.63487
 30
0.0
 11
291.152719
 21
269.13487
 31
0.0
  0
LINE
  5
13F
330
1F
100
AcDbEntity
  8
002
 62
     3
370
    30
100
AcDbLine
 10
291.152719
 20
275.13487
 30
0.0
 11
290.652719
 21
275.63487
 31
0.0
  0
LINE
  5
140
330
1F
100
AcDbEntity
  8
002
 62
     3
370
    30
100
AcDbLine
 10
230.152719
 20
275.13487
 30
0.0
 11
230.652719
 21
275.63487
 31
0.0
  0
ARC
  5
141
330
1F
100
AcDbEntity
  8
002
 62
     3
370
    30
100
AcDbCircle
 10
242.152719
 20
276.13487
 30
0.0
 40
0.5
100
AcDbArc
 50
270.0
 51
0.0
  0
ARC
  5
142
330
1F
100
AcDbEntity
  8
002
 62
     3
370
    30
100
AcDbCircle
 10
279.152719
 20
276.13487
 30
0.0
 40
0.5
100
AcDbArc
 50
180.0
 51
270.0
  0
LINE
  5
143
330
1F
100
AcDbEntity
  8
002
 62
     3
370
    30
100
AcDbLine
 10
242.652719
 20
318.13487
 30
0.0
 11
243.152719
 21
318.63487
 31
0.0
  0
LINE
  5
144
330
1F
100
AcDbEntity
  8
002
 62
     3
370
    30
100
AcDbLine
 10
278.152719
 20
318.63487
 30
0.0
 11
278.652719
 21
318.13487
 31
0.0
  0
LINE
  5
145
330
1F
100
AcDbEntity
  8
002
  6
CENTER
 62
    40
370
     9
100
AcDbLine
 10
237.152719
 20
265.63487
 30
0.0
 11
237.152719
 21
278.63487
 31
0.0
  0
LINE
  5
146
330
1F
100
AcDbEntity
  8
002
  6
CENTER
 62
    40
370
     9
100
AcDbLine
 10
284.152719
 20
265.63487
 30
0.0
 11
284.152719
 21
278.63487
 31
0.0
  0
LINE
  5
147
330
1F
100
AcDbEntity
  8
002
 62
    40
370
     9
100
AcDbLine
 10
250.902719
 20
453.238104
 30
0.0
 11
250.902719
 21
318.63487
 31
0.0
  0
LINE
  5
148
330
1F
100
AcDbEntity
  8
002
 62
     3
370
    30
100
AcDbLine
 10
248.152719
 20
453.238104
 30
0.0
 11
248.152719
 21
318.63487
 31
0.0
  0
CIRCLE
  5
149
330
1F
100
AcDbEntity
  8
002
 62
     3
370
    30
100
AcDbCircle
 10
260.652719
 20
603.238104
 30
0.0
 40
30.5
  0
LINE
  5
14A
330
1F
100
AcDbEntity
  8
002
  6
CENTER
 62
    40
370
     9
100
AcDbLine
 10
260.652719
 20
636.238104
 30
0.0
 11
260.652719
 21
570.238104
 31
0.0
  0
LINE
  5
14B
330
1F
100
AcDbEntity
  8
002
  6
CENTER
 62
    40
370
     9
100
AcDbLine
 10
227.652719
 20
603.238104
 30
0.0
 11
293.652719
 21
603.238104
 31
0.0
  0
CIRCLE
  5
14C
330
1F
100
AcDbEntity
  8
002
  6
CENTER
 62
    40
370
     9
100
AcDbCircle
 10
260.652719
 20
603.238104
 30
0.0
 40
23.5
  0
CIRCLE
  5
14D
330
1F
100
AcDbEntity
  8
002
 62
    40
370
     9
100
AcDbCircle
 10
260.652719
 20
603.238104
 30
0.0
 40
10.5
  0
CIRCLE
  5
14E
330
1F
100
AcDbEntity
  8
002
 62
     3
370
    30
100
AcDbCircle
 10
260.652719
 20
603.238104
 30
0.0
 40
12.75
  0
CIRCLE
  5
14F
330
1F
100
AcDbEntity
  8
002
 62
     3
370
    30
100
AcDbCircle
 10
260.652719
 20
626.738104
 30
0.0
 40
3.3
  0
CIRCLE
  5
150
330
1F
100
AcDbEntity
  8
002
 62
     3
370
    30
100
AcDbCircle
 10
260.652719
 20
579.738104
 30
0.0
 40
3.3
  0
CIRCLE
  5
151
330
1F
100
AcDbEntity
  8
002
 62
     3
370
    30
100
AcDbCircle
 10
237.152719
 20
603.238104
 30
0.0
 40
3.3
  0
CIRCLE
  5
152
330
1F
100
AcDbEntity
  8
002
 62
     3
370
    30
100
AcDbCircle
 10
284.152719
 20
603.238104
 30
0.0
 40
3.3
  0
ARC
  5
153
330
1F
100
AcDbEntity
  8
002
 62
     3
370
    30
100
AcDbCircle
 10
278.652719
 20
297.13487
 30
0.0
 40
1.25
100
AcDbArc
 50
90.0
 51
270.0
  0
LINE
  5
154
330
1F
100
AcDbEntity
  8
002
 62
     3
370
    30
100
AcDbLine
 10
278.652719
 20
276.13487
 30
0.0
 11
278.652719
 21
295.88487
 31
0.0
  0
LINE
  5
155
330
1F
100
AcDbEntity
  8
002
 62
     3
370
    30
100
AcDbLine
 10
278.652719
 20
298.38487
 30
0.0
 11
278.652719
 21
318.13487
 31
0.0
  0
ARC
  5
156
330
1F
100
AcDbEntity
  8
002
 62
     3
370
    30
100
AcDbCircle
 10
242.652719
 20
297.13487
 30
0.0
 40
1.25
100
AcDbArc
 50
270.0
 51
90.0
  0
LINE
  5
157
330
1F
100
AcDbEntity
  8
002
 62
     3
370
    30
100
AcDbLine
 10
242.652719
 20
276.13487
 30
0.0
 11
242.652719
 21
295.88487
 31
0.0
  0
LINE
  5
158
330
1F
100
AcDbEntity
  8
002
 62
     3
370
    30
100
AcDbLine
 10
242.652719
 20
298.38487
 30
0.0
 11
242.652719
 21
318.13487
 31
0.0
  0
LINE
  5
159
330
1F
100
AcDbEntity
  8
002
 62
     3
370
    30
100
AcDbLine
 10
260.652719
 20
175.638104
 30
0.0
 11
306.652719
 21
175.638104
 31
0.0
  0
LINE
  5
15A
330
1F
100
AcDbEntity
  8
002
 62
     3
370
    30
100
AcDbLine
 10
319.879317
 20
177.238104
 30
0.0
 11
331.596846
 21
177.238104
 31
0.0
  0
ARC
  5
15B
330
1F
100
AcDbEntity
  8
002
 62
     3
370
    30
100
AcDbCircle
 10
303.609271
 20
172.238104
 30
0.0
 40
5.0
100
AcDbArc
 50
185.0
 51
270.0
  0
LINE
  5
15C
330
1F
100
AcDbEntity
  8
002
 62
     3
370
    30
100
AcDbLine
 10
303.609271
 20
167.238104
 30
0.0
 11
319.652719
 21
167.238104
 31
0.0
  0
ARC
  5
15D
330
1F
100
AcDbEntity
  8
002
 62
     3
370
    30
100
AcDbCircle
 10
322.652719
 20
166.045097
 30
0.0
 40
3.0
100
AcDbArc
 50
180.0
 51
266.347819
  0
LINE
  5
15E
330
1F
100
AcDbEntity
  8
002
 62
     3
370
    30
100
AcDbLine
 10
319.652719
 20
166.045097
 30
0.0
 11
319.652719
 21
167.238104
 31
0.0
  0
LINE
  5
15F
330
1F
100
AcDbEntity
  8
002
 62
     3
370
    30
100
AcDbLine
 10
315.845042
 20
167.238104
 30
0.0
 11
315.365765
 21
172.716274
 31
0.0
  0
LINE
  5
160
330
1F
100
AcDbEntity
  8
002
 62
     3
370
    30
100
AcDbLine
 10
306.652719
 20
170.738104
 30
0.0
 11
314.652719
 21
170.738104
 31
0.0
  0
LINE
  5
161
330
1F
100
AcDbEntity
  8
002
 62
     3
370
    30
100
AcDbLine
 10
306.087719
 20
168.141657
 30
0.0
 11
307.652719
 21
167.238104
 31
0.0
  0
LINE
  5
162
330
1F
100
AcDbEntity
  8
002
 62
     3
370
    30
100
AcDbLine
 10
306.163414
 20
170.455604
 30
0.0
 11
306.652719
 21
170.738104
 31
0.0
  0
LINE
  5
163
330
1F
100
AcDbEntity
  8
002
 62
     3
370
    30
100
AcDbLine
 10
315.142023
 20
170.455604
 30
0.0
 11
314.652719
 21
170.738104
 31
0.0
  0
LINE
  5
164
330
1F
100
AcDbEntity
  8
002
 62
     3
370
    30
100
AcDbLine
 10
315.217719
 20
168.141657
 30
0.0
 11
313.652719
 21
167.238104
 31
0.0
  0
ARC
  5
165
330
1F
100
AcDbEntity
  8
002
 62
     3
370
    30
100
AcDbCircle
 10
310.652719
 20
161.598381
 30
0.0
 40
9.139722999187002
100
AcDbArc
 50
74.646222
 51
105.353778
  0
ARC
  5
166
330
1F
100
AcDbEntity
  8
002
 62
     3
370
    30
100
AcDbCircle
 10
307.160219
 20
168.811971
 30
0.0
 40
1.926144835808743
100
AcDbArc
 50
56.164408
 51
123.835592
  0
ARC
  5
167
330
1F
100
AcDbEntity
  8
002
 62
     3
370
    30
100
AcDbCircle
 10
314.145219
 20
168.811971
 30
0.0
 40
1.926144835808743
100
AcDbArc
 50
56.164408
 51
123.835592
  0
ARC
  5
168
330
1F
100
AcDbEntity
  8
002
 62
     3
370
    30
100
AcDbCircle
 10
307.160219
 20
169.741588
 30
0.0
 40
1.926144835808743
100
AcDbArc
 50
236.164408
 51
303.835592
  0
ARC
  5
169
330
1F
100
AcDbEntity
  8
002
 62
     3
370
    30
100
AcDbCircle
 10
310.652719
 20
176.955177
 30
0.0
 40
9.139722999187002
100
AcDbArc
 50
254.646222
 51
285.353778
  0
ARC
  5
16A
330
1F
100
AcDbEntity
  8
002
 62
     3
370
    30
100
AcDbCircle
 10
314.145219
 20
169.741588
 30
0.0
 40
1.926144835808743
100
AcDbArc
 50
236.164408
 51
303.835592
  0
ARC
  5
16B
330
1F
100
AcDbEntity
  8
002
 62
     3
370
    30
100
AcDbCircle
 10
310.652719
 20
175.238104
 30
0.0
 40
4.0
100
AcDbArc
 50
54.895863
 51
180.0
  0
LINE
  5
16C
330
1F
100
AcDbEntity
  8
002
 62
     3
370
    30
100
AcDbLine
 10
306.652719
 20
175.638104
 30
0.0
 11
306.652719
 21
170.738104
 31
0.0
  0
LINE
  5
16D
330
1F
100
AcDbEntity
  8
002
 62
     3
370
    30
100
AcDbLine
 10
314.652719
 20
172.525214
 30
0.0
 11
314.652719
 21
170.738104
 31
0.0
  0
LINE
  5
16E
330
1F
100
AcDbEntity
  8
002
 62
     3
370
    30
100
AcDbLine
 10
312.880844
 20
178.779737
 30
0.0
 11
314.563168
 21
172.501219
 31
0.0
  0
LINE
  5
16F
330
1F
100
AcDbEntity
  8
002
 62
     3
370
    30
100
AcDbLine
 10
316.012057
 20
172.889448
 30
0.0
 11
314.563168
 21
172.501219
 31
0.0
  0
LINE
  5
170
330
1F
100
AcDbEntity
  8
002
 62
     3
370
    30
100
AcDbLine
 10
314.329733
 20
179.167965
 30
0.0
 11
312.880844
 21
178.779737
 31
0.0
  0
LINE
  5
171
330
1F
100
AcDbEntity
  8
002
 62
     3
370
    30
100
AcDbLine
 10
314.329733
 20
179.167965
 30
0.0
 11
316.012057
 21
172.889448
 31
0.0
  0
ARC
  5
172
330
1F
100
AcDbEntity
  8
002
 62
     3
370
    30
100
AcDbCircle
 10
314.386729
 20
179.511627
 30
0.0
 40
1.000001999998009
100
AcDbArc
 50
276.720641
 51
317.005383
  0
LINE
  5
173
330
1F
100
AcDbEntity
  8
002
 62
     3
370
    30
100
AcDbLine
 10
318.893406
 20
179.614341
 30
0.0
 11
320.187501
 21
174.784712
 31
0.0
  0
ARC
  5
174
330
1F
100
AcDbEntity
  8
002
 62
     3
370
    30
100
AcDbCircle
 10
318.90159
 20
177.028343
 30
0.0
 40
0.9999749796870392
100
AcDbArc
 50
326.407997
 51
63.592003
  0
LINE
  5
175
330
1F
100
AcDbEntity
  8
002
 62
     3
370
    30
100
AcDbLine
 10
315.995628
 20
178.837884
 30
0.0
 11
317.289724
 21
174.008255
 31
0.0
  0
LINE
  5
176
330
1F
100
AcDbEntity
  8
002
 62
     3
370
    30
100
AcDbLine
 10
315.801514
 20
179.562328
 30
0.0
 11
318.893406
 21
179.614341
 31
0.0
  0
LINE
  5
177
330
1F
100
AcDbEntity
  8
002
 62
     3
370
    30
100
AcDbLine
 10
315.118148
 20
178.829696
 30
0.0
 11
315.801514
 21
179.562328
 31
0.0
  0
LINE
  5
178
330
1F
100
AcDbEntity
  8
002
 62
     3
370
    30
100
AcDbLine
 10
320.187501
 20
174.784712
 30
0.0
 11
317.483838
 21
173.28381
 31
0.0
  0
LINE
  5
179
330
1F
100
AcDbEntity
  8
002
 62
     3
370
    30
100
AcDbLine
 10
317.483838
 20
173.28381
 30
0.0
 11
316.525684
 21
173.576702
 31
0.0
  0
ARC
  5
17A
330
1F
100
AcDbEntity
  8
002
 62
     3
370
    30
100
AcDbCircle
 10
316.233222
 20
172.620422
 30
0.0
 40
0.9999197017761513
100
AcDbArc
 50
72.994617
 51
113.280045
  0
LINE
  5
17B
330
1F
100
AcDbEntity
  8
002
 62
     3
370
    30
100
AcDbLine
 10
306.087719
 20
170.411901
 30
0.0
 11
306.087719
 21
168.141657
 31
0.0
  0
LINE
  5
17C
330
1F
100
AcDbEntity
  8
002
 62
     3
370
    30
100
AcDbLine
 10
308.232719
 20
170.411901
 30
0.0
 11
308.232719
 21
168.141657
 31
0.0
  0
LINE
  5
17D
330
1F
100
AcDbEntity
  8
002
 62
     3
370
    30
100
AcDbLine
 10
313.072719
 20
170.411901
 30
0.0
 11
313.072719
 21
168.141657
 31
0.0
  0
LINE
  5
17E
330
1F
100
AcDbEntity
  8
002
 62
     3
370
    30
100
AcDbLine
 10
315.217719
 20
170.411901
 30
0.0
 11
315.217719
 21
168.141657
 31
0.0
  0
LINE
  5
17F
330
1F
100
AcDbEntity
  8
002
  6
CENTER
 62
    40
370
     9
100
AcDbLine
 10
308.094162
 20
174.080281
 30
0.0
 11
321.706148
 21
177.727602
 31
0.0
  0
LINE
  5
180
330
1F
100
AcDbEntity
  8
002
  6
CENTER
 62
    40
370
     9
100
AcDbLine
 10
320.652719
 20
92.407531
 30
0.0
 11
320.652719
 21
180.471951
 31
0.0
  0
LINE
  5
181
330
1F
100
AcDbEntity
  8
002
  6
CENTER
 62
    40
370
     9
100
AcDbLine
 10
310.652719
 20
180.389521
 30
0.0
 11
310.652719
 21
152.4015
 31
0.0
  0
LINE
  5
182
330
1F
100
AcDbEntity
  8
002
 62
     3
370
    30
100
AcDbLine
 10
254.652719
 20
473.238104
 30
0.0
 11
254.652719
 21
453.238104
 31
0.0
  0
LINE
  5
183
330
1F
100
AcDbEntity
  8
002
 62
     3
370
    30
100
AcDbLine
 10
266.652719
 20
453.238104
 30
0.0
 11
266.652719
 21
473.238104
 31
0.0
  0
LINE
  5
184
330
1F
100
AcDbEntity
  8
002
 62
     3
370
    30
100
AcDbLine
 10
266.652719
 20
473.238104
 30
0.0
 11
254.652719
 21
473.238104
 31
0.0
  0
LINE
  5
185
330
1F
100
AcDbEntity
  8
002
 62
     3
370
    30
100
AcDbLine
 10
248.152719
 20
453.238104
 30
0.0
 11
273.152719
 21
453.238104
 31
0.0
  0
CIRCLE
  5
186
330
1F
100
AcDbEntity
  8
002
 62
     3
370
    30
100
AcDbCircle
 10
260.652719
 20
603.238104
 30
0.0
 40
18.0
  0
LINE
  5
187
330
1F
100
AcDbEntity
  8
002
 62
     3
370
    30
100
AcDbLine
 10
599.593136
 20
424.375884
 30
0.0
 11
598.193136
 21
422.975884
 31
0.0
  0
LINE
  5
188
330
1F
100
AcDbEntity
  8
002
 62
     3
370
    30
100
AcDbLine
 10
599.593136
 20
424.375884
 30
0.0
 11
628.193136
 21
424.375884
 31
0.0
  0
LINE
  5
189
330
1F
100
AcDbEntity
  8
002
  6
CENTER
 62
    40
370
     9
100
AcDbLine
 10
660.193136
 20
360.706686
 30
0.0
 11
660.193136
 21
407.94718
 31
0.0
  0
LINE
  5
18A
330
1F
100
AcDbEntity
  8
002
  6
CENTER
 62
    40
370
     9
100
AcDbLine
 10
711.393569
 20
384.875884
 30
0.0
 11
571.798546
 21
384.875884
 31
0.0
  0
LINE
  5
18B
330
1F
100
AcDbEntity
  8
002
 62
     3
370
    30
100
AcDbLine
 10
593.752334
 20
423.275884
 30
0.0
 11
628.193136
 21
423.275884
 31
0.0
  0
LINE
  5
18C
330
1F
100
AcDbEntity
  8
002
 62
     3
370
    30
100
AcDbLine
 10
597.137263
 20
424.875884
 30
0.0
 11
575.249009
 21
424.875884
 31
0.0
  0
LINE
  5
18D
330
1F
100
AcDbEntity
  8
002
 62
     3
370
    30
100
AcDbLine
 10
699.137263
 20
424.875884
 30
0.0
 11
700.534093
 21
384.875884
 31
0.0
  0
LINE
  5
18E
330
1F
100
AcDbEntity
  8
002
 62
     3
370
    30
100
AcDbLine
 10
677.249009
 20
344.875884
 30
0.0
 11
699.137263
 21
344.875884
 31
0.0
  0
LINE
  5
18F
330
1F
100
AcDbEntity
  8
002
 62
     3
370
    30
100
AcDbLine
 10
699.137263
 20
344.875884
 30
0.0
 11
700.534093
 21
384.875884
 31
0.0
  0
LINE
  5
190
330
1F
100
AcDbEntity
  8
002
 62
     3
370
    30
100
AcDbLine
 10
677.249009
 20
344.875884
 30
0.0
 11
677.190643
 21
346.547273
 31
0.0
  0
LINE
  5
191
330
1F
100
AcDbEntity
  8
002
 62
     3
370
    30
100
AcDbLine
 10
575.249009
 20
424.875884
 30
0.0
 11
573.852178
 21
384.875884
 31
0.0
  0
LINE
  5
192
330
1F
100
AcDbEntity
  8
002
 62
     3
370
    30
100
AcDbLine
 10
597.137263
 20
424.875884
 30
0.0
 11
597.193136
 21
423.275884
 31
0.0
  0
LINE
  5
193
330
1F
100
AcDbEntity
  8
002
 62
     3
370
    30
100
AcDbLine
 10
575.249009
 20
344.875884
 30
0.0
 11
573.852178
 21
384.875884
 31
0.0
  0
LINE
  5
194
330
1F
100
AcDbEntity
  8
002
  6
CENTER
 62
    40
370
     9
100
AcDbLine
 10
586.193136
 20
340.045311
 30
0.0
 11
586.193136
 21
428.109731
 31
0.0
  0
LINE
  5
195
330
1F
100
AcDbEntity
  8
002
 62
     3
370
    30
100
AcDbLine
 10
575.249009
 20
344.875884
 30
0.0
 11
597.137263
 21
344.875884
 31
0.0
  0
LINE
  5
196
330
1F
100
AcDbEntity
  8
002
 62
     3
370
    30
100
AcDbLine
 10
666.269801
 20
418.284686
 30
0.0
 11
665.850255
 21
423.080114
 31
0.0
  0
LINE
  5
197
330
1F
100
AcDbEntity
  8
002
 62
     3
370
    30
100
AcDbLine
 10
666.269801
 20
351.467082
 30
0.0
 11
665.833128
 21
346.475884
 31
0.0
  0
LINE
  5
198
330
1F
100
AcDbEntity
  8
002
 62
     3
370
    30
100
AcDbLine
 10
593.752334
 20
423.275884
 30
0.0
 11
591.578287
 21
398.426413
 31
0.0
  0
LINE
  5
199
330
1F
100
AcDbEntity
  8
002
 62
     3
370
    30
100
AcDbLine
 10
591.578287
 20
371.325355
 30
0.0
 11
593.752334
 21
346.475884
 31
0.0
  0
LINE
  5
19A
330
1F
100
AcDbEntity
  8
002
 62
     3
370
    30
100
AcDbLine
 10
597.137263
 20
344.875884
 30
0.0
 11
597.193136
 21
346.475884
 31
0.0
  0
ARC
  5
19B
330
1F
100
AcDbEntity
  8
002
 62
     3
370
    30
100
AcDbCircle
 10
671.412184
 20
416.875543
 30
0.0
 40
5.0
100
AcDbArc
 50
185.0
 51
270.0
  0
LINE
  5
19C
330
1F
100
AcDbEntity
  8
002
 62
     3
370
    30
100
AcDbLine
 10
666.269801
 20
418.284686
 30
0.0
 11
666.431211
 21
416.439764
 31
0.0
  0
LINE
  5
19D
330
1F
100
AcDbEntity
  8
002
 62
     3
370
    30
100
AcDbLine
 10
666.387436
 20
352.811663
 30
0.0
 11
666.269801
 21
351.467082
 31
0.0
  0
LINE
  5
19E
330
1F
100
AcDbEntity
  8
002
 62
     3
370
    30
100
AcDbLine
 10
627.693136
 20
390.875884
 30
0.0
 11
574.061703
 21
390.875884
 31
0.0
  0
ARC
  5
19F
330
1F
100
AcDbEntity
  8
002
 62
     3
370
    30
100
AcDbCircle
 10
586.336046
 20
395.875884
 30
0.0
 40
5.0
100
AcDbArc
 50
270.0
 51
355.0
  0
LINE
  5
1A0
330
1F
100
AcDbEntity
  8
002
 62
     3
370
    30
100
AcDbLine
 10
591.578287
 20
398.426413
 30
0.0
 11
591.317019
 21
395.440105
 31
0.0
  0
LINE
  5
1A1
330
1F
100
AcDbEntity
  8
002
 62
     3
370
    30
100
AcDbLine
 10
627.693136
 20
378.875884
 30
0.0
 11
574.061703
 21
378.875884
 31
0.0
  0
ARC
  5
1A2
330
1F
100
AcDbEntity
  8
002
 62
     3
370
    30
100
AcDbCircle
 10
586.336046
 20
373.875884
 30
0.0
 40
5.0
100
AcDbArc
 50
5.0
 51
90.0
  0
LINE
  5
1A3
330
1F
100
AcDbEntity
  8
002
 62
     3
370
    30
100
AcDbLine
 10
591.578287
 20
371.325355
 30
0.0
 11
591.317019
 21
374.311663
 31
0.0
  0
LINE
  5
1A4
330
1F
100
AcDbEntity
  8
002
 62
     3
370
    30
100
AcDbLine
 10
628.193136
 20
346.475884
 30
0.0
 11
682.650554
 21
346.475884
 31
0.0
  0
LINE
  5
1A5
330
1F
100
AcDbEntity
  8
002
 62
     3
370
    30
100
AcDbLine
 10
628.193136
 20
346.475884
 30
0.0
 11
593.752334
 21
346.475884
 31
0.0
  0
LINE
  5
1A6
330
1F
100
AcDbEntity
  8
002
 62
     3
370
    30
100
AcDbLine
 10
692.693136
 20
390.875884
 30
0.0
 11
700.324569
 21
390.875884
 31
0.0
  0
LINE
  5
1A7
330
1F
100
AcDbEntity
  8
002
 62
     3
370
    30
100
AcDbLine
 10
692.693136
 20
378.875884
 30
0.0
 11
700.324569
 21
378.875884
 31
0.0
  0
LINE
  5
1A8
330
1F
100
AcDbEntity
  8
002
 62
     3
370
    30
100
AcDbLine
 10
690.002038
 20
410.68897
 30
0.0
 11
695.133818
 21
410.361413
 31
0.0
  0
ARC
  5
1A9
330
1F
100
AcDbEntity
  8
002
 62
     3
370
    30
100
AcDbCircle
 10
694.815321
 20
405.371568
 30
0.0
 40
5.0
100
AcDbArc
 50
2.0
 51
86.347819
  0
LINE
  5
1AA
330
1F
100
AcDbEntity
  8
002
 62
     3
370
    30
100
AcDbLine
 10
687.193136
 20
356.068891
 30
0.0
 11
687.193136
 21
354.875884
 31
0.0
  0
LINE
  5
1AB
330
1F
100
AcDbEntity
  8
002
 62
     3
370
    30
100
AcDbLine
 10
690.002038
 20
359.062798
 30
0.0
 11
695.133818
 21
359.390355
 31
0.0
  0
ARC
  5
1AC
330
1F
100
AcDbEntity
  8
002
 62
     3
370
    30
100
AcDbCircle
 10
694.815321
 20
364.3802
 30
0.0
 40
5.0
100
AcDbArc
 50
273.652181
 51
358.0
  0
ARC
  5
1AD
330
1F
100
AcDbEntity
  8
002
 62
     3
370
    30
100
AcDbCircle
 10
671.149688
 20
349.875884
 30
0.0
 40
5.0
100
AcDbArc
 50
90.0
 51
175.0
  0
LINE
  5
1AE
330
1F
100
AcDbEntity
  8
002
 62
     3
370
    30
100
AcDbLine
 10
671.149688
 20
354.875884
 30
0.0
 11
687.193136
 21
354.875884
 31
0.0
  0
ARC
  5
1AF
330
1F
100
AcDbEntity
  8
002
 62
     3
370
    30
100
AcDbCircle
 10
690.193136
 20
356.068891
 30
0.0
 40
3.0
100
AcDbArc
 50
93.652181
 51
180.0
  0
LINE
  5
1B0
330
1F
100
AcDbEntity
  8
002
 62
     3
370
    30
100
AcDbLine
 10
683.385459
 20
354.875884
 30
0.0
 11
682.650554
 21
346.475884
 31
0.0
  0
LINE
  5
1B1
330
1F
100
AcDbEntity
  8
002
 62
     3
370
    30
100
AcDbLine
 10
632.693136
 20
362.375884
 30
0.0
 11
632.693136
 21
407.375884
 31
0.0
  0
LINE
  5
1B2
330
1F
100
AcDbEntity
  8
002
 62
     3
370
    30
100
AcDbLine
 10
682.693136
 20
357.375884
 30
0.0
 11
637.693136
 21
357.375884
 31
0.0
  0
LINE
  5
1B3
330
1F
100
AcDbEntity
  8
002
 62
     3
370
    30
100
AcDbLine
 10
687.693136
 20
407.375884
 30
0.0
 11
687.693136
 21
362.375884
 31
0.0
  0
LINE
  5
1B4
330
1F
100
AcDbEntity
  8
002
 62
     3
370
    30
100
AcDbLine
 10
682.693136
 20
412.375884
 30
0.0
 11
637.693136
 21
412.375884
 31
0.0
  0
ARC
  5
1B5
330
1F
100
AcDbEntity
  8
002
 62
     3
370
    30
100
AcDbCircle
 10
637.693136
 20
407.375884
 30
0.0
 40
5.0
100
AcDbArc
 50
90.0
 51
180.0
  0
ARC
  5
1B6
330
1F
100
AcDbEntity
  8
002
 62
     3
370
    30
100
AcDbCircle
 10
637.693136
 20
362.375884
 30
0.0
 40
5.0
100
AcDbArc
 50
180.0
 51
270.0
  0
ARC
  5
1B7
330
1F
100
AcDbEntity
  8
002
 62
     3
370
    30
100
AcDbCircle
 10
682.693136
 20
362.375884
 30
0.0
 40
5.0
100
AcDbArc
 50
270.0
 51
0.0
  0
ARC
  5
1B8
330
1F
100
AcDbEntity
  8
002
 62
     3
370
    30
100
AcDbCircle
 10
682.693136
 20
407.375884
 30
0.0
 40
5.0
100
AcDbArc
 50
0.0
 51
90.0
  0
ARC
  5
1B9
330
1F
100
AcDbEntity
  8
002
 62
     3
370
    30
100
AcDbCircle
 10
692.693136
 20
395.875884
 30
0.0
 40
5.0
100
AcDbArc
 50
180.0
 51
270.0
  0
ARC
  5
1BA
330
1F
100
AcDbEntity
  8
002
 62
     3
370
    30
100
AcDbCircle
 10
692.693136
 20
373.875884
 30
0.0
 40
5.0
100
AcDbArc
 50
90.0
 51
180.0
  0
ARC
  5
1BB
330
1F
100
AcDbEntity
  8
002
 62
     3
370
    30
100
AcDbCircle
 10
671.36841
 20
352.375884
 30
0.0
 40
5.0
100
AcDbArc
 50
90.0
 51
175.0
  0
ARC
  5
1BC
330
1F
100
AcDbEntity
  8
002
 62
     3
370
    30
100
AcDbCircle
 10
627.693136
 20
395.875884
 30
0.0
 40
5.0
100
AcDbArc
 50
270.0
 51
0.0
  0
ARC
  5
1BD
330
1F
100
AcDbEntity
  8
002
 62
     3
370
    30
100
AcDbCircle
 10
627.693136
 20
373.875884
 30
0.0
 40
5.0
100
AcDbArc
 50
0.0
 51
90.0
  0
LINE
  5
1BE
330
1F
100
AcDbEntity
  8
002
 62
     3
370
    30
100
AcDbLine
 10
656.793136
 20
424.375884
 30
0.0
 11
628.193136
 21
424.375884
 31
0.0
  0
LINE
  5
1BF
330
1F
100
AcDbEntity
  8
002
 62
     3
370
    30
100
AcDbLine
 10
656.793136
 20
424.375884
 30
0.0
 11
658.193136
 21
422.975884
 31
0.0
  0
LINE
  5
1C0
330
1F
100
AcDbEntity
  8
002
 62
     3
370
    30
100
AcDbLine
 10
657.693136
 20
394.125884
 30
0.0
 11
657.693136
 21
389.625884
 31
0.0
  0
LINE
  5
1C1
330
1F
100
AcDbEntity
  8
002
 62
     3
370
    30
100
AcDbLine
 10
657.693136
 20
389.625884
 30
0.0
 11
657.943136
 21
389.375884
 31
0.0
  0
LINE
  5
1C2
330
1F
100
AcDbEntity
  8
002
 62
     3
370
    30
100
AcDbLine
 10
657.943136
 20
389.375884
 30
0.0
 11
662.443136
 21
389.375884
 31
0.0
  0
LINE
  5
1C3
330
1F
100
AcDbEntity
  8
002
 62
     3
370
    30
100
AcDbLine
 10
662.443136
 20
389.375884
 30
0.0
 11
662.693136
 21
389.625884
 31
0.0
  0
LINE
  5
1C4
330
1F
100
AcDbEntity
  8
002
 62
     3
370
    30
100
AcDbLine
 10
662.693136
 20
389.625884
 30
0.0
 11
662.693136
 21
394.125884
 31
0.0
  0
LINE
  5
1C5
330
1F
100
AcDbEntity
  8
002
 62
     3
370
    30
100
AcDbLine
 10
662.693136
 20
394.125884
 30
0.0
 11
662.443136
 21
394.375884
 31
0.0
  0
LINE
  5
1C6
330
1F
100
AcDbEntity
  8
002
 62
     3
370
    30
100
AcDbLine
 10
662.443136
 20
394.375884
 30
0.0
 11
657.943136
 21
394.375884
 31
0.0
  0
LINE
  5
1C7
330
1F
100
AcDbEntity
  8
002
 62
     3
370
    30
100
AcDbLine
 10
657.943136
 20
394.375884
 30
0.0
 11
657.693136
 21
394.125884
 31
0.0
  0
ARC
  5
1C8
330
1F
100
AcDbEntity
  8
002
 62
     3
370
    30
100
AcDbCircle
 10
662.493136
 20
389.575884
 30
0.0
 40
0.1999999999999318
100
AcDbArc
 50
270.0
 51
0.0
  0
ARC
  5
1C9
330
1F
100
AcDbEntity
  8
002
 62
     3
370
    30
100
AcDbCircle
 10
657.893136
 20
389.575884
 30
0.0
 40
0.2000000000000455
100
AcDbArc
 50
180.0
 51
270.0
  0
ARC
  5
1CA
330
1F
100
AcDbEntity
  8
002
 62
     3
370
    30
100
AcDbCircle
 10
660.193136
 20
384.875884
 30
0.0
 40
7.499936066394191
100
AcDbArc
 50
109.471393
 51
70.528607
  0
CIRCLE
  5
1CB
330
1F
100
AcDbEntity
  8
002
 62
     3
370
    30
100
AcDbCircle
 10
660.193136
 20
384.875884
 30
0.0
 40
17.5
  0
ARC
  5
1CC
330
1F
100
AcDbEntity
  8
002
 62
     3
370
    30
100
AcDbCircle
 10
660.193136
 20
383.831484
 30
0.0
 40
15.66944001073419
100
AcDbArc
 50
306.867484
 51
233.132223
  0
ARC
  5
1CD
330
1F
100
AcDbEntity
  8
002
 62
     3
370
    30
100
AcDbCircle
 10
652.291936
 20
373.295684
 30
0.0
 40
2.499984673953072
100
AcDbArc
 50
233.131477
 51
314.849286
  0
CIRCLE
  5
1CE
330
1F
100
AcDbEntity
  8
002
 62
     3
370
    30
100
AcDbCircle
 10
655.818136
 20
369.750884
 30
0.0
 40
1.09375
  0
ARC
  5
1CF
330
1F
100
AcDbEntity
  8
002
 62
     3
370
    30
100
AcDbCircle
 10
655.818136
 20
369.750884
 30
0.0
 40
2.499984673952911
100
AcDbArc
 50
0.0
 51
134.849286
  0
LINE
  5
1D0
330
1F
100
AcDbEntity
  8
002
 62
     3
370
    30
100
AcDbLine
 10
658.318136
 20
369.750884
 30
0.0
 11
658.318136
 21
367.504284
 31
0.0
  0
LINE
  5
1D1
330
1F
100
AcDbEntity
  8
002
 62
     3
370
    30
100
AcDbLine
 10
662.068136
 20
367.504284
 30
0.0
 11
662.068136
 21
369.750884
 31
0.0
  0
CIRCLE
  5
1D2
330
1F
100
AcDbEntity
  8
002
 62
     3
370
    30
100
AcDbCircle
 10
664.568136
 20
369.750884
 30
0.0
 40
1.09375
  0
ARC
  5
1D3
330
1F
100
AcDbEntity
  8
002
 62
     3
370
    30
100
AcDbCircle
 10
668.094336
 20
373.295684
 30
0.0
 40
2.500020003919964
100
AcDbArc
 50
225.150714
 51
306.866689
  0
ARC
  5
1D4
330
1F
100
AcDbEntity
  8
002
 62
     3
370
    30
100
AcDbCircle
 10
664.568136
 20
369.750884
 30
0.0
 40
2.5
100
AcDbArc
 50
45.150714
 51
180.0
  0
LINE
  5
1D5
330
1F
100
AcDbEntity
  8
002
 62
     3
370
    30
100
AcDbLine
 10
590.693136
 20
424.875884
 30
0.0
 11
590.693136
 21
429.275884
 31
0.0
  0
LINE
  5
1D6
330
1F
100
AcDbEntity
  8
002
 62
     3
370
    30
100
AcDbLine
 10
590.693136
 20
429.275884
 30
0.0
 11
665.693136
 21
429.275884
 31
0.0
  0
LINE
  5
1D7
330
1F
100
AcDbEntity
  8
002
 62
     3
370
    30
100
AcDbLine
 10
665.693136
 20
429.275884
 30
0.0
 11
665.693136
 21
423.275884
 31
0.0
  0
LINE
  5
1D8
330
1F
100
AcDbEntity
  8
002
 62
     3
370
    30
100
AcDbLine
 10
662.443136
 20
429.275884
 30
0.0
 11
662.443136
 21
434.275884
 31
0.0
  0
LINE
  5
1D9
330
1F
100
AcDbEntity
  8
002
 62
     3
370
    30
100
AcDbLine
 10
662.443136
 20
434.275884
 30
0.0
 11
653.943136
 21
434.275884
 31
0.0
  0
LINE
  5
1DA
330
1F
100
AcDbEntity
  8
002
 62
     3
370
    30
100
AcDbLine
 10
653.943136
 20
434.275884
 30
0.0
 11
653.943136
 21
429.275884
 31
0.0
  0
LINE
  5
1DB
330
1F
100
AcDbEntity
  8
002
 62
     3
370
    30
100
AcDbLine
 10
652.493136
 20
429.275884
 30
0.0
 11
652.493136
 21
449.275884
 31
0.0
  0
LINE
  5
1DC
330
1F
100
AcDbEntity
  8
002
 62
     3
370
    30
100
AcDbLine
 10
652.493136
 20
449.275884
 30
0.0
 11
603.893136
 21
449.275884
 31
0.0
  0
LINE
  5
1DD
330
1F
100
AcDbEntity
  8
002
 62
     3
370
    30
100
AcDbLine
 10
603.893136
 20
449.275884
 30
0.0
 11
603.893136
 21
429.275884
 31
0.0
  0
LINE
  5
1DE
330
1F
100
AcDbEntity
  8
002
 62
     3
370
    30
100
AcDbLine
 10
602.443136
 20
429.275884
 30
0.0
 11
602.443136
 21
434.275884
 31
0.0
  0
LINE
  5
1DF
330
1F
100
AcDbEntity
  8
002
 62
     3
370
    30
100
AcDbLine
 10
602.443136
 20
434.275884
 30
0.0
 11
593.943136
 21
434.275884
 31
0.0
  0
LINE
  5
1E0
330
1F
100
AcDbEntity
  8
002
 62
     3
370
    30
100
AcDbLine
 10
593.943136
 20
434.275884
 30
0.0
 11
593.943136
 21
429.275884
 31
0.0
  0
LINE
  5
1E1
330
1F
100
AcDbEntity
  8
002
 62
     3
370
    30
100
AcDbLine
 10
623.943136
 20
434.275884
 30
0.0
 11
632.443136
 21
434.275884
 31
0.0
  0
LINE
  5
1E2
330
1F
100
AcDbEntity
  8
002
 62
     3
370
    30
100
AcDbLine
 10
632.443136
 20
434.275884
 30
0.0
 11
632.443136
 21
429.275884
 31
0.0
  0
LINE
  5
1E3
330
1F
100
AcDbEntity
  8
002
 62
     3
370
    30
100
AcDbLine
 10
623.943136
 20
434.275884
 30
0.0
 11
623.943136
 21
429.275884
 31
0.0
  0
LINE
  5
1E4
330
1F
100
AcDbEntity
  8
002
  6
CENTER
 62
    40
370
     9
100
AcDbLine
 10
658.193136
 20
413.340784
 30
0.0
 11
658.193136
 21
433.429984
 31
0.0
  0
LINE
  5
1E5
330
1F
100
AcDbEntity
  8
002
  6
CENTER
 62
    40
370
     9
100
AcDbLine
 10
598.193136
 20
433.429984
 30
0.0
 11
598.193136
 21
413.340784
 31
0.0
  0
LINE
  5
1E6
330
1F
100
AcDbEntity
  8
002
 62
     3
370
    30
100
AcDbLine
 10
597.693136
 20
203.979118
 30
0.0
 11
597.693136
 21
209.979118
 31
0.0
  0
LINE
  5
1E7
330
1F
100
AcDbEntity
  8
002
 62
     3
370
    30
100
AcDbLine
 10
658.693136
 20
203.979118
 30
0.0
 11
658.693136
 21
209.979118
 31
0.0
  0
LINE
  5
1E8
330
1F
100
AcDbEntity
  8
002
 62
     3
370
    30
100
AcDbLine
 10
597.693136
 20
203.979118
 30
0.0
 11
598.193136
 21
203.479118
 31
0.0
  0
LINE
  5
1E9
330
1F
100
AcDbEntity
  8
002
 62
     3
370
    30
100
AcDbLine
 10
658.193136
 20
203.479118
 30
0.0
 11
658.693136
 21
203.979118
 31
0.0
  0
LINE
  5
1EA
330
1F
100
AcDbEntity
  8
002
 62
     3
370
    30
100
AcDbLine
 10
658.693136
 20
209.979118
 30
0.0
 11
658.193136
 21
210.479118
 31
0.0
  0
LINE
  5
1EB
330
1F
100
AcDbEntity
  8
002
 62
     3
370
    30
100
AcDbLine
 10
597.693136
 20
209.979118
 30
0.0
 11
598.193136
 21
210.479118
 31
0.0
  0
ARC
  5
1EC
330
1F
100
AcDbEntity
  8
002
 62
     3
370
    30
100
AcDbCircle
 10
609.693136
 20
210.979118
 30
0.0
 40
0.5
100
AcDbArc
 50
270.0
 51
0.0
  0
ARC
  5
1ED
330
1F
100
AcDbEntity
  8
002
 62
     3
370
    30
100
AcDbCircle
 10
646.693136
 20
210.979118
 30
0.0
 40
0.5
100
AcDbArc
 50
180.0
 51
270.0
  0
LINE
  5
1EE
330
1F
100
AcDbEntity
  8
002
 62
     3
370
    30
100
AcDbLine
 10
610.193136
 20
252.979118
 30
0.0
 11
610.693136
 21
253.479118
 31
0.0
  0
LINE
  5
1EF
330
1F
100
AcDbEntity
  8
002
 62
     3
370
    30
100
AcDbLine
 10
645.693136
 20
253.479118
 30
0.0
 11
646.193136
 21
252.979118
 31
0.0
  0
LINE
  5
1F0
330
1F
100
AcDbEntity
  8
002
  6
CENTER
 62
    40
370
     9
100
AcDbLine
 10
604.693136
 20
200.479118
 30
0.0
 11
604.693136
 21
213.479118
 31
0.0
  0
LINE
  5
1F1
330
1F
100
AcDbEntity
  8
002
  6
CENTER
 62
    40
370
     9
100
AcDbLine
 10
651.693136
 20
200.479118
 30
0.0
 11
651.693136
 21
213.479118
 31
0.0
  0
LINE
  5
1F2
330
1F
100
AcDbEntity
  8
002
 62
    40
370
     9
100
AcDbLine
 10
618.443136
 20
68.875884
 30
0.0
 11
618.443136
 21
203.479118
 31
0.0
  0
LINE
  5
1F3
330
1F
100
AcDbEntity
  8
002
 62
     3
370
    30
100
AcDbLine
 10
615.693136
 20
68.875884
 30
0.0
 11
615.693136
 21
203.479118
 31
0.0
  0
ARC
  5
1F4
330
1F
100
AcDbEntity
  8
002
 62
     3
370
    30
100
AcDbCircle
 10
646.193136
 20
231.979118
 30
0.0
 40
1.25
100
AcDbArc
 50
90.0
 51
270.0
  0
LINE
  5
1F5
330
1F
100
AcDbEntity
  8
002
 62
     3
370
    30
100
AcDbLine
 10
646.193136
 20
210.979118
 30
0.0
 11
646.193136
 21
230.729118
 31
0.0
  0
LINE
  5
1F6
330
1F
100
AcDbEntity
  8
002
 62
     3
370
    30
100
AcDbLine
 10
646.193136
 20
233.229118
 30
0.0
 11
646.193136
 21
252.979118
 31
0.0
  0
ARC
  5
1F7
330
1F
100
AcDbEntity
  8
002
 62
     3
370
    30
100
AcDbCircle
 10
610.193136
 20
231.979118
 30
0.0
 40
1.25
100
AcDbArc
 50
270.0
 51
90.0
  0
LINE
  5
1F8
330
1F
100
AcDbEntity
  8
002
 62
     3
370
    30
100
AcDbLine
 10
610.193136
 20
210.979118
 30
0.0
 11
610.193136
 21
230.729118
 31
0.0
  0
LINE
  5
1F9
330
1F
100
AcDbEntity
  8
002
 62
     3
370
    30
100
AcDbLine
 10
610.193136
 20
233.229118
 30
0.0
 11
610.193136
 21
252.979118
 31
0.0
  0
LINE
  5
1FA
330
1F
100
AcDbEntity
  8
002
 62
     3
370
    30
100
AcDbLine
 10
628.193136
 20
423.275884
 30
0.0
 11
674.193136
 21
423.275884
 31
0.0
  0
LINE
  5
1FB
330
1F
100
AcDbEntity
  8
002
 62
     3
370
    30
100
AcDbLine
 10
687.419734
 20
424.875884
 30
0.0
 11
699.137263
 21
424.875884
 31
0.0
  0
ARC
  5
1FC
330
1F
100
AcDbEntity
  8
002
 62
     3
370
    30
100
AcDbCircle
 10
671.149688
 20
419.875884
 30
0.0
 40
5.0
100
AcDbArc
 50
185.0
 51
270.0
  0
LINE
  5
1FD
330
1F
100
AcDbEntity
  8
002
 62
     3
370
    30
100
AcDbLine
 10
671.149688
 20
414.875884
 30
0.0
 11
687.193136
 21
414.875884
 31
0.0
  0
ARC
  5
1FE
330
1F
100
AcDbEntity
  8
002
 62
     3
370
    30
100
AcDbCircle
 10
690.193136
 20
413.682877
 30
0.0
 40
3.0
100
AcDbArc
 50
180.0
 51
266.347819
  0
LINE
  5
1FF
330
1F
100
AcDbEntity
  8
002
 62
     3
370
    30
100
AcDbLine
 10
687.193136
 20
413.682877
 30
0.0
 11
687.193136
 21
414.875884
 31
0.0
  0
LINE
  5
200
330
1F
100
AcDbEntity
  8
002
 62
     3
370
    30
100
AcDbLine
 10
683.385459
 20
414.875884
 30
0.0
 11
682.906181
 21
420.354054
 31
0.0
  0
LINE
  5
201
330
1F
100
AcDbEntity
  8
002
 62
     3
370
    30
100
AcDbLine
 10
674.193136
 20
418.375884
 30
0.0
 11
682.193136
 21
418.375884
 31
0.0
  0
LINE
  5
202
330
1F
100
AcDbEntity
  8
002
 62
     3
370
    30
100
AcDbLine
 10
673.628136
 20
415.779437
 30
0.0
 11
675.193136
 21
414.875884
 31
0.0
  0
LINE
  5
203
330
1F
100
AcDbEntity
  8
002
 62
     3
370
    30
100
AcDbLine
 10
673.703831
 20
418.093384
 30
0.0
 11
674.193136
 21
418.375884
 31
0.0
  0
LINE
  5
204
330
1F
100
AcDbEntity
  8
002
 62
     3
370
    30
100
AcDbLine
 10
682.68244
 20
418.093384
 30
0.0
 11
682.193136
 21
418.375884
 31
0.0
  0
LINE
  5
205
330
1F
100
AcDbEntity
  8
002
 62
     3
370
    30
100
AcDbLine
 10
682.758136
 20
415.779437
 30
0.0
 11
681.193136
 21
414.875884
 31
0.0
  0
ARC
  5
206
330
1F
100
AcDbEntity
  8
002
 62
     3
370
    30
100
AcDbCircle
 10
678.193136
 20
409.236161
 30
0.0
 40
9.139722999187002
100
AcDbArc
 50
74.646222
 51
105.353778
  0
ARC
  5
207
330
1F
100
AcDbEntity
  8
002
 62
     3
370
    30
100
AcDbCircle
 10
674.700636
 20
416.449751
 30
0.0
 40
1.926144835808743
100
AcDbArc
 50
56.164408
 51
123.835592
  0
ARC
  5
208
330
1F
100
AcDbEntity
  8
002
 62
     3
370
    30
100
AcDbCircle
 10
681.685636
 20
416.449751
 30
0.0
 40
1.926144835808743
100
AcDbArc
 50
56.164408
 51
123.835592
  0
ARC
  5
209
330
1F
100
AcDbEntity
  8
002
 62
     3
370
    30
100
AcDbCircle
 10
674.700636
 20
417.379368
 30
0.0
 40
1.926144835808743
100
AcDbArc
 50
236.164408
 51
303.835592
  0
ARC
  5
20A
330
1F
100
AcDbEntity
  8
002
 62
     3
370
    30
100
AcDbCircle
 10
678.193136
 20
424.592957
 30
0.0
 40
9.139722999187002
100
AcDbArc
 50
254.646222
 51
285.353778
  0
ARC
  5
20B
330
1F
100
AcDbEntity
  8
002
 62
     3
370
    30
100
AcDbCircle
 10
681.685636
 20
417.379368
 30
0.0
 40
1.926144835808743
100
AcDbArc
 50
236.164408
 51
303.835592
  0
ARC
  5
20C
330
1F
100
AcDbEntity
  8
002
 62
     3
370
    30
100
AcDbCircle
 10
678.193136
 20
422.875884
 30
0.0
 40
4.0
100
AcDbArc
 50
54.895863
 51
180.0
  0
LINE
  5
20D
330
1F
100
AcDbEntity
  8
002
 62
     3
370
    30
100
AcDbLine
 10
674.193136
 20
423.275884
 30
0.0
 11
674.193136
 21
418.375884
 31
0.0
  0
LINE
  5
20E
330
1F
100
AcDbEntity
  8
002
 62
     3
370
    30
100
AcDbLine
 10
682.193136
 20
420.162994
 30
0.0
 11
682.193136
 21
418.375884
 31
0.0
  0
LINE
  5
20F
330
1F
100
AcDbEntity
  8
002
 62
     3
370
    30
100
AcDbLine
 10
680.421261
 20
426.417517
 30
0.0
 11
682.103585
 21
420.138999
 31
0.0
  0
LINE
  5
210
330
1F
100
AcDbEntity
  8
002
 62
     3
370
    30
100
AcDbLine
 10
683.552474
 20
420.527228
 30
0.0
 11
682.103585
 21
420.138999
 31
0.0
  0
LINE
  5
211
330
1F
100
AcDbEntity
  8
002
 62
     3
370
    30
100
AcDbLine
 10
681.87015
 20
426.805745
 30
0.0
 11
680.421261
 21
426.417517
 31
0.0
  0
LINE
  5
212
330
1F
100
AcDbEntity
  8
002
 62
     3
370
    30
100
AcDbLine
 10
681.87015
 20
426.805745
 30
0.0
 11
683.552474
 21
420.527228
 31
0.0
  0
ARC
  5
213
330
1F
100
AcDbEntity
  8
002
 62
     3
370
    30
100
AcDbCircle
 10
681.927146
 20
427.149407
 30
0.0
 40
1.000001999998009
100
AcDbArc
 50
276.720641
 51
317.005383
  0
LINE
  5
214
330
1F
100
AcDbEntity
  8
002
 62
     3
370
    30
100
AcDbLine
 10
686.433823
 20
427.252121
 30
0.0
 11
687.727918
 21
422.422492
 31
0.0
  0
ARC
  5
215
330
1F
100
AcDbEntity
  8
002
 62
     3
370
    30
100
AcDbCircle
 10
686.442007
 20
424.666123
 30
0.0
 40
0.9999749796870392
100
AcDbArc
 50
326.407997
 51
63.592003
  0
LINE
  5
216
330
1F
100
AcDbEntity
  8
002
 62
     3
370
    30
100
AcDbLine
 10
683.536045
 20
426.475664
 30
0.0
 11
684.830141
 21
421.646034
 31
0.0
  0
LINE
  5
217
330
1F
100
AcDbEntity
  8
002
 62
     3
370
    30
100
AcDbLine
 10
683.341931
 20
427.200108
 30
0.0
 11
686.433823
 21
427.252121
 31
0.0
  0
LINE
  5
218
330
1F
100
AcDbEntity
  8
002
 62
     3
370
    30
100
AcDbLine
 10
682.658565
 20
426.467476
 30
0.0
 11
683.341931
 21
427.200108
 31
0.0
  0
LINE
  5
219
330
1F
100
AcDbEntity
  8
002
 62
     3
370
    30
100
AcDbLine
 10
687.727918
 20
422.422492
 30
0.0
 11
685.024255
 21
420.92159
 31
0.0
  0
LINE
  5
21A
330
1F
100
AcDbEntity
  8
002
 62
     3
370
    30
100
AcDbLine
 10
685.024255
 20
420.92159
 30
0.0
 11
684.066101
 21
421.214482
 31
0.0
  0
ARC
  5
21B
330
1F
100
AcDbEntity
  8
002
 62
     3
370
    30
100
AcDbCircle
 10
683.773638
 20
420.258202
 30
0.0
 40
0.9999197017761513
100
AcDbArc
 50
72.994617
 51
113.280045
  0
LINE
  5
21C
330
1F
100
AcDbEntity
  8
002
 62
     3
370
    30
100
AcDbLine
 10
673.628136
 20
418.049681
 30
0.0
 11
673.628136
 21
415.779437
 31
0.0
  0
LINE
  5
21D
330
1F
100
AcDbEntity
  8
002
 62
     3
370
    30
100
AcDbLine
 10
675.773136
 20
418.049681
 30
0.0
 11
675.773136
 21
415.779437
 31
0.0
  0
LINE
  5
21E
330
1F
100
AcDbEntity
  8
002
 62
     3
370
    30
100
AcDbLine
 10
680.613136
 20
418.049681
 30
0.0
 11
680.613136
 21
415.779437
 31
0.0
  0
LINE
  5
21F
330
1F
100
AcDbEntity
  8
002
 62
     3
370
    30
100
AcDbLine
 10
682.758136
 20
418.049681
 30
0.0
 11
682.758136
 21
415.779437
 31
0.0
  0
LINE
  5
220
330
1F
100
AcDbEntity
  8
002
  6
CENTER
 62
    40
370
     9
100
AcDbLine
 10
675.634579
 20
421.718061
 30
0.0
 11
689.246565
 21
425.365382
 31
0.0
  0
LINE
  5
221
330
1F
100
AcDbEntity
  8
002
  6
CENTER
 62
    40
370
     9
100
AcDbLine
 10
688.193136
 20
340.045311
 30
0.0
 11
688.193136
 21
428.109731
 31
0.0
  0
LINE
  5
222
330
1F
100
AcDbEntity
  8
002
  6
CENTER
 62
    40
370
     9
100
AcDbLine
 10
678.193136
 20
428.027301
 30
0.0
 11
678.193136
 21
400.03928
 31
0.0
  0
LINE
  5
223
330
1F
100
AcDbEntity
  8
002
 62
     3
370
    30
100
AcDbLine
 10
622.193136
 20
48.875884
 30
0.0
 11
622.193136
 21
68.875884
 31
0.0
  0
LINE
  5
224
330
1F
100
AcDbEntity
  8
002
 62
     3
370
    30
100
AcDbLine
 10
634.193136
 20
68.875884
 30
0.0
 11
634.193136
 21
48.875884
 31
0.0
  0
LINE
  5
225
330
1F
100
AcDbEntity
  8
002
 62
     3
370
    30
100
AcDbLine
 10
634.193136
 20
48.875884
 30
0.0
 11
622.193136
 21
48.875884
 31
0.0
  0
LINE
  5
226
330
1F
100
AcDbEntity
  8
002
 62
     3
370
    30
100
AcDbLine
 10
615.693136
 20
68.875884
 30
0.0
 11
640.693136
 21
68.875884
 31
0.0
  0
LINE
  5
227
330
1F
100
AcDbEntity
  8
002
 62
     3
370
    30
100
AcDbLine
 10
290.652719
 20
275.63487
 30
0.0
 11
230.652719
 21
275.63487
 31
0.0
  0
LINE
  5
228
330
1F
100
AcDbEntity
  8
002
 62
     3
370
    30
100
AcDbLine
 10
230.652719
 20
268.63487
 30
0.0
 11
290.652719
 21
268.63487
 31
0.0
  0
LINE
  5
229
330
1F
100
AcDbEntity
  8
002
 62
     3
370
    30
100
AcDbLine
 10
278.652719
 20
295.88487
 30
0.0
 11
242.652719
 21
295.88487
 31
0.0
  0
LINE
  5
22A
330
1F
100
AcDbEntity
  8
002
 62
     3
370
    30
100
AcDbLine
 10
278.652719
 20
298.38487
 30
0.0
 11
242.652719
 21
298.38487
 31
0.0
  0
LINE
  5
22B
330
1F
100
AcDbEntity
  8
002
 62
    40
370
     9
100
AcDbLine
 10
270.402719
 20
453.238104
 30
0.0
 11
270.402719
 21
318.63487
 31
0.0
  0
LINE
  5
22C
330
1F
100
AcDbEntity
  8
002
 62
     3
370
    30
100
AcDbLine
 10
273.152719
 20
453.238104
 30
0.0
 11
273.152719
 21
318.63487
 31
0.0
  0
LINE
  5
22D
330
1F
100
AcDbEntity
  8
002
 62
     3
370
    30
100
AcDbLine
 10
278.152719
 20
318.63487
 30
0.0
 11
243.152719
 21
318.63487
 31
0.0
  0
LINE
  5
22E
330
1F
100
AcDbEntity
  8
002
  6
CENTER
 62
    40
370
     9
100
AcDbLine
 10
278.652719
 20
297.13487
 30
0.0
 11
241.002566
 21
297.13487
 31
0.0
  0
LINE
  5
22F
330
1F
100
AcDbEntity
  8
002
 62
     3
370
    30
100
AcDbLine
 10
598.193136
 20
203.479118
 30
0.0
 11
658.193136
 21
203.479118
 31
0.0
  0
LINE
  5
230
330
1F
100
AcDbEntity
  8
002
 62
     3
370
    30
100
AcDbLine
 10
658.193136
 20
210.479118
 30
0.0
 11
598.193136
 21
210.479118
 31
0.0
  0
LINE
  5
231
330
1F
100
AcDbEntity
  8
002
 62
     3
370
    30
100
AcDbLine
 10
646.193136
 20
230.729118
 30
0.0
 11
610.193136
 21
230.729118
 31
0.0
  0
LINE
  5
232
330
1F
100
AcDbEntity
  8
002
  6
CENTER
 62
    40
370
     9
100
AcDbLine
 10
646.193136
 20
231.979118
 30
0.0
 11
608.542983
 21
231.979118
 31
0.0
  0
LINE
  5
233
330
1F
100
AcDbEntity
  8
002
 62
     3
370
    30
100
AcDbLine
 10
646.193136
 20
233.229118
 30
0.0
 11
610.193136
 21
233.229118
 31
0.0
  0
LINE
  5
234
330
1F
100
AcDbEntity
  8
002
 62
     3
370
    30
100
AcDbLine
 10
645.693136
 20
253.479118
 30
0.0
 11
610.693136
 21
253.479118
 31
0.0
  0
LINE
  5
235
330
1F
100
AcDbEntity
  8
002
 62
     3
370
    30
100
AcDbLine
 10
640.693136
 20
68.875884
 30
0.0
 11
640.693136
 21
203.479118
 31
0.0
  0
LINE
  5
236
330
1F
100
AcDbEntity
  8
002
 62
    40
370
     9
100
AcDbLine
 10
637.943136
 20
68.875884
 30
0.0
 11
637.943136
 21
203.479118
 31
0.0
  0
LINE
  5
237
330
1F
100
AcDbEntity
  8
002
 62
     3
370
    30
100
AcDbLine
 10
421.647742
 20
176.738104
 30
0.0
 11
420.247742
 21
175.338104
 31
0.0
  0
LINE
  5
238
330
1F
100
AcDbEntity
  8
002
 62
     3
370
    30
100
AcDbLine
 10
421.647742
 20
176.738104
 30
0.0
 11
450.247742
 21
176.738104
 31
0.0
  0
LINE
  5
239
330
1F
100
AcDbEntity
  8
002
  6
CENTER
 62
    40
370
     9
100
AcDbLine
 10
482.247742
 20
113.068906
 30
0.0
 11
482.247742
 21
160.3094
 31
0.0
  0
LINE
  5
23A
330
1F
100
AcDbEntity
  8
002
  6
CENTER
 62
    40
370
     9
100
AcDbLine
 10
533.448176
 20
137.238104
 30
0.0
 11
393.853152
 21
137.238104
 31
0.0
  0
LINE
  5
23B
330
1F
100
AcDbEntity
  8
002
 62
     3
370
    30
100
AcDbLine
 10
415.806941
 20
175.638104
 30
0.0
 11
450.247742
 21
175.638104
 31
0.0
  0
LINE
  5
23C
330
1F
100
AcDbEntity
  8
002
 62
     3
370
    30
100
AcDbLine
 10
419.191869
 20
177.238104
 30
0.0
 11
397.303615
 21
177.238104
 31
0.0
  0
LINE
  5
23D
330
1F
100
AcDbEntity
  8
002
 62
     3
370
    30
100
AcDbLine
 10
521.191869
 20
177.238104
 30
0.0
 11
522.5887
 21
137.238104
 31
0.0
  0
LINE
  5
23E
330
1F
100
AcDbEntity
  8
002
 62
     3
370
    30
100
AcDbLine
 10
499.303615
 20
97.238104
 30
0.0
 11
521.191869
 21
97.238104
 31
0.0
  0
LINE
  5
23F
330
1F
100
AcDbEntity
  8
002
 62
     3
370
    30
100
AcDbLine
 10
521.191869
 20
97.238104
 30
0.0
 11
522.5887
 21
137.238104
 31
0.0
  0
LINE
  5
240
330
1F
100
AcDbEntity
  8
002
 62
     3
370
    30
100
AcDbLine
 10
499.303615
 20
97.238104
 30
0.0
 11
499.245249
 21
98.909493
 31
0.0
  0
LINE
  5
241
330
1F
100
AcDbEntity
  8
002
 62
     3
370
    30
100
AcDbLine
 10
397.303615
 20
177.238104
 30
0.0
 11
395.906785
 21
137.238104
 31
0.0
  0
LINE
  5
242
330
1F
100
AcDbEntity
  8
002
 62
     3
370
    30
100
AcDbLine
 10
419.191869
 20
177.238104
 30
0.0
 11
419.247742
 21
175.638104
 31
0.0
  0
LINE
  5
243
330
1F
100
AcDbEntity
  8
002
 62
     3
370
    30
100
AcDbLine
 10
397.303615
 20
97.238104
 30
0.0
 11
395.906785
 21
137.238104
 31
0.0
  0
LINE
  5
244
330
1F
100
AcDbEntity
  8
002
  6
CENTER
 62
    40
370
     9
100
AcDbLine
 10
408.247742
 20
92.407531
 30
0.0
 11
408.247742
 21
180.471951
 31
0.0
  0
LINE
  5
245
330
1F
100
AcDbEntity
  8
002
 62
     3
370
    30
100
AcDbLine
 10
397.303615
 20
97.238104
 30
0.0
 11
419.191869
 21
97.238104
 31
0.0
  0
LINE
  5
246
330
1F
100
AcDbEntity
  8
002
 62
     3
370
    30
100
AcDbLine
 10
488.324407
 20
170.646906
 30
0.0
 11
487.904862
 21
175.442334
 31
0.0
  0
LINE
  5
247
330
1F
100
AcDbEntity
  8
002
 62
     3
370
    30
100
AcDbLine
 10
488.324407
 20
103.829302
 30
0.0
 11
487.887734
 21
98.838104
 31
0.0
  0
LINE
  5
248
330
1F
100
AcDbEntity
  8
002
 62
     3
370
    30
100
AcDbLine
 10
415.806941
 20
175.638104
 30
0.0
 11
413.632894
 21
150.788633
 31
0.0
  0
LINE
  5
249
330
1F
100
AcDbEntity
  8
002
 62
     3
370
    30
100
AcDbLine
 10
413.632894
 20
123.687575
 30
0.0
 11
415.806941
 21
98.838104
 31
0.0
  0
LINE
  5
24A
330
1F
100
AcDbEntity
  8
002
 62
     3
370
    30
100
AcDbLine
 10
419.191869
 20
97.238104
 30
0.0
 11
419.247742
 21
98.838104
 31
0.0
  0
ARC
  5
24B
330
1F
100
AcDbEntity
  8
002
 62
     3
370
    30
100
AcDbCircle
 10
493.466791
 20
169.237763
 30
0.0
 40
5.0
100
AcDbArc
 50
185.0
 51
270.0
  0
LINE
  5
24C
330
1F
100
AcDbEntity
  8
002
 62
     3
370
    30
100
AcDbLine
 10
488.324407
 20
170.646906
 30
0.0
 11
488.485817
 21
168.801984
 31
0.0
  0
LINE
  5
24D
330
1F
100
AcDbEntity
  8
002
 62
     3
370
    30
100
AcDbLine
 10
488.442043
 20
105.173883
 30
0.0
 11
488.324407
 21
103.829302
 31
0.0
  0
LINE
  5
24E
330
1F
100
AcDbEntity
  8
002
 62
     3
370
    30
100
AcDbLine
 10
449.747742
 20
143.238104
 30
0.0
 11
396.116309
 21
143.238104
 31
0.0
  0
ARC
  5
24F
330
1F
100
AcDbEntity
  8
002
 62
     3
370
    30
100
AcDbCircle
 10
408.390652
 20
148.238104
 30
0.0
 40
5.0
100
AcDbArc
 50
270.0
 51
355.0
  0
LINE
  5
250
330
1F
100
AcDbEntity
  8
002
 62
     3
370
    30
100
AcDbLine
 10
413.632894
 20
150.788633
 30
0.0
 11
413.371626
 21
147.802325
 31
0.0
  0
LINE
  5
251
330
1F
100
AcDbEntity
  8
002
 62
     3
370
    30
100
AcDbLine
 10
449.747742
 20
131.238104
 30
0.0
 11
396.116309
 21
131.238104
 31
0.0
  0
ARC
  5
252
330
1F
100
AcDbEntity
  8
002
 62
     3
370
    30
100
AcDbCircle
 10
408.390652
 20
126.238104
 30
0.0
 40
5.0
100
AcDbArc
 50
5.0
 51
90.0
  0
LINE
  5
253
330
1F
100
AcDbEntity
  8
002
 62
     3
370
    30
100
AcDbLine
 10
413.632894
 20
123.687575
 30
0.0
 11
413.371626
 21
126.673883
 31
0.0
  0
LINE
  5
254
330
1F
100
AcDbEntity
  8
002
 62
     3
370
    30
100
AcDbLine
 10
450.247742
 20
98.838104
 30
0.0
 11
504.705161
 21
98.838104
 31
0.0
  0
LINE
  5
255
330
1F
100
AcDbEntity
  8
002
 62
     3
370
    30
100
AcDbLine
 10
450.247742
 20
98.838104
 30
0.0
 11
415.806941
 21
98.838104
 31
0.0
  0
LINE
  5
256
330
1F
100
AcDbEntity
  8
002
 62
     3
370
    30
100
AcDbLine
 10
514.747742
 20
143.238104
 30
0.0
 11
522.379175
 21
143.238104
 31
0.0
  0
LINE
  5
257
330
1F
100
AcDbEntity
  8
002
 62
     3
370
    30
100
AcDbLine
 10
514.747742
 20
131.238104
 30
0.0
 11
522.379175
 21
131.238104
 31
0.0
  0
LINE
  5
258
330
1F
100
AcDbEntity
  8
002
 62
     3
370
    30
100
AcDbLine
 10
512.056644
 20
163.05119
 30
0.0
 11
517.188424
 21
162.723633
 31
0.0
  0
ARC
  5
259
330
1F
100
AcDbEntity
  8
002
 62
     3
370
    30
100
AcDbCircle
 10
516.869927
 20
157.733788
 30
0.0
 40
5.0
100
AcDbArc
 50
2.0
 51
86.347819
  0
LINE
  5
25A
330
1F
100
AcDbEntity
  8
002
 62
     3
370
    30
100
AcDbLine
 10
509.247742
 20
108.431111
 30
0.0
 11
509.247742
 21
107.238104
 31
0.0
  0
LINE
  5
25B
330
1F
100
AcDbEntity
  8
002
 62
     3
370
    30
100
AcDbLine
 10
512.056644
 20
111.425018
 30
0.0
 11
517.188424
 21
111.752575
 31
0.0
  0
ARC
  5
25C
330
1F
100
AcDbEntity
  8
002
 62
     3
370
    30
100
AcDbCircle
 10
516.869927
 20
116.74242
 30
0.0
 40
5.0
100
AcDbArc
 50
273.652181
 51
358.0
  0
ARC
  5
25D
330
1F
100
AcDbEntity
  8
002
 62
     3
370
    30
100
AcDbCircle
 10
493.204295
 20
102.238104
 30
0.0
 40
5.0
100
AcDbArc
 50
90.0
 51
175.0
  0
LINE
  5
25E
330
1F
100
AcDbEntity
  8
002
 62
     3
370
    30
100
AcDbLine
 10
493.204295
 20
107.238104
 30
0.0
 11
509.247742
 21
107.238104
 31
0.0
  0
ARC
  5
25F
330
1F
100
AcDbEntity
  8
002
 62
     3
370
    30
100
AcDbCircle
 10
512.247742
 20
108.431111
 30
0.0
 40
3.0
100
AcDbArc
 50
93.652181
 51
180.0
  0
LINE
  5
260
330
1F
100
AcDbEntity
  8
002
 62
     3
370
    30
100
AcDbLine
 10
505.440066
 20
107.238104
 30
0.0
 11
504.705161
 21
98.838104
 31
0.0
  0
LINE
  5
261
330
1F
100
AcDbEntity
  8
002
 62
     3
370
    30
100
AcDbLine
 10
454.747742
 20
114.738104
 30
0.0
 11
454.747742
 21
159.738104
 31
0.0
  0
LINE
  5
262
330
1F
100
AcDbEntity
  8
002
 62
     3
370
    30
100
AcDbLine
 10
504.747742
 20
109.738104
 30
0.0
 11
459.747742
 21
109.738104
 31
0.0
  0
LINE
  5
263
330
1F
100
AcDbEntity
  8
002
 62
     3
370
    30
100
AcDbLine
 10
509.747742
 20
159.738104
 30
0.0
 11
509.747742
 21
114.738104
 31
0.0
  0
LINE
  5
264
330
1F
100
AcDbEntity
  8
002
 62
     3
370
    30
100
AcDbLine
 10
504.747742
 20
164.738104
 30
0.0
 11
459.747742
 21
164.738104
 31
0.0
  0
ARC
  5
265
330
1F
100
AcDbEntity
  8
002
 62
     3
370
    30
100
AcDbCircle
 10
459.747742
 20
159.738104
 30
0.0
 40
5.0
100
AcDbArc
 50
90.0
 51
180.0
  0
ARC
  5
266
330
1F
100
AcDbEntity
  8
002
 62
     3
370
    30
100
AcDbCircle
 10
459.747742
 20
114.738104
 30
0.0
 40
5.0
100
AcDbArc
 50
180.0
 51
270.0
  0
ARC
  5
267
330
1F
100
AcDbEntity
  8
002
 62
     3
370
    30
100
AcDbCircle
 10
504.747742
 20
114.738104
 30
0.0
 40
5.0
100
AcDbArc
 50
270.0
 51
0.0
  0
ARC
  5
268
330
1F
100
AcDbEntity
  8
002
 62
     3
370
    30
100
AcDbCircle
 10
504.747742
 20
159.738104
 30
0.0
 40
5.0
100
AcDbArc
 50
0.0
 51
90.0
  0
ARC
  5
269
330
1F
100
AcDbEntity
  8
002
 62
     3
370
    30
100
AcDbCircle
 10
514.747742
 20
148.238104
 30
0.0
 40
5.0
100
AcDbArc
 50
180.0
 51
270.0
  0
ARC
  5
26A
330
1F
100
AcDbEntity
  8
002
 62
     3
370
    30
100
AcDbCircle
 10
514.747742
 20
126.238104
 30
0.0
 40
5.0
100
AcDbArc
 50
90.0
 51
180.0
  0
ARC
  5
26B
330
1F
100
AcDbEntity
  8
002
 62
     3
370
    30
100
AcDbCircle
 10
493.423016
 20
104.738104
 30
0.0
 40
5.0
100
AcDbArc
 50
90.0
 51
175.0
  0
ARC
  5
26C
330
1F
100
AcDbEntity
  8
002
 62
     3
370
    30
100
AcDbCircle
 10
449.747742
 20
148.238104
 30
0.0
 40
5.0
100
AcDbArc
 50
270.0
 51
0.0
  0
ARC
  5
26D
330
1F
100
AcDbEntity
  8
002
 62
     3
370
    30
100
AcDbCircle
 10
449.747742
 20
126.238104
 30
0.0
 40
5.0
100
AcDbArc
 50
0.0
 51
90.0
  0
LINE
  5
26E
330
1F
100
AcDbEntity
  8
002
 62
     3
370
    30
100
AcDbLine
 10
478.847742
 20
176.738104
 30
0.0
 11
450.247742
 21
176.738104
 31
0.0
  0
LINE
  5
26F
330
1F
100
AcDbEntity
  8
002
 62
     3
370
    30
100
AcDbLine
 10
478.847742
 20
176.738104
 30
0.0
 11
480.247742
 21
175.338104
 31
0.0
  0
LINE
  5
270
330
1F
100
AcDbEntity
  8
002
 62
     3
370
    30
100
AcDbLine
 10
479.747742
 20
146.488104
 30
0.0
 11
479.747742
 21
141.988104
 31
0.0
  0
LINE
  5
271
330
1F
100
AcDbEntity
  8
002
 62
     3
370
    30
100
AcDbLine
 10
479.747742
 20
141.988104
 30
0.0
 11
479.997742
 21
141.738104
 31
0.0
  0
LINE
  5
272
330
1F
100
AcDbEntity
  8
002
 62
     3
370
    30
100
AcDbLine
 10
479.997742
 20
141.738104
 30
0.0
 11
484.497742
 21
141.738104
 31
0.0
  0
LINE
  5
273
330
1F
100
AcDbEntity
  8
002
 62
     3
370
    30
100
AcDbLine
 10
484.497742
 20
141.738104
 30
0.0
 11
484.747742
 21
141.988104
 31
0.0
  0
LINE
  5
274
330
1F
100
AcDbEntity
  8
002
 62
     3
370
    30
100
AcDbLine
 10
484.747742
 20
141.988104
 30
0.0
 11
484.747742
 21
146.488104
 31
0.0
  0
LINE
  5
275
330
1F
100
AcDbEntity
  8
002
 62
     3
370
    30
100
AcDbLine
 10
484.747742
 20
146.488104
 30
0.0
 11
484.497742
 21
146.738104
 31
0.0
  0
LINE
  5
276
330
1F
100
AcDbEntity
  8
002
 62
     3
370
    30
100
AcDbLine
 10
484.497742
 20
146.738104
 30
0.0
 11
479.997742
 21
146.738104
 31
0.0
  0
LINE
  5
277
330
1F
100
AcDbEntity
  8
002
 62
     3
370
    30
100
AcDbLine
 10
479.997742
 20
146.738104
 30
0.0
 11
479.747742
 21
146.488104
 31
0.0
  0
ARC
  5
278
330
1F
100
AcDbEntity
  8
002
 62
     3
370
    30
100
AcDbCircle
 10
484.547742
 20
141.938104
 30
0.0
 40
0.1999999999999318
100
AcDbArc
 50
270.0
 51
0.0
  0
ARC
  5
279
330
1F
100
AcDbEntity
  8
002
 62
     3
370
    30
100
AcDbCircle
 10
479.947742
 20
141.938104
 30
0.0
 40
0.2000000000000455
100
AcDbArc
 50
180.0
 51
270.0
  0
ARC
  5
27A
330
1F
100
AcDbEntity
  8
002
 62
     3
370
    30
100
AcDbCircle
 10
482.247742
 20
137.238104
 30
0.0
 40
7.499936066394191
100
AcDbArc
 50
109.471393
 51
70.528607
  0
CIRCLE
  5
27B
330
1F
100
AcDbEntity
  8
002
 62
     3
370
    30
100
AcDbCircle
 10
482.247742
 20
137.238104
 30
0.0
 40
17.5
  0
ARC
  5
27C
330
1F
100
AcDbEntity
  8
002
 62
     3
370
    30
100
AcDbCircle
 10
482.247742
 20
136.193704
 30
0.0
 40
15.66944001073419
100
AcDbArc
 50
306.867484
 51
233.132223
  0
ARC
  5
27D
330
1F
100
AcDbEntity
  8
002
 62
     3
370
    30
100
AcDbCircle
 10
474.346542
 20
125.657904
 30
0.0
 40
2.499984673953072
100
AcDbArc
 50
233.131477
 51
314.849286
  0
CIRCLE
  5
27E
330
1F
100
AcDbEntity
  8
002
 62
     3
370
    30
100
AcDbCircle
 10
477.872742
 20
122.113104
 30
0.0
 40
1.09375
  0
ARC
  5
27F
330
1F
100
AcDbEntity
  8
002
 62
     3
370
    30
100
AcDbCircle
 10
477.872742
 20
122.113104
 30
0.0
 40
2.499984673952911
100
AcDbArc
 50
0.0
 51
134.849286
  0
LINE
  5
280
330
1F
100
AcDbEntity
  8
002
 62
     3
370
    30
100
AcDbLine
 10
480.372742
 20
122.113104
 30
0.0
 11
480.372742
 21
119.866504
 31
0.0
  0
LINE
  5
281
330
1F
100
AcDbEntity
  8
002
 62
     3
370
    30
100
AcDbLine
 10
484.122742
 20
119.866504
 30
0.0
 11
484.122742
 21
122.113104
 31
0.0
  0
CIRCLE
  5
282
330
1F
100
AcDbEntity
  8
002
 62
     3
370
    30
100
AcDbCircle
 10
486.622742
 20
122.113104
 30
0.0
 40
1.09375
  0
ARC
  5
283
330
1F
100
AcDbEntity
  8
002
 62
     3
370
    30
100
AcDbCircle
 10
490.148942
 20
125.657904
 30
0.0
 40
2.500020003919964
100
AcDbArc
 50
225.150714
 51
306.866689
  0
ARC
  5
284
330
1F
100
AcDbEntity
  8
002
 62
     3
370
    30
100
AcDbCircle
 10
486.622742
 20
122.113104
 30
0.0
 40
2.5
100
AcDbArc
 50
45.150714
 51
180.0
  0
LINE
  5
285
330
1F
100
AcDbEntity
  8
002
 62
     3
370
    30
100
AcDbLine
 10
412.747742
 20
97.238104
 30
0.0
 11
412.747742
 21
92.838104
 31
0.0
  0
LINE
  5
286
330
1F
100
AcDbEntity
  8
002
 62
     3
370
    30
100
AcDbLine
 10
412.747742
 20
92.838104
 30
0.0
 11
487.747742
 21
92.838104
 31
0.0
  0
LINE
  5
287
330
1F
100
AcDbEntity
  8
002
 62
     3
370
    30
100
AcDbLine
 10
487.747742
 20
92.838104
 30
0.0
 11
487.747742
 21
98.838104
 31
0.0
  0
LINE
  5
288
330
1F
100
AcDbEntity
  8
002
 62
     3
370
    30
100
AcDbLine
 10
484.497742
 20
92.838104
 30
0.0
 11
484.497742
 21
87.838104
 31
0.0
  0
LINE
  5
289
330
1F
100
AcDbEntity
  8
002
 62
     3
370
    30
100
AcDbLine
 10
484.497742
 20
87.838104
 30
0.0
 11
475.997742
 21
87.838104
 31
0.0
  0
LINE
  5
28A
330
1F
100
AcDbEntity
  8
002
 62
     3
370
    30
100
AcDbLine
 10
475.997742
 20
87.838104
 30
0.0
 11
475.997742
 21
92.838104
 31
0.0
  0
LINE
  5
28B
330
1F
100
AcDbEntity
  8
002
 62
     3
370
    30
100
AcDbLine
 10
474.547742
 20
92.838104
 30
0.0
 11
474.547742
 21
72.838104
 31
0.0
  0
LINE
  5
28C
330
1F
100
AcDbEntity
  8
002
 62
     3
370
    30
100
AcDbLine
 10
474.547742
 20
72.838104
 30
0.0
 11
425.947742
 21
72.838104
 31
0.0
  0
LINE
  5
28D
330
1F
100
AcDbEntity
  8
002
 62
     3
370
    30
100
AcDbLine
 10
425.947742
 20
72.838104
 30
0.0
 11
425.947742
 21
92.838104
 31
0.0
  0
LINE
  5
28E
330
1F
100
AcDbEntity
  8
002
 62
     3
370
    30
100
AcDbLine
 10
424.497742
 20
92.838104
 30
0.0
 11
424.497742
 21
87.838104
 31
0.0
  0
LINE
  5
28F
330
1F
100
AcDbEntity
  8
002
 62
     3
370
    30
100
AcDbLine
 10
424.497742
 20
87.838104
 30
0.0
 11
415.997742
 21
87.838104
 31
0.0
  0
LINE
  5
290
330
1F
100
AcDbEntity
  8
002
 62
     3
370
    30
100
AcDbLine
 10
415.997742
 20
87.838104
 30
0.0
 11
415.997742
 21
92.838104
 31
0.0
  0
LINE
  5
291
330
1F
100
AcDbEntity
  8
002
 62
     3
370
    30
100
AcDbLine
 10
445.997742
 20
87.838104
 30
0.0
 11
454.497742
 21
87.838104
 31
0.0
  0
LINE
  5
292
330
1F
100
AcDbEntity
  8
002
 62
     3
370
    30
100
AcDbLine
 10
454.497742
 20
87.838104
 30
0.0
 11
454.497742
 21
92.838104
 31
0.0
  0
LINE
  5
293
330
1F
100
AcDbEntity
  8
002
 62
     3
370
    30
100
AcDbLine
 10
445.997742
 20
87.838104
 30
0.0
 11
445.997742
 21
92.838104
 31
0.0
  0
LINE
  5
294
330
1F
100
AcDbEntity
  8
002
  6
CENTER
 62
    40
370
     9
100
AcDbLine
 10
480.247742
 20
108.773204
 30
0.0
 11
480.247742
 21
88.684004
 31
0.0
  0
LINE
  5
295
330
1F
100
AcDbEntity
  8
002
  6
CENTER
 62
    40
370
     9
100
AcDbLine
 10
420.247742
 20
88.684004
 30
0.0
 11
420.247742
 21
108.773204
 31
0.0
  0
LINE
  5
296
330
1F
100
AcDbEntity
  8
002
 62
     3
370
    30
100
AcDbLine
 10
419.747742
 20
318.13487
 30
0.0
 11
419.747742
 21
312.13487
 31
0.0
  0
LINE
  5
297
330
1F
100
AcDbEntity
  8
002
 62
     3
370
    30
100
AcDbLine
 10
480.747742
 20
318.13487
 30
0.0
 11
480.747742
 21
312.13487
 31
0.0
  0
LINE
  5
298
330
1F
100
AcDbEntity
  8
002
 62
     3
370
    30
100
AcDbLine
 10
419.747742
 20
318.13487
 30
0.0
 11
420.247742
 21
318.63487
 31
0.0
  0
LINE
  5
299
330
1F
100
AcDbEntity
  8
002
 62
     3
370
    30
100
AcDbLine
 10
480.247742
 20
318.63487
 30
0.0
 11
480.747742
 21
318.13487
 31
0.0
  0
LINE
  5
29A
330
1F
100
AcDbEntity
  8
002
 62
     3
370
    30
100
AcDbLine
 10
480.747742
 20
312.13487
 30
0.0
 11
480.247742
 21
311.63487
 31
0.0
  0
LINE
  5
29B
330
1F
100
AcDbEntity
  8
002
 62
     3
370
    30
100
AcDbLine
 10
419.747742
 20
312.13487
 30
0.0
 11
420.247742
 21
311.63487
 31
0.0
  0
ARC
  5
29C
330
1F
100
AcDbEntity
  8
002
 62
     3
370
    30
100
AcDbCircle
 10
431.747742
 20
311.13487
 30
0.0
 40
0.5
100
AcDbArc
 50
0.0
 51
90.0
  0
ARC
  5
29D
330
1F
100
AcDbEntity
  8
002
 62
     3
370
    30
100
AcDbCircle
 10
468.747742
 20
311.13487
 30
0.0
 40
0.5
100
AcDbArc
 50
90.0
 51
180.0
  0
LINE
  5
29E
330
1F
100
AcDbEntity
  8
002
 62
     3
370
    30
100
AcDbLine
 10
432.247742
 20
269.13487
 30
0.0
 11
432.747742
 21
268.63487
 31
0.0
  0
LINE
  5
29F
330
1F
100
AcDbEntity
  8
002
 62
     3
370
    30
100
AcDbLine
 10
467.747742
 20
268.63487
 30
0.0
 11
468.247742
 21
269.13487
 31
0.0
  0
LINE
  5
2A0
330
1F
100
AcDbEntity
  8
002
  6
CENTER
 62
    40
370
     9
100
AcDbLine
 10
426.747742
 20
321.63487
 30
0.0
 11
426.747742
 21
308.63487
 31
0.0
  0
LINE
  5
2A1
330
1F
100
AcDbEntity
  8
002
  6
CENTER
 62
    40
370
     9
100
AcDbLine
 10
473.747742
 20
321.63487
 30
0.0
 11
473.747742
 21
308.63487
 31
0.0
  0
LINE
  5
2A2
330
1F
100
AcDbEntity
  8
002
 62
    40
370
     9
100
AcDbLine
 10
440.497742
 20
453.238104
 30
0.0
 11
440.497742
 21
318.63487
 31
0.0
  0
LINE
  5
2A3
330
1F
100
AcDbEntity
  8
002
 62
     3
370
    30
100
AcDbLine
 10
437.747742
 20
453.238104
 30
0.0
 11
437.747742
 21
318.63487
 31
0.0
  0
ARC
  5
2A4
330
1F
100
AcDbEntity
  8
002
 62
     3
370
    30
100
AcDbCircle
 10
468.247742
 20
290.13487
 30
0.0
 40
1.25
100
AcDbArc
 50
90.0
 51
270.0
  0
LINE
  5
2A5
330
1F
100
AcDbEntity
  8
002
 62
     3
370
    30
100
AcDbLine
 10
468.247742
 20
311.13487
 30
0.0
 11
468.247742
 21
291.38487
 31
0.0
  0
LINE
  5
2A6
330
1F
100
AcDbEntity
  8
002
 62
     3
370
    30
100
AcDbLine
 10
468.247742
 20
288.88487
 30
0.0
 11
468.247742
 21
269.13487
 31
0.0
  0
ARC
  5
2A7
330
1F
100
AcDbEntity
  8
002
 62
     3
370
    30
100
AcDbCircle
 10
432.247742
 20
290.13487
 30
0.0
 40
1.25
100
AcDbArc
 50
270.0
 51
90.0
  0
LINE
  5
2A8
330
1F
100
AcDbEntity
  8
002
 62
     3
370
    30
100
AcDbLine
 10
432.247742
 20
311.13487
 30
0.0
 11
432.247742
 21
291.38487
 31
0.0
  0
LINE
  5
2A9
330
1F
100
AcDbEntity
  8
002
 62
     3
370
    30
100
AcDbLine
 10
432.247742
 20
288.88487
 30
0.0
 11
432.247742
 21
269.13487
 31
0.0
  0
LINE
  5
2AA
330
1F
100
AcDbEntity
  8
002
 62
     3
370
    30
100
AcDbLine
 10
450.247742
 20
175.638104
 30
0.0
 11
496.247742
 21
175.638104
 31
0.0
  0
LINE
  5
2AB
330
1F
100
AcDbEntity
  8
002
 62
     3
370
    30
100
AcDbLine
 10
509.474341
 20
177.238104
 30
0.0
 11
521.191869
 21
177.238104
 31
0.0
  0
ARC
  5
2AC
330
1F
100
AcDbEntity
  8
002
 62
     3
370
    30
100
AcDbCircle
 10
493.204295
 20
172.238104
 30
0.0
 40
5.0
100
AcDbArc
 50
185.0
 51
270.0
  0
LINE
  5
2AD
330
1F
100
AcDbEntity
  8
002
 62
     3
370
    30
100
AcDbLine
 10
493.204295
 20
167.238104
 30
0.0
 11
509.247742
 21
167.238104
 31
0.0
  0
ARC
  5
2AE
330
1F
100
AcDbEntity
  8
002
 62
     3
370
    30
100
AcDbCircle
 10
512.247742
 20
166.045097
 30
0.0
 40
3.0
100
AcDbArc
 50
180.0
 51
266.347819
  0
LINE
  5
2AF
330
1F
100
AcDbEntity
  8
002
 62
     3
370
    30
100
AcDbLine
 10
509.247742
 20
166.045097
 30
0.0
 11
509.247742
 21
167.238104
 31
0.0
  0
LINE
  5
2B0
330
1F
100
AcDbEntity
  8
002
 62
     3
370
    30
100
AcDbLine
 10
505.440066
 20
167.238104
 30
0.0
 11
504.960788
 21
172.716274
 31
0.0
  0
LINE
  5
2B1
330
1F
100
AcDbEntity
  8
002
 62
     3
370
    30
100
AcDbLine
 10
496.247742
 20
170.738104
 30
0.0
 11
504.247742
 21
170.738104
 31
0.0
  0
LINE
  5
2B2
330
1F
100
AcDbEntity
  8
002
 62
     3
370
    30
100
AcDbLine
 10
495.682742
 20
168.141657
 30
0.0
 11
497.247742
 21
167.238104
 31
0.0
  0
LINE
  5
2B3
330
1F
100
AcDbEntity
  8
002
 62
     3
370
    30
100
AcDbLine
 10
495.758438
 20
170.455604
 30
0.0
 11
496.247742
 21
170.738104
 31
0.0
  0
LINE
  5
2B4
330
1F
100
AcDbEntity
  8
002
 62
     3
370
    30
100
AcDbLine
 10
504.737047
 20
170.455604
 30
0.0
 11
504.247742
 21
170.738104
 31
0.0
  0
LINE
  5
2B5
330
1F
100
AcDbEntity
  8
002
 62
     3
370
    30
100
AcDbLine
 10
504.812742
 20
168.141657
 30
0.0
 11
503.247742
 21
167.238104
 31
0.0
  0
ARC
  5
2B6
330
1F
100
AcDbEntity
  8
002
 62
     3
370
    30
100
AcDbCircle
 10
500.247742
 20
161.598381
 30
0.0
 40
9.139722999187002
100
AcDbArc
 50
74.646222
 51
105.353778
  0
ARC
  5
2B7
330
1F
100
AcDbEntity
  8
002
 62
     3
370
    30
100
AcDbCircle
 10
496.755242
 20
168.811971
 30
0.0
 40
1.926144835808743
100
AcDbArc
 50
56.164408
 51
123.835592
  0
ARC
  5
2B8
330
1F
100
AcDbEntity
  8
002
 62
     3
370
    30
100
AcDbCircle
 10
503.740242
 20
168.811971
 30
0.0
 40
1.926144835808743
100
AcDbArc
 50
56.164408
 51
123.835592
  0
ARC
  5
2B9
330
1F
100
AcDbEntity
  8
002
 62
     3
370
    30
100
AcDbCircle
 10
496.755242
 20
169.741588
 30
0.0
 40
1.926144835808743
100
AcDbArc
 50
236.164408
 51
303.835592
  0
ARC
  5
2BA
330
1F
100
AcDbEntity
  8
002
 62
     3
370
    30
100
AcDbCircle
 10
500.247742
 20
176.955177
 30
0.0
 40
9.139722999187002
100
AcDbArc
 50
254.646222
 51
285.353778
  0
ARC
  5
2BB
330
1F
100
AcDbEntity
  8
002
 62
     3
370
    30
100
AcDbCircle
 10
503.740242
 20
169.741588
 30
0.0
 40
1.926144835808743
100
AcDbArc
 50
236.164408
 51
303.835592
  0
ARC
  5
2BC
330
1F
100
AcDbEntity
  8
002
 62
     3
370
    30
100
AcDbCircle
 10
500.247742
 20
175.238104
 30
0.0
 40
4.0
100
AcDbArc
 50
54.895863
 51
180.0
  0
LINE
  5
2BD
330
1F
100
AcDbEntity
  8
002
 62
     3
370
    30
100
AcDbLine
 10
496.247742
 20
175.638104
 30
0.0
 11
496.247742
 21
170.738104
 31
0.0
  0
LINE
  5
2BE
330
1F
100
AcDbEntity
  8
002
 62
     3
370
    30
100
AcDbLine
 10
504.247742
 20
172.525214
 30
0.0
 11
504.247742
 21
170.738104
 31
0.0
  0
LINE
  5
2BF
330
1F
100
AcDbEntity
  8
002
 62
     3
370
    30
100
AcDbLine
 10
502.475868
 20
178.779737
 30
0.0
 11
504.158191
 21
172.501219
 31
0.0
  0
LINE
  5
2C0
330
1F
100
AcDbEntity
  8
002
 62
     3
370
    30
100
AcDbLine
 10
505.60708
 20
172.889448
 30
0.0
 11
504.158191
 21
172.501219
 31
0.0
  0
LINE
  5
2C1
330
1F
100
AcDbEntity
  8
002
 62
     3
370
    30
100
AcDbLine
 10
503.924756
 20
179.167965
 30
0.0
 11
502.475868
 21
178.779737
 31
0.0
  0
LINE
  5
2C2
330
1F
100
AcDbEntity
  8
002
 62
     3
370
    30
100
AcDbLine
 10
503.924756
 20
179.167965
 30
0.0
 11
505.60708
 21
172.889448
 31
0.0
  0
ARC
  5
2C3
330
1F
100
AcDbEntity
  8
002
 62
     3
370
    30
100
AcDbCircle
 10
503.981752
 20
179.511627
 30
0.0
 40
1.000001999998009
100
AcDbArc
 50
276.720641
 51
317.005383
  0
LINE
  5
2C4
330
1F
100
AcDbEntity
  8
002
 62
     3
370
    30
100
AcDbLine
 10
508.488429
 20
179.614341
 30
0.0
 11
509.782524
 21
174.784712
 31
0.0
  0
ARC
  5
2C5
330
1F
100
AcDbEntity
  8
002
 62
     3
370
    30
100
AcDbCircle
 10
508.496614
 20
177.028343
 30
0.0
 40
0.9999749796870392
100
AcDbArc
 50
326.407997
 51
63.592003
  0
LINE
  5
2C6
330
1F
100
AcDbEntity
  8
002
 62
     3
370
    30
100
AcDbLine
 10
505.590652
 20
178.837884
 30
0.0
 11
506.884747
 21
174.008255
 31
0.0
  0
LINE
  5
2C7
330
1F
100
AcDbEntity
  8
002
 62
     3
370
    30
100
AcDbLine
 10
505.396537
 20
179.562328
 30
0.0
 11
508.488429
 21
179.614341
 31
0.0
  0
LINE
  5
2C8
330
1F
100
AcDbEntity
  8
002
 62
     3
370
    30
100
AcDbLine
 10
504.713171
 20
178.829696
 30
0.0
 11
505.396537
 21
179.562328
 31
0.0
  0
LINE
  5
2C9
330
1F
100
AcDbEntity
  8
002
 62
     3
370
    30
100
AcDbLine
 10
509.782524
 20
174.784712
 30
0.0
 11
507.078861
 21
173.28381
 31
0.0
  0
LINE
  5
2CA
330
1F
100
AcDbEntity
  8
002
 62
     3
370
    30
100
AcDbLine
 10
507.078861
 20
173.28381
 30
0.0
 11
506.120707
 21
173.576702
 31
0.0
  0
ARC
  5
2CB
330
1F
100
AcDbEntity
  8
002
 62
     3
370
    30
100
AcDbCircle
 10
505.828245
 20
172.620422
 30
0.0
 40
0.9999197017761513
100
AcDbArc
 50
72.994617
 51
113.280045
  0
LINE
  5
2CC
330
1F
100
AcDbEntity
  8
002
 62
     3
370
    30
100
AcDbLine
 10
495.682742
 20
170.411901
 30
0.0
 11
495.682742
 21
168.141657
 31
0.0
  0
LINE
  5
2CD
330
1F
100
AcDbEntity
  8
002
 62
     3
370
    30
100
AcDbLine
 10
497.827742
 20
170.411901
 30
0.0
 11
497.827742
 21
168.141657
 31
0.0
  0
LINE
  5
2CE
330
1F
100
AcDbEntity
  8
002
 62
     3
370
    30
100
AcDbLine
 10
502.667742
 20
170.411901
 30
0.0
 11
502.667742
 21
168.141657
 31
0.0
  0
LINE
  5
2CF
330
1F
100
AcDbEntity
  8
002
 62
     3
370
    30
100
AcDbLine
 10
504.812742
 20
170.411901
 30
0.0
 11
504.812742
 21
168.141657
 31
0.0
  0
LINE
  5
2D0
330
1F
100
AcDbEntity
  8
002
  6
CENTER
 62
    40
370
     9
100
AcDbLine
 10
497.689185
 20
174.080281
 30
0.0
 11
511.301171
 21
177.727602
 31
0.0
  0
LINE
  5
2D1
330
1F
100
AcDbEntity
  8
002
  6
CENTER
 62
    40
370
     9
100
AcDbLine
 10
510.247742
 20
92.407531
 30
0.0
 11
510.247742
 21
180.471951
 31
0.0
  0
LINE
  5
2D2
330
1F
100
AcDbEntity
  8
002
  6
CENTER
 62
    40
370
     9
100
AcDbLine
 10
500.247742
 20
180.389521
 30
0.0
 11
500.247742
 21
152.4015
 31
0.0
  0
LINE
  5
2D3
330
1F
100
AcDbEntity
  8
002
 62
     3
370
    30
100
AcDbLine
 10
444.247742
 20
473.238104
 30
0.0
 11
444.247742
 21
453.238104
 31
0.0
  0
LINE
  5
2D4
330
1F
100
AcDbEntity
  8
002
 62
     3
370
    30
100
AcDbLine
 10
456.247742
 20
453.238104
 30
0.0
 11
456.247742
 21
473.238104
 31
0.0
  0
LINE
  5
2D5
330
1F
100
AcDbEntity
  8
002
 62
     3
370
    30
100
AcDbLine
 10
456.247742
 20
473.238104
 30
0.0
 11
444.247742
 21
473.238104
 31
0.0
  0
LINE
  5
2D6
330
1F
100
AcDbEntity
  8
002
 62
     3
370
    30
100
AcDbLine
 10
437.747742
 20
453.238104
 30
0.0
 11
462.747742
 21
453.238104
 31
0.0
  0
LINE
  5
2D7
330
1F
100
AcDbEntity
  8
002
 62
     3
370
    30
100
AcDbLine
 10
480.247742
 20
311.63487
 30
0.0
 11
420.247742
 21
311.63487
 31
0.0
  0
LINE
  5
2D8
330
1F
100
AcDbEntity
  8
002
 62
     3
370
    30
100
AcDbLine
 10
420.247742
 20
318.63487
 30
0.0
 11
480.247742
 21
318.63487
 31
0.0
  0
LINE
  5
2D9
330
1F
100
AcDbEntity
  8
002
 62
     3
370
    30
100
AcDbLine
 10
468.247742
 20
291.38487
 30
0.0
 11
432.247742
 21
291.38487
 31
0.0
  0
LINE
  5
2DA
330
1F
100
AcDbEntity
  8
002
 62
     3
370
    30
100
AcDbLine
 10
468.247742
 20
288.88487
 30
0.0
 11
432.247742
 21
288.88487
 31
0.0
  0
LINE
  5
2DB
330
1F
100
AcDbEntity
  8
002
 62
    40
370
     9
100
AcDbLine
 10
459.997742
 20
453.238104
 30
0.0
 11
459.997742
 21
318.63487
 31
0.0
  0
LINE
  5
2DC
330
1F
100
AcDbEntity
  8
002
 62
     3
370
    30
100
AcDbLine
 10
462.747742
 20
453.238104
 30
0.0
 11
462.747742
 21
318.63487
 31
0.0
  0
LINE
  5
2DD
330
1F
100
AcDbEntity
  8
002
 62
     3
370
    30
100
AcDbLine
 10
467.747742
 20
268.63487
 30
0.0
 11
432.747742
 21
268.63487
 31
0.0
  0
LINE
  5
2DE
330
1F
100
AcDbEntity
  8
002
  6
CENTER
 62
    40
370
     9
100
AcDbLine
 10
468.247742
 20
290.13487
 30
0.0
 11
430.597589
 21
290.13487
 31
0.0
  0
LINE
  5
2DF
330
1F
100
AcDbEntity
  8
002
 62
     3
370
    30
100
AcDbLine
 10
779.188159
 20
424.375884
 30
0.0
 11
777.788159
 21
422.975884
 31
0.0
  0
LINE
  5
2E0
330
1F
100
AcDbEntity
  8
002
 62
     3
370
    30
100
AcDbLine
 10
779.188159
 20
424.375884
 30
0.0
 11
807.788159
 21
424.375884
 31
0.0
  0
LINE
  5
2E1
330
1F
100
AcDbEntity
  8
002
  6
CENTER
 62
    40
370
     9
100
AcDbLine
 10
839.788159
 20
360.706686
 30
0.0
 11
839.788159
 21
407.94718
 31
0.0
  0
LINE
  5
2E2
330
1F
100
AcDbEntity
  8
002
  6
CENTER
 62
    40
370
     9
100
AcDbLine
 10
890.988593
 20
384.875884
 30
0.0
 11
751.393569
 21
384.875884
 31
0.0
  0
LINE
  5
2E3
330
1F
100
AcDbEntity
  8
002
 62
     3
370
    30
100
AcDbLine
 10
773.347358
 20
423.275884
 30
0.0
 11
807.788159
 21
423.275884
 31
0.0
  0
LINE
  5
2E4
330
1F
100
AcDbEntity
  8
002
 62
     3
370
    30
100
AcDbLine
 10
776.732286
 20
424.875884
 30
0.0
 11
754.844032
 21
424.875884
 31
0.0
  0
LINE
  5
2E5
330
1F
100
AcDbEntity
  8
002
 62
     3
370
    30
100
AcDbLine
 10
878.732286
 20
424.875884
 30
0.0
 11
880.129117
 21
384.875884
 31
0.0
  0
LINE
  5
2E6
330
1F
100
AcDbEntity
  8
002
 62
     3
370
    30
100
AcDbLine
 10
856.844032
 20
344.875884
 30
0.0
 11
878.732286
 21
344.875884
 31
0.0
  0
LINE
  5
2E7
330
1F
100
AcDbEntity
  8
002
 62
     3
370
    30
100
AcDbLine
 10
878.732286
 20
344.875884
 30
0.0
 11
880.129117
 21
384.875884
 31
0.0
  0
LINE
  5
2E8
330
1F
100
AcDbEntity
  8
002
 62
     3
370
    30
100
AcDbLine
 10
856.844032
 20
344.875884
 30
0.0
 11
856.785666
 21
346.547273
 31
0.0
  0
LINE
  5
2E9
330
1F
100
AcDbEntity
  8
002
 62
     3
370
    30
100
AcDbLine
 10
754.844032
 20
424.875884
 30
0.0
 11
753.447202
 21
384.875884
 31
0.0
  0
LINE
  5
2EA
330
1F
100
AcDbEntity
  8
002
 62
     3
370
    30
100
AcDbLine
 10
776.732286
 20
424.875884
 30
0.0
 11
776.788159
 21
423.275884
 31
0.0
  0
LINE
  5
2EB
330
1F
100
AcDbEntity
  8
002
 62
     3
370
    30
100
AcDbLine
 10
754.844032
 20
344.875884
 30
0.0
 11
753.447202
 21
384.875884
 31
0.0
  0
LINE
  5
2EC
330
1F
100
AcDbEntity
  8
002
  6
CENTER
 62
    40
370
     9
100
AcDbLine
 10
765.788159
 20
340.045311
 30
0.0
 11
765.788159
 21
428.109731
 31
0.0
  0
LINE
  5
2ED
330
1F
100
AcDbEntity
  8
002
 62
     3
370
    30
100
AcDbLine
 10
754.844032
 20
344.875884
 30
0.0
 11
776.732286
 21
344.875884
 31
0.0
  0
LINE
  5
2EE
330
1F
100
AcDbEntity
  8
002
 62
     3
370
    30
100
AcDbLine
 10
845.864824
 20
418.284686
 30
0.0
 11
845.445279
 21
423.080114
 31
0.0
  0
LINE
  5
2EF
330
1F
100
AcDbEntity
  8
002
 62
     3
370
    30
100
AcDbLine
 10
845.864824
 20
351.467082
 30
0.0
 11
845.428151
 21
346.475884
 31
0.0
  0
LINE
  5
2F0
330
1F
100
AcDbEntity
  8
002
 62
     3
370
    30
100
AcDbLine
 10
773.347358
 20
423.275884
 30
0.0
 11
771.173311
 21
398.426413
 31
0.0
  0
LINE
  5
2F1
330
1F
100
AcDbEntity
  8
002
 62
     3
370
    30
100
AcDbLine
 10
771.173311
 20
371.325355
 30
0.0
 11
773.347358
 21
346.475884
 31
0.0
  0
LINE
  5
2F2
330
1F
100
AcDbEntity
  8
002
 62
     3
370
    30
100
AcDbLine
 10
776.732286
 20
344.875884
 30
0.0
 11
776.788159
 21
346.475884
 31
0.0
  0
ARC
  5
2F3
330
1F
100
AcDbEntity
  8
002
 62
     3
370
    30
100
AcDbCircle
 10
851.007208
 20
416.875543
 30
0.0
 40
5.0
100
AcDbArc
 50
185.0
 51
270.0
  0
LINE
  5
2F4
330
1F
100
AcDbEntity
  8
002
 62
     3
370
    30
100
AcDbLine
 10
845.864824
 20
418.284686
 30
0.0
 11
846.026234
 21
416.439764
 31
0.0
  0
LINE
  5
2F5
330
1F
100
AcDbEntity
  8
002
 62
     3
370
    30
100
AcDbLine
 10
845.98246
 20
352.811663
 30
0.0
 11
845.864824
 21
351.467082
 31
0.0
  0
LINE
  5
2F6
330
1F
100
AcDbEntity
  8
002
 62
     3
370
    30
100
AcDbLine
 10
807.288159
 20
390.875884
 30
0.0
 11
753.656726
 21
390.875884
 31
0.0
  0
ARC
  5
2F7
330
1F
100
AcDbEntity
  8
002
 62
     3
370
    30
100
AcDbCircle
 10
765.931069
 20
395.875884
 30
0.0
 40
5.0
100
AcDbArc
 50
270.0
 51
355.0
  0
LINE
  5
2F8
330
1F
100
AcDbEntity
  8
002
 62
     3
370
    30
100
AcDbLine
 10
771.173311
 20
398.426413
 30
0.0
 11
770.912042
 21
395.440105
 31
0.0
  0
LINE
  5
2F9
330
1F
100
AcDbEntity
  8
002
 62
     3
370
    30
100
AcDbLine
 10
807.288159
 20
378.875884
 30
0.0
 11
753.656726
 21
378.875884
 31
0.0
  0
ARC
  5
2FA
330
1F
100
AcDbEntity
  8
002
 62
     3
370
    30
100
AcDbCircle
 10
765.931069
 20
373.875884
 30
0.0
 40
5.0
100
AcDbArc
 50
5.0
 51
90.0
  0
LINE
  5
2FB
330
1F
100
AcDbEntity
  8
002
 62
     3
370
    30
100
AcDbLine
 10
771.173311
 20
371.325355
 30
0.0
 11
770.912042
 21
374.311663
 31
0.0
  0
LINE
  5
2FC
330
1F
100
AcDbEntity
  8
002
 62
     3
370
    30
100
AcDbLine
 10
807.788159
 20
346.475884
 30
0.0
 11
862.245578
 21
346.475884
 31
0.0
  0
LINE
  5
2FD
330
1F
100
AcDbEntity
  8
002
 62
     3
370
    30
100
AcDbLine
 10
807.788159
 20
346.475884
 30
0.0
 11
773.347358
 21
346.475884
 31
0.0
  0
LINE
  5
2FE
330
1F
100
AcDbEntity
  8
002
 62
     3
370
    30
100
AcDbLine
 10
872.288159
 20
390.875884
 30
0.0
 11
879.919592
 21
390.875884
 31
0.0
  0
LINE
  5
2FF
330
1F
100
AcDbEntity
  8
002
 62
     3
370
    30
100
AcDbLine
 10
872.288159
 20
378.875884
 30
0.0
 11
879.919592
 21
378.875884
 31
0.0
  0
LINE
  5
300
330
1F
100
AcDbEntity
  8
002
 62
     3
370
    30
100
AcDbLine
 10
869.597061
 20
410.68897
 30
0.0
 11
874.728841
 21
410.361413
 31
0.0
  0
ARC
  5
301
330
1F
100
AcDbEntity
  8
002
 62
     3
370
    30
100
AcDbCircle
 10
874.410344
 20
405.371568
 30
0.0
 40
5.0
100
AcDbArc
 50
2.0
 51
86.347819
  0
LINE
  5
302
330
1F
100
AcDbEntity
  8
002
 62
     3
370
    30
100
AcDbLine
 10
866.788159
 20
356.068891
 30
0.0
 11
866.788159
 21
354.875884
 31
0.0
  0
LINE
  5
303
330
1F
100
AcDbEntity
  8
002
 62
     3
370
    30
100
AcDbLine
 10
869.597061
 20
359.062798
 30
0.0
 11
874.728841
 21
359.390355
 31
0.0
  0
ARC
  5
304
330
1F
100
AcDbEntity
  8
002
 62
     3
370
    30
100
AcDbCircle
 10
874.410344
 20
364.3802
 30
0.0
 40
5.0
100
AcDbArc
 50
273.652181
 51
358.0
  0
ARC
  5
305
330
1F
100
AcDbEntity
  8
002
 62
     3
370
    30
100
AcDbCircle
 10
850.744712
 20
349.875884
 30
0.0
 40
5.0
100
AcDbArc
 50
90.0
 51
175.0
  0
LINE
  5
306
330
1F
100
AcDbEntity
  8
002
 62
     3
370
    30
100
AcDbLine
 10
850.744712
 20
354.875884
 30
0.0
 11
866.788159
 21
354.875884
 31
0.0
  0
ARC
  5
307
330
1F
100
AcDbEntity
  8
002
 62
     3
370
    30
100
AcDbCircle
 10
869.788159
 20
356.068891
 30
0.0
 40
3.0
100
AcDbArc
 50
93.652181
 51
180.0
  0
LINE
  5
308
330
1F
100
AcDbEntity
  8
002
 62
     3
370
    30
100
AcDbLine
 10
862.980483
 20
354.875884
 30
0.0
 11
862.245578
 21
346.475884
 31
0.0
  0
LINE
  5
309
330
1F
100
AcDbEntity
  8
002
 62
     3
370
    30
100
AcDbLine
 10
812.288159
 20
362.375884
 30
0.0
 11
812.288159
 21
407.375884
 31
0.0
  0
LINE
  5
30A
330
1F
100
AcDbEntity
  8
002
 62
     3
370
    30
100
AcDbLine
 10
862.288159
 20
357.375884
 30
0.0
 11
817.288159
 21
357.375884
 31
0.0
  0
LINE
  5
30B
330
1F
100
AcDbEntity
  8
002
 62
     3
370
    30
100
AcDbLine
 10
867.288159
 20
407.375884
 30
0.0
 11
867.288159
 21
362.375884
 31
0.0
  0
LINE
  5
30C
330
1F
100
AcDbEntity
  8
002
 62
     3
370
    30
100
AcDbLine
 10
862.288159
 20
412.375884
 30
0.0
 11
817.288159
 21
412.375884
 31
0.0
  0
ARC
  5
30D
330
1F
100
AcDbEntity
  8
002
 62
     3
370
    30
100
AcDbCircle
 10
817.288159
 20
407.375884
 30
0.0
 40
5.0
100
AcDbArc
 50
90.0
 51
180.0
  0
ARC
  5
30E
330
1F
100
AcDbEntity
  8
002
 62
     3
370
    30
100
AcDbCircle
 10
817.288159
 20
362.375884
 30
0.0
 40
5.0
100
AcDbArc
 50
180.0
 51
270.0
  0
ARC
  5
30F
330
1F
100
AcDbEntity
  8
002
 62
     3
370
    30
100
AcDbCircle
 10
862.288159
 20
362.375884
 30
0.0
 40
5.0
100
AcDbArc
 50
270.0
 51
0.0
  0
ARC
  5
310
330
1F
100
AcDbEntity
  8
002
 62
     3
370
    30
100
AcDbCircle
 10
862.288159
 20
407.375884
 30
0.0
 40
5.0
100
AcDbArc
 50
0.0
 51
90.0
  0
ARC
  5
311
330
1F
100
AcDbEntity
  8
002
 62
     3
370
    30
100
AcDbCircle
 10
872.288159
 20
395.875884
 30
0.0
 40
5.0
100
AcDbArc
 50
180.0
 51
270.0
  0
ARC
  5
312
330
1F
100
AcDbEntity
  8
002
 62
     3
370
    30
100
AcDbCircle
 10
872.288159
 20
373.875884
 30
0.0
 40
5.0
100
AcDbArc
 50
90.0
 51
180.0
  0
ARC
  5
313
330
1F
100
AcDbEntity
  8
002
 62
     3
370
    30
100
AcDbCircle
 10
850.963433
 20
352.375884
 30
0.0
 40
5.0
100
AcDbArc
 50
90.0
 51
175.0
  0
ARC
  5
314
330
1F
100
AcDbEntity
  8
002
 62
     3
370
    30
100
AcDbCircle
 10
807.288159
 20
395.875884
 30
0.0
 40
5.0
100
AcDbArc
 50
270.0
 51
0.0
  0
ARC
  5
315
330
1F
100
AcDbEntity
  8
002
 62
     3
370
    30
100
AcDbCircle
 10
807.288159
 20
373.875884
 30
0.0
 40
5.0
100
AcDbArc
 50
0.0
 51
90.0
  0
LINE
  5
316
330
1F
100
AcDbEntity
  8
002
 62
     3
370
    30
100
AcDbLine
 10
836.388159
 20
424.375884
 30
0.0
 11
807.788159
 21
424.375884
 31
0.0
  0
LINE
  5
317
330
1F
100
AcDbEntity
  8
002
 62
     3
370
    30
100
AcDbLine
 10
836.388159
 20
424.375884
 30
0.0
 11
837.788159
 21
422.975884
 31
0.0
  0
LINE
  5
318
330
1F
100
AcDbEntity
  8
002
 62
     3
370
    30
100
AcDbLine
 10
837.288159
 20
394.125884
 30
0.0
 11
837.288159
 21
389.625884
 31
0.0
  0
LINE
  5
319
330
1F
100
AcDbEntity
  8
002
 62
     3
370
    30
100
AcDbLine
 10
837.288159
 20
389.625884
 30
0.0
 11
837.538159
 21
389.375884
 31
0.0
  0
LINE
  5
31A
330
1F
100
AcDbEntity
  8
002
 62
     3
370
    30
100
AcDbLine
 10
837.538159
 20
389.375884
 30
0.0
 11
842.038159
 21
389.375884
 31
0.0
  0
LINE
  5
31B
330
1F
100
AcDbEntity
  8
002
 62
     3
370
    30
100
AcDbLine
 10
842.038159
 20
389.375884
 30
0.0
 11
842.288159
 21
389.625884
 31
0.0
  0
LINE
  5
31C
330
1F
100
AcDbEntity
  8
002
 62
     3
370
    30
100
AcDbLine
 10
842.288159
 20
389.625884
 30
0.0
 11
842.288159
 21
394.125884
 31
0.0
  0
LINE
  5
31D
330
1F
100
AcDbEntity
  8
002
 62
     3
370
    30
100
AcDbLine
 10
842.288159
 20
394.125884
 30
0.0
 11
842.038159
 21
394.375884
 31
0.0
  0
LINE
  5
31E
330
1F
100
AcDbEntity
  8
002
 62
     3
370
    30
100
AcDbLine
 10
842.038159
 20
394.375884
 30
0.0
 11
837.538159
 21
394.375884
 31
0.0
  0
LINE
  5
31F
330
1F
100
AcDbEntity
  8
002
 62
     3
370
    30
100
AcDbLine
 10
837.538159
 20
394.375884
 30
0.0
 11
837.288159
 21
394.125884
 31
0.0
  0
ARC
  5
320
330
1F
100
AcDbEntity
  8
002
 62
     3
370
    30
100
AcDbCircle
 10
842.088159
 20
389.575884
 30
0.0
 40
0.1999999999999318
100
AcDbArc
 50
270.0
 51
0.0
  0
ARC
  5
321
330
1F
100
AcDbEntity
  8
002
 62
     3
370
    30
100
AcDbCircle
 10
837.488159
 20
389.575884
 30
0.0
 40
0.2000000000000455
100
AcDbArc
 50
180.0
 51
270.0
  0
ARC
  5
322
330
1F
100
AcDbEntity
  8
002
 62
     3
370
    30
100
AcDbCircle
 10
839.788159
 20
384.875884
 30
0.0
 40
7.499936066394191
100
AcDbArc
 50
109.471393
 51
70.528607
  0
CIRCLE
  5
323
330
1F
100
AcDbEntity
  8
002
 62
     3
370
    30
100
AcDbCircle
 10
839.788159
 20
384.875884
 30
0.0
 40
17.5
  0
ARC
  5
324
330
1F
100
AcDbEntity
  8
002
 62
     3
370
    30
100
AcDbCircle
 10
839.788159
 20
383.831484
 30
0.0
 40
15.66944001073419
100
AcDbArc
 50
306.867484
 51
233.132223
  0
ARC
  5
325
330
1F
100
AcDbEntity
  8
002
 62
     3
370
    30
100
AcDbCircle
 10
831.886959
 20
373.295684
 30
0.0
 40
2.499984673953072
100
AcDbArc
 50
233.131477
 51
314.849286
  0
CIRCLE
  5
326
330
1F
100
AcDbEntity
  8
002
 62
     3
370
    30
100
AcDbCircle
 10
835.413159
 20
369.750884
 30
0.0
 40
1.09375
  0
ARC
  5
327
330
1F
100
AcDbEntity
  8
002
 62
     3
370
    30
100
AcDbCircle
 10
835.413159
 20
369.750884
 30
0.0
 40
2.499984673952911
100
AcDbArc
 50
0.0
 51
134.849286
  0
LINE
  5
328
330
1F
100
AcDbEntity
  8
002
 62
     3
370
    30
100
AcDbLine
 10
837.913159
 20
369.750884
 30
0.0
 11
837.913159
 21
367.504284
 31
0.0
  0
LINE
  5
329
330
1F
100
AcDbEntity
  8
002
 62
     3
370
    30
100
AcDbLine
 10
841.663159
 20
367.504284
 30
0.0
 11
841.663159
 21
369.750884
 31
0.0
  0
CIRCLE
  5
32A
330
1F
100
AcDbEntity
  8
002
 62
     3
370
    30
100
AcDbCircle
 10
844.163159
 20
369.750884
 30
0.0
 40
1.09375
  0
ARC
  5
32B
330
1F
100
AcDbEntity
  8
002
 62
     3
370
    30
100
AcDbCircle
 10
847.689359
 20
373.295684
 30
0.0
 40
2.500020003919964
100
AcDbArc
 50
225.150714
 51
306.866689
  0
ARC
  5
32C
330
1F
100
AcDbEntity
  8
002
 62
     3
370
    30
100
AcDbCircle
 10
844.163159
 20
369.750884
 30
0.0
 40
2.5
100
AcDbArc
 50
45.150714
 51
180.0
  0
LINE
  5
32D
330
1F
100
AcDbEntity
  8
002
 62
     3
370
    30
100
AcDbLine
 10
770.288159
 20
424.875884
 30
0.0
 11
770.288159
 21
429.275884
 31
0.0
  0
LINE
  5
32E
330
1F
100
AcDbEntity
  8
002
 62
     3
370
    30
100
AcDbLine
 10
770.288159
 20
429.275884
 30
0.0
 11
845.288159
 21
429.275884
 31
0.0
  0
LINE
  5
32F
330
1F
100
AcDbEntity
  8
002
 62
     3
370
    30
100
AcDbLine
 10
845.288159
 20
429.275884
 30
0.0
 11
845.288159
 21
423.275884
 31
0.0
  0
LINE
  5
330
330
1F
100
AcDbEntity
  8
002
 62
     3
370
    30
100
AcDbLine
 10
842.038159
 20
429.275884
 30
0.0
 11
842.038159
 21
434.275884
 31
0.0
  0
LINE
  5
331
330
1F
100
AcDbEntity
  8
002
 62
     3
370
    30
100
AcDbLine
 10
842.038159
 20
434.275884
 30
0.0
 11
833.538159
 21
434.275884
 31
0.0
  0
LINE
  5
332
330
1F
100
AcDbEntity
  8
002
 62
     3
370
    30
100
AcDbLine
 10
833.538159
 20
434.275884
 30
0.0
 11
833.538159
 21
429.275884
 31
0.0
  0
LINE
  5
333
330
1F
100
AcDbEntity
  8
002
 62
     3
370
    30
100
AcDbLine
 10
832.088159
 20
429.275884
 30
0.0
 11
832.088159
 21
449.275884
 31
0.0
  0
LINE
  5
334
330
1F
100
AcDbEntity
  8
002
 62
     3
370
    30
100
AcDbLine
 10
832.088159
 20
449.275884
 30
0.0
 11
783.488159
 21
449.275884
 31
0.0
  0
LINE
  5
335
330
1F
100
AcDbEntity
  8
002
 62
     3
370
    30
100
AcDbLine
 10
783.488159
 20
449.275884
 30
0.0
 11
783.488159
 21
429.275884
 31
0.0
  0
LINE
  5
336
330
1F
100
AcDbEntity
  8
002
 62
     3
370
    30
100
AcDbLine
 10
782.038159
 20
429.275884
 30
0.0
 11
782.038159
 21
434.275884
 31
0.0
  0
LINE
  5
337
330
1F
100
AcDbEntity
  8
002
 62
     3
370
    30
100
AcDbLine
 10
782.038159
 20
434.275884
 30
0.0
 11
773.538159
 21
434.275884
 31
0.0
  0
LINE
  5
338
330
1F
100
AcDbEntity
  8
002
 62
     3
370
    30
100
AcDbLine
 10
773.538159
 20
434.275884
 30
0.0
 11
773.538159
 21
429.275884
 31
0.0
  0
LINE
  5
339
330
1F
100
AcDbEntity
  8
002
 62
     3
370
    30
100
AcDbLine
 10
803.538159
 20
434.275884
 30
0.0
 11
812.038159
 21
434.275884
 31
0.0
  0
LINE
  5
33A
330
1F
100
AcDbEntity
  8
002
 62
     3
370
    30
100
AcDbLine
 10
812.038159
 20
434.275884
 30
0.0
 11
812.038159
 21
429.275884
 31
0.0
  0
LINE
  5
33B
330
1F
100
AcDbEntity
  8
002
 62
     3
370
    30
100
AcDbLine
 10
803.538159
 20
434.275884
 30
0.0
 11
803.538159
 21
429.275884
 31
0.0
  0
LINE
  5
33C
330
1F
100
AcDbEntity
  8
002
  6
CENTER
 62
    40
370
     9
100
AcDbLine
 10
837.788159
 20
413.340784
 30
0.0
 11
837.788159
 21
433.429984
 31
0.0
  0
LINE
  5
33D
330
1F
100
AcDbEntity
  8
002
  6
CENTER
 62
    40
370
     9
100
AcDbLine
 10
777.788159
 20
433.429984
 30
0.0
 11
777.788159
 21
413.340784
 31
0.0
  0
LINE
  5
33E
330
1F
100
AcDbEntity
  8
002
 62
     3
370
    30
100
AcDbLine
 10
777.288159
 20
252.979118
 30
0.0
 11
777.288159
 21
246.979118
 31
0.0
  0
LINE
  5
33F
330
1F
100
AcDbEntity
  8
002
 62
     3
370
    30
100
AcDbLine
 10
838.288159
 20
252.979118
 30
0.0
 11
838.288159
 21
246.979118
 31
0.0
  0
LINE
  5
340
330
1F
100
AcDbEntity
  8
002
 62
     3
370
    30
100
AcDbLine
 10
777.288159
 20
252.979118
 30
0.0
 11
777.788159
 21
253.479118
 31
0.0
  0
LINE
  5
341
330
1F
100
AcDbEntity
  8
002
 62
     3
370
    30
100
AcDbLine
 10
837.788159
 20
253.479118
 30
0.0
 11
838.288159
 21
252.979118
 31
0.0
  0
LINE
  5
342
330
1F
100
AcDbEntity
  8
002
 62
     3
370
    30
100
AcDbLine
 10
838.288159
 20
246.979118
 30
0.0
 11
837.788159
 21
246.479118
 31
0.0
  0
LINE
  5
343
330
1F
100
AcDbEntity
  8
002
 62
     3
370
    30
100
AcDbLine
 10
777.288159
 20
246.979118
 30
0.0
 11
777.788159
 21
246.479118
 31
0.0
  0
ARC
  5
344
330
1F
100
AcDbEntity
  8
002
 62
     3
370
    30
100
AcDbCircle
 10
789.288159
 20
245.979118
 30
0.0
 40
0.5
100
AcDbArc
 50
0.0
 51
90.0
  0
ARC
  5
345
330
1F
100
AcDbEntity
  8
002
 62
     3
370
    30
100
AcDbCircle
 10
826.288159
 20
245.979118
 30
0.0
 40
0.5
100
AcDbArc
 50
90.0
 51
180.0
  0
LINE
  5
346
330
1F
100
AcDbEntity
  8
002
 62
     3
370
    30
100
AcDbLine
 10
789.788159
 20
203.979118
 30
0.0
 11
790.288159
 21
203.479118
 31
0.0
  0
LINE
  5
347
330
1F
100
AcDbEntity
  8
002
 62
     3
370
    30
100
AcDbLine
 10
825.288159
 20
203.479118
 30
0.0
 11
825.788159
 21
203.979118
 31
0.0
  0
LINE
  5
348
330
1F
100
AcDbEntity
  8
002
  6
CENTER
 62
    40
370
     9
100
AcDbLine
 10
784.288159
 20
256.479118
 30
0.0
 11
784.288159
 21
243.479118
 31
0.0
  0
LINE
  5
349
330
1F
100
AcDbEntity
  8
002
  6
CENTER
 62
    40
370
     9
100
AcDbLine
 10
831.288159
 20
256.479118
 30
0.0
 11
831.288159
 21
243.479118
 31
0.0
  0
LINE
  5
34A
330
1F
100
AcDbEntity
  8
002
 62
    40
370
     9
100
AcDbLine
 10
798.038159
 20
68.875884
 30
0.0
 11
798.038159
 21
203.479118
 31
0.0
  0
LINE
  5
34B
330
1F
100
AcDbEntity
  8
002
 62
     3
370
    30
100
AcDbLine
 10
795.288159
 20
68.875884
 30
0.0
 11
795.288159
 21
203.479118
 31
0.0
  0
ARC
  5
34C
330
1F
100
AcDbEntity
  8
002
 62
     3
370
    30
100
AcDbCircle
 10
825.788159
 20
224.979118
 30
0.0
 40
1.25
100
AcDbArc
 50
90.0
 51
270.0
  0
LINE
  5
34D
330
1F
100
AcDbEntity
  8
002
 62
     3
370
    30
100
AcDbLine
 10
825.788159
 20
245.979118
 30
0.0
 11
825.788159
 21
226.229118
 31
0.0
  0
LINE
  5
34E
330
1F
100
AcDbEntity
  8
002
 62
     3
370
    30
100
AcDbLine
 10
825.788159
 20
223.729118
 30
0.0
 11
825.788159
 21
203.979118
 31
0.0
  0
ARC
  5
34F
330
1F
100
AcDbEntity
  8
002
 62
     3
370
    30
100
AcDbCircle
 10
789.788159
 20
224.979118
 30
0.0
 40
1.25
100
AcDbArc
 50
270.0
 51
90.0
  0
LINE
  5
350
330
1F
100
AcDbEntity
  8
002
 62
     3
370
    30
100
AcDbLine
 10
789.788159
 20
245.979118
 30
0.0
 11
789.788159
 21
226.229118
 31
0.0
  0
LINE
  5
351
330
1F
100
AcDbEntity
  8
002
 62
     3
370
    30
100
AcDbLine
 10
789.788159
 20
223.729118
 30
0.0
 11
789.788159
 21
203.979118
 31
0.0
  0
LINE
  5
352
330
1F
100
AcDbEntity
  8
002
 62
     3
370
    30
100
AcDbLine
 10
807.788159
 20
423.275884
 30
0.0
 11
853.788159
 21
423.275884
 31
0.0
  0
LINE
  5
353
330
1F
100
AcDbEntity
  8
002
 62
     3
370
    30
100
AcDbLine
 10
867.014758
 20
424.875884
 30
0.0
 11
878.732286
 21
424.875884
 31
0.0
  0
ARC
  5
354
330
1F
100
AcDbEntity
  8
002
 62
     3
370
    30
100
AcDbCircle
 10
850.744712
 20
419.875884
 30
0.0
 40
5.0
100
AcDbArc
 50
185.0
 51
270.0
  0
LINE
  5
355
330
1F
100
AcDbEntity
  8
002
 62
     3
370
    30
100
AcDbLine
 10
850.744712
 20
414.875884
 30
0.0
 11
866.788159
 21
414.875884
 31
0.0
  0
ARC
  5
356
330
1F
100
AcDbEntity
  8
002
 62
     3
370
    30
100
AcDbCircle
 10
869.788159
 20
413.682877
 30
0.0
 40
3.0
100
AcDbArc
 50
180.0
 51
266.347819
  0
LINE
  5
357
330
1F
100
AcDbEntity
  8
002
 62
     3
370
    30
100
AcDbLine
 10
866.788159
 20
413.682877
 30
0.0
 11
866.788159
 21
414.875884
 31
0.0
  0
LINE
  5
358
330
1F
100
AcDbEntity
  8
002
 62
     3
370
    30
100
AcDbLine
 10
862.980483
 20
414.875884
 30
0.0
 11
862.501205
 21
420.354054
 31
0.0
  0
LINE
  5
359
330
1F
100
AcDbEntity
  8
002
 62
     3
370
    30
100
AcDbLine
 10
853.788159
 20
418.375884
 30
0.0
 11
861.788159
 21
418.375884
 31
0.0
  0
LINE
  5
35A
330
1F
100
AcDbEntity
  8
002
 62
     3
370
    30
100
AcDbLine
 10
853.223159
 20
415.779437
 30
0.0
 11
854.788159
 21
414.875884
 31
0.0
  0
LINE
  5
35B
330
1F
100
AcDbEntity
  8
002
 62
     3
370
    30
100
AcDbLine
 10
853.298855
 20
418.093384
 30
0.0
 11
853.788159
 21
418.375884
 31
0.0
  0
LINE
  5
35C
330
1F
100
AcDbEntity
  8
002
 62
     3
370
    30
100
AcDbLine
 10
862.277464
 20
418.093384
 30
0.0
 11
861.788159
 21
418.375884
 31
0.0
  0
LINE
  5
35D
330
1F
100
AcDbEntity
  8
002
 62
     3
370
    30
100
AcDbLine
 10
862.353159
 20
415.779437
 30
0.0
 11
860.788159
 21
414.875884
 31
0.0
  0
ARC
  5
35E
330
1F
100
AcDbEntity
  8
002
 62
     3
370
    30
100
AcDbCircle
 10
857.788159
 20
409.236161
 30
0.0
 40
9.139722999187002
100
AcDbArc
 50
74.646222
 51
105.353778
  0
ARC
  5
35F
330
1F
100
AcDbEntity
  8
002
 62
     3
370
    30
100
AcDbCircle
 10
854.295659
 20
416.449751
 30
0.0
 40
1.926144835808743
100
AcDbArc
 50
56.164408
 51
123.835592
  0
ARC
  5
360
330
1F
100
AcDbEntity
  8
002
 62
     3
370
    30
100
AcDbCircle
 10
861.280659
 20
416.449751
 30
0.0
 40
1.926144835808743
100
AcDbArc
 50
56.164408
 51
123.835592
  0
ARC
  5
361
330
1F
100
AcDbEntity
  8
002
 62
     3
370
    30
100
AcDbCircle
 10
854.295659
 20
417.379368
 30
0.0
 40
1.926144835808743
100
AcDbArc
 50
236.164408
 51
303.835592
  0
ARC
  5
362
330
1F
100
AcDbEntity
  8
002
 62
     3
370
    30
100
AcDbCircle
 10
857.788159
 20
424.592957
 30
0.0
 40
9.139722999187002
100
AcDbArc
 50
254.646222
 51
285.353778
  0
ARC
  5
363
330
1F
100
AcDbEntity
  8
002
 62
     3
370
    30
100
AcDbCircle
 10
861.280659
 20
417.379368
 30
0.0
 40
1.926144835808743
100
AcDbArc
 50
236.164408
 51
303.835592
  0
ARC
  5
364
330
1F
100
AcDbEntity
  8
002
 62
     3
370
    30
100
AcDbCircle
 10
857.788159
 20
422.875884
 30
0.0
 40
4.0
100
AcDbArc
 50
54.895863
 51
180.0
  0
LINE
  5
365
330
1F
100
AcDbEntity
  8
002
 62
     3
370
    30
100
AcDbLine
 10
853.788159
 20
423.275884
 30
0.0
 11
853.788159
 21
418.375884
 31
0.0
  0
LINE
  5
366
330
1F
100
AcDbEntity
  8
002
 62
     3
370
    30
100
AcDbLine
 10
861.788159
 20
420.162994
 30
0.0
 11
861.788159
 21
418.375884
 31
0.0
  0
LINE
  5
367
330
1F
100
AcDbEntity
  8
002
 62
     3
370
    30
100
AcDbLine
 10
860.016285
 20
426.417517
 30
0.0
 11
861.698608
 21
420.138999
 31
0.0
  0
LINE
  5
368
330
1F
100
AcDbEntity
  8
002
 62
     3
370
    30
100
AcDbLine
 10
863.147497
 20
420.527228
 30
0.0
 11
861.698608
 21
420.138999
 31
0.0
  0
LINE
  5
369
330
1F
100
AcDbEntity
  8
002
 62
     3
370
    30
100
AcDbLine
 10
861.465173
 20
426.805745
 30
0.0
 11
860.016285
 21
426.417517
 31
0.0
  0
LINE
  5
36A
330
1F
100
AcDbEntity
  8
002
 62
     3
370
    30
100
AcDbLine
 10
861.465173
 20
426.805745
 30
0.0
 11
863.147497
 21
420.527228
 31
0.0
  0
ARC
  5
36B
330
1F
100
AcDbEntity
  8
002
 62
     3
370
    30
100
AcDbCircle
 10
861.522169
 20
427.149407
 30
0.0
 40
1.000001999998009
100
AcDbArc
 50
276.720641
 51
317.005383
  0
LINE
  5
36C
330
1F
100
AcDbEntity
  8
002
 62
     3
370
    30
100
AcDbLine
 10
866.028846
 20
427.252121
 30
0.0
 11
867.322941
 21
422.422492
 31
0.0
  0
ARC
  5
36D
330
1F
100
AcDbEntity
  8
002
 62
     3
370
    30
100
AcDbCircle
 10
866.03703
 20
424.666123
 30
0.0
 40
0.9999749796870392
100
AcDbArc
 50
326.407997
 51
63.592003
  0
LINE
  5
36E
330
1F
100
AcDbEntity
  8
002
 62
     3
370
    30
100
AcDbLine
 10
863.131069
 20
426.475664
 30
0.0
 11
864.425164
 21
421.646034
 31
0.0
  0
LINE
  5
36F
330
1F
100
AcDbEntity
  8
002
 62
     3
370
    30
100
AcDbLine
 10
862.936954
 20
427.200108
 30
0.0
 11
866.028846
 21
427.252121
 31
0.0
  0
LINE
  5
370
330
1F
100
AcDbEntity
  8
002
 62
     3
370
    30
100
AcDbLine
 10
862.253588
 20
426.467476
 30
0.0
 11
862.936954
 21
427.200108
 31
0.0
  0
LINE
  5
371
330
1F
100
AcDbEntity
  8
002
 62
     3
370
    30
100
AcDbLine
 10
867.322941
 20
422.422492
 30
0.0
 11
864.619278
 21
420.92159
 31
0.0
  0
LINE
  5
372
330
1F
100
AcDbEntity
  8
002
 62
     3
370
    30
100
AcDbLine
 10
864.619278
 20
420.92159
 30
0.0
 11
863.661124
 21
421.214482
 31
0.0
  0
ARC
  5
373
330
1F
100
AcDbEntity
  8
002
 62
     3
370
    30
100
AcDbCircle
 10
863.368662
 20
420.258202
 30
0.0
 40
0.9999197017761513
100
AcDbArc
 50
72.994617
 51
113.280045
  0
LINE
  5
374
330
1F
100
AcDbEntity
  8
002
 62
     3
370
    30
100
AcDbLine
 10
853.223159
 20
418.049681
 30
0.0
 11
853.223159
 21
415.779437
 31
0.0
  0
LINE
  5
375
330
1F
100
AcDbEntity
  8
002
 62
     3
370
    30
100
AcDbLine
 10
855.368159
 20
418.049681
 30
0.0
 11
855.368159
 21
415.779437
 31
0.0
  0
LINE
  5
376
330
1F
100
AcDbEntity
  8
002
 62
     3
370
    30
100
AcDbLine
 10
860.208159
 20
418.049681
 30
0.0
 11
860.208159
 21
415.779437
 31
0.0
  0
LINE
  5
377
330
1F
100
AcDbEntity
  8
002
 62
     3
370
    30
100
AcDbLine
 10
862.353159
 20
418.049681
 30
0.0
 11
862.353159
 21
415.779437
 31
0.0
  0
LINE
  5
378
330
1F
100
AcDbEntity
  8
002
  6
CENTER
 62
    40
370
     9
100
AcDbLine
 10
855.229602
 20
421.718061
 30
0.0
 11
868.841588
 21
425.365382
 31
0.0
  0
LINE
  5
379
330
1F
100
AcDbEntity
  8
002
  6
CENTER
 62
    40
370
     9
100
AcDbLine
 10
867.788159
 20
340.045311
 30
0.0
 11
867.788159
 21
428.109731
 31
0.0
  0
LINE
  5
37A
330
1F
100
AcDbEntity
  8
002
  6
CENTER
 62
    40
370
     9
100
AcDbLine
 10
857.788159
 20
428.027301
 30
0.0
 11
857.788159
 21
400.03928
 31
0.0
  0
LINE
  5
37B
330
1F
100
AcDbEntity
  8
002
 62
     3
370
    30
100
AcDbLine
 10
801.788159
 20
48.875884
 30
0.0
 11
801.788159
 21
68.875884
 31
0.0
  0
LINE
  5
37C
330
1F
100
AcDbEntity
  8
002
 62
     3
370
    30
100
AcDbLine
 10
813.788159
 20
68.875884
 30
0.0
 11
813.788159
 21
48.875884
 31
0.0
  0
LINE
  5
37D
330
1F
100
AcDbEntity
  8
002
 62
     3
370
    30
100
AcDbLine
 10
813.788159
 20
48.875884
 30
0.0
 11
801.788159
 21
48.875884
 31
0.0
  0
LINE
  5
37E
330
1F
100
AcDbEntity
  8
002
 62
     3
370
    30
100
AcDbLine
 10
795.288159
 20
68.875884
 30
0.0
 11
820.288159
 21
68.875884
 31
0.0
  0
LINE
  5
37F
330
1F
100
AcDbEntity
  8
002
 62
     3
370
    30
100
AcDbLine
 10
777.788159
 20
253.479118
 30
0.0
 11
837.788159
 21
253.479118
 31
0.0
  0
LINE
  5
380
330
1F
100
AcDbEntity
  8
002
 62
     3
370
    30
100
AcDbLine
 10
837.788159
 20
246.479118
 30
0.0
 11
777.788159
 21
246.479118
 31
0.0
  0
LINE
  5
381
330
1F
100
AcDbEntity
  8
002
 62
     3
370
    30
100
AcDbLine
 10
825.788159
 20
226.229118
 30
0.0
 11
789.788159
 21
226.229118
 31
0.0
  0
LINE
  5
382
330
1F
100
AcDbEntity
  8
002
  6
CENTER
 62
    40
370
     9
100
AcDbLine
 10
825.788159
 20
224.979118
 30
0.0
 11
788.138006
 21
224.979118
 31
0.0
  0
LINE
  5
383
330
1F
100
AcDbEntity
  8
002
 62
     3
370
    30
100
AcDbLine
 10
825.788159
 20
223.729118
 30
0.0
 11
789.788159
 21
223.729118
 31
0.0
  0
LINE
  5
384
330
1F
100
AcDbEntity
  8
002
 62
     3
370
    30
100
AcDbLine
 10
825.288159
 20
203.479118
 30
0.0
 11
790.288159
 21
203.479118
 31
0.0
  0
LINE
  5
385
330
1F
100
AcDbEntity
  8
002
 62
     3
370
    30
100
AcDbLine
 10
820.288159
 20
68.875884
 30
0.0
 11
820.288159
 21
203.479118
 31
0.0
  0
LINE
  5
386
330
1F
100
AcDbEntity
  8
002
 62
    40
370
     9
100
AcDbLine
 10
817.538159
 20
68.875884
 30
0.0
 11
817.538159
 21
203.479118
 31
0.0
  0
POLYLINE
  5
387
330
1F
100
AcDbEntity
  8
002
 62
     3
370
     9
100
AcDb2dPolyline
 66
     1
 10
0.0
 20
0.0
 30
0.0
  0
VERTEX
  5
389
330
387
100
AcDbEntity
  8
002
 62
     3
370
     9
100
AcDbVertex
100
AcDb2dVertex
 10
248.152719
 20
218.686487
 30
0.0
  0
VERTEX
  5
38A
330
387
100
AcDbEntity
  8
002
 62
     3
370
     9
100
AcDbVertex
100
AcDb2dVertex
 10
250.236052
 20
216.760561
 30
0.0
  0
VERTEX
  5
38B
330
387
100
AcDbEntity
  8
002
 62
     3
370
     9
100
AcDbVertex
100
AcDb2dVertex
 10
252.319385
 20
215.279079
 30
0.0
  0
VERTEX
  5
38C
330
387
100
AcDbEntity
  8
002
 62
     3
370
     9
100
AcDbVertex
100
AcDb2dVertex
 10
254.402719
 20
214.686487
 30
0.0
  0
VERTEX
  5
38D
330
387
100
AcDbEntity
  8
002
 62
     3
370
     9
100
AcDbVertex
100
AcDb2dVertex
 10
256.486052
 20
215.279079
 30
0.0
  0
VERTEX
  5
38E
330
387
100
AcDbEntity
  8
002
 62
     3
370
     9
100
AcDbVertex
100
AcDb2dVertex
 10
258.569385
 20
216.760561
 30
0.0
  0
VERTEX
  5
38F
330
387
100
AcDbEntity
  8
002
 62
     3
370
     9
100
AcDbVertex
100
AcDb2dVertex
 10
260.652719
 20
218.686487
 30
0.0
  0
VERTEX
  5
390
330
387
100
AcDbEntity
  8
002
 62
     3
370
     9
100
AcDbVertex
100
AcDb2dVertex
 10
262.736052
 20
220.612413
 30
0.0
  0
VERTEX
  5
391
330
387
100
AcDbEntity
  8
002
 62
     3
370
     9
100
AcDbVertex
100
AcDb2dVertex
 10
264.819385
 20
222.093894
 30
0.0
  0
VERTEX
  5
392
330
387
100
AcDbEntity
  8
002
 62
     3
370
     9
100
AcDbVertex
100
AcDb2dVertex
 10
266.902719
 20
222.686487
 30
0.0
  0
VERTEX
  5
393
330
387
100
AcDbEntity
  8
002
 62
     3
370
     9
100
AcDbVertex
100
AcDb2dVertex
 10
268.986052
 20
222.093894
 30
0.0
  0
VERTEX
  5
394
330
387
100
AcDbEntity
  8
002
 62
     3
370
     9
100
AcDbVertex
100
AcDb2dVertex
 10
271.069385
 20
220.612413
 30
0.0
  0
VERTEX
  5
395
330
387
100
AcDbEntity
  8
002
 62
     3
370
     9
100
AcDbVertex
100
AcDb2dVertex
 10
273.152719
 20
218.686487
 30
0.0
  0
SEQEND
  5
388
330
387
100
AcDbEntity
  8
002
370
     9
  0
POLYLINE
  5
396
330
1F
100
AcDbEntity
  8
002
 62
     3
370
     9
100
AcDb2dPolyline
 66
     1
 10
0.0
 20
0.0
 30
0.0
  0
VERTEX
  5
398
330
396
100
AcDbEntity
  8
002
 62
     3
370
     9
100
AcDbVertex
100
AcDb2dVertex
 10
248.152719
 20
226.686487
 30
0.0
  0
VERTEX
  5
399
330
396
100
AcDbEntity
  8
002
 62
     3
370
     9
100
AcDbVertex
100
AcDb2dVertex
 10
250.236052
 20
224.760561
 30
0.0
  0
VERTEX
  5
39A
330
396
100
AcDbEntity
  8
002
 62
     3
370
     9
100
AcDbVertex
100
AcDb2dVertex
 10
252.319385
 20
223.279079
 30
0.0
  0
VERTEX
  5
39B
330
396
100
AcDbEntity
  8
002
 62
     3
370
     9
100
AcDbVertex
100
AcDb2dVertex
 10
254.402719
 20
222.686487
 30
0.0
  0
VERTEX
  5
39C
330
396
100
AcDbEntity
  8
002
 62
     3
370
     9
100
AcDbVertex
100
AcDb2dVertex
 10
256.486052
 20
223.279079
 30
0.0
  0
VERTEX
  5
39D
330
396
100
AcDbEntity
  8
002
 62
     3
370
     9
100
AcDbVertex
100
AcDb2dVertex
 10
258.569385
 20
224.760561
 30
0.0
  0
VERTEX
  5
39E
330
396
100
AcDbEntity
  8
002
 62
     3
370
     9
100
AcDbVertex
100
AcDb2dVertex
 10
260.652719
 20
226.686487
 30
0.0
  0
VERTEX
  5
39F
330
396
100
AcDbEntity
  8
002
 62
     3
370
     9
100
AcDbVertex
100
AcDb2dVertex
 10
262.736052
 20
228.612413
 30
0.0
  0
VERTEX
  5
3A0
330
396
100
AcDbEntity
  8
002
 62
     3
370
     9
100
AcDbVertex
100
AcDb2dVertex
 10
264.819385
 20
230.093894
 30
0.0
  0
VERTEX
  5
3A1
330
396
100
AcDbEntity
  8
002
 62
     3
370
     9
100
AcDbVertex
100
AcDb2dVertex
 10
266.902719
 20
230.686487
 30
0.0
  0
VERTEX
  5
3A2
330
396
100
AcDbEntity
  8
002
 62
     3
370
     9
100
AcDbVertex
100
AcDb2dVertex
 10
268.986052
 20
230.093894
 30
0.0
  0
VERTEX
  5
3A3
330
396
100
AcDbEntity
  8
002
 62
     3
370
     9
100
AcDbVertex
100
AcDb2dVertex
 10
271.069385
 20
228.612413
 30
0.0
  0
VERTEX
  5
3A4
330
396
100
AcDbEntity
  8
002
 62
     3
370
     9
100
AcDbVertex
100
AcDb2dVertex
 10
273.152719
 20
226.686487
 30
0.0
  0
SEQEND
  5
397
330
396
100
AcDbEntity
  8
002
370
     9
  0
LINE
  5
3A5
330
1F
100
AcDbEntity
  8
002
 62
    40
370
     9
100
AcDbLine
 10
250.902719
 20
176.738104
 30
0.0
 11
250.902719
 21
216.216855
 31
0.0
  0
LINE
  5
3A6
330
1F
100
AcDbEntity
  8
002
 62
    40
370
     9
100
AcDbLine
 10
250.902719
 20
224.216855
 30
0.0
 11
250.902719
 21
268.63487
 31
0.0
  0
LINE
  5
3A7
330
1F
100
AcDbEntity
  8
002
 62
     3
370
    30
100
AcDbLine
 10
248.152719
 20
176.738104
 30
0.0
 11
248.152719
 21
218.686487
 31
0.0
  0
LINE
  5
3A8
330
1F
100
AcDbEntity
  8
002
 62
     3
370
    30
100
AcDbLine
 10
248.152719
 20
226.686487
 30
0.0
 11
248.152719
 21
268.63487
 31
0.0
  0
LINE
  5
3A9
330
1F
100
AcDbEntity
  8
002
 62
    40
370
     9
100
AcDbLine
 10
270.402719
 20
268.63487
 30
0.0
 11
270.402719
 21
229.156119
 31
0.0
  0
LINE
  5
3AA
330
1F
100
AcDbEntity
  8
002
 62
    40
370
     9
100
AcDbLine
 10
270.402719
 20
221.156119
 30
0.0
 11
270.402719
 21
176.738104
 31
0.0
  0
LINE
  5
3AB
330
1F
100
AcDbEntity
  8
002
 62
     3
370
    30
100
AcDbLine
 10
273.152719
 20
268.63487
 30
0.0
 11
273.152719
 21
226.686487
 31
0.0
  0
LINE
  5
3AC
330
1F
100
AcDbEntity
  8
002
 62
     3
370
    30
100
AcDbLine
 10
273.152719
 20
218.686487
 30
0.0
 11
273.152719
 21
176.738104
 31
0.0
  0
POLYLINE
  5
3AD
330
1F
100
AcDbEntity
  8
002
 62
     3
370
     9
100
AcDb2dPolyline
 66
     1
 10
0.0
 20
0.0
 30
0.0
  0
VERTEX
  5
3AF
330
3AD
100
AcDbEntity
  8
002
 62
     3
370
     9
100
AcDbVertex
100
AcDb2dVertex
 10
437.747742
 20
218.686487
 30
0.0
  0
VERTEX
  5
3B0
330
3AD
100
AcDbEntity
  8
002
 62
     3
370
     9
100
AcDbVertex
100
AcDb2dVertex
 10
439.831076
 20
216.760561
 30
0.0
  0
VERTEX
  5
3B1
330
3AD
100
AcDbEntity
  8
002
 62
     3
370
     9
100
AcDbVertex
100
AcDb2dVertex
 10
441.914409
 20
215.279079
 30
0.0
  0
VERTEX
  5
3B2
330
3AD
100
AcDbEntity
  8
002
 62
     3
370
     9
100
AcDbVertex
100
AcDb2dVertex
 10
443.997742
 20
214.686487
 30
0.0
  0
VERTEX
  5
3B3
330
3AD
100
AcDbEntity
  8
002
 62
     3
370
     9
100
AcDbVertex
100
AcDb2dVertex
 10
446.081076
 20
215.279079
 30
0.0
  0
VERTEX
  5
3B4
330
3AD
100
AcDbEntity
  8
002
 62
     3
370
     9
100
AcDbVertex
100
AcDb2dVertex
 10
448.164409
 20
216.760561
 30
0.0
  0
VERTEX
  5
3B5
330
3AD
100
AcDbEntity
  8
002
 62
     3
370
     9
100
AcDbVertex
100
AcDb2dVertex
 10
450.247742
 20
218.686487
 30
0.0
  0
VERTEX
  5
3B6
330
3AD
100
AcDbEntity
  8
002
 62
     3
370
     9
100
AcDbVertex
100
AcDb2dVertex
 10
452.331076
 20
220.612413
 30
0.0
  0
VERTEX
  5
3B7
330
3AD
100
AcDbEntity
  8
002
 62
     3
370
     9
100
AcDbVertex
100
AcDb2dVertex
 10
454.414409
 20
222.093894
 30
0.0
  0
VERTEX
  5
3B8
330
3AD
100
AcDbEntity
  8
002
 62
     3
370
     9
100
AcDbVertex
100
AcDb2dVertex
 10
456.497742
 20
222.686487
 30
0.0
  0
VERTEX
  5
3B9
330
3AD
100
AcDbEntity
  8
002
 62
     3
370
     9
100
AcDbVertex
100
AcDb2dVertex
 10
458.581076
 20
222.093894
 30
0.0
  0
VERTEX
  5
3BA
330
3AD
100
AcDbEntity
  8
002
 62
     3
370
     9
100
AcDbVertex
100
AcDb2dVertex
 10
460.664409
 20
220.612413
 30
0.0
  0
VERTEX
  5
3BB
330
3AD
100
AcDbEntity
  8
002
 62
     3
370
     9
100
AcDbVertex
100
AcDb2dVertex
 10
462.747742
 20
218.686487
 30
0.0
  0
SEQEND
  5
3AE
330
3AD
100
AcDbEntity
  8
002
370
     9
  0
POLYLINE
  5
3BC
330
1F
100
AcDbEntity
  8
002
 62
     3
370
     9
100
AcDb2dPolyline
 66
     1
 10
0.0
 20
0.0
 30
0.0
  0
VERTEX
  5
3BE
330
3BC
100
AcDbEntity
  8
002
 62
     3
370
     9
100
AcDbVertex
100
AcDb2dVertex
 10
437.747742
 20
226.686487
 30
0.0
  0
VERTEX
  5
3BF
330
3BC
100
AcDbEntity
  8
002
 62
     3
370
     9
100
AcDbVertex
100
AcDb2dVertex
 10
439.831076
 20
224.760561
 30
0.0
  0
VERTEX
  5
3C0
330
3BC
100
AcDbEntity
  8
002
 62
     3
370
     9
100
AcDbVertex
100
AcDb2dVertex
 10
441.914409
 20
223.279079
 30
0.0
  0
VERTEX
  5
3C1
330
3BC
100
AcDbEntity
  8
002
 62
     3
370
     9
100
AcDbVertex
100
AcDb2dVertex
 10
443.997742
 20
222.686487
 30
0.0
  0
VERTEX
  5
3C2
330
3BC
100
AcDbEntity
  8
002
 62
     3
370
     9
100
AcDbVertex
100
AcDb2dVertex
 10
446.081076
 20
223.279079
 30
0.0
  0
VERTEX
  5
3C3
330
3BC
100
AcDbEntity
  8
002
 62
     3
370
     9
100
AcDbVertex
100
AcDb2dVertex
 10
448.164409
 20
224.760561
 30
0.0
  0
VERTEX
  5
3C4
330
3BC
100
AcDbEntity
  8
002
 62
     3
370
     9
100
AcDbVertex
100
AcDb2dVertex
 10
450.247742
 20
226.686487
 30
0.0
  0
VERTEX
  5
3C5
330
3BC
100
AcDbEntity
  8
002
 62
     3
370
     9
100
AcDbVertex
100
AcDb2dVertex
 10
452.331076
 20
228.612413
 30
0.0
  0
VERTEX
  5
3C6
330
3BC
100
AcDbEntity
  8
002
 62
     3
370
     9
100
AcDbVertex
100
AcDb2dVertex
 10
454.414409
 20
230.093894
 30
0.0
  0
VERTEX
  5
3C7
330
3BC
100
AcDbEntity
  8
002
 62
     3
370
     9
100
AcDbVertex
100
AcDb2dVertex
 10
456.497742
 20
230.686487
 30
0.0
  0
VERTEX
  5
3C8
330
3BC
100
AcDbEntity
  8
002
 62
     3
370
     9
100
AcDbVertex
100
AcDb2dVertex
 10
458.581076
 20
230.093894
 30
0.0
  0
VERTEX
  5
3C9
330
3BC
100
AcDbEntity
  8
002
 62
     3
370
     9
100
AcDbVertex
100
AcDb2dVertex
 10
460.664409
 20
228.612413
 30
0.0
  0
VERTEX
  5
3CA
330
3BC
100
AcDbEntity
  8
002
 62
     3
370
     9
100
AcDbVertex
100
AcDb2dVertex
 10
462.747742
 20
226.686487
 30
0.0
  0
SEQEND
  5
3BD
330
3BC
100
AcDbEntity
  8
002
370
     9
  0
LINE
  5
3CB
330
1F
100
AcDbEntity
  8
002
 62
    40
370
     9
100
AcDbLine
 10
440.497742
 20
176.738104
 30
0.0
 11
440.497742
 21
216.216855
 31
0.0
  0
LINE
  5
3CC
330
1F
100
AcDbEntity
  8
002
 62
    40
370
     9
100
AcDbLine
 10
440.497742
 20
224.216855
 30
0.0
 11
440.497742
 21
268.63487
 31
0.0
  0
LINE
  5
3CD
330
1F
100
AcDbEntity
  8
002
 62
     3
370
    30
100
AcDbLine
 10
437.747742
 20
176.738104
 30
0.0
 11
437.747742
 21
218.686487
 31
0.0
  0
LINE
  5
3CE
330
1F
100
AcDbEntity
  8
002
 62
     3
370
    30
100
AcDbLine
 10
437.747742
 20
226.686487
 30
0.0
 11
437.747742
 21
268.63487
 31
0.0
  0
LINE
  5
3CF
330
1F
100
AcDbEntity
  8
002
 62
    40
370
     9
100
AcDbLine
 10
459.997742
 20
268.63487
 30
0.0
 11
459.997742
 21
229.156119
 31
0.0
  0
LINE
  5
3D0
330
1F
100
AcDbEntity
  8
002
 62
    40
370
     9
100
AcDbLine
 10
459.997742
 20
221.156119
 30
0.0
 11
459.997742
 21
176.738104
 31
0.0
  0
LINE
  5
3D1
330
1F
100
AcDbEntity
  8
002
 62
     3
370
    30
100
AcDbLine
 10
462.747742
 20
268.63487
 30
0.0
 11
462.747742
 21
226.686487
 31
0.0
  0
LINE
  5
3D2
330
1F
100
AcDbEntity
  8
002
 62
     3
370
    30
100
AcDbLine
 10
462.747742
 20
218.686487
 30
0.0
 11
462.747742
 21
176.738104
 31
0.0
  0
POLYLINE
  5
3D3
330
1F
100
AcDbEntity
  8
002
 62
     3
370
     9
100
AcDb2dPolyline
 66
     1
 10
0.0
 20
0.0
 30
0.0
  0
VERTEX
  5
3D5
330
3D3
100
AcDbEntity
  8
002
 62
     3
370
     9
100
AcDbVertex
100
AcDb2dVertex
 10
615.693136
 20
295.427501
 30
0.0
  0
VERTEX
  5
3D6
330
3D3
100
AcDbEntity
  8
002
 62
     3
370
     9
100
AcDbVertex
100
AcDb2dVertex
 10
617.776469
 20
293.501575
 30
0.0
  0
VERTEX
  5
3D7
330
3D3
100
AcDbEntity
  8
002
 62
     3
370
     9
100
AcDbVertex
100
AcDb2dVertex
 10
619.859802
 20
292.020094
 30
0.0
  0
VERTEX
  5
3D8
330
3D3
100
AcDbEntity
  8
002
 62
     3
370
     9
100
AcDbVertex
100
AcDb2dVertex
 10
621.943136
 20
291.427501
 30
0.0
  0
VERTEX
  5
3D9
330
3D3
100
AcDbEntity
  8
002
 62
     3
370
     9
100
AcDbVertex
100
AcDb2dVertex
 10
624.026469
 20
292.020094
 30
0.0
  0
VERTEX
  5
3DA
330
3D3
100
AcDbEntity
  8
002
 62
     3
370
     9
100
AcDbVertex
100
AcDb2dVertex
 10
626.109802
 20
293.501575
 30
0.0
  0
VERTEX
  5
3DB
330
3D3
100
AcDbEntity
  8
002
 62
     3
370
     9
100
AcDbVertex
100
AcDb2dVertex
 10
628.193136
 20
295.427501
 30
0.0
  0
VERTEX
  5
3DC
330
3D3
100
AcDbEntity
  8
002
 62
     3
370
     9
100
AcDbVertex
100
AcDb2dVertex
 10
630.276469
 20
297.353427
 30
0.0
  0
VERTEX
  5
3DD
330
3D3
100
AcDbEntity
  8
002
 62
     3
370
     9
100
AcDbVertex
100
AcDb2dVertex
 10
632.359802
 20
298.834908
 30
0.0
  0
VERTEX
  5
3DE
330
3D3
100
AcDbEntity
  8
002
 62
     3
370
     9
100
AcDbVertex
100
AcDb2dVertex
 10
634.443136
 20
299.427501
 30
0.0
  0
VERTEX
  5
3DF
330
3D3
100
AcDbEntity
  8
002
 62
     3
370
     9
100
AcDbVertex
100
AcDb2dVertex
 10
636.526469
 20
298.834908
 30
0.0
  0
VERTEX
  5
3E0
330
3D3
100
AcDbEntity
  8
002
 62
     3
370
     9
100
AcDbVertex
100
AcDb2dVertex
 10
638.609802
 20
297.353427
 30
0.0
  0
VERTEX
  5
3E1
330
3D3
100
AcDbEntity
  8
002
 62
     3
370
     9
100
AcDbVertex
100
AcDb2dVertex
 10
640.693136
 20
295.427501
 30
0.0
  0
SEQEND
  5
3D4
330
3D3
100
AcDbEntity
  8
002
370
     9
  0
POLYLINE
  5
3E2
330
1F
100
AcDbEntity
  8
002
 62
     3
370
     9
100
AcDb2dPolyline
 66
     1
 10
0.0
 20
0.0
 30
0.0
  0
VERTEX
  5
3E4
330
3E2
100
AcDbEntity
  8
002
 62
     3
370
     9
100
AcDbVertex
100
AcDb2dVertex
 10
615.693136
 20
303.427501
 30
0.0
  0
VERTEX
  5
3E5
330
3E2
100
AcDbEntity
  8
002
 62
     3
370
     9
100
AcDbVertex
100
AcDb2dVertex
 10
617.776469
 20
301.501575
 30
0.0
  0
VERTEX
  5
3E6
330
3E2
100
AcDbEntity
  8
002
 62
     3
370
     9
100
AcDbVertex
100
AcDb2dVertex
 10
619.859802
 20
300.020094
 30
0.0
  0
VERTEX
  5
3E7
330
3E2
100
AcDbEntity
  8
002
 62
     3
370
     9
100
AcDbVertex
100
AcDb2dVertex
 10
621.943136
 20
299.427501
 30
0.0
  0
VERTEX
  5
3E8
330
3E2
100
AcDbEntity
  8
002
 62
     3
370
     9
100
AcDbVertex
100
AcDb2dVertex
 10
624.026469
 20
300.020094
 30
0.0
  0
VERTEX
  5
3E9
330
3E2
100
AcDbEntity
  8
002
 62
     3
370
     9
100
AcDbVertex
100
AcDb2dVertex
 10
626.109802
 20
301.501575
 30
0.0
  0
VERTEX
  5
3EA
330
3E2
100
AcDbEntity
  8
002
 62
     3
370
     9
100
AcDbVertex
100
AcDb2dVertex
 10
628.193136
 20
303.427501
 30
0.0
  0
VERTEX
  5
3EB
330
3E2
100
AcDbEntity
  8
002
 62
     3
370
     9
100
AcDbVertex
100
AcDb2dVertex
 10
630.276469
 20
305.353427
 30
0.0
  0
VERTEX
  5
3EC
330
3E2
100
AcDbEntity
  8
002
 62
     3
370
     9
100
AcDbVertex
100
AcDb2dVertex
 10
632.359802
 20
306.834908
 30
0.0
  0
VERTEX
  5
3ED
330
3E2
100
AcDbEntity
  8
002
 62
     3
370
     9
100
AcDbVertex
100
AcDb2dVertex
 10
634.443136
 20
307.427501
 30
0.0
  0
VERTEX
  5
3EE
330
3E2
100
AcDbEntity
  8
002
 62
     3
370
     9
100
AcDbVertex
100
AcDb2dVertex
 10
636.526469
 20
306.834908
 30
0.0
  0
VERTEX
  5
3EF
330
3E2
100
AcDbEntity
  8
002
 62
     3
370
     9
100
AcDbVertex
100
AcDb2dVertex
 10
638.609802
 20
305.353427
 30
0.0
  0
VERTEX
  5
3F0
330
3E2
100
AcDbEntity
  8
002
 62
     3
370
     9
100
AcDbVertex
100
AcDb2dVertex
 10
640.693136
 20
303.427501
 30
0.0
  0
SEQEND
  5
3E3
330
3E2
100
AcDbEntity
  8
002
370
     9
  0
LINE
  5
3F1
330
1F
100
AcDbEntity
  8
002
 62
    40
370
     9
100
AcDbLine
 10
618.443136
 20
345.375884
 30
0.0
 11
618.443136
 21
300.957869
 31
0.0
  0
LINE
  5
3F2
330
1F
100
AcDbEntity
  8
002
 62
    40
370
     9
100
AcDbLine
 10
618.443136
 20
292.957869
 30
0.0
 11
618.443136
 21
253.479118
 31
0.0
  0
LINE
  5
3F3
330
1F
100
AcDbEntity
  8
002
 62
     3
370
    30
100
AcDbLine
 10
615.693136
 20
345.375884
 30
0.0
 11
615.693136
 21
303.427501
 31
0.0
  0
LINE
  5
3F4
330
1F
100
AcDbEntity
  8
002
 62
     3
370
    30
100
AcDbLine
 10
615.693136
 20
295.427501
 30
0.0
 11
615.693136
 21
253.479118
 31
0.0
  0
LINE
  5
3F5
330
1F
100
AcDbEntity
  8
002
 62
     3
370
    30
100
AcDbLine
 10
640.693136
 20
253.479118
 30
0.0
 11
640.693136
 21
295.427501
 31
0.0
  0
LINE
  5
3F6
330
1F
100
AcDbEntity
  8
002
 62
     3
370
    30
100
AcDbLine
 10
640.693136
 20
303.427501
 30
0.0
 11
640.693136
 21
345.375884
 31
0.0
  0
LINE
  5
3F7
330
1F
100
AcDbEntity
  8
002
 62
    40
370
     9
100
AcDbLine
 10
637.943136
 20
253.479118
 30
0.0
 11
637.943136
 21
297.897133
 31
0.0
  0
LINE
  5
3F8
330
1F
100
AcDbEntity
  8
002
 62
    40
370
     9
100
AcDbLine
 10
637.943136
 20
305.897133
 30
0.0
 11
637.943136
 21
345.375884
 31
0.0
  0
POLYLINE
  5
3F9
330
1F
100
AcDbEntity
  8
002
 62
     3
370
     9
100
AcDb2dPolyline
 66
     1
 10
0.0
 20
0.0
 30
0.0
  0
VERTEX
  5
3FB
330
3F9
100
AcDbEntity
  8
002
 62
     3
370
     9
100
AcDbVertex
100
AcDb2dVertex
 10
795.288159
 20
295.427501
 30
0.0
  0
VERTEX
  5
3FC
330
3F9
100
AcDbEntity
  8
002
 62
     3
370
     9
100
AcDbVertex
100
AcDb2dVertex
 10
797.371493
 20
293.501575
 30
0.0
  0
VERTEX
  5
3FD
330
3F9
100
AcDbEntity
  8
002
 62
     3
370
     9
100
AcDbVertex
100
AcDb2dVertex
 10
799.454826
 20
292.020094
 30
0.0
  0
VERTEX
  5
3FE
330
3F9
100
AcDbEntity
  8
002
 62
     3
370
     9
100
AcDbVertex
100
AcDb2dVertex
 10
801.538159
 20
291.427501
 30
0.0
  0
VERTEX
  5
3FF
330
3F9
100
AcDbEntity
  8
002
 62
     3
370
     9
100
AcDbVertex
100
AcDb2dVertex
 10
803.621493
 20
292.020094
 30
0.0
  0
VERTEX
  5
400
330
3F9
100
AcDbEntity
  8
002
 62
     3
370
     9
100
AcDbVertex
100
AcDb2dVertex
 10
805.704826
 20
293.501575
 30
0.0
  0
VERTEX
  5
401
330
3F9
100
AcDbEntity
  8
002
 62
     3
370
     9
100
AcDbVertex
100
AcDb2dVertex
 10
807.788159
 20
295.427501
 30
0.0
  0
VERTEX
  5
402
330
3F9
100
AcDbEntity
  8
002
 62
     3
370
     9
100
AcDbVertex
100
AcDb2dVertex
 10
809.871493
 20
297.353427
 30
0.0
  0
VERTEX
  5
403
330
3F9
100
AcDbEntity
  8
002
 62
     3
370
     9
100
AcDbVertex
100
AcDb2dVertex
 10
811.954826
 20
298.834908
 30
0.0
  0
VERTEX
  5
404
330
3F9
100
AcDbEntity
  8
002
 62
     3
370
     9
100
AcDbVertex
100
AcDb2dVertex
 10
814.038159
 20
299.427501
 30
0.0
  0
VERTEX
  5
405
330
3F9
100
AcDbEntity
  8
002
 62
     3
370
     9
100
AcDbVertex
100
AcDb2dVertex
 10
816.121493
 20
298.834908
 30
0.0
  0
VERTEX
  5
406
330
3F9
100
AcDbEntity
  8
002
 62
     3
370
     9
100
AcDbVertex
100
AcDb2dVertex
 10
818.204826
 20
297.353427
 30
0.0
  0
VERTEX
  5
407
330
3F9
100
AcDbEntity
  8
002
 62
     3
370
     9
100
AcDbVertex
100
AcDb2dVertex
 10
820.288159
 20
295.427501
 30
0.0
  0
SEQEND
  5
3FA
330
3F9
100
AcDbEntity
  8
002
370
     9
  0
POLYLINE
  5
408
330
1F
100
AcDbEntity
  8
002
 62
     3
370
     9
100
AcDb2dPolyline
 66
     1
 10
0.0
 20
0.0
 30
0.0
  0
VERTEX
  5
40A
330
408
100
AcDbEntity
  8
002
 62
     3
370
     9
100
AcDbVertex
100
AcDb2dVertex
 10
795.288159
 20
303.427501
 30
0.0
  0
VERTEX
  5
40B
330
408
100
AcDbEntity
  8
002
 62
     3
370
     9
100
AcDbVertex
100
AcDb2dVertex
 10
797.371493
 20
301.501575
 30
0.0
  0
VERTEX
  5
40C
330
408
100
AcDbEntity
  8
002
 62
     3
370
     9
100
AcDbVertex
100
AcDb2dVertex
 10
799.454826
 20
300.020094
 30
0.0
  0
VERTEX
  5
40D
330
408
100
AcDbEntity
  8
002
 62
     3
370
     9
100
AcDbVertex
100
AcDb2dVertex
 10
801.538159
 20
299.427501
 30
0.0
  0
VERTEX
  5
40E
330
408
100
AcDbEntity
  8
002
 62
     3
370
     9
100
AcDbVertex
100
AcDb2dVertex
 10
803.621493
 20
300.020094
 30
0.0
  0
VERTEX
  5
40F
330
408
100
AcDbEntity
  8
002
 62
     3
370
     9
100
AcDbVertex
100
AcDb2dVertex
 10
805.704826
 20
301.501575
 30
0.0
  0
VERTEX
  5
410
330
408
100
AcDbEntity
  8
002
 62
     3
370
     9
100
AcDbVertex
100
AcDb2dVertex
 10
807.788159
 20
303.427501
 30
0.0
  0
VERTEX
  5
411
330
408
100
AcDbEntity
  8
002
 62
     3
370
     9
100
AcDbVertex
100
AcDb2dVertex
 10
809.871493
 20
305.353427
 30
0.0
  0
VERTEX
  5
412
330
408
100
AcDbEntity
  8
002
 62
     3
370
     9
100
AcDbVertex
100
AcDb2dVertex
 10
811.954826
 20
306.834908
 30
0.0
  0
VERTEX
  5
413
330
408
100
AcDbEntity
  8
002
 62
     3
370
     9
100
AcDbVertex
100
AcDb2dVertex
 10
814.038159
 20
307.427501
 30
0.0
  0
VERTEX
  5
414
330
408
100
AcDbEntity
  8
002
 62
     3
370
     9
100
AcDbVertex
100
AcDb2dVertex
 10
816.121493
 20
306.834908
 30
0.0
  0
VERTEX
  5
415
330
408
100
AcDbEntity
  8
002
 62
     3
370
     9
100
AcDbVertex
100
AcDb2dVertex
 10
818.204826
 20
305.353427
 30
0.0
  0
VERTEX
  5
416
330
408
100
AcDbEntity
  8
002
 62
     3
370
     9
100
AcDbVertex
100
AcDb2dVertex
 10
820.288159
 20
303.427501
 30
0.0
  0
SEQEND
  5
409
330
408
100
AcDbEntity
  8
002
370
     9
  0
LINE
  5
417
330
1F
100
AcDbEntity
  8
002
 62
    40
370
     9
100
AcDbLine
 10
798.038159
 20
345.375884
 30
0.0
 11
798.038159
 21
300.957869
 31
0.0
  0
LINE
  5
418
330
1F
100
AcDbEntity
  8
002
 62
    40
370
     9
100
AcDbLine
 10
798.038159
 20
292.957869
 30
0.0
 11
798.038159
 21
253.479118
 31
0.0
  0
LINE
  5
419
330
1F
100
AcDbEntity
  8
002
 62
     3
370
    30
100
AcDbLine
 10
795.288159
 20
345.375884
 30
0.0
 11
795.288159
 21
303.427501
 31
0.0
  0
LINE
  5
41A
330
1F
100
AcDbEntity
  8
002
 62
     3
370
    30
100
AcDbLine
 10
795.288159
 20
295.427501
 30
0.0
 11
795.288159
 21
253.479118
 31
0.0
  0
LINE
  5
41B
330
1F
100
AcDbEntity
  8
002
 62
     3
370
    30
100
AcDbLine
 10
820.288159
 20
253.479118
 30
0.0
 11
820.288159
 21
295.427501
 31
0.0
  0
LINE
  5
41C
330
1F
100
AcDbEntity
  8
002
 62
     3
370
    30
100
AcDbLine
 10
820.288159
 20
303.427501
 30
0.0
 11
820.288159
 21
345.375884
 31
0.0
  0
LINE
  5
41D
330
1F
100
AcDbEntity
  8
002
 62
    40
370
     9
100
AcDbLine
 10
817.538159
 20
253.479118
 30
0.0
 11
817.538159
 21
297.897133
 31
0.0
  0
LINE
  5
41E
330
1F
100
AcDbEntity
  8
002
 62
    40
370
     9
100
AcDbLine
 10
817.538159
 20
305.897133
 30
0.0
 11
817.538159
 21
345.375884
 31
0.0
  0
LINE
  5
41F
330
1F
100
AcDbEntity
  8
002
  6
CENTER
 62
    40
370
     9
100
AcDbLine
 10
260.652719
 20
478.238104
 30
0.0
 11
260.652719
 21
67.838104
 31
0.0
  0
LINE
  5
420
330
1F
100
AcDbEntity
  8
002
  6
CENTER
 62
    40
370
     9
100
AcDbLine
 10
450.247742
 20
478.238104
 30
0.0
 11
450.247742
 21
67.838104
 31
0.0
  0
LINE
  5
421
330
1F
100
AcDbEntity
  8
002
  6
CENTER
 62
    40
370
     9
100
AcDbLine
 10
628.193136
 20
43.875884
 30
0.0
 11
628.193136
 21
454.275884
 31
0.0
  0
LINE
  5
422
330
1F
100
AcDbEntity
  8
002
  6
CENTER
 62
    40
370
     9
100
AcDbLine
 10
807.788159
 20
43.875884
 30
0.0
 11
807.788159
 21
454.275884
 31
0.0
  0
ENDSEC
  0
SECTION
  2
OBJECTS
  0
DICTIONARY
  5
C
330
0
100
AcDbDictionary
281
     1
  3
ACAD_GROUP
350
D
  3
ACAD_LAYOUT
350
1A
  3
ACAD_MLEADERSTYLE
350
425
  3
ACAD_MLINESTYLE
350
17
  3
ACAD_PLOTSETTINGS
350
19
  3
ACAD_PLOTSTYLENAME
350
E
  3
ACAD_VISUALSTYLE
350
2A
  3
AcDbVariableDictionary
350
423
  0
DICTIONARY
  5
D
102
{ACAD_REACTORS
330
C
102
}
330
C
100
AcDbDictionary
281
     1
  0
DICTIONARY
  5
1A
102
{ACAD_REACTORS
330
C
102
}
330
C
100
AcDbDictionary
281
     1
  3
Layout1
350
1E
  3
Layout2
350
26
  3
Model
350
22
  0
DICTIONARY
  5
425
102
{ACAD_REACTORS
330
C
102
}
330
C
100
AcDbDictionary
281
     1
  0
DICTIONARY
  5
17
102
{ACAD_REACTORS
330
C
102
}
330
C
100
AcDbDictionary
281
     1
  3
Standard
350
18
  0
DICTIONARY
  5
19
102
{ACAD_REACTORS
330
C
102
}
330
C
100
AcDbDictionary
281
     1
  0
ACDBDICTIONARYWDFLT
  5
E
102
{ACAD_REACTORS
330
C
102
}
330
C
100
AcDbDictionary
281
     1
  3
Normal
350
F
100
AcDbDictionaryWithDefault
340
F
  0
DICTIONARY
  5
2A
102
{ACAD_REACTORS
330
C
102
}
330
C
100
AcDbDictionary
281
     1
  3
2dWireframe
350
2F
  3
3D Hidden
350
31
  3
3dWireframe
350
30
  3
Basic
350
32
  3
Brighten
350
36
  3
ColorChange
350
3A
  3
Conceptual
350
34
  3
Dim
350
35
  3
Facepattern
350
39
  3
Flat
350
2B
  3
FlatWithEdges
350
2C
  3
Gouraud
350
2D
  3
GouraudWithEdges
350
2E
  3
Linepattern
350
38
  3
Realistic
350
33
  3
Thicken
350
37
  0
DICTIONARY
  5
423
102
{ACAD_REACTORS
330
C
102
}
330
C
100
AcDbDictionary
281
     1
  3
PSOLHEIGHT
350
427
  3
PSOLWIDTH
350
426
  0
LAYOUT
  5
1E
102
{ACAD_REACTORS
330
1A
102
}
330
1A
100
AcDbPlotSettings
  1

  2
none_device
  4

  6

 40
0.0
 41
0.0
 42
0.0
 43
0.0
 44
0.0
 45
0.0
 46
0.0
 47
0.0
 48
0.0
 49
0.0
140
0.0
141
0.0
142
1.0
143
1.0
 70
   688
 72
     0
 73
     0
 74
     5
  7

 75
    16
147
1.0
148
0.0
149
0.0
100
AcDbLayout
  1
Layout1
 70
     1
 71
     1
 10
0.0
 20
0.0
 11
12.0
 21
9.0
 12
0.0
 22
0.0
 32
0.0
 14
1.000000E+20
 24
1.000000E+20
 34
0.0
 15
-1.000000E+20
 25
-1.000000E+20
 35
0.0
146
0.0
 13
0.0
 23
0.0
 33
0.0
 16
1.0
 26
0.0
 36
0.0
 17
0.0
 27
1.0
 37
0.0
 76
     0
330
1B
  0
LAYOUT
  5
26
102
{ACAD_REACTORS
330
1A
102
}
330
1A
100
AcDbPlotSettings
  1

  2
none_device
  4

  6

 40
0.0
 41
0.0
 42
0.0
 43
0.0
 44
0.0
 45
0.0
 46
0.0
 47
0.0
 48
0.0
 49
0.0
140
0.0
141
0.0
142
1.0
143
1.0
 70
   688
 72
     0
 73
     0
 74
     5
  7

 75
    16
147
1.0
148
0.0
149
0.0
100
AcDbLayout
  1
Layout2
 70
     1
 71
     2
 10
0.0
 20
0.0
 11
0.0
 21
0.0
 12
0.0
 22
0.0
 32
0.0
 14
0.0
 24
0.0
 34
0.0
 15
0.0
 25
0.0
 35
0.0
146
0.0
 13
0.0
 23
0.0
 33
0.0
 16
1.0
 26
0.0
 36
0.0
 17
0.0
 27
1.0
 37
0.0
 76
     0
330
23
  0
LAYOUT
  5
22
102
{ACAD_REACTORS
330
1A
102
}
330
1A
100
AcDbPlotSettings
  1

  2
none_device
  4

  6

 40
0.0
 41
0.0
 42
0.0
 43
0.0
 44
0.0
 45
0.0
 46
0.0
 47
0.0
 48
0.0
 49
0.0
140
0.0
141
0.0
142
1.0
143
1.0
 70
  1712
 72
     0
 73
     0
 74
     0
  7

 75
     0
147
1.0
148
0.0
149
0.0
100
AcDbLayout
  1
Model
 70
     1
 71
     0
 10
0.0
 20
0.0
 11
12.0
 21
9.0
 12
0.0
 22
0.0
 32
0.0
 14
204.093597
 24
43.875854
 34
0.0
 15
890.988525
 25
1111.28772
 35
0.0
146
0.0
 13
0.0
 23
0.0
 33
0.0
 16
1.0
 26
0.0
 36
0.0
 17
0.0
 27
1.0
 37
0.0
 76
     0
330
1F
331
29
  0
MLINESTYLE
  5
18
102
{ACAD_REACTORS
330
17
102
}
330
17
100
AcDbMlineStyle
  2
Standard
 70
     0
  3

 62
   256
 51
90.0
 52
90.0
 71
     2
 49
0.5
 62
   256
  6
BYLAYER
 49
-0.5
 62
   256
  6
BYLAYER
  0
ACDBPLACEHOLDER
  5
F
102
{ACAD_REACTORS
330
E
102
}
330
E
  0
VISUALSTYLE
  5
2F
102
{ACAD_REACTORS
330
2A
102
}
330
2A
100
AcDbVisualStyle
  2
2dWireframe
 70
     4
 71
     0
 72
     2
 73
     0
 90
        0
 40
-0.6
 41
-30.0
 62
     5
 63
     7
 74
     1
 91
        4
 64
     7
 65
   257
 75
     1
175
     1
 42
1.0
 92
        0
 66
   257
 43
1.0
 76
     1
 77
     6
 78
     2
 67
     7
 79
     5
170
     0
171
     0
290
     0
174
     0
 93
        1
 44
0.0
173
     0
291
     0
 45
0.0
1001
ACAD
1000
AcDbSavedByObjectVersion
1070
     0
  0
VISUALSTYLE
  5
31
102
{ACAD_REACTORS
330
2A
102
}
330
2A
100
AcDbVisualStyle
  2
3D Hidden
 70
     6
 71
     1
 72
     2
 73
     2
 90
        0
 40
-0.6
 41
-30.0
 62
     5
 63
     7
 74
     2
 91
        2
 64
     7
 65
   257
 75
     2
175
     1
 42
40.0
 92
        0
 66
   257
 43
1.0
 76
     1
 77
     6
 78
     2
 67
     7
 79
     3
170
     0
171
     0
290
     0
174
     0
 93
        1
 44
0.0
173
     0
291
     0
 45
0.0
1001
ACAD
1000
AcDbSavedByObjectVersion
1070
     0
  0
VISUALSTYLE
  5
30
102
{ACAD_REACTORS
330
2A
102
}
330
2A
100
AcDbVisualStyle
  2
3dWireframe
 70
     5
 71
     0
 72
     2
 73
     0
 90
        0
 40
-0.6
 41
-30.0
 62
     5
 63
     7
 74
     1
 91
        4
 64
     7
 65
   257
 75
     1
175
     1
 42
1.0
 92
        0
 66
   257
 43
1.0
 76
     1
 77
     6
 78
     2
 67
     7
 79
     5
170
     0
171
     0
290
     0
174
     0
 93
        1
 44
0.0
173
     0
291
     0
 45
0.0
1001
ACAD
1000
AcDbSavedByObjectVersion
1070
     0
  0
VISUALSTYLE
  5
32
102
{ACAD_REACTORS
330
2A
102
}
330
2A
100
AcDbVisualStyle
  2
Basic
 70
     7
 71
     1
 72
     0
 73
     1
 90
        0
 40
-0.6
 41
-30.0
 62
     5
 63
     7
 74
     0
 91
        4
 64
     7
 65
   257
 75
     1
175
     1
 42
1.0
 92
        8
 66
     7
 43
1.0
 76
     1
 77
     6
 78
     2
 67
     7
 79
     5
170
     0
171
     0
290
     0
174
     0
 93
        1
 44
0.0
173
     0
291
     1
 45
0.0
1001
ACAD
1000
AcDbSavedByObjectVersion
1070
     0
  0
VISUALSTYLE
  5
36
102
{ACAD_REACTORS
330
2A
102
}
330
2A
100
AcDbVisualStyle
  2
Brighten
 70
    12
 71
     2
 72
     2
 73
     0
 90
        0
 40
-0.6
 41
-30.0
 62
     5
 63
     7
 74
     1
 91
        4
 64
     7
 65
   257
 75
     1
175
     1
 42
1.0
 92
        8
 66
     7
 43
1.0
 76
     1
 77
     6
 78
     2
 67
     7
 79
     5
170
     0
171
     0
290
     0
174
     0
 93
        1
 44
50.0
173
     0
291
     1
 45
0.0
1001
ACAD
1000
AcDbSavedByObjectVersion
1070
     0
  0
VISUALSTYLE
  5
3A
102
{ACAD_REACTORS
330
2A
102
}
330
2A
100
AcDbVisualStyle
  2
ColorChange
 70
    16
 71
     2
 72
     2
 73
     3
 90
        0
 40
-0.6
 41
-30.0
 62
     5
 63
     8
 74
     1
 91
        4
 64
     7
 65
   257
 75
     1
175
     1
 42
1.0
 92
        8
 66
     8
 43
1.0
 76
     1
 77
     6
 78
     2
 67
     7
 79
     5
170
     0
171
     0
290
     0
174
     0
 93
        1
 44
0.0
173
     0
291
     1
 45
0.0
1001
ACAD
1000
AcDbSavedByObjectVersion
1070
     0
  0
VISUALSTYLE
  5
34
102
{ACAD_REACTORS
330
2A
102
}
330
2A
100
AcDbVisualStyle
  2
Conceptual
 70
     9
 71
     3
 72
     2
 73
     0
 90
        0
 40
-0.6
 41
-30.0
 62
     5
 63
     7
 74
     2
 91
        2
 64
     7
 65
   257
 75
     1
175
     1
 42
40.0
 92
        8
 66
     7
 43
1.0
 76
     1
 77
     6
 78
     2
 67
     7
 79
     3
170
     0
171
     0
290
     0
174
     0
 93
        1
 44
0.0
173
     0
291
     0
 45
0.0
1001
ACAD
1000
AcDbSavedByObjectVersion
1070
     0
  0
VISUALSTYLE
  5
35
102
{ACAD_REACTORS
330
2A
102
}
330
2A
100
AcDbVisualStyle
  2
Dim
 70
    11
 71
     2
 72
     2
 73
     0
 90
        0
 40
-0.6
 41
-30.0
 62
     5
 63
     7
 74
     1
 91
        4
 64
     7
 65
   257
 75
     1
175
     1
 42
1.0
 92
        8
 66
     7
 43
1.0
 76
     1
 77
     6
 78
     2
 67
     7
 79
     5
170
     0
171
     0
290
     0
174
     0
 93
        1
 44
-50.0
173
     0
291
     1
 45
0.0
1001
ACAD
1000
AcDbSavedByObjectVersion
1070
     0
  0
VISUALSTYLE
  5
39
102
{ACAD_REACTORS
330
2A
102
}
330
2A
100
AcDbVisualStyle
  2
Facepattern
 70
    15
 71
     2
 72
     2
 73
     0
 90
        0
 40
-0.6
 41
-30.0
 62
     5
 63
     7
 74
     1
 91
        4
 64
     7
 65
   257
 75
     1
175
     1
 42
1.0
 92
        8
 66
     7
 43
1.0
 76
     1
 77
     6
 78
     2
 67
     7
 79
     5
170
     0
171
     0
290
     0
174
     0
 93
        1
 44
0.0
173
     0
291
     1
 45
0.0
1001
ACAD
1000
AcDbSavedByObjectVersion
1070
     0
  0
VISUALSTYLE
  5
2B
102
{ACAD_REACTORS
330
2A
102
}
330
2A
100
AcDbVisualStyle
  2
Flat
 70
     0
 71
     2
 72
     1
 73
     1
 90
        2
 40
-0.6
 41
30.0
 62
     5
 63
     7
 74
     0
 91
        4
 64
     7
 65
   257
 75
     1
175
     1
 42
1.0
 92
        8
 66
     7
 43
1.0
 76
     1
 77
     6
 78
     2
 67
     7
 79
     5
170
     0
171
     0
290
     0
174
     0
 93
       13
 44
0.0
173
     0
291
     1
 45
0.0
1001
ACAD
1000
AcDbSavedByObjectVersion
1070
     0
  0
VISUALSTYLE
  5
2C
102
{ACAD_REACTORS
330
2A
102
}
330
2A
100
AcDbVisualStyle
  2
FlatWithEdges
 70
     1
 71
     2
 72
     1
 73
     1
 90
        2
 40
-0.6
 41
30.0
 62
     5
 63
     7
 74
     1
 91
        4
 64
     7
 65
   257
 75
     1
175
     1
 42
1.0
 92
        0
 66
   257
 43
1.0
 76
     1
 77
     6
 78
     2
 67
     7
 79
     5
170
     0
171
     0
290
     0
174
     0
 93
       13
 44
0.0
173
     0
291
     1
 45
0.0
1001
ACAD
1000
AcDbSavedByObjectVersion
1070
     0
  0
VISUALSTYLE
  5
2D
102
{ACAD_REACTORS
330
2A
102
}
330
2A
100
AcDbVisualStyle
  2
Gouraud
 70
     2
 71
     2
 72
     2
 73
     1
 90
        2
 40
-0.6
 41
30.0
 62
     5
 63
     7
 74
     0
 91
        4
 64
     7
 65
   257
 75
     1
175
     1
 42
1.0
 92
        0
 66
     7
 43
1.0
 76
     1
 77
     6
 78
     2
 67
     7
 79
     5
170
     0
171
     0
290
     0
174
     0
 93
       13
 44
0.0
173
     0
291
     1
 45
0.0
1001
ACAD
1000
AcDbSavedByObjectVersion
1070
     0
  0
VISUALSTYLE
  5
2E
102
{ACAD_REACTORS
330
2A
102
}
330
2A
100
AcDbVisualStyle
  2
GouraudWithEdges
 70
     3
 71
     2
 72
     2
 73
     1
 90
        2
 40
-0.6
 41
30.0
 62
     5
 63
     7
 74
     1
 91
        4
 64
     7
 65
   257
 75
     1
175
     1
 42
1.0
 92
        0
 66
   257
 43
1.0
 76
     1
 77
     6
 78
     2
 67
     7
 79
     5
170
     0
171
     0
290
     0
174
     0
 93
       13
 44
0.0
173
     0
291
     1
 45
0.0
1001
ACAD
1000
AcDbSavedByObjectVersion
1070
     0
  0
VISUALSTYLE
  5
38
102
{ACAD_REACTORS
330
2A
102
}
330
2A
100
AcDbVisualStyle
  2
Linepattern
 70
    14
 71
     2
 72
     2
 73
     0
 90
        0
 40
-0.6
 41
-30.0
 62
     5
 63
     7
 74
     1
 91
        4
 64
     7
 65
   257
 75
     7
175
     7
 42
1.0
 92
        8
 66
     7
 43
1.0
 76
     1
 77
     6
 78
     2
 67
     7
 79
     5
170
     0
171
     0
290
     0
174
     0
 93
        1
 44
0.0
173
     0
291
     1
 45
0.0
1001
ACAD
1000
AcDbSavedByObjectVersion
1070
     0
  0
VISUALSTYLE
  5
33
102
{ACAD_REACTORS
330
2A
102
}
330
2A
100
AcDbVisualStyle
  2
Realistic
 70
     8
 71
     2
 72
     2
 73
     0
 90
        0
 40
-0.6
 41
-30.0
 62
     5
 63
     7
 74
     1
 91
        0
 64
     7
 65
   257
 75
     1
175
     1
 42
1.0
 92
        8
 66
     8
 43
1.0
 76
     1
 77
     6
 78
     2
 67
     7
 79
     5
170
     0
171
     0
290
     0
174
     0
 93
       13
 44
0.0
173
     0
291
     0
 45
0.0
1001
ACAD
1000
AcDbSavedByObjectVersion
1070
     0
  0
VISUALSTYLE
  5
37
102
{ACAD_REACTORS
330
2A
102
}
330
2A
100
AcDbVisualStyle
  2
Thicken
 70
    13
 71
     2
 72
     2
 73
     0
 90
        0
 40
-0.6
 41
-30.0
 62
     5
 63
     7
 74
     1
 91
        4
 64
     7
 65
   257
 75
     1
175
     1
 42
1.0
 92
       12
 66
     7
 43
1.0
 76
     1
 77
     6
 78
     2
 67
     7
 79
     5
170
     0
171
     0
290
     0
174
     0
 93
        1
 44
0.0
173
     0
291
     1
 45
0.0
1001
ACAD
1000
AcDbSavedByObjectVersion
1070
     0
  0
DICTIONARYVAR
  5
427
102
{ACAD_REACTORS
330
423
102
}
330
423
100
DictionaryVariables
280
     0
  1
80.000000
  0
DICTIONARYVAR
  5
426
102
{ACAD_REACTORS
330
423
102
}
330
423
100
DictionaryVariables
280
     0
  1
5.000000
  0
ENDSEC
  0
EOF
