  0
SECTION
  2
HEADER
  9
$ACADVER
  1
AC1009
  9
$DWGCODEPAGE
  3
ansi_932
  9
$INSBASE
 10
0.0
 20
0.0
 30
0.0
  9
$EXTMIN
 10
62.433228
 20
56.809814
 30
0.0
  9
$EXTMAX
 10
1484.89978
 20
726.610657
 30
0.0
  9
$LIMMIN
 10
0.0
 20
0.0
  9
$LIMMAX
 10
12.0
 20
9.0
  9
$ORTHOMODE
 70
     0
  9
$REGENMODE
 70
     1
  9
$FILLMODE
 70
     1
  9
$QTEXTMODE
 70
     0
  9
$MIRRTEXT
 70
     1
  9
$DRAGMODE
 70
     2
  9
$LTSCALE
 40
15.722736
  9
$OSMODE
 70
    37
  9
$ATTMODE
 70
     1
  9
$TEXTSIZE
 40
3.2
  9
$TRACEWID
 40
1.0
  9
$TEXTSTYLE
  7
STANDARD
  9
$CLAYER
  8
0
  9
$CELTYPE
  6
BYLAYER
  9
$CECOLOR
 62
   256
  9
$DIMSCALE
 40
1.0
  9
$DIMASZ
 40
2.5
  9
$DIMEXO
 40
0.625
  9
$DIMDLI
 40
3.75
  9
$DIMRND
 40
0.0
  9
$DIMDLE
 40
0.0
  9
$DIMEXE
 40
1.25
  9
$DIMTP
 40
0.0
  9
$DIMTM
 40
0.0
  9
$DIMTXT
 40
2.5
  9
$DIMCEN
 40
0.09
  9
$DIMTSZ
 40
0.0
  9
$DIMTOL
 70
     0
  9
$DIMLIM
 70
     0
  9
$DIMTIH
 70
     0
  9
$DIMTOH
 70
     0
  9
$DIMSE1
 70
     0
  9
$DIMSE2
 70
     0
  9
$DIMTAD
 70
     0
  9
$DIMZIN
 70
     8
  9
$DIMBLK
  1

  9
$DIMASO
 70
     1
  9
$DIMSHO
 70
     0
  9
$DIMPOST
  1

  9
$DIMAPOST
  1

  9
$DIMALT
 70
     0
  9
$DIMALTD
 70
     3
  9
$DIMALTF
 40
0.03937
  9
$DIMLFAC
 40
1.0
  9
$DIMTOFL
 70
     1
  9
$DIMTVP
 40
0.0
  9
$DIMTIX
 70
     0
  9
$DIMSOXD
 70
     0
  9
$DIMSAH
 70
     0
  9
$DIMBLK1
  1

  9
$DIMBLK2
  1

  9
$DIMSTYLE
  2
ISO-25
  9
$DIMCLRD
 70
     0
  9
$DIMCLRE
 70
     0
  9
$DIMCLRT
 70
     0
  9
$DIMTFAC
 40
1.0
  9
$DIMGAP
 40
0.625
  9
$LUNITS
 70
     2
  9
$LUPREC
 70
     4
  9
$SKETCHINC
 40
1.0
  9
$FILLETRAD
 40
0.0
  9
$AUNITS
 70
     0
  9
$AUPREC
 70
     0
  9
$MENU
  1
acad
  9
$ELEVATION
 40
0.0
  9
$PELEVATION
 40
0.0
  9
$THICKNESS
 40
0.0
  9
$LIMCHECK
 70
     0
  9
$CHAMFERA
 40
10.0
  9
$CHAMFERB
 40
10.0
  9
$SKPOLY
 70
     0
  9
$TDCREATE
 40
2457595.492175891
  9
$TDUPDATE
 40
2457595.492176794
  9
$TDINDWG
 40
0.0000000116
  9
$TDUSRTIMER
 40
0.0000000116
  9
$USRTIMER
 70
     1
  9
$ANGBASE
 50
0.0
  9
$ANGDIR
 70
     0
  9
$PDMODE
 70
     0
  9
$PDSIZE
 40
0.0
  9
$PLINEWID
 40
0.0
  9
$COORDS
 70
     1
  9
$SPLFRAME
 70
     0
  9
$SPLINETYPE
 70
     6
  9
$SPLINESEGS
 70
     8
  9
$ATTDIA
 70
     0
  9
$ATTREQ
 70
     1
  9
$HANDLING
 70
     1
  9
$HANDSEED
  5
82A
  9
$SURFTAB1
 70
     6
  9
$SURFTAB2
 70
     6
  9
$SURFTYPE
 70
     6
  9
$SURFU
 70
     6
  9
$SURFV
 70
     6
  9
$UCSNAME
  2

  9
$UCSORG
 10
0.0
 20
0.0
 30
0.0
  9
$UCSXDIR
 10
1.0
 20
0.0
 30
0.0
  9
$UCSYDIR
 10
0.0
 20
1.0
 30
0.0
  9
$PUCSNAME
  2

  9
$PUCSORG
 10
0.0
 20
0.0
 30
0.0
  9
$PUCSXDIR
 10
1.0
 20
0.0
 30
0.0
  9
$PUCSYDIR
 10
0.0
 20
1.0
 30
0.0
  9
$USERI1
 70
     0
  9
$USERI2
 70
     0
  9
$USERI3
 70
     0
  9
$USERI4
 70
     0
  9
$USERI5
 70
     0
  9
$USERR1
 40
0.0
  9
$USERR2
 40
0.0
  9
$USERR3
 40
0.0
  9
$USERR4
 40
0.0
  9
$USERR5
 40
0.0
  9
$WORLDVIEW
 70
     1
  9
$SHADEDGE
 70
     3
  9
$SHADEDIF
 70
    70
  9
$TILEMODE
 70
     1
  9
$MAXACTVP
 70
    64
  9
$PLIMCHECK
 70
     0
  9
$PEXTMIN
 10
1.000000E+20
 20
1.000000E+20
 30
0.0
  9
$PEXTMAX
 10
-1.000000E+20
 20
-1.000000E+20
 30
0.0
  9
$PLIMMIN
 10
0.0
 20
0.0
  9
$PLIMMAX
 10
12.0
 20
9.0
  9
$UNITMODE
 70
     0
  9
$VISRETAIN
 70
     1
  9
$PLINEGEN
 70
     0
  9
$PSLTSCALE
 70
     1
  0
ENDSEC
  0
SECTION
  2
TABLES
  0
TABLE
  2
VPORT
 70
     1
  0
VPORT
  2
*ACTIVE
 70
     0
 10
0.0
 20
0.0
 11
1.0
 21
1.0
 12
773.666504
 22
391.710236
 13
0.0
 23
0.0
 14
1.0
 24
1.0
 15
0.0
 25
0.0
 16
0.0
 26
0.0
 36
1.0
 17
0.0
 27
0.0
 37
0.0
 40
849.465743
 41
1.691288
 42
50.0
 43
0.0
 44
0.0
 50
0.0
 51
0.0
 71
     0
 72
  1000
 73
     1
 74
     3
 75
     0
 76
     0
 77
     0
 78
     0
  0
ENDTAB
  0
TABLE
  2
LTYPE
 70
     5
  0
LTYPE
  2
CONTINUOUS
 70
     0
  3
Solid line
 72
    65
 73
     0
 40
0.0
  0
LTYPE
  2
DASHED
 70
     0
  3
DASHED
 72
    83
 73
     2
 40
0.75
 49
0.5
 49
-0.25
  0
LTYPE
  2
HIDDEN
 70
     0
  3
HIDDEN
 72
    83
 73
     2
 40
0.375
 49
0.25
 49
-0.125
  0
LTYPE
  2
CENTER
 70
     0
  3
CENTER
 72
    83
 73
     4
 40
2.0
 49
1.25
 49
-0.25
 49
0.25
 49
-0.25
  0
LTYPE
  2
PHANTOM
 70
     0
  3
PHANTOM
 72
    83
 73
     6
 40
2.5
 49
1.25
 49
-0.25
 49
0.25
 49
-0.25
 49
0.25
 49
-0.25
  0
ENDTAB
  0
TABLE
  2
LAYER
 70
     4
  0
LAYER
  2
0
 70
     0
 62
     7
  6
CONTINUOUS
  0
LAYER
  2
001
 70
     0
 62
     7
  6
CONTINUOUS
  0
LAYER
  2
002
 70
     0
 62
     7
  6
CONTINUOUS
  0
LAYER
  2
003
 70
     0
 62
     7
  6
CONTINUOUS
  0
ENDTAB
  0
TABLE
  2
STYLE
 70
     2
  0
STYLE
  2
STANDARD
 70
     0
 40
0.0
 41
1.0
 50
0.0
 71
     0
 42
0.2
  3
TXT
  4
BIGFONT
  0
STYLE
  2
TATEGAKI
 70
     4
 40
1.0
 41
1.0
 50
0.0
 71
     0
 42
0.2
  3
TXT
  4
BIGFONT
  0
ENDTAB
  0
TABLE
  2
VIEW
 70
     0
  0
ENDTAB
  0
TABLE
  2
UCS
 70
     0
  0
ENDTAB
  0
TABLE
  2
APPID
 70
     1
  0
APPID
  2
ACAD
 70
     0
  0
ENDTAB
  0
TABLE
  2
DIMSTYLE
 70
     2
  0
DIMSTYLE
  2
ISO-25
 70
     0
  3

  4

  5

  6

  7

 40
1.0
 41
2.5
 42
0.625
 43
3.75
 44
1.25
 45
0.0
 46
0.0
 47
0.0
 48
0.0
140
2.5
141
2.5
142
0.0
143
0.03937
144
1.0
145
0.0
146
1.0
147
0.625
 71
     0
 72
     0
 73
     0
 74
     0
 75
     0
 76
     0
 77
     1
 78
     8
170
     0
171
     3
172
     1
173
     0
174
     0
175
     0
176
     0
177
     0
178
     0
  0
DIMSTYLE
  2
STANDARD
 70
     0
  3

  4

  5

  6

  7

 40
1.0
 41
3.0
 42
0.5
 43
0.38
 44
0.7
 45
0.0
 46
0.0
 47
0.0
 48
0.0
140
4.0
141
0.09
142
0.0
143
25.4
144
1.0
145
0.0
146
0.65
147
1.0
 71
     0
 72
     0
 73
     0
 74
     0
 75
     0
 76
     0
 77
     1
 78
     8
170
     0
171
     2
172
     1
173
     0
174
     0
175
     0
176
     0
177
     0
178
     0
  0
ENDTAB
  0
ENDSEC
  0
SECTION
  2
BLOCKS
  0
BLOCK
  8
0
  2
$MODEL_SPACE
 70
     0
 10
0.0
 20
0.0
 30
0.0
  3
$MODEL_SPACE
  1

  0
ENDBLK
  5
21
  8
0
  0
BLOCK
 67
     1
  8
0
  2
$PAPER_SPACE
 70
     0
 10
0.0
 20
0.0
 30
0.0
  3
$PAPER_SPACE
  1

  0
ENDBLK
  5
1D
 67
     1
  8
0
  0
BLOCK
  8
0
  2
JZB-1
 70
     0
 10
0.0
 20
0.0
 30
0.0
  3
JZB-1
  1

  0
CIRCLE
  5
4B
  8
003
 62
     3
 10
223.805853
 20
525.631462
 30
0.0
 40
3.5
  0
ENDBLK
  5
4A
  8
0
  0
BLOCK
  8
0
  2
JZB-2
 70
     0
 10
0.0
 20
0.0
 30
0.0
  3
JZB-2
  1

  0
CIRCLE
  5
4F
  8
003
 62
     3
 10
223.805853
 20
475.631462
 30
0.0
 40
3.5
  0
ENDBLK
  5
4E
  8
0
  0
BLOCK
  8
0
  2
JZB-3
 70
     0
 10
0.0
 20
0.0
 30
0.0
  3
JZB-3
  1

  0
CIRCLE
  5
53
  8
003
 62
     3
 10
298.805853
 20
525.631462
 30
0.0
 40
3.5
  0
ENDBLK
  5
52
  8
0
  0
BLOCK
  8
0
  2
JZB-4
 70
     0
 10
0.0
 20
0.0
 30
0.0
  3
JZB-4
  1

  0
CIRCLE
  5
57
  8
003
 62
     3
 10
298.805853
 20
475.631462
 30
0.0
 40
3.5
  0
ENDBLK
  5
56
  8
0
  0
BLOCK
  8
0
  2
JZB-5
 70
     0
 10
0.0
 20
0.0
 30
0.0
  3
JZB-5
  1

  0
LINE
  5
5B
  8
002
 62
     3
 10
289.805853
 20
495.131462
 30
0.0
 11
293.805853
 21
506.131462
 31
0.0
  0
LINE
  5
5C
  8
002
 62
     3
 10
293.139186
 20
505.464795
 30
0.0
 11
289.139186
 21
498.798129
 31
0.0
  0
LINE
  5
5D
  8
002
 62
     3
 10
293.805853
 20
506.131462
 30
0.0
 11
286.47252
 21
506.131462
 31
0.0
  0
LINE
  5
5E
  8
002
 62
     3
 10
289.805853
 20
505.464795
 30
0.0
 11
293.139186
 21
505.464795
 31
0.0
  0
LINE
  5
5F
  8
002
 62
     3
 10
289.139186
 20
500.798129
 30
0.0
 11
289.805853
 21
505.464795
 31
0.0
  0
LINE
  5
60
  8
002
 62
     3
 10
287.805853
 20
500.798129
 30
0.0
 11
289.139186
 21
500.798129
 31
0.0
  0
LINE
  5
61
  8
002
 62
     3
 10
286.47252
 20
506.131462
 30
0.0
 11
287.805853
 21
500.798129
 31
0.0
  0
LINE
  5
62
  8
002
 62
     3
 10
286.47252
 20
498.798129
 30
0.0
 11
281.805853
 21
506.131462
 31
0.0
  0
LINE
  5
63
  8
002
 62
     3
 10
289.139186
 20
498.798129
 30
0.0
 11
286.47252
 21
498.798129
 31
0.0
  0
LINE
  5
64
  8
002
 62
     3
 10
281.805853
 20
506.131462
 30
0.0
 11
285.805853
 21
495.131462
 31
0.0
  0
LINE
  5
65
  8
002
 62
     3
 10
285.805853
 20
495.131462
 30
0.0
 11
289.805853
 21
495.131462
 31
0.0
  0
ENDBLK
  5
5A
  8
0
  0
BLOCK
  8
0
  2
JZB-6
 70
     0
 10
0.0
 20
0.0
 30
0.0
  3
JZB-6
  1

  0
CIRCLE
  5
69
  8
003
 62
     3
 10
1035.886782
 20
525.631462
 30
0.0
 40
3.5
  0
ENDBLK
  5
68
  8
0
  0
BLOCK
  8
0
  2
JZB-7
 70
     0
 10
0.0
 20
0.0
 30
0.0
  3
JZB-7
  1

  0
CIRCLE
  5
6D
  8
003
 62
     3
 10
1035.886782
 20
475.631462
 30
0.0
 40
3.5
  0
ENDBLK
  5
6C
  8
0
  0
BLOCK
  8
0
  2
JZB-8
 70
     0
 10
0.0
 20
0.0
 30
0.0
  3
JZB-8
  1

  0
CIRCLE
  5
71
  8
003
 62
     3
 10
1110.886782
 20
525.631462
 30
0.0
 40
3.5
  0
ENDBLK
  5
70
  8
0
  0
BLOCK
  8
0
  2
JZB-9
 70
     0
 10
0.0
 20
0.0
 30
0.0
  3
JZB-9
  1

  0
CIRCLE
  5
75
  8
003
 62
     3
 10
1110.886782
 20
475.631462
 30
0.0
 40
3.5
  0
ENDBLK
  5
74
  8
0
  0
BLOCK
  8
0
  2
JZB-10
 70
     0
 10
0.0
 20
0.0
 30
0.0
  3
JZB-10
  1

  0
LINE
  5
79
  8
002
  6
CENTER
 62
    40
 10
1099.886782
 20
494.794664
 30
0.0
 11
1099.886782
 21
506.46826
 31
0.0
  0
ENDBLK
  5
78
  8
0
  0
ENDSEC
  0
SECTION
  2
ENTITIES
  0
INSERT
  5
7A
  8
003
  6
BYBLOCK
 62
     0
  2
JZB-1
 10
0.0
 20
0.0
 30
0.0
  0
INSERT
  5
7B
  8
003
  6
BYBLOCK
 62
     0
  2
JZB-2
 10
0.0
 20
0.0
 30
0.0
  0
INSERT
  5
7C
  8
003
  6
BYBLOCK
 62
     0
  2
JZB-3
 10
0.0
 20
0.0
 30
0.0
  0
INSERT
  5
7D
  8
003
  6
BYBLOCK
 62
     0
  2
JZB-4
 10
0.0
 20
0.0
 30
0.0
  0
INSERT
  5
7E
  8
002
  6
BYBLOCK
 62
     0
  2
JZB-5
 10
0.0
 20
0.0
 30
0.0
  0
INSERT
  5
7F
  8
003
  6
BYBLOCK
 62
     0
  2
JZB-6
 10
0.0
 20
0.0
 30
0.0
  0
INSERT
  5
80
  8
003
  6
BYBLOCK
 62
     0
  2
JZB-7
 10
0.0
 20
0.0
 30
0.0
  0
INSERT
  5
81
  8
003
  6
BYBLOCK
 62
     0
  2
JZB-8
 10
0.0
 20
0.0
 30
0.0
  0
INSERT
  5
82
  8
003
  6
BYBLOCK
 62
     0
  2
JZB-9
 10
0.0
 20
0.0
 30
0.0
  0
INSERT
  5
83
  8
002
  6
BYBLOCK
 62
     0
  2
JZB-10
 10
0.0
 20
0.0
 30
0.0
  0
CIRCLE
  5
84
  8
002
 62
     3
 10
276.805853
 20
389.800162
 30
0.0
 40
6.0
  0
LINE
  5
85
  8
002
 62
     3
 10
273.489153
 20
394.800162
 30
0.0
 11
280.122453
 21
394.800162
 31
0.0
  0
LINE
  5
86
  8
002
  6
CENTER
 62
    40
 10
276.805853
 20
398.953262
 30
0.0
 11
276.805853
 21
379.655762
 31
0.0
  0
LINE
  5
87
  8
002
  6
CENTER
 62
    40
 10
267.654053
 20
389.800162
 30
0.0
 11
285.965453
 21
389.800162
 31
0.0
  0
LINE
  5
88
  8
002
 62
     3
 10
242.805853
 20
325.516651
 30
0.0
 11
242.805853
 21
340.516651
 31
0.0
  0
LINE
  5
89
  8
002
 62
     3
 10
242.805853
 20
340.516651
 30
0.0
 11
254.805853
 21
340.516651
 31
0.0
  0
LINE
  5
8A
  8
002
 62
     3
 10
254.805853
 20
340.516651
 30
0.0
 11
254.805853
 21
325.516651
 31
0.0
  0
LINE
  5
8B
  8
002
 62
    40
 10
243.617853
 20
325.516651
 30
0.0
 11
243.617853
 21
340.516651
 31
0.0
  0
LINE
  5
8C
  8
002
 62
    40
 10
253.993853
 20
340.516651
 30
0.0
 11
253.993853
 21
325.516651
 31
0.0
  0
LINE
  5
8D
  8
002
  6
CENTER
 62
    40
 10
248.805853
 20
464.631462
 30
0.0
 11
248.805853
 21
536.631462
 31
0.0
  0
LINE
  5
8E
  8
002
 62
     3
 10
256.805853
 20
325.516651
 30
0.0
 11
240.805853
 21
325.516651
 31
0.0
  0
ARC
  5
8F
  8
002
 62
     3
 10
225.305753
 20
184.516651
 30
0.0
 40
1.0
 50
90.0
 51
180.0
  0
LINE
  5
90
  8
002
 62
     3
 10
224.305753
 20
184.516651
 30
0.0
 11
224.305753
 21
172.516651
 31
0.0
  0
LINE
  5
91
  8
002
 62
     3
 10
223.805753
 20
172.516651
 30
0.0
 11
273.805853
 21
172.516651
 31
0.0
  0
LINE
  5
92
  8
002
 62
     3
 10
273.805853
 20
172.516651
 30
0.0
 11
273.805853
 21
166.516651
 31
0.0
  0
LINE
  5
93
  8
002
 62
     3
 10
272.805853
 20
165.516651
 30
0.0
 11
224.805753
 21
165.516651
 31
0.0
  0
LINE
  5
94
  8
002
 62
     3
 10
224.310753
 20
165.647751
 30
0.0
 11
224.310753
 21
170.516651
 31
0.0
  0
LINE
  5
95
  8
002
 62
     3
 10
224.310753
 20
170.516651
 30
0.0
 11
223.805753
 21
170.516651
 31
0.0
  0
LINE
  5
96
  8
002
 62
     3
 10
223.805753
 20
170.516651
 30
0.0
 11
223.805753
 21
172.516651
 31
0.0
  0
ARC
  5
97
  8
002
 62
     3
 10
224.805753
 20
166.516651
 30
0.0
 40
1.0
 50
240.330449
 51
270.0
  0
LINE
  5
98
  8
002
 62
     3
 10
233.805753
 20
80.516651
 30
0.0
 11
263.805853
 21
80.516651
 31
0.0
  0
LINE
  5
99
  8
002
 62
     3
 10
263.805853
 20
80.516651
 30
0.0
 11
263.805853
 21
63.516651
 31
0.0
  0
LINE
  5
9A
  8
002
 62
     3
 10
260.805853
 20
60.516651
 30
0.0
 11
236.805853
 21
60.516651
 31
0.0
  0
LINE
  5
9B
  8
002
 62
     3
 10
233.805753
 20
63.516651
 30
0.0
 11
233.805753
 21
80.516651
 31
0.0
  0
ARC
  5
9C
  8
002
 62
     3
 10
236.805853
 20
63.516651
 30
0.0
 40
3.0
 50
180.0
 51
270.0
  0
ARC
  5
9D
  8
002
 62
     3
 10
260.805853
 20
63.516651
 30
0.0
 40
3.0
 50
270.0
 51
0.0
  0
LINE
  5
9E
  8
002
 62
     3
 10
261.911253
 20
165.516651
 30
0.0
 11
262.430853
 21
165.816651
 31
0.0
  0
LINE
  5
9F
  8
002
 62
     3
 10
262.430853
 20
165.816651
 30
0.0
 11
256.723253
 21
165.816651
 31
0.0
  0
LINE
  5
A0
  8
002
 62
     3
 10
256.723253
 20
165.516651
 30
0.0
 11
256.723253
 21
170.516651
 31
0.0
  0
LINE
  5
A1
  8
002
 62
     3
 10
256.723253
 20
170.516651
 30
0.0
 11
265.383453
 21
170.516651
 31
0.0
  0
LINE
  5
A2
  8
002
 62
     3
 10
265.383453
 20
170.516651
 30
0.0
 11
265.383453
 21
165.516651
 31
0.0
  0
LINE
  5
A3
  8
002
 62
     3
 10
262.430853
 20
165.816651
 30
0.0
 11
262.430853
 21
170.516651
 31
0.0
  0
LINE
  5
A4
  8
002
 62
     3
 10
273.305853
 20
172.516651
 30
0.0
 11
273.305853
 21
184.516651
 31
0.0
  0
ARC
  5
A5
  8
002
 62
     3
 10
272.305853
 20
184.516651
 30
0.0
 40
1.0
 50
0.0
 51
90.0
  0
ARC
  5
A6
  8
002
 62
     3
 10
272.805853
 20
166.516651
 30
0.0
 40
1.0
 50
270.0
 51
0.0
  0
LINE
  5
A7
  8
002
 62
     3
 10
256.805853
 20
310.516651
 30
0.0
 11
240.805853
 21
310.516651
 31
0.0
  0
LINE
  5
A8
  8
002
  6
CENTER
 62
    40
 10
248.805853
 20
56.809814
 30
0.0
 11
248.805853
 21
345.51239
 31
0.0
  0
LINE
  5
A9
  8
002
  6
CENTER
 62
    40
 10
209.378753
 20
213.016651
 30
0.0
 11
311.818753
 21
213.016651
 31
0.0
  0
LINE
  5
AA
  8
002
 62
     3
 10
811.994471
 20
582.805187
 30
0.0
 11
795.994471
 21
582.805187
 31
0.0
  0
CIRCLE
  5
AB
  8
002
 62
     3
 10
783.994471
 20
698.319348
 30
0.0
 40
2.75
  0
CIRCLE
  5
AC
  8
002
 62
     3
 10
803.994471
 20
698.319348
 30
0.0
 40
5.188
  0
CIRCLE
  5
AD
  8
002
 62
     3
 10
823.994471
 20
698.319348
 30
0.0
 40
2.75
  0
CIRCLE
  5
AE
  8
002
 62
     3
 10
803.994471
 20
698.319348
 30
0.0
 40
25.0
  0
CIRCLE
  5
AF
  8
002
 62
     3
 10
803.994471
 20
718.319348
 30
0.0
 40
2.75
  0
CIRCLE
  5
B0
  8
002
 62
     3
 10
803.994471
 20
678.319348
 30
0.0
 40
2.75
  0
LINE
  5
B1
  8
002
  6
CENTER
 62
    40
 10
832.4866
 20
698.319348
 30
0.0
 11
774.583325
 21
698.319348
 31
0.0
  0
CIRCLE
  5
B2
  8
002
 62
    40
 10
803.994471
 20
698.319348
 30
0.0
 40
6.0
  0
CIRCLE
  5
B3
  8
002
  6
CENTER
 62
    40
 10
803.994471
 20
698.319348
 30
0.0
 40
20.0
  0
LINE
  5
B4
  8
002
  6
CENTER
 62
    40
 10
803.994471
 20
726.610648
 30
0.0
 11
803.994471
 21
669.831707
 31
0.0
  0
LINE
  5
B5
  8
002
 62
     3
 10
792.994471
 20
607.805187
 30
0.0
 11
792.994471
 21
598.805187
 31
0.0
  0
LINE
  5
B6
  8
002
 62
     3
 10
828.994471
 20
613.805187
 30
0.0
 11
778.994471
 21
613.805187
 31
0.0
  0
LINE
  5
B7
  8
002
 62
     3
 10
778.994471
 20
613.805187
 30
0.0
 11
778.994471
 21
607.805187
 31
0.0
  0
LINE
  5
B8
  8
002
 62
     3
 10
778.994471
 20
607.805187
 30
0.0
 11
814.994471
 21
607.805187
 31
0.0
  0
LINE
  5
B9
  8
002
  6
CENTER
 62
    40
 10
783.994471
 20
616.877187
 30
0.0
 11
783.994471
 21
604.205387
 31
0.0
  0
LINE
  5
BA
  8
002
 62
     3
 10
814.994471
 20
607.805187
 30
0.0
 11
828.994471
 21
607.805187
 31
0.0
  0
LINE
  5
BB
  8
002
 62
     3
 10
814.994471
 20
598.805187
 30
0.0
 11
814.994471
 21
607.805187
 31
0.0
  0
LINE
  5
BC
  8
002
  6
CENTER
 62
    40
 10
823.994471
 20
604.205387
 30
0.0
 11
823.994471
 21
616.877187
 31
0.0
  0
LINE
  5
BD
  8
002
 62
     3
 10
828.994471
 20
607.805187
 30
0.0
 11
828.994471
 21
613.805187
 31
0.0
  0
LINE
  5
BE
  8
002
 62
     3
 10
793.994471
 20
597.805187
 30
0.0
 11
813.994471
 21
597.805187
 31
0.0
  0
LINE
  5
BF
  8
002
 62
     3
 10
813.994471
 20
597.805187
 30
0.0
 11
814.994471
 21
598.805187
 31
0.0
  0
LINE
  5
C0
  8
002
 62
     3
 10
792.994471
 20
598.805187
 30
0.0
 11
793.994471
 21
597.805187
 31
0.0
  0
LINE
  5
C1
  8
002
 62
     3
 10
1068.886782
 20
100.516651
 30
0.0
 11
1052.886782
 21
100.516651
 31
0.0
  0
ARC
  5
C2
  8
002
 62
     3
 10
1037.386682
 20
241.516651
 30
0.0
 40
1.0
 50
180.0
 51
270.0
  0
LINE
  5
C3
  8
002
 62
     3
 10
1036.386682
 20
241.516651
 30
0.0
 11
1036.386682
 21
253.516651
 31
0.0
  0
LINE
  5
C4
  8
002
 62
     3
 10
1035.886682
 20
253.516651
 30
0.0
 11
1085.886782
 21
253.516651
 31
0.0
  0
LINE
  5
C5
  8
002
 62
     3
 10
1085.886782
 20
253.516651
 30
0.0
 11
1085.886782
 21
259.516651
 31
0.0
  0
LINE
  5
C6
  8
002
 62
     3
 10
1084.886782
 20
260.516651
 30
0.0
 11
1036.886682
 21
260.516651
 31
0.0
  0
LINE
  5
C7
  8
002
 62
     3
 10
1036.391682
 20
260.385551
 30
0.0
 11
1036.391682
 21
255.516651
 31
0.0
  0
LINE
  5
C8
  8
002
 62
     3
 10
1036.391682
 20
255.516651
 30
0.0
 11
1035.886682
 21
255.516651
 31
0.0
  0
LINE
  5
C9
  8
002
 62
     3
 10
1035.886682
 20
255.516651
 30
0.0
 11
1035.886682
 21
253.516651
 31
0.0
  0
ARC
  5
CA
  8
002
 62
     3
 10
1036.886682
 20
259.516651
 30
0.0
 40
1.0
 50
90.0
 51
119.669551
  0
LINE
  5
CB
  8
002
 62
     3
 10
1045.886682
 20
345.516651
 30
0.0
 11
1075.886782
 21
345.516651
 31
0.0
  0
LINE
  5
CC
  8
002
 62
     3
 10
1075.886782
 20
345.516651
 30
0.0
 11
1075.886782
 21
362.516651
 31
0.0
  0
LINE
  5
CD
  8
002
 62
     3
 10
1072.886782
 20
365.516651
 30
0.0
 11
1048.886782
 21
365.516651
 31
0.0
  0
LINE
  5
CE
  8
002
 62
     3
 10
1045.886682
 20
362.516651
 30
0.0
 11
1045.886682
 21
345.516651
 31
0.0
  0
ARC
  5
CF
  8
002
 62
     3
 10
1048.886782
 20
362.516651
 30
0.0
 40
3.0
 50
90.0
 51
180.0
  0
ARC
  5
D0
  8
002
 62
     3
 10
1072.886782
 20
362.516651
 30
0.0
 40
3.0
 50
0.0
 51
90.0
  0
LINE
  5
D1
  8
002
 62
     3
 10
1073.992182
 20
260.516651
 30
0.0
 11
1074.511782
 21
260.216651
 31
0.0
  0
LINE
  5
D2
  8
002
 62
     3
 10
1074.511782
 20
260.216651
 30
0.0
 11
1068.804182
 21
260.216651
 31
0.0
  0
LINE
  5
D3
  8
002
 62
     3
 10
1068.804182
 20
260.516651
 30
0.0
 11
1068.804182
 21
255.516651
 31
0.0
  0
LINE
  5
D4
  8
002
 62
     3
 10
1068.804182
 20
255.516651
 30
0.0
 11
1077.464382
 21
255.516651
 31
0.0
  0
LINE
  5
D5
  8
002
 62
     3
 10
1077.464382
 20
255.516651
 30
0.0
 11
1077.464382
 21
260.516651
 31
0.0
  0
LINE
  5
D6
  8
002
 62
     3
 10
1074.511782
 20
260.216651
 30
0.0
 11
1074.511782
 21
255.516651
 31
0.0
  0
LINE
  5
D7
  8
002
 62
     3
 10
1085.386782
 20
253.516651
 30
0.0
 11
1085.386782
 21
241.516651
 31
0.0
  0
ARC
  5
D8
  8
002
 62
     3
 10
1084.386782
 20
241.516651
 30
0.0
 40
1.0
 50
270.0
 51
0.0
  0
ARC
  5
D9
  8
002
 62
     3
 10
1084.886782
 20
259.516651
 30
0.0
 40
1.0
 50
0.0
 51
90.0
  0
LINE
  5
DA
  8
002
 62
     3
 10
1068.886782
 20
115.516651
 30
0.0
 11
1052.886782
 21
115.516651
 31
0.0
  0
LINE
  5
DB
  8
002
 62
     3
 10
1054.886782
 20
85.516651
 30
0.0
 11
1054.886782
 21
100.516651
 31
0.0
  0
LINE
  5
DC
  8
002
 62
     3
 10
1066.886782
 20
85.516651
 30
0.0
 11
1054.886782
 21
85.516651
 31
0.0
  0
LINE
  5
DD
  8
002
 62
     3
 10
1066.886782
 20
85.516651
 30
0.0
 11
1066.886782
 21
100.516651
 31
0.0
  0
LINE
  5
DE
  8
002
  6
CENTER
 62
    40
 10
1060.886782
 20
369.542893
 30
0.0
 11
1060.886782
 21
82.47966
 31
0.0
  0
LINE
  5
DF
  8
002
  6
CENTER
 62
    40
 10
1021.459682
 20
213.016651
 30
0.0
 11
1123.899682
 21
213.016651
 31
0.0
  0
ARC
  5
E0
  8
002
 62
     3
 10
584.291275
 20
184.516651
 30
0.0
 40
1.0
 50
90.0
 51
180.0
  0
LINE
  5
E1
  8
002
 62
     3
 10
583.291275
 20
184.516651
 30
0.0
 11
583.291275
 21
172.516651
 31
0.0
  0
LINE
  5
E2
  8
002
 62
     3
 10
582.791275
 20
172.516651
 30
0.0
 11
632.791375
 21
172.516651
 31
0.0
  0
LINE
  5
E3
  8
002
 62
     3
 10
632.791375
 20
172.516651
 30
0.0
 11
632.791375
 21
166.516651
 31
0.0
  0
LINE
  5
E4
  8
002
 62
     3
 10
631.791375
 20
165.516651
 30
0.0
 11
583.791275
 21
165.516651
 31
0.0
  0
LINE
  5
E5
  8
002
 62
     3
 10
583.296275
 20
165.647751
 30
0.0
 11
583.296275
 21
170.516651
 31
0.0
  0
LINE
  5
E6
  8
002
 62
     3
 10
583.296275
 20
170.516651
 30
0.0
 11
582.791275
 21
170.516651
 31
0.0
  0
LINE
  5
E7
  8
002
 62
     3
 10
582.791275
 20
170.516651
 30
0.0
 11
582.791275
 21
172.516651
 31
0.0
  0
ARC
  5
E8
  8
002
 62
     3
 10
583.791275
 20
166.516651
 30
0.0
 40
1.0
 50
240.330449
 51
270.0
  0
LINE
  5
E9
  8
002
 62
     3
 10
592.791275
 20
80.516651
 30
0.0
 11
622.791375
 21
80.516651
 31
0.0
  0
LINE
  5
EA
  8
002
 62
     3
 10
622.791375
 20
80.516651
 30
0.0
 11
622.791375
 21
63.516651
 31
0.0
  0
LINE
  5
EB
  8
002
 62
     3
 10
619.791375
 20
60.516651
 30
0.0
 11
595.791375
 21
60.516651
 31
0.0
  0
LINE
  5
EC
  8
002
 62
     3
 10
592.791275
 20
63.516651
 30
0.0
 11
592.791275
 21
80.516651
 31
0.0
  0
ARC
  5
ED
  8
002
 62
     3
 10
595.791375
 20
63.516651
 30
0.0
 40
3.0
 50
180.0
 51
270.0
  0
ARC
  5
EE
  8
002
 62
     3
 10
619.791375
 20
63.516651
 30
0.0
 40
3.0
 50
270.0
 51
0.0
  0
LINE
  5
EF
  8
002
 62
     3
 10
620.896775
 20
165.516651
 30
0.0
 11
621.416375
 21
165.816651
 31
0.0
  0
LINE
  5
F0
  8
002
 62
     3
 10
621.416375
 20
165.816651
 30
0.0
 11
615.708775
 21
165.816651
 31
0.0
  0
LINE
  5
F1
  8
002
 62
     3
 10
615.708775
 20
165.516651
 30
0.0
 11
615.708775
 21
170.516651
 31
0.0
  0
LINE
  5
F2
  8
002
 62
     3
 10
615.708775
 20
170.516651
 30
0.0
 11
624.368975
 21
170.516651
 31
0.0
  0
LINE
  5
F3
  8
002
 62
     3
 10
624.368975
 20
170.516651
 30
0.0
 11
624.368975
 21
165.516651
 31
0.0
  0
LINE
  5
F4
  8
002
 62
     3
 10
621.416375
 20
165.816651
 30
0.0
 11
621.416375
 21
170.516651
 31
0.0
  0
LINE
  5
F5
  8
002
 62
     3
 10
632.291375
 20
172.516651
 30
0.0
 11
632.291375
 21
184.516651
 31
0.0
  0
ARC
  5
F6
  8
002
 62
     3
 10
631.291375
 20
184.516651
 30
0.0
 40
1.0
 50
0.0
 51
90.0
  0
ARC
  5
F7
  8
002
 62
     3
 10
631.791375
 20
166.516651
 30
0.0
 40
1.0
 50
270.0
 51
0.0
  0
LINE
  5
F8
  8
002
 62
     3
 10
632.291375
 20
241.516651
 30
0.0
 11
632.291375
 21
245.516651
 31
0.0
  0
LINE
  5
F9
  8
002
 62
     3
 10
632.991375
 20
245.516651
 30
0.0
 11
632.991375
 21
253.516651
 31
0.0
  0
LINE
  5
FA
  8
002
 62
     3
 10
633.491375
 20
253.516651
 30
0.0
 11
582.091375
 21
253.516651
 31
0.0
  0
LINE
  5
FB
  8
002
 62
     3
 10
582.091375
 20
253.516651
 30
0.0
 11
582.091375
 21
260.516651
 31
0.0
  0
LINE
  5
FC
  8
002
 62
     3
 10
582.091375
 20
260.516651
 30
0.0
 11
633.491375
 21
260.516651
 31
0.0
  0
LINE
  5
FD
  8
002
 62
     3
 10
633.491375
 20
260.516651
 30
0.0
 11
633.491375
 21
253.516651
 31
0.0
  0
LINE
  5
FE
  8
002
 62
     3
 10
633.491375
 20
260.516651
 30
0.0
 11
623.591475
 21
262.536851
 31
0.0
  0
ARC
  5
FF
  8
002
 62
     3
 10
623.791375
 20
263.516651
 30
0.0
 40
0.9999840248724003
 50
99.990722
 51
258.468702
  0
LINE
  5
100
  8
002
 62
     3
 10
623.617875
 20
264.501551
 30
0.0
 11
629.464975
 21
265.531851
 31
0.0
  0
ARC
  5
101
  8
002
 62
     3
 10
629.291375
 20
266.516651
 30
0.0
 40
1.000082481598369
 50
279.997359
 51
80.003636
  0
LINE
  5
102
  8
002
 62
     3
 10
629.464975
 20
267.501551
 30
0.0
 11
623.617875
 21
268.531851
 31
0.0
  0
ARC
  5
103
  8
002
 62
     3
 10
623.791375
 20
269.516651
 30
0.0
 40
0.9999666444437085
 50
99.990722
 51
260.008284
  0
LINE
  5
104
  8
002
 62
     3
 10
623.617875
 20
270.501551
 30
0.0
 11
629.464975
 21
271.531851
 31
0.0
  0
ARC
  5
105
  8
002
 62
     3
 10
629.291375
 20
272.516651
 30
0.0
 40
1.000082481598369
 50
279.997359
 51
80.003636
  0
LINE
  5
106
  8
002
 62
     3
 10
629.464975
 20
273.501551
 30
0.0
 11
623.617875
 21
274.531851
 31
0.0
  0
ARC
  5
107
  8
002
 62
     3
 10
623.791375
 20
275.516651
 30
0.0
 40
0.9999666444437085
 50
180.0
 51
260.008284
  0
LINE
  5
108
  8
002
 62
     3
 10
621.791375
 20
275.516651
 30
0.0
 11
593.791375
 21
275.516651
 31
0.0
  0
ARC
  5
109
  8
002
 62
     3
 10
591.791375
 20
275.516651
 30
0.0
 40
1.0
 50
279.997359
 51
0.0
  0
LINE
  5
10A
  8
002
 62
     3
 10
591.964975
 20
274.531851
 30
0.0
 11
586.117875
 21
273.501551
 31
0.0
  0
ARC
  5
10B
  8
002
 62
     3
 10
586.291375
 20
272.516651
 30
0.0
 40
0.9999666444437085
 50
99.990722
 51
260.008284
  0
LINE
  5
10C
  8
002
 62
     3
 10
586.117875
 20
271.531851
 30
0.0
 11
591.964975
 21
270.501551
 31
0.0
  0
ARC
  5
10D
  8
002
 62
     3
 10
591.791375
 20
269.516651
 30
0.0
 40
1.000082481598369
 50
279.997359
 51
80.003636
  0
LINE
  5
10E
  8
002
 62
     3
 10
591.964975
 20
268.531851
 30
0.0
 11
586.117875
 21
267.501551
 31
0.0
  0
ARC
  5
10F
  8
002
 62
     3
 10
586.291375
 20
266.516651
 30
0.0
 40
0.9999666444437085
 50
99.990722
 51
260.008284
  0
LINE
  5
110
  8
002
 62
     3
 10
586.117875
 20
265.531851
 30
0.0
 11
591.964975
 21
264.501551
 31
0.0
  0
LINE
  5
111
  8
002
 62
     3
 10
591.991375
 20
262.536851
 30
0.0
 11
582.091375
 21
260.516651
 31
0.0
  0
LINE
  5
112
  8
002
 62
     3
 10
582.591375
 20
253.516651
 30
0.0
 11
582.591375
 21
245.516651
 31
0.0
  0
LINE
  5
113
  8
002
 62
     3
 10
582.591375
 20
245.516651
 30
0.0
 11
632.991375
 21
245.516651
 31
0.0
  0
ARC
  5
114
  8
002
 62
     3
 10
631.291375
 20
241.516651
 30
0.0
 40
1.0
 50
270.0
 51
0.0
  0
LINE
  5
115
  8
002
 62
     3
 10
621.791375
 20
263.516651
 30
0.0
 11
593.791375
 21
263.516651
 31
0.0
  0
ARC
  5
116
  8
002
 62
     3
 10
591.791375
 20
263.516651
 30
0.0
 40
1.000082481598369
 50
281.536912
 51
80.003636
  0
LINE
  5
117
  8
002
 62
     3
 10
593.791375
 20
269.516651
 30
0.0
 11
621.791375
 21
269.516651
 31
0.0
  0
LINE
  5
118
  8
002
 62
     3
 10
629.291375
 20
272.516651
 30
0.0
 11
586.291375
 21
272.516651
 31
0.0
  0
LINE
  5
119
  8
002
 62
     3
 10
586.291375
 20
266.516651
 30
0.0
 11
629.291375
 21
266.516651
 31
0.0
  0
LINE
  5
11A
  8
002
 62
     3
 10
621.791375
 20
298.816651
 30
0.0
 11
593.791375
 21
298.816651
 31
0.0
  0
ARC
  5
11B
  8
002
 62
     3
 10
591.791375
 20
298.816651
 30
0.0
 40
1.000082481598369
 50
0.0
 51
80.003636
  0
LINE
  5
11C
  8
002
 62
     3
 10
591.964975
 20
299.801551
 30
0.0
 11
586.117875
 21
300.831851
 31
0.0
  0
LINE
  5
11D
  8
002
 62
     3
 10
586.291375
 20
301.816651
 30
0.0
 11
629.291375
 21
301.816651
 31
0.0
  0
ARC
  5
11E
  8
002
 62
     3
 10
629.291375
 20
301.816651
 30
0.0
 40
1.000082481598369
 50
279.997359
 51
80.003636
  0
LINE
  5
11F
  8
002
 62
     3
 10
629.464975
 20
302.801551
 30
0.0
 11
623.617875
 21
303.831851
 31
0.0
  0
ARC
  5
120
  8
002
 62
     3
 10
623.791375
 20
304.816651
 30
0.0
 40
0.9999666444437085
 50
99.990722
 51
260.008284
  0
LINE
  5
121
  8
002
 62
     3
 10
623.617875
 20
305.801551
 30
0.0
 11
629.464975
 21
306.831851
 31
0.0
  0
ARC
  5
122
  8
002
 62
     3
 10
629.291375
 20
307.816651
 30
0.0
 40
1.000082481598369
 50
279.997359
 51
80.003636
  0
LINE
  5
123
  8
002
 62
     3
 10
629.464975
 20
308.801551
 30
0.0
 11
616.491375
 21
310.816651
 31
0.0
  0
LINE
  5
124
  8
002
 62
     3
 10
616.491375
 20
310.816651
 30
0.0
 11
599.091375
 21
310.816651
 31
0.0
  0
LINE
  5
125
  8
002
 62
     3
 10
599.091375
 20
310.816651
 30
0.0
 11
586.117875
 21
308.801551
 31
0.0
  0
ARC
  5
126
  8
002
 62
     3
 10
586.291375
 20
307.816651
 30
0.0
 40
0.9999666444437085
 50
99.990722
 51
260.008284
  0
LINE
  5
127
  8
002
 62
     3
 10
586.117875
 20
306.831851
 30
0.0
 11
591.964975
 21
305.801551
 31
0.0
  0
ARC
  5
128
  8
002
 62
     3
 10
591.791375
 20
304.816651
 30
0.0
 40
1.000082481598369
 50
279.997359
 51
80.003636
  0
LINE
  5
129
  8
002
 62
     3
 10
591.964975
 20
303.831851
 30
0.0
 11
586.117875
 21
302.801551
 31
0.0
  0
ARC
  5
12A
  8
002
 62
     3
 10
586.291375
 20
301.816651
 30
0.0
 40
0.9999666444437085
 50
99.990722
 51
260.008284
  0
LINE
  5
12B
  8
002
 62
     3
 10
586.291375
 20
307.816651
 30
0.0
 11
629.291375
 21
307.816651
 31
0.0
  0
LINE
  5
12C
  8
002
 62
     3
 10
625.091375
 20
311.816651
 30
0.0
 11
598.491375
 21
311.816651
 31
0.0
  0
LINE
  5
12D
  8
002
 62
     3
 10
598.491375
 20
311.816651
 30
0.0
 11
598.491375
 21
324.816651
 31
0.0
  0
LINE
  5
12E
  8
002
 62
     3
 10
598.491375
 20
324.816651
 30
0.0
 11
625.091375
 21
324.816651
 31
0.0
  0
LINE
  5
12F
  8
002
 62
     3
 10
627.091375
 20
322.816651
 30
0.0
 11
627.091375
 21
313.816651
 31
0.0
  0
ARC
  5
130
  8
002
 62
     3
 10
625.091375
 20
313.816651
 30
0.0
 40
2.0
 50
270.0
 51
0.0
  0
CIRCLE
  5
131
  8
002
 62
     3
 10
622.091375
 20
318.316651
 30
0.0
 40
1.0
  0
ARC
  5
132
  8
002
 62
     3
 10
625.091375
 20
322.816651
 30
0.0
 40
2.0
 50
0.0
 51
90.0
  0
LINE
  5
133
  8
002
 62
     3
 10
617.091375
 20
324.816651
 30
0.0
 11
617.091375
 21
311.816651
 31
0.0
  0
LINE
  5
134
  8
002
 62
     3
 10
616.491375
 20
311.816651
 30
0.0
 11
616.491375
 21
310.816651
 31
0.0
  0
LINE
  5
135
  8
002
 62
     3
 10
621.791375
 20
304.816651
 30
0.0
 11
593.791375
 21
304.816651
 31
0.0
  0
LINE
  5
136
  8
002
 62
     3
 10
599.091375
 20
310.816651
 30
0.0
 11
599.091375
 21
311.816651
 31
0.0
  0
LINE
  5
137
  8
002
 62
     3
 10
599.091375
 20
324.816651
 30
0.0
 11
599.091375
 21
325.816651
 31
0.0
  0
LINE
  5
138
  8
002
 62
     3
 10
599.091375
 20
325.816651
 30
0.0
 11
616.491375
 21
325.816651
 31
0.0
  0
LINE
  5
139
  8
002
 62
     3
 10
616.491375
 20
325.816651
 30
0.0
 11
616.491375
 21
324.816651
 31
0.0
  0
LINE
  5
13A
  8
002
 62
     3
 10
613.791375
 20
325.816651
 30
0.0
 11
613.791375
 21
340.816651
 31
0.0
  0
LINE
  5
13B
  8
002
 62
     3
 10
613.791375
 20
340.816651
 30
0.0
 11
601.791375
 21
340.816651
 31
0.0
  0
LINE
  5
13C
  8
002
 62
     3
 10
601.791375
 20
340.816651
 30
0.0
 11
601.791375
 21
325.816651
 31
0.0
  0
ARC
  5
13D
  8
002
 62
     3
 10
623.791375
 20
298.816651
 30
0.0
 40
1.0
 50
99.990722
 51
180.0
  0
LINE
  5
13E
  8
002
 62
     3
 10
623.617875
 20
299.801551
 30
0.0
 11
629.464975
 21
300.831851
 31
0.0
  0
LINE
  5
13F
  8
002
 62
     3
 10
583.291375
 20
245.516651
 30
0.0
 11
583.291375
 21
241.516651
 31
0.0
  0
ARC
  5
140
  8
002
 62
     3
 10
584.291375
 20
241.516651
 30
0.0
 40
1.0
 50
180.0
 51
270.0
  0
LINE
  5
141
  8
002
  6
CENTER
 62
    40
 10
622.091375
 20
315.064451
 30
0.0
 11
622.091375
 21
321.824451
 31
0.0
  0
LINE
  5
142
  8
002
  6
CENTER
 62
    40
 10
624.459175
 20
318.316651
 30
0.0
 11
619.434075
 21
318.316651
 31
0.0
  0
LINE
  5
143
  8
002
  6
CENTER
 62
    40
 10
607.791375
 20
57.045631
 30
0.0
 11
607.791375
 21
344.680358
 31
0.0
  0
LINE
  5
144
  8
002
 62
    40
 10
602.603375
 20
340.816651
 30
0.0
 11
602.603375
 21
325.816651
 31
0.0
  0
LINE
  5
145
  8
002
 62
    40
 10
612.979375
 20
325.816651
 30
0.0
 11
612.979375
 21
340.816651
 31
0.0
  0
LINE
  5
146
  8
002
  6
CENTER
 62
    40
 10
568.364275
 20
213.016651
 30
0.0
 11
670.804275
 21
213.016651
 31
0.0
  0
LINE
  5
147
  8
002
  6
PHANTOM
 62
    40
 10
630.291375
 20
272.516651
 30
0.0
 11
630.291375
 21
301.816651
 31
0.0
  0
LINE
  5
148
  8
002
  6
PHANTOM
 62
    40
 10
622.791375
 20
298.816651
 30
0.0
 11
622.791375
 21
275.516651
 31
0.0
  0
LINE
  5
149
  8
002
  6
PHANTOM
 62
    40
 10
592.791375
 20
275.516651
 30
0.0
 11
592.791375
 21
298.816651
 31
0.0
  0
LINE
  5
14A
  8
002
  6
PHANTOM
 62
    40
 10
585.291375
 20
301.816651
 30
0.0
 11
585.291375
 21
272.516651
 31
0.0
  0
LINE
  5
14B
  8
002
  6
HIDDEN
 62
    40
 10
797.994471
 20
597.805187
 30
0.0
 11
797.994471
 21
612.805187
 31
0.0
  0
LINE
  5
14C
  8
002
  6
HIDDEN
 62
    40
 10
797.994471
 20
612.805187
 30
0.0
 11
809.994471
 21
612.805187
 31
0.0
  0
LINE
  5
14D
  8
002
  6
HIDDEN
 62
    40
 10
809.994471
 20
612.805187
 30
0.0
 11
809.994471
 21
597.805187
 31
0.0
  0
LINE
  5
14E
  8
002
  6
HIDDEN
 62
    40
 10
798.806471
 20
597.805187
 30
0.0
 11
798.806471
 21
612.805187
 31
0.0
  0
LINE
  5
14F
  8
002
  6
HIDDEN
 62
    40
 10
809.182471
 20
612.805187
 30
0.0
 11
809.182471
 21
597.805187
 31
0.0
  0
LINE
  5
150
  8
002
 62
     3
 10
597.63162
 20
582.805187
 30
0.0
 11
581.63162
 21
582.805187
 31
0.0
  0
LINE
  5
151
  8
002
 62
     3
 10
600.63162
 20
639.805187
 30
0.0
 11
578.63162
 21
639.805187
 31
0.0
  0
LINE
  5
152
  8
002
 62
     3
 10
578.63162
 20
639.805187
 30
0.0
 11
577.63162
 21
638.805187
 31
0.0
  0
CIRCLE
  5
153
  8
002
 62
     3
 10
589.63162
 20
627.805187
 30
0.0
 40
6.0
  0
LINE
  5
154
  8
002
 62
     3
 10
577.63162
 20
638.805187
 30
0.0
 11
577.63162
 21
598.77307
 31
0.0
  0
LINE
  5
155
  8
002
  6
CENTER
 62
    40
 10
608.873978
 20
627.805187
 30
0.0
 11
569.657272
 21
627.805187
 31
0.0
  0
ARC
  5
156
  8
002
 62
     3
 10
589.63162
 20
618.646008
 30
0.0
 40
19.0
 50
230.833289
 51
309.166711
  0
ARC
  5
157
  8
002
 62
     3
 10
589.63162
 20
618.646008
 30
0.0
 40
19.0
 50
50.833289
 51
129.166711
  0
LINE
  5
158
  8
002
 62
     3
 10
577.63162
 20
710.319348
 30
0.0
 11
601.63162
 21
710.319348
 31
0.0
  0
LINE
  5
159
  8
002
 62
     3
 10
601.63162
 20
686.319348
 30
0.0
 11
577.63162
 21
686.319348
 31
0.0
  0
CIRCLE
  5
15A
  8
002
 62
     3
 10
589.63162
 20
698.319348
 30
0.0
 40
11.0
  0
LINE
  5
15B
  8
002
 62
     3
 10
577.63162
 20
686.319348
 30
0.0
 11
577.63162
 21
710.319348
 31
0.0
  0
LINE
  5
15C
  8
002
  6
CENTER
 62
    40
 10
608.873978
 20
698.319348
 30
0.0
 11
569.657272
 21
698.319348
 31
0.0
  0
LINE
  5
15D
  8
002
  6
HIDDEN
 62
    40
 10
583.63162
 20
710.319348
 30
0.0
 11
583.63162
 21
686.319348
 31
0.0
  0
LINE
  5
15E
  8
002
 62
     3
 10
601.63162
 20
638.805187
 30
0.0
 11
601.63162
 21
598.837305
 31
0.0
  0
LINE
  5
15F
  8
002
 62
     3
 10
600.63162
 20
639.805187
 30
0.0
 11
601.63162
 21
638.805187
 31
0.0
  0
LINE
  5
160
  8
002
 62
     3
 10
601.63162
 20
686.319348
 30
0.0
 11
601.63162
 21
710.319348
 31
0.0
  0
LINE
  5
161
  8
002
  6
HIDDEN
 62
    40
 10
595.63162
 20
710.319348
 30
0.0
 11
595.63162
 21
686.319348
 31
0.0
  0
LINE
  5
162
  8
002
  6
CENTER
 62
    40
 10
589.63162
 20
677.912853
 30
0.0
 11
589.63162
 21
717.472302
 31
0.0
  0
LINE
  5
163
  8
002
 62
     3
 10
600.599503
 20
597.805187
 30
0.0
 11
578.599503
 21
597.805187
 31
0.0
  0
LINE
  5
164
  8
002
 62
     3
 10
578.599503
 20
597.805187
 30
0.0
 11
577.599503
 21
598.805187
 31
0.0
  0
LINE
  5
165
  8
002
 62
     3
 10
600.599503
 20
597.805187
 30
0.0
 11
601.599503
 21
598.805187
 31
0.0
  0
LINE
  5
166
  8
002
 62
     3
 10
597.63162
 20
569.757425
 30
0.0
 11
597.63162
 21
597.805187
 31
0.0
  0
LINE
  5
167
  8
002
 62
     3
 10
581.63162
 20
597.805187
 30
0.0
 11
581.63162
 21
569.757425
 31
0.0
  0
LINE
  5
168
  8
002
 62
    40
 10
583.38162
 20
582.805187
 30
0.0
 11
583.38162
 21
569.757425
 31
0.0
  0
LINE
  5
169
  8
002
 62
    40
 10
595.88162
 20
569.757425
 30
0.0
 11
595.88162
 21
582.805187
 31
0.0
  0
LINE
  5
16A
  8
002
  6
CENTER
 62
    40
 10
589.63162
 20
569.757425
 30
0.0
 11
589.63162
 21
647.761078
 31
0.0
  0
LINE
  5
16B
  8
002
  6
HIDDEN
 62
    40
 10
583.63162
 20
597.805187
 30
0.0
 11
583.63162
 21
612.805187
 31
0.0
  0
LINE
  5
16C
  8
002
  6
HIDDEN
 62
    40
 10
583.63162
 20
612.805187
 30
0.0
 11
595.63162
 21
612.805187
 31
0.0
  0
LINE
  5
16D
  8
002
  6
HIDDEN
 62
    40
 10
595.63162
 20
612.805187
 30
0.0
 11
595.63162
 21
597.805187
 31
0.0
  0
LINE
  5
16E
  8
002
  6
HIDDEN
 62
    40
 10
584.44362
 20
597.805187
 30
0.0
 11
584.44362
 21
612.805187
 31
0.0
  0
LINE
  5
16F
  8
002
  6
HIDDEN
 62
    40
 10
594.81962
 20
612.805187
 30
0.0
 11
594.81962
 21
597.805187
 31
0.0
  0
LINE
  5
170
  8
002
 62
     3
 10
811.994471
 20
569.757425
 30
0.0
 11
811.994471
 21
597.805187
 31
0.0
  0
LINE
  5
171
  8
002
 62
     3
 10
795.994471
 20
597.805187
 30
0.0
 11
795.994471
 21
569.757425
 31
0.0
  0
LINE
  5
172
  8
002
 62
    40
 10
797.744471
 20
582.805187
 30
0.0
 11
797.744471
 21
569.757425
 31
0.0
  0
LINE
  5
173
  8
002
 62
    40
 10
810.244471
 20
569.757425
 30
0.0
 11
810.244471
 21
582.805187
 31
0.0
  0
LINE
  5
174
  8
002
  6
CENTER
 62
    40
 10
803.994471
 20
569.757425
 30
0.0
 11
803.994471
 21
617.800926
 31
0.0
  0
ARC
  5
175
  8
002
 62
     3
 10
1398.386782
 20
241.516651
 30
0.0
 40
1.0
 50
180.0
 51
270.0
  0
LINE
  5
176
  8
002
 62
     3
 10
1397.386782
 20
241.516651
 30
0.0
 11
1397.386782
 21
253.516651
 31
0.0
  0
LINE
  5
177
  8
002
 62
     3
 10
1396.886782
 20
253.516651
 30
0.0
 11
1446.886882
 21
253.516651
 31
0.0
  0
LINE
  5
178
  8
002
 62
     3
 10
1446.886882
 20
253.516651
 30
0.0
 11
1446.886882
 21
259.516651
 31
0.0
  0
LINE
  5
179
  8
002
 62
     3
 10
1445.886882
 20
260.516651
 30
0.0
 11
1397.886782
 21
260.516651
 31
0.0
  0
LINE
  5
17A
  8
002
 62
     3
 10
1397.391782
 20
260.385551
 30
0.0
 11
1397.391782
 21
255.516651
 31
0.0
  0
LINE
  5
17B
  8
002
 62
     3
 10
1397.391782
 20
255.516651
 30
0.0
 11
1396.886782
 21
255.516651
 31
0.0
  0
LINE
  5
17C
  8
002
 62
     3
 10
1396.886782
 20
255.516651
 30
0.0
 11
1396.886782
 21
253.516651
 31
0.0
  0
ARC
  5
17D
  8
002
 62
     3
 10
1397.886782
 20
259.516651
 30
0.0
 40
1.0
 50
90.0
 51
119.669551
  0
LINE
  5
17E
  8
002
 62
     3
 10
1406.886782
 20
345.516651
 30
0.0
 11
1436.886882
 21
345.516651
 31
0.0
  0
LINE
  5
17F
  8
002
 62
     3
 10
1436.886882
 20
345.516651
 30
0.0
 11
1436.886882
 21
362.516651
 31
0.0
  0
LINE
  5
180
  8
002
 62
     3
 10
1433.886882
 20
365.516651
 30
0.0
 11
1409.886882
 21
365.516651
 31
0.0
  0
LINE
  5
181
  8
002
 62
     3
 10
1406.886782
 20
362.516651
 30
0.0
 11
1406.886782
 21
345.516651
 31
0.0
  0
ARC
  5
182
  8
002
 62
     3
 10
1409.886882
 20
362.516651
 30
0.0
 40
3.0
 50
90.0
 51
180.0
  0
ARC
  5
183
  8
002
 62
     3
 10
1433.886882
 20
362.516651
 30
0.0
 40
3.0
 50
0.0
 51
90.0
  0
LINE
  5
184
  8
002
 62
     3
 10
1434.992282
 20
260.516651
 30
0.0
 11
1435.511882
 21
260.216651
 31
0.0
  0
LINE
  5
185
  8
002
 62
     3
 10
1435.511882
 20
260.216651
 30
0.0
 11
1429.804282
 21
260.216651
 31
0.0
  0
LINE
  5
186
  8
002
 62
     3
 10
1429.804282
 20
260.516651
 30
0.0
 11
1429.804282
 21
255.516651
 31
0.0
  0
LINE
  5
187
  8
002
 62
     3
 10
1429.804282
 20
255.516651
 30
0.0
 11
1438.464482
 21
255.516651
 31
0.0
  0
LINE
  5
188
  8
002
 62
     3
 10
1438.464482
 20
255.516651
 30
0.0
 11
1438.464482
 21
260.516651
 31
0.0
  0
LINE
  5
189
  8
002
 62
     3
 10
1435.511882
 20
260.216651
 30
0.0
 11
1435.511882
 21
255.516651
 31
0.0
  0
LINE
  5
18A
  8
002
 62
     3
 10
1446.386882
 20
253.516651
 30
0.0
 11
1446.386882
 21
241.516651
 31
0.0
  0
ARC
  5
18B
  8
002
 62
     3
 10
1445.386882
 20
241.516651
 30
0.0
 40
1.0
 50
270.0
 51
0.0
  0
ARC
  5
18C
  8
002
 62
     3
 10
1445.886882
 20
259.516651
 30
0.0
 40
1.0
 50
0.0
 51
90.0
  0
LINE
  5
18D
  8
002
  6
CENTER
 62
    40
 10
1421.886882
 20
369.542893
 30
0.0
 11
1421.886882
 21
82.47966
 31
0.0
  0
LINE
  5
18E
  8
002
  6
CENTER
 62
    40
 10
1382.459782
 20
213.016651
 30
0.0
 11
1484.899782
 21
213.016651
 31
0.0
  0
LINE
  5
18F
  8
002
 62
     3
 10
1446.386882
 20
184.516651
 30
0.0
 11
1446.386882
 21
180.516651
 31
0.0
  0
LINE
  5
190
  8
002
 62
     3
 10
1447.086882
 20
180.516651
 30
0.0
 11
1447.086882
 21
172.516651
 31
0.0
  0
LINE
  5
191
  8
002
 62
     3
 10
1447.586882
 20
172.516651
 30
0.0
 11
1396.186882
 21
172.516651
 31
0.0
  0
LINE
  5
192
  8
002
 62
     3
 10
1396.186882
 20
172.516651
 30
0.0
 11
1396.186882
 21
165.516651
 31
0.0
  0
LINE
  5
193
  8
002
 62
     3
 10
1396.186882
 20
165.516651
 30
0.0
 11
1447.586882
 21
165.516651
 31
0.0
  0
LINE
  5
194
  8
002
 62
     3
 10
1447.586882
 20
165.516651
 30
0.0
 11
1447.586882
 21
172.516651
 31
0.0
  0
LINE
  5
195
  8
002
 62
     3
 10
1447.586882
 20
165.516651
 30
0.0
 11
1437.686982
 21
163.496451
 31
0.0
  0
ARC
  5
196
  8
002
 62
     3
 10
1437.886882
 20
162.516651
 30
0.0
 40
0.9999840248724003
 50
101.531298
 51
260.009278
  0
LINE
  5
197
  8
002
 62
     3
 10
1437.713382
 20
161.531751
 30
0.0
 11
1443.560482
 21
160.501451
 31
0.0
  0
ARC
  5
198
  8
002
 62
     3
 10
1443.386882
 20
159.516651
 30
0.0
 40
1.000082481598369
 50
279.996364
 51
80.002641
  0
LINE
  5
199
  8
002
 62
     3
 10
1443.560482
 20
158.531751
 30
0.0
 11
1437.713382
 21
157.501451
 31
0.0
  0
ARC
  5
19A
  8
002
 62
     3
 10
1437.886882
 20
156.516651
 30
0.0
 40
0.9999666444437085
 50
99.991716
 51
260.009278
  0
LINE
  5
19B
  8
002
 62
     3
 10
1437.713382
 20
155.531751
 30
0.0
 11
1443.560482
 21
154.501451
 31
0.0
  0
ARC
  5
19C
  8
002
 62
     3
 10
1443.386882
 20
153.516651
 30
0.0
 40
1.000082481598369
 50
279.996364
 51
80.002641
  0
LINE
  5
19D
  8
002
 62
     3
 10
1443.560482
 20
152.531751
 30
0.0
 11
1437.713382
 21
151.501451
 31
0.0
  0
ARC
  5
19E
  8
002
 62
     3
 10
1437.886882
 20
150.516651
 30
0.0
 40
0.9999666444437085
 50
99.991716
 51
180.0
  0
LINE
  5
19F
  8
002
 62
     3
 10
1435.886882
 20
150.516651
 30
0.0
 11
1407.886882
 21
150.516651
 31
0.0
  0
ARC
  5
1A0
  8
002
 62
     3
 10
1405.886882
 20
150.516651
 30
0.0
 40
1.0
 50
0.0
 51
80.002641
  0
LINE
  5
1A1
  8
002
 62
     3
 10
1406.060482
 20
151.501451
 30
0.0
 11
1400.213382
 21
152.531751
 31
0.0
  0
ARC
  5
1A2
  8
002
 62
     3
 10
1400.386882
 20
153.516651
 30
0.0
 40
0.9999666444437085
 50
99.991716
 51
260.009278
  0
LINE
  5
1A3
  8
002
 62
     3
 10
1400.213382
 20
154.501451
 30
0.0
 11
1406.060482
 21
155.531751
 31
0.0
  0
ARC
  5
1A4
  8
002
 62
     3
 10
1405.886882
 20
156.516651
 30
0.0
 40
1.000082481598369
 50
279.996364
 51
80.002641
  0
LINE
  5
1A5
  8
002
 62
     3
 10
1406.060482
 20
157.501451
 30
0.0
 11
1400.213382
 21
158.531751
 31
0.0
  0
ARC
  5
1A6
  8
002
 62
     3
 10
1400.386882
 20
159.516651
 30
0.0
 40
0.9999666444437085
 50
99.991716
 51
260.009278
  0
LINE
  5
1A7
  8
002
 62
     3
 10
1400.213382
 20
160.501451
 30
0.0
 11
1406.060482
 21
161.531751
 31
0.0
  0
LINE
  5
1A8
  8
002
 62
     3
 10
1406.086882
 20
163.496451
 30
0.0
 11
1396.186882
 21
165.516651
 31
0.0
  0
LINE
  5
1A9
  8
002
 62
     3
 10
1396.686882
 20
172.516651
 30
0.0
 11
1396.686882
 21
180.516651
 31
0.0
  0
LINE
  5
1AA
  8
002
 62
     3
 10
1396.686882
 20
180.516651
 30
0.0
 11
1447.086882
 21
180.516651
 31
0.0
  0
ARC
  5
1AB
  8
002
 62
     3
 10
1445.386882
 20
184.516651
 30
0.0
 40
1.0
 50
0.0
 51
90.0
  0
LINE
  5
1AC
  8
002
 62
     3
 10
1435.886882
 20
162.516651
 30
0.0
 11
1407.886882
 21
162.516651
 31
0.0
  0
ARC
  5
1AD
  8
002
 62
     3
 10
1405.886882
 20
162.516651
 30
0.0
 40
1.000082481598369
 50
279.996364
 51
78.463088
  0
LINE
  5
1AE
  8
002
 62
     3
 10
1407.886882
 20
156.516651
 30
0.0
 11
1435.886882
 21
156.516651
 31
0.0
  0
LINE
  5
1AF
  8
002
 62
     3
 10
1443.386882
 20
153.516651
 30
0.0
 11
1400.386882
 21
153.516651
 31
0.0
  0
LINE
  5
1B0
  8
002
 62
     3
 10
1400.386882
 20
159.516651
 30
0.0
 11
1443.386882
 21
159.516651
 31
0.0
  0
LINE
  5
1B1
  8
002
 62
     3
 10
1435.886882
 20
127.216651
 30
0.0
 11
1407.886882
 21
127.216651
 31
0.0
  0
ARC
  5
1B2
  8
002
 62
     3
 10
1405.886882
 20
127.216651
 30
0.0
 40
1.000082481598369
 50
279.996364
 51
0.0
  0
LINE
  5
1B3
  8
002
 62
     3
 10
1406.060482
 20
126.231751
 30
0.0
 11
1400.213382
 21
125.201451
 31
0.0
  0
LINE
  5
1B4
  8
002
 62
     3
 10
1400.386882
 20
124.216651
 30
0.0
 11
1443.386882
 21
124.216651
 31
0.0
  0
ARC
  5
1B5
  8
002
 62
     3
 10
1443.386882
 20
124.216651
 30
0.0
 40
1.000082481598369
 50
279.996364
 51
80.002641
  0
LINE
  5
1B6
  8
002
 62
     3
 10
1443.560482
 20
123.231751
 30
0.0
 11
1437.713382
 21
122.201451
 31
0.0
  0
ARC
  5
1B7
  8
002
 62
     3
 10
1437.886882
 20
121.216651
 30
0.0
 40
0.9999666444437085
 50
99.991716
 51
260.009278
  0
LINE
  5
1B8
  8
002
 62
     3
 10
1437.713382
 20
120.231751
 30
0.0
 11
1443.560482
 21
119.201451
 31
0.0
  0
ARC
  5
1B9
  8
002
 62
     3
 10
1443.386882
 20
118.216651
 30
0.0
 40
1.000082481598369
 50
279.996364
 51
80.002641
  0
LINE
  5
1BA
  8
002
 62
     3
 10
1443.560482
 20
117.231751
 30
0.0
 11
1430.586882
 21
115.216651
 31
0.0
  0
LINE
  5
1BB
  8
002
 62
     3
 10
1430.586882
 20
115.216651
 30
0.0
 11
1413.186882
 21
115.216651
 31
0.0
  0
LINE
  5
1BC
  8
002
 62
     3
 10
1413.186882
 20
115.216651
 30
0.0
 11
1400.213382
 21
117.231751
 31
0.0
  0
ARC
  5
1BD
  8
002
 62
     3
 10
1400.386882
 20
118.216651
 30
0.0
 40
0.9999666444437085
 50
99.991716
 51
260.009278
  0
LINE
  5
1BE
  8
002
 62
     3
 10
1400.213382
 20
119.201451
 30
0.0
 11
1406.060482
 21
120.231751
 31
0.0
  0
ARC
  5
1BF
  8
002
 62
     3
 10
1405.886882
 20
121.216651
 30
0.0
 40
1.000082481598369
 50
279.996364
 51
80.002641
  0
LINE
  5
1C0
  8
002
 62
     3
 10
1406.060482
 20
122.201451
 30
0.0
 11
1400.213382
 21
123.231751
 31
0.0
  0
ARC
  5
1C1
  8
002
 62
     3
 10
1400.386882
 20
124.216651
 30
0.0
 40
0.9999666444437085
 50
99.991716
 51
260.009278
  0
LINE
  5
1C2
  8
002
 62
     3
 10
1400.386882
 20
118.216651
 30
0.0
 11
1443.386882
 21
118.216651
 31
0.0
  0
LINE
  5
1C3
  8
002
 62
     3
 10
1439.186882
 20
114.216651
 30
0.0
 11
1412.586882
 21
114.216651
 31
0.0
  0
LINE
  5
1C4
  8
002
 62
     3
 10
1412.586882
 20
114.216651
 30
0.0
 11
1412.586882
 21
101.216651
 31
0.0
  0
LINE
  5
1C5
  8
002
 62
     3
 10
1412.586882
 20
101.216651
 30
0.0
 11
1439.186882
 21
101.216651
 31
0.0
  0
LINE
  5
1C6
  8
002
 62
     3
 10
1441.186882
 20
103.216651
 30
0.0
 11
1441.186882
 21
112.216651
 31
0.0
  0
ARC
  5
1C7
  8
002
 62
     3
 10
1439.186882
 20
112.216651
 30
0.0
 40
2.0
 50
0.0
 51
90.0
  0
CIRCLE
  5
1C8
  8
002
 62
     3
 10
1436.186882
 20
107.716651
 30
0.0
 40
1.0
  0
ARC
  5
1C9
  8
002
 62
     3
 10
1439.186882
 20
103.216651
 30
0.0
 40
2.0
 50
270.0
 51
0.0
  0
LINE
  5
1CA
  8
002
 62
     3
 10
1431.186882
 20
101.216651
 30
0.0
 11
1431.186882
 21
114.216651
 31
0.0
  0
LINE
  5
1CB
  8
002
 62
     3
 10
1430.586882
 20
114.216651
 30
0.0
 11
1430.586882
 21
115.216651
 31
0.0
  0
LINE
  5
1CC
  8
002
 62
     3
 10
1435.886882
 20
121.216651
 30
0.0
 11
1407.886882
 21
121.216651
 31
0.0
  0
LINE
  5
1CD
  8
002
 62
     3
 10
1413.186882
 20
115.216651
 30
0.0
 11
1413.186882
 21
114.216651
 31
0.0
  0
LINE
  5
1CE
  8
002
 62
     3
 10
1413.186882
 20
101.216651
 30
0.0
 11
1413.186882
 21
100.216651
 31
0.0
  0
LINE
  5
1CF
  8
002
 62
     3
 10
1413.186882
 20
100.216651
 30
0.0
 11
1430.586882
 21
100.216651
 31
0.0
  0
LINE
  5
1D0
  8
002
 62
     3
 10
1430.586882
 20
100.216651
 30
0.0
 11
1430.586882
 21
101.216651
 31
0.0
  0
LINE
  5
1D1
  8
002
 62
     3
 10
1427.886882
 20
100.216651
 30
0.0
 11
1427.886882
 21
85.216651
 31
0.0
  0
LINE
  5
1D2
  8
002
 62
     3
 10
1427.886882
 20
85.216651
 30
0.0
 11
1415.886882
 21
85.216651
 31
0.0
  0
LINE
  5
1D3
  8
002
 62
     3
 10
1415.886882
 20
85.216651
 30
0.0
 11
1415.886882
 21
100.216651
 31
0.0
  0
ARC
  5
1D4
  8
002
 62
     3
 10
1437.886882
 20
127.216651
 30
0.0
 40
1.0
 50
180.0
 51
260.009278
  0
LINE
  5
1D5
  8
002
 62
     3
 10
1437.713382
 20
126.231751
 30
0.0
 11
1443.560482
 21
125.201451
 31
0.0
  0
LINE
  5
1D6
  8
002
 62
     3
 10
1397.386882
 20
180.516651
 30
0.0
 11
1397.386882
 21
184.516651
 31
0.0
  0
ARC
  5
1D7
  8
002
 62
     3
 10
1398.386882
 20
184.516651
 30
0.0
 40
1.0
 50
90.0
 51
180.0
  0
LINE
  5
1D8
  8
002
  6
CENTER
 62
    40
 10
1436.186882
 20
110.968851
 30
0.0
 11
1436.186882
 21
104.208851
 31
0.0
  0
LINE
  5
1D9
  8
002
  6
CENTER
 62
    40
 10
1438.554682
 20
107.716651
 30
0.0
 11
1433.529582
 21
107.716651
 31
0.0
  0
LINE
  5
1DA
  8
002
 62
    40
 10
1416.698882
 20
85.216651
 30
0.0
 11
1416.698882
 21
100.216651
 31
0.0
  0
LINE
  5
1DB
  8
002
 62
    40
 10
1427.074882
 20
100.216651
 30
0.0
 11
1427.074882
 21
85.216651
 31
0.0
  0
LINE
  5
1DC
  8
002
  6
PHANTOM
 62
    40
 10
1444.386882
 20
153.516651
 30
0.0
 11
1444.386882
 21
124.216651
 31
0.0
  0
LINE
  5
1DD
  8
002
  6
PHANTOM
 62
    40
 10
1436.886882
 20
127.216651
 30
0.0
 11
1436.886882
 21
150.516651
 31
0.0
  0
LINE
  5
1DE
  8
002
  6
PHANTOM
 62
    40
 10
1406.886882
 20
150.516651
 30
0.0
 11
1406.886882
 21
127.216651
 31
0.0
  0
LINE
  5
1DF
  8
002
  6
PHANTOM
 62
    40
 10
1399.386882
 20
124.216651
 30
0.0
 11
1399.386882
 21
153.516651
 31
0.0
  0
LINE
  5
1E0
  8
003
  6
CENTER
 62
    40
 10
457.044953
 20
213.016651
 30
0.0
 11
331.818753
 21
213.016651
 31
0.0
  0
LINE
  5
1E1
  8
003
  6
CENTER
 62
    40
 10
189.379153
 20
213.016651
 30
0.0
 11
62.433213
 21
213.016651
 31
0.0
  0
ARC
  5
1E2
  8
002
 62
     3
 10
102.053753
 20
184.516651
 30
0.0
 40
1.0
 50
90.0
 51
180.0
  0
LINE
  5
1E3
  8
002
 62
     3
 10
101.053753
 20
184.516651
 30
0.0
 11
101.053753
 21
172.516651
 31
0.0
  0
LINE
  5
1E4
  8
002
 62
     3
 10
100.553753
 20
172.516651
 30
0.0
 11
150.553853
 21
172.516651
 31
0.0
  0
LINE
  5
1E5
  8
002
 62
     3
 10
150.553853
 20
172.516651
 30
0.0
 11
150.553853
 21
166.516651
 31
0.0
  0
LINE
  5
1E6
  8
002
 62
     3
 10
149.553853
 20
165.516651
 30
0.0
 11
101.553753
 21
165.516651
 31
0.0
  0
LINE
  5
1E7
  8
002
 62
     3
 10
101.058753
 20
165.647751
 30
0.0
 11
101.058753
 21
170.516651
 31
0.0
  0
LINE
  5
1E8
  8
002
 62
     3
 10
101.058753
 20
170.516651
 30
0.0
 11
100.553753
 21
170.516651
 31
0.0
  0
LINE
  5
1E9
  8
002
 62
     3
 10
100.553753
 20
170.516651
 30
0.0
 11
100.553753
 21
172.516651
 31
0.0
  0
ARC
  5
1EA
  8
002
 62
     3
 10
101.553753
 20
166.516651
 30
0.0
 40
1.0
 50
240.330449
 51
270.0
  0
LINE
  5
1EB
  8
002
 62
     3
 10
110.553753
 20
80.516651
 30
0.0
 11
140.553853
 21
80.516651
 31
0.0
  0
LINE
  5
1EC
  8
002
 62
     3
 10
140.553853
 20
80.516651
 30
0.0
 11
140.553853
 21
63.516651
 31
0.0
  0
LINE
  5
1ED
  8
002
 62
     3
 10
137.553853
 20
60.516651
 30
0.0
 11
113.553853
 21
60.516651
 31
0.0
  0
LINE
  5
1EE
  8
002
 62
     3
 10
110.553753
 20
63.516651
 30
0.0
 11
110.553753
 21
80.516651
 31
0.0
  0
ARC
  5
1EF
  8
002
 62
     3
 10
113.553853
 20
63.516651
 30
0.0
 40
3.0
 50
180.0
 51
270.0
  0
ARC
  5
1F0
  8
002
 62
     3
 10
137.553853
 20
63.516651
 30
0.0
 40
3.0
 50
270.0
 51
0.0
  0
LINE
  5
1F1
  8
002
 62
     3
 10
138.659253
 20
165.516651
 30
0.0
 11
139.178853
 21
165.816651
 31
0.0
  0
LINE
  5
1F2
  8
002
 62
     3
 10
139.178853
 20
165.816651
 30
0.0
 11
133.471253
 21
165.816651
 31
0.0
  0
LINE
  5
1F3
  8
002
 62
     3
 10
133.471253
 20
165.516651
 30
0.0
 11
133.471253
 21
170.516651
 31
0.0
  0
LINE
  5
1F4
  8
002
 62
     3
 10
133.471253
 20
170.516651
 30
0.0
 11
142.131453
 21
170.516651
 31
0.0
  0
LINE
  5
1F5
  8
002
 62
     3
 10
142.131453
 20
170.516651
 30
0.0
 11
142.131453
 21
165.516651
 31
0.0
  0
LINE
  5
1F6
  8
002
 62
     3
 10
139.178853
 20
165.816651
 30
0.0
 11
139.178853
 21
170.516651
 31
0.0
  0
LINE
  5
1F7
  8
002
 62
     3
 10
150.053853
 20
172.516651
 30
0.0
 11
150.053853
 21
184.516651
 31
0.0
  0
ARC
  5
1F8
  8
002
 62
     3
 10
149.053853
 20
184.516651
 30
0.0
 40
1.0
 50
0.0
 51
90.0
  0
ARC
  5
1F9
  8
002
 62
     3
 10
149.553853
 20
166.516651
 30
0.0
 40
1.0
 50
270.0
 51
0.0
  0
ARC
  5
1FA
  8
002
 62
     3
 10
371.886553
 20
184.516651
 30
0.0
 40
1.0
 50
90.0
 51
180.0
  0
LINE
  5
1FB
  8
002
 62
     3
 10
370.886553
 20
184.516651
 30
0.0
 11
370.886553
 21
172.516651
 31
0.0
  0
LINE
  5
1FC
  8
002
 62
     3
 10
370.386553
 20
172.516651
 30
0.0
 11
420.386653
 21
172.516651
 31
0.0
  0
LINE
  5
1FD
  8
002
 62
     3
 10
420.386653
 20
172.516651
 30
0.0
 11
420.386653
 21
166.516651
 31
0.0
  0
LINE
  5
1FE
  8
002
 62
     3
 10
419.386653
 20
165.516651
 30
0.0
 11
371.386553
 21
165.516651
 31
0.0
  0
LINE
  5
1FF
  8
002
 62
     3
 10
370.891553
 20
165.647751
 30
0.0
 11
370.891553
 21
170.516651
 31
0.0
  0
LINE
  5
200
  8
002
 62
     3
 10
370.891553
 20
170.516651
 30
0.0
 11
370.386553
 21
170.516651
 31
0.0
  0
LINE
  5
201
  8
002
 62
     3
 10
370.386553
 20
170.516651
 30
0.0
 11
370.386553
 21
172.516651
 31
0.0
  0
ARC
  5
202
  8
002
 62
     3
 10
371.386553
 20
166.516651
 30
0.0
 40
1.0
 50
240.330449
 51
270.0
  0
LINE
  5
203
  8
002
 62
     3
 10
380.386553
 20
80.516651
 30
0.0
 11
410.386653
 21
80.516651
 31
0.0
  0
LINE
  5
204
  8
002
 62
     3
 10
410.386653
 20
80.516651
 30
0.0
 11
410.386653
 21
63.516651
 31
0.0
  0
LINE
  5
205
  8
002
 62
     3
 10
407.386653
 20
60.516651
 30
0.0
 11
383.386653
 21
60.516651
 31
0.0
  0
LINE
  5
206
  8
002
 62
     3
 10
380.386553
 20
63.516651
 30
0.0
 11
380.386553
 21
80.516651
 31
0.0
  0
ARC
  5
207
  8
002
 62
     3
 10
383.386653
 20
63.516651
 30
0.0
 40
3.0
 50
180.0
 51
270.0
  0
ARC
  5
208
  8
002
 62
     3
 10
407.386653
 20
63.516651
 30
0.0
 40
3.0
 50
270.0
 51
0.0
  0
LINE
  5
209
  8
002
 62
     3
 10
408.492053
 20
165.516651
 30
0.0
 11
409.011653
 21
165.816651
 31
0.0
  0
LINE
  5
20A
  8
002
 62
     3
 10
409.011653
 20
165.816651
 30
0.0
 11
403.304053
 21
165.816651
 31
0.0
  0
LINE
  5
20B
  8
002
 62
     3
 10
403.304053
 20
165.516651
 30
0.0
 11
403.304053
 21
170.516651
 31
0.0
  0
LINE
  5
20C
  8
002
 62
     3
 10
403.304053
 20
170.516651
 30
0.0
 11
411.964253
 21
170.516651
 31
0.0
  0
LINE
  5
20D
  8
002
 62
     3
 10
411.964253
 20
170.516651
 30
0.0
 11
411.964253
 21
165.516651
 31
0.0
  0
LINE
  5
20E
  8
002
 62
     3
 10
409.011653
 20
165.816651
 30
0.0
 11
409.011653
 21
170.516651
 31
0.0
  0
LINE
  5
20F
  8
002
 62
     3
 10
419.886653
 20
172.516651
 30
0.0
 11
419.886653
 21
184.516651
 31
0.0
  0
ARC
  5
210
  8
002
 62
     3
 10
418.886653
 20
184.516651
 30
0.0
 40
1.0
 50
0.0
 51
90.0
  0
ARC
  5
211
  8
002
 62
     3
 10
419.386653
 20
166.516651
 30
0.0
 40
1.0
 50
270.0
 51
0.0
  0
LINE
  5
212
  8
002
 62
     3
 10
119.553853
 20
325.516651
 30
0.0
 11
119.553853
 21
340.516651
 31
0.0
  0
LINE
  5
213
  8
002
 62
     3
 10
119.553853
 20
340.516651
 30
0.0
 11
131.553853
 21
340.516651
 31
0.0
  0
LINE
  5
214
  8
002
 62
     3
 10
131.553853
 20
340.516651
 30
0.0
 11
131.553853
 21
325.516651
 31
0.0
  0
LINE
  5
215
  8
002
 62
    40
 10
120.365853
 20
325.516651
 30
0.0
 11
120.365853
 21
340.516651
 31
0.0
  0
LINE
  5
216
  8
002
 62
    40
 10
130.741853
 20
340.516651
 30
0.0
 11
130.741853
 21
325.516651
 31
0.0
  0
LINE
  5
217
  8
002
 62
     3
 10
133.553853
 20
325.516651
 30
0.0
 11
117.553853
 21
325.516651
 31
0.0
  0
LINE
  5
218
  8
002
 62
     3
 10
133.553853
 20
310.516651
 30
0.0
 11
117.553853
 21
310.516651
 31
0.0
  0
LINE
  5
219
  8
002
 62
     3
 10
389.386653
 20
325.516651
 30
0.0
 11
389.386653
 21
340.516651
 31
0.0
  0
LINE
  5
21A
  8
002
 62
     3
 10
389.386653
 20
340.516651
 30
0.0
 11
401.386653
 21
340.516651
 31
0.0
  0
LINE
  5
21B
  8
002
 62
     3
 10
401.386653
 20
340.516651
 30
0.0
 11
401.386653
 21
325.516651
 31
0.0
  0
LINE
  5
21C
  8
002
 62
    40
 10
390.198653
 20
325.516651
 30
0.0
 11
390.198653
 21
340.516651
 31
0.0
  0
LINE
  5
21D
  8
002
 62
    40
 10
400.574653
 20
340.516651
 30
0.0
 11
400.574653
 21
325.516651
 31
0.0
  0
LINE
  5
21E
  8
002
 62
     3
 10
403.386653
 20
325.516651
 30
0.0
 11
387.386653
 21
325.516651
 31
0.0
  0
LINE
  5
21F
  8
002
 62
     3
 10
403.386653
 20
310.516651
 30
0.0
 11
387.386653
 21
310.516651
 31
0.0
  0
LINE
  5
220
  8
003
  6
CENTER
 62
    40
 10
125.553853
 20
56.809814
 30
0.0
 11
125.553853
 21
345.51239
 31
0.0
  0
LINE
  5
221
  8
003
  6
CENTER
 62
    40
 10
395.386653
 20
56.809814
 30
0.0
 11
395.386653
 21
345.51239
 31
0.0
  0
POLYLINE
  5
222
  8
002
 62
     3
 66
     1
 10
0.0
 20
0.0
 30
0.0
  0
VERTEX
  5
224
  8
002
 62
     3
 10
112.553853
 20
109.016651
 30
0.0
  0
VERTEX
  5
225
  8
002
 62
     3
 10
114.72052
 20
107.090725
 30
0.0
  0
VERTEX
  5
226
  8
002
 62
     3
 10
116.887186
 20
105.609244
 30
0.0
  0
VERTEX
  5
227
  8
002
 62
     3
 10
119.053853
 20
105.016651
 30
0.0
  0
VERTEX
  5
228
  8
002
 62
     3
 10
121.22052
 20
105.609244
 30
0.0
  0
VERTEX
  5
229
  8
002
 62
     3
 10
123.387186
 20
107.090725
 30
0.0
  0
VERTEX
  5
22A
  8
002
 62
     3
 10
125.553853
 20
109.016651
 30
0.0
  0
VERTEX
  5
22B
  8
002
 62
     3
 10
127.72052
 20
110.942577
 30
0.0
  0
VERTEX
  5
22C
  8
002
 62
     3
 10
129.887186
 20
112.424058
 30
0.0
  0
VERTEX
  5
22D
  8
002
 62
     3
 10
132.053853
 20
113.016651
 30
0.0
  0
VERTEX
  5
22E
  8
002
 62
     3
 10
134.22052
 20
112.424058
 30
0.0
  0
VERTEX
  5
22F
  8
002
 62
     3
 10
136.387186
 20
110.942577
 30
0.0
  0
VERTEX
  5
230
  8
002
 62
     3
 10
138.553853
 20
109.016651
 30
0.0
  0
SEQEND
  5
223
  8
002
 62
     3
  0
POLYLINE
  5
231
  8
002
 62
     3
 66
     1
 10
0.0
 20
0.0
 30
0.0
  0
VERTEX
  5
233
  8
002
 62
     3
 10
112.553853
 20
117.016651
 30
0.0
  0
VERTEX
  5
234
  8
002
 62
     3
 10
114.72052
 20
115.090725
 30
0.0
  0
VERTEX
  5
235
  8
002
 62
     3
 10
116.887186
 20
113.609244
 30
0.0
  0
VERTEX
  5
236
  8
002
 62
     3
 10
119.053853
 20
113.016651
 30
0.0
  0
VERTEX
  5
237
  8
002
 62
     3
 10
121.22052
 20
113.609244
 30
0.0
  0
VERTEX
  5
238
  8
002
 62
     3
 10
123.387186
 20
115.090725
 30
0.0
  0
VERTEX
  5
239
  8
002
 62
     3
 10
125.553853
 20
117.016651
 30
0.0
  0
VERTEX
  5
23A
  8
002
 62
     3
 10
127.72052
 20
118.942577
 30
0.0
  0
VERTEX
  5
23B
  8
002
 62
     3
 10
129.887186
 20
120.424058
 30
0.0
  0
VERTEX
  5
23C
  8
002
 62
     3
 10
132.053853
 20
121.016651
 30
0.0
  0
VERTEX
  5
23D
  8
002
 62
     3
 10
134.22052
 20
120.424058
 30
0.0
  0
VERTEX
  5
23E
  8
002
 62
     3
 10
136.387186
 20
118.942577
 30
0.0
  0
VERTEX
  5
23F
  8
002
 62
     3
 10
138.553853
 20
117.016651
 30
0.0
  0
SEQEND
  5
232
  8
002
 62
     3
  0
POLYLINE
  5
240
  8
002
 62
     3
 66
     1
 10
0.0
 20
0.0
 30
0.0
  0
VERTEX
  5
242
  8
002
 62
     3
 10
117.553853
 20
270.962914
 30
0.0
  0
VERTEX
  5
243
  8
002
 62
     3
 10
119.553853
 20
268.212914
 30
0.0
  0
VERTEX
  5
244
  8
002
 62
     3
 10
121.553853
 20
266.962914
 30
0.0
  0
VERTEX
  5
245
  8
002
 62
     3
 10
123.553853
 20
268.212914
 30
0.0
  0
VERTEX
  5
246
  8
002
 62
     3
 10
125.553853
 20
270.962914
 30
0.0
  0
VERTEX
  5
247
  8
002
 62
     3
 10
127.553853
 20
273.712914
 30
0.0
  0
VERTEX
  5
248
  8
002
 62
     3
 10
129.553853
 20
274.962914
 30
0.0
  0
VERTEX
  5
249
  8
002
 62
     3
 10
131.553853
 20
273.712914
 30
0.0
  0
VERTEX
  5
24A
  8
002
 62
     3
 10
133.553853
 20
270.962914
 30
0.0
  0
SEQEND
  5
241
  8
002
 62
     3
  0
POLYLINE
  5
24B
  8
002
 62
     3
 66
     1
 10
0.0
 20
0.0
 30
0.0
  0
VERTEX
  5
24D
  8
002
 62
     3
 10
117.553853
 20
278.962914
 30
0.0
  0
VERTEX
  5
24E
  8
002
 62
     3
 10
119.553853
 20
276.212914
 30
0.0
  0
VERTEX
  5
24F
  8
002
 62
     3
 10
121.553853
 20
274.962914
 30
0.0
  0
VERTEX
  5
250
  8
002
 62
     3
 10
123.553853
 20
276.212914
 30
0.0
  0
VERTEX
  5
251
  8
002
 62
     3
 10
125.553853
 20
278.962914
 30
0.0
  0
VERTEX
  5
252
  8
002
 62
     3
 10
127.553853
 20
281.712914
 30
0.0
  0
VERTEX
  5
253
  8
002
 62
     3
 10
129.553853
 20
282.962914
 30
0.0
  0
VERTEX
  5
254
  8
002
 62
     3
 10
131.553853
 20
281.712914
 30
0.0
  0
VERTEX
  5
255
  8
002
 62
     3
 10
133.553853
 20
278.962914
 30
0.0
  0
SEQEND
  5
24C
  8
002
 62
     3
  0
LINE
  5
256
  8
002
 62
     3
 10
138.553853
 20
80.516651
 30
0.0
 11
138.553853
 21
109.016651
 31
0.0
  0
LINE
  5
257
  8
002
 62
     3
 10
138.553853
 20
117.016651
 30
0.0
 11
138.553853
 21
165.516651
 31
0.0
  0
LINE
  5
258
  8
002
 62
     3
 10
112.553853
 20
165.516651
 30
0.0
 11
112.553853
 21
117.016651
 31
0.0
  0
LINE
  5
259
  8
002
 62
     3
 10
112.553853
 20
109.016651
 30
0.0
 11
112.553853
 21
80.516651
 31
0.0
  0
LINE
  5
25A
  8
002
 62
     3
 10
133.553853
 20
240.516651
 30
0.0
 11
133.553853
 21
270.962914
 31
0.0
  0
LINE
  5
25B
  8
002
 62
     3
 10
133.553853
 20
278.962914
 30
0.0
 11
133.553853
 21
325.516651
 31
0.0
  0
LINE
  5
25C
  8
002
 62
    40
 10
131.803853
 20
240.516651
 30
0.0
 11
131.803853
 21
273.420434
 31
0.0
  0
LINE
  5
25D
  8
002
 62
    40
 10
131.803853
 20
281.420434
 30
0.0
 11
131.803853
 21
310.516651
 31
0.0
  0
LINE
  5
25E
  8
002
 62
     3
 10
117.553853
 20
325.516651
 30
0.0
 11
117.553853
 21
278.962914
 31
0.0
  0
LINE
  5
25F
  8
002
 62
     3
 10
117.553853
 20
270.962914
 30
0.0
 11
117.553853
 21
240.516651
 31
0.0
  0
LINE
  5
260
  8
002
 62
    40
 10
119.303853
 20
310.516651
 30
0.0
 11
119.303853
 21
276.505395
 31
0.0
  0
LINE
  5
261
  8
002
 62
    40
 10
119.303853
 20
268.505395
 30
0.0
 11
119.303853
 21
240.516651
 31
0.0
  0
LINE
  5
262
  8
002
 62
     3
 10
261.805853
 20
80.516651
 30
0.0
 11
261.805853
 21
109.016651
 31
0.0
  0
LINE
  5
263
  8
002
 62
     3
 10
261.805853
 20
117.016651
 30
0.0
 11
261.805853
 21
165.516651
 31
0.0
  0
LINE
  5
264
  8
002
 62
     3
 10
235.805853
 20
165.516651
 30
0.0
 11
235.805853
 21
117.016651
 31
0.0
  0
LINE
  5
265
  8
002
 62
     3
 10
235.805853
 20
109.016651
 30
0.0
 11
235.805853
 21
80.516651
 31
0.0
  0
LINE
  5
266
  8
002
 62
     3
 10
256.805853
 20
240.516651
 30
0.0
 11
256.805853
 21
270.962914
 31
0.0
  0
LINE
  5
267
  8
002
 62
     3
 10
256.805853
 20
278.962914
 30
0.0
 11
256.805853
 21
325.516651
 31
0.0
  0
LINE
  5
268
  8
002
 62
    40
 10
255.055853
 20
240.516651
 30
0.0
 11
255.055853
 21
273.420434
 31
0.0
  0
LINE
  5
269
  8
002
 62
    40
 10
255.055853
 20
281.420434
 30
0.0
 11
255.055853
 21
310.516651
 31
0.0
  0
LINE
  5
26A
  8
002
 62
     3
 10
240.805853
 20
325.516651
 30
0.0
 11
240.805853
 21
278.962914
 31
0.0
  0
LINE
  5
26B
  8
002
 62
     3
 10
240.805853
 20
270.962914
 30
0.0
 11
240.805853
 21
240.516651
 31
0.0
  0
LINE
  5
26C
  8
002
 62
    40
 10
242.555853
 20
310.516651
 30
0.0
 11
242.555853
 21
276.505395
 31
0.0
  0
LINE
  5
26D
  8
002
 62
    40
 10
242.555853
 20
268.505395
 30
0.0
 11
242.555853
 21
240.516651
 31
0.0
  0
POLYLINE
  5
26E
  8
002
 62
     3
 66
     1
 10
0.0
 20
0.0
 30
0.0
  0
VERTEX
  5
270
  8
002
 62
     3
 10
235.805853
 20
109.016651
 30
0.0
  0
VERTEX
  5
271
  8
002
 62
     3
 10
237.97252
 20
107.090725
 30
0.0
  0
VERTEX
  5
272
  8
002
 62
     3
 10
240.139186
 20
105.609244
 30
0.0
  0
VERTEX
  5
273
  8
002
 62
     3
 10
242.305853
 20
105.016651
 30
0.0
  0
VERTEX
  5
274
  8
002
 62
     3
 10
244.47252
 20
105.609244
 30
0.0
  0
VERTEX
  5
275
  8
002
 62
     3
 10
246.639186
 20
107.090725
 30
0.0
  0
VERTEX
  5
276
  8
002
 62
     3
 10
248.805853
 20
109.016651
 30
0.0
  0
VERTEX
  5
277
  8
002
 62
     3
 10
250.97252
 20
110.942577
 30
0.0
  0
VERTEX
  5
278
  8
002
 62
     3
 10
253.139186
 20
112.424058
 30
0.0
  0
VERTEX
  5
279
  8
002
 62
     3
 10
255.305853
 20
113.016651
 30
0.0
  0
VERTEX
  5
27A
  8
002
 62
     3
 10
257.47252
 20
112.424058
 30
0.0
  0
VERTEX
  5
27B
  8
002
 62
     3
 10
259.639186
 20
110.942577
 30
0.0
  0
VERTEX
  5
27C
  8
002
 62
     3
 10
261.805853
 20
109.016651
 30
0.0
  0
SEQEND
  5
26F
  8
002
 62
     3
  0
POLYLINE
  5
27D
  8
002
 62
     3
 66
     1
 10
0.0
 20
0.0
 30
0.0
  0
VERTEX
  5
27F
  8
002
 62
     3
 10
235.805853
 20
117.016651
 30
0.0
  0
VERTEX
  5
280
  8
002
 62
     3
 10
237.97252
 20
115.090725
 30
0.0
  0
VERTEX
  5
281
  8
002
 62
     3
 10
240.139186
 20
113.609244
 30
0.0
  0
VERTEX
  5
282
  8
002
 62
     3
 10
242.305853
 20
113.016651
 30
0.0
  0
VERTEX
  5
283
  8
002
 62
     3
 10
244.47252
 20
113.609244
 30
0.0
  0
VERTEX
  5
284
  8
002
 62
     3
 10
246.639186
 20
115.090725
 30
0.0
  0
VERTEX
  5
285
  8
002
 62
     3
 10
248.805853
 20
117.016651
 30
0.0
  0
VERTEX
  5
286
  8
002
 62
     3
 10
250.97252
 20
118.942577
 30
0.0
  0
VERTEX
  5
287
  8
002
 62
     3
 10
253.139186
 20
120.424058
 30
0.0
  0
VERTEX
  5
288
  8
002
 62
     3
 10
255.305853
 20
121.016651
 30
0.0
  0
VERTEX
  5
289
  8
002
 62
     3
 10
257.47252
 20
120.424058
 30
0.0
  0
VERTEX
  5
28A
  8
002
 62
     3
 10
259.639186
 20
118.942577
 30
0.0
  0
VERTEX
  5
28B
  8
002
 62
     3
 10
261.805853
 20
117.016651
 30
0.0
  0
SEQEND
  5
27E
  8
002
 62
     3
  0
POLYLINE
  5
28C
  8
002
 62
     3
 66
     1
 10
0.0
 20
0.0
 30
0.0
  0
VERTEX
  5
28E
  8
002
 62
     3
 10
240.805853
 20
270.962914
 30
0.0
  0
VERTEX
  5
28F
  8
002
 62
     3
 10
242.805853
 20
268.212914
 30
0.0
  0
VERTEX
  5
290
  8
002
 62
     3
 10
244.805853
 20
266.962914
 30
0.0
  0
VERTEX
  5
291
  8
002
 62
     3
 10
246.805853
 20
268.212914
 30
0.0
  0
VERTEX
  5
292
  8
002
 62
     3
 10
248.805853
 20
270.962914
 30
0.0
  0
VERTEX
  5
293
  8
002
 62
     3
 10
250.805853
 20
273.712914
 30
0.0
  0
VERTEX
  5
294
  8
002
 62
     3
 10
252.805853
 20
274.962914
 30
0.0
  0
VERTEX
  5
295
  8
002
 62
     3
 10
254.805853
 20
273.712914
 30
0.0
  0
VERTEX
  5
296
  8
002
 62
     3
 10
256.805853
 20
270.962914
 30
0.0
  0
SEQEND
  5
28D
  8
002
 62
     3
  0
POLYLINE
  5
297
  8
002
 62
     3
 66
     1
 10
0.0
 20
0.0
 30
0.0
  0
VERTEX
  5
299
  8
002
 62
     3
 10
240.805853
 20
278.962914
 30
0.0
  0
VERTEX
  5
29A
  8
002
 62
     3
 10
242.805853
 20
276.212914
 30
0.0
  0
VERTEX
  5
29B
  8
002
 62
     3
 10
244.805853
 20
274.962914
 30
0.0
  0
VERTEX
  5
29C
  8
002
 62
     3
 10
246.805853
 20
276.212914
 30
0.0
  0
VERTEX
  5
29D
  8
002
 62
     3
 10
248.805853
 20
278.962914
 30
0.0
  0
VERTEX
  5
29E
  8
002
 62
     3
 10
250.805853
 20
281.712914
 30
0.0
  0
VERTEX
  5
29F
  8
002
 62
     3
 10
252.805853
 20
282.962914
 30
0.0
  0
VERTEX
  5
2A0
  8
002
 62
     3
 10
254.805853
 20
281.712914
 30
0.0
  0
VERTEX
  5
2A1
  8
002
 62
     3
 10
256.805853
 20
278.962914
 30
0.0
  0
SEQEND
  5
298
  8
002
 62
     3
  0
LINE
  5
2A2
  8
002
 62
     3
 10
408.386653
 20
80.516651
 30
0.0
 11
408.386653
 21
109.016651
 31
0.0
  0
LINE
  5
2A3
  8
002
 62
     3
 10
408.386653
 20
117.016651
 30
0.0
 11
408.386653
 21
165.516651
 31
0.0
  0
LINE
  5
2A4
  8
002
 62
     3
 10
382.386653
 20
165.516651
 30
0.0
 11
382.386653
 21
117.016651
 31
0.0
  0
LINE
  5
2A5
  8
002
 62
     3
 10
382.386653
 20
109.016651
 30
0.0
 11
382.386653
 21
80.516651
 31
0.0
  0
LINE
  5
2A6
  8
002
 62
     3
 10
403.386653
 20
240.516651
 30
0.0
 11
403.386653
 21
270.962914
 31
0.0
  0
LINE
  5
2A7
  8
002
 62
     3
 10
403.386653
 20
278.962914
 30
0.0
 11
403.386653
 21
325.516651
 31
0.0
  0
LINE
  5
2A8
  8
002
 62
    40
 10
401.636653
 20
240.516651
 30
0.0
 11
401.636653
 21
273.420434
 31
0.0
  0
LINE
  5
2A9
  8
002
 62
    40
 10
401.636653
 20
281.420434
 30
0.0
 11
401.636653
 21
310.516651
 31
0.0
  0
LINE
  5
2AA
  8
002
 62
     3
 10
387.386653
 20
325.516651
 30
0.0
 11
387.386653
 21
278.962914
 31
0.0
  0
LINE
  5
2AB
  8
002
 62
     3
 10
387.386653
 20
270.962914
 30
0.0
 11
387.386653
 21
240.516651
 31
0.0
  0
LINE
  5
2AC
  8
002
 62
    40
 10
389.136653
 20
310.516651
 30
0.0
 11
389.136653
 21
276.505395
 31
0.0
  0
LINE
  5
2AD
  8
002
 62
    40
 10
389.136653
 20
268.505395
 30
0.0
 11
389.136653
 21
240.516651
 31
0.0
  0
POLYLINE
  5
2AE
  8
002
 62
     3
 66
     1
 10
0.0
 20
0.0
 30
0.0
  0
VERTEX
  5
2B0
  8
002
 62
     3
 10
382.386653
 20
109.016651
 30
0.0
  0
VERTEX
  5
2B1
  8
002
 62
     3
 10
384.55332
 20
107.090725
 30
0.0
  0
VERTEX
  5
2B2
  8
002
 62
     3
 10
386.719986
 20
105.609244
 30
0.0
  0
VERTEX
  5
2B3
  8
002
 62
     3
 10
388.886653
 20
105.016651
 30
0.0
  0
VERTEX
  5
2B4
  8
002
 62
     3
 10
391.05332
 20
105.609244
 30
0.0
  0
VERTEX
  5
2B5
  8
002
 62
     3
 10
393.219986
 20
107.090725
 30
0.0
  0
VERTEX
  5
2B6
  8
002
 62
     3
 10
395.386653
 20
109.016651
 30
0.0
  0
VERTEX
  5
2B7
  8
002
 62
     3
 10
397.55332
 20
110.942577
 30
0.0
  0
VERTEX
  5
2B8
  8
002
 62
     3
 10
399.719986
 20
112.424058
 30
0.0
  0
VERTEX
  5
2B9
  8
002
 62
     3
 10
401.886653
 20
113.016651
 30
0.0
  0
VERTEX
  5
2BA
  8
002
 62
     3
 10
404.05332
 20
112.424058
 30
0.0
  0
VERTEX
  5
2BB
  8
002
 62
     3
 10
406.219986
 20
110.942577
 30
0.0
  0
VERTEX
  5
2BC
  8
002
 62
     3
 10
408.386653
 20
109.016651
 30
0.0
  0
SEQEND
  5
2AF
  8
002
 62
     3
  0
POLYLINE
  5
2BD
  8
002
 62
     3
 66
     1
 10
0.0
 20
0.0
 30
0.0
  0
VERTEX
  5
2BF
  8
002
 62
     3
 10
382.386653
 20
117.016651
 30
0.0
  0
VERTEX
  5
2C0
  8
002
 62
     3
 10
384.55332
 20
115.090725
 30
0.0
  0
VERTEX
  5
2C1
  8
002
 62
     3
 10
386.719986
 20
113.609244
 30
0.0
  0
VERTEX
  5
2C2
  8
002
 62
     3
 10
388.886653
 20
113.016651
 30
0.0
  0
VERTEX
  5
2C3
  8
002
 62
     3
 10
391.05332
 20
113.609244
 30
0.0
  0
VERTEX
  5
2C4
  8
002
 62
     3
 10
393.219986
 20
115.090725
 30
0.0
  0
VERTEX
  5
2C5
  8
002
 62
     3
 10
395.386653
 20
117.016651
 30
0.0
  0
VERTEX
  5
2C6
  8
002
 62
     3
 10
397.55332
 20
118.942577
 30
0.0
  0
VERTEX
  5
2C7
  8
002
 62
     3
 10
399.719986
 20
120.424058
 30
0.0
  0
VERTEX
  5
2C8
  8
002
 62
     3
 10
401.886653
 20
121.016651
 30
0.0
  0
VERTEX
  5
2C9
  8
002
 62
     3
 10
404.05332
 20
120.424058
 30
0.0
  0
VERTEX
  5
2CA
  8
002
 62
     3
 10
406.219986
 20
118.942577
 30
0.0
  0
VERTEX
  5
2CB
  8
002
 62
     3
 10
408.386653
 20
117.016651
 30
0.0
  0
SEQEND
  5
2BE
  8
002
 62
     3
  0
POLYLINE
  5
2CC
  8
002
 62
     3
 66
     1
 10
0.0
 20
0.0
 30
0.0
  0
VERTEX
  5
2CE
  8
002
 62
     3
 10
387.386653
 20
270.962914
 30
0.0
  0
VERTEX
  5
2CF
  8
002
 62
     3
 10
389.386653
 20
268.212914
 30
0.0
  0
VERTEX
  5
2D0
  8
002
 62
     3
 10
391.386653
 20
266.962914
 30
0.0
  0
VERTEX
  5
2D1
  8
002
 62
     3
 10
393.386653
 20
268.212914
 30
0.0
  0
VERTEX
  5
2D2
  8
002
 62
     3
 10
395.386653
 20
270.962914
 30
0.0
  0
VERTEX
  5
2D3
  8
002
 62
     3
 10
397.386653
 20
273.712914
 30
0.0
  0
VERTEX
  5
2D4
  8
002
 62
     3
 10
399.386653
 20
274.962914
 30
0.0
  0
VERTEX
  5
2D5
  8
002
 62
     3
 10
401.386653
 20
273.712914
 30
0.0
  0
VERTEX
  5
2D6
  8
002
 62
     3
 10
403.386653
 20
270.962914
 30
0.0
  0
SEQEND
  5
2CD
  8
002
 62
     3
  0
POLYLINE
  5
2D7
  8
002
 62
     3
 66
     1
 10
0.0
 20
0.0
 30
0.0
  0
VERTEX
  5
2D9
  8
002
 62
     3
 10
387.386653
 20
278.962914
 30
0.0
  0
VERTEX
  5
2DA
  8
002
 62
     3
 10
389.386653
 20
276.212914
 30
0.0
  0
VERTEX
  5
2DB
  8
002
 62
     3
 10
391.386653
 20
274.962914
 30
0.0
  0
VERTEX
  5
2DC
  8
002
 62
     3
 10
393.386653
 20
276.212914
 30
0.0
  0
VERTEX
  5
2DD
  8
002
 62
     3
 10
395.386653
 20
278.962914
 30
0.0
  0
VERTEX
  5
2DE
  8
002
 62
     3
 10
397.386653
 20
281.712914
 30
0.0
  0
VERTEX
  5
2DF
  8
002
 62
     3
 10
399.386653
 20
282.962914
 30
0.0
  0
VERTEX
  5
2E0
  8
002
 62
     3
 10
401.386653
 20
281.712914
 30
0.0
  0
VERTEX
  5
2E1
  8
002
 62
     3
 10
403.386653
 20
278.962914
 30
0.0
  0
SEQEND
  5
2D8
  8
002
 62
     3
  0
CIRCLE
  5
2E2
  8
002
 62
     3
 10
1060.886782
 20
500.631462
 30
0.0
 40
25.0
  0
CIRCLE
  5
2E3
  8
002
 62
     3
 10
1060.886782
 20
500.631462
 30
0.0
 40
15.0
  0
LINE
  5
2E4
  8
002
 62
     3
 10
1063.627782
 20
515.378862
 30
0.0
 11
1068.804082
 21
524.344662
 31
0.0
  0
LINE
  5
2E5
  8
002
 62
     3
 10
1069.107082
 20
518.869362
 30
0.0
 11
1067.952382
 21
516.869362
 31
0.0
  0
LINE
  5
2E6
  8
002
 62
     3
 10
1067.952382
 20
516.869362
 30
0.0
 11
1069.107082
 21
514.869362
 31
0.0
  0
LINE
  5
2E7
  8
002
 62
     3
 10
1069.107082
 20
514.869362
 30
0.0
 11
1071.416482
 21
514.869362
 31
0.0
  0
LINE
  5
2E8
  8
002
 62
     3
 10
1071.416482
 20
514.869362
 30
0.0
 11
1072.571182
 21
516.869362
 31
0.0
  0
LINE
  5
2E9
  8
002
 62
     3
 10
1072.571182
 20
516.869362
 30
0.0
 11
1071.416482
 21
518.869362
 31
0.0
  0
LINE
  5
2EA
  8
002
 62
     3
 10
1071.416482
 20
518.869362
 30
0.0
 11
1069.107082
 21
518.869362
 31
0.0
  0
ARC
  5
2EB
  8
002
 62
     3
 10
1070.261782
 20
516.869362
 30
0.0
 40
4.249922175758019
 50
264.844507
 51
215.15559
  0
LINE
  5
2EC
  8
002
 62
     3
 10
1072.287982
 20
510.378862
 30
0.0
 11
1077.464382
 21
519.344662
 31
0.0
  0
LINE
  5
2ED
  8
002
 62
     3
 10
1072.287982
 20
490.883962
 30
0.0
 11
1077.464382
 21
481.918262
 31
0.0
  0
LINE
  5
2EE
  8
002
 62
     3
 10
1072.571182
 20
484.393462
 30
0.0
 11
1071.416482
 21
486.393462
 31
0.0
  0
LINE
  5
2EF
  8
002
 62
     3
 10
1071.416482
 20
486.393462
 30
0.0
 11
1069.107082
 21
486.393462
 31
0.0
  0
LINE
  5
2F0
  8
002
 62
     3
 10
1069.107082
 20
486.393462
 30
0.0
 11
1067.952382
 21
484.393462
 31
0.0
  0
LINE
  5
2F1
  8
002
 62
     3
 10
1067.952382
 20
484.393462
 30
0.0
 11
1069.107082
 21
482.393462
 31
0.0
  0
LINE
  5
2F2
  8
002
 62
     3
 10
1069.107082
 20
482.393462
 30
0.0
 11
1071.416482
 21
482.393462
 31
0.0
  0
LINE
  5
2F3
  8
002
 62
     3
 10
1071.416482
 20
482.393462
 30
0.0
 11
1072.571182
 21
484.393462
 31
0.0
  0
ARC
  5
2F4
  8
002
 62
     3
 10
1070.261782
 20
484.393462
 30
0.0
 40
4.249993347053612
 50
144.84441
 51
95.155493
  0
LINE
  5
2F5
  8
002
 62
     3
 10
1063.627782
 20
485.883962
 30
0.0
 11
1068.804082
 21
476.918262
 31
0.0
  0
LINE
  5
2F6
  8
002
 62
     3
 10
1046.744682
 20
495.631462
 30
0.0
 11
1036.391882
 21
495.631462
 31
0.0
  0
LINE
  5
2F7
  8
002
 62
     3
 10
1040.982082
 20
498.631462
 30
0.0
 11
1043.291482
 21
498.631462
 31
0.0
  0
LINE
  5
2F8
  8
002
 62
     3
 10
1043.291482
 20
498.631462
 30
0.0
 11
1044.446182
 21
500.631462
 31
0.0
  0
LINE
  5
2F9
  8
002
 62
     3
 10
1044.446182
 20
500.631462
 30
0.0
 11
1043.291482
 21
502.631462
 31
0.0
  0
LINE
  5
2FA
  8
002
 62
     3
 10
1043.291482
 20
502.631462
 30
0.0
 11
1040.982082
 21
502.631462
 31
0.0
  0
LINE
  5
2FB
  8
002
 62
     3
 10
1040.982082
 20
502.631462
 30
0.0
 11
1039.827382
 21
500.631462
 31
0.0
  0
LINE
  5
2FC
  8
002
 62
     3
 10
1039.827382
 20
500.631462
 30
0.0
 11
1040.982082
 21
498.631462
 31
0.0
  0
ARC
  5
2FD
  8
002
 62
     3
 10
1042.136782
 20
500.631462
 30
0.0
 40
4.250042279789747
 50
24.843499
 51
335.155277
  0
LINE
  5
2FE
  8
002
 62
     3
 10
1046.744682
 20
505.631462
 30
0.0
 11
1036.391882
 21
505.631462
 31
0.0
  0
CIRCLE
  5
2FF
  8
002
  6
CENTER
 62
    40
 10
1060.886782
 20
500.631462
 30
0.0
 40
18.75
  0
LINE
  5
300
  8
002
  6
CENTER
 62
    40
 10
1073.386782
 20
478.980762
 30
0.0
 11
1067.386782
 21
489.373062
 31
0.0
  0
LINE
  5
301
  8
002
  6
CENTER
 62
    40
 10
1067.386782
 20
511.889762
 30
0.0
 11
1073.386782
 21
522.282062
 31
0.0
  0
CIRCLE
  5
302
  8
002
 62
     3
 10
1088.886782
 20
389.800162
 30
0.0
 40
6.0
  0
LINE
  5
303
  8
002
 62
     3
 10
1085.570082
 20
394.800162
 30
0.0
 11
1092.203382
 21
394.800162
 31
0.0
  0
LINE
  5
304
  8
002
  6
CENTER
 62
    40
 10
1088.886782
 20
398.953262
 30
0.0
 11
1088.886782
 21
379.655762
 31
0.0
  0
LINE
  5
305
  8
002
  6
CENTER
 62
    40
 10
1079.734982
 20
389.800162
 30
0.0
 11
1098.046382
 21
389.800162
 31
0.0
  0
LINE
  5
306
  8
002
 62
     3
 10
620.791375
 20
80.516651
 30
0.0
 11
620.791375
 21
109.016651
 31
0.0
  0
LINE
  5
307
  8
002
 62
     3
 10
620.791375
 20
117.016651
 30
0.0
 11
620.791375
 21
165.516651
 31
0.0
  0
LINE
  5
308
  8
002
 62
     3
 10
594.791375
 20
165.516651
 30
0.0
 11
594.791375
 21
117.016651
 31
0.0
  0
LINE
  5
309
  8
002
 62
     3
 10
594.791375
 20
109.016651
 30
0.0
 11
594.791375
 21
80.516651
 31
0.0
  0
POLYLINE
  5
30A
  8
002
 62
     3
 66
     1
 10
0.0
 20
0.0
 30
0.0
  0
VERTEX
  5
30C
  8
002
 62
     3
 10
594.791375
 20
109.016651
 30
0.0
  0
VERTEX
  5
30D
  8
002
 62
     3
 10
596.958042
 20
107.090725
 30
0.0
  0
VERTEX
  5
30E
  8
002
 62
     3
 10
599.124708
 20
105.609244
 30
0.0
  0
VERTEX
  5
30F
  8
002
 62
     3
 10
601.291375
 20
105.016651
 30
0.0
  0
VERTEX
  5
310
  8
002
 62
     3
 10
603.458042
 20
105.609244
 30
0.0
  0
VERTEX
  5
311
  8
002
 62
     3
 10
605.624708
 20
107.090725
 30
0.0
  0
VERTEX
  5
312
  8
002
 62
     3
 10
607.791375
 20
109.016651
 30
0.0
  0
VERTEX
  5
313
  8
002
 62
     3
 10
609.958042
 20
110.942577
 30
0.0
  0
VERTEX
  5
314
  8
002
 62
     3
 10
612.124708
 20
112.424058
 30
0.0
  0
VERTEX
  5
315
  8
002
 62
     3
 10
614.291375
 20
113.016651
 30
0.0
  0
VERTEX
  5
316
  8
002
 62
     3
 10
616.458042
 20
112.424058
 30
0.0
  0
VERTEX
  5
317
  8
002
 62
     3
 10
618.624708
 20
110.942577
 30
0.0
  0
VERTEX
  5
318
  8
002
 62
     3
 10
620.791375
 20
109.016651
 30
0.0
  0
SEQEND
  5
30B
  8
002
 62
     3
  0
POLYLINE
  5
319
  8
002
 62
     3
 66
     1
 10
0.0
 20
0.0
 30
0.0
  0
VERTEX
  5
31B
  8
002
 62
     3
 10
594.791375
 20
117.016651
 30
0.0
  0
VERTEX
  5
31C
  8
002
 62
     3
 10
596.958042
 20
115.090725
 30
0.0
  0
VERTEX
  5
31D
  8
002
 62
     3
 10
599.124708
 20
113.609244
 30
0.0
  0
VERTEX
  5
31E
  8
002
 62
     3
 10
601.291375
 20
113.016651
 30
0.0
  0
VERTEX
  5
31F
  8
002
 62
     3
 10
603.458042
 20
113.609244
 30
0.0
  0
VERTEX
  5
320
  8
002
 62
     3
 10
605.624708
 20
115.090725
 30
0.0
  0
VERTEX
  5
321
  8
002
 62
     3
 10
607.791375
 20
117.016651
 30
0.0
  0
VERTEX
  5
322
  8
002
 62
     3
 10
609.958042
 20
118.942577
 30
0.0
  0
VERTEX
  5
323
  8
002
 62
     3
 10
612.124708
 20
120.424058
 30
0.0
  0
VERTEX
  5
324
  8
002
 62
     3
 10
614.291375
 20
121.016651
 30
0.0
  0
VERTEX
  5
325
  8
002
 62
     3
 10
616.458042
 20
120.424058
 30
0.0
  0
VERTEX
  5
326
  8
002
 62
     3
 10
618.624708
 20
118.942577
 30
0.0
  0
VERTEX
  5
327
  8
002
 62
     3
 10
620.791375
 20
117.016651
 30
0.0
  0
SEQEND
  5
31A
  8
002
 62
     3
  0
LINE
  5
328
  8
003
  6
CENTER
 62
    40
 10
1269.125882
 20
213.016651
 30
0.0
 11
1143.899682
 21
213.016651
 31
0.0
  0
LINE
  5
329
  8
003
  6
CENTER
 62
    40
 10
1001.460082
 20
213.016651
 30
0.0
 11
874.514142
 21
213.016651
 31
0.0
  0
POLYLINE
  5
32A
  8
002
 62
     3
 66
     1
 10
0.0
 20
0.0
 30
0.0
  0
VERTEX
  5
32C
  8
002
 62
     3
 10
1047.886782
 20
289.016651
 30
0.0
  0
VERTEX
  5
32D
  8
002
 62
     3
 10
1050.053448
 20
287.090725
 30
0.0
  0
VERTEX
  5
32E
  8
002
 62
     3
 10
1052.220115
 20
285.609244
 30
0.0
  0
VERTEX
  5
32F
  8
002
 62
     3
 10
1054.386782
 20
285.016651
 30
0.0
  0
VERTEX
  5
330
  8
002
 62
     3
 10
1056.553448
 20
285.609244
 30
0.0
  0
VERTEX
  5
331
  8
002
 62
     3
 10
1058.720115
 20
287.090725
 30
0.0
  0
VERTEX
  5
332
  8
002
 62
     3
 10
1060.886782
 20
289.016651
 30
0.0
  0
VERTEX
  5
333
  8
002
 62
     3
 10
1063.053448
 20
290.942577
 30
0.0
  0
VERTEX
  5
334
  8
002
 62
     3
 10
1065.220115
 20
292.424058
 30
0.0
  0
VERTEX
  5
335
  8
002
 62
     3
 10
1067.386782
 20
293.016651
 30
0.0
  0
VERTEX
  5
336
  8
002
 62
     3
 10
1069.553448
 20
292.424058
 30
0.0
  0
VERTEX
  5
337
  8
002
 62
     3
 10
1071.720115
 20
290.942577
 30
0.0
  0
VERTEX
  5
338
  8
002
 62
     3
 10
1073.886782
 20
289.016651
 30
0.0
  0
SEQEND
  5
32B
  8
002
 62
     3
  0
POLYLINE
  5
339
  8
002
 62
     3
 66
     1
 10
0.0
 20
0.0
 30
0.0
  0
VERTEX
  5
33B
  8
002
 62
     3
 10
1047.886782
 20
297.016651
 30
0.0
  0
VERTEX
  5
33C
  8
002
 62
     3
 10
1050.053448
 20
295.090725
 30
0.0
  0
VERTEX
  5
33D
  8
002
 62
     3
 10
1052.220115
 20
293.609244
 30
0.0
  0
VERTEX
  5
33E
  8
002
 62
     3
 10
1054.386782
 20
293.016651
 30
0.0
  0
VERTEX
  5
33F
  8
002
 62
     3
 10
1056.553448
 20
293.609244
 30
0.0
  0
VERTEX
  5
340
  8
002
 62
     3
 10
1058.720115
 20
295.090725
 30
0.0
  0
VERTEX
  5
341
  8
002
 62
     3
 10
1060.886782
 20
297.016651
 30
0.0
  0
VERTEX
  5
342
  8
002
 62
     3
 10
1063.053448
 20
298.942577
 30
0.0
  0
VERTEX
  5
343
  8
002
 62
     3
 10
1065.220115
 20
300.424058
 30
0.0
  0
VERTEX
  5
344
  8
002
 62
     3
 10
1067.386782
 20
301.016651
 30
0.0
  0
VERTEX
  5
345
  8
002
 62
     3
 10
1069.553448
 20
300.424058
 30
0.0
  0
VERTEX
  5
346
  8
002
 62
     3
 10
1071.720115
 20
298.942577
 30
0.0
  0
VERTEX
  5
347
  8
002
 62
     3
 10
1073.886782
 20
297.016651
 30
0.0
  0
SEQEND
  5
33A
  8
002
 62
     3
  0
LINE
  5
348
  8
002
 62
     3
 10
1073.886782
 20
345.516651
 30
0.0
 11
1073.886782
 21
297.016651
 31
0.0
  0
LINE
  5
349
  8
002
 62
     3
 10
1073.886782
 20
289.016651
 30
0.0
 11
1073.886782
 21
260.516651
 31
0.0
  0
LINE
  5
34A
  8
002
 62
     3
 10
1047.886782
 20
260.516651
 30
0.0
 11
1047.886782
 21
289.016651
 31
0.0
  0
LINE
  5
34B
  8
002
 62
     3
 10
1047.886782
 20
297.016651
 30
0.0
 11
1047.886782
 21
345.516651
 31
0.0
  0
POLYLINE
  5
34C
  8
002
 62
     3
 66
     1
 10
0.0
 20
0.0
 30
0.0
  0
VERTEX
  5
34E
  8
002
 62
     3
 10
1052.886782
 20
146.957402
 30
0.0
  0
VERTEX
  5
34F
  8
002
 62
     3
 10
1054.886782
 20
144.207402
 30
0.0
  0
VERTEX
  5
350
  8
002
 62
     3
 10
1056.886782
 20
142.957402
 30
0.0
  0
VERTEX
  5
351
  8
002
 62
     3
 10
1058.886782
 20
144.207402
 30
0.0
  0
VERTEX
  5
352
  8
002
 62
     3
 10
1060.886782
 20
146.957402
 30
0.0
  0
VERTEX
  5
353
  8
002
 62
     3
 10
1062.886782
 20
149.707402
 30
0.0
  0
VERTEX
  5
354
  8
002
 62
     3
 10
1064.886782
 20
150.957402
 30
0.0
  0
VERTEX
  5
355
  8
002
 62
     3
 10
1066.886782
 20
149.707402
 30
0.0
  0
VERTEX
  5
356
  8
002
 62
     3
 10
1068.886782
 20
146.957402
 30
0.0
  0
SEQEND
  5
34D
  8
002
 62
     3
  0
POLYLINE
  5
357
  8
002
 62
     3
 66
     1
 10
0.0
 20
0.0
 30
0.0
  0
VERTEX
  5
359
  8
002
 62
     3
 10
1052.886782
 20
154.957402
 30
0.0
  0
VERTEX
  5
35A
  8
002
 62
     3
 10
1054.886782
 20
152.207402
 30
0.0
  0
VERTEX
  5
35B
  8
002
 62
     3
 10
1056.886782
 20
150.957402
 30
0.0
  0
VERTEX
  5
35C
  8
002
 62
     3
 10
1058.886782
 20
152.207402
 30
0.0
  0
VERTEX
  5
35D
  8
002
 62
     3
 10
1060.886782
 20
154.957402
 30
0.0
  0
VERTEX
  5
35E
  8
002
 62
     3
 10
1062.886782
 20
157.707402
 30
0.0
  0
VERTEX
  5
35F
  8
002
 62
     3
 10
1064.886782
 20
158.957402
 30
0.0
  0
VERTEX
  5
360
  8
002
 62
     3
 10
1066.886782
 20
157.707402
 30
0.0
  0
VERTEX
  5
361
  8
002
 62
     3
 10
1068.886782
 20
154.957402
 30
0.0
  0
SEQEND
  5
358
  8
002
 62
     3
  0
LINE
  5
362
  8
002
 62
     3
 10
1068.886782
 20
185.516651
 30
0.0
 11
1068.886782
 21
154.957402
 31
0.0
  0
LINE
  5
363
  8
002
 62
     3
 10
1068.886782
 20
146.957402
 30
0.0
 11
1068.886782
 21
100.516651
 31
0.0
  0
LINE
  5
364
  8
002
 62
    40
 10
1067.136782
 20
185.516651
 30
0.0
 11
1067.136782
 21
157.414922
 31
0.0
  0
LINE
  5
365
  8
002
 62
    40
 10
1067.136782
 20
149.414922
 30
0.0
 11
1067.136782
 21
115.516651
 31
0.0
  0
LINE
  5
366
  8
002
 62
     3
 10
1052.886782
 20
100.516651
 30
0.0
 11
1052.886782
 21
146.957402
 31
0.0
  0
LINE
  5
367
  8
002
 62
     3
 10
1052.886782
 20
154.957402
 30
0.0
 11
1052.886782
 21
185.516651
 31
0.0
  0
LINE
  5
368
  8
002
 62
    40
 10
1054.636782
 20
115.516651
 30
0.0
 11
1054.636782
 21
144.499883
 31
0.0
  0
LINE
  5
369
  8
002
 62
    40
 10
1054.636782
 20
152.499883
 30
0.0
 11
1054.636782
 21
185.516651
 31
0.0
  0
LINE
  5
36A
  8
002
 62
    40
 10
1055.698782
 20
100.516651
 30
0.0
 11
1055.698782
 21
85.516651
 31
0.0
  0
LINE
  5
36B
  8
002
 62
    40
 10
1066.074782
 20
85.516651
 30
0.0
 11
1066.074782
 21
100.516651
 31
0.0
  0
LINE
  5
36C
  8
002
 62
     3
 10
945.634782
 20
100.516651
 30
0.0
 11
929.634782
 21
100.516651
 31
0.0
  0
ARC
  5
36D
  8
002
 62
     3
 10
914.134682
 20
241.516651
 30
0.0
 40
1.0
 50
180.0
 51
270.0
  0
LINE
  5
36E
  8
002
 62
     3
 10
913.134682
 20
241.516651
 30
0.0
 11
913.134682
 21
253.516651
 31
0.0
  0
LINE
  5
36F
  8
002
 62
     3
 10
912.634682
 20
253.516651
 30
0.0
 11
962.634782
 21
253.516651
 31
0.0
  0
LINE
  5
370
  8
002
 62
     3
 10
962.634782
 20
253.516651
 30
0.0
 11
962.634782
 21
259.516651
 31
0.0
  0
LINE
  5
371
  8
002
 62
     3
 10
961.634782
 20
260.516651
 30
0.0
 11
913.634682
 21
260.516651
 31
0.0
  0
LINE
  5
372
  8
002
 62
     3
 10
913.139682
 20
260.385551
 30
0.0
 11
913.139682
 21
255.516651
 31
0.0
  0
LINE
  5
373
  8
002
 62
     3
 10
913.139682
 20
255.516651
 30
0.0
 11
912.634682
 21
255.516651
 31
0.0
  0
LINE
  5
374
  8
002
 62
     3
 10
912.634682
 20
255.516651
 30
0.0
 11
912.634682
 21
253.516651
 31
0.0
  0
ARC
  5
375
  8
002
 62
     3
 10
913.634682
 20
259.516651
 30
0.0
 40
1.0
 50
90.0
 51
119.669551
  0
LINE
  5
376
  8
002
 62
     3
 10
922.634682
 20
345.516651
 30
0.0
 11
952.634782
 21
345.516651
 31
0.0
  0
LINE
  5
377
  8
002
 62
     3
 10
952.634782
 20
345.516651
 30
0.0
 11
952.634782
 21
362.516651
 31
0.0
  0
LINE
  5
378
  8
002
 62
     3
 10
949.634782
 20
365.516651
 30
0.0
 11
925.634782
 21
365.516651
 31
0.0
  0
LINE
  5
379
  8
002
 62
     3
 10
922.634682
 20
362.516651
 30
0.0
 11
922.634682
 21
345.516651
 31
0.0
  0
ARC
  5
37A
  8
002
 62
     3
 10
925.634782
 20
362.516651
 30
0.0
 40
3.0
 50
90.0
 51
180.0
  0
ARC
  5
37B
  8
002
 62
     3
 10
949.634782
 20
362.516651
 30
0.0
 40
3.0
 50
0.0
 51
90.0
  0
LINE
  5
37C
  8
002
 62
     3
 10
950.740182
 20
260.516651
 30
0.0
 11
951.259782
 21
260.216651
 31
0.0
  0
LINE
  5
37D
  8
002
 62
     3
 10
951.259782
 20
260.216651
 30
0.0
 11
945.552182
 21
260.216651
 31
0.0
  0
LINE
  5
37E
  8
002
 62
     3
 10
945.552182
 20
260.516651
 30
0.0
 11
945.552182
 21
255.516651
 31
0.0
  0
LINE
  5
37F
  8
002
 62
     3
 10
945.552182
 20
255.516651
 30
0.0
 11
954.212382
 21
255.516651
 31
0.0
  0
LINE
  5
380
  8
002
 62
     3
 10
954.212382
 20
255.516651
 30
0.0
 11
954.212382
 21
260.516651
 31
0.0
  0
LINE
  5
381
  8
002
 62
     3
 10
951.259782
 20
260.216651
 30
0.0
 11
951.259782
 21
255.516651
 31
0.0
  0
LINE
  5
382
  8
002
 62
     3
 10
962.134782
 20
253.516651
 30
0.0
 11
962.134782
 21
241.516651
 31
0.0
  0
ARC
  5
383
  8
002
 62
     3
 10
961.134782
 20
241.516651
 30
0.0
 40
1.0
 50
270.0
 51
0.0
  0
ARC
  5
384
  8
002
 62
     3
 10
961.634782
 20
259.516651
 30
0.0
 40
1.0
 50
0.0
 51
90.0
  0
LINE
  5
385
  8
002
 62
     3
 10
945.634782
 20
115.516651
 30
0.0
 11
929.634782
 21
115.516651
 31
0.0
  0
LINE
  5
386
  8
002
 62
     3
 10
931.634782
 20
85.516651
 30
0.0
 11
931.634782
 21
100.516651
 31
0.0
  0
LINE
  5
387
  8
002
 62
     3
 10
943.634782
 20
85.516651
 30
0.0
 11
931.634782
 21
85.516651
 31
0.0
  0
LINE
  5
388
  8
002
 62
     3
 10
943.634782
 20
85.516651
 30
0.0
 11
943.634782
 21
100.516651
 31
0.0
  0
POLYLINE
  5
389
  8
002
 62
     3
 66
     1
 10
0.0
 20
0.0
 30
0.0
  0
VERTEX
  5
38B
  8
002
 62
     3
 10
924.634782
 20
289.016651
 30
0.0
  0
VERTEX
  5
38C
  8
002
 62
     3
 10
926.801448
 20
287.090725
 30
0.0
  0
VERTEX
  5
38D
  8
002
 62
     3
 10
928.968115
 20
285.609244
 30
0.0
  0
VERTEX
  5
38E
  8
002
 62
     3
 10
931.134782
 20
285.016651
 30
0.0
  0
VERTEX
  5
38F
  8
002
 62
     3
 10
933.301448
 20
285.609244
 30
0.0
  0
VERTEX
  5
390
  8
002
 62
     3
 10
935.468115
 20
287.090725
 30
0.0
  0
VERTEX
  5
391
  8
002
 62
     3
 10
937.634782
 20
289.016651
 30
0.0
  0
VERTEX
  5
392
  8
002
 62
     3
 10
939.801448
 20
290.942577
 30
0.0
  0
VERTEX
  5
393
  8
002
 62
     3
 10
941.968115
 20
292.424058
 30
0.0
  0
VERTEX
  5
394
  8
002
 62
     3
 10
944.134782
 20
293.016651
 30
0.0
  0
VERTEX
  5
395
  8
002
 62
     3
 10
946.301448
 20
292.424058
 30
0.0
  0
VERTEX
  5
396
  8
002
 62
     3
 10
948.468115
 20
290.942577
 30
0.0
  0
VERTEX
  5
397
  8
002
 62
     3
 10
950.634782
 20
289.016651
 30
0.0
  0
SEQEND
  5
38A
  8
002
 62
     3
  0
POLYLINE
  5
398
  8
002
 62
     3
 66
     1
 10
0.0
 20
0.0
 30
0.0
  0
VERTEX
  5
39A
  8
002
 62
     3
 10
924.634782
 20
297.016651
 30
0.0
  0
VERTEX
  5
39B
  8
002
 62
     3
 10
926.801448
 20
295.090725
 30
0.0
  0
VERTEX
  5
39C
  8
002
 62
     3
 10
928.968115
 20
293.609244
 30
0.0
  0
VERTEX
  5
39D
  8
002
 62
     3
 10
931.134782
 20
293.016651
 30
0.0
  0
VERTEX
  5
39E
  8
002
 62
     3
 10
933.301448
 20
293.609244
 30
0.0
  0
VERTEX
  5
39F
  8
002
 62
     3
 10
935.468115
 20
295.090725
 30
0.0
  0
VERTEX
  5
3A0
  8
002
 62
     3
 10
937.634782
 20
297.016651
 30
0.0
  0
VERTEX
  5
3A1
  8
002
 62
     3
 10
939.801448
 20
298.942577
 30
0.0
  0
VERTEX
  5
3A2
  8
002
 62
     3
 10
941.968115
 20
300.424058
 30
0.0
  0
VERTEX
  5
3A3
  8
002
 62
     3
 10
944.134782
 20
301.016651
 30
0.0
  0
VERTEX
  5
3A4
  8
002
 62
     3
 10
946.301448
 20
300.424058
 30
0.0
  0
VERTEX
  5
3A5
  8
002
 62
     3
 10
948.468115
 20
298.942577
 30
0.0
  0
VERTEX
  5
3A6
  8
002
 62
     3
 10
950.634782
 20
297.016651
 30
0.0
  0
SEQEND
  5
399
  8
002
 62
     3
  0
LINE
  5
3A7
  8
002
 62
     3
 10
950.634782
 20
345.516651
 30
0.0
 11
950.634782
 21
297.016651
 31
0.0
  0
LINE
  5
3A8
  8
002
 62
     3
 10
950.634782
 20
289.016651
 30
0.0
 11
950.634782
 21
260.516651
 31
0.0
  0
LINE
  5
3A9
  8
002
 62
     3
 10
924.634782
 20
260.516651
 30
0.0
 11
924.634782
 21
289.016651
 31
0.0
  0
LINE
  5
3AA
  8
002
 62
     3
 10
924.634782
 20
297.016651
 30
0.0
 11
924.634782
 21
345.516651
 31
0.0
  0
POLYLINE
  5
3AB
  8
002
 62
     3
 66
     1
 10
0.0
 20
0.0
 30
0.0
  0
VERTEX
  5
3AD
  8
002
 62
     3
 10
929.634782
 20
146.957402
 30
0.0
  0
VERTEX
  5
3AE
  8
002
 62
     3
 10
931.634782
 20
144.207402
 30
0.0
  0
VERTEX
  5
3AF
  8
002
 62
     3
 10
933.634782
 20
142.957402
 30
0.0
  0
VERTEX
  5
3B0
  8
002
 62
     3
 10
935.634782
 20
144.207402
 30
0.0
  0
VERTEX
  5
3B1
  8
002
 62
     3
 10
937.634782
 20
146.957402
 30
0.0
  0
VERTEX
  5
3B2
  8
002
 62
     3
 10
939.634782
 20
149.707402
 30
0.0
  0
VERTEX
  5
3B3
  8
002
 62
     3
 10
941.634782
 20
150.957402
 30
0.0
  0
VERTEX
  5
3B4
  8
002
 62
     3
 10
943.634782
 20
149.707402
 30
0.0
  0
VERTEX
  5
3B5
  8
002
 62
     3
 10
945.634782
 20
146.957402
 30
0.0
  0
SEQEND
  5
3AC
  8
002
 62
     3
  0
POLYLINE
  5
3B6
  8
002
 62
     3
 66
     1
 10
0.0
 20
0.0
 30
0.0
  0
VERTEX
  5
3B8
  8
002
 62
     3
 10
929.634782
 20
154.957402
 30
0.0
  0
VERTEX
  5
3B9
  8
002
 62
     3
 10
931.634782
 20
152.207402
 30
0.0
  0
VERTEX
  5
3BA
  8
002
 62
     3
 10
933.634782
 20
150.957402
 30
0.0
  0
VERTEX
  5
3BB
  8
002
 62
     3
 10
935.634782
 20
152.207402
 30
0.0
  0
VERTEX
  5
3BC
  8
002
 62
     3
 10
937.634782
 20
154.957402
 30
0.0
  0
VERTEX
  5
3BD
  8
002
 62
     3
 10
939.634782
 20
157.707402
 30
0.0
  0
VERTEX
  5
3BE
  8
002
 62
     3
 10
941.634782
 20
158.957402
 30
0.0
  0
VERTEX
  5
3BF
  8
002
 62
     3
 10
943.634782
 20
157.707402
 30
0.0
  0
VERTEX
  5
3C0
  8
002
 62
     3
 10
945.634782
 20
154.957402
 30
0.0
  0
SEQEND
  5
3B7
  8
002
 62
     3
  0
LINE
  5
3C1
  8
002
 62
     3
 10
945.634782
 20
185.516651
 30
0.0
 11
945.634782
 21
154.957402
 31
0.0
  0
LINE
  5
3C2
  8
002
 62
     3
 10
945.634782
 20
146.957402
 30
0.0
 11
945.634782
 21
100.516651
 31
0.0
  0
LINE
  5
3C3
  8
002
 62
    40
 10
943.884782
 20
185.516651
 30
0.0
 11
943.884782
 21
157.414922
 31
0.0
  0
LINE
  5
3C4
  8
002
 62
    40
 10
943.884782
 20
149.414922
 30
0.0
 11
943.884782
 21
115.516651
 31
0.0
  0
LINE
  5
3C5
  8
002
 62
     3
 10
929.634782
 20
100.516651
 30
0.0
 11
929.634782
 21
146.957402
 31
0.0
  0
LINE
  5
3C6
  8
002
 62
     3
 10
929.634782
 20
154.957402
 30
0.0
 11
929.634782
 21
185.516651
 31
0.0
  0
LINE
  5
3C7
  8
002
 62
    40
 10
931.384782
 20
115.516651
 30
0.0
 11
931.384782
 21
144.499883
 31
0.0
  0
LINE
  5
3C8
  8
002
 62
    40
 10
931.384782
 20
152.499883
 30
0.0
 11
931.384782
 21
185.516651
 31
0.0
  0
LINE
  5
3C9
  8
002
 62
    40
 10
932.446782
 20
100.516651
 30
0.0
 11
932.446782
 21
85.516651
 31
0.0
  0
LINE
  5
3CA
  8
002
 62
    40
 10
942.822782
 20
85.516651
 30
0.0
 11
942.822782
 21
100.516651
 31
0.0
  0
LINE
  5
3CB
  8
002
 62
     3
 10
1215.467582
 20
100.516651
 30
0.0
 11
1199.467582
 21
100.516651
 31
0.0
  0
ARC
  5
3CC
  8
002
 62
     3
 10
1183.967482
 20
241.516651
 30
0.0
 40
1.0
 50
180.0
 51
270.0
  0
LINE
  5
3CD
  8
002
 62
     3
 10
1182.967482
 20
241.516651
 30
0.0
 11
1182.967482
 21
253.516651
 31
0.0
  0
LINE
  5
3CE
  8
002
 62
     3
 10
1182.467482
 20
253.516651
 30
0.0
 11
1232.467582
 21
253.516651
 31
0.0
  0
LINE
  5
3CF
  8
002
 62
     3
 10
1232.467582
 20
253.516651
 30
0.0
 11
1232.467582
 21
259.516651
 31
0.0
  0
LINE
  5
3D0
  8
002
 62
     3
 10
1231.467582
 20
260.516651
 30
0.0
 11
1183.467482
 21
260.516651
 31
0.0
  0
LINE
  5
3D1
  8
002
 62
     3
 10
1182.972482
 20
260.385551
 30
0.0
 11
1182.972482
 21
255.516651
 31
0.0
  0
LINE
  5
3D2
  8
002
 62
     3
 10
1182.972482
 20
255.516651
 30
0.0
 11
1182.467482
 21
255.516651
 31
0.0
  0
LINE
  5
3D3
  8
002
 62
     3
 10
1182.467482
 20
255.516651
 30
0.0
 11
1182.467482
 21
253.516651
 31
0.0
  0
ARC
  5
3D4
  8
002
 62
     3
 10
1183.467482
 20
259.516651
 30
0.0
 40
1.0
 50
90.0
 51
119.669551
  0
LINE
  5
3D5
  8
002
 62
     3
 10
1192.467482
 20
345.516651
 30
0.0
 11
1222.467582
 21
345.516651
 31
0.0
  0
LINE
  5
3D6
  8
002
 62
     3
 10
1222.467582
 20
345.516651
 30
0.0
 11
1222.467582
 21
362.516651
 31
0.0
  0
LINE
  5
3D7
  8
002
 62
     3
 10
1219.467582
 20
365.516651
 30
0.0
 11
1195.467582
 21
365.516651
 31
0.0
  0
LINE
  5
3D8
  8
002
 62
     3
 10
1192.467482
 20
362.516651
 30
0.0
 11
1192.467482
 21
345.516651
 31
0.0
  0
ARC
  5
3D9
  8
002
 62
     3
 10
1195.467582
 20
362.516651
 30
0.0
 40
3.0
 50
90.0
 51
180.0
  0
ARC
  5
3DA
  8
002
 62
     3
 10
1219.467582
 20
362.516651
 30
0.0
 40
3.0
 50
0.0
 51
90.0
  0
LINE
  5
3DB
  8
002
 62
     3
 10
1220.572982
 20
260.516651
 30
0.0
 11
1221.092582
 21
260.216651
 31
0.0
  0
LINE
  5
3DC
  8
002
 62
     3
 10
1221.092582
 20
260.216651
 30
0.0
 11
1215.384982
 21
260.216651
 31
0.0
  0
LINE
  5
3DD
  8
002
 62
     3
 10
1215.384982
 20
260.516651
 30
0.0
 11
1215.384982
 21
255.516651
 31
0.0
  0
LINE
  5
3DE
  8
002
 62
     3
 10
1215.384982
 20
255.516651
 30
0.0
 11
1224.045182
 21
255.516651
 31
0.0
  0
LINE
  5
3DF
  8
002
 62
     3
 10
1224.045182
 20
255.516651
 30
0.0
 11
1224.045182
 21
260.516651
 31
0.0
  0
LINE
  5
3E0
  8
002
 62
     3
 10
1221.092582
 20
260.216651
 30
0.0
 11
1221.092582
 21
255.516651
 31
0.0
  0
LINE
  5
3E1
  8
002
 62
     3
 10
1231.967582
 20
253.516651
 30
0.0
 11
1231.967582
 21
241.516651
 31
0.0
  0
ARC
  5
3E2
  8
002
 62
     3
 10
1230.967582
 20
241.516651
 30
0.0
 40
1.0
 50
270.0
 51
0.0
  0
ARC
  5
3E3
  8
002
 62
     3
 10
1231.467582
 20
259.516651
 30
0.0
 40
1.0
 50
0.0
 51
90.0
  0
LINE
  5
3E4
  8
002
 62
     3
 10
1215.467582
 20
115.516651
 30
0.0
 11
1199.467582
 21
115.516651
 31
0.0
  0
LINE
  5
3E5
  8
002
 62
     3
 10
1201.467582
 20
85.516651
 30
0.0
 11
1201.467582
 21
100.516651
 31
0.0
  0
LINE
  5
3E6
  8
002
 62
     3
 10
1213.467582
 20
85.516651
 30
0.0
 11
1201.467582
 21
85.516651
 31
0.0
  0
LINE
  5
3E7
  8
002
 62
     3
 10
1213.467582
 20
85.516651
 30
0.0
 11
1213.467582
 21
100.516651
 31
0.0
  0
POLYLINE
  5
3E8
  8
002
 62
     3
 66
     1
 10
0.0
 20
0.0
 30
0.0
  0
VERTEX
  5
3EA
  8
002
 62
     3
 10
1194.467582
 20
289.016651
 30
0.0
  0
VERTEX
  5
3EB
  8
002
 62
     3
 10
1196.634248
 20
287.090725
 30
0.0
  0
VERTEX
  5
3EC
  8
002
 62
     3
 10
1198.800915
 20
285.609244
 30
0.0
  0
VERTEX
  5
3ED
  8
002
 62
     3
 10
1200.967582
 20
285.016651
 30
0.0
  0
VERTEX
  5
3EE
  8
002
 62
     3
 10
1203.134248
 20
285.609244
 30
0.0
  0
VERTEX
  5
3EF
  8
002
 62
     3
 10
1205.300915
 20
287.090725
 30
0.0
  0
VERTEX
  5
3F0
  8
002
 62
     3
 10
1207.467582
 20
289.016651
 30
0.0
  0
VERTEX
  5
3F1
  8
002
 62
     3
 10
1209.634248
 20
290.942577
 30
0.0
  0
VERTEX
  5
3F2
  8
002
 62
     3
 10
1211.800915
 20
292.424058
 30
0.0
  0
VERTEX
  5
3F3
  8
002
 62
     3
 10
1213.967582
 20
293.016651
 30
0.0
  0
VERTEX
  5
3F4
  8
002
 62
     3
 10
1216.134248
 20
292.424058
 30
0.0
  0
VERTEX
  5
3F5
  8
002
 62
     3
 10
1218.300915
 20
290.942577
 30
0.0
  0
VERTEX
  5
3F6
  8
002
 62
     3
 10
1220.467582
 20
289.016651
 30
0.0
  0
SEQEND
  5
3E9
  8
002
 62
     3
  0
POLYLINE
  5
3F7
  8
002
 62
     3
 66
     1
 10
0.0
 20
0.0
 30
0.0
  0
VERTEX
  5
3F9
  8
002
 62
     3
 10
1194.467582
 20
297.016651
 30
0.0
  0
VERTEX
  5
3FA
  8
002
 62
     3
 10
1196.634248
 20
295.090725
 30
0.0
  0
VERTEX
  5
3FB
  8
002
 62
     3
 10
1198.800915
 20
293.609244
 30
0.0
  0
VERTEX
  5
3FC
  8
002
 62
     3
 10
1200.967582
 20
293.016651
 30
0.0
  0
VERTEX
  5
3FD
  8
002
 62
     3
 10
1203.134248
 20
293.609244
 30
0.0
  0
VERTEX
  5
3FE
  8
002
 62
     3
 10
1205.300915
 20
295.090725
 30
0.0
  0
VERTEX
  5
3FF
  8
002
 62
     3
 10
1207.467582
 20
297.016651
 30
0.0
  0
VERTEX
  5
400
  8
002
 62
     3
 10
1209.634248
 20
298.942577
 30
0.0
  0
VERTEX
  5
401
  8
002
 62
     3
 10
1211.800915
 20
300.424058
 30
0.0
  0
VERTEX
  5
402
  8
002
 62
     3
 10
1213.967582
 20
301.016651
 30
0.0
  0
VERTEX
  5
403
  8
002
 62
     3
 10
1216.134248
 20
300.424058
 30
0.0
  0
VERTEX
  5
404
  8
002
 62
     3
 10
1218.300915
 20
298.942577
 30
0.0
  0
VERTEX
  5
405
  8
002
 62
     3
 10
1220.467582
 20
297.016651
 30
0.0
  0
SEQEND
  5
3F8
  8
002
 62
     3
  0
LINE
  5
406
  8
002
 62
     3
 10
1220.467582
 20
345.516651
 30
0.0
 11
1220.467582
 21
297.016651
 31
0.0
  0
LINE
  5
407
  8
002
 62
     3
 10
1220.467582
 20
289.016651
 30
0.0
 11
1220.467582
 21
260.516651
 31
0.0
  0
LINE
  5
408
  8
002
 62
     3
 10
1194.467582
 20
260.516651
 30
0.0
 11
1194.467582
 21
289.016651
 31
0.0
  0
LINE
  5
409
  8
002
 62
     3
 10
1194.467582
 20
297.016651
 30
0.0
 11
1194.467582
 21
345.516651
 31
0.0
  0
POLYLINE
  5
40A
  8
002
 62
     3
 66
     1
 10
0.0
 20
0.0
 30
0.0
  0
VERTEX
  5
40C
  8
002
 62
     3
 10
1199.467582
 20
146.957402
 30
0.0
  0
VERTEX
  5
40D
  8
002
 62
     3
 10
1201.467582
 20
144.207402
 30
0.0
  0
VERTEX
  5
40E
  8
002
 62
     3
 10
1203.467582
 20
142.957402
 30
0.0
  0
VERTEX
  5
40F
  8
002
 62
     3
 10
1205.467582
 20
144.207402
 30
0.0
  0
VERTEX
  5
410
  8
002
 62
     3
 10
1207.467582
 20
146.957402
 30
0.0
  0
VERTEX
  5
411
  8
002
 62
     3
 10
1209.467582
 20
149.707402
 30
0.0
  0
VERTEX
  5
412
  8
002
 62
     3
 10
1211.467582
 20
150.957402
 30
0.0
  0
VERTEX
  5
413
  8
002
 62
     3
 10
1213.467582
 20
149.707402
 30
0.0
  0
VERTEX
  5
414
  8
002
 62
     3
 10
1215.467582
 20
146.957402
 30
0.0
  0
SEQEND
  5
40B
  8
002
 62
     3
  0
POLYLINE
  5
415
  8
002
 62
     3
 66
     1
 10
0.0
 20
0.0
 30
0.0
  0
VERTEX
  5
417
  8
002
 62
     3
 10
1199.467582
 20
154.957402
 30
0.0
  0
VERTEX
  5
418
  8
002
 62
     3
 10
1201.467582
 20
152.207402
 30
0.0
  0
VERTEX
  5
419
  8
002
 62
     3
 10
1203.467582
 20
150.957402
 30
0.0
  0
VERTEX
  5
41A
  8
002
 62
     3
 10
1205.467582
 20
152.207402
 30
0.0
  0
VERTEX
  5
41B
  8
002
 62
     3
 10
1207.467582
 20
154.957402
 30
0.0
  0
VERTEX
  5
41C
  8
002
 62
     3
 10
1209.467582
 20
157.707402
 30
0.0
  0
VERTEX
  5
41D
  8
002
 62
     3
 10
1211.467582
 20
158.957402
 30
0.0
  0
VERTEX
  5
41E
  8
002
 62
     3
 10
1213.467582
 20
157.707402
 30
0.0
  0
VERTEX
  5
41F
  8
002
 62
     3
 10
1215.467582
 20
154.957402
 30
0.0
  0
SEQEND
  5
416
  8
002
 62
     3
  0
LINE
  5
420
  8
002
 62
     3
 10
1215.467582
 20
185.516651
 30
0.0
 11
1215.467582
 21
154.957402
 31
0.0
  0
LINE
  5
421
  8
002
 62
     3
 10
1215.467582
 20
146.957402
 30
0.0
 11
1215.467582
 21
100.516651
 31
0.0
  0
LINE
  5
422
  8
002
 62
    40
 10
1213.717582
 20
185.516651
 30
0.0
 11
1213.717582
 21
157.414922
 31
0.0
  0
LINE
  5
423
  8
002
 62
    40
 10
1213.717582
 20
149.414922
 30
0.0
 11
1213.717582
 21
115.516651
 31
0.0
  0
LINE
  5
424
  8
002
 62
     3
 10
1199.467582
 20
100.516651
 30
0.0
 11
1199.467582
 21
146.957402
 31
0.0
  0
LINE
  5
425
  8
002
 62
     3
 10
1199.467582
 20
154.957402
 30
0.0
 11
1199.467582
 21
185.516651
 31
0.0
  0
LINE
  5
426
  8
002
 62
    40
 10
1201.217582
 20
115.516651
 30
0.0
 11
1201.217582
 21
144.499883
 31
0.0
  0
LINE
  5
427
  8
002
 62
    40
 10
1201.217582
 20
152.499883
 30
0.0
 11
1201.217582
 21
185.516651
 31
0.0
  0
LINE
  5
428
  8
002
 62
    40
 10
1202.279582
 20
100.516651
 30
0.0
 11
1202.279582
 21
85.516651
 31
0.0
  0
LINE
  5
429
  8
002
 62
    40
 10
1212.655582
 20
85.516651
 30
0.0
 11
1212.655582
 21
100.516651
 31
0.0
  0
POLYLINE
  5
42A
  8
002
 62
     3
 66
     1
 10
0.0
 20
0.0
 30
0.0
  0
VERTEX
  5
42C
  8
002
 62
     3
 10
1408.886882
 20
289.016651
 30
0.0
  0
VERTEX
  5
42D
  8
002
 62
     3
 10
1411.053548
 20
287.090725
 30
0.0
  0
VERTEX
  5
42E
  8
002
 62
     3
 10
1413.220215
 20
285.609244
 30
0.0
  0
VERTEX
  5
42F
  8
002
 62
     3
 10
1415.386882
 20
285.016651
 30
0.0
  0
VERTEX
  5
430
  8
002
 62
     3
 10
1417.553548
 20
285.609244
 30
0.0
  0
VERTEX
  5
431
  8
002
 62
     3
 10
1419.720215
 20
287.090725
 30
0.0
  0
VERTEX
  5
432
  8
002
 62
     3
 10
1421.886882
 20
289.016651
 30
0.0
  0
VERTEX
  5
433
  8
002
 62
     3
 10
1424.053548
 20
290.942577
 30
0.0
  0
VERTEX
  5
434
  8
002
 62
     3
 10
1426.220215
 20
292.424058
 30
0.0
  0
VERTEX
  5
435
  8
002
 62
     3
 10
1428.386882
 20
293.016651
 30
0.0
  0
VERTEX
  5
436
  8
002
 62
     3
 10
1430.553548
 20
292.424058
 30
0.0
  0
VERTEX
  5
437
  8
002
 62
     3
 10
1432.720215
 20
290.942577
 30
0.0
  0
VERTEX
  5
438
  8
002
 62
     3
 10
1434.886882
 20
289.016651
 30
0.0
  0
SEQEND
  5
42B
  8
002
 62
     3
  0
POLYLINE
  5
439
  8
002
 62
     3
 66
     1
 10
0.0
 20
0.0
 30
0.0
  0
VERTEX
  5
43B
  8
002
 62
     3
 10
1408.886882
 20
297.016651
 30
0.0
  0
VERTEX
  5
43C
  8
002
 62
     3
 10
1411.053548
 20
295.090725
 30
0.0
  0
VERTEX
  5
43D
  8
002
 62
     3
 10
1413.220215
 20
293.609244
 30
0.0
  0
VERTEX
  5
43E
  8
002
 62
     3
 10
1415.386882
 20
293.016651
 30
0.0
  0
VERTEX
  5
43F
  8
002
 62
     3
 10
1417.553548
 20
293.609244
 30
0.0
  0
VERTEX
  5
440
  8
002
 62
     3
 10
1419.720215
 20
295.090725
 30
0.0
  0
VERTEX
  5
441
  8
002
 62
     3
 10
1421.886882
 20
297.016651
 30
0.0
  0
VERTEX
  5
442
  8
002
 62
     3
 10
1424.053548
 20
298.942577
 30
0.0
  0
VERTEX
  5
443
  8
002
 62
     3
 10
1426.220215
 20
300.424058
 30
0.0
  0
VERTEX
  5
444
  8
002
 62
     3
 10
1428.386882
 20
301.016651
 30
0.0
  0
VERTEX
  5
445
  8
002
 62
     3
 10
1430.553548
 20
300.424058
 30
0.0
  0
VERTEX
  5
446
  8
002
 62
     3
 10
1432.720215
 20
298.942577
 30
0.0
  0
VERTEX
  5
447
  8
002
 62
     3
 10
1434.886882
 20
297.016651
 30
0.0
  0
SEQEND
  5
43A
  8
002
 62
     3
  0
LINE
  5
448
  8
002
 62
     3
 10
1434.886882
 20
345.516651
 30
0.0
 11
1434.886882
 21
297.016651
 31
0.0
  0
LINE
  5
449
  8
002
 62
     3
 10
1434.886882
 20
289.016651
 30
0.0
 11
1434.886882
 21
260.516651
 31
0.0
  0
LINE
  5
44A
  8
002
 62
     3
 10
1408.886882
 20
260.516651
 30
0.0
 11
1408.886882
 21
289.016651
 31
0.0
  0
LINE
  5
44B
  8
002
 62
     3
 10
1408.886882
 20
297.016651
 30
0.0
 11
1408.886882
 21
345.516651
 31
0.0
  0
LINE
  5
44C
  8
003
  6
CENTER
 62
    40
 10
937.634782
 20
82.47966
 30
0.0
 11
937.634782
 21
369.542893
 31
0.0
  0
LINE
  5
44D
  8
003
  6
CENTER
 62
    40
 10
1207.467582
 20
82.47966
 30
0.0
 11
1207.467582
 21
369.542893
 31
0.0
  0
CIRCLE
  5
44E
  8
002
 62
     3
 10
223.805853
 20
475.631462
 30
0.0
 40
8.0
  0
CIRCLE
  5
44F
  8
002
 62
     3
 10
223.805853
 20
525.631462
 30
0.0
 40
8.0
  0
LINE
  5
450
  8
002
 62
     3
 10
256.805853
 20
464.687061
 30
0.0
 11
256.805853
 21
464.631462
 31
0.0
  0
CIRCLE
  5
451
  8
002
 62
     3
 10
298.805853
 20
525.631462
 30
0.0
 40
8.0
  0
CIRCLE
  5
452
  8
002
 62
     3
 10
298.805853
 20
475.631462
 30
0.0
 40
8.0
  0
LINE
  5
453
  8
002
 62
     3
 10
296.805853
 20
515.631462
 30
0.0
 11
296.805853
 21
485.631462
 31
0.0
  0
LINE
  5
454
  8
002
 62
     3
 10
296.805853
 20
536.631462
 30
0.0
 11
256.805853
 21
536.631462
 31
0.0
  0
LINE
  5
455
  8
002
 62
     3
 10
296.805853
 20
464.631462
 30
0.0
 11
256.805853
 21
464.631462
 31
0.0
  0
LINE
  5
456
  8
002
  6
CENTER
 62
    40
 10
301.24723
 20
500.631462
 30
0.0
 11
215.805853
 21
500.631462
 31
0.0
  0
ARC
  5
457
  8
002
 62
     3
 10
250.805853
 20
536.575864
 30
0.0
 40
6.0
 50
266.815261
 51
0.0
  0
ARC
  5
458
  8
002
 62
     3
 10
250.805853
 20
464.687061
 30
0.0
 40
6.0
 50
0.0
 51
93.184739
  0
ARC
  5
459
  8
002
 62
     3
 10
235.091046
 20
533.916655
 30
0.0
 40
6.0
 50
216.28481
 51
292.393585
  0
ARC
  5
45A
  8
002
 62
     3
 10
248.805853
 20
500.631462
 30
0.0
 40
30.0
 50
247.606415
 51
112.393585
  0
ARC
  5
45B
  8
002
 62
     3
 10
235.091046
 20
467.346269
 30
0.0
 40
6.0
 50
67.606415
 51
143.71519
  0
ARC
  5
45C
  8
002
 62
     3
 10
215.52066
 20
514.346269
 30
0.0
 40
6.0
 50
337.606415
 51
53.71519
  0
ARC
  5
45D
  8
002
 62
     3
 10
248.805853
 20
500.631462
 30
0.0
 40
29.99999999999999
 50
157.606415
 51
202.393585
  0
ARC
  5
45E
  8
002
 62
     3
 10
215.52066
 20
486.916655
 30
0.0
 40
6.0
 50
306.28481
 51
22.393585
  0
ARC
  5
45F
  8
002
 62
     3
 10
298.805853
 20
535.631462
 30
0.0
 40
2.0
 50
180.0
 51
270.0
  0
ARC
  5
460
  8
002
 62
     3
 10
298.805853
 20
465.631462
 30
0.0
 40
2.0
 50
90.0
 51
180.0
  0
ARC
  5
461
  8
002
 62
     3
 10
298.805853
 20
485.631462
 30
0.0
 40
2.0
 50
180.0
 51
270.0
  0
ARC
  5
462
  8
002
 62
     3
 10
298.805853
 20
515.631462
 30
0.0
 40
2.0
 50
90.0
 51
180.0
  0
LINE
  5
463
  8
002
  6
CENTER
 62
    40
 10
223.805853
 20
465.631462
 30
0.0
 11
223.805853
 21
485.631462
 31
0.0
  0
LINE
  5
464
  8
002
  6
CENTER
 62
    40
 10
233.805853
 20
475.631462
 30
0.0
 11
213.805853
 21
475.631462
 31
0.0
  0
LINE
  5
465
  8
002
  6
CENTER
 62
    40
 10
223.805853
 20
515.631462
 30
0.0
 11
223.805853
 21
535.631462
 31
0.0
  0
LINE
  5
466
  8
002
  6
CENTER
 62
    40
 10
233.805853
 20
525.631462
 30
0.0
 11
213.805853
 21
525.631462
 31
0.0
  0
LINE
  5
467
  8
002
  6
CENTER
 62
    40
 10
298.805853
 20
515.631462
 30
0.0
 11
298.805853
 21
535.631462
 31
0.0
  0
LINE
  5
468
  8
002
  6
CENTER
 62
    40
 10
308.805853
 20
525.631462
 30
0.0
 11
288.805853
 21
525.631462
 31
0.0
  0
LINE
  5
469
  8
002
  6
CENTER
 62
    40
 10
298.805853
 20
465.631462
 30
0.0
 11
298.805853
 21
485.631462
 31
0.0
  0
LINE
  5
46A
  8
002
  6
CENTER
 62
    40
 10
308.805853
 20
475.631462
 30
0.0
 11
288.805853
 21
475.631462
 31
0.0
  0
CIRCLE
  5
46B
  8
002
 62
    40
 10
248.805853
 20
500.631462
 30
0.0
 40
26.0
  0
CIRCLE
  5
46C
  8
002
 62
     3
 10
248.805853
 20
500.631462
 30
0.0
 40
8.0
  0
CIRCLE
  5
46D
  8
002
 62
    40
 10
248.805853
 20
500.631462
 30
0.0
 40
24.91749999999999
  0
LINE
  5
46E
  8
002
 62
     3
 10
296.805853
 20
465.631462
 30
0.0
 11
296.805853
 21
464.631462
 31
0.0
  0
LINE
  5
46F
  8
002
 62
     3
 10
296.805853
 20
535.631462
 30
0.0
 11
296.805853
 21
536.631462
 31
0.0
  0
LINE
  5
470
  8
002
 62
     3
 10
270.805853
 20
464.631462
 30
0.0
 11
270.805853
 21
441.631462
 31
0.0
  0
LINE
  5
471
  8
002
 62
     3
 10
270.805853
 20
441.631462
 30
0.0
 11
271.805853
 21
440.631462
 31
0.0
  0
LINE
  5
472
  8
002
 62
     3
 10
271.805853
 20
440.631462
 30
0.0
 11
281.805853
 21
440.631462
 31
0.0
  0
LINE
  5
473
  8
002
 62
     3
 10
281.805853
 20
440.631462
 30
0.0
 11
282.805853
 21
441.631462
 31
0.0
  0
LINE
  5
474
  8
002
 62
     3
 10
282.805853
 20
441.631462
 30
0.0
 11
282.805853
 21
464.631462
 31
0.0
  0
ARC
  5
475
  8
002
 62
     3
 10
276.805853
 20
451.197462
 30
0.0
 40
10.00000957799538
 50
70.629917
 51
109.369542
  0
LINE
  5
476
  8
002
 62
     3
 10
273.489253
 20
460.631462
 30
0.0
 11
273.489253
 21
440.631462
 31
0.0
  0
LINE
  5
477
  8
002
 62
     3
 10
273.489253
 20
441.631462
 30
0.0
 11
270.805853
 21
441.631462
 31
0.0
  0
LINE
  5
478
  8
002
 62
     3
 10
280.122553
 20
441.631462
 30
0.0
 11
282.805853
 21
441.631462
 31
0.0
  0
LINE
  5
479
  8
002
 62
     3
 10
280.122553
 20
440.631462
 30
0.0
 11
280.122553
 21
460.631462
 31
0.0
  0
LINE
  5
47A
  8
002
 62
     3
 10
270.805853
 20
536.631462
 30
0.0
 11
270.805853
 21
559.631462
 31
0.0
  0
LINE
  5
47B
  8
002
 62
     3
 10
270.805853
 20
559.631462
 30
0.0
 11
271.805853
 21
560.631462
 31
0.0
  0
LINE
  5
47C
  8
002
 62
     3
 10
271.805853
 20
560.631462
 30
0.0
 11
281.805853
 21
560.631462
 31
0.0
  0
LINE
  5
47D
  8
002
 62
     3
 10
281.805853
 20
560.631462
 30
0.0
 11
282.805853
 21
559.631462
 31
0.0
  0
LINE
  5
47E
  8
002
 62
     3
 10
282.805853
 20
559.631462
 30
0.0
 11
282.805853
 21
536.631462
 31
0.0
  0
ARC
  5
47F
  8
002
 62
     3
 10
276.805853
 20
550.065462
 30
0.0
 40
10.00000957799538
 50
250.630458
 51
289.370083
  0
LINE
  5
480
  8
002
 62
     3
 10
273.489253
 20
540.631462
 30
0.0
 11
273.489253
 21
560.631462
 31
0.0
  0
LINE
  5
481
  8
002
 62
     3
 10
273.489253
 20
559.631462
 30
0.0
 11
270.805853
 21
559.631462
 31
0.0
  0
LINE
  5
482
  8
002
 62
     3
 10
280.122553
 20
559.631462
 30
0.0
 11
282.805853
 21
559.631462
 31
0.0
  0
LINE
  5
483
  8
002
 62
     3
 10
280.122553
 20
560.631462
 30
0.0
 11
280.122553
 21
540.631462
 31
0.0
  0
LINE
  5
484
  8
002
  6
CENTER
 62
    40
 10
276.805853
 20
563.945313
 30
0.0
 11
276.805853
 21
434.837246
 31
0.0
  0
CIRCLE
  5
485
  8
002
 62
     3
 10
248.805853
 20
500.631462
 30
0.0
 40
6.0
  0
CIRCLE
  5
486
  8
002
 62
    40
 10
248.805853
 20
500.631462
 30
0.0
 40
5.25
  0
LINE
  5
487
  8
002
 62
     3
 10
89.553853
 20
207.016651
 30
0.0
 11
66.553813
 21
207.016651
 31
0.0
  0
LINE
  5
488
  8
002
 62
     3
 10
66.553813
 20
207.016651
 30
0.0
 11
65.553813
 21
208.016651
 31
0.0
  0
LINE
  5
489
  8
002
 62
     3
 10
65.553813
 20
208.016651
 30
0.0
 11
65.553813
 21
218.016651
 31
0.0
  0
LINE
  5
48A
  8
002
 62
     3
 10
65.553813
 20
218.016651
 30
0.0
 11
85.553853
 21
218.016651
 31
0.0
  0
LINE
  5
48B
  8
002
 62
     3
 10
85.553853
 20
218.016651
 30
0.0
 11
85.553853
 21
219.016651
 31
0.0
  0
LINE
  5
48C
  8
002
 62
     3
 10
85.553853
 20
219.016651
 30
0.0
 11
89.553853
 21
219.016651
 31
0.0
  0
LINE
  5
48D
  8
002
 62
     3
 10
66.553813
 20
218.016651
 30
0.0
 11
66.553813
 21
207.016651
 31
0.0
  0
LINE
  5
48E
  8
002
 62
     3
 10
161.553853
 20
219.016651
 30
0.0
 11
165.553853
 21
219.016651
 31
0.0
  0
LINE
  5
48F
  8
002
 62
     3
 10
165.553853
 20
219.016651
 30
0.0
 11
165.553853
 21
218.016651
 31
0.0
  0
LINE
  5
490
  8
002
 62
     3
 10
165.553853
 20
218.016651
 30
0.0
 11
185.553853
 21
218.016651
 31
0.0
  0
LINE
  5
491
  8
002
 62
     3
 10
185.553853
 20
218.016651
 30
0.0
 11
185.553853
 21
208.016651
 31
0.0
  0
LINE
  5
492
  8
002
 62
     3
 10
185.553853
 20
208.016651
 30
0.0
 11
184.553853
 21
207.016651
 31
0.0
  0
LINE
  5
493
  8
002
 62
     3
 10
184.553853
 20
207.016651
 30
0.0
 11
161.553853
 21
207.016651
 31
0.0
  0
LINE
  5
494
  8
002
 62
     3
 10
184.553853
 20
207.016651
 30
0.0
 11
184.553853
 21
218.016651
 31
0.0
  0
LINE
  5
495
  8
002
 62
     3
 10
158.553853
 20
185.516651
 30
0.0
 11
158.553853
 21
240.516651
 31
0.0
  0
LINE
  5
496
  8
002
 62
     3
 10
142.553853
 20
193.016651
 30
0.0
 11
142.553853
 21
185.516651
 31
0.0
  0
LINE
  5
497
  8
002
 62
     3
 10
144.105171
 20
193.016651
 30
0.0
 11
144.105171
 21
240.516651
 31
0.0
  0
LINE
  5
498
  8
002
 62
     3
 10
108.553853
 20
185.516651
 30
0.0
 11
108.553853
 21
193.016651
 31
0.0
  0
LINE
  5
499
  8
002
 62
     3
 10
92.553853
 20
240.516651
 30
0.0
 11
92.553853
 21
185.516651
 31
0.0
  0
LINE
  5
49A
  8
002
 62
     3
 10
107.002535
 20
193.016651
 30
0.0
 11
107.002535
 21
240.516651
 31
0.0
  0
ARC
  5
49B
  8
002
 62
     3
 10
110.553853
 20
240.516651
 30
0.0
 40
2.0
 50
180.0
 51
270.0
  0
POLYLINE
  5
49C
  8
002
 62
     3
 66
     1
 10
0.0
 20
0.0
 30
0.0
  0
VERTEX
  5
49E
  8
002
 62
     3
 10
110.235416
 20
238.516651
 30
0.0
  0
VERTEX
  5
49F
  8
002
 62
     3
 10
109.99632
 20
238.532279
 30
0.0
  0
VERTEX
  5
4A0
  8
002
 62
     3
 10
109.759183
 20
238.560997
 30
0.0
  0
VERTEX
  5
4A1
  8
002
 62
     3
 10
109.524221
 20
238.613222
 30
0.0
  0
VERTEX
  5
4A2
  8
002
 62
     3
 10
109.294224
 20
238.686344
 30
0.0
  0
VERTEX
  5
4A3
  8
002
 62
     3
 10
108.997389
 20
238.808199
 30
0.0
  0
VERTEX
  5
4A4
  8
002
 62
     3
 10
108.712366
 20
238.954879
 30
0.0
  0
VERTEX
  5
4A5
  8
002
 62
     3
 10
108.442181
 20
239.122516
 30
0.0
  0
VERTEX
  5
4A6
  8
002
 62
     3
 10
108.184159
 20
239.308737
 30
0.0
  0
VERTEX
  5
4A7
  8
002
 62
     3
 10
107.855056
 20
239.583577
 30
0.0
  0
VERTEX
  5
4A8
  8
002
 62
     3
 10
107.548319
 20
239.882768
 30
0.0
  0
VERTEX
  5
4A9
  8
002
 62
     3
 10
107.269725
 20
240.194545
 30
0.0
  0
VERTEX
  5
4AA
  8
002
 62
     3
 10
107.002535
 20
240.516651
 30
0.0
  0
SEQEND
  5
49D
  8
002
 62
     3
  0
POLYLINE
  5
4AB
  8
002
 62
     3
 66
     1
 10
0.0
 20
0.0
 30
0.0
  0
VERTEX
  5
4AD
  8
002
 62
     3
 10
144.105171
 20
240.516651
 30
0.0
  0
VERTEX
  5
4AE
  8
002
 62
     3
 10
143.840523
 20
240.196837
 30
0.0
  0
VERTEX
  5
4AF
  8
002
 62
     3
 10
143.564501
 20
239.887319
 30
0.0
  0
VERTEX
  5
4B0
  8
002
 62
     3
 10
143.255378
 20
239.585677
 30
0.0
  0
VERTEX
  5
4B1
  8
002
 62
     3
 10
142.923547
 20
239.308737
 30
0.0
  0
VERTEX
  5
4B2
  8
002
 62
     3
 10
142.668694
 20
239.124612
 30
0.0
  0
VERTEX
  5
4B3
  8
002
 62
     3
 10
142.402006
 20
238.95854
 30
0.0
  0
VERTEX
  5
4B4
  8
002
 62
     3
 10
142.113814
 20
238.809696
 30
0.0
  0
VERTEX
  5
4B5
  8
002
 62
     3
 10
141.813482
 20
238.686344
 30
0.0
  0
VERTEX
  5
4B6
  8
002
 62
     3
 10
141.587046
 20
238.614356
 30
0.0
  0
VERTEX
  5
4B7
  8
002
 62
     3
 10
141.35579
 20
238.562584
 30
0.0
  0
VERTEX
  5
4B8
  8
002
 62
     3
 10
141.115057
 20
238.53291
 30
0.0
  0
VERTEX
  5
4B9
  8
002
 62
     3
 10
140.87229
 20
238.516651
 30
0.0
  0
SEQEND
  5
4AC
  8
002
 62
     3
  0
ARC
  5
4BA
  8
002
 62
     3
 10
140.553853
 20
240.516651
 30
0.0
 40
2.0
 50
270.0
 51
0.0
  0
LINE
  5
4BB
  8
002
 62
     3
 10
110.235416
 20
238.516651
 30
0.0
 11
140.87229
 21
238.516651
 31
0.0
  0
LINE
  5
4BC
  8
002
 62
     3
 10
107.002535
 20
193.016651
 30
0.0
 11
144.105171
 21
193.016651
 31
0.0
  0
LINE
  5
4BD
  8
002
 62
     3
 10
158.553853
 20
185.516651
 30
0.0
 11
92.553853
 21
185.516651
 31
0.0
  0
LINE
  5
4BE
  8
002
 62
     3
 10
89.553853
 20
233.016651
 30
0.0
 11
89.553853
 21
193.016651
 31
0.0
  0
LINE
  5
4BF
  8
002
 62
     3
 10
161.553853
 20
233.016651
 30
0.0
 11
161.553853
 21
193.016651
 31
0.0
  0
POLYLINE
  5
4C0
  8
002
 62
     3
 66
     1
 10
0.0
 20
0.0
 30
0.0
  0
VERTEX
  5
4C2
  8
002
 62
     3
 10
158.553853
 20
235.016651
 30
0.0
  0
VERTEX
  5
4C3
  8
002
 62
     3
 10
158.578511
 20
234.713947
 30
0.0
  0
VERTEX
  5
4C4
  8
002
 62
     3
 10
158.628092
 20
234.416191
 30
0.0
  0
VERTEX
  5
4C5
  8
002
 62
     3
 10
158.685558
 20
234.223152
 30
0.0
  0
VERTEX
  5
4C6
  8
002
 62
     3
 10
158.762522
 20
234.036362
 30
0.0
  0
VERTEX
  5
4C7
  8
002
 62
     3
 10
158.86201
 20
233.849356
 30
0.0
  0
VERTEX
  5
4C8
  8
002
 62
     3
 10
158.980971
 20
233.674545
 30
0.0
  0
VERTEX
  5
4C9
  8
002
 62
     3
 10
159.073824
 20
233.563745
 30
0.0
  0
VERTEX
  5
4CA
  8
002
 62
     3
 10
159.175721
 20
233.461156
 30
0.0
  0
VERTEX
  5
4CB
  8
002
 62
     3
 10
159.294431
 20
233.361353
 30
0.0
  0
VERTEX
  5
4CC
  8
002
 62
     3
 10
159.421961
 20
233.273151
 30
0.0
  0
VERTEX
  5
4CD
  8
002
 62
     3
 10
159.520394
 20
233.216451
 30
0.0
  0
VERTEX
  5
4CE
  8
002
 62
     3
 10
159.62251
 20
233.166777
 30
0.0
  0
VERTEX
  5
4CF
  8
002
 62
     3
 10
159.735175
 20
233.12162
 30
0.0
  0
VERTEX
  5
4D0
  8
002
 62
     3
 10
159.850808
 20
233.084462
 30
0.0
  0
VERTEX
  5
4D1
  8
002
 62
     3
 10
159.970632
 20
233.054834
 30
0.0
  0
VERTEX
  5
4D2
  8
002
 62
     3
 10
160.092187
 20
233.034309
 30
0.0
  0
VERTEX
  5
4D3
  8
002
 62
     3
 10
160.22271
 20
233.022574
 30
0.0
  0
VERTEX
  5
4D4
  8
002
 62
     3
 10
160.353853
 20
233.016651
 30
0.0
  0
SEQEND
  5
4C1
  8
002
 62
     3
  0
POLYLINE
  5
4D5
  8
002
 62
     3
 66
     1
 10
0.0
 20
0.0
 30
0.0
  0
VERTEX
  5
4D7
  8
002
 62
     3
 10
160.353853
 20
193.016651
 30
0.0
  0
VERTEX
  5
4D8
  8
002
 62
     3
 10
160.226971
 20
193.011094
 30
0.0
  0
VERTEX
  5
4D9
  8
002
 62
     3
 10
160.100641
 20
193.000135
 30
0.0
  0
VERTEX
  5
4DA
  8
002
 62
     3
 10
159.974808
 20
192.979338
 30
0.0
  0
VERTEX
  5
4DB
  8
002
 62
     3
 10
159.850808
 20
192.94884
 30
0.0
  0
VERTEX
  5
4DC
  8
002
 62
     3
 10
159.737899
 20
192.912667
 30
0.0
  0
VERTEX
  5
4DD
  8
002
 62
     3
 10
159.627803
 20
192.868868
 30
0.0
  0
VERTEX
  5
4DE
  8
002
 62
     3
 10
159.522954
 20
192.818203
 30
0.0
  0
VERTEX
  5
4DF
  8
002
 62
     3
 10
159.421961
 20
192.760151
 30
0.0
  0
VERTEX
  5
4E0
  8
002
 62
     3
 10
159.297546
 20
192.674329
 30
0.0
  0
VERTEX
  5
4E1
  8
002
 62
     3
 10
159.181493
 20
192.577457
 30
0.0
  0
VERTEX
  5
4E2
  8
002
 62
     3
 10
159.076472
 20
192.47245
 30
0.0
  0
VERTEX
  5
4E3
  8
002
 62
     3
 10
158.980971
 20
192.358757
 30
0.0
  0
VERTEX
  5
4E4
  8
002
 62
     3
 10
158.864692
 20
192.188411
 30
0.0
  0
VERTEX
  5
4E5
  8
002
 62
     3
 10
158.766943
 20
192.006397
 30
0.0
  0
VERTEX
  5
4E6
  8
002
 62
     3
 10
158.687274
 20
191.815077
 30
0.0
  0
VERTEX
  5
4E7
  8
002
 62
     3
 10
158.628092
 20
191.617111
 30
0.0
  0
VERTEX
  5
4E8
  8
002
 62
     3
 10
158.578529
 20
191.319344
 30
0.0
  0
VERTEX
  5
4E9
  8
002
 62
     3
 10
158.553853
 20
191.016651
 30
0.0
  0
SEQEND
  5
4D6
  8
002
 62
     3
  0
POLYLINE
  5
4EA
  8
002
 62
     3
 66
     1
 10
0.0
 20
0.0
 30
0.0
  0
VERTEX
  5
4EC
  8
002
 62
     3
 10
92.553853
 20
191.016651
 30
0.0
  0
VERTEX
  5
4ED
  8
002
 62
     3
 10
92.529195
 20
191.319355
 30
0.0
  0
VERTEX
  5
4EE
  8
002
 62
     3
 10
92.479614
 20
191.617111
 30
0.0
  0
VERTEX
  5
4EF
  8
002
 62
     3
 10
92.422147
 20
191.81015
 30
0.0
  0
VERTEX
  5
4F0
  8
002
 62
     3
 10
92.345183
 20
191.99694
 30
0.0
  0
VERTEX
  5
4F1
  8
002
 62
     3
 10
92.245696
 20
192.183945
 30
0.0
  0
VERTEX
  5
4F2
  8
002
 62
     3
 10
92.126734
 20
192.358757
 30
0.0
  0
VERTEX
  5
4F3
  8
002
 62
     3
 10
92.033882
 20
192.469557
 30
0.0
  0
VERTEX
  5
4F4
  8
002
 62
     3
 10
91.931985
 20
192.572146
 30
0.0
  0
VERTEX
  5
4F5
  8
002
 62
     3
 10
91.813275
 20
192.671948
 30
0.0
  0
VERTEX
  5
4F6
  8
002
 62
     3
 10
91.685744
 20
192.760151
 30
0.0
  0
VERTEX
  5
4F7
  8
002
 62
     3
 10
91.587311
 20
192.816851
 30
0.0
  0
VERTEX
  5
4F8
  8
002
 62
     3
 10
91.485196
 20
192.866525
 30
0.0
  0
VERTEX
  5
4F9
  8
002
 62
     3
 10
91.372531
 20
192.911682
 30
0.0
  0
VERTEX
  5
4FA
  8
002
 62
     3
 10
91.256898
 20
192.94884
 30
0.0
  0
VERTEX
  5
4FB
  8
002
 62
     3
 10
91.137074
 20
192.978468
 30
0.0
  0
VERTEX
  5
4FC
  8
002
 62
     3
 10
91.015519
 20
192.998993
 30
0.0
  0
VERTEX
  5
4FD
  8
002
 62
     3
 10
90.884996
 20
193.010728
 30
0.0
  0
VERTEX
  5
4FE
  8
002
 62
     3
 10
90.753853
 20
193.016651
 30
0.0
  0
SEQEND
  5
4EB
  8
002
 62
     3
  0
POLYLINE
  5
4FF
  8
002
 62
     3
 66
     1
 10
0.0
 20
0.0
 30
0.0
  0
VERTEX
  5
501
  8
002
 62
     3
 10
90.753853
 20
233.016651
 30
0.0
  0
VERTEX
  5
502
  8
002
 62
     3
 10
90.880735
 20
233.022208
 30
0.0
  0
VERTEX
  5
503
  8
002
 62
     3
 10
91.007064
 20
233.033167
 30
0.0
  0
VERTEX
  5
504
  8
002
 62
     3
 10
91.132897
 20
233.053964
 30
0.0
  0
VERTEX
  5
505
  8
002
 62
     3
 10
91.256898
 20
233.084462
 30
0.0
  0
VERTEX
  5
506
  8
002
 62
     3
 10
91.369807
 20
233.120635
 30
0.0
  0
VERTEX
  5
507
  8
002
 62
     3
 10
91.479903
 20
233.164434
 30
0.0
  0
VERTEX
  5
508
  8
002
 62
     3
 10
91.584752
 20
233.215099
 30
0.0
  0
VERTEX
  5
509
  8
002
 62
     3
 10
91.685744
 20
233.273151
 30
0.0
  0
VERTEX
  5
50A
  8
002
 62
     3
 10
91.810159
 20
233.358973
 30
0.0
  0
VERTEX
  5
50B
  8
002
 62
     3
 10
91.926213
 20
233.455845
 30
0.0
  0
VERTEX
  5
50C
  8
002
 62
     3
 10
92.031233
 20
233.560852
 30
0.0
  0
VERTEX
  5
50D
  8
002
 62
     3
 10
92.126734
 20
233.674545
 30
0.0
  0
VERTEX
  5
50E
  8
002
 62
     3
 10
92.243014
 20
233.844891
 30
0.0
  0
VERTEX
  5
50F
  8
002
 62
     3
 10
92.340763
 20
234.026905
 30
0.0
  0
VERTEX
  5
510
  8
002
 62
     3
 10
92.420432
 20
234.218224
 30
0.0
  0
VERTEX
  5
511
  8
002
 62
     3
 10
92.479614
 20
234.416191
 30
0.0
  0
VERTEX
  5
512
  8
002
 62
     3
 10
92.529177
 20
234.713958
 30
0.0
  0
VERTEX
  5
513
  8
002
 62
     3
 10
92.553853
 20
235.016651
 30
0.0
  0
SEQEND
  5
500
  8
002
 62
     3
  0
LINE
  5
514
  8
002
 62
     3
 10
92.553853
 20
240.516651
 30
0.0
 11
158.553853
 21
240.516651
 31
0.0
  0
LINE
  5
515
  8
002
 62
     3
 10
89.553853
 20
233.016651
 30
0.0
 11
90.753853
 21
233.016651
 31
0.0
  0
LINE
  5
516
  8
002
 62
     3
 10
89.553853
 20
193.016651
 30
0.0
 11
90.753853
 21
193.016651
 31
0.0
  0
LINE
  5
517
  8
002
 62
     3
 10
161.553853
 20
233.016651
 30
0.0
 11
160.353853
 21
233.016651
 31
0.0
  0
LINE
  5
518
  8
002
 62
     3
 10
161.553853
 20
193.016651
 30
0.0
 11
160.353853
 21
193.016651
 31
0.0
  0
LINE
  5
519
  8
002
 62
     3
 10
306.805853
 20
240.516651
 30
0.0
 11
306.805853
 21
185.516651
 31
0.0
  0
LINE
  5
51A
  8
002
 62
     3
 10
290.805853
 20
240.516651
 30
0.0
 11
306.805853
 21
240.516651
 31
0.0
  0
LINE
  5
51B
  8
002
 62
     3
 10
290.805853
 20
185.516651
 30
0.0
 11
306.805853
 21
185.516651
 31
0.0
  0
LINE
  5
51C
  8
002
 62
     3
 10
231.805853
 20
240.516651
 30
0.0
 11
231.805853
 21
185.516651
 31
0.0
  0
LINE
  5
51D
  8
002
 62
     3
 10
294.805853
 20
193.016651
 30
0.0
 11
258.805853
 21
193.016651
 31
0.0
  0
LINE
  5
51E
  8
002
 62
     3
 10
290.805853
 20
191.016651
 30
0.0
 11
290.805853
 21
185.516651
 31
0.0
  0
LINE
  5
51F
  8
002
 62
     3
 10
256.805853
 20
231.016651
 30
0.0
 11
256.805853
 21
195.016651
 31
0.0
  0
LINE
  5
520
  8
002
 62
     3
 10
294.805853
 20
233.016651
 30
0.0
 11
258.805853
 21
233.016651
 31
0.0
  0
LINE
  5
521
  8
002
 62
     3
 10
296.805853
 20
195.016651
 30
0.0
 11
296.805853
 21
231.016651
 31
0.0
  0
LINE
  5
522
  8
002
 62
     3
 10
290.805853
 20
235.016651
 30
0.0
 11
290.805853
 21
240.516651
 31
0.0
  0
LINE
  5
523
  8
002
 62
     3
 10
233.805853
 20
238.516651
 30
0.0
 11
278.805853
 21
238.516651
 31
0.0
  0
LINE
  5
524
  8
002
 62
     3
 10
278.805853
 20
235.016651
 30
0.0
 11
278.805853
 21
238.516651
 31
0.0
  0
ARC
  5
525
  8
002
 62
     3
 10
275.805853
 20
191.016651
 30
0.0
 40
2.0
 50
90.0
 51
180.0
  0
ARC
  5
526
  8
002
 62
     3
 10
280.805853
 20
235.016651
 30
0.0
 40
2.0
 50
180.0
 51
270.0
  0
LINE
  5
527
  8
002
 62
     3
 10
273.805853
 20
191.016651
 30
0.0
 11
273.805853
 21
185.516651
 31
0.0
  0
ARC
  5
528
  8
002
 62
     3
 10
288.805853
 20
235.016651
 30
0.0
 40
2.0
 50
270.0
 51
0.0
  0
ARC
  5
529
  8
002
 62
     3
 10
288.805853
 20
191.016651
 30
0.0
 40
2.0
 50
0.0
 51
90.0
  0
ARC
  5
52A
  8
002
 62
     3
 10
233.805853
 20
240.516651
 30
0.0
 40
2.0
 50
180.0
 51
270.0
  0
LINE
  5
52B
  8
002
  6
CENTER
 62
    40
 10
276.805853
 20
234.884586
 30
0.0
 11
276.805853
 21
191.042343
 31
0.0
  0
ARC
  5
52C
  8
002
 62
     3
 10
258.805853
 20
195.016651
 30
0.0
 40
2.0
 50
180.0
 51
270.0
  0
ARC
  5
52D
  8
002
 62
     3
 10
258.805853
 20
231.016651
 30
0.0
 40
2.0
 50
90.0
 51
180.0
  0
ARC
  5
52E
  8
002
 62
     3
 10
294.805853
 20
231.016651
 30
0.0
 40
2.0
 50
0.0
 51
90.0
  0
ARC
  5
52F
  8
002
 62
     3
 10
294.805853
 20
195.016651
 30
0.0
 40
2.0
 50
270.0
 51
0.0
  0
LINE
  5
530
  8
002
 62
     3
 10
215.805853
 20
240.516651
 30
0.0
 11
215.805853
 21
185.516651
 31
0.0
  0
LINE
  5
531
  8
002
 62
     3
 10
275.305853
 20
199.119351
 30
0.0
 11
275.305853
 21
200.916651
 31
0.0
  0
ARC
  5
532
  8
002
 62
     3
 10
280.305853
 20
200.916651
 30
0.0
 40
1.999987664961913
 50
45.149904
 51
180.0
  0
ARC
  5
533
  8
002
 62
     3
 10
283.126853
 20
203.752451
 30
0.0
 40
1.999987664962033
 50
225.149904
 51
306.869898
  0
CIRCLE
  5
534
  8
002
 62
     3
 10
280.305853
 20
200.916651
 30
0.0
 40
1.0
  0
LINE
  5
535
  8
002
 62
     3
 10
278.305853
 20
200.916651
 30
0.0
 11
278.305853
 21
199.119351
 31
0.0
  0
CIRCLE
  5
536
  8
002
 62
     3
 10
273.305853
 20
200.916651
 30
0.0
 40
1.0
  0
ARC
  5
537
  8
002
 62
     3
 10
270.484953
 20
203.752451
 30
0.0
 40
1.999999999999977
 50
233.130102
 51
314.848065
  0
ARC
  5
538
  8
002
 62
     3
 10
276.805853
 20
212.181151
 30
0.0
 40
12.53556000703597
 50
306.867978
 51
233.132388
  0
ARC
  5
539
  8
002
 62
     3
 10
273.305853
 20
200.916651
 30
0.0
 40
2.0
 50
0.0
 51
134.850096
  0
CIRCLE
  5
53A
  8
002
 62
     3
 10
276.805853
 20
213.016651
 30
0.0
 40
6.0
  0
LINE
  5
53B
  8
002
 62
     3
 10
273.489253
 20
218.016651
 30
0.0
 11
280.122553
 21
218.016651
 31
0.0
  0
CIRCLE
  5
53C
  8
002
 62
     3
 10
276.805853
 20
213.016651
 30
0.0
 40
14.0
  0
LINE
  5
53D
  8
002
  6
CENTER
 62
    40
 10
223.805753
 20
242.51976
 30
0.0
 11
223.805753
 21
180.956051
 31
0.0
  0
LINE
  5
53E
  8
002
  6
CENTER
 62
    40
 10
298.805853
 20
179.458951
 30
0.0
 11
298.805853
 21
242.51976
 31
0.0
  0
LINE
  5
53F
  8
002
 62
     3
 10
215.805853
 20
240.516651
 30
0.0
 11
274.805853
 21
240.516651
 31
0.0
  0
LINE
  5
540
  8
002
 62
     3
 10
215.805853
 20
185.516651
 30
0.0
 11
273.805853
 21
185.516651
 31
0.0
  0
LINE
  5
541
  8
002
 62
    40
 10
273.723353
 20
240.516651
 30
0.0
 11
273.723353
 21
238.516651
 31
0.0
  0
LINE
  5
542
  8
002
 62
     3
 10
274.805853
 20
238.516651
 30
0.0
 11
274.805853
 21
240.516651
 31
0.0
  0
LINE
  5
543
  8
002
 62
     3
 10
359.386653
 20
207.016651
 30
0.0
 11
336.386613
 21
207.016651
 31
0.0
  0
LINE
  5
544
  8
002
 62
     3
 10
336.386613
 20
207.016651
 30
0.0
 11
335.386613
 21
208.016651
 31
0.0
  0
LINE
  5
545
  8
002
 62
     3
 10
335.386613
 20
208.016651
 30
0.0
 11
335.386613
 21
218.016651
 31
0.0
  0
LINE
  5
546
  8
002
 62
     3
 10
335.386613
 20
218.016651
 30
0.0
 11
355.386653
 21
218.016651
 31
0.0
  0
LINE
  5
547
  8
002
 62
     3
 10
355.386653
 20
218.016651
 30
0.0
 11
355.386653
 21
219.016651
 31
0.0
  0
LINE
  5
548
  8
002
 62
     3
 10
355.386653
 20
219.016651
 30
0.0
 11
359.386653
 21
219.016651
 31
0.0
  0
LINE
  5
549
  8
002
 62
     3
 10
336.386613
 20
218.016651
 30
0.0
 11
336.386613
 21
207.016651
 31
0.0
  0
LINE
  5
54A
  8
002
 62
     3
 10
431.386653
 20
219.016651
 30
0.0
 11
435.386653
 21
219.016651
 31
0.0
  0
LINE
  5
54B
  8
002
 62
     3
 10
435.386653
 20
219.016651
 30
0.0
 11
435.386653
 21
218.016651
 31
0.0
  0
LINE
  5
54C
  8
002
 62
     3
 10
435.386653
 20
218.016651
 30
0.0
 11
455.386653
 21
218.016651
 31
0.0
  0
LINE
  5
54D
  8
002
 62
     3
 10
455.386653
 20
218.016651
 30
0.0
 11
455.386653
 21
208.016651
 31
0.0
  0
LINE
  5
54E
  8
002
 62
     3
 10
455.386653
 20
208.016651
 30
0.0
 11
454.386653
 21
207.016651
 31
0.0
  0
LINE
  5
54F
  8
002
 62
     3
 10
454.386653
 20
207.016651
 30
0.0
 11
431.386653
 21
207.016651
 31
0.0
  0
LINE
  5
550
  8
002
 62
     3
 10
454.386653
 20
207.016651
 30
0.0
 11
454.386653
 21
218.016651
 31
0.0
  0
LINE
  5
551
  8
002
 62
     3
 10
378.386653
 20
240.516651
 30
0.0
 11
378.386653
 21
185.516651
 31
0.0
  0
LINE
  5
552
  8
002
 62
     3
 10
362.386653
 20
185.516651
 30
0.0
 11
362.386653
 21
240.516651
 31
0.0
  0
LINE
  5
553
  8
002
 62
     3
 10
412.386653
 20
185.516651
 30
0.0
 11
412.386653
 21
240.516651
 31
0.0
  0
LINE
  5
554
  8
002
 62
     3
 10
428.386653
 20
240.516651
 30
0.0
 11
428.386653
 21
185.516651
 31
0.0
  0
POLYLINE
  5
555
  8
002
 62
     3
 66
     1
 10
0.0
 20
0.0
 30
0.0
  0
VERTEX
  5
557
  8
002
 62
     3
 10
428.386653
 20
191.016651
 30
0.0
  0
VERTEX
  5
558
  8
002
 62
     3
 10
428.411311
 20
191.319355
 30
0.0
  0
VERTEX
  5
559
  8
002
 62
     3
 10
428.460892
 20
191.617111
 30
0.0
  0
VERTEX
  5
55A
  8
002
 62
     3
 10
428.518358
 20
191.81015
 30
0.0
  0
VERTEX
  5
55B
  8
002
 62
     3
 10
428.595322
 20
191.99694
 30
0.0
  0
VERTEX
  5
55C
  8
002
 62
     3
 10
428.69481
 20
192.183945
 30
0.0
  0
VERTEX
  5
55D
  8
002
 62
     3
 10
428.813771
 20
192.358757
 30
0.0
  0
VERTEX
  5
55E
  8
002
 62
     3
 10
428.906624
 20
192.469557
 30
0.0
  0
VERTEX
  5
55F
  8
002
 62
     3
 10
429.008521
 20
192.572146
 30
0.0
  0
VERTEX
  5
560
  8
002
 62
     3
 10
429.127231
 20
192.671948
 30
0.0
  0
VERTEX
  5
561
  8
002
 62
     3
 10
429.254761
 20
192.760151
 30
0.0
  0
VERTEX
  5
562
  8
002
 62
     3
 10
429.353194
 20
192.816851
 30
0.0
  0
VERTEX
  5
563
  8
002
 62
     3
 10
429.45531
 20
192.866525
 30
0.0
  0
VERTEX
  5
564
  8
002
 62
     3
 10
429.567975
 20
192.911682
 30
0.0
  0
VERTEX
  5
565
  8
002
 62
     3
 10
429.683608
 20
192.94884
 30
0.0
  0
VERTEX
  5
566
  8
002
 62
     3
 10
429.803432
 20
192.978468
 30
0.0
  0
VERTEX
  5
567
  8
002
 62
     3
 10
429.924987
 20
192.998993
 30
0.0
  0
VERTEX
  5
568
  8
002
 62
     3
 10
430.05551
 20
193.010728
 30
0.0
  0
VERTEX
  5
569
  8
002
 62
     3
 10
430.186653
 20
193.016651
 30
0.0
  0
SEQEND
  5
556
  8
002
 62
     3
  0
POLYLINE
  5
56A
  8
002
 62
     3
 66
     1
 10
0.0
 20
0.0
 30
0.0
  0
VERTEX
  5
56C
  8
002
 62
     3
 10
410.586653
 20
193.016651
 30
0.0
  0
VERTEX
  5
56D
  8
002
 62
     3
 10
410.713535
 20
193.011094
 30
0.0
  0
VERTEX
  5
56E
  8
002
 62
     3
 10
410.839864
 20
193.000135
 30
0.0
  0
VERTEX
  5
56F
  8
002
 62
     3
 10
410.965697
 20
192.979338
 30
0.0
  0
VERTEX
  5
570
  8
002
 62
     3
 10
411.089698
 20
192.94884
 30
0.0
  0
VERTEX
  5
571
  8
002
 62
     3
 10
411.202607
 20
192.912667
 30
0.0
  0
VERTEX
  5
572
  8
002
 62
     3
 10
411.312703
 20
192.868868
 30
0.0
  0
VERTEX
  5
573
  8
002
 62
     3
 10
411.417552
 20
192.818203
 30
0.0
  0
VERTEX
  5
574
  8
002
 62
     3
 10
411.518544
 20
192.760151
 30
0.0
  0
VERTEX
  5
575
  8
002
 62
     3
 10
411.642959
 20
192.674329
 30
0.0
  0
VERTEX
  5
576
  8
002
 62
     3
 10
411.759013
 20
192.577457
 30
0.0
  0
VERTEX
  5
577
  8
002
 62
     3
 10
411.864033
 20
192.47245
 30
0.0
  0
VERTEX
  5
578
  8
002
 62
     3
 10
411.959534
 20
192.358757
 30
0.0
  0
VERTEX
  5
579
  8
002
 62
     3
 10
412.075814
 20
192.188411
 30
0.0
  0
VERTEX
  5
57A
  8
002
 62
     3
 10
412.173563
 20
192.006397
 30
0.0
  0
VERTEX
  5
57B
  8
002
 62
     3
 10
412.253232
 20
191.815077
 30
0.0
  0
VERTEX
  5
57C
  8
002
 62
     3
 10
412.312414
 20
191.617111
 30
0.0
  0
VERTEX
  5
57D
  8
002
 62
     3
 10
412.361977
 20
191.319344
 30
0.0
  0
VERTEX
  5
57E
  8
002
 62
     3
 10
412.386653
 20
191.016651
 30
0.0
  0
SEQEND
  5
56B
  8
002
 62
     3
  0
POLYLINE
  5
57F
  8
002
 62
     3
 66
     1
 10
0.0
 20
0.0
 30
0.0
  0
VERTEX
  5
581
  8
002
 62
     3
 10
412.386653
 20
235.016651
 30
0.0
  0
VERTEX
  5
582
  8
002
 62
     3
 10
412.361995
 20
234.713947
 30
0.0
  0
VERTEX
  5
583
  8
002
 62
     3
 10
412.312414
 20
234.416191
 30
0.0
  0
VERTEX
  5
584
  8
002
 62
     3
 10
412.254947
 20
234.223152
 30
0.0
  0
VERTEX
  5
585
  8
002
 62
     3
 10
412.177983
 20
234.036362
 30
0.0
  0
VERTEX
  5
586
  8
002
 62
     3
 10
412.078496
 20
233.849356
 30
0.0
  0
VERTEX
  5
587
  8
002
 62
     3
 10
411.959534
 20
233.674545
 30
0.0
  0
VERTEX
  5
588
  8
002
 62
     3
 10
411.866682
 20
233.563745
 30
0.0
  0
VERTEX
  5
589
  8
002
 62
     3
 10
411.764785
 20
233.461156
 30
0.0
  0
VERTEX
  5
58A
  8
002
 62
     3
 10
411.646075
 20
233.361353
 30
0.0
  0
VERTEX
  5
58B
  8
002
 62
     3
 10
411.518544
 20
233.273151
 30
0.0
  0
VERTEX
  5
58C
  8
002
 62
     3
 10
411.420111
 20
233.216451
 30
0.0
  0
VERTEX
  5
58D
  8
002
 62
     3
 10
411.317996
 20
233.166777
 30
0.0
  0
VERTEX
  5
58E
  8
002
 62
     3
 10
411.205331
 20
233.12162
 30
0.0
  0
VERTEX
  5
58F
  8
002
 62
     3
 10
411.089698
 20
233.084462
 30
0.0
  0
VERTEX
  5
590
  8
002
 62
     3
 10
410.969874
 20
233.054834
 30
0.0
  0
VERTEX
  5
591
  8
002
 62
     3
 10
410.848319
 20
233.034309
 30
0.0
  0
VERTEX
  5
592
  8
002
 62
     3
 10
410.717796
 20
233.022574
 30
0.0
  0
VERTEX
  5
593
  8
002
 62
     3
 10
410.586653
 20
233.016651
 30
0.0
  0
SEQEND
  5
580
  8
002
 62
     3
  0
POLYLINE
  5
594
  8
002
 62
     3
 66
     1
 10
0.0
 20
0.0
 30
0.0
  0
VERTEX
  5
596
  8
002
 62
     3
 10
430.186653
 20
233.016651
 30
0.0
  0
VERTEX
  5
597
  8
002
 62
     3
 10
430.059771
 20
233.022208
 30
0.0
  0
VERTEX
  5
598
  8
002
 62
     3
 10
429.933441
 20
233.033167
 30
0.0
  0
VERTEX
  5
599
  8
002
 62
     3
 10
429.807608
 20
233.053964
 30
0.0
  0
VERTEX
  5
59A
  8
002
 62
     3
 10
429.683608
 20
233.084462
 30
0.0
  0
VERTEX
  5
59B
  8
002
 62
     3
 10
429.570699
 20
233.120635
 30
0.0
  0
VERTEX
  5
59C
  8
002
 62
     3
 10
429.460603
 20
233.164434
 30
0.0
  0
VERTEX
  5
59D
  8
002
 62
     3
 10
429.355754
 20
233.215099
 30
0.0
  0
VERTEX
  5
59E
  8
002
 62
     3
 10
429.254761
 20
233.273151
 30
0.0
  0
VERTEX
  5
59F
  8
002
 62
     3
 10
429.130346
 20
233.358973
 30
0.0
  0
VERTEX
  5
5A0
  8
002
 62
     3
 10
429.014293
 20
233.455845
 30
0.0
  0
VERTEX
  5
5A1
  8
002
 62
     3
 10
428.909272
 20
233.560852
 30
0.0
  0
VERTEX
  5
5A2
  8
002
 62
     3
 10
428.813771
 20
233.674545
 30
0.0
  0
VERTEX
  5
5A3
  8
002
 62
     3
 10
428.697492
 20
233.844891
 30
0.0
  0
VERTEX
  5
5A4
  8
002
 62
     3
 10
428.599743
 20
234.026905
 30
0.0
  0
VERTEX
  5
5A5
  8
002
 62
     3
 10
428.520074
 20
234.218224
 30
0.0
  0
VERTEX
  5
5A6
  8
002
 62
     3
 10
428.460892
 20
234.416191
 30
0.0
  0
VERTEX
  5
5A7
  8
002
 62
     3
 10
428.411329
 20
234.713958
 30
0.0
  0
VERTEX
  5
5A8
  8
002
 62
     3
 10
428.386653
 20
235.016651
 30
0.0
  0
SEQEND
  5
595
  8
002
 62
     3
  0
POLYLINE
  5
5A9
  8
002
 62
     3
 66
     1
 10
0.0
 20
0.0
 30
0.0
  0
VERTEX
  5
5AB
  8
002
 62
     3
 10
360.586653
 20
193.016651
 30
0.0
  0
VERTEX
  5
5AC
  8
002
 62
     3
 10
360.713535
 20
193.011094
 30
0.0
  0
VERTEX
  5
5AD
  8
002
 62
     3
 10
360.839864
 20
193.000135
 30
0.0
  0
VERTEX
  5
5AE
  8
002
 62
     3
 10
360.965697
 20
192.979338
 30
0.0
  0
VERTEX
  5
5AF
  8
002
 62
     3
 10
361.089698
 20
192.94884
 30
0.0
  0
VERTEX
  5
5B0
  8
002
 62
     3
 10
361.202607
 20
192.912667
 30
0.0
  0
VERTEX
  5
5B1
  8
002
 62
     3
 10
361.312703
 20
192.868868
 30
0.0
  0
VERTEX
  5
5B2
  8
002
 62
     3
 10
361.417552
 20
192.818203
 30
0.0
  0
VERTEX
  5
5B3
  8
002
 62
     3
 10
361.518544
 20
192.760151
 30
0.0
  0
VERTEX
  5
5B4
  8
002
 62
     3
 10
361.642959
 20
192.674329
 30
0.0
  0
VERTEX
  5
5B5
  8
002
 62
     3
 10
361.759013
 20
192.577457
 30
0.0
  0
VERTEX
  5
5B6
  8
002
 62
     3
 10
361.864033
 20
192.47245
 30
0.0
  0
VERTEX
  5
5B7
  8
002
 62
     3
 10
361.959534
 20
192.358757
 30
0.0
  0
VERTEX
  5
5B8
  8
002
 62
     3
 10
362.075814
 20
192.188411
 30
0.0
  0
VERTEX
  5
5B9
  8
002
 62
     3
 10
362.173563
 20
192.006397
 30
0.0
  0
VERTEX
  5
5BA
  8
002
 62
     3
 10
362.253232
 20
191.815077
 30
0.0
  0
VERTEX
  5
5BB
  8
002
 62
     3
 10
362.312414
 20
191.617111
 30
0.0
  0
VERTEX
  5
5BC
  8
002
 62
     3
 10
362.361977
 20
191.319344
 30
0.0
  0
VERTEX
  5
5BD
  8
002
 62
     3
 10
362.386653
 20
191.016651
 30
0.0
  0
SEQEND
  5
5AA
  8
002
 62
     3
  0
POLYLINE
  5
5BE
  8
002
 62
     3
 66
     1
 10
0.0
 20
0.0
 30
0.0
  0
VERTEX
  5
5C0
  8
002
 62
     3
 10
378.386653
 20
191.016651
 30
0.0
  0
VERTEX
  5
5C1
  8
002
 62
     3
 10
378.411311
 20
191.319355
 30
0.0
  0
VERTEX
  5
5C2
  8
002
 62
     3
 10
378.460892
 20
191.617111
 30
0.0
  0
VERTEX
  5
5C3
  8
002
 62
     3
 10
378.518358
 20
191.81015
 30
0.0
  0
VERTEX
  5
5C4
  8
002
 62
     3
 10
378.595322
 20
191.99694
 30
0.0
  0
VERTEX
  5
5C5
  8
002
 62
     3
 10
378.69481
 20
192.183945
 30
0.0
  0
VERTEX
  5
5C6
  8
002
 62
     3
 10
378.813771
 20
192.358757
 30
0.0
  0
VERTEX
  5
5C7
  8
002
 62
     3
 10
378.906624
 20
192.469557
 30
0.0
  0
VERTEX
  5
5C8
  8
002
 62
     3
 10
379.008521
 20
192.572146
 30
0.0
  0
VERTEX
  5
5C9
  8
002
 62
     3
 10
379.127231
 20
192.671948
 30
0.0
  0
VERTEX
  5
5CA
  8
002
 62
     3
 10
379.254761
 20
192.760151
 30
0.0
  0
VERTEX
  5
5CB
  8
002
 62
     3
 10
379.353194
 20
192.816851
 30
0.0
  0
VERTEX
  5
5CC
  8
002
 62
     3
 10
379.45531
 20
192.866525
 30
0.0
  0
VERTEX
  5
5CD
  8
002
 62
     3
 10
379.567975
 20
192.911682
 30
0.0
  0
VERTEX
  5
5CE
  8
002
 62
     3
 10
379.683608
 20
192.94884
 30
0.0
  0
VERTEX
  5
5CF
  8
002
 62
     3
 10
379.803432
 20
192.978468
 30
0.0
  0
VERTEX
  5
5D0
  8
002
 62
     3
 10
379.924987
 20
192.998993
 30
0.0
  0
VERTEX
  5
5D1
  8
002
 62
     3
 10
380.05551
 20
193.010728
 30
0.0
  0
VERTEX
  5
5D2
  8
002
 62
     3
 10
380.186653
 20
193.016651
 30
0.0
  0
SEQEND
  5
5BF
  8
002
 62
     3
  0
POLYLINE
  5
5D3
  8
002
 62
     3
 66
     1
 10
0.0
 20
0.0
 30
0.0
  0
VERTEX
  5
5D5
  8
002
 62
     3
 10
362.386653
 20
235.016651
 30
0.0
  0
VERTEX
  5
5D6
  8
002
 62
     3
 10
362.361995
 20
234.713947
 30
0.0
  0
VERTEX
  5
5D7
  8
002
 62
     3
 10
362.312414
 20
234.416191
 30
0.0
  0
VERTEX
  5
5D8
  8
002
 62
     3
 10
362.254947
 20
234.223152
 30
0.0
  0
VERTEX
  5
5D9
  8
002
 62
     3
 10
362.177983
 20
234.036362
 30
0.0
  0
VERTEX
  5
5DA
  8
002
 62
     3
 10
362.078496
 20
233.849356
 30
0.0
  0
VERTEX
  5
5DB
  8
002
 62
     3
 10
361.959534
 20
233.674545
 30
0.0
  0
VERTEX
  5
5DC
  8
002
 62
     3
 10
361.866682
 20
233.563745
 30
0.0
  0
VERTEX
  5
5DD
  8
002
 62
     3
 10
361.764785
 20
233.461156
 30
0.0
  0
VERTEX
  5
5DE
  8
002
 62
     3
 10
361.646075
 20
233.361353
 30
0.0
  0
VERTEX
  5
5DF
  8
002
 62
     3
 10
361.518544
 20
233.273151
 30
0.0
  0
VERTEX
  5
5E0
  8
002
 62
     3
 10
361.420111
 20
233.216451
 30
0.0
  0
VERTEX
  5
5E1
  8
002
 62
     3
 10
361.317996
 20
233.166777
 30
0.0
  0
VERTEX
  5
5E2
  8
002
 62
     3
 10
361.205331
 20
233.12162
 30
0.0
  0
VERTEX
  5
5E3
  8
002
 62
     3
 10
361.089698
 20
233.084462
 30
0.0
  0
VERTEX
  5
5E4
  8
002
 62
     3
 10
360.969874
 20
233.054834
 30
0.0
  0
VERTEX
  5
5E5
  8
002
 62
     3
 10
360.848319
 20
233.034309
 30
0.0
  0
VERTEX
  5
5E6
  8
002
 62
     3
 10
360.717796
 20
233.022574
 30
0.0
  0
VERTEX
  5
5E7
  8
002
 62
     3
 10
360.586653
 20
233.016651
 30
0.0
  0
SEQEND
  5
5D4
  8
002
 62
     3
  0
POLYLINE
  5
5E8
  8
002
 62
     3
 66
     1
 10
0.0
 20
0.0
 30
0.0
  0
VERTEX
  5
5EA
  8
002
 62
     3
 10
380.186653
 20
233.016651
 30
0.0
  0
VERTEX
  5
5EB
  8
002
 62
     3
 10
380.059771
 20
233.022208
 30
0.0
  0
VERTEX
  5
5EC
  8
002
 62
     3
 10
379.933441
 20
233.033167
 30
0.0
  0
VERTEX
  5
5ED
  8
002
 62
     3
 10
379.807608
 20
233.053964
 30
0.0
  0
VERTEX
  5
5EE
  8
002
 62
     3
 10
379.683608
 20
233.084462
 30
0.0
  0
VERTEX
  5
5EF
  8
002
 62
     3
 10
379.570699
 20
233.120635
 30
0.0
  0
VERTEX
  5
5F0
  8
002
 62
     3
 10
379.460603
 20
233.164434
 30
0.0
  0
VERTEX
  5
5F1
  8
002
 62
     3
 10
379.355754
 20
233.215099
 30
0.0
  0
VERTEX
  5
5F2
  8
002
 62
     3
 10
379.254761
 20
233.273151
 30
0.0
  0
VERTEX
  5
5F3
  8
002
 62
     3
 10
379.130346
 20
233.358973
 30
0.0
  0
VERTEX
  5
5F4
  8
002
 62
     3
 10
379.014293
 20
233.455845
 30
0.0
  0
VERTEX
  5
5F5
  8
002
 62
     3
 10
378.909272
 20
233.560852
 30
0.0
  0
VERTEX
  5
5F6
  8
002
 62
     3
 10
378.813771
 20
233.674545
 30
0.0
  0
VERTEX
  5
5F7
  8
002
 62
     3
 10
378.697492
 20
233.844891
 30
0.0
  0
VERTEX
  5
5F8
  8
002
 62
     3
 10
378.599743
 20
234.026905
 30
0.0
  0
VERTEX
  5
5F9
  8
002
 62
     3
 10
378.520074
 20
234.218224
 30
0.0
  0
VERTEX
  5
5FA
  8
002
 62
     3
 10
378.460892
 20
234.416191
 30
0.0
  0
VERTEX
  5
5FB
  8
002
 62
     3
 10
378.411329
 20
234.713958
 30
0.0
  0
VERTEX
  5
5FC
  8
002
 62
     3
 10
378.386653
 20
235.016651
 30
0.0
  0
SEQEND
  5
5E9
  8
002
 62
     3
  0
LINE
  5
5FD
  8
002
 62
     3
 10
431.386653
 20
193.016651
 30
0.0
 11
431.386653
 21
233.016651
 31
0.0
  0
LINE
  5
5FE
  8
002
 62
     3
 10
359.386653
 20
193.016651
 30
0.0
 11
359.386653
 21
233.016651
 31
0.0
  0
LINE
  5
5FF
  8
002
 62
     3
 10
410.586653
 20
193.016651
 30
0.0
 11
380.186653
 21
193.016651
 31
0.0
  0
LINE
  5
600
  8
002
 62
     3
 10
410.586653
 20
233.016651
 30
0.0
 11
380.186653
 21
233.016651
 31
0.0
  0
LINE
  5
601
  8
002
 62
     3
 10
412.386653
 20
238.516651
 30
0.0
 11
378.386653
 21
238.516651
 31
0.0
  0
LINE
  5
602
  8
002
 62
     3
 10
362.386653
 20
185.516651
 30
0.0
 11
428.386653
 21
185.516651
 31
0.0
  0
ARC
  5
603
  8
002
 62
     3
 10
410.386653
 20
240.516651
 30
0.0
 40
2.0
 50
270.0
 51
0.0
  0
ARC
  5
604
  8
002
 62
     3
 10
380.386653
 20
240.516651
 30
0.0
 40
2.0
 50
180.0
 51
270.0
  0
LINE
  5
605
  8
002
 62
     3
 10
428.386653
 20
240.516651
 30
0.0
 11
362.386653
 21
240.516651
 31
0.0
  0
LINE
  5
606
  8
002
 62
     3
 10
431.386653
 20
233.016651
 30
0.0
 11
430.186653
 21
233.016651
 31
0.0
  0
LINE
  5
607
  8
002
 62
     3
 10
431.386653
 20
193.016651
 30
0.0
 11
430.186653
 21
193.016651
 31
0.0
  0
LINE
  5
608
  8
002
 62
     3
 10
359.386653
 20
193.016651
 30
0.0
 11
360.586653
 21
193.016651
 31
0.0
  0
LINE
  5
609
  8
002
 62
     3
 10
359.386653
 20
233.016651
 30
0.0
 11
360.586653
 21
233.016651
 31
0.0
  0
LINE
  5
60A
  8
002
 62
     3
 10
665.791375
 20
240.516651
 30
0.0
 11
665.791375
 21
185.516651
 31
0.0
  0
LINE
  5
60B
  8
002
 62
     3
 10
649.791375
 20
240.516651
 30
0.0
 11
665.791375
 21
240.516651
 31
0.0
  0
LINE
  5
60C
  8
002
 62
     3
 10
649.791375
 20
185.516651
 30
0.0
 11
665.791375
 21
185.516651
 31
0.0
  0
LINE
  5
60D
  8
002
 62
     3
 10
590.791375
 20
240.516651
 30
0.0
 11
590.791375
 21
185.516651
 31
0.0
  0
LINE
  5
60E
  8
002
 62
     3
 10
653.791375
 20
193.016651
 30
0.0
 11
617.791375
 21
193.016651
 31
0.0
  0
LINE
  5
60F
  8
002
 62
     3
 10
649.791375
 20
191.016651
 30
0.0
 11
649.791375
 21
185.516651
 31
0.0
  0
LINE
  5
610
  8
002
 62
     3
 10
615.791375
 20
231.016651
 30
0.0
 11
615.791375
 21
195.016651
 31
0.0
  0
LINE
  5
611
  8
002
 62
     3
 10
653.791375
 20
233.016651
 30
0.0
 11
617.791375
 21
233.016651
 31
0.0
  0
LINE
  5
612
  8
002
 62
     3
 10
655.791375
 20
195.016651
 30
0.0
 11
655.791375
 21
231.016651
 31
0.0
  0
LINE
  5
613
  8
002
 62
     3
 10
649.791375
 20
235.016651
 30
0.0
 11
649.791375
 21
240.516651
 31
0.0
  0
LINE
  5
614
  8
002
 62
     3
 10
592.791375
 20
238.516651
 30
0.0
 11
637.791375
 21
238.516651
 31
0.0
  0
LINE
  5
615
  8
002
 62
     3
 10
637.791375
 20
235.016651
 30
0.0
 11
637.791375
 21
238.516651
 31
0.0
  0
ARC
  5
616
  8
002
 62
     3
 10
634.791375
 20
191.016651
 30
0.0
 40
2.0
 50
90.0
 51
180.0
  0
ARC
  5
617
  8
002
 62
     3
 10
639.791375
 20
235.016651
 30
0.0
 40
2.0
 50
180.0
 51
270.0
  0
LINE
  5
618
  8
002
 62
     3
 10
632.791375
 20
191.016651
 30
0.0
 11
632.791375
 21
185.516651
 31
0.0
  0
ARC
  5
619
  8
002
 62
     3
 10
647.791375
 20
235.016651
 30
0.0
 40
2.0
 50
270.0
 51
0.0
  0
ARC
  5
61A
  8
002
 62
     3
 10
647.791375
 20
191.016651
 30
0.0
 40
2.0
 50
0.0
 51
90.0
  0
ARC
  5
61B
  8
002
 62
     3
 10
592.791375
 20
240.516651
 30
0.0
 40
2.0
 50
180.0
 51
270.0
  0
LINE
  5
61C
  8
002
  6
CENTER
 62
    40
 10
635.791375
 20
234.884586
 30
0.0
 11
635.791375
 21
191.042343
 31
0.0
  0
ARC
  5
61D
  8
002
 62
     3
 10
617.791375
 20
195.016651
 30
0.0
 40
2.0
 50
180.0
 51
270.0
  0
ARC
  5
61E
  8
002
 62
     3
 10
617.791375
 20
231.016651
 30
0.0
 40
2.0
 50
90.0
 51
180.0
  0
ARC
  5
61F
  8
002
 62
     3
 10
653.791375
 20
231.016651
 30
0.0
 40
2.0
 50
0.0
 51
90.0
  0
ARC
  5
620
  8
002
 62
     3
 10
653.791375
 20
195.016651
 30
0.0
 40
2.0
 50
270.0
 51
0.0
  0
LINE
  5
621
  8
002
 62
     3
 10
574.791375
 20
240.516651
 30
0.0
 11
574.791375
 21
185.516651
 31
0.0
  0
LINE
  5
622
  8
002
 62
     3
 10
634.291375
 20
199.119351
 30
0.0
 11
634.291375
 21
200.916651
 31
0.0
  0
ARC
  5
623
  8
002
 62
     3
 10
639.291375
 20
200.916651
 30
0.0
 40
1.999987664961913
 50
45.149904
 51
180.0
  0
ARC
  5
624
  8
002
 62
     3
 10
642.112375
 20
203.752451
 30
0.0
 40
1.999987664962033
 50
225.149904
 51
306.869898
  0
CIRCLE
  5
625
  8
002
 62
     3
 10
639.291375
 20
200.916651
 30
0.0
 40
1.0
  0
LINE
  5
626
  8
002
 62
     3
 10
637.291375
 20
200.916651
 30
0.0
 11
637.291375
 21
199.119351
 31
0.0
  0
CIRCLE
  5
627
  8
002
 62
     3
 10
632.291375
 20
200.916651
 30
0.0
 40
1.0
  0
ARC
  5
628
  8
002
 62
     3
 10
629.470475
 20
203.752451
 30
0.0
 40
1.999999999999977
 50
233.130102
 51
314.848065
  0
ARC
  5
629
  8
002
 62
     3
 10
635.791375
 20
212.181151
 30
0.0
 40
12.53556000703597
 50
306.867978
 51
233.132388
  0
ARC
  5
62A
  8
002
 62
     3
 10
632.291375
 20
200.916651
 30
0.0
 40
2.0
 50
0.0
 51
134.850096
  0
CIRCLE
  5
62B
  8
002
 62
     3
 10
635.791375
 20
213.016651
 30
0.0
 40
6.0
  0
LINE
  5
62C
  8
002
 62
     3
 10
632.474775
 20
218.016651
 30
0.0
 11
639.108075
 21
218.016651
 31
0.0
  0
CIRCLE
  5
62D
  8
002
 62
     3
 10
635.791375
 20
213.016651
 30
0.0
 40
14.0
  0
LINE
  5
62E
  8
002
  6
CENTER
 62
    40
 10
582.791275
 20
242.51976
 30
0.0
 11
582.791275
 21
180.956051
 31
0.0
  0
LINE
  5
62F
  8
002
  6
CENTER
 62
    40
 10
657.791375
 20
179.458951
 30
0.0
 11
657.791375
 21
242.51976
 31
0.0
  0
LINE
  5
630
  8
002
 62
     3
 10
574.791375
 20
240.516651
 30
0.0
 11
633.791375
 21
240.516651
 31
0.0
  0
LINE
  5
631
  8
002
 62
     3
 10
574.791375
 20
185.516651
 30
0.0
 11
632.791375
 21
185.516651
 31
0.0
  0
LINE
  5
632
  8
002
 62
    40
 10
632.708875
 20
240.516651
 30
0.0
 11
632.708875
 21
238.516651
 31
0.0
  0
LINE
  5
633
  8
002
 62
     3
 10
633.791375
 20
238.516651
 30
0.0
 11
633.791375
 21
240.516651
 31
0.0
  0
LINE
  5
634
  8
002
 62
     3
 10
1108.886782
 20
535.631462
 30
0.0
 11
1108.886782
 21
536.631462
 31
0.0
  0
LINE
  5
635
  8
002
 62
     3
 10
1108.886782
 20
465.631462
 30
0.0
 11
1108.886782
 21
464.631462
 31
0.0
  0
ARC
  5
636
  8
002
 62
     3
 10
1062.886782
 20
536.575864
 30
0.0
 40
6.0
 50
266.815261
 51
0.530934
  0
LINE
  5
637
  8
002
 62
     3
 10
1082.886782
 20
464.631462
 30
0.0
 11
1082.886782
 21
441.631462
 31
0.0
  0
LINE
  5
638
  8
002
 62
     3
 10
1082.886782
 20
441.631462
 30
0.0
 11
1083.886782
 21
440.631462
 31
0.0
  0
LINE
  5
639
  8
002
 62
     3
 10
1083.886782
 20
440.631462
 30
0.0
 11
1093.886782
 21
440.631462
 31
0.0
  0
LINE
  5
63A
  8
002
 62
     3
 10
1093.886782
 20
440.631462
 30
0.0
 11
1094.886782
 21
441.631462
 31
0.0
  0
LINE
  5
63B
  8
002
 62
     3
 10
1094.886782
 20
441.631462
 30
0.0
 11
1094.886782
 21
464.631462
 31
0.0
  0
ARC
  5
63C
  8
002
 62
     3
 10
1088.886782
 20
451.197462
 30
0.0
 40
10.00000957799538
 50
70.629917
 51
109.369542
  0
LINE
  5
63D
  8
002
 62
     3
 10
1085.570182
 20
460.631462
 30
0.0
 11
1085.570182
 21
440.631462
 31
0.0
  0
LINE
  5
63E
  8
002
 62
     3
 10
1085.570182
 20
441.631462
 30
0.0
 11
1082.886782
 21
441.631462
 31
0.0
  0
LINE
  5
63F
  8
002
 62
     3
 10
1092.203482
 20
441.631462
 30
0.0
 11
1094.886782
 21
441.631462
 31
0.0
  0
LINE
  5
640
  8
002
 62
     3
 10
1092.203482
 20
440.631462
 30
0.0
 11
1092.203482
 21
460.631462
 31
0.0
  0
LINE
  5
641
  8
002
 62
     3
 10
1082.886782
 20
536.631462
 30
0.0
 11
1082.886782
 21
559.631462
 31
0.0
  0
LINE
  5
642
  8
002
 62
     3
 10
1082.886782
 20
559.631462
 30
0.0
 11
1083.886782
 21
560.631462
 31
0.0
  0
LINE
  5
643
  8
002
 62
     3
 10
1083.886782
 20
560.631462
 30
0.0
 11
1093.886782
 21
560.631462
 31
0.0
  0
LINE
  5
644
  8
002
 62
     3
 10
1093.886782
 20
560.631462
 30
0.0
 11
1094.886782
 21
559.631462
 31
0.0
  0
LINE
  5
645
  8
002
 62
     3
 10
1094.886782
 20
559.631462
 30
0.0
 11
1094.886782
 21
536.631462
 31
0.0
  0
ARC
  5
646
  8
002
 62
     3
 10
1088.886782
 20
550.065462
 30
0.0
 40
10.00000957799538
 50
250.630458
 51
289.370083
  0
LINE
  5
647
  8
002
 62
     3
 10
1085.570182
 20
540.631462
 30
0.0
 11
1085.570182
 21
560.631462
 31
0.0
  0
LINE
  5
648
  8
002
 62
     3
 10
1085.570182
 20
559.631462
 30
0.0
 11
1082.886782
 21
559.631462
 31
0.0
  0
LINE
  5
649
  8
002
 62
     3
 10
1092.203482
 20
559.631462
 30
0.0
 11
1094.886782
 21
559.631462
 31
0.0
  0
LINE
  5
64A
  8
002
 62
     3
 10
1092.203482
 20
560.631462
 30
0.0
 11
1092.203482
 21
540.631462
 31
0.0
  0
LINE
  5
64B
  8
002
  6
CENTER
 62
    40
 10
1088.886782
 20
565.42751
 30
0.0
 11
1088.886782
 21
436.328358
 31
0.0
  0
LINE
  5
64C
  8
001
 62
     3
 10
1102.773532
 20
500.631462
 30
0.0
 11
1101.330156
 21
498.131462
 31
0.0
  0
LINE
  5
64D
  8
001
 62
     3
 10
1101.330156
 20
503.131462
 30
0.0
 11
1098.443408
 21
503.131462
 31
0.0
  0
LINE
  5
64E
  8
001
 62
     3
 10
1097.000032
 20
500.631462
 30
0.0
 11
1098.443408
 21
503.131462
 31
0.0
  0
LINE
  5
64F
  8
001
 62
     3
 10
1098.443408
 20
498.131462
 30
0.0
 11
1097.000032
 21
500.631462
 31
0.0
  0
LINE
  5
650
  8
001
 62
     3
 10
1101.330156
 20
498.131462
 30
0.0
 11
1098.443408
 21
498.131462
 31
0.0
  0
CIRCLE
  5
651
  8
001
 62
    40
 10
1099.886782
 20
500.631462
 30
0.0
 40
4.573499999999999
  0
CIRCLE
  5
652
  8
001
 62
     3
 10
1099.886782
 20
500.631462
 30
0.0
 40
4.863999999999999
  0
LINE
  5
653
  8
001
 62
     3
 10
1102.773037
 20
500.63232
 30
0.0
 11
1101.330156
 21
503.131462
 31
0.0
  0
LINE
  5
654
  8
002
  6
CENTER
 62
    40
 10
1060.886782
 20
464.631462
 30
0.0
 11
1060.886782
 21
536.631462
 31
0.0
  0
LINE
  5
655
  8
002
 62
     3
 10
1068.886782
 20
464.687061
 30
0.0
 11
1068.886782
 21
464.631462
 31
0.0
  0
CIRCLE
  5
656
  8
002
 62
     3
 10
1110.886782
 20
525.631462
 30
0.0
 40
8.0
  0
CIRCLE
  5
657
  8
002
 62
     3
 10
1110.886782
 20
475.631462
 30
0.0
 40
8.0
  0
LINE
  5
658
  8
002
 62
     3
 10
1108.886782
 20
515.631462
 30
0.0
 11
1108.886782
 21
485.631462
 31
0.0
  0
LINE
  5
659
  8
002
 62
     3
 10
1108.886782
 20
536.631462
 30
0.0
 11
1068.886782
 21
536.631462
 31
0.0
  0
LINE
  5
65A
  8
002
 62
     3
 10
1108.886782
 20
464.631462
 30
0.0
 11
1068.886782
 21
464.631462
 31
0.0
  0
ARC
  5
65B
  8
002
 62
     3
 10
1062.886782
 20
464.687061
 30
0.0
 40
6.0
 50
0.0
 51
93.184739
  0
ARC
  5
65C
  8
002
 62
     3
 10
1047.171975
 20
533.916655
 30
0.0
 40
6.0
 50
216.28481
 51
292.393585
  0
ARC
  5
65D
  8
002
 62
     3
 10
1047.171975
 20
467.346269
 30
0.0
 40
6.0
 50
67.606415
 51
143.71519
  0
ARC
  5
65E
  8
002
 62
     3
 10
1027.601589
 20
514.346269
 30
0.0
 40
6.0
 50
337.606415
 51
53.71519
  0
ARC
  5
65F
  8
002
 62
     3
 10
1060.886782
 20
500.631462
 30
0.0
 40
29.99999999999999
 50
157.606415
 51
202.393585
  0
ARC
  5
660
  8
002
 62
     3
 10
1027.601589
 20
486.916655
 30
0.0
 40
6.0
 50
306.28481
 51
22.393585
  0
ARC
  5
661
  8
002
 62
     3
 10
1110.886782
 20
535.631462
 30
0.0
 40
2.0
 50
180.0
 51
270.0
  0
ARC
  5
662
  8
002
 62
     3
 10
1110.886782
 20
465.631462
 30
0.0
 40
2.0
 50
90.0
 51
180.0
  0
ARC
  5
663
  8
002
 62
     3
 10
1110.886782
 20
485.631462
 30
0.0
 40
2.0
 50
180.0
 51
270.0
  0
ARC
  5
664
  8
002
 62
     3
 10
1110.886782
 20
515.631462
 30
0.0
 40
2.0
 50
90.0
 51
180.0
  0
LINE
  5
665
  8
002
  6
CENTER
 62
    40
 10
1035.886782
 20
465.631462
 30
0.0
 11
1035.886782
 21
485.631462
 31
0.0
  0
LINE
  5
666
  8
002
  6
CENTER
 62
    40
 10
1045.886782
 20
475.631462
 30
0.0
 11
1025.886782
 21
475.631462
 31
0.0
  0
LINE
  5
667
  8
002
  6
CENTER
 62
    40
 10
1035.886782
 20
515.631462
 30
0.0
 11
1035.886782
 21
535.631462
 31
0.0
  0
LINE
  5
668
  8
002
  6
CENTER
 62
    40
 10
1045.886782
 20
525.631462
 30
0.0
 11
1025.886782
 21
525.631462
 31
0.0
  0
LINE
  5
669
  8
002
  6
CENTER
 62
    40
 10
1110.886782
 20
515.631462
 30
0.0
 11
1110.886782
 21
535.631462
 31
0.0
  0
LINE
  5
66A
  8
002
  6
CENTER
 62
    40
 10
1110.886782
 20
465.631462
 30
0.0
 11
1110.886782
 21
485.631462
 31
0.0
  0
LINE
  5
66B
  8
002
  6
CENTER
 62
    40
 10
1120.886782
 20
475.631462
 30
0.0
 11
1100.886782
 21
475.631462
 31
0.0
  0
ARC
  5
66C
  8
002
 62
     3
 10
1060.886782
 20
500.631462
 30
0.0
 40
30.0
 50
247.606415
 51
273.184739
  0
ARC
  5
66D
  8
002
 62
     3
 10
1060.886782
 20
500.631462
 30
0.0
 40
30.0
 50
86.815261
 51
112.393585
  0
LINE
  5
66E
  8
002
  6
CENTER
 62
    40
 10
1120.886782
 20
525.631462
 30
0.0
 11
1100.886782
 21
525.631462
 31
0.0
  0
ARC
  5
66F
  8
002
 62
     3
 10
1045.478483
 20
522.803163
 30
0.0
 40
2.0
 50
163.570824
 51
304.797501
  0
ARC
  5
670
  8
002
 62
     3
 10
1035.886782
 20
525.631462
 30
0.0
 40
8.0
 50
343.570824
 51
286.429176
  0
ARC
  5
671
  8
002
 62
     3
 10
1038.715081
 20
516.039761
 30
0.0
 40
2.0
 50
325.202499
 51
106.429176
  0
ARC
  5
672
  8
002
 62
     3
 10
1038.715081
 20
485.223163
 30
0.0
 40
2.0
 50
253.570824
 51
34.797501
  0
ARC
  5
673
  8
002
 62
     3
 10
1035.886782
 20
475.631462
 30
0.0
 40
8.0
 50
73.570824
 51
16.429176
  0
ARC
  5
674
  8
002
 62
     3
 10
1045.478483
 20
478.459761
 30
0.0
 40
2.0
 50
55.202499
 51
196.429176
  0
LINE
  5
675
  8
002
  6
CENTER
 62
    40
 10
1120.041758
 20
500.631462
 30
0.0
 11
1025.087589
 21
500.631462
 31
0.0
  0
LINE
  5
676
  8
002
 62
     3
 10
901.634782
 20
207.016651
 30
0.0
 11
878.634742
 21
207.016651
 31
0.0
  0
LINE
  5
677
  8
002
 62
     3
 10
878.634742
 20
207.016651
 30
0.0
 11
877.634742
 21
208.016651
 31
0.0
  0
LINE
  5
678
  8
002
 62
     3
 10
877.634742
 20
208.016651
 30
0.0
 11
877.634742
 21
218.016651
 31
0.0
  0
LINE
  5
679
  8
002
 62
     3
 10
877.634742
 20
218.016651
 30
0.0
 11
897.634782
 21
218.016651
 31
0.0
  0
LINE
  5
67A
  8
002
 62
     3
 10
897.634782
 20
218.016651
 30
0.0
 11
897.634782
 21
219.016651
 31
0.0
  0
LINE
  5
67B
  8
002
 62
     3
 10
897.634782
 20
219.016651
 30
0.0
 11
901.634782
 21
219.016651
 31
0.0
  0
LINE
  5
67C
  8
002
 62
     3
 10
878.634742
 20
218.016651
 30
0.0
 11
878.634742
 21
207.016651
 31
0.0
  0
LINE
  5
67D
  8
002
 62
     3
 10
973.634782
 20
219.016651
 30
0.0
 11
977.634782
 21
219.016651
 31
0.0
  0
LINE
  5
67E
  8
002
 62
     3
 10
977.634782
 20
219.016651
 30
0.0
 11
977.634782
 21
218.016651
 31
0.0
  0
LINE
  5
67F
  8
002
 62
     3
 10
977.634782
 20
218.016651
 30
0.0
 11
997.634782
 21
218.016651
 31
0.0
  0
LINE
  5
680
  8
002
 62
     3
 10
997.634782
 20
218.016651
 30
0.0
 11
997.634782
 21
208.016651
 31
0.0
  0
LINE
  5
681
  8
002
 62
     3
 10
997.634782
 20
208.016651
 30
0.0
 11
996.634782
 21
207.016651
 31
0.0
  0
LINE
  5
682
  8
002
 62
     3
 10
996.634782
 20
207.016651
 30
0.0
 11
973.634782
 21
207.016651
 31
0.0
  0
LINE
  5
683
  8
002
 62
     3
 10
996.634782
 20
207.016651
 30
0.0
 11
996.634782
 21
218.016651
 31
0.0
  0
LINE
  5
684
  8
002
 62
     3
 10
970.634782
 20
240.516651
 30
0.0
 11
970.634782
 21
185.516651
 31
0.0
  0
LINE
  5
685
  8
002
 62
     3
 10
954.634782
 20
233.016651
 30
0.0
 11
954.634782
 21
240.516651
 31
0.0
  0
LINE
  5
686
  8
002
 62
     3
 10
956.1861
 20
233.016651
 30
0.0
 11
956.1861
 21
185.516651
 31
0.0
  0
LINE
  5
687
  8
002
 62
     3
 10
920.634782
 20
240.516651
 30
0.0
 11
920.634782
 21
233.016651
 31
0.0
  0
LINE
  5
688
  8
002
 62
     3
 10
904.634782
 20
185.516651
 30
0.0
 11
904.634782
 21
240.516651
 31
0.0
  0
LINE
  5
689
  8
002
 62
     3
 10
919.083463
 20
233.016651
 30
0.0
 11
919.083463
 21
185.516651
 31
0.0
  0
ARC
  5
68A
  8
002
 62
     3
 10
922.634782
 20
185.516651
 30
0.0
 40
2.0
 50
90.0
 51
180.0
  0
POLYLINE
  5
68B
  8
002
 62
     3
 66
     1
 10
0.0
 20
0.0
 30
0.0
  0
VERTEX
  5
68D
  8
002
 62
     3
 10
922.316345
 20
187.516651
 30
0.0
  0
VERTEX
  5
68E
  8
002
 62
     3
 10
922.077249
 20
187.501023
 30
0.0
  0
VERTEX
  5
68F
  8
002
 62
     3
 10
921.840112
 20
187.472305
 30
0.0
  0
VERTEX
  5
690
  8
002
 62
     3
 10
921.60515
 20
187.42008
 30
0.0
  0
VERTEX
  5
691
  8
002
 62
     3
 10
921.375153
 20
187.346958
 30
0.0
  0
VERTEX
  5
692
  8
002
 62
     3
 10
921.078318
 20
187.225103
 30
0.0
  0
VERTEX
  5
693
  8
002
 62
     3
 10
920.793295
 20
187.078423
 30
0.0
  0
VERTEX
  5
694
  8
002
 62
     3
 10
920.52311
 20
186.910786
 30
0.0
  0
VERTEX
  5
695
  8
002
 62
     3
 10
920.265088
 20
186.724564
 30
0.0
  0
VERTEX
  5
696
  8
002
 62
     3
 10
919.935985
 20
186.449725
 30
0.0
  0
VERTEX
  5
697
  8
002
 62
     3
 10
919.629248
 20
186.150534
 30
0.0
  0
VERTEX
  5
698
  8
002
 62
     3
 10
919.350654
 20
185.838757
 30
0.0
  0
VERTEX
  5
699
  8
002
 62
     3
 10
919.083463
 20
185.516651
 30
0.0
  0
SEQEND
  5
68C
  8
002
 62
     3
  0
POLYLINE
  5
69A
  8
002
 62
     3
 66
     1
 10
0.0
 20
0.0
 30
0.0
  0
VERTEX
  5
69C
  8
002
 62
     3
 10
956.1861
 20
185.516651
 30
0.0
  0
VERTEX
  5
69D
  8
002
 62
     3
 10
955.921452
 20
185.836465
 30
0.0
  0
VERTEX
  5
69E
  8
002
 62
     3
 10
955.64543
 20
186.145983
 30
0.0
  0
VERTEX
  5
69F
  8
002
 62
     3
 10
955.336307
 20
186.447624
 30
0.0
  0
VERTEX
  5
6A0
  8
002
 62
     3
 10
955.004476
 20
186.724564
 30
0.0
  0
VERTEX
  5
6A1
  8
002
 62
     3
 10
954.749623
 20
186.90869
 30
0.0
  0
VERTEX
  5
6A2
  8
002
 62
     3
 10
954.482935
 20
187.074762
 30
0.0
  0
VERTEX
  5
6A3
  8
002
 62
     3
 10
954.194743
 20
187.223606
 30
0.0
  0
VERTEX
  5
6A4
  8
002
 62
     3
 10
953.894411
 20
187.346958
 30
0.0
  0
VERTEX
  5
6A5
  8
002
 62
     3
 10
953.667975
 20
187.418946
 30
0.0
  0
VERTEX
  5
6A6
  8
002
 62
     3
 10
953.436719
 20
187.470718
 30
0.0
  0
VERTEX
  5
6A7
  8
002
 62
     3
 10
953.195986
 20
187.500392
 30
0.0
  0
VERTEX
  5
6A8
  8
002
 62
     3
 10
952.953219
 20
187.516651
 30
0.0
  0
SEQEND
  5
69B
  8
002
 62
     3
  0
ARC
  5
6A9
  8
002
 62
     3
 10
952.634782
 20
185.516651
 30
0.0
 40
2.0
 50
0.0
 51
90.0
  0
LINE
  5
6AA
  8
002
 62
     3
 10
922.316345
 20
187.516651
 30
0.0
 11
952.953219
 21
187.516651
 31
0.0
  0
LINE
  5
6AB
  8
002
 62
     3
 10
919.083463
 20
233.016651
 30
0.0
 11
956.1861
 21
233.016651
 31
0.0
  0
LINE
  5
6AC
  8
002
 62
     3
 10
970.634782
 20
240.516651
 30
0.0
 11
904.634782
 21
240.516651
 31
0.0
  0
LINE
  5
6AD
  8
002
 62
     3
 10
901.634782
 20
193.016651
 30
0.0
 11
901.634782
 21
233.016651
 31
0.0
  0
LINE
  5
6AE
  8
002
 62
     3
 10
973.634782
 20
193.016651
 30
0.0
 11
973.634782
 21
233.016651
 31
0.0
  0
POLYLINE
  5
6AF
  8
002
 62
     3
 66
     1
 10
0.0
 20
0.0
 30
0.0
  0
VERTEX
  5
6B1
  8
002
 62
     3
 10
970.634782
 20
191.016651
 30
0.0
  0
VERTEX
  5
6B2
  8
002
 62
     3
 10
970.65944
 20
191.319355
 30
0.0
  0
VERTEX
  5
6B3
  8
002
 62
     3
 10
970.709021
 20
191.617111
 30
0.0
  0
VERTEX
  5
6B4
  8
002
 62
     3
 10
970.766487
 20
191.81015
 30
0.0
  0
VERTEX
  5
6B5
  8
002
 62
     3
 10
970.843451
 20
191.99694
 30
0.0
  0
VERTEX
  5
6B6
  8
002
 62
     3
 10
970.942939
 20
192.183945
 30
0.0
  0
VERTEX
  5
6B7
  8
002
 62
     3
 10
971.0619
 20
192.358757
 30
0.0
  0
VERTEX
  5
6B8
  8
002
 62
     3
 10
971.154753
 20
192.469557
 30
0.0
  0
VERTEX
  5
6B9
  8
002
 62
     3
 10
971.25665
 20
192.572146
 30
0.0
  0
VERTEX
  5
6BA
  8
002
 62
     3
 10
971.37536
 20
192.671948
 30
0.0
  0
VERTEX
  5
6BB
  8
002
 62
     3
 10
971.50289
 20
192.760151
 30
0.0
  0
VERTEX
  5
6BC
  8
002
 62
     3
 10
971.601323
 20
192.816851
 30
0.0
  0
VERTEX
  5
6BD
  8
002
 62
     3
 10
971.703439
 20
192.866525
 30
0.0
  0
VERTEX
  5
6BE
  8
002
 62
     3
 10
971.816104
 20
192.911682
 30
0.0
  0
VERTEX
  5
6BF
  8
002
 62
     3
 10
971.931737
 20
192.94884
 30
0.0
  0
VERTEX
  5
6C0
  8
002
 62
     3
 10
972.051561
 20
192.978468
 30
0.0
  0
VERTEX
  5
6C1
  8
002
 62
     3
 10
972.173116
 20
192.998993
 30
0.0
  0
VERTEX
  5
6C2
  8
002
 62
     3
 10
972.303639
 20
193.010728
 30
0.0
  0
VERTEX
  5
6C3
  8
002
 62
     3
 10
972.434782
 20
193.016651
 30
0.0
  0
SEQEND
  5
6B0
  8
002
 62
     3
  0
POLYLINE
  5
6C4
  8
002
 62
     3
 66
     1
 10
0.0
 20
0.0
 30
0.0
  0
VERTEX
  5
6C6
  8
002
 62
     3
 10
972.434782
 20
233.016651
 30
0.0
  0
VERTEX
  5
6C7
  8
002
 62
     3
 10
972.3079
 20
233.022208
 30
0.0
  0
VERTEX
  5
6C8
  8
002
 62
     3
 10
972.18157
 20
233.033167
 30
0.0
  0
VERTEX
  5
6C9
  8
002
 62
     3
 10
972.055737
 20
233.053964
 30
0.0
  0
VERTEX
  5
6CA
  8
002
 62
     3
 10
971.931737
 20
233.084462
 30
0.0
  0
VERTEX
  5
6CB
  8
002
 62
     3
 10
971.818828
 20
233.120635
 30
0.0
  0
VERTEX
  5
6CC
  8
002
 62
     3
 10
971.708732
 20
233.164434
 30
0.0
  0
VERTEX
  5
6CD
  8
002
 62
     3
 10
971.603883
 20
233.215099
 30
0.0
  0
VERTEX
  5
6CE
  8
002
 62
     3
 10
971.50289
 20
233.273151
 30
0.0
  0
VERTEX
  5
6CF
  8
002
 62
     3
 10
971.378475
 20
233.358973
 30
0.0
  0
VERTEX
  5
6D0
  8
002
 62
     3
 10
971.262422
 20
233.455845
 30
0.0
  0
VERTEX
  5
6D1
  8
002
 62
     3
 10
971.157401
 20
233.560852
 30
0.0
  0
VERTEX
  5
6D2
  8
002
 62
     3
 10
971.0619
 20
233.674545
 30
0.0
  0
VERTEX
  5
6D3
  8
002
 62
     3
 10
970.945621
 20
233.844891
 30
0.0
  0
VERTEX
  5
6D4
  8
002
 62
     3
 10
970.847871
 20
234.026905
 30
0.0
  0
VERTEX
  5
6D5
  8
002
 62
     3
 10
970.768203
 20
234.218224
 30
0.0
  0
VERTEX
  5
6D6
  8
002
 62
     3
 10
970.709021
 20
234.416191
 30
0.0
  0
VERTEX
  5
6D7
  8
002
 62
     3
 10
970.659457
 20
234.713958
 30
0.0
  0
VERTEX
  5
6D8
  8
002
 62
     3
 10
970.634782
 20
235.016651
 30
0.0
  0
SEQEND
  5
6C5
  8
002
 62
     3
  0
POLYLINE
  5
6D9
  8
002
 62
     3
 66
     1
 10
0.0
 20
0.0
 30
0.0
  0
VERTEX
  5
6DB
  8
002
 62
     3
 10
904.634782
 20
235.016651
 30
0.0
  0
VERTEX
  5
6DC
  8
002
 62
     3
 10
904.610124
 20
234.713947
 30
0.0
  0
VERTEX
  5
6DD
  8
002
 62
     3
 10
904.560543
 20
234.416191
 30
0.0
  0
VERTEX
  5
6DE
  8
002
 62
     3
 10
904.503076
 20
234.223152
 30
0.0
  0
VERTEX
  5
6DF
  8
002
 62
     3
 10
904.426112
 20
234.036362
 30
0.0
  0
VERTEX
  5
6E0
  8
002
 62
     3
 10
904.326625
 20
233.849356
 30
0.0
  0
VERTEX
  5
6E1
  8
002
 62
     3
 10
904.207663
 20
233.674545
 30
0.0
  0
VERTEX
  5
6E2
  8
002
 62
     3
 10
904.114811
 20
233.563745
 30
0.0
  0
VERTEX
  5
6E3
  8
002
 62
     3
 10
904.012914
 20
233.461156
 30
0.0
  0
VERTEX
  5
6E4
  8
002
 62
     3
 10
903.894204
 20
233.361353
 30
0.0
  0
VERTEX
  5
6E5
  8
002
 62
     3
 10
903.766673
 20
233.273151
 30
0.0
  0
VERTEX
  5
6E6
  8
002
 62
     3
 10
903.66824
 20
233.216451
 30
0.0
  0
VERTEX
  5
6E7
  8
002
 62
     3
 10
903.566125
 20
233.166777
 30
0.0
  0
VERTEX
  5
6E8
  8
002
 62
     3
 10
903.45346
 20
233.12162
 30
0.0
  0
VERTEX
  5
6E9
  8
002
 62
     3
 10
903.337827
 20
233.084462
 30
0.0
  0
VERTEX
  5
6EA
  8
002
 62
     3
 10
903.218003
 20
233.054834
 30
0.0
  0
VERTEX
  5
6EB
  8
002
 62
     3
 10
903.096447
 20
233.034309
 30
0.0
  0
VERTEX
  5
6EC
  8
002
 62
     3
 10
902.965925
 20
233.022574
 30
0.0
  0
VERTEX
  5
6ED
  8
002
 62
     3
 10
902.834782
 20
233.016651
 30
0.0
  0
SEQEND
  5
6DA
  8
002
 62
     3
  0
POLYLINE
  5
6EE
  8
002
 62
     3
 66
     1
 10
0.0
 20
0.0
 30
0.0
  0
VERTEX
  5
6F0
  8
002
 62
     3
 10
902.834782
 20
193.016651
 30
0.0
  0
VERTEX
  5
6F1
  8
002
 62
     3
 10
902.961664
 20
193.011094
 30
0.0
  0
VERTEX
  5
6F2
  8
002
 62
     3
 10
903.087993
 20
193.000135
 30
0.0
  0
VERTEX
  5
6F3
  8
002
 62
     3
 10
903.213826
 20
192.979338
 30
0.0
  0
VERTEX
  5
6F4
  8
002
 62
     3
 10
903.337827
 20
192.94884
 30
0.0
  0
VERTEX
  5
6F5
  8
002
 62
     3
 10
903.450736
 20
192.912667
 30
0.0
  0
VERTEX
  5
6F6
  8
002
 62
     3
 10
903.560832
 20
192.868868
 30
0.0
  0
VERTEX
  5
6F7
  8
002
 62
     3
 10
903.665681
 20
192.818203
 30
0.0
  0
VERTEX
  5
6F8
  8
002
 62
     3
 10
903.766673
 20
192.760151
 30
0.0
  0
VERTEX
  5
6F9
  8
002
 62
     3
 10
903.891088
 20
192.674329
 30
0.0
  0
VERTEX
  5
6FA
  8
002
 62
     3
 10
904.007142
 20
192.577457
 30
0.0
  0
VERTEX
  5
6FB
  8
002
 62
     3
 10
904.112162
 20
192.47245
 30
0.0
  0
VERTEX
  5
6FC
  8
002
 62
     3
 10
904.207663
 20
192.358757
 30
0.0
  0
VERTEX
  5
6FD
  8
002
 62
     3
 10
904.323943
 20
192.188411
 30
0.0
  0
VERTEX
  5
6FE
  8
002
 62
     3
 10
904.421692
 20
192.006397
 30
0.0
  0
VERTEX
  5
6FF
  8
002
 62
     3
 10
904.501361
 20
191.815077
 30
0.0
  0
VERTEX
  5
700
  8
002
 62
     3
 10
904.560543
 20
191.617111
 30
0.0
  0
VERTEX
  5
701
  8
002
 62
     3
 10
904.610106
 20
191.319344
 30
0.0
  0
VERTEX
  5
702
  8
002
 62
     3
 10
904.634782
 20
191.016651
 30
0.0
  0
SEQEND
  5
6EF
  8
002
 62
     3
  0
LINE
  5
703
  8
002
 62
     3
 10
904.634782
 20
185.516651
 30
0.0
 11
970.634782
 21
185.516651
 31
0.0
  0
LINE
  5
704
  8
002
 62
     3
 10
901.634782
 20
193.016651
 30
0.0
 11
902.834782
 21
193.016651
 31
0.0
  0
LINE
  5
705
  8
002
 62
     3
 10
901.634782
 20
233.016651
 30
0.0
 11
902.834782
 21
233.016651
 31
0.0
  0
LINE
  5
706
  8
002
 62
     3
 10
973.634782
 20
193.016651
 30
0.0
 11
972.434782
 21
193.016651
 31
0.0
  0
LINE
  5
707
  8
002
 62
     3
 10
973.634782
 20
233.016651
 30
0.0
 11
972.434782
 21
233.016651
 31
0.0
  0
LINE
  5
708
  8
002
 62
     3
 10
1118.886782
 20
185.516651
 30
0.0
 11
1118.886782
 21
240.516651
 31
0.0
  0
LINE
  5
709
  8
002
 62
     3
 10
1102.886782
 20
185.516651
 30
0.0
 11
1118.886782
 21
185.516651
 31
0.0
  0
LINE
  5
70A
  8
002
 62
     3
 10
1102.886782
 20
240.516651
 30
0.0
 11
1118.886782
 21
240.516651
 31
0.0
  0
LINE
  5
70B
  8
002
 62
     3
 10
1043.886782
 20
185.516651
 30
0.0
 11
1043.886782
 21
240.516651
 31
0.0
  0
LINE
  5
70C
  8
002
 62
     3
 10
1106.886782
 20
233.016651
 30
0.0
 11
1070.886782
 21
233.016651
 31
0.0
  0
LINE
  5
70D
  8
002
 62
     3
 10
1102.886782
 20
235.016651
 30
0.0
 11
1102.886782
 21
240.516651
 31
0.0
  0
LINE
  5
70E
  8
002
 62
     3
 10
1068.886782
 20
195.016651
 30
0.0
 11
1068.886782
 21
231.016651
 31
0.0
  0
LINE
  5
70F
  8
002
 62
     3
 10
1106.886782
 20
193.016651
 30
0.0
 11
1070.886782
 21
193.016651
 31
0.0
  0
LINE
  5
710
  8
002
 62
     3
 10
1108.886782
 20
231.016651
 30
0.0
 11
1108.886782
 21
195.016651
 31
0.0
  0
LINE
  5
711
  8
002
 62
     3
 10
1102.886782
 20
191.016651
 30
0.0
 11
1102.886782
 21
185.516651
 31
0.0
  0
LINE
  5
712
  8
002
 62
     3
 10
1045.886782
 20
187.516651
 30
0.0
 11
1090.886782
 21
187.516651
 31
0.0
  0
LINE
  5
713
  8
002
 62
     3
 10
1090.886782
 20
191.016651
 30
0.0
 11
1090.886782
 21
187.516651
 31
0.0
  0
ARC
  5
714
  8
002
 62
     3
 10
1087.886782
 20
235.016651
 30
0.0
 40
2.0
 50
180.0
 51
270.0
  0
ARC
  5
715
  8
002
 62
     3
 10
1092.886782
 20
191.016651
 30
0.0
 40
2.0
 50
90.0
 51
180.0
  0
LINE
  5
716
  8
002
 62
     3
 10
1085.886782
 20
235.016651
 30
0.0
 11
1085.886782
 21
240.516651
 31
0.0
  0
ARC
  5
717
  8
002
 62
     3
 10
1100.886782
 20
191.016651
 30
0.0
 40
2.0
 50
0.0
 51
90.0
  0
ARC
  5
718
  8
002
 62
     3
 10
1100.886782
 20
235.016651
 30
0.0
 40
2.0
 50
270.0
 51
0.0
  0
ARC
  5
719
  8
002
 62
     3
 10
1045.886782
 20
185.516651
 30
0.0
 40
2.0
 50
90.0
 51
180.0
  0
LINE
  5
71A
  8
002
  6
CENTER
 62
    40
 10
1088.886782
 20
191.148716
 30
0.0
 11
1088.886782
 21
234.990959
 31
0.0
  0
ARC
  5
71B
  8
002
 62
     3
 10
1070.886782
 20
231.016651
 30
0.0
 40
2.0
 50
90.0
 51
180.0
  0
ARC
  5
71C
  8
002
 62
     3
 10
1070.886782
 20
195.016651
 30
0.0
 40
2.0
 50
180.0
 51
270.0
  0
ARC
  5
71D
  8
002
 62
     3
 10
1106.886782
 20
195.016651
 30
0.0
 40
2.0
 50
270.0
 51
0.0
  0
ARC
  5
71E
  8
002
 62
     3
 10
1106.886782
 20
231.016651
 30
0.0
 40
2.0
 50
0.0
 51
90.0
  0
LINE
  5
71F
  8
002
 62
     3
 10
1027.886782
 20
185.516651
 30
0.0
 11
1027.886782
 21
240.516651
 31
0.0
  0
LINE
  5
720
  8
002
 62
     3
 10
1087.386782
 20
199.119351
 30
0.0
 11
1087.386782
 21
200.916651
 31
0.0
  0
ARC
  5
721
  8
002
 62
     3
 10
1092.386782
 20
200.916651
 30
0.0
 40
1.999987664961913
 50
45.149904
 51
180.0
  0
ARC
  5
722
  8
002
 62
     3
 10
1095.207782
 20
203.752451
 30
0.0
 40
1.999987664962033
 50
225.149904
 51
306.869898
  0
CIRCLE
  5
723
  8
002
 62
     3
 10
1092.386782
 20
200.916651
 30
0.0
 40
1.0
  0
LINE
  5
724
  8
002
 62
     3
 10
1090.386782
 20
200.916651
 30
0.0
 11
1090.386782
 21
199.119351
 31
0.0
  0
CIRCLE
  5
725
  8
002
 62
     3
 10
1085.386782
 20
200.916651
 30
0.0
 40
1.0
  0
ARC
  5
726
  8
002
 62
     3
 10
1082.565882
 20
203.752451
 30
0.0
 40
1.999999999999977
 50
233.130102
 51
314.848065
  0
ARC
  5
727
  8
002
 62
     3
 10
1088.886782
 20
212.181151
 30
0.0
 40
12.53556000703597
 50
306.867978
 51
233.132388
  0
ARC
  5
728
  8
002
 62
     3
 10
1085.386782
 20
200.916651
 30
0.0
 40
2.0
 50
0.0
 51
134.850096
  0
CIRCLE
  5
729
  8
002
 62
     3
 10
1088.886782
 20
213.016651
 30
0.0
 40
6.0
  0
LINE
  5
72A
  8
002
 62
     3
 10
1085.570182
 20
218.016651
 30
0.0
 11
1092.203482
 21
218.016651
 31
0.0
  0
CIRCLE
  5
72B
  8
002
 62
     3
 10
1088.886782
 20
213.016651
 30
0.0
 40
14.0
  0
LINE
  5
72C
  8
002
  6
CENTER
 62
    40
 10
1035.886682
 20
183.513542
 30
0.0
 11
1035.886682
 21
245.077251
 31
0.0
  0
LINE
  5
72D
  8
002
  6
CENTER
 62
    40
 10
1110.886782
 20
246.574351
 30
0.0
 11
1110.886782
 21
183.513542
 31
0.0
  0
LINE
  5
72E
  8
002
 62
     3
 10
1027.886782
 20
185.516651
 30
0.0
 11
1086.886782
 21
185.516651
 31
0.0
  0
LINE
  5
72F
  8
002
 62
     3
 10
1027.886782
 20
240.516651
 30
0.0
 11
1085.886782
 21
240.516651
 31
0.0
  0
LINE
  5
730
  8
002
 62
    40
 10
1085.804282
 20
185.516651
 30
0.0
 11
1085.804282
 21
187.516651
 31
0.0
  0
LINE
  5
731
  8
002
 62
     3
 10
1086.886782
 20
187.516651
 30
0.0
 11
1086.886782
 21
185.516651
 31
0.0
  0
LINE
  5
732
  8
002
 62
     3
 10
1171.467582
 20
207.016651
 30
0.0
 11
1148.467542
 21
207.016651
 31
0.0
  0
LINE
  5
733
  8
002
 62
     3
 10
1148.467542
 20
207.016651
 30
0.0
 11
1147.467542
 21
208.016651
 31
0.0
  0
LINE
  5
734
  8
002
 62
     3
 10
1147.467542
 20
208.016651
 30
0.0
 11
1147.467542
 21
218.016651
 31
0.0
  0
LINE
  5
735
  8
002
 62
     3
 10
1147.467542
 20
218.016651
 30
0.0
 11
1167.467582
 21
218.016651
 31
0.0
  0
LINE
  5
736
  8
002
 62
     3
 10
1167.467582
 20
218.016651
 30
0.0
 11
1167.467582
 21
219.016651
 31
0.0
  0
LINE
  5
737
  8
002
 62
     3
 10
1167.467582
 20
219.016651
 30
0.0
 11
1171.467582
 21
219.016651
 31
0.0
  0
LINE
  5
738
  8
002
 62
     3
 10
1148.467542
 20
218.016651
 30
0.0
 11
1148.467542
 21
207.016651
 31
0.0
  0
LINE
  5
739
  8
002
 62
     3
 10
1243.467582
 20
219.016651
 30
0.0
 11
1247.467582
 21
219.016651
 31
0.0
  0
LINE
  5
73A
  8
002
 62
     3
 10
1247.467582
 20
219.016651
 30
0.0
 11
1247.467582
 21
218.016651
 31
0.0
  0
LINE
  5
73B
  8
002
 62
     3
 10
1247.467582
 20
218.016651
 30
0.0
 11
1267.467582
 21
218.016651
 31
0.0
  0
LINE
  5
73C
  8
002
 62
     3
 10
1267.467582
 20
218.016651
 30
0.0
 11
1267.467582
 21
208.016651
 31
0.0
  0
LINE
  5
73D
  8
002
 62
     3
 10
1267.467582
 20
208.016651
 30
0.0
 11
1266.467582
 21
207.016651
 31
0.0
  0
LINE
  5
73E
  8
002
 62
     3
 10
1266.467582
 20
207.016651
 30
0.0
 11
1243.467582
 21
207.016651
 31
0.0
  0
LINE
  5
73F
  8
002
 62
     3
 10
1266.467582
 20
207.016651
 30
0.0
 11
1266.467582
 21
218.016651
 31
0.0
  0
LINE
  5
740
  8
002
 62
     3
 10
1190.467582
 20
185.516651
 30
0.0
 11
1190.467582
 21
240.516651
 31
0.0
  0
LINE
  5
741
  8
002
 62
     3
 10
1174.467582
 20
240.516651
 30
0.0
 11
1174.467582
 21
185.516651
 31
0.0
  0
LINE
  5
742
  8
002
 62
     3
 10
1224.467582
 20
240.516651
 30
0.0
 11
1224.467582
 21
185.516651
 31
0.0
  0
LINE
  5
743
  8
002
 62
     3
 10
1240.467582
 20
185.516651
 30
0.0
 11
1240.467582
 21
240.516651
 31
0.0
  0
POLYLINE
  5
744
  8
002
 62
     3
 66
     1
 10
0.0
 20
0.0
 30
0.0
  0
VERTEX
  5
746
  8
002
 62
     3
 10
1240.467582
 20
235.016651
 30
0.0
  0
VERTEX
  5
747
  8
002
 62
     3
 10
1240.49224
 20
234.713947
 30
0.0
  0
VERTEX
  5
748
  8
002
 62
     3
 10
1240.541821
 20
234.416191
 30
0.0
  0
VERTEX
  5
749
  8
002
 62
     3
 10
1240.599287
 20
234.223152
 30
0.0
  0
VERTEX
  5
74A
  8
002
 62
     3
 10
1240.676251
 20
234.036362
 30
0.0
  0
VERTEX
  5
74B
  8
002
 62
     3
 10
1240.775739
 20
233.849356
 30
0.0
  0
VERTEX
  5
74C
  8
002
 62
     3
 10
1240.8947
 20
233.674545
 30
0.0
  0
VERTEX
  5
74D
  8
002
 62
     3
 10
1240.987553
 20
233.563745
 30
0.0
  0
VERTEX
  5
74E
  8
002
 62
     3
 10
1241.08945
 20
233.461156
 30
0.0
  0
VERTEX
  5
74F
  8
002
 62
     3
 10
1241.20816
 20
233.361353
 30
0.0
  0
VERTEX
  5
750
  8
002
 62
     3
 10
1241.33569
 20
233.273151
 30
0.0
  0
VERTEX
  5
751
  8
002
 62
     3
 10
1241.434123
 20
233.216451
 30
0.0
  0
VERTEX
  5
752
  8
002
 62
     3
 10
1241.536239
 20
233.166777
 30
0.0
  0
VERTEX
  5
753
  8
002
 62
     3
 10
1241.648904
 20
233.12162
 30
0.0
  0
VERTEX
  5
754
  8
002
 62
     3
 10
1241.764537
 20
233.084462
 30
0.0
  0
VERTEX
  5
755
  8
002
 62
     3
 10
1241.884361
 20
233.054834
 30
0.0
  0
VERTEX
  5
756
  8
002
 62
     3
 10
1242.005916
 20
233.034309
 30
0.0
  0
VERTEX
  5
757
  8
002
 62
     3
 10
1242.136439
 20
233.022574
 30
0.0
  0
VERTEX
  5
758
  8
002
 62
     3
 10
1242.267582
 20
233.016651
 30
0.0
  0
SEQEND
  5
745
  8
002
 62
     3
  0
POLYLINE
  5
759
  8
002
 62
     3
 66
     1
 10
0.0
 20
0.0
 30
0.0
  0
VERTEX
  5
75B
  8
002
 62
     3
 10
1222.667582
 20
233.016651
 30
0.0
  0
VERTEX
  5
75C
  8
002
 62
     3
 10
1222.794464
 20
233.022208
 30
0.0
  0
VERTEX
  5
75D
  8
002
 62
     3
 10
1222.920793
 20
233.033167
 30
0.0
  0
VERTEX
  5
75E
  8
002
 62
     3
 10
1223.046626
 20
233.053964
 30
0.0
  0
VERTEX
  5
75F
  8
002
 62
     3
 10
1223.170627
 20
233.084462
 30
0.0
  0
VERTEX
  5
760
  8
002
 62
     3
 10
1223.283536
 20
233.120635
 30
0.0
  0
VERTEX
  5
761
  8
002
 62
     3
 10
1223.393632
 20
233.164434
 30
0.0
  0
VERTEX
  5
762
  8
002
 62
     3
 10
1223.498481
 20
233.215099
 30
0.0
  0
VERTEX
  5
763
  8
002
 62
     3
 10
1223.599473
 20
233.273151
 30
0.0
  0
VERTEX
  5
764
  8
002
 62
     3
 10
1223.723888
 20
233.358973
 30
0.0
  0
VERTEX
  5
765
  8
002
 62
     3
 10
1223.839942
 20
233.455845
 30
0.0
  0
VERTEX
  5
766
  8
002
 62
     3
 10
1223.944962
 20
233.560852
 30
0.0
  0
VERTEX
  5
767
  8
002
 62
     3
 10
1224.040463
 20
233.674545
 30
0.0
  0
VERTEX
  5
768
  8
002
 62
     3
 10
1224.156743
 20
233.844891
 30
0.0
  0
VERTEX
  5
769
  8
002
 62
     3
 10
1224.254492
 20
234.026905
 30
0.0
  0
VERTEX
  5
76A
  8
002
 62
     3
 10
1224.334161
 20
234.218224
 30
0.0
  0
VERTEX
  5
76B
  8
002
 62
     3
 10
1224.393343
 20
234.416191
 30
0.0
  0
VERTEX
  5
76C
  8
002
 62
     3
 10
1224.442906
 20
234.713958
 30
0.0
  0
VERTEX
  5
76D
  8
002
 62
     3
 10
1224.467582
 20
235.016651
 30
0.0
  0
SEQEND
  5
75A
  8
002
 62
     3
  0
POLYLINE
  5
76E
  8
002
 62
     3
 66
     1
 10
0.0
 20
0.0
 30
0.0
  0
VERTEX
  5
770
  8
002
 62
     3
 10
1224.467582
 20
191.016651
 30
0.0
  0
VERTEX
  5
771
  8
002
 62
     3
 10
1224.442924
 20
191.319355
 30
0.0
  0
VERTEX
  5
772
  8
002
 62
     3
 10
1224.393343
 20
191.617111
 30
0.0
  0
VERTEX
  5
773
  8
002
 62
     3
 10
1224.335876
 20
191.81015
 30
0.0
  0
VERTEX
  5
774
  8
002
 62
     3
 10
1224.258912
 20
191.99694
 30
0.0
  0
VERTEX
  5
775
  8
002
 62
     3
 10
1224.159425
 20
192.183945
 30
0.0
  0
VERTEX
  5
776
  8
002
 62
     3
 10
1224.040463
 20
192.358757
 30
0.0
  0
VERTEX
  5
777
  8
002
 62
     3
 10
1223.947611
 20
192.469557
 30
0.0
  0
VERTEX
  5
778
  8
002
 62
     3
 10
1223.845714
 20
192.572146
 30
0.0
  0
VERTEX
  5
779
  8
002
 62
     3
 10
1223.727004
 20
192.671948
 30
0.0
  0
VERTEX
  5
77A
  8
002
 62
     3
 10
1223.599473
 20
192.760151
 30
0.0
  0
VERTEX
  5
77B
  8
002
 62
     3
 10
1223.50104
 20
192.816851
 30
0.0
  0
VERTEX
  5
77C
  8
002
 62
     3
 10
1223.398925
 20
192.866525
 30
0.0
  0
VERTEX
  5
77D
  8
002
 62
     3
 10
1223.28626
 20
192.911682
 30
0.0
  0
VERTEX
  5
77E
  8
002
 62
     3
 10
1223.170627
 20
192.94884
 30
0.0
  0
VERTEX
  5
77F
  8
002
 62
     3
 10
1223.050803
 20
192.978468
 30
0.0
  0
VERTEX
  5
780
  8
002
 62
     3
 10
1222.929247
 20
192.998993
 30
0.0
  0
VERTEX
  5
781
  8
002
 62
     3
 10
1222.798725
 20
193.010728
 30
0.0
  0
VERTEX
  5
782
  8
002
 62
     3
 10
1222.667582
 20
193.016651
 30
0.0
  0
SEQEND
  5
76F
  8
002
 62
     3
  0
POLYLINE
  5
783
  8
002
 62
     3
 66
     1
 10
0.0
 20
0.0
 30
0.0
  0
VERTEX
  5
785
  8
002
 62
     3
 10
1242.267582
 20
193.016651
 30
0.0
  0
VERTEX
  5
786
  8
002
 62
     3
 10
1242.1407
 20
193.011094
 30
0.0
  0
VERTEX
  5
787
  8
002
 62
     3
 10
1242.01437
 20
193.000135
 30
0.0
  0
VERTEX
  5
788
  8
002
 62
     3
 10
1241.888537
 20
192.979338
 30
0.0
  0
VERTEX
  5
789
  8
002
 62
     3
 10
1241.764537
 20
192.94884
 30
0.0
  0
VERTEX
  5
78A
  8
002
 62
     3
 10
1241.651628
 20
192.912667
 30
0.0
  0
VERTEX
  5
78B
  8
002
 62
     3
 10
1241.541532
 20
192.868868
 30
0.0
  0
VERTEX
  5
78C
  8
002
 62
     3
 10
1241.436683
 20
192.818203
 30
0.0
  0
VERTEX
  5
78D
  8
002
 62
     3
 10
1241.33569
 20
192.760151
 30
0.0
  0
VERTEX
  5
78E
  8
002
 62
     3
 10
1241.211275
 20
192.674329
 30
0.0
  0
VERTEX
  5
78F
  8
002
 62
     3
 10
1241.095222
 20
192.577457
 30
0.0
  0
VERTEX
  5
790
  8
002
 62
     3
 10
1240.990201
 20
192.47245
 30
0.0
  0
VERTEX
  5
791
  8
002
 62
     3
 10
1240.8947
 20
192.358757
 30
0.0
  0
VERTEX
  5
792
  8
002
 62
     3
 10
1240.778421
 20
192.188411
 30
0.0
  0
VERTEX
  5
793
  8
002
 62
     3
 10
1240.680671
 20
192.006397
 30
0.0
  0
VERTEX
  5
794
  8
002
 62
     3
 10
1240.601003
 20
191.815077
 30
0.0
  0
VERTEX
  5
795
  8
002
 62
     3
 10
1240.541821
 20
191.617111
 30
0.0
  0
VERTEX
  5
796
  8
002
 62
     3
 10
1240.492257
 20
191.319344
 30
0.0
  0
VERTEX
  5
797
  8
002
 62
     3
 10
1240.467582
 20
191.016651
 30
0.0
  0
SEQEND
  5
784
  8
002
 62
     3
  0
POLYLINE
  5
798
  8
002
 62
     3
 66
     1
 10
0.0
 20
0.0
 30
0.0
  0
VERTEX
  5
79A
  8
002
 62
     3
 10
1172.667582
 20
233.016651
 30
0.0
  0
VERTEX
  5
79B
  8
002
 62
     3
 10
1172.794464
 20
233.022208
 30
0.0
  0
VERTEX
  5
79C
  8
002
 62
     3
 10
1172.920793
 20
233.033167
 30
0.0
  0
VERTEX
  5
79D
  8
002
 62
     3
 10
1173.046626
 20
233.053964
 30
0.0
  0
VERTEX
  5
79E
  8
002
 62
     3
 10
1173.170627
 20
233.084462
 30
0.0
  0
VERTEX
  5
79F
  8
002
 62
     3
 10
1173.283536
 20
233.120635
 30
0.0
  0
VERTEX
  5
7A0
  8
002
 62
     3
 10
1173.393632
 20
233.164434
 30
0.0
  0
VERTEX
  5
7A1
  8
002
 62
     3
 10
1173.498481
 20
233.215099
 30
0.0
  0
VERTEX
  5
7A2
  8
002
 62
     3
 10
1173.599473
 20
233.273151
 30
0.0
  0
VERTEX
  5
7A3
  8
002
 62
     3
 10
1173.723888
 20
233.358973
 30
0.0
  0
VERTEX
  5
7A4
  8
002
 62
     3
 10
1173.839942
 20
233.455845
 30
0.0
  0
VERTEX
  5
7A5
  8
002
 62
     3
 10
1173.944962
 20
233.560852
 30
0.0
  0
VERTEX
  5
7A6
  8
002
 62
     3
 10
1174.040463
 20
233.674545
 30
0.0
  0
VERTEX
  5
7A7
  8
002
 62
     3
 10
1174.156743
 20
233.844891
 30
0.0
  0
VERTEX
  5
7A8
  8
002
 62
     3
 10
1174.254492
 20
234.026905
 30
0.0
  0
VERTEX
  5
7A9
  8
002
 62
     3
 10
1174.334161
 20
234.218224
 30
0.0
  0
VERTEX
  5
7AA
  8
002
 62
     3
 10
1174.393343
 20
234.416191
 30
0.0
  0
VERTEX
  5
7AB
  8
002
 62
     3
 10
1174.442906
 20
234.713958
 30
0.0
  0
VERTEX
  5
7AC
  8
002
 62
     3
 10
1174.467582
 20
235.016651
 30
0.0
  0
SEQEND
  5
799
  8
002
 62
     3
  0
POLYLINE
  5
7AD
  8
002
 62
     3
 66
     1
 10
0.0
 20
0.0
 30
0.0
  0
VERTEX
  5
7AF
  8
002
 62
     3
 10
1190.467582
 20
235.016651
 30
0.0
  0
VERTEX
  5
7B0
  8
002
 62
     3
 10
1190.49224
 20
234.713947
 30
0.0
  0
VERTEX
  5
7B1
  8
002
 62
     3
 10
1190.541821
 20
234.416191
 30
0.0
  0
VERTEX
  5
7B2
  8
002
 62
     3
 10
1190.599287
 20
234.223152
 30
0.0
  0
VERTEX
  5
7B3
  8
002
 62
     3
 10
1190.676251
 20
234.036362
 30
0.0
  0
VERTEX
  5
7B4
  8
002
 62
     3
 10
1190.775739
 20
233.849356
 30
0.0
  0
VERTEX
  5
7B5
  8
002
 62
     3
 10
1190.8947
 20
233.674545
 30
0.0
  0
VERTEX
  5
7B6
  8
002
 62
     3
 10
1190.987553
 20
233.563745
 30
0.0
  0
VERTEX
  5
7B7
  8
002
 62
     3
 10
1191.08945
 20
233.461156
 30
0.0
  0
VERTEX
  5
7B8
  8
002
 62
     3
 10
1191.20816
 20
233.361353
 30
0.0
  0
VERTEX
  5
7B9
  8
002
 62
     3
 10
1191.33569
 20
233.273151
 30
0.0
  0
VERTEX
  5
7BA
  8
002
 62
     3
 10
1191.434123
 20
233.216451
 30
0.0
  0
VERTEX
  5
7BB
  8
002
 62
     3
 10
1191.536239
 20
233.166777
 30
0.0
  0
VERTEX
  5
7BC
  8
002
 62
     3
 10
1191.648904
 20
233.12162
 30
0.0
  0
VERTEX
  5
7BD
  8
002
 62
     3
 10
1191.764537
 20
233.084462
 30
0.0
  0
VERTEX
  5
7BE
  8
002
 62
     3
 10
1191.884361
 20
233.054834
 30
0.0
  0
VERTEX
  5
7BF
  8
002
 62
     3
 10
1192.005916
 20
233.034309
 30
0.0
  0
VERTEX
  5
7C0
  8
002
 62
     3
 10
1192.136439
 20
233.022574
 30
0.0
  0
VERTEX
  5
7C1
  8
002
 62
     3
 10
1192.267582
 20
233.016651
 30
0.0
  0
SEQEND
  5
7AE
  8
002
 62
     3
  0
POLYLINE
  5
7C2
  8
002
 62
     3
 66
     1
 10
0.0
 20
0.0
 30
0.0
  0
VERTEX
  5
7C4
  8
002
 62
     3
 10
1174.467582
 20
191.016651
 30
0.0
  0
VERTEX
  5
7C5
  8
002
 62
     3
 10
1174.442924
 20
191.319355
 30
0.0
  0
VERTEX
  5
7C6
  8
002
 62
     3
 10
1174.393343
 20
191.617111
 30
0.0
  0
VERTEX
  5
7C7
  8
002
 62
     3
 10
1174.335876
 20
191.81015
 30
0.0
  0
VERTEX
  5
7C8
  8
002
 62
     3
 10
1174.258912
 20
191.99694
 30
0.0
  0
VERTEX
  5
7C9
  8
002
 62
     3
 10
1174.159425
 20
192.183945
 30
0.0
  0
VERTEX
  5
7CA
  8
002
 62
     3
 10
1174.040463
 20
192.358757
 30
0.0
  0
VERTEX
  5
7CB
  8
002
 62
     3
 10
1173.947611
 20
192.469557
 30
0.0
  0
VERTEX
  5
7CC
  8
002
 62
     3
 10
1173.845714
 20
192.572146
 30
0.0
  0
VERTEX
  5
7CD
  8
002
 62
     3
 10
1173.727004
 20
192.671948
 30
0.0
  0
VERTEX
  5
7CE
  8
002
 62
     3
 10
1173.599473
 20
192.760151
 30
0.0
  0
VERTEX
  5
7CF
  8
002
 62
     3
 10
1173.50104
 20
192.816851
 30
0.0
  0
VERTEX
  5
7D0
  8
002
 62
     3
 10
1173.398925
 20
192.866525
 30
0.0
  0
VERTEX
  5
7D1
  8
002
 62
     3
 10
1173.28626
 20
192.911682
 30
0.0
  0
VERTEX
  5
7D2
  8
002
 62
     3
 10
1173.170627
 20
192.94884
 30
0.0
  0
VERTEX
  5
7D3
  8
002
 62
     3
 10
1173.050803
 20
192.978468
 30
0.0
  0
VERTEX
  5
7D4
  8
002
 62
     3
 10
1172.929247
 20
192.998993
 30
0.0
  0
VERTEX
  5
7D5
  8
002
 62
     3
 10
1172.798725
 20
193.010728
 30
0.0
  0
VERTEX
  5
7D6
  8
002
 62
     3
 10
1172.667582
 20
193.016651
 30
0.0
  0
SEQEND
  5
7C3
  8
002
 62
     3
  0
POLYLINE
  5
7D7
  8
002
 62
     3
 66
     1
 10
0.0
 20
0.0
 30
0.0
  0
VERTEX
  5
7D9
  8
002
 62
     3
 10
1192.267582
 20
193.016651
 30
0.0
  0
VERTEX
  5
7DA
  8
002
 62
     3
 10
1192.1407
 20
193.011094
 30
0.0
  0
VERTEX
  5
7DB
  8
002
 62
     3
 10
1192.01437
 20
193.000135
 30
0.0
  0
VERTEX
  5
7DC
  8
002
 62
     3
 10
1191.888537
 20
192.979338
 30
0.0
  0
VERTEX
  5
7DD
  8
002
 62
     3
 10
1191.764537
 20
192.94884
 30
0.0
  0
VERTEX
  5
7DE
  8
002
 62
     3
 10
1191.651628
 20
192.912667
 30
0.0
  0
VERTEX
  5
7DF
  8
002
 62
     3
 10
1191.541532
 20
192.868868
 30
0.0
  0
VERTEX
  5
7E0
  8
002
 62
     3
 10
1191.436683
 20
192.818203
 30
0.0
  0
VERTEX
  5
7E1
  8
002
 62
     3
 10
1191.33569
 20
192.760151
 30
0.0
  0
VERTEX
  5
7E2
  8
002
 62
     3
 10
1191.211275
 20
192.674329
 30
0.0
  0
VERTEX
  5
7E3
  8
002
 62
     3
 10
1191.095222
 20
192.577457
 30
0.0
  0
VERTEX
  5
7E4
  8
002
 62
     3
 10
1190.990201
 20
192.47245
 30
0.0
  0
VERTEX
  5
7E5
  8
002
 62
     3
 10
1190.8947
 20
192.358757
 30
0.0
  0
VERTEX
  5
7E6
  8
002
 62
     3
 10
1190.778421
 20
192.188411
 30
0.0
  0
VERTEX
  5
7E7
  8
002
 62
     3
 10
1190.680671
 20
192.006397
 30
0.0
  0
VERTEX
  5
7E8
  8
002
 62
     3
 10
1190.601003
 20
191.815077
 30
0.0
  0
VERTEX
  5
7E9
  8
002
 62
     3
 10
1190.541821
 20
191.617111
 30
0.0
  0
VERTEX
  5
7EA
  8
002
 62
     3
 10
1190.492257
 20
191.319344
 30
0.0
  0
VERTEX
  5
7EB
  8
002
 62
     3
 10
1190.467582
 20
191.016651
 30
0.0
  0
SEQEND
  5
7D8
  8
002
 62
     3
  0
LINE
  5
7EC
  8
002
 62
     3
 10
1243.467582
 20
233.016651
 30
0.0
 11
1243.467582
 21
193.016651
 31
0.0
  0
LINE
  5
7ED
  8
002
 62
     3
 10
1171.467582
 20
233.016651
 30
0.0
 11
1171.467582
 21
193.016651
 31
0.0
  0
LINE
  5
7EE
  8
002
 62
     3
 10
1222.667582
 20
233.016651
 30
0.0
 11
1192.267582
 21
233.016651
 31
0.0
  0
LINE
  5
7EF
  8
002
 62
     3
 10
1222.667582
 20
193.016651
 30
0.0
 11
1192.267582
 21
193.016651
 31
0.0
  0
LINE
  5
7F0
  8
002
 62
     3
 10
1224.467582
 20
187.516651
 30
0.0
 11
1190.467582
 21
187.516651
 31
0.0
  0
LINE
  5
7F1
  8
002
 62
     3
 10
1174.467582
 20
240.516651
 30
0.0
 11
1240.467582
 21
240.516651
 31
0.0
  0
ARC
  5
7F2
  8
002
 62
     3
 10
1222.467582
 20
185.516651
 30
0.0
 40
2.0
 50
360.0
 51
90.0
  0
ARC
  5
7F3
  8
002
 62
     3
 10
1192.467582
 20
185.516651
 30
0.0
 40
2.0
 50
90.0
 51
180.0
  0
LINE
  5
7F4
  8
002
 62
     3
 10
1240.467582
 20
185.516651
 30
0.0
 11
1174.467582
 21
185.516651
 31
0.0
  0
LINE
  5
7F5
  8
002
 62
     3
 10
1243.467582
 20
193.016651
 30
0.0
 11
1242.267582
 21
193.016651
 31
0.0
  0
LINE
  5
7F6
  8
002
 62
     3
 10
1243.467582
 20
233.016651
 30
0.0
 11
1242.267582
 21
233.016651
 31
0.0
  0
LINE
  5
7F7
  8
002
 62
     3
 10
1171.467582
 20
233.016651
 30
0.0
 11
1172.667582
 21
233.016651
 31
0.0
  0
LINE
  5
7F8
  8
002
 62
     3
 10
1171.467582
 20
193.016651
 30
0.0
 11
1172.667582
 21
193.016651
 31
0.0
  0
LINE
  5
7F9
  8
002
 62
     3
 10
1479.886882
 20
185.516651
 30
0.0
 11
1479.886882
 21
240.516651
 31
0.0
  0
LINE
  5
7FA
  8
002
 62
     3
 10
1463.886882
 20
185.516651
 30
0.0
 11
1479.886882
 21
185.516651
 31
0.0
  0
LINE
  5
7FB
  8
002
 62
     3
 10
1463.886882
 20
240.516651
 30
0.0
 11
1479.886882
 21
240.516651
 31
0.0
  0
LINE
  5
7FC
  8
002
 62
     3
 10
1404.886882
 20
185.516651
 30
0.0
 11
1404.886882
 21
240.516651
 31
0.0
  0
LINE
  5
7FD
  8
002
 62
     3
 10
1467.886882
 20
233.016651
 30
0.0
 11
1431.886882
 21
233.016651
 31
0.0
  0
LINE
  5
7FE
  8
002
 62
     3
 10
1463.886882
 20
235.016651
 30
0.0
 11
1463.886882
 21
240.516651
 31
0.0
  0
LINE
  5
7FF
  8
002
 62
     3
 10
1429.886882
 20
195.016651
 30
0.0
 11
1429.886882
 21
231.016651
 31
0.0
  0
LINE
  5
800
  8
002
 62
     3
 10
1467.886882
 20
193.016651
 30
0.0
 11
1431.886882
 21
193.016651
 31
0.0
  0
LINE
  5
801
  8
002
 62
     3
 10
1469.886882
 20
231.016651
 30
0.0
 11
1469.886882
 21
195.016651
 31
0.0
  0
LINE
  5
802
  8
002
 62
     3
 10
1463.886882
 20
191.016651
 30
0.0
 11
1463.886882
 21
185.516651
 31
0.0
  0
LINE
  5
803
  8
002
 62
     3
 10
1406.886882
 20
187.516651
 30
0.0
 11
1451.886882
 21
187.516651
 31
0.0
  0
LINE
  5
804
  8
002
 62
     3
 10
1451.886882
 20
191.016651
 30
0.0
 11
1451.886882
 21
187.516651
 31
0.0
  0
ARC
  5
805
  8
002
 62
     3
 10
1448.886882
 20
235.016651
 30
0.0
 40
2.0
 50
180.0
 51
270.0
  0
ARC
  5
806
  8
002
 62
     3
 10
1453.886882
 20
191.016651
 30
0.0
 40
2.0
 50
90.0
 51
180.0
  0
LINE
  5
807
  8
002
 62
     3
 10
1446.886882
 20
235.016651
 30
0.0
 11
1446.886882
 21
240.516651
 31
0.0
  0
ARC
  5
808
  8
002
 62
     3
 10
1461.886882
 20
191.016651
 30
0.0
 40
2.0
 50
0.0
 51
90.0
  0
ARC
  5
809
  8
002
 62
     3
 10
1461.886882
 20
235.016651
 30
0.0
 40
2.0
 50
270.0
 51
0.0
  0
ARC
  5
80A
  8
002
 62
     3
 10
1406.886882
 20
185.516651
 30
0.0
 40
2.0
 50
90.0
 51
180.0
  0
LINE
  5
80B
  8
002
  6
CENTER
 62
    40
 10
1449.886882
 20
191.148716
 30
0.0
 11
1449.886882
 21
234.990959
 31
0.0
  0
ARC
  5
80C
  8
002
 62
     3
 10
1431.886882
 20
231.016651
 30
0.0
 40
2.0
 50
90.0
 51
180.0
  0
ARC
  5
80D
  8
002
 62
     3
 10
1431.886882
 20
195.016651
 30
0.0
 40
2.0
 50
180.0
 51
270.0
  0
ARC
  5
80E
  8
002
 62
     3
 10
1467.886882
 20
195.016651
 30
0.0
 40
2.0
 50
270.0
 51
0.0
  0
ARC
  5
80F
  8
002
 62
     3
 10
1467.886882
 20
231.016651
 30
0.0
 40
2.0
 50
0.0
 51
90.0
  0
LINE
  5
810
  8
002
 62
     3
 10
1388.886882
 20
185.516651
 30
0.0
 11
1388.886882
 21
240.516651
 31
0.0
  0
LINE
  5
811
  8
002
 62
     3
 10
1448.386882
 20
199.119351
 30
0.0
 11
1448.386882
 21
200.916651
 31
0.0
  0
ARC
  5
812
  8
002
 62
     3
 10
1453.386882
 20
200.916651
 30
0.0
 40
1.999987664961913
 50
45.149904
 51
180.0
  0
ARC
  5
813
  8
002
 62
     3
 10
1456.207882
 20
203.752451
 30
0.0
 40
1.999987664962033
 50
225.149904
 51
306.869898
  0
CIRCLE
  5
814
  8
002
 62
     3
 10
1453.386882
 20
200.916651
 30
0.0
 40
1.0
  0
LINE
  5
815
  8
002
 62
     3
 10
1451.386882
 20
200.916651
 30
0.0
 11
1451.386882
 21
199.119351
 31
0.0
  0
CIRCLE
  5
816
  8
002
 62
     3
 10
1446.386882
 20
200.916651
 30
0.0
 40
1.0
  0
ARC
  5
817
  8
002
 62
     3
 10
1443.565982
 20
203.752451
 30
0.0
 40
1.999999999999977
 50
233.130102
 51
314.848065
  0
ARC
  5
818
  8
002
 62
     3
 10
1449.886882
 20
212.181151
 30
0.0
 40
12.53556000703597
 50
306.867978
 51
233.132388
  0
ARC
  5
819
  8
002
 62
     3
 10
1446.386882
 20
200.916651
 30
0.0
 40
2.0
 50
0.0
 51
134.850096
  0
CIRCLE
  5
81A
  8
002
 62
     3
 10
1449.886882
 20
213.016651
 30
0.0
 40
6.0
  0
LINE
  5
81B
  8
002
 62
     3
 10
1446.570282
 20
218.016651
 30
0.0
 11
1453.203582
 21
218.016651
 31
0.0
  0
CIRCLE
  5
81C
  8
002
 62
     3
 10
1449.886882
 20
213.016651
 30
0.0
 40
14.0
  0
LINE
  5
81D
  8
002
  6
CENTER
 62
    40
 10
1396.886782
 20
183.513542
 30
0.0
 11
1396.886782
 21
245.077251
 31
0.0
  0
LINE
  5
81E
  8
002
  6
CENTER
 62
    40
 10
1471.886882
 20
246.574351
 30
0.0
 11
1471.886882
 21
183.513542
 31
0.0
  0
LINE
  5
81F
  8
002
 62
     3
 10
1388.886882
 20
185.516651
 30
0.0
 11
1447.886882
 21
185.516651
 31
0.0
  0
LINE
  5
820
  8
002
 62
     3
 10
1388.886882
 20
240.516651
 30
0.0
 11
1446.886882
 21
240.516651
 31
0.0
  0
LINE
  5
821
  8
002
 62
    40
 10
1446.804382
 20
185.516651
 30
0.0
 11
1446.804382
 21
187.516651
 31
0.0
  0
LINE
  5
822
  8
002
 62
     3
 10
1447.886882
 20
187.516651
 30
0.0
 11
1447.886882
 21
185.516651
 31
0.0
  0
ENDSEC
  0
EOF
