  0
SECTION
  2
HEADER
  9
$ACADVER
  1
AC1009
  9
$DWGCODEPAGE
  3
ansi_932
  9
$INSBASE
 10
0.0
 20
0.0
 30
0.0
  9
$EXTMIN
 10
52.003418
 20
-53.196899
 30
0.0
  9
$EXTMAX
 10
1469.829468
 20
619.556519
 30
0.0
  9
$LIMMIN
 10
0.0
 20
0.0
  9
$LIMMAX
 10
12.0
 20
9.0
  9
$ORTHOMODE
 70
     0
  9
$REGENMODE
 70
     1
  9
$FILLMODE
 70
     1
  9
$QTEXTMODE
 70
     0
  9
$MIRRTEXT
 70
     1
  9
$DRAGMODE
 70
     2
  9
$LTSCALE
 40
15.693399
  9
$OSMODE
 70
    37
  9
$ATTMODE
 70
     1
  9
$TEXTSIZE
 40
3.2
  9
$TRACEWID
 40
1.0
  9
$TEXTSTYLE
  7
STANDARD
  9
$CLAYER
  8
0
  9
$CELTYPE
  6
BYLAYER
  9
$CECOLOR
 62
   256
  9
$DIMSCALE
 40
1.0
  9
$DIMASZ
 40
2.5
  9
$DIMEXO
 40
0.625
  9
$DIMDLI
 40
3.75
  9
$DIMRND
 40
0.0
  9
$DIMDLE
 40
0.0
  9
$DIMEXE
 40
1.25
  9
$DIMTP
 40
0.0
  9
$DIMTM
 40
0.0
  9
$DIMTXT
 40
2.5
  9
$DIMCEN
 40
0.09
  9
$DIMTSZ
 40
0.0
  9
$DIMTOL
 70
     0
  9
$DIMLIM
 70
     0
  9
$DIMTIH
 70
     0
  9
$DIMTOH
 70
     0
  9
$DIMSE1
 70
     0
  9
$DIMSE2
 70
     0
  9
$DIMTAD
 70
     0
  9
$DIMZIN
 70
     8
  9
$DIMBLK
  1

  9
$DIMASO
 70
     1
  9
$DIMSHO
 70
     0
  9
$DIMPOST
  1

  9
$DIMAPOST
  1

  9
$DIMALT
 70
     0
  9
$DIMALTD
 70
     3
  9
$DIMALTF
 40
0.03937
  9
$DIMLFAC
 40
1.0
  9
$DIMTOFL
 70
     1
  9
$DIMTVP
 40
0.0
  9
$DIMTIX
 70
     0
  9
$DIMSOXD
 70
     0
  9
$DIMSAH
 70
     0
  9
$DIMBLK1
  1

  9
$DIMBLK2
  1

  9
$DIMSTYLE
  2
ISO-25
  9
$DIMCLRD
 70
     0
  9
$DIMCLRE
 70
     0
  9
$DIMCLRT
 70
     0
  9
$DIMTFAC
 40
1.0
  9
$DIMGAP
 40
0.625
  9
$LUNITS
 70
     2
  9
$LUPREC
 70
     4
  9
$SKETCHINC
 40
1.0
  9
$FILLETRAD
 40
0.0
  9
$AUNITS
 70
     0
  9
$AUPREC
 70
     0
  9
$MENU
  1
acad
  9
$ELEVATION
 40
0.0
  9
$PELEVATION
 40
0.0
  9
$THICKNESS
 40
0.0
  9
$LIMCHECK
 70
     0
  9
$CHAMFERA
 40
10.0
  9
$CHAMFERB
 40
10.0
  9
$SKPOLY
 70
     0
  9
$TDCREATE
 40
2457595.49217228
  9
$TDUPDATE
 40
2457595.492172998
  9
$TDINDWG
 40
0.0000000116
  9
$TDUSRTIMER
 40
0.0000000116
  9
$USRTIMER
 70
     1
  9
$ANGBASE
 50
0.0
  9
$ANGDIR
 70
     0
  9
$PDMODE
 70
     0
  9
$PDSIZE
 40
0.0
  9
$PLINEWID
 40
0.0
  9
$COORDS
 70
     1
  9
$SPLFRAME
 70
     0
  9
$SPLINETYPE
 70
     6
  9
$SPLINESEGS
 70
     8
  9
$ATTDIA
 70
     0
  9
$ATTREQ
 70
     1
  9
$HANDLING
 70
     1
  9
$HANDSEED
  5
6C3
  9
$SURFTAB1
 70
     6
  9
$SURFTAB2
 70
     6
  9
$SURFTYPE
 70
     6
  9
$SURFU
 70
     6
  9
$SURFV
 70
     6
  9
$UCSNAME
  2

  9
$UCSORG
 10
0.0
 20
0.0
 30
0.0
  9
$UCSXDIR
 10
1.0
 20
0.0
 30
0.0
  9
$UCSYDIR
 10
0.0
 20
1.0
 30
0.0
  9
$PUCSNAME
  2

  9
$PUCSORG
 10
0.0
 20
0.0
 30
0.0
  9
$PUCSXDIR
 10
1.0
 20
0.0
 30
0.0
  9
$PUCSYDIR
 10
0.0
 20
1.0
 30
0.0
  9
$USERI1
 70
     0
  9
$USERI2
 70
     0
  9
$USERI3
 70
     0
  9
$USERI4
 70
     0
  9
$USERI5
 70
     0
  9
$USERR1
 40
0.0
  9
$USERR2
 40
0.0
  9
$USERR3
 40
0.0
  9
$USERR4
 40
0.0
  9
$USERR5
 40
0.0
  9
$WORLDVIEW
 70
     1
  9
$SHADEDGE
 70
     3
  9
$SHADEDIF
 70
    70
  9
$TILEMODE
 70
     1
  9
$MAXACTVP
 70
    64
  9
$PLIMCHECK
 70
     0
  9
$PEXTMIN
 10
1.000000E+20
 20
1.000000E+20
 30
0.0
  9
$PEXTMAX
 10
-1.000000E+20
 20
-1.000000E+20
 30
0.0
  9
$PLIMMIN
 10
0.0
 20
0.0
  9
$PLIMMAX
 10
12.0
 20
9.0
  9
$UNITMODE
 70
     0
  9
$VISRETAIN
 70
     1
  9
$PLINEGEN
 70
     0
  9
$PSLTSCALE
 70
     1
  0
ENDSEC
  0
SECTION
  2
TABLES
  0
TABLE
  2
VPORT
 70
     1
  0
VPORT
  2
*ACTIVE
 70
     0
 10
0.0
 20
0.0
 11
1.0
 21
1.0
 12
760.916443
 22
283.17981
 13
0.0
 23
0.0
 14
1.0
 24
1.0
 15
0.0
 25
0.0
 16
0.0
 26
0.0
 36
1.0
 17
0.0
 27
0.0
 37
0.0
 40
846.694537
 41
1.691288
 42
50.0
 43
0.0
 44
0.0
 50
0.0
 51
0.0
 71
     0
 72
  1000
 73
     1
 74
     3
 75
     0
 76
     0
 77
     0
 78
     0
  0
ENDTAB
  0
TABLE
  2
LTYPE
 70
     5
  0
LTYPE
  2
CONTINUOUS
 70
     0
  3
Solid line
 72
    65
 73
     0
 40
0.0
  0
LTYPE
  2
DASHED
 70
     0
  3
DASHED
 72
    83
 73
     2
 40
0.75
 49
0.5
 49
-0.25
  0
LTYPE
  2
HIDDEN
 70
     0
  3
HIDDEN
 72
    83
 73
     2
 40
0.375
 49
0.25
 49
-0.125
  0
LTYPE
  2
CENTER
 70
     0
  3
CENTER
 72
    83
 73
     4
 40
2.0
 49
1.25
 49
-0.25
 49
0.25
 49
-0.25
  0
LTYPE
  2
PHANTOM
 70
     0
  3
PHANTOM
 72
    83
 73
     6
 40
2.5
 49
1.25
 49
-0.25
 49
0.25
 49
-0.25
 49
0.25
 49
-0.25
  0
ENDTAB
  0
TABLE
  2
LAYER
 70
     4
  0
LAYER
  2
0
 70
     0
 62
     7
  6
CONTINUOUS
  0
LAYER
  2
001
 70
     0
 62
     7
  6
CONTINUOUS
  0
LAYER
  2
002
 70
     0
 62
     7
  6
CONTINUOUS
  0
LAYER
  2
003
 70
     0
 62
     7
  6
CONTINUOUS
  0
ENDTAB
  0
TABLE
  2
STYLE
 70
     2
  0
STYLE
  2
STANDARD
 70
     0
 40
0.0
 41
1.0
 50
0.0
 71
     0
 42
0.2
  3
TXT
  4
BIGFONT
  0
STYLE
  2
TATEGAKI
 70
     4
 40
1.0
 41
1.0
 50
0.0
 71
     0
 42
0.2
  3
TXT
  4
BIGFONT
  0
ENDTAB
  0
TABLE
  2
VIEW
 70
     0
  0
ENDTAB
  0
TABLE
  2
UCS
 70
     0
  0
ENDTAB
  0
TABLE
  2
APPID
 70
     1
  0
APPID
  2
ACAD
 70
     0
  0
ENDTAB
  0
TABLE
  2
DIMSTYLE
 70
     2
  0
DIMSTYLE
  2
ISO-25
 70
     0
  3

  4

  5

  6

  7

 40
1.0
 41
2.5
 42
0.625
 43
3.75
 44
1.25
 45
0.0
 46
0.0
 47
0.0
 48
0.0
140
2.5
141
2.5
142
0.0
143
0.03937
144
1.0
145
0.0
146
1.0
147
0.625
 71
     0
 72
     0
 73
     0
 74
     0
 75
     0
 76
     0
 77
     1
 78
     8
170
     0
171
     3
172
     1
173
     0
174
     0
175
     0
176
     0
177
     0
178
     0
  0
DIMSTYLE
  2
STANDARD
 70
     0
  3

  4

  5

  6

  7

 40
1.0
 41
3.0
 42
0.5
 43
0.38
 44
0.7
 45
0.0
 46
0.0
 47
0.0
 48
0.0
140
4.0
141
0.09
142
0.0
143
25.4
144
1.0
145
0.0
146
0.65
147
1.0
 71
     0
 72
     0
 73
     0
 74
     0
 75
     0
 76
     0
 77
     1
 78
     8
170
     0
171
     2
172
     1
173
     0
174
     0
175
     0
176
     0
177
     0
178
     0
  0
ENDTAB
  0
ENDSEC
  0
SECTION
  2
BLOCKS
  0
BLOCK
  8
0
  2
$MODEL_SPACE
 70
     0
 10
0.0
 20
0.0
 30
0.0
  3
$MODEL_SPACE
  1

  0
ENDBLK
  5
21
  8
0
  0
BLOCK
 67
     1
  8
0
  2
$PAPER_SPACE
 70
     0
 10
0.0
 20
0.0
 30
0.0
  3
$PAPER_SPACE
  1

  0
ENDBLK
  5
1D
 67
     1
  8
0
  0
BLOCK
  8
0
  2
JZB-1
 70
     0
 10
0.0
 20
0.0
 30
0.0
  3
JZB-1
  1

  0
CIRCLE
  5
4B
  8
003
 62
     3
 10
213.376083
 20
581.242682
 30
0.0
 40
3.5
  0
ENDBLK
  5
4A
  8
0
  0
BLOCK
  8
0
  2
JZB-2
 70
     0
 10
0.0
 20
0.0
 30
0.0
  3
JZB-2
  1

  0
CIRCLE
  5
4F
  8
003
 62
     3
 10
213.376083
 20
531.242682
 30
0.0
 40
3.5
  0
ENDBLK
  5
4E
  8
0
  0
BLOCK
  8
0
  2
JZB-3
 70
     0
 10
0.0
 20
0.0
 30
0.0
  3
JZB-3
  1

  0
CIRCLE
  5
53
  8
003
 62
     3
 10
288.376083
 20
581.242682
 30
0.0
 40
3.5
  0
ENDBLK
  5
52
  8
0
  0
BLOCK
  8
0
  2
JZB-4
 70
     0
 10
0.0
 20
0.0
 30
0.0
  3
JZB-4
  1

  0
CIRCLE
  5
57
  8
003
 62
     3
 10
288.376083
 20
531.242682
 30
0.0
 40
3.5
  0
ENDBLK
  5
56
  8
0
  0
BLOCK
  8
0
  2
JZB-5
 70
     0
 10
0.0
 20
0.0
 30
0.0
  3
JZB-5
  1

  0
LINE
  5
5B
  8
002
 62
     3
 10
279.376083
 20
550.742682
 30
0.0
 11
283.376083
 21
561.742682
 31
0.0
  0
LINE
  5
5C
  8
002
 62
     3
 10
282.709417
 20
561.076015
 30
0.0
 11
278.709417
 21
554.409348
 31
0.0
  0
LINE
  5
5D
  8
002
 62
     3
 10
283.376083
 20
561.742682
 30
0.0
 11
276.04275
 21
561.742682
 31
0.0
  0
LINE
  5
5E
  8
002
 62
     3
 10
279.376083
 20
561.076015
 30
0.0
 11
282.709417
 21
561.076015
 31
0.0
  0
LINE
  5
5F
  8
002
 62
     3
 10
278.709417
 20
556.409348
 30
0.0
 11
279.376083
 21
561.076015
 31
0.0
  0
LINE
  5
60
  8
002
 62
     3
 10
277.376083
 20
556.409348
 30
0.0
 11
278.709417
 21
556.409348
 31
0.0
  0
LINE
  5
61
  8
002
 62
     3
 10
276.04275
 20
561.742682
 30
0.0
 11
277.376083
 21
556.409348
 31
0.0
  0
LINE
  5
62
  8
002
 62
     3
 10
276.04275
 20
554.409348
 30
0.0
 11
271.376083
 21
561.742682
 31
0.0
  0
LINE
  5
63
  8
002
 62
     3
 10
278.709417
 20
554.409348
 30
0.0
 11
276.04275
 21
554.409348
 31
0.0
  0
LINE
  5
64
  8
002
 62
     3
 10
271.376083
 20
561.742682
 30
0.0
 11
275.376083
 21
550.742682
 31
0.0
  0
LINE
  5
65
  8
002
 62
     3
 10
275.376083
 20
550.742682
 30
0.0
 11
279.376083
 21
550.742682
 31
0.0
  0
ENDBLK
  5
5A
  8
0
  0
BLOCK
  8
0
  2
JZB-6
 70
     0
 10
0.0
 20
0.0
 30
0.0
  3
JZB-6
  1

  0
CIRCLE
  5
69
  8
003
 62
     3
 10
1034.150424
 20
467.950766
 30
0.0
 40
3.5
  0
ENDBLK
  5
68
  8
0
  0
BLOCK
  8
0
  2
JZB-7
 70
     0
 10
0.0
 20
0.0
 30
0.0
  3
JZB-7
  1

  0
CIRCLE
  5
6D
  8
003
 62
     3
 10
1034.150424
 20
417.950766
 30
0.0
 40
3.5
  0
ENDBLK
  5
6C
  8
0
  0
BLOCK
  8
0
  2
JZB-8
 70
     0
 10
0.0
 20
0.0
 30
0.0
  3
JZB-8
  1

  0
CIRCLE
  5
71
  8
003
 62
     3
 10
1109.150424
 20
467.950766
 30
0.0
 40
3.5
  0
ENDBLK
  5
70
  8
0
  0
BLOCK
  8
0
  2
JZB-9
 70
     0
 10
0.0
 20
0.0
 30
0.0
  3
JZB-9
  1

  0
CIRCLE
  5
75
  8
003
 62
     3
 10
1109.150424
 20
417.950766
 30
0.0
 40
3.5
  0
ENDBLK
  5
74
  8
0
  0
BLOCK
  8
0
  2
JZB-10
 70
     0
 10
0.0
 20
0.0
 30
0.0
  3
JZB-10
  1

  0
LINE
  5
79
  8
002
  6
CENTER
 62
    40
 10
1098.150424
 20
437.113968
 30
0.0
 11
1098.150424
 21
448.787564
 31
0.0
  0
ENDBLK
  5
78
  8
0
  0
ENDSEC
  0
SECTION
  2
ENTITIES
  0
INSERT
  5
7A
  8
003
  6
BYBLOCK
 62
     0
  2
JZB-1
 10
0.0
 20
0.0
 30
0.0
  0
INSERT
  5
7B
  8
003
  6
BYBLOCK
 62
     0
  2
JZB-2
 10
0.0
 20
0.0
 30
0.0
  0
INSERT
  5
7C
  8
003
  6
BYBLOCK
 62
     0
  2
JZB-3
 10
0.0
 20
0.0
 30
0.0
  0
INSERT
  5
7D
  8
003
  6
BYBLOCK
 62
     0
  2
JZB-4
 10
0.0
 20
0.0
 30
0.0
  0
INSERT
  5
7E
  8
002
  6
BYBLOCK
 62
     0
  2
JZB-5
 10
0.0
 20
0.0
 30
0.0
  0
INSERT
  5
7F
  8
003
  6
BYBLOCK
 62
     0
  2
JZB-6
 10
0.0
 20
0.0
 30
0.0
  0
INSERT
  5
80
  8
003
  6
BYBLOCK
 62
     0
  2
JZB-7
 10
0.0
 20
0.0
 30
0.0
  0
INSERT
  5
81
  8
003
  6
BYBLOCK
 62
     0
  2
JZB-8
 10
0.0
 20
0.0
 30
0.0
  0
INSERT
  5
82
  8
003
  6
BYBLOCK
 62
     0
  2
JZB-9
 10
0.0
 20
0.0
 30
0.0
  0
INSERT
  5
83
  8
002
  6
BYBLOCK
 62
     0
  2
JZB-10
 10
0.0
 20
0.0
 30
0.0
  0
CIRCLE
  5
84
  8
002
 62
     3
 10
266.376083
 20
463.164235
 30
0.0
 40
6.0
  0
LINE
  5
85
  8
002
 62
     3
 10
263.059383
 20
468.164235
 30
0.0
 11
269.692683
 21
468.164235
 31
0.0
  0
LINE
  5
86
  8
002
  6
CENTER
 62
    40
 10
266.376083
 20
472.317335
 30
0.0
 11
266.376083
 21
453.019835
 31
0.0
  0
LINE
  5
87
  8
002
  6
CENTER
 62
    40
 10
257.224283
 20
463.164235
 30
0.0
 11
275.535683
 21
463.164235
 31
0.0
  0
LINE
  5
88
  8
002
  6
CENTER
 62
    40
 10
238.376083
 20
520.242682
 30
0.0
 11
238.376083
 21
592.242682
 31
0.0
  0
LINE
  5
89
  8
002
 62
     3
 10
262.876083
 20
68.898978
 30
0.0
 11
262.876083
 21
53.698978
 31
0.0
  0
LINE
  5
8A
  8
002
 62
     3
 10
262.876083
 20
53.698978
 30
0.0
 11
213.876083
 21
53.698978
 31
0.0
  0
LINE
  5
8B
  8
002
 62
     3
 10
213.876083
 20
53.698978
 30
0.0
 11
213.876083
 21
68.898978
 31
0.0
  0
LINE
  5
8C
  8
002
 62
     3
 10
213.876083
 20
56.898978
 30
0.0
 11
262.876083
 21
56.898978
 31
0.0
  0
LINE
  5
8D
  8
002
 62
     3
 10
248.376083
 20
123.898978
 30
0.0
 11
248.376083
 21
126.098978
 31
0.0
  0
LINE
  5
8E
  8
002
 62
     3
 10
248.376083
 20
126.098978
 30
0.0
 11
228.376083
 21
126.098978
 31
0.0
  0
LINE
  5
8F
  8
002
 62
     3
 10
228.376083
 20
126.098978
 30
0.0
 11
228.376083
 21
123.898978
 31
0.0
  0
LINE
  5
90
  8
002
  6
CENTER
 62
    40
 10
301.388983
 20
96.398978
 30
0.0
 11
198.949383
 21
96.398978
 31
0.0
  0
LINE
  5
91
  8
002
  6
CENTER
 62
    40
 10
247.751083
 20
72.031371
 30
0.0
 11
247.751083
 21
51.519078
 31
0.0
  0
LINE
  5
92
  8
002
  6
CENTER
 62
    40
 10
219.626083
 20
51.519078
 30
0.0
 11
219.626083
 21
71.889052
 31
0.0
  0
LINE
  5
93
  8
002
  6
CENTER
 62
    40
 10
238.376083
 20
40.422978
 30
0.0
 11
238.376083
 21
313.138892
 31
0.0
  0
LINE
  5
94
  8
002
 62
     3
 10
1049.150424
 20
232.955496
 30
0.0
 11
1069.150524
 21
232.955496
 31
0.0
  0
LINE
  5
95
  8
002
 62
     3
 10
1069.150524
 20
232.955496
 30
0.0
 11
1069.150524
 21
235.155496
 31
0.0
  0
LINE
  5
96
  8
002
 62
     3
 10
1049.150424
 20
232.955496
 30
0.0
 11
1049.150424
 21
235.155496
 31
0.0
  0
LINE
  5
97
  8
002
 62
     3
 10
1083.650524
 20
290.155496
 30
0.0
 11
1083.650524
 21
305.355496
 31
0.0
  0
LINE
  5
98
  8
002
 62
     3
 10
1083.650524
 20
305.355496
 30
0.0
 11
1034.650424
 21
305.355496
 31
0.0
  0
LINE
  5
99
  8
002
 62
     3
 10
1034.650424
 20
305.355496
 30
0.0
 11
1034.650424
 21
290.155496
 31
0.0
  0
LINE
  5
9A
  8
002
 62
     3
 10
1034.650424
 20
302.155496
 30
0.0
 11
1083.650524
 21
302.155496
 31
0.0
  0
LINE
  5
9B
  8
002
  6
CENTER
 62
    40
 10
1122.163424
 20
262.655496
 30
0.0
 11
1019.723424
 21
262.655496
 31
0.0
  0
LINE
  5
9C
  8
002
  6
CENTER
 62
    40
 10
1068.525524
 20
308.444096
 30
0.0
 11
1068.525524
 21
286.229575
 31
0.0
  0
LINE
  5
9D
  8
002
  6
CENTER
 62
    40
 10
1040.400424
 20
287.241125
 30
0.0
 11
1040.400424
 21
308.444096
 31
0.0
  0
POLYLINE
  5
9E
  8
002
 62
     3
 66
     1
 10
0.0
 20
0.0
 30
0.0
  0
VERTEX
  5
A0
  8
002
 62
     3
 10
230.376083
 20
166.790463
 30
0.0
  0
VERTEX
  5
A1
  8
002
 62
     3
 10
232.376083
 20
164.040463
 30
0.0
  0
VERTEX
  5
A2
  8
002
 62
     3
 10
234.376083
 20
162.790463
 30
0.0
  0
VERTEX
  5
A3
  8
002
 62
     3
 10
236.376083
 20
164.040463
 30
0.0
  0
VERTEX
  5
A4
  8
002
 62
     3
 10
238.376083
 20
166.790463
 30
0.0
  0
VERTEX
  5
A5
  8
002
 62
     3
 10
240.376083
 20
169.540463
 30
0.0
  0
VERTEX
  5
A6
  8
002
 62
     3
 10
242.376083
 20
170.790463
 30
0.0
  0
VERTEX
  5
A7
  8
002
 62
     3
 10
244.376083
 20
169.540463
 30
0.0
  0
VERTEX
  5
A8
  8
002
 62
     3
 10
246.376083
 20
166.790463
 30
0.0
  0
SEQEND
  5
9F
  8
002
 62
     3
  0
POLYLINE
  5
A9
  8
002
 62
     3
 66
     1
 10
0.0
 20
0.0
 30
0.0
  0
VERTEX
  5
AB
  8
002
 62
     3
 10
230.376083
 20
174.790463
 30
0.0
  0
VERTEX
  5
AC
  8
002
 62
     3
 10
232.376083
 20
172.040463
 30
0.0
  0
VERTEX
  5
AD
  8
002
 62
     3
 10
234.376083
 20
170.790463
 30
0.0
  0
VERTEX
  5
AE
  8
002
 62
     3
 10
236.376083
 20
172.040463
 30
0.0
  0
VERTEX
  5
AF
  8
002
 62
     3
 10
238.376083
 20
174.790463
 30
0.0
  0
VERTEX
  5
B0
  8
002
 62
     3
 10
240.376083
 20
177.540463
 30
0.0
  0
VERTEX
  5
B1
  8
002
 62
     3
 10
242.376083
 20
178.790463
 30
0.0
  0
VERTEX
  5
B2
  8
002
 62
     3
 10
244.376083
 20
177.540463
 30
0.0
  0
VERTEX
  5
B3
  8
002
 62
     3
 10
246.376083
 20
174.790463
 30
0.0
  0
SEQEND
  5
AA
  8
002
 62
     3
  0
POLYLINE
  5
B4
  8
002
 62
     3
 66
     1
 10
0.0
 20
0.0
 30
0.0
  0
VERTEX
  5
B6
  8
002
 62
     3
 10
1051.150424
 20
172.026484
 30
0.0
  0
VERTEX
  5
B7
  8
002
 62
     3
 10
1053.150424
 20
169.276484
 30
0.0
  0
VERTEX
  5
B8
  8
002
 62
     3
 10
1055.150424
 20
168.026484
 30
0.0
  0
VERTEX
  5
B9
  8
002
 62
     3
 10
1057.150424
 20
169.276484
 30
0.0
  0
VERTEX
  5
BA
  8
002
 62
     3
 10
1059.150424
 20
172.026484
 30
0.0
  0
VERTEX
  5
BB
  8
002
 62
     3
 10
1061.150424
 20
174.776484
 30
0.0
  0
VERTEX
  5
BC
  8
002
 62
     3
 10
1063.150424
 20
176.026484
 30
0.0
  0
VERTEX
  5
BD
  8
002
 62
     3
 10
1065.150424
 20
174.776484
 30
0.0
  0
VERTEX
  5
BE
  8
002
 62
     3
 10
1067.150424
 20
172.026484
 30
0.0
  0
SEQEND
  5
B5
  8
002
 62
     3
  0
POLYLINE
  5
BF
  8
002
 62
     3
 66
     1
 10
0.0
 20
0.0
 30
0.0
  0
VERTEX
  5
C1
  8
002
 62
     3
 10
1051.150424
 20
180.026484
 30
0.0
  0
VERTEX
  5
C2
  8
002
 62
     3
 10
1053.150424
 20
177.276484
 30
0.0
  0
VERTEX
  5
C3
  8
002
 62
     3
 10
1055.150424
 20
176.026484
 30
0.0
  0
VERTEX
  5
C4
  8
002
 62
     3
 10
1057.150424
 20
177.276484
 30
0.0
  0
VERTEX
  5
C5
  8
002
 62
     3
 10
1059.150424
 20
180.026484
 30
0.0
  0
VERTEX
  5
C6
  8
002
 62
     3
 10
1061.150424
 20
182.776484
 30
0.0
  0
VERTEX
  5
C7
  8
002
 62
     3
 10
1063.150424
 20
184.026484
 30
0.0
  0
VERTEX
  5
C8
  8
002
 62
     3
 10
1065.150424
 20
182.776484
 30
0.0
  0
VERTEX
  5
C9
  8
002
 62
     3
 10
1067.150424
 20
180.026484
 30
0.0
  0
SEQEND
  5
C0
  8
002
 62
     3
  0
LINE
  5
CA
  8
002
 62
     3
 10
246.376083
 20
216.898978
 30
0.0
 11
246.376083
 21
174.790463
 31
0.0
  0
LINE
  5
CB
  8
002
 62
     3
 10
246.376083
 20
166.790463
 30
0.0
 11
246.376083
 21
126.098978
 31
0.0
  0
LINE
  5
CC
  8
002
 62
    40
 10
245.126083
 20
216.898978
 30
0.0
 11
245.126083
 21
176.604428
 31
0.0
  0
LINE
  5
CD
  8
002
 62
    40
 10
245.126083
 20
168.604428
 30
0.0
 11
245.126083
 21
126.098978
 31
0.0
  0
LINE
  5
CE
  8
002
 62
    40
 10
231.626083
 20
216.898978
 30
0.0
 11
231.626083
 21
172.976498
 31
0.0
  0
LINE
  5
CF
  8
002
 62
    40
 10
231.626083
 20
164.976498
 30
0.0
 11
231.626083
 21
126.098978
 31
0.0
  0
LINE
  5
D0
  8
002
 62
     3
 10
230.376083
 20
216.898978
 30
0.0
 11
230.376083
 21
174.790463
 31
0.0
  0
LINE
  5
D1
  8
002
 62
     3
 10
230.376083
 20
166.790463
 30
0.0
 11
230.376083
 21
126.098978
 31
0.0
  0
LINE
  5
D2
  8
002
 62
    40
 10
1065.900524
 20
181.840314
 30
0.0
 11
1065.900524
 21
232.955496
 31
0.0
  0
LINE
  5
D3
  8
002
 62
     3
 10
1067.150524
 20
180.026334
 30
0.0
 11
1067.150524
 21
232.955496
 31
0.0
  0
LINE
  5
D4
  8
002
 62
    40
 10
1052.400424
 20
178.21252
 30
0.0
 11
1052.400424
 21
232.955496
 31
0.0
  0
LINE
  5
D5
  8
002
 62
     3
 10
1051.150424
 20
180.026484
 30
0.0
 11
1051.150424
 21
232.955496
 31
0.0
  0
LINE
  5
D6
  8
003
  6
CENTER
 62
    40
 10
446.615183
 20
96.398978
 30
0.0
 11
321.388983
 21
96.398978
 31
0.0
  0
LINE
  5
D7
  8
003
  6
CENTER
 62
    40
 10
178.949383
 20
96.398978
 30
0.0
 11
52.003443
 21
96.398978
 31
0.0
  0
LINE
  5
D8
  8
002
 62
     3
 10
139.624083
 20
68.898978
 30
0.0
 11
139.624083
 21
53.698978
 31
0.0
  0
LINE
  5
D9
  8
002
 62
     3
 10
139.624083
 20
53.698978
 30
0.0
 11
90.624083
 21
53.698978
 31
0.0
  0
LINE
  5
DA
  8
002
 62
     3
 10
90.624083
 20
53.698978
 30
0.0
 11
90.624083
 21
68.898978
 31
0.0
  0
LINE
  5
DB
  8
002
 62
     3
 10
90.624083
 20
56.898978
 30
0.0
 11
139.624083
 21
56.898978
 31
0.0
  0
LINE
  5
DC
  8
002
 62
     3
 10
409.456883
 20
68.898978
 30
0.0
 11
409.456883
 21
53.698978
 31
0.0
  0
LINE
  5
DD
  8
002
 62
     3
 10
409.456883
 20
53.698978
 30
0.0
 11
360.456883
 21
53.698978
 31
0.0
  0
LINE
  5
DE
  8
002
 62
     3
 10
360.456883
 20
53.698978
 30
0.0
 11
360.456883
 21
68.898978
 31
0.0
  0
LINE
  5
DF
  8
002
 62
     3
 10
360.456883
 20
56.898978
 30
0.0
 11
409.456883
 21
56.898978
 31
0.0
  0
LINE
  5
E0
  8
003
  6
CENTER
 62
    40
 10
384.956883
 20
40.422978
 30
0.0
 11
384.956883
 21
308.898978
 31
0.0
  0
LINE
  5
E1
  8
003
  6
CENTER
 62
    40
 10
115.124083
 20
40.422978
 30
0.0
 11
115.124083
 21
313.138892
 31
0.0
  0
LINE
  5
E2
  8
002
 62
     3
 10
123.124083
 20
216.898978
 30
0.0
 11
123.124083
 21
174.790463
 31
0.0
  0
LINE
  5
E3
  8
002
 62
     3
 10
123.124083
 20
166.790463
 30
0.0
 11
123.124083
 21
126.098978
 31
0.0
  0
LINE
  5
E4
  8
002
 62
    40
 10
121.874083
 20
216.898978
 30
0.0
 11
121.874083
 21
176.604428
 31
0.0
  0
LINE
  5
E5
  8
002
 62
    40
 10
121.874083
 20
168.604428
 30
0.0
 11
121.874083
 21
126.098978
 31
0.0
  0
LINE
  5
E6
  8
002
 62
    40
 10
108.374083
 20
216.898978
 30
0.0
 11
108.374083
 21
172.976498
 31
0.0
  0
LINE
  5
E7
  8
002
 62
    40
 10
108.374083
 20
164.976498
 30
0.0
 11
108.374083
 21
126.098978
 31
0.0
  0
LINE
  5
E8
  8
002
 62
     3
 10
107.124083
 20
216.898978
 30
0.0
 11
107.124083
 21
174.790463
 31
0.0
  0
LINE
  5
E9
  8
002
 62
     3
 10
107.124083
 20
166.790463
 30
0.0
 11
107.124083
 21
126.098978
 31
0.0
  0
POLYLINE
  5
EA
  8
002
 62
     3
 66
     1
 10
0.0
 20
0.0
 30
0.0
  0
VERTEX
  5
EC
  8
002
 62
     3
 10
107.124083
 20
166.790463
 30
0.0
  0
VERTEX
  5
ED
  8
002
 62
     3
 10
109.124083
 20
164.040463
 30
0.0
  0
VERTEX
  5
EE
  8
002
 62
     3
 10
111.124083
 20
162.790463
 30
0.0
  0
VERTEX
  5
EF
  8
002
 62
     3
 10
113.124083
 20
164.040463
 30
0.0
  0
VERTEX
  5
F0
  8
002
 62
     3
 10
115.124083
 20
166.790463
 30
0.0
  0
VERTEX
  5
F1
  8
002
 62
     3
 10
117.124083
 20
169.540463
 30
0.0
  0
VERTEX
  5
F2
  8
002
 62
     3
 10
119.124083
 20
170.790463
 30
0.0
  0
VERTEX
  5
F3
  8
002
 62
     3
 10
121.124083
 20
169.540463
 30
0.0
  0
VERTEX
  5
F4
  8
002
 62
     3
 10
123.124083
 20
166.790463
 30
0.0
  0
SEQEND
  5
EB
  8
002
 62
     3
  0
POLYLINE
  5
F5
  8
002
 62
     3
 66
     1
 10
0.0
 20
0.0
 30
0.0
  0
VERTEX
  5
F7
  8
002
 62
     3
 10
107.124083
 20
174.790463
 30
0.0
  0
VERTEX
  5
F8
  8
002
 62
     3
 10
109.124083
 20
172.040463
 30
0.0
  0
VERTEX
  5
F9
  8
002
 62
     3
 10
111.124083
 20
170.790463
 30
0.0
  0
VERTEX
  5
FA
  8
002
 62
     3
 10
113.124083
 20
172.040463
 30
0.0
  0
VERTEX
  5
FB
  8
002
 62
     3
 10
115.124083
 20
174.790463
 30
0.0
  0
VERTEX
  5
FC
  8
002
 62
     3
 10
117.124083
 20
177.540463
 30
0.0
  0
VERTEX
  5
FD
  8
002
 62
     3
 10
119.124083
 20
178.790463
 30
0.0
  0
VERTEX
  5
FE
  8
002
 62
     3
 10
121.124083
 20
177.540463
 30
0.0
  0
VERTEX
  5
FF
  8
002
 62
     3
 10
123.124083
 20
174.790463
 30
0.0
  0
SEQEND
  5
F6
  8
002
 62
     3
  0
LINE
  5
100
  8
002
 62
     3
 10
392.956883
 20
216.898978
 30
0.0
 11
392.956883
 21
174.790463
 31
0.0
  0
LINE
  5
101
  8
002
 62
     3
 10
392.956883
 20
166.790463
 30
0.0
 11
392.956883
 21
126.098978
 31
0.0
  0
LINE
  5
102
  8
002
 62
    40
 10
391.706883
 20
216.898978
 30
0.0
 11
391.706883
 21
176.604428
 31
0.0
  0
LINE
  5
103
  8
002
 62
    40
 10
391.706883
 20
168.604428
 30
0.0
 11
391.706883
 21
126.098978
 31
0.0
  0
LINE
  5
104
  8
002
 62
    40
 10
378.206883
 20
216.898978
 30
0.0
 11
378.206883
 21
172.976498
 31
0.0
  0
LINE
  5
105
  8
002
 62
    40
 10
378.206883
 20
164.976498
 30
0.0
 11
378.206883
 21
126.098978
 31
0.0
  0
LINE
  5
106
  8
002
 62
     3
 10
376.956883
 20
216.898978
 30
0.0
 11
376.956883
 21
174.790463
 31
0.0
  0
LINE
  5
107
  8
002
 62
     3
 10
376.956883
 20
166.790463
 30
0.0
 11
376.956883
 21
126.098978
 31
0.0
  0
POLYLINE
  5
108
  8
002
 62
     3
 66
     1
 10
0.0
 20
0.0
 30
0.0
  0
VERTEX
  5
10A
  8
002
 62
     3
 10
376.956883
 20
166.790463
 30
0.0
  0
VERTEX
  5
10B
  8
002
 62
     3
 10
378.956883
 20
164.040463
 30
0.0
  0
VERTEX
  5
10C
  8
002
 62
     3
 10
380.956883
 20
162.790463
 30
0.0
  0
VERTEX
  5
10D
  8
002
 62
     3
 10
382.956883
 20
164.040463
 30
0.0
  0
VERTEX
  5
10E
  8
002
 62
     3
 10
384.956883
 20
166.790463
 30
0.0
  0
VERTEX
  5
10F
  8
002
 62
     3
 10
386.956883
 20
169.540463
 30
0.0
  0
VERTEX
  5
110
  8
002
 62
     3
 10
388.956883
 20
170.790463
 30
0.0
  0
VERTEX
  5
111
  8
002
 62
     3
 10
390.956883
 20
169.540463
 30
0.0
  0
VERTEX
  5
112
  8
002
 62
     3
 10
392.956883
 20
166.790463
 30
0.0
  0
SEQEND
  5
109
  8
002
 62
     3
  0
POLYLINE
  5
113
  8
002
 62
     3
 66
     1
 10
0.0
 20
0.0
 30
0.0
  0
VERTEX
  5
115
  8
002
 62
     3
 10
376.956883
 20
174.790463
 30
0.0
  0
VERTEX
  5
116
  8
002
 62
     3
 10
378.956883
 20
172.040463
 30
0.0
  0
VERTEX
  5
117
  8
002
 62
     3
 10
380.956883
 20
170.790463
 30
0.0
  0
VERTEX
  5
118
  8
002
 62
     3
 10
382.956883
 20
172.040463
 30
0.0
  0
VERTEX
  5
119
  8
002
 62
     3
 10
384.956883
 20
174.790463
 30
0.0
  0
VERTEX
  5
11A
  8
002
 62
     3
 10
386.956883
 20
177.540463
 30
0.0
  0
VERTEX
  5
11B
  8
002
 62
     3
 10
388.956883
 20
178.790463
 30
0.0
  0
VERTEX
  5
11C
  8
002
 62
     3
 10
390.956883
 20
177.540463
 30
0.0
  0
VERTEX
  5
11D
  8
002
 62
     3
 10
392.956883
 20
174.790463
 30
0.0
  0
SEQEND
  5
114
  8
002
 62
     3
  0
LINE
  5
11E
  8
002
 62
     3
 10
125.124083
 20
123.898978
 30
0.0
 11
125.124083
 21
126.098978
 31
0.0
  0
LINE
  5
11F
  8
002
 62
     3
 10
125.124083
 20
126.098978
 30
0.0
 11
105.124083
 21
126.098978
 31
0.0
  0
LINE
  5
120
  8
002
 62
     3
 10
105.124083
 20
126.098978
 30
0.0
 11
105.124083
 21
123.898978
 31
0.0
  0
LINE
  5
121
  8
002
 62
     3
 10
394.956883
 20
123.898978
 30
0.0
 11
394.956883
 21
126.098978
 31
0.0
  0
LINE
  5
122
  8
002
 62
     3
 10
394.956883
 20
126.098978
 30
0.0
 11
374.956883
 21
126.098978
 31
0.0
  0
LINE
  5
123
  8
002
 62
     3
 10
374.956883
 20
126.098978
 30
0.0
 11
374.956883
 21
123.898978
 31
0.0
  0
CIRCLE
  5
124
  8
002
 62
     3
 10
1059.150424
 20
442.950766
 30
0.0
 40
25.0
  0
CIRCLE
  5
125
  8
002
  6
CENTER
 62
    40
 10
1059.150424
 20
442.950766
 30
0.0
 40
18.75
  0
LINE
  5
126
  8
002
  6
CENTER
 62
    40
 10
1065.650424
 20
454.209066
 30
0.0
 11
1071.650424
 21
464.601366
 31
0.0
  0
LINE
  5
127
  8
002
  6
CENTER
 62
    40
 10
1071.650424
 20
421.300066
 30
0.0
 11
1065.650424
 21
431.692366
 31
0.0
  0
CIRCLE
  5
128
  8
002
 62
     3
 10
1087.150424
 20
349.872319
 30
0.0
 40
6.0
  0
LINE
  5
129
  8
002
 62
     3
 10
1083.833724
 20
354.872319
 30
0.0
 11
1090.467024
 21
354.872319
 31
0.0
  0
LINE
  5
12A
  8
002
  6
CENTER
 62
    40
 10
1087.150424
 20
359.025419
 30
0.0
 11
1087.150424
 21
339.727919
 31
0.0
  0
LINE
  5
12B
  8
002
  6
CENTER
 62
    40
 10
1077.998624
 20
349.872319
 30
0.0
 11
1096.310024
 21
349.872319
 31
0.0
  0
LINE
  5
12C
  8
003
  6
CENTER
 62
    40
 10
1267.389524
 20
262.655496
 30
0.0
 11
1142.163324
 21
262.655496
 31
0.0
  0
LINE
  5
12D
  8
003
  6
CENTER
 62
    40
 10
999.723724
 20
262.655496
 30
0.0
 11
872.777784
 21
262.655496
 31
0.0
  0
LINE
  5
12E
  8
002
 62
     3
 10
925.898424
 20
232.955496
 30
0.0
 11
945.898524
 21
232.955496
 31
0.0
  0
LINE
  5
12F
  8
002
 62
     3
 10
945.898524
 20
232.955496
 30
0.0
 11
945.898524
 21
235.155496
 31
0.0
  0
LINE
  5
130
  8
002
 62
     3
 10
925.898424
 20
232.955496
 30
0.0
 11
925.898424
 21
235.155496
 31
0.0
  0
LINE
  5
131
  8
002
 62
     3
 10
960.398524
 20
290.155496
 30
0.0
 11
960.398524
 21
305.355496
 31
0.0
  0
LINE
  5
132
  8
002
 62
     3
 10
960.398524
 20
305.355496
 30
0.0
 11
911.398424
 21
305.355496
 31
0.0
  0
LINE
  5
133
  8
002
 62
     3
 10
911.398424
 20
305.355496
 30
0.0
 11
911.398424
 21
290.155496
 31
0.0
  0
LINE
  5
134
  8
002
 62
     3
 10
911.398424
 20
302.155496
 30
0.0
 11
960.398524
 21
302.155496
 31
0.0
  0
POLYLINE
  5
135
  8
002
 62
     3
 66
     1
 10
0.0
 20
0.0
 30
0.0
  0
VERTEX
  5
137
  8
002
 62
     3
 10
927.898424
 20
172.026484
 30
0.0
  0
VERTEX
  5
138
  8
002
 62
     3
 10
929.898424
 20
169.276484
 30
0.0
  0
VERTEX
  5
139
  8
002
 62
     3
 10
931.898424
 20
168.026484
 30
0.0
  0
VERTEX
  5
13A
  8
002
 62
     3
 10
933.898424
 20
169.276484
 30
0.0
  0
VERTEX
  5
13B
  8
002
 62
     3
 10
935.898424
 20
172.026484
 30
0.0
  0
VERTEX
  5
13C
  8
002
 62
     3
 10
937.898424
 20
174.776484
 30
0.0
  0
VERTEX
  5
13D
  8
002
 62
     3
 10
939.898424
 20
176.026484
 30
0.0
  0
VERTEX
  5
13E
  8
002
 62
     3
 10
941.898424
 20
174.776484
 30
0.0
  0
VERTEX
  5
13F
  8
002
 62
     3
 10
943.898424
 20
172.026484
 30
0.0
  0
SEQEND
  5
136
  8
002
 62
     3
  0
POLYLINE
  5
140
  8
002
 62
     3
 66
     1
 10
0.0
 20
0.0
 30
0.0
  0
VERTEX
  5
142
  8
002
 62
     3
 10
927.898424
 20
180.026484
 30
0.0
  0
VERTEX
  5
143
  8
002
 62
     3
 10
929.898424
 20
177.276484
 30
0.0
  0
VERTEX
  5
144
  8
002
 62
     3
 10
931.898424
 20
176.026484
 30
0.0
  0
VERTEX
  5
145
  8
002
 62
     3
 10
933.898424
 20
177.276484
 30
0.0
  0
VERTEX
  5
146
  8
002
 62
     3
 10
935.898424
 20
180.026484
 30
0.0
  0
VERTEX
  5
147
  8
002
 62
     3
 10
937.898424
 20
182.776484
 30
0.0
  0
VERTEX
  5
148
  8
002
 62
     3
 10
939.898424
 20
184.026484
 30
0.0
  0
VERTEX
  5
149
  8
002
 62
     3
 10
941.898424
 20
182.776484
 30
0.0
  0
VERTEX
  5
14A
  8
002
 62
     3
 10
943.898424
 20
180.026484
 30
0.0
  0
SEQEND
  5
141
  8
002
 62
     3
  0
LINE
  5
14B
  8
002
 62
    40
 10
942.648524
 20
181.840314
 30
0.0
 11
942.648524
 21
232.955496
 31
0.0
  0
LINE
  5
14C
  8
002
 62
     3
 10
943.898524
 20
180.026334
 30
0.0
 11
943.898524
 21
232.955496
 31
0.0
  0
LINE
  5
14D
  8
002
 62
    40
 10
929.148424
 20
178.21252
 30
0.0
 11
929.148424
 21
232.955496
 31
0.0
  0
LINE
  5
14E
  8
002
 62
     3
 10
927.898424
 20
180.026484
 30
0.0
 11
927.898424
 21
232.955496
 31
0.0
  0
LINE
  5
14F
  8
002
 62
     3
 10
1195.731224
 20
232.955496
 30
0.0
 11
1215.731324
 21
232.955496
 31
0.0
  0
LINE
  5
150
  8
002
 62
     3
 10
1215.731324
 20
232.955496
 30
0.0
 11
1215.731324
 21
235.155496
 31
0.0
  0
LINE
  5
151
  8
002
 62
     3
 10
1195.731224
 20
232.955496
 30
0.0
 11
1195.731224
 21
235.155496
 31
0.0
  0
LINE
  5
152
  8
002
 62
     3
 10
1230.231324
 20
290.155496
 30
0.0
 11
1230.231324
 21
305.355496
 31
0.0
  0
LINE
  5
153
  8
002
 62
     3
 10
1230.231324
 20
305.355496
 30
0.0
 11
1181.231224
 21
305.355496
 31
0.0
  0
LINE
  5
154
  8
002
 62
     3
 10
1181.231224
 20
305.355496
 30
0.0
 11
1181.231224
 21
290.155496
 31
0.0
  0
LINE
  5
155
  8
002
 62
     3
 10
1181.231224
 20
302.155496
 30
0.0
 11
1230.231324
 21
302.155496
 31
0.0
  0
POLYLINE
  5
156
  8
002
 62
     3
 66
     1
 10
0.0
 20
0.0
 30
0.0
  0
VERTEX
  5
158
  8
002
 62
     3
 10
1197.731224
 20
172.026484
 30
0.0
  0
VERTEX
  5
159
  8
002
 62
     3
 10
1199.731224
 20
169.276484
 30
0.0
  0
VERTEX
  5
15A
  8
002
 62
     3
 10
1201.731224
 20
168.026484
 30
0.0
  0
VERTEX
  5
15B
  8
002
 62
     3
 10
1203.731224
 20
169.276484
 30
0.0
  0
VERTEX
  5
15C
  8
002
 62
     3
 10
1205.731224
 20
172.026484
 30
0.0
  0
VERTEX
  5
15D
  8
002
 62
     3
 10
1207.731224
 20
174.776484
 30
0.0
  0
VERTEX
  5
15E
  8
002
 62
     3
 10
1209.731224
 20
176.026484
 30
0.0
  0
VERTEX
  5
15F
  8
002
 62
     3
 10
1211.731224
 20
174.776484
 30
0.0
  0
VERTEX
  5
160
  8
002
 62
     3
 10
1213.731224
 20
172.026484
 30
0.0
  0
SEQEND
  5
157
  8
002
 62
     3
  0
POLYLINE
  5
161
  8
002
 62
     3
 66
     1
 10
0.0
 20
0.0
 30
0.0
  0
VERTEX
  5
163
  8
002
 62
     3
 10
1197.731224
 20
180.026484
 30
0.0
  0
VERTEX
  5
164
  8
002
 62
     3
 10
1199.731224
 20
177.276484
 30
0.0
  0
VERTEX
  5
165
  8
002
 62
     3
 10
1201.731224
 20
176.026484
 30
0.0
  0
VERTEX
  5
166
  8
002
 62
     3
 10
1203.731224
 20
177.276484
 30
0.0
  0
VERTEX
  5
167
  8
002
 62
     3
 10
1205.731224
 20
180.026484
 30
0.0
  0
VERTEX
  5
168
  8
002
 62
     3
 10
1207.731224
 20
182.776484
 30
0.0
  0
VERTEX
  5
169
  8
002
 62
     3
 10
1209.731224
 20
184.026484
 30
0.0
  0
VERTEX
  5
16A
  8
002
 62
     3
 10
1211.731224
 20
182.776484
 30
0.0
  0
VERTEX
  5
16B
  8
002
 62
     3
 10
1213.731224
 20
180.026484
 30
0.0
  0
SEQEND
  5
162
  8
002
 62
     3
  0
LINE
  5
16C
  8
002
 62
    40
 10
1212.481324
 20
181.840314
 30
0.0
 11
1212.481324
 21
232.955496
 31
0.0
  0
LINE
  5
16D
  8
002
 62
     3
 10
1213.731324
 20
180.026334
 30
0.0
 11
1213.731324
 21
232.955496
 31
0.0
  0
LINE
  5
16E
  8
002
 62
    40
 10
1198.981224
 20
178.21252
 30
0.0
 11
1198.981224
 21
232.955496
 31
0.0
  0
LINE
  5
16F
  8
002
 62
     3
 10
1197.731224
 20
180.026484
 30
0.0
 11
1197.731224
 21
232.955496
 31
0.0
  0
CIRCLE
  5
170
  8
001
 62
     3
 10
238.376083
 20
374.056892
 30
0.0
 40
25.5
  0
CIRCLE
  5
171
  8
001
  6
CENTER
 62
    40
 10
238.376083
 20
374.056892
 30
0.0
 40
19.0
  0
CIRCLE
  5
172
  8
001
 62
     3
 10
238.376083
 20
355.056892
 30
0.0
 40
3.3
  0
CIRCLE
  5
173
  8
001
 62
     3
 10
219.376083
 20
374.056892
 30
0.0
 40
3.3
  0
CIRCLE
  5
174
  8
001
 62
     3
 10
238.376083
 20
393.056892
 30
0.0
 40
3.3
  0
CIRCLE
  5
175
  8
001
 62
     3
 10
257.376083
 20
374.056892
 30
0.0
 40
3.3
  0
CIRCLE
  5
176
  8
001
 62
     3
 10
238.376083
 20
374.056892
 30
0.0
 40
14.0
  0
LINE
  5
177
  8
002
  6
CENTER
 62
    40
 10
210.084463
 20
374.056892
 30
0.0
 11
266.727683
 21
374.056892
 31
0.0
  0
CIRCLE
  5
178
  8
002
 62
    40
 10
238.376083
 20
374.056892
 30
0.0
 40
6.75
  0
CIRCLE
  5
179
  8
002
 62
     3
 10
238.376083
 20
374.056892
 30
0.0
 40
8.0
  0
LINE
  5
17A
  8
002
  6
CENTER
 62
    40
 10
238.376083
 20
343.138892
 30
0.0
 11
238.376083
 21
404.913592
 31
0.0
  0
LINE
  5
17B
  8
001
 62
     3
 10
212.876083
 20
217.398978
 30
0.0
 11
212.876083
 21
222.398978
 31
0.0
  0
LINE
  5
17C
  8
001
 62
     3
 10
263.876083
 20
217.398978
 30
0.0
 11
263.876083
 21
222.398978
 31
0.0
  0
LINE
  5
17D
  8
001
 62
     3
 10
224.376083
 20
251.398978
 30
0.0
 11
224.876083
 21
251.898978
 31
0.0
  0
LINE
  5
17E
  8
001
 62
     3
 10
251.876083
 20
251.898978
 30
0.0
 11
252.376083
 21
251.398978
 31
0.0
  0
LINE
  5
17F
  8
001
 62
     3
 10
263.376083
 20
222.898978
 30
0.0
 11
263.876083
 21
222.398978
 31
0.0
  0
LINE
  5
180
  8
001
 62
     3
 10
263.376083
 20
216.898978
 30
0.0
 11
263.876083
 21
217.398978
 31
0.0
  0
LINE
  5
181
  8
001
 62
     3
 10
212.876083
 20
217.398978
 30
0.0
 11
213.376083
 21
216.898978
 31
0.0
  0
LINE
  5
182
  8
001
 62
     3
 10
212.876083
 20
222.398978
 30
0.0
 11
213.376083
 21
222.898978
 31
0.0
  0
ARC
  5
183
  8
001
 62
     3
 10
223.876083
 20
223.398978
 30
0.0
 40
0.5
 50
270.0
 51
0.0
  0
ARC
  5
184
  8
001
 62
     3
 10
252.876083
 20
223.398978
 30
0.0
 40
0.5
 50
180.0
 51
270.0
  0
LINE
  5
185
  8
001
  6
CENTER
 62
    40
 10
219.376083
 20
213.898978
 30
0.0
 11
219.376083
 21
225.898978
 31
0.0
  0
LINE
  5
186
  8
001
  6
CENTER
 62
    40
 10
257.376083
 20
213.898978
 30
0.0
 11
257.376083
 21
225.898978
 31
0.0
  0
ARC
  5
187
  8
001
 62
     3
 10
224.376083
 20
237.398978
 30
0.0
 40
0.75
 50
270.0
 51
90.0
  0
LINE
  5
188
  8
001
  6
CENTER
 62
    40
 10
222.975515
 20
237.398978
 30
0.0
 11
252.713671
 21
237.398978
 31
0.0
  0
ARC
  5
189
  8
001
 62
     3
 10
252.376083
 20
237.398978
 30
0.0
 40
0.75
 50
90.0
 51
270.0
  0
LINE
  5
18A
  8
001
 62
     3
 10
224.376083
 20
223.398978
 30
0.0
 11
224.376083
 21
236.648978
 31
0.0
  0
LINE
  5
18B
  8
001
 62
     3
 10
224.376083
 20
238.148978
 30
0.0
 11
224.376083
 21
251.398978
 31
0.0
  0
LINE
  5
18C
  8
001
 62
     3
 10
252.376083
 20
223.398978
 30
0.0
 11
252.376083
 21
236.648978
 31
0.0
  0
LINE
  5
18D
  8
001
 62
     3
 10
252.376083
 20
238.148978
 30
0.0
 11
252.376083
 21
251.398978
 31
0.0
  0
LINE
  5
18E
  8
001
 62
     3
 10
224.376083
 20
236.648978
 30
0.0
 11
252.376083
 21
236.648978
 31
0.0
  0
LINE
  5
18F
  8
001
 62
     3
 10
224.376083
 20
238.148978
 30
0.0
 11
252.376083
 21
238.148978
 31
0.0
  0
LINE
  5
190
  8
001
 62
     3
 10
224.876083
 20
251.898978
 30
0.0
 11
251.876083
 21
251.898978
 31
0.0
  0
LINE
  5
191
  8
001
 62
     3
 10
213.376083
 20
216.898978
 30
0.0
 11
263.376083
 21
216.898978
 31
0.0
  0
LINE
  5
192
  8
001
 62
     3
 10
263.376083
 20
222.898978
 30
0.0
 11
213.376083
 21
222.898978
 31
0.0
  0
LINE
  5
193
  8
002
 62
     3
 10
230.376083
 20
251.898978
 30
0.0
 11
230.376083
 21
287.502396
 31
0.0
  0
LINE
  5
194
  8
002
 62
    40
 10
231.626083
 20
251.898978
 30
0.0
 11
231.626083
 21
287.502396
 31
0.0
  0
LINE
  5
195
  8
002
 62
    40
 10
245.126083
 20
251.898978
 30
0.0
 11
245.126083
 21
287.502396
 31
0.0
  0
LINE
  5
196
  8
002
 62
     3
 10
246.376083
 20
251.898978
 30
0.0
 11
246.376083
 21
287.502396
 31
0.0
  0
LINE
  5
197
  8
002
 62
     3
 10
230.376083
 20
287.502396
 30
0.0
 11
246.376083
 21
287.502396
 31
0.0
  0
LINE
  5
198
  8
002
 62
     3
 10
243.376083
 20
287.502396
 30
0.0
 11
243.376083
 21
303.502396
 31
0.0
  0
LINE
  5
199
  8
002
 62
     3
 10
243.376083
 20
303.502396
 30
0.0
 11
233.376083
 21
303.502396
 31
0.0
  0
LINE
  5
19A
  8
002
 62
     3
 10
233.376083
 20
303.502396
 30
0.0
 11
233.376083
 21
287.502396
 31
0.0
  0
LINE
  5
19B
  8
001
 62
     3
 10
89.624083
 20
217.398978
 30
0.0
 11
89.624083
 21
222.398978
 31
0.0
  0
LINE
  5
19C
  8
001
 62
     3
 10
140.624083
 20
217.398978
 30
0.0
 11
140.624083
 21
222.398978
 31
0.0
  0
LINE
  5
19D
  8
001
 62
     3
 10
101.124083
 20
251.398978
 30
0.0
 11
101.624083
 21
251.898978
 31
0.0
  0
LINE
  5
19E
  8
001
 62
     3
 10
128.624083
 20
251.898978
 30
0.0
 11
129.124083
 21
251.398978
 31
0.0
  0
LINE
  5
19F
  8
001
 62
     3
 10
140.124083
 20
222.898978
 30
0.0
 11
140.624083
 21
222.398978
 31
0.0
  0
LINE
  5
1A0
  8
001
 62
     3
 10
140.124083
 20
216.898978
 30
0.0
 11
140.624083
 21
217.398978
 31
0.0
  0
LINE
  5
1A1
  8
001
 62
     3
 10
89.624083
 20
217.398978
 30
0.0
 11
90.124083
 21
216.898978
 31
0.0
  0
LINE
  5
1A2
  8
001
 62
     3
 10
89.624083
 20
222.398978
 30
0.0
 11
90.124083
 21
222.898978
 31
0.0
  0
ARC
  5
1A3
  8
001
 62
     3
 10
100.624083
 20
223.398978
 30
0.0
 40
0.5
 50
270.0
 51
0.0
  0
ARC
  5
1A4
  8
001
 62
     3
 10
129.624083
 20
223.398978
 30
0.0
 40
0.5
 50
180.0
 51
270.0
  0
LINE
  5
1A5
  8
001
  6
CENTER
 62
    40
 10
96.124083
 20
213.898978
 30
0.0
 11
96.124083
 21
225.898978
 31
0.0
  0
LINE
  5
1A6
  8
001
  6
CENTER
 62
    40
 10
134.124083
 20
213.898978
 30
0.0
 11
134.124083
 21
225.898978
 31
0.0
  0
ARC
  5
1A7
  8
001
 62
     3
 10
101.124083
 20
237.398978
 30
0.0
 40
0.75
 50
270.0
 51
90.0
  0
LINE
  5
1A8
  8
001
  6
CENTER
 62
    40
 10
99.723515
 20
237.398978
 30
0.0
 11
129.461671
 21
237.398978
 31
0.0
  0
ARC
  5
1A9
  8
001
 62
     3
 10
129.124083
 20
237.398978
 30
0.0
 40
0.75
 50
90.0
 51
270.0
  0
LINE
  5
1AA
  8
001
 62
     3
 10
101.124083
 20
223.398978
 30
0.0
 11
101.124083
 21
236.648978
 31
0.0
  0
LINE
  5
1AB
  8
001
 62
     3
 10
101.124083
 20
238.148978
 30
0.0
 11
101.124083
 21
251.398978
 31
0.0
  0
LINE
  5
1AC
  8
001
 62
     3
 10
129.124083
 20
223.398978
 30
0.0
 11
129.124083
 21
236.648978
 31
0.0
  0
LINE
  5
1AD
  8
001
 62
     3
 10
129.124083
 20
238.148978
 30
0.0
 11
129.124083
 21
251.398978
 31
0.0
  0
LINE
  5
1AE
  8
001
 62
     3
 10
101.124083
 20
236.648978
 30
0.0
 11
129.124083
 21
236.648978
 31
0.0
  0
LINE
  5
1AF
  8
001
 62
     3
 10
101.124083
 20
238.148978
 30
0.0
 11
129.124083
 21
238.148978
 31
0.0
  0
LINE
  5
1B0
  8
001
 62
     3
 10
101.624083
 20
251.898978
 30
0.0
 11
128.624083
 21
251.898978
 31
0.0
  0
LINE
  5
1B1
  8
001
 62
     3
 10
90.124083
 20
216.898978
 30
0.0
 11
140.124083
 21
216.898978
 31
0.0
  0
LINE
  5
1B2
  8
001
 62
     3
 10
140.124083
 20
222.898978
 30
0.0
 11
90.124083
 21
222.898978
 31
0.0
  0
LINE
  5
1B3
  8
002
 62
     3
 10
107.124083
 20
251.898978
 30
0.0
 11
107.124083
 21
287.502396
 31
0.0
  0
LINE
  5
1B4
  8
002
 62
    40
 10
108.374083
 20
251.898978
 30
0.0
 11
108.374083
 21
287.502396
 31
0.0
  0
LINE
  5
1B5
  8
002
 62
    40
 10
121.874083
 20
251.898978
 30
0.0
 11
121.874083
 21
287.502396
 31
0.0
  0
LINE
  5
1B6
  8
002
 62
     3
 10
123.124083
 20
251.898978
 30
0.0
 11
123.124083
 21
287.502396
 31
0.0
  0
LINE
  5
1B7
  8
002
 62
     3
 10
107.124083
 20
287.502396
 30
0.0
 11
123.124083
 21
287.502396
 31
0.0
  0
LINE
  5
1B8
  8
002
 62
     3
 10
120.124083
 20
287.502396
 30
0.0
 11
120.124083
 21
303.502396
 31
0.0
  0
LINE
  5
1B9
  8
002
 62
     3
 10
120.124083
 20
303.502396
 30
0.0
 11
110.124083
 21
303.502396
 31
0.0
  0
LINE
  5
1BA
  8
002
 62
     3
 10
110.124083
 20
303.502396
 30
0.0
 11
110.124083
 21
287.502396
 31
0.0
  0
LINE
  5
1BB
  8
001
 62
     3
 10
359.456883
 20
217.398978
 30
0.0
 11
359.456883
 21
222.398978
 31
0.0
  0
LINE
  5
1BC
  8
001
 62
     3
 10
410.456883
 20
217.398978
 30
0.0
 11
410.456883
 21
222.398978
 31
0.0
  0
LINE
  5
1BD
  8
001
 62
     3
 10
370.956883
 20
251.398978
 30
0.0
 11
371.456883
 21
251.898978
 31
0.0
  0
LINE
  5
1BE
  8
001
 62
     3
 10
398.456883
 20
251.898978
 30
0.0
 11
398.956883
 21
251.398978
 31
0.0
  0
LINE
  5
1BF
  8
001
 62
     3
 10
409.956883
 20
222.898978
 30
0.0
 11
410.456883
 21
222.398978
 31
0.0
  0
LINE
  5
1C0
  8
001
 62
     3
 10
409.956883
 20
216.898978
 30
0.0
 11
410.456883
 21
217.398978
 31
0.0
  0
LINE
  5
1C1
  8
001
 62
     3
 10
359.456883
 20
217.398978
 30
0.0
 11
359.956883
 21
216.898978
 31
0.0
  0
LINE
  5
1C2
  8
001
 62
     3
 10
359.456883
 20
222.398978
 30
0.0
 11
359.956883
 21
222.898978
 31
0.0
  0
ARC
  5
1C3
  8
001
 62
     3
 10
370.456883
 20
223.398978
 30
0.0
 40
0.5
 50
270.0
 51
0.0
  0
ARC
  5
1C4
  8
001
 62
     3
 10
399.456883
 20
223.398978
 30
0.0
 40
0.5
 50
180.0
 51
270.0
  0
LINE
  5
1C5
  8
001
  6
CENTER
 62
    40
 10
365.956883
 20
213.898978
 30
0.0
 11
365.956883
 21
225.898978
 31
0.0
  0
LINE
  5
1C6
  8
001
  6
CENTER
 62
    40
 10
403.956883
 20
213.898978
 30
0.0
 11
403.956883
 21
225.898978
 31
0.0
  0
ARC
  5
1C7
  8
001
 62
     3
 10
370.956883
 20
237.398978
 30
0.0
 40
0.75
 50
270.0
 51
90.0
  0
LINE
  5
1C8
  8
001
  6
CENTER
 62
    40
 10
369.556315
 20
237.398978
 30
0.0
 11
399.294471
 21
237.398978
 31
0.0
  0
ARC
  5
1C9
  8
001
 62
     3
 10
398.956883
 20
237.398978
 30
0.0
 40
0.75
 50
90.0
 51
270.0
  0
LINE
  5
1CA
  8
001
 62
     3
 10
370.956883
 20
223.398978
 30
0.0
 11
370.956883
 21
236.648978
 31
0.0
  0
LINE
  5
1CB
  8
001
 62
     3
 10
370.956883
 20
238.148978
 30
0.0
 11
370.956883
 21
251.398978
 31
0.0
  0
LINE
  5
1CC
  8
001
 62
     3
 10
398.956883
 20
223.398978
 30
0.0
 11
398.956883
 21
236.648978
 31
0.0
  0
LINE
  5
1CD
  8
001
 62
     3
 10
398.956883
 20
238.148978
 30
0.0
 11
398.956883
 21
251.398978
 31
0.0
  0
LINE
  5
1CE
  8
001
 62
     3
 10
370.956883
 20
236.648978
 30
0.0
 11
398.956883
 21
236.648978
 31
0.0
  0
LINE
  5
1CF
  8
001
 62
     3
 10
370.956883
 20
238.148978
 30
0.0
 11
398.956883
 21
238.148978
 31
0.0
  0
LINE
  5
1D0
  8
001
 62
     3
 10
371.456883
 20
251.898978
 30
0.0
 11
398.456883
 21
251.898978
 31
0.0
  0
LINE
  5
1D1
  8
001
 62
     3
 10
359.956883
 20
216.898978
 30
0.0
 11
409.956883
 21
216.898978
 31
0.0
  0
LINE
  5
1D2
  8
001
 62
     3
 10
409.956883
 20
222.898978
 30
0.0
 11
359.956883
 21
222.898978
 31
0.0
  0
LINE
  5
1D3
  8
002
 62
     3
 10
376.956883
 20
251.898978
 30
0.0
 11
376.956883
 21
287.502396
 31
0.0
  0
LINE
  5
1D4
  8
002
 62
    40
 10
378.206883
 20
251.898978
 30
0.0
 11
378.206883
 21
287.502396
 31
0.0
  0
LINE
  5
1D5
  8
002
 62
    40
 10
391.706883
 20
251.898978
 30
0.0
 11
391.706883
 21
287.502396
 31
0.0
  0
LINE
  5
1D6
  8
002
 62
     3
 10
392.956883
 20
251.898978
 30
0.0
 11
392.956883
 21
287.502396
 31
0.0
  0
LINE
  5
1D7
  8
002
 62
     3
 10
376.956883
 20
287.502396
 30
0.0
 11
392.956883
 21
287.502396
 31
0.0
  0
LINE
  5
1D8
  8
002
 62
     3
 10
389.956883
 20
287.502396
 30
0.0
 11
389.956883
 21
303.502396
 31
0.0
  0
LINE
  5
1D9
  8
002
 62
     3
 10
389.956883
 20
303.502396
 30
0.0
 11
379.956883
 21
303.502396
 31
0.0
  0
LINE
  5
1DA
  8
002
 62
     3
 10
379.956883
 20
303.502396
 30
0.0
 11
379.956883
 21
287.502396
 31
0.0
  0
LINE
  5
1DB
  8
001
 62
     3
 10
550.541883
 20
256.79556
 30
0.0
 11
550.541883
 21
251.79556
 31
0.0
  0
LINE
  5
1DC
  8
001
 62
     3
 10
601.541883
 20
256.79556
 30
0.0
 11
601.541883
 21
251.79556
 31
0.0
  0
LINE
  5
1DD
  8
001
 62
     3
 10
562.041883
 20
222.79556
 30
0.0
 11
562.541883
 21
222.29556
 31
0.0
  0
LINE
  5
1DE
  8
001
 62
     3
 10
589.541883
 20
222.29556
 30
0.0
 11
590.041883
 21
222.79556
 31
0.0
  0
LINE
  5
1DF
  8
001
 62
     3
 10
601.041883
 20
251.29556
 30
0.0
 11
601.541883
 21
251.79556
 31
0.0
  0
LINE
  5
1E0
  8
001
 62
     3
 10
601.041883
 20
257.29556
 30
0.0
 11
601.541883
 21
256.79556
 31
0.0
  0
LINE
  5
1E1
  8
001
 62
     3
 10
550.541883
 20
256.79556
 30
0.0
 11
551.041883
 21
257.29556
 31
0.0
  0
LINE
  5
1E2
  8
001
 62
     3
 10
550.541883
 20
251.79556
 30
0.0
 11
551.041883
 21
251.29556
 31
0.0
  0
ARC
  5
1E3
  8
001
 62
     3
 10
561.541883
 20
250.79556
 30
0.0
 40
0.5
 50
0.0
 51
90.0
  0
ARC
  5
1E4
  8
001
 62
     3
 10
590.541883
 20
250.79556
 30
0.0
 40
0.5
 50
90.0
 51
180.0
  0
LINE
  5
1E5
  8
001
  6
CENTER
 62
    40
 10
557.041883
 20
260.29556
 30
0.0
 11
557.041883
 21
248.29556
 31
0.0
  0
LINE
  5
1E6
  8
001
  6
CENTER
 62
    40
 10
595.041883
 20
260.29556
 30
0.0
 11
595.041883
 21
248.29556
 31
0.0
  0
ARC
  5
1E7
  8
001
 62
     3
 10
562.041883
 20
236.79556
 30
0.0
 40
0.75
 50
270.0
 51
90.0
  0
LINE
  5
1E8
  8
001
  6
CENTER
 62
    40
 10
560.641315
 20
236.79556
 30
0.0
 11
590.379471
 21
236.79556
 31
0.0
  0
ARC
  5
1E9
  8
001
 62
     3
 10
590.041883
 20
236.79556
 30
0.0
 40
0.75
 50
90.0
 51
270.0
  0
LINE
  5
1EA
  8
001
 62
     3
 10
562.041883
 20
250.79556
 30
0.0
 11
562.041883
 21
237.54556
 31
0.0
  0
LINE
  5
1EB
  8
001
 62
     3
 10
562.041883
 20
236.04556
 30
0.0
 11
562.041883
 21
222.79556
 31
0.0
  0
LINE
  5
1EC
  8
001
 62
     3
 10
590.041883
 20
250.79556
 30
0.0
 11
590.041883
 21
237.54556
 31
0.0
  0
LINE
  5
1ED
  8
001
 62
     3
 10
590.041883
 20
236.04556
 30
0.0
 11
590.041883
 21
222.79556
 31
0.0
  0
LINE
  5
1EE
  8
001
 62
     3
 10
562.041883
 20
237.54556
 30
0.0
 11
590.041883
 21
237.54556
 31
0.0
  0
LINE
  5
1EF
  8
001
 62
     3
 10
562.041883
 20
236.04556
 30
0.0
 11
590.041883
 21
236.04556
 31
0.0
  0
LINE
  5
1F0
  8
001
 62
     3
 10
562.541883
 20
222.29556
 30
0.0
 11
589.541883
 21
222.29556
 31
0.0
  0
LINE
  5
1F1
  8
001
 62
     3
 10
551.041883
 20
257.29556
 30
0.0
 11
601.041883
 21
257.29556
 31
0.0
  0
LINE
  5
1F2
  8
001
 62
     3
 10
601.041883
 20
251.29556
 30
0.0
 11
551.041883
 21
251.29556
 31
0.0
  0
LINE
  5
1F3
  8
002
 62
     3
 10
568.041883
 20
257.29556
 30
0.0
 11
568.041883
 21
292.898978
 31
0.0
  0
LINE
  5
1F4
  8
002
 62
    40
 10
569.291883
 20
257.29556
 30
0.0
 11
569.291883
 21
292.898978
 31
0.0
  0
LINE
  5
1F5
  8
002
 62
    40
 10
582.791883
 20
257.29556
 30
0.0
 11
582.791883
 21
292.898978
 31
0.0
  0
LINE
  5
1F6
  8
002
 62
     3
 10
584.041883
 20
257.29556
 30
0.0
 11
584.041883
 21
292.898978
 31
0.0
  0
LINE
  5
1F7
  8
002
 62
     3
 10
600.541883
 20
68.898978
 30
0.0
 11
600.541883
 21
53.698978
 31
0.0
  0
LINE
  5
1F8
  8
002
 62
     3
 10
600.541883
 20
53.698978
 30
0.0
 11
551.541883
 21
53.698978
 31
0.0
  0
LINE
  5
1F9
  8
002
 62
     3
 10
551.541883
 20
53.698978
 30
0.0
 11
551.541883
 21
68.898978
 31
0.0
  0
LINE
  5
1FA
  8
002
 62
     3
 10
551.541883
 20
56.898978
 30
0.0
 11
600.541883
 21
56.898978
 31
0.0
  0
LINE
  5
1FB
  8
002
 62
     3
 10
586.041883
 20
123.898978
 30
0.0
 11
586.041883
 21
126.098978
 31
0.0
  0
LINE
  5
1FC
  8
002
 62
     3
 10
586.041883
 20
126.098978
 30
0.0
 11
566.041883
 21
126.098978
 31
0.0
  0
LINE
  5
1FD
  8
002
 62
     3
 10
566.041883
 20
126.098978
 30
0.0
 11
566.041883
 21
123.898978
 31
0.0
  0
LINE
  5
1FE
  8
002
 62
     3
 10
568.041883
 20
292.898978
 30
0.0
 11
584.041883
 21
292.898978
 31
0.0
  0
LINE
  5
1FF
  8
002
 62
     3
 10
581.041883
 20
292.898978
 30
0.0
 11
581.041883
 21
308.898978
 31
0.0
  0
LINE
  5
200
  8
002
 62
     3
 10
581.041883
 20
308.898978
 30
0.0
 11
571.041883
 21
308.898978
 31
0.0
  0
LINE
  5
201
  8
002
 62
     3
 10
571.041883
 20
308.898978
 30
0.0
 11
571.041883
 21
292.898978
 31
0.0
  0
LINE
  5
202
  8
002
  6
CENTER
 62
    40
 10
639.054783
 20
96.398978
 30
0.0
 11
536.615183
 21
96.398978
 31
0.0
  0
LINE
  5
203
  8
002
  6
CENTER
 62
    40
 10
585.416883
 20
72.031371
 30
0.0
 11
585.416883
 21
51.519078
 31
0.0
  0
LINE
  5
204
  8
002
  6
CENTER
 62
    40
 10
557.291883
 20
51.519078
 30
0.0
 11
557.291883
 21
71.889052
 31
0.0
  0
POLYLINE
  5
205
  8
002
 62
     3
 66
     1
 10
0.0
 20
0.0
 30
0.0
  0
VERTEX
  5
207
  8
002
 62
     3
 10
568.041883
 20
170.197269
 30
0.0
  0
VERTEX
  5
208
  8
002
 62
     3
 10
570.041883
 20
167.447269
 30
0.0
  0
VERTEX
  5
209
  8
002
 62
     3
 10
572.041883
 20
166.197269
 30
0.0
  0
VERTEX
  5
20A
  8
002
 62
     3
 10
574.041883
 20
167.447269
 30
0.0
  0
VERTEX
  5
20B
  8
002
 62
     3
 10
576.041883
 20
170.197269
 30
0.0
  0
VERTEX
  5
20C
  8
002
 62
     3
 10
578.041883
 20
172.947269
 30
0.0
  0
VERTEX
  5
20D
  8
002
 62
     3
 10
580.041883
 20
174.197269
 30
0.0
  0
VERTEX
  5
20E
  8
002
 62
     3
 10
582.041883
 20
172.947269
 30
0.0
  0
VERTEX
  5
20F
  8
002
 62
     3
 10
584.041883
 20
170.197269
 30
0.0
  0
SEQEND
  5
206
  8
002
 62
     3
  0
POLYLINE
  5
210
  8
002
 62
     3
 66
     1
 10
0.0
 20
0.0
 30
0.0
  0
VERTEX
  5
212
  8
002
 62
     3
 10
568.041883
 20
178.197269
 30
0.0
  0
VERTEX
  5
213
  8
002
 62
     3
 10
570.041883
 20
175.447269
 30
0.0
  0
VERTEX
  5
214
  8
002
 62
     3
 10
572.041883
 20
174.197269
 30
0.0
  0
VERTEX
  5
215
  8
002
 62
     3
 10
574.041883
 20
175.447269
 30
0.0
  0
VERTEX
  5
216
  8
002
 62
     3
 10
576.041883
 20
178.197269
 30
0.0
  0
VERTEX
  5
217
  8
002
 62
     3
 10
578.041883
 20
180.947269
 30
0.0
  0
VERTEX
  5
218
  8
002
 62
     3
 10
580.041883
 20
182.197269
 30
0.0
  0
VERTEX
  5
219
  8
002
 62
     3
 10
582.041883
 20
180.947269
 30
0.0
  0
VERTEX
  5
21A
  8
002
 62
     3
 10
584.041883
 20
178.197269
 30
0.0
  0
SEQEND
  5
211
  8
002
 62
     3
  0
LINE
  5
21B
  8
002
 62
     3
 10
568.041883
 20
222.29556
 30
0.0
 11
568.041883
 21
178.197269
 31
0.0
  0
LINE
  5
21C
  8
002
 62
     3
 10
568.041883
 20
170.197269
 30
0.0
 11
568.041883
 21
126.098978
 31
0.0
  0
LINE
  5
21D
  8
002
 62
    40
 10
569.291883
 20
222.29556
 30
0.0
 11
569.291883
 21
176.383304
 31
0.0
  0
LINE
  5
21E
  8
002
 62
    40
 10
569.291883
 20
168.383304
 30
0.0
 11
569.291883
 21
126.098978
 31
0.0
  0
LINE
  5
21F
  8
002
 62
    40
 10
582.791883
 20
222.29556
 30
0.0
 11
582.791883
 21
180.011234
 31
0.0
  0
LINE
  5
220
  8
002
 62
    40
 10
582.791883
 20
172.011234
 30
0.0
 11
582.791883
 21
126.098978
 31
0.0
  0
LINE
  5
221
  8
002
 62
     3
 10
584.041883
 20
222.29556
 30
0.0
 11
584.041883
 21
178.197269
 31
0.0
  0
LINE
  5
222
  8
002
 62
     3
 10
584.041883
 20
170.197269
 30
0.0
 11
584.041883
 21
126.098978
 31
0.0
  0
LINE
  5
223
  8
002
  6
CENTER
 62
    40
 10
576.041883
 20
40.422978
 30
0.0
 11
576.041883
 21
313.138892
 31
0.0
  0
LINE
  5
224
  8
001
 62
     3
 10
910.398424
 20
90.205884
 30
0.0
 11
910.398424
 21
95.205884
 31
0.0
  0
LINE
  5
225
  8
001
 62
     3
 10
961.398424
 20
90.205884
 30
0.0
 11
961.398424
 21
95.205884
 31
0.0
  0
LINE
  5
226
  8
001
 62
     3
 10
921.898424
 20
124.205884
 30
0.0
 11
922.398424
 21
124.705884
 31
0.0
  0
LINE
  5
227
  8
001
 62
     3
 10
949.398424
 20
124.705884
 30
0.0
 11
949.898424
 21
124.205884
 31
0.0
  0
LINE
  5
228
  8
001
 62
     3
 10
960.898424
 20
95.705884
 30
0.0
 11
961.398424
 21
95.205884
 31
0.0
  0
LINE
  5
229
  8
001
 62
     3
 10
960.898424
 20
89.705884
 30
0.0
 11
961.398424
 21
90.205884
 31
0.0
  0
LINE
  5
22A
  8
001
 62
     3
 10
910.398424
 20
90.205884
 30
0.0
 11
910.898424
 21
89.705884
 31
0.0
  0
LINE
  5
22B
  8
001
 62
     3
 10
910.398424
 20
95.205884
 30
0.0
 11
910.898424
 21
95.705884
 31
0.0
  0
ARC
  5
22C
  8
001
 62
     3
 10
921.398424
 20
96.205884
 30
0.0
 40
0.5
 50
270.0
 51
0.0
  0
ARC
  5
22D
  8
001
 62
     3
 10
950.398424
 20
96.205884
 30
0.0
 40
0.5
 50
180.0
 51
270.0
  0
LINE
  5
22E
  8
001
  6
CENTER
 62
    40
 10
916.898424
 20
86.705884
 30
0.0
 11
916.898424
 21
98.705884
 31
0.0
  0
LINE
  5
22F
  8
001
  6
CENTER
 62
    40
 10
954.898424
 20
86.705884
 30
0.0
 11
954.898424
 21
98.705884
 31
0.0
  0
ARC
  5
230
  8
001
 62
     3
 10
921.898424
 20
110.205884
 30
0.0
 40
0.75
 50
270.0
 51
90.0
  0
LINE
  5
231
  8
001
  6
CENTER
 62
    40
 10
920.497855
 20
110.205884
 30
0.0
 11
950.236011
 21
110.205884
 31
0.0
  0
ARC
  5
232
  8
001
 62
     3
 10
949.898424
 20
110.205884
 30
0.0
 40
0.75
 50
90.0
 51
270.0
  0
LINE
  5
233
  8
001
 62
     3
 10
921.898424
 20
96.205884
 30
0.0
 11
921.898424
 21
109.455884
 31
0.0
  0
LINE
  5
234
  8
001
 62
     3
 10
921.898424
 20
110.955884
 30
0.0
 11
921.898424
 21
124.205884
 31
0.0
  0
LINE
  5
235
  8
001
 62
     3
 10
949.898424
 20
96.205884
 30
0.0
 11
949.898424
 21
109.455884
 31
0.0
  0
LINE
  5
236
  8
001
 62
     3
 10
949.898424
 20
110.955884
 30
0.0
 11
949.898424
 21
124.205884
 31
0.0
  0
LINE
  5
237
  8
001
 62
     3
 10
921.898424
 20
109.455884
 30
0.0
 11
949.898424
 21
109.455884
 31
0.0
  0
LINE
  5
238
  8
001
 62
     3
 10
921.898424
 20
110.955884
 30
0.0
 11
949.898424
 21
110.955884
 31
0.0
  0
LINE
  5
239
  8
001
 62
     3
 10
922.398424
 20
124.705884
 30
0.0
 11
949.398424
 21
124.705884
 31
0.0
  0
LINE
  5
23A
  8
001
 62
     3
 10
910.898424
 20
89.705884
 30
0.0
 11
960.898424
 21
89.705884
 31
0.0
  0
LINE
  5
23B
  8
001
 62
     3
 10
960.898424
 20
95.705884
 30
0.0
 11
910.898424
 21
95.705884
 31
0.0
  0
LINE
  5
23C
  8
002
 62
     3
 10
927.898424
 20
89.705884
 30
0.0
 11
927.898424
 21
60.547235
 31
0.0
  0
LINE
  5
23D
  8
002
 62
    40
 10
929.148424
 20
89.705884
 30
0.0
 11
929.148424
 21
60.547235
 31
0.0
  0
LINE
  5
23E
  8
002
 62
    40
 10
942.648524
 20
89.705884
 30
0.0
 11
942.648524
 21
60.547235
 31
0.0
  0
LINE
  5
23F
  8
002
 62
     3
 10
943.898524
 20
89.705884
 30
0.0
 11
943.898524
 21
60.547235
 31
0.0
  0
LINE
  5
240
  8
002
 62
     3
 10
930.898424
 20
44.547235
 30
0.0
 11
940.898424
 21
44.547235
 31
0.0
  0
LINE
  5
241
  8
002
 62
     3
 10
940.898424
 20
44.547235
 30
0.0
 11
940.898424
 21
60.547235
 31
0.0
  0
LINE
  5
242
  8
002
 62
     3
 10
943.898524
 20
60.547235
 30
0.0
 11
927.898424
 21
60.547235
 31
0.0
  0
LINE
  5
243
  8
002
 62
     3
 10
930.898424
 20
60.547235
 30
0.0
 11
930.898424
 21
44.547235
 31
0.0
  0
LINE
  5
244
  8
002
 62
     3
 10
927.898424
 20
124.705884
 30
0.0
 11
927.898424
 21
172.026559
 31
0.0
  0
LINE
  5
245
  8
002
 62
    40
 10
929.148424
 20
124.705884
 30
0.0
 11
929.148424
 21
170.212605
 31
0.0
  0
LINE
  5
246
  8
002
 62
    40
 10
942.648524
 20
124.705884
 30
0.0
 11
942.648524
 21
173.840514
 31
0.0
  0
LINE
  5
247
  8
002
 62
     3
 10
943.898524
 20
124.705884
 30
0.0
 11
943.898524
 21
172.026559
 31
0.0
  0
LINE
  5
248
  8
001
 62
     3
 10
1033.650424
 20
90.205884
 30
0.0
 11
1033.650424
 21
95.205884
 31
0.0
  0
LINE
  5
249
  8
001
 62
     3
 10
1084.650424
 20
90.205884
 30
0.0
 11
1084.650424
 21
95.205884
 31
0.0
  0
LINE
  5
24A
  8
001
 62
     3
 10
1045.150424
 20
124.205884
 30
0.0
 11
1045.650424
 21
124.705884
 31
0.0
  0
LINE
  5
24B
  8
001
 62
     3
 10
1072.650424
 20
124.705884
 30
0.0
 11
1073.150424
 21
124.205884
 31
0.0
  0
LINE
  5
24C
  8
001
 62
     3
 10
1084.150424
 20
95.705884
 30
0.0
 11
1084.650424
 21
95.205884
 31
0.0
  0
LINE
  5
24D
  8
001
 62
     3
 10
1084.150424
 20
89.705884
 30
0.0
 11
1084.650424
 21
90.205884
 31
0.0
  0
LINE
  5
24E
  8
001
 62
     3
 10
1033.650424
 20
90.205884
 30
0.0
 11
1034.150424
 21
89.705884
 31
0.0
  0
LINE
  5
24F
  8
001
 62
     3
 10
1033.650424
 20
95.205884
 30
0.0
 11
1034.150424
 21
95.705884
 31
0.0
  0
ARC
  5
250
  8
001
 62
     3
 10
1044.650424
 20
96.205884
 30
0.0
 40
0.5
 50
270.0
 51
0.0
  0
ARC
  5
251
  8
001
 62
     3
 10
1073.650424
 20
96.205884
 30
0.0
 40
0.5
 50
180.0
 51
270.0
  0
LINE
  5
252
  8
001
  6
CENTER
 62
    40
 10
1040.150424
 20
86.705884
 30
0.0
 11
1040.150424
 21
98.705884
 31
0.0
  0
LINE
  5
253
  8
001
  6
CENTER
 62
    40
 10
1078.150424
 20
86.705884
 30
0.0
 11
1078.150424
 21
98.705884
 31
0.0
  0
ARC
  5
254
  8
001
 62
     3
 10
1045.150424
 20
110.205884
 30
0.0
 40
0.75
 50
270.0
 51
90.0
  0
LINE
  5
255
  8
001
  6
CENTER
 62
    40
 10
1043.749855
 20
110.205884
 30
0.0
 11
1073.488011
 21
110.205884
 31
0.0
  0
ARC
  5
256
  8
001
 62
     3
 10
1073.150424
 20
110.205884
 30
0.0
 40
0.75
 50
90.0
 51
270.0
  0
LINE
  5
257
  8
001
 62
     3
 10
1045.150424
 20
96.205884
 30
0.0
 11
1045.150424
 21
109.455884
 31
0.0
  0
LINE
  5
258
  8
001
 62
     3
 10
1045.150424
 20
110.955884
 30
0.0
 11
1045.150424
 21
124.205884
 31
0.0
  0
LINE
  5
259
  8
001
 62
     3
 10
1073.150424
 20
96.205884
 30
0.0
 11
1073.150424
 21
109.455884
 31
0.0
  0
LINE
  5
25A
  8
001
 62
     3
 10
1073.150424
 20
110.955884
 30
0.0
 11
1073.150424
 21
124.205884
 31
0.0
  0
LINE
  5
25B
  8
001
 62
     3
 10
1045.150424
 20
109.455884
 30
0.0
 11
1073.150424
 21
109.455884
 31
0.0
  0
LINE
  5
25C
  8
001
 62
     3
 10
1045.150424
 20
110.955884
 30
0.0
 11
1073.150424
 21
110.955884
 31
0.0
  0
LINE
  5
25D
  8
001
 62
     3
 10
1045.650424
 20
124.705884
 30
0.0
 11
1072.650424
 21
124.705884
 31
0.0
  0
LINE
  5
25E
  8
001
 62
     3
 10
1034.150424
 20
89.705884
 30
0.0
 11
1084.150424
 21
89.705884
 31
0.0
  0
LINE
  5
25F
  8
001
 62
     3
 10
1084.150424
 20
95.705884
 30
0.0
 11
1034.150424
 21
95.705884
 31
0.0
  0
LINE
  5
260
  8
002
 62
     3
 10
1051.150424
 20
89.705884
 30
0.0
 11
1051.150424
 21
60.547235
 31
0.0
  0
LINE
  5
261
  8
002
 62
    40
 10
1052.400424
 20
89.705884
 30
0.0
 11
1052.400424
 21
60.547235
 31
0.0
  0
LINE
  5
262
  8
002
 62
    40
 10
1065.900524
 20
89.705884
 30
0.0
 11
1065.900524
 21
60.547235
 31
0.0
  0
LINE
  5
263
  8
002
 62
     3
 10
1067.150524
 20
89.705884
 30
0.0
 11
1067.150524
 21
60.547235
 31
0.0
  0
LINE
  5
264
  8
002
 62
     3
 10
1054.150424
 20
44.547235
 30
0.0
 11
1064.150424
 21
44.547235
 31
0.0
  0
LINE
  5
265
  8
002
 62
     3
 10
1064.150424
 20
44.547235
 30
0.0
 11
1064.150424
 21
60.547235
 31
0.0
  0
LINE
  5
266
  8
002
 62
     3
 10
1067.150524
 20
60.547235
 30
0.0
 11
1051.150424
 21
60.547235
 31
0.0
  0
LINE
  5
267
  8
002
 62
     3
 10
1054.150424
 20
60.547235
 30
0.0
 11
1054.150424
 21
44.547235
 31
0.0
  0
LINE
  5
268
  8
002
 62
     3
 10
1051.150424
 20
124.705884
 30
0.0
 11
1051.150424
 21
172.026559
 31
0.0
  0
LINE
  5
269
  8
002
 62
    40
 10
1052.400424
 20
124.705884
 30
0.0
 11
1052.400424
 21
170.212605
 31
0.0
  0
LINE
  5
26A
  8
002
 62
    40
 10
1065.900524
 20
124.705884
 30
0.0
 11
1065.900524
 21
173.840514
 31
0.0
  0
LINE
  5
26B
  8
002
 62
     3
 10
1067.150524
 20
124.705884
 30
0.0
 11
1067.150524
 21
172.026559
 31
0.0
  0
LINE
  5
26C
  8
001
 62
     3
 10
1180.231224
 20
90.205884
 30
0.0
 11
1180.231224
 21
95.205884
 31
0.0
  0
LINE
  5
26D
  8
001
 62
     3
 10
1231.231224
 20
90.205884
 30
0.0
 11
1231.231224
 21
95.205884
 31
0.0
  0
LINE
  5
26E
  8
001
 62
     3
 10
1191.731224
 20
124.205884
 30
0.0
 11
1192.231224
 21
124.705884
 31
0.0
  0
LINE
  5
26F
  8
001
 62
     3
 10
1219.231224
 20
124.705884
 30
0.0
 11
1219.731224
 21
124.205884
 31
0.0
  0
LINE
  5
270
  8
001
 62
     3
 10
1230.731224
 20
95.705884
 30
0.0
 11
1231.231224
 21
95.205884
 31
0.0
  0
LINE
  5
271
  8
001
 62
     3
 10
1230.731224
 20
89.705884
 30
0.0
 11
1231.231224
 21
90.205884
 31
0.0
  0
LINE
  5
272
  8
001
 62
     3
 10
1180.231224
 20
90.205884
 30
0.0
 11
1180.731224
 21
89.705884
 31
0.0
  0
LINE
  5
273
  8
001
 62
     3
 10
1180.231224
 20
95.205884
 30
0.0
 11
1180.731224
 21
95.705884
 31
0.0
  0
ARC
  5
274
  8
001
 62
     3
 10
1191.231224
 20
96.205884
 30
0.0
 40
0.5
 50
270.0
 51
0.0
  0
ARC
  5
275
  8
001
 62
     3
 10
1220.231224
 20
96.205884
 30
0.0
 40
0.5
 50
180.0
 51
270.0
  0
LINE
  5
276
  8
001
  6
CENTER
 62
    40
 10
1186.731224
 20
86.705884
 30
0.0
 11
1186.731224
 21
98.705884
 31
0.0
  0
LINE
  5
277
  8
001
  6
CENTER
 62
    40
 10
1224.731224
 20
86.705884
 30
0.0
 11
1224.731224
 21
98.705884
 31
0.0
  0
ARC
  5
278
  8
001
 62
     3
 10
1191.731224
 20
110.205884
 30
0.0
 40
0.75
 50
270.0
 51
90.0
  0
LINE
  5
279
  8
001
  6
CENTER
 62
    40
 10
1190.330655
 20
110.205884
 30
0.0
 11
1220.068811
 21
110.205884
 31
0.0
  0
ARC
  5
27A
  8
001
 62
     3
 10
1219.731224
 20
110.205884
 30
0.0
 40
0.75
 50
90.0
 51
270.0
  0
LINE
  5
27B
  8
001
 62
     3
 10
1191.731224
 20
96.205884
 30
0.0
 11
1191.731224
 21
109.455884
 31
0.0
  0
LINE
  5
27C
  8
001
 62
     3
 10
1191.731224
 20
110.955884
 30
0.0
 11
1191.731224
 21
124.205884
 31
0.0
  0
LINE
  5
27D
  8
001
 62
     3
 10
1219.731224
 20
96.205884
 30
0.0
 11
1219.731224
 21
109.455884
 31
0.0
  0
LINE
  5
27E
  8
001
 62
     3
 10
1219.731224
 20
110.955884
 30
0.0
 11
1219.731224
 21
124.205884
 31
0.0
  0
LINE
  5
27F
  8
001
 62
     3
 10
1191.731224
 20
109.455884
 30
0.0
 11
1219.731224
 21
109.455884
 31
0.0
  0
LINE
  5
280
  8
001
 62
     3
 10
1191.731224
 20
110.955884
 30
0.0
 11
1219.731224
 21
110.955884
 31
0.0
  0
LINE
  5
281
  8
001
 62
     3
 10
1192.231224
 20
124.705884
 30
0.0
 11
1219.231224
 21
124.705884
 31
0.0
  0
LINE
  5
282
  8
001
 62
     3
 10
1180.731224
 20
89.705884
 30
0.0
 11
1230.731224
 21
89.705884
 31
0.0
  0
LINE
  5
283
  8
001
 62
     3
 10
1230.731224
 20
95.705884
 30
0.0
 11
1180.731224
 21
95.705884
 31
0.0
  0
LINE
  5
284
  8
002
 62
     3
 10
1197.731224
 20
89.705884
 30
0.0
 11
1197.731224
 21
60.547235
 31
0.0
  0
LINE
  5
285
  8
002
 62
    40
 10
1198.981224
 20
89.705884
 30
0.0
 11
1198.981224
 21
60.547235
 31
0.0
  0
LINE
  5
286
  8
002
 62
    40
 10
1212.481324
 20
89.705884
 30
0.0
 11
1212.481324
 21
60.547235
 31
0.0
  0
LINE
  5
287
  8
002
 62
     3
 10
1213.731324
 20
89.705884
 30
0.0
 11
1213.731324
 21
60.547235
 31
0.0
  0
LINE
  5
288
  8
002
 62
     3
 10
1200.731224
 20
44.547235
 30
0.0
 11
1210.731224
 21
44.547235
 31
0.0
  0
LINE
  5
289
  8
002
 62
     3
 10
1210.731224
 20
44.547235
 30
0.0
 11
1210.731224
 21
60.547235
 31
0.0
  0
LINE
  5
28A
  8
002
 62
     3
 10
1213.731324
 20
60.547235
 30
0.0
 11
1197.731224
 21
60.547235
 31
0.0
  0
LINE
  5
28B
  8
002
 62
     3
 10
1200.731224
 20
60.547235
 30
0.0
 11
1200.731224
 21
44.547235
 31
0.0
  0
LINE
  5
28C
  8
002
 62
     3
 10
1197.731224
 20
124.705884
 30
0.0
 11
1197.731224
 21
172.026559
 31
0.0
  0
LINE
  5
28D
  8
002
 62
    40
 10
1198.981224
 20
124.705884
 30
0.0
 11
1198.981224
 21
170.212605
 31
0.0
  0
LINE
  5
28E
  8
002
 62
    40
 10
1212.481324
 20
124.705884
 30
0.0
 11
1212.481324
 21
173.840514
 31
0.0
  0
LINE
  5
28F
  8
002
 62
     3
 10
1213.731324
 20
124.705884
 30
0.0
 11
1213.731324
 21
172.026559
 31
0.0
  0
LINE
  5
290
  8
003
  6
CENTER
 62
    40
 10
935.898424
 20
38.577827
 30
0.0
 11
935.898424
 21
312.950766
 31
0.0
  0
LINE
  5
291
  8
002
  6
CENTER
 62
    40
 10
1059.150424
 20
312.950766
 30
0.0
 11
1059.150424
 21
38.577827
 31
0.0
  0
LINE
  5
292
  8
003
  6
CENTER
 62
    40
 10
1205.731224
 20
38.577827
 30
0.0
 11
1205.731224
 21
312.950766
 31
0.0
  0
CIRCLE
  5
293
  8
001
 62
     3
 10
1059.150424
 20
-22.278873
 30
0.0
 40
25.5
  0
CIRCLE
  5
294
  8
001
  6
CENTER
 62
    40
 10
1059.150424
 20
-22.278873
 30
0.0
 40
19.0
  0
CIRCLE
  5
295
  8
001
 62
     3
 10
1059.150424
 20
-41.278873
 30
0.0
 40
3.3
  0
CIRCLE
  5
296
  8
001
 62
     3
 10
1040.150424
 20
-22.278873
 30
0.0
 40
3.3
  0
CIRCLE
  5
297
  8
001
 62
     3
 10
1059.150424
 20
-3.278873
 30
0.0
 40
3.3
  0
CIRCLE
  5
298
  8
001
 62
     3
 10
1078.150424
 20
-22.278873
 30
0.0
 40
3.3
  0
CIRCLE
  5
299
  8
001
  6
HIDDEN
 62
    40
 10
1059.150424
 20
-22.278873
 30
0.0
 40
14.0
  0
LINE
  5
29A
  8
002
  6
CENTER
 62
    40
 10
1030.858803
 20
-22.278873
 30
0.0
 11
1087.502024
 21
-22.278873
 31
0.0
  0
CIRCLE
  5
29B
  8
002
 62
    40
 10
1059.150424
 20
-22.278873
 30
0.0
 40
6.75
  0
CIRCLE
  5
29C
  8
002
 62
     3
 10
1059.150424
 20
-22.278873
 30
0.0
 40
8.0
  0
LINE
  5
29D
  8
002
  6
CENTER
 62
    40
 10
1059.150424
 20
-53.196873
 30
0.0
 11
1059.150424
 21
8.577827
 31
0.0
  0
LINE
  5
29E
  8
001
 62
     3
 10
1381.316524
 20
129.814145
 30
0.0
 11
1381.316524
 21
124.814145
 31
0.0
  0
LINE
  5
29F
  8
001
 62
     3
 10
1432.316524
 20
129.814145
 30
0.0
 11
1432.316524
 21
124.814145
 31
0.0
  0
LINE
  5
2A0
  8
001
 62
     3
 10
1392.816524
 20
95.814145
 30
0.0
 11
1393.316524
 21
95.314145
 31
0.0
  0
LINE
  5
2A1
  8
001
 62
     3
 10
1420.316524
 20
95.314145
 30
0.0
 11
1420.816524
 21
95.814145
 31
0.0
  0
LINE
  5
2A2
  8
001
 62
     3
 10
1431.816524
 20
124.314145
 30
0.0
 11
1432.316524
 21
124.814145
 31
0.0
  0
LINE
  5
2A3
  8
001
 62
     3
 10
1431.816524
 20
130.314145
 30
0.0
 11
1432.316524
 21
129.814145
 31
0.0
  0
LINE
  5
2A4
  8
001
 62
     3
 10
1381.316524
 20
129.814145
 30
0.0
 11
1381.816524
 21
130.314145
 31
0.0
  0
LINE
  5
2A5
  8
001
 62
     3
 10
1381.316524
 20
124.814145
 30
0.0
 11
1381.816524
 21
124.314145
 31
0.0
  0
ARC
  5
2A6
  8
001
 62
     3
 10
1392.316524
 20
123.814145
 30
0.0
 40
0.5
 50
0.0
 51
90.0
  0
ARC
  5
2A7
  8
001
 62
     3
 10
1421.316524
 20
123.814145
 30
0.0
 40
0.5
 50
90.0
 51
180.0
  0
LINE
  5
2A8
  8
001
  6
CENTER
 62
    40
 10
1387.816524
 20
133.314145
 30
0.0
 11
1387.816524
 21
121.314145
 31
0.0
  0
LINE
  5
2A9
  8
001
  6
CENTER
 62
    40
 10
1425.816524
 20
133.314145
 30
0.0
 11
1425.816524
 21
121.314145
 31
0.0
  0
ARC
  5
2AA
  8
001
 62
     3
 10
1392.816524
 20
109.814145
 30
0.0
 40
0.75
 50
270.0
 51
90.0
  0
LINE
  5
2AB
  8
001
  6
CENTER
 62
    40
 10
1391.415955
 20
109.814145
 30
0.0
 11
1421.154111
 21
109.814145
 31
0.0
  0
ARC
  5
2AC
  8
001
 62
     3
 10
1420.816524
 20
109.814145
 30
0.0
 40
0.75
 50
90.0
 51
270.0
  0
LINE
  5
2AD
  8
001
 62
     3
 10
1392.816524
 20
123.814145
 30
0.0
 11
1392.816524
 21
110.564145
 31
0.0
  0
LINE
  5
2AE
  8
001
 62
     3
 10
1392.816524
 20
109.064145
 30
0.0
 11
1392.816524
 21
95.814145
 31
0.0
  0
LINE
  5
2AF
  8
001
 62
     3
 10
1420.816524
 20
123.814145
 30
0.0
 11
1420.816524
 21
110.564145
 31
0.0
  0
LINE
  5
2B0
  8
001
 62
     3
 10
1420.816524
 20
109.064145
 30
0.0
 11
1420.816524
 21
95.814145
 31
0.0
  0
LINE
  5
2B1
  8
001
 62
     3
 10
1392.816524
 20
110.564145
 30
0.0
 11
1420.816524
 21
110.564145
 31
0.0
  0
LINE
  5
2B2
  8
001
 62
     3
 10
1392.816524
 20
109.064145
 30
0.0
 11
1420.816524
 21
109.064145
 31
0.0
  0
LINE
  5
2B3
  8
001
 62
     3
 10
1393.316524
 20
95.314145
 30
0.0
 11
1420.316524
 21
95.314145
 31
0.0
  0
LINE
  5
2B4
  8
001
 62
     3
 10
1381.816524
 20
130.314145
 30
0.0
 11
1431.816524
 21
130.314145
 31
0.0
  0
LINE
  5
2B5
  8
001
 62
     3
 10
1431.816524
 20
124.314145
 30
0.0
 11
1381.816524
 21
124.314145
 31
0.0
  0
LINE
  5
2B6
  8
002
 62
     3
 10
1398.816524
 20
95.314145
 30
0.0
 11
1398.816524
 21
66.155496
 31
0.0
  0
LINE
  5
2B7
  8
002
 62
    40
 10
1400.066524
 20
95.314145
 30
0.0
 11
1400.066524
 21
66.155496
 31
0.0
  0
LINE
  5
2B8
  8
002
 62
    40
 10
1413.566624
 20
95.314145
 30
0.0
 11
1413.566624
 21
66.155496
 31
0.0
  0
LINE
  5
2B9
  8
002
 62
     3
 10
1414.816624
 20
95.314145
 30
0.0
 11
1414.816624
 21
66.155496
 31
0.0
  0
LINE
  5
2BA
  8
002
 62
     3
 10
1401.816524
 20
50.155496
 30
0.0
 11
1411.816524
 21
50.155496
 31
0.0
  0
LINE
  5
2BB
  8
002
 62
     3
 10
1411.816524
 20
50.155496
 30
0.0
 11
1411.816524
 21
66.155496
 31
0.0
  0
LINE
  5
2BC
  8
002
 62
     3
 10
1414.816624
 20
66.155496
 30
0.0
 11
1398.816524
 21
66.155496
 31
0.0
  0
LINE
  5
2BD
  8
002
 62
     3
 10
1396.816524
 20
232.955496
 30
0.0
 11
1416.816624
 21
232.955496
 31
0.0
  0
LINE
  5
2BE
  8
002
 62
     3
 10
1416.816624
 20
232.955496
 30
0.0
 11
1416.816624
 21
235.155496
 31
0.0
  0
LINE
  5
2BF
  8
002
 62
     3
 10
1401.816524
 20
66.155496
 30
0.0
 11
1401.816524
 21
50.155496
 31
0.0
  0
LINE
  5
2C0
  8
002
 62
     3
 10
1396.816524
 20
232.955496
 30
0.0
 11
1396.816524
 21
235.155496
 31
0.0
  0
LINE
  5
2C1
  8
002
 62
     3
 10
1431.316624
 20
290.155496
 30
0.0
 11
1431.316624
 21
305.355496
 31
0.0
  0
LINE
  5
2C2
  8
002
 62
     3
 10
1431.316624
 20
305.355496
 30
0.0
 11
1382.316524
 21
305.355496
 31
0.0
  0
LINE
  5
2C3
  8
002
 62
     3
 10
1382.316524
 20
305.355496
 30
0.0
 11
1382.316524
 21
290.155496
 31
0.0
  0
LINE
  5
2C4
  8
002
 62
     3
 10
1382.316524
 20
302.155496
 30
0.0
 11
1431.316624
 21
302.155496
 31
0.0
  0
LINE
  5
2C5
  8
002
  6
CENTER
 62
    40
 10
1469.829524
 20
262.655496
 30
0.0
 11
1367.389524
 21
262.655496
 31
0.0
  0
LINE
  5
2C6
  8
002
  6
CENTER
 62
    40
 10
1416.191624
 20
308.444096
 30
0.0
 11
1416.191624
 21
286.229575
 31
0.0
  0
LINE
  5
2C7
  8
002
  6
CENTER
 62
    40
 10
1388.066524
 20
287.241125
 30
0.0
 11
1388.066524
 21
308.444096
 31
0.0
  0
POLYLINE
  5
2C8
  8
002
 62
     3
 66
     1
 10
0.0
 20
0.0
 30
0.0
  0
VERTEX
  5
2CA
  8
002
 62
     3
 10
1398.816524
 20
177.63482
 30
0.0
  0
VERTEX
  5
2CB
  8
002
 62
     3
 10
1400.816536
 20
174.88482
 30
0.0
  0
VERTEX
  5
2CC
  8
002
 62
     3
 10
1402.816549
 20
173.63482
 30
0.0
  0
VERTEX
  5
2CD
  8
002
 62
     3
 10
1404.816561
 20
174.88482
 30
0.0
  0
VERTEX
  5
2CE
  8
002
 62
     3
 10
1406.816574
 20
177.63482
 30
0.0
  0
VERTEX
  5
2CF
  8
002
 62
     3
 10
1408.816586
 20
180.38482
 30
0.0
  0
VERTEX
  5
2D0
  8
002
 62
     3
 10
1410.816599
 20
181.63482
 30
0.0
  0
VERTEX
  5
2D1
  8
002
 62
     3
 10
1412.816611
 20
180.38482
 30
0.0
  0
VERTEX
  5
2D2
  8
002
 62
     3
 10
1414.816624
 20
177.63482
 30
0.0
  0
SEQEND
  5
2C9
  8
002
 62
     3
  0
POLYLINE
  5
2D3
  8
002
 62
     3
 66
     1
 10
0.0
 20
0.0
 30
0.0
  0
VERTEX
  5
2D5
  8
002
 62
     3
 10
1398.816524
 20
185.63482
 30
0.0
  0
VERTEX
  5
2D6
  8
002
 62
     3
 10
1400.816536
 20
182.88482
 30
0.0
  0
VERTEX
  5
2D7
  8
002
 62
     3
 10
1402.816549
 20
181.63482
 30
0.0
  0
VERTEX
  5
2D8
  8
002
 62
     3
 10
1404.816561
 20
182.88482
 30
0.0
  0
VERTEX
  5
2D9
  8
002
 62
     3
 10
1406.816574
 20
185.63482
 30
0.0
  0
VERTEX
  5
2DA
  8
002
 62
     3
 10
1408.816586
 20
188.38482
 30
0.0
  0
VERTEX
  5
2DB
  8
002
 62
     3
 10
1410.816599
 20
189.63482
 30
0.0
  0
VERTEX
  5
2DC
  8
002
 62
     3
 10
1412.816611
 20
188.38482
 30
0.0
  0
VERTEX
  5
2DD
  8
002
 62
     3
 10
1414.816624
 20
185.63482
 30
0.0
  0
SEQEND
  5
2D4
  8
002
 62
     3
  0
LINE
  5
2DE
  8
002
 62
     3
 10
1398.816524
 20
130.314145
 30
0.0
 11
1398.816524
 21
177.63482
 31
0.0
  0
LINE
  5
2DF
  8
002
 62
     3
 10
1398.816524
 20
185.63482
 30
0.0
 11
1398.816524
 21
232.955496
 31
0.0
  0
LINE
  5
2E0
  8
002
 62
    40
 10
1400.066524
 20
130.314145
 30
0.0
 11
1400.066524
 21
175.820866
 31
0.0
  0
LINE
  5
2E1
  8
002
 62
    40
 10
1400.066524
 20
183.820866
 30
0.0
 11
1400.066524
 21
232.955496
 31
0.0
  0
LINE
  5
2E2
  8
002
 62
    40
 10
1413.566624
 20
130.314145
 30
0.0
 11
1413.566624
 21
179.448775
 31
0.0
  0
LINE
  5
2E3
  8
002
 62
    40
 10
1413.566624
 20
187.448775
 30
0.0
 11
1413.566624
 21
232.955496
 31
0.0
  0
LINE
  5
2E4
  8
002
 62
     3
 10
1414.816624
 20
130.314145
 30
0.0
 11
1414.816624
 21
177.63482
 31
0.0
  0
LINE
  5
2E5
  8
002
 62
     3
 10
1414.816624
 20
185.63482
 30
0.0
 11
1414.816624
 21
232.955496
 31
0.0
  0
LINE
  5
2E6
  8
002
  6
CENTER
 62
    40
 10
1406.816524
 20
312.950766
 30
0.0
 11
1406.816524
 21
46.497328
 31
0.0
  0
CIRCLE
  5
2E7
  8
002
 62
     3
 10
213.376083
 20
531.242682
 30
0.0
 40
8.0
  0
CIRCLE
  5
2E8
  8
002
 62
     3
 10
213.376083
 20
581.242682
 30
0.0
 40
8.0
  0
LINE
  5
2E9
  8
002
 62
     3
 10
246.376083
 20
520.29828
 30
0.0
 11
246.376083
 21
520.242682
 31
0.0
  0
CIRCLE
  5
2EA
  8
002
 62
     3
 10
288.376083
 20
581.242682
 30
0.0
 40
8.0
  0
CIRCLE
  5
2EB
  8
002
 62
     3
 10
288.376083
 20
531.242682
 30
0.0
 40
8.0
  0
LINE
  5
2EC
  8
002
 62
     3
 10
286.376083
 20
571.242682
 30
0.0
 11
286.376083
 21
541.242682
 31
0.0
  0
LINE
  5
2ED
  8
002
 62
     3
 10
286.376083
 20
592.242682
 30
0.0
 11
246.376083
 21
592.242682
 31
0.0
  0
LINE
  5
2EE
  8
002
 62
     3
 10
286.376083
 20
520.242682
 30
0.0
 11
246.376083
 21
520.242682
 31
0.0
  0
LINE
  5
2EF
  8
002
  6
CENTER
 62
    40
 10
290.817461
 20
556.242682
 30
0.0
 11
205.376083
 21
556.242682
 31
0.0
  0
ARC
  5
2F0
  8
002
 62
     3
 10
240.376083
 20
592.187083
 30
0.0
 40
6.0
 50
266.815261
 51
0.0
  0
ARC
  5
2F1
  8
002
 62
     3
 10
240.376083
 20
520.29828
 30
0.0
 40
6.0
 50
0.0
 51
93.184739
  0
ARC
  5
2F2
  8
002
 62
     3
 10
224.661276
 20
589.527874
 30
0.0
 40
6.0
 50
216.28481
 51
292.393585
  0
ARC
  5
2F3
  8
002
 62
     3
 10
238.376083
 20
556.242682
 30
0.0
 40
30.0
 50
247.606415
 51
112.393585
  0
ARC
  5
2F4
  8
002
 62
     3
 10
224.661276
 20
522.957489
 30
0.0
 40
6.0
 50
67.606415
 51
143.71519
  0
ARC
  5
2F5
  8
002
 62
     3
 10
205.09089
 20
569.957489
 30
0.0
 40
6.0
 50
337.606415
 51
53.71519
  0
ARC
  5
2F6
  8
002
 62
     3
 10
238.376083
 20
556.242682
 30
0.0
 40
29.99999999999999
 50
157.606415
 51
202.393585
  0
ARC
  5
2F7
  8
002
 62
     3
 10
205.09089
 20
542.527874
 30
0.0
 40
6.0
 50
306.28481
 51
22.393585
  0
ARC
  5
2F8
  8
002
 62
     3
 10
288.376083
 20
591.242682
 30
0.0
 40
2.0
 50
180.0
 51
270.0
  0
ARC
  5
2F9
  8
002
 62
     3
 10
288.376083
 20
521.242682
 30
0.0
 40
2.0
 50
90.0
 51
180.0
  0
ARC
  5
2FA
  8
002
 62
     3
 10
288.376083
 20
541.242682
 30
0.0
 40
2.0
 50
180.0
 51
270.0
  0
ARC
  5
2FB
  8
002
 62
     3
 10
288.376083
 20
571.242682
 30
0.0
 40
2.0
 50
90.0
 51
180.0
  0
LINE
  5
2FC
  8
002
  6
CENTER
 62
    40
 10
213.376083
 20
521.242682
 30
0.0
 11
213.376083
 21
541.242682
 31
0.0
  0
LINE
  5
2FD
  8
002
  6
CENTER
 62
    40
 10
223.376083
 20
531.242682
 30
0.0
 11
203.376083
 21
531.242682
 31
0.0
  0
LINE
  5
2FE
  8
002
  6
CENTER
 62
    40
 10
213.376083
 20
571.242682
 30
0.0
 11
213.376083
 21
591.242682
 31
0.0
  0
LINE
  5
2FF
  8
002
  6
CENTER
 62
    40
 10
223.376083
 20
581.242682
 30
0.0
 11
203.376083
 21
581.242682
 31
0.0
  0
LINE
  5
300
  8
002
  6
CENTER
 62
    40
 10
288.376083
 20
571.242682
 30
0.0
 11
288.376083
 21
591.242682
 31
0.0
  0
LINE
  5
301
  8
002
  6
CENTER
 62
    40
 10
298.376083
 20
581.242682
 30
0.0
 11
278.376083
 21
581.242682
 31
0.0
  0
LINE
  5
302
  8
002
  6
CENTER
 62
    40
 10
288.376083
 20
521.242682
 30
0.0
 11
288.376083
 21
541.242682
 31
0.0
  0
LINE
  5
303
  8
002
  6
CENTER
 62
    40
 10
298.376083
 20
531.242682
 30
0.0
 11
278.376083
 21
531.242682
 31
0.0
  0
CIRCLE
  5
304
  8
002
 62
    40
 10
238.376083
 20
556.242682
 30
0.0
 40
26.0
  0
CIRCLE
  5
305
  8
002
 62
     3
 10
238.376083
 20
556.242682
 30
0.0
 40
8.0
  0
CIRCLE
  5
306
  8
002
 62
    40
 10
238.376083
 20
556.242682
 30
0.0
 40
24.91749999999999
  0
LINE
  5
307
  8
002
 62
     3
 10
286.376083
 20
521.242682
 30
0.0
 11
286.376083
 21
520.242682
 31
0.0
  0
LINE
  5
308
  8
002
 62
     3
 10
286.376083
 20
591.242682
 30
0.0
 11
286.376083
 21
592.242682
 31
0.0
  0
LINE
  5
309
  8
002
 62
     3
 10
260.376083
 20
520.242682
 30
0.0
 11
260.376083
 21
497.242682
 31
0.0
  0
LINE
  5
30A
  8
002
 62
     3
 10
260.376083
 20
497.242682
 30
0.0
 11
261.376083
 21
496.242682
 31
0.0
  0
LINE
  5
30B
  8
002
 62
     3
 10
261.376083
 20
496.242682
 30
0.0
 11
271.376083
 21
496.242682
 31
0.0
  0
LINE
  5
30C
  8
002
 62
     3
 10
271.376083
 20
496.242682
 30
0.0
 11
272.376083
 21
497.242682
 31
0.0
  0
LINE
  5
30D
  8
002
 62
     3
 10
272.376083
 20
497.242682
 30
0.0
 11
272.376083
 21
520.242682
 31
0.0
  0
ARC
  5
30E
  8
002
 62
     3
 10
266.376083
 20
506.808682
 30
0.0
 40
10.00000957799538
 50
70.629917
 51
109.369542
  0
LINE
  5
30F
  8
002
 62
     3
 10
263.059483
 20
516.242682
 30
0.0
 11
263.059483
 21
496.242682
 31
0.0
  0
LINE
  5
310
  8
002
 62
     3
 10
263.059483
 20
497.242682
 30
0.0
 11
260.376083
 21
497.242682
 31
0.0
  0
LINE
  5
311
  8
002
 62
     3
 10
269.692783
 20
497.242682
 30
0.0
 11
272.376083
 21
497.242682
 31
0.0
  0
LINE
  5
312
  8
002
 62
     3
 10
269.692783
 20
496.242682
 30
0.0
 11
269.692783
 21
516.242682
 31
0.0
  0
LINE
  5
313
  8
002
 62
     3
 10
260.376083
 20
592.242682
 30
0.0
 11
260.376083
 21
615.242682
 31
0.0
  0
LINE
  5
314
  8
002
 62
     3
 10
260.376083
 20
615.242682
 30
0.0
 11
261.376083
 21
616.242682
 31
0.0
  0
LINE
  5
315
  8
002
 62
     3
 10
261.376083
 20
616.242682
 30
0.0
 11
271.376083
 21
616.242682
 31
0.0
  0
LINE
  5
316
  8
002
 62
     3
 10
271.376083
 20
616.242682
 30
0.0
 11
272.376083
 21
615.242682
 31
0.0
  0
LINE
  5
317
  8
002
 62
     3
 10
272.376083
 20
615.242682
 30
0.0
 11
272.376083
 21
592.242682
 31
0.0
  0
ARC
  5
318
  8
002
 62
     3
 10
266.376083
 20
605.676682
 30
0.0
 40
10.00000957799538
 50
250.630458
 51
289.370083
  0
LINE
  5
319
  8
002
 62
     3
 10
263.059483
 20
596.242682
 30
0.0
 11
263.059483
 21
616.242682
 31
0.0
  0
LINE
  5
31A
  8
002
 62
     3
 10
263.059483
 20
615.242682
 30
0.0
 11
260.376083
 21
615.242682
 31
0.0
  0
LINE
  5
31B
  8
002
 62
     3
 10
269.692783
 20
615.242682
 30
0.0
 11
272.376083
 21
615.242682
 31
0.0
  0
LINE
  5
31C
  8
002
 62
     3
 10
269.692783
 20
616.242682
 30
0.0
 11
269.692783
 21
596.242682
 31
0.0
  0
LINE
  5
31D
  8
002
  6
CENTER
 62
    40
 10
266.376083
 20
619.556533
 30
0.0
 11
266.376083
 21
490.448465
 31
0.0
  0
LINE
  5
31E
  8
002
 62
     3
 10
79.124083
 20
90.398978
 30
0.0
 11
56.124043
 21
90.398978
 31
0.0
  0
LINE
  5
31F
  8
002
 62
     3
 10
56.124043
 20
90.398978
 30
0.0
 11
55.124043
 21
91.398978
 31
0.0
  0
LINE
  5
320
  8
002
 62
     3
 10
55.124043
 20
91.398978
 30
0.0
 11
55.124043
 21
101.398978
 31
0.0
  0
LINE
  5
321
  8
002
 62
     3
 10
55.124043
 20
101.398978
 30
0.0
 11
75.124083
 21
101.398978
 31
0.0
  0
LINE
  5
322
  8
002
 62
     3
 10
75.124083
 20
101.398978
 30
0.0
 11
75.124083
 21
102.398978
 31
0.0
  0
LINE
  5
323
  8
002
 62
     3
 10
75.124083
 20
102.398978
 30
0.0
 11
79.124083
 21
102.398978
 31
0.0
  0
LINE
  5
324
  8
002
 62
     3
 10
56.124043
 20
101.398978
 30
0.0
 11
56.124043
 21
90.398978
 31
0.0
  0
LINE
  5
325
  8
002
 62
     3
 10
151.124083
 20
102.398978
 30
0.0
 11
155.124083
 21
102.398978
 31
0.0
  0
LINE
  5
326
  8
002
 62
     3
 10
155.124083
 20
102.398978
 30
0.0
 11
155.124083
 21
101.398978
 31
0.0
  0
LINE
  5
327
  8
002
 62
     3
 10
155.124083
 20
101.398978
 30
0.0
 11
175.124083
 21
101.398978
 31
0.0
  0
LINE
  5
328
  8
002
 62
     3
 10
175.124083
 20
101.398978
 30
0.0
 11
175.124083
 21
91.398978
 31
0.0
  0
LINE
  5
329
  8
002
 62
     3
 10
175.124083
 20
91.398978
 30
0.0
 11
174.124083
 21
90.398978
 31
0.0
  0
LINE
  5
32A
  8
002
 62
     3
 10
174.124083
 20
90.398978
 30
0.0
 11
151.124083
 21
90.398978
 31
0.0
  0
LINE
  5
32B
  8
002
 62
     3
 10
174.124083
 20
90.398978
 30
0.0
 11
174.124083
 21
101.398978
 31
0.0
  0
LINE
  5
32C
  8
002
 62
     3
 10
148.124083
 20
68.898978
 30
0.0
 11
148.124083
 21
123.898978
 31
0.0
  0
LINE
  5
32D
  8
002
 62
     3
 10
132.124083
 20
76.398978
 30
0.0
 11
132.124083
 21
68.898978
 31
0.0
  0
LINE
  5
32E
  8
002
 62
     3
 10
133.675402
 20
76.398978
 30
0.0
 11
133.675402
 21
123.898978
 31
0.0
  0
LINE
  5
32F
  8
002
 62
     3
 10
98.124083
 20
68.898978
 30
0.0
 11
98.124083
 21
76.398978
 31
0.0
  0
LINE
  5
330
  8
002
 62
     3
 10
82.124083
 20
123.898978
 30
0.0
 11
82.124083
 21
68.898978
 31
0.0
  0
LINE
  5
331
  8
002
 62
     3
 10
96.572765
 20
76.398978
 30
0.0
 11
96.572765
 21
123.898978
 31
0.0
  0
ARC
  5
332
  8
002
 62
     3
 10
100.124083
 20
123.898978
 30
0.0
 40
2.0
 50
180.0
 51
270.0
  0
POLYLINE
  5
333
  8
002
 62
     3
 66
     1
 10
0.0
 20
0.0
 30
0.0
  0
VERTEX
  5
335
  8
002
 62
     3
 10
99.805646
 20
121.898978
 30
0.0
  0
VERTEX
  5
336
  8
002
 62
     3
 10
99.566551
 20
121.914606
 30
0.0
  0
VERTEX
  5
337
  8
002
 62
     3
 10
99.329414
 20
121.943324
 30
0.0
  0
VERTEX
  5
338
  8
002
 62
     3
 10
99.094451
 20
121.995549
 30
0.0
  0
VERTEX
  5
339
  8
002
 62
     3
 10
98.864455
 20
122.068671
 30
0.0
  0
VERTEX
  5
33A
  8
002
 62
     3
 10
98.567619
 20
122.190526
 30
0.0
  0
VERTEX
  5
33B
  8
002
 62
     3
 10
98.282597
 20
122.337206
 30
0.0
  0
VERTEX
  5
33C
  8
002
 62
     3
 10
98.012411
 20
122.504842
 30
0.0
  0
VERTEX
  5
33D
  8
002
 62
     3
 10
97.75439
 20
122.691064
 30
0.0
  0
VERTEX
  5
33E
  8
002
 62
     3
 10
97.425287
 20
122.965904
 30
0.0
  0
VERTEX
  5
33F
  8
002
 62
     3
 10
97.118549
 20
123.265095
 30
0.0
  0
VERTEX
  5
340
  8
002
 62
     3
 10
96.839955
 20
123.576872
 30
0.0
  0
VERTEX
  5
341
  8
002
 62
     3
 10
96.572765
 20
123.898978
 30
0.0
  0
SEQEND
  5
334
  8
002
 62
     3
  0
POLYLINE
  5
342
  8
002
 62
     3
 66
     1
 10
0.0
 20
0.0
 30
0.0
  0
VERTEX
  5
344
  8
002
 62
     3
 10
133.675402
 20
123.898978
 30
0.0
  0
VERTEX
  5
345
  8
002
 62
     3
 10
133.410754
 20
123.579164
 30
0.0
  0
VERTEX
  5
346
  8
002
 62
     3
 10
133.134731
 20
123.269646
 30
0.0
  0
VERTEX
  5
347
  8
002
 62
     3
 10
132.825609
 20
122.968004
 30
0.0
  0
VERTEX
  5
348
  8
002
 62
     3
 10
132.493777
 20
122.691064
 30
0.0
  0
VERTEX
  5
349
  8
002
 62
     3
 10
132.238925
 20
122.506939
 30
0.0
  0
VERTEX
  5
34A
  8
002
 62
     3
 10
131.972236
 20
122.340867
 30
0.0
  0
VERTEX
  5
34B
  8
002
 62
     3
 10
131.684045
 20
122.192022
 30
0.0
  0
VERTEX
  5
34C
  8
002
 62
     3
 10
131.383712
 20
122.068671
 30
0.0
  0
VERTEX
  5
34D
  8
002
 62
     3
 10
131.157277
 20
121.996683
 30
0.0
  0
VERTEX
  5
34E
  8
002
 62
     3
 10
130.92602
 20
121.944911
 30
0.0
  0
VERTEX
  5
34F
  8
002
 62
     3
 10
130.685288
 20
121.915237
 30
0.0
  0
VERTEX
  5
350
  8
002
 62
     3
 10
130.44252
 20
121.898978
 30
0.0
  0
SEQEND
  5
343
  8
002
 62
     3
  0
ARC
  5
351
  8
002
 62
     3
 10
130.124083
 20
123.898978
 30
0.0
 40
2.0
 50
270.0
 51
0.0
  0
LINE
  5
352
  8
002
 62
     3
 10
99.805646
 20
121.898978
 30
0.0
 11
130.44252
 21
121.898978
 31
0.0
  0
LINE
  5
353
  8
002
 62
     3
 10
96.572765
 20
76.398978
 30
0.0
 11
133.675402
 21
76.398978
 31
0.0
  0
LINE
  5
354
  8
002
 62
     3
 10
148.124083
 20
68.898978
 30
0.0
 11
82.124083
 21
68.898978
 31
0.0
  0
LINE
  5
355
  8
002
 62
     3
 10
79.124083
 20
116.398978
 30
0.0
 11
79.124083
 21
76.398978
 31
0.0
  0
LINE
  5
356
  8
002
 62
     3
 10
151.124083
 20
116.398978
 30
0.0
 11
151.124083
 21
76.398978
 31
0.0
  0
POLYLINE
  5
357
  8
002
 62
     3
 66
     1
 10
0.0
 20
0.0
 30
0.0
  0
VERTEX
  5
359
  8
002
 62
     3
 10
148.124083
 20
118.398978
 30
0.0
  0
VERTEX
  5
35A
  8
002
 62
     3
 10
148.148742
 20
118.096274
 30
0.0
  0
VERTEX
  5
35B
  8
002
 62
     3
 10
148.198322
 20
117.798518
 30
0.0
  0
VERTEX
  5
35C
  8
002
 62
     3
 10
148.255789
 20
117.605479
 30
0.0
  0
VERTEX
  5
35D
  8
002
 62
     3
 10
148.332753
 20
117.418689
 30
0.0
  0
VERTEX
  5
35E
  8
002
 62
     3
 10
148.43224
 20
117.231683
 30
0.0
  0
VERTEX
  5
35F
  8
002
 62
     3
 10
148.551202
 20
117.056872
 30
0.0
  0
VERTEX
  5
360
  8
002
 62
     3
 10
148.644055
 20
116.946072
 30
0.0
  0
VERTEX
  5
361
  8
002
 62
     3
 10
148.745952
 20
116.843483
 30
0.0
  0
VERTEX
  5
362
  8
002
 62
     3
 10
148.864662
 20
116.74368
 30
0.0
  0
VERTEX
  5
363
  8
002
 62
     3
 10
148.992192
 20
116.655478
 30
0.0
  0
VERTEX
  5
364
  8
002
 62
     3
 10
149.090625
 20
116.598778
 30
0.0
  0
VERTEX
  5
365
  8
002
 62
     3
 10
149.19274
 20
116.549104
 30
0.0
  0
VERTEX
  5
366
  8
002
 62
     3
 10
149.305406
 20
116.503947
 30
0.0
  0
VERTEX
  5
367
  8
002
 62
     3
 10
149.421038
 20
116.466789
 30
0.0
  0
VERTEX
  5
368
  8
002
 62
     3
 10
149.540862
 20
116.437161
 30
0.0
  0
VERTEX
  5
369
  8
002
 62
     3
 10
149.662418
 20
116.416636
 30
0.0
  0
VERTEX
  5
36A
  8
002
 62
     3
 10
149.79294
 20
116.404901
 30
0.0
  0
VERTEX
  5
36B
  8
002
 62
     3
 10
149.924083
 20
116.398978
 30
0.0
  0
SEQEND
  5
358
  8
002
 62
     3
  0
POLYLINE
  5
36C
  8
002
 62
     3
 66
     1
 10
0.0
 20
0.0
 30
0.0
  0
VERTEX
  5
36E
  8
002
 62
     3
 10
149.924083
 20
76.398978
 30
0.0
  0
VERTEX
  5
36F
  8
002
 62
     3
 10
149.797201
 20
76.393421
 30
0.0
  0
VERTEX
  5
370
  8
002
 62
     3
 10
149.670872
 20
76.382461
 30
0.0
  0
VERTEX
  5
371
  8
002
 62
     3
 10
149.545039
 20
76.361665
 30
0.0
  0
VERTEX
  5
372
  8
002
 62
     3
 10
149.421038
 20
76.331167
 30
0.0
  0
VERTEX
  5
373
  8
002
 62
     3
 10
149.308129
 20
76.294994
 30
0.0
  0
VERTEX
  5
374
  8
002
 62
     3
 10
149.198033
 20
76.251195
 30
0.0
  0
VERTEX
  5
375
  8
002
 62
     3
 10
149.093184
 20
76.20053
 30
0.0
  0
VERTEX
  5
376
  8
002
 62
     3
 10
148.992192
 20
76.142478
 30
0.0
  0
VERTEX
  5
377
  8
002
 62
     3
 10
148.867777
 20
76.056656
 30
0.0
  0
VERTEX
  5
378
  8
002
 62
     3
 10
148.751724
 20
75.959784
 30
0.0
  0
VERTEX
  5
379
  8
002
 62
     3
 10
148.646703
 20
75.854777
 30
0.0
  0
VERTEX
  5
37A
  8
002
 62
     3
 10
148.551202
 20
75.741083
 30
0.0
  0
VERTEX
  5
37B
  8
002
 62
     3
 10
148.434923
 20
75.570738
 30
0.0
  0
VERTEX
  5
37C
  8
002
 62
     3
 10
148.337173
 20
75.388724
 30
0.0
  0
VERTEX
  5
37D
  8
002
 62
     3
 10
148.257504
 20
75.197404
 30
0.0
  0
VERTEX
  5
37E
  8
002
 62
     3
 10
148.198322
 20
74.999438
 30
0.0
  0
VERTEX
  5
37F
  8
002
 62
     3
 10
148.148759
 20
74.701671
 30
0.0
  0
VERTEX
  5
380
  8
002
 62
     3
 10
148.124083
 20
74.398978
 30
0.0
  0
SEQEND
  5
36D
  8
002
 62
     3
  0
POLYLINE
  5
381
  8
002
 62
     3
 66
     1
 10
0.0
 20
0.0
 30
0.0
  0
VERTEX
  5
383
  8
002
 62
     3
 10
82.124083
 20
74.398978
 30
0.0
  0
VERTEX
  5
384
  8
002
 62
     3
 10
82.099425
 20
74.701682
 30
0.0
  0
VERTEX
  5
385
  8
002
 62
     3
 10
82.049845
 20
74.999438
 30
0.0
  0
VERTEX
  5
386
  8
002
 62
     3
 10
81.992378
 20
75.192476
 30
0.0
  0
VERTEX
  5
387
  8
002
 62
     3
 10
81.915414
 20
75.379267
 30
0.0
  0
VERTEX
  5
388
  8
002
 62
     3
 10
81.815926
 20
75.566272
 30
0.0
  0
VERTEX
  5
389
  8
002
 62
     3
 10
81.696965
 20
75.741083
 30
0.0
  0
VERTEX
  5
38A
  8
002
 62
     3
 10
81.604112
 20
75.851884
 30
0.0
  0
VERTEX
  5
38B
  8
002
 62
     3
 10
81.502215
 20
75.954473
 30
0.0
  0
VERTEX
  5
38C
  8
002
 62
     3
 10
81.383505
 20
76.054275
 30
0.0
  0
VERTEX
  5
38D
  8
002
 62
     3
 10
81.255975
 20
76.142478
 30
0.0
  0
VERTEX
  5
38E
  8
002
 62
     3
 10
81.157542
 20
76.199178
 30
0.0
  0
VERTEX
  5
38F
  8
002
 62
     3
 10
81.055426
 20
76.248852
 30
0.0
  0
VERTEX
  5
390
  8
002
 62
     3
 10
80.942761
 20
76.294009
 30
0.0
  0
VERTEX
  5
391
  8
002
 62
     3
 10
80.827128
 20
76.331167
 30
0.0
  0
VERTEX
  5
392
  8
002
 62
     3
 10
80.707305
 20
76.360795
 30
0.0
  0
VERTEX
  5
393
  8
002
 62
     3
 10
80.585749
 20
76.38132
 30
0.0
  0
VERTEX
  5
394
  8
002
 62
     3
 10
80.455227
 20
76.393055
 30
0.0
  0
VERTEX
  5
395
  8
002
 62
     3
 10
80.324083
 20
76.398978
 30
0.0
  0
SEQEND
  5
382
  8
002
 62
     3
  0
POLYLINE
  5
396
  8
002
 62
     3
 66
     1
 10
0.0
 20
0.0
 30
0.0
  0
VERTEX
  5
398
  8
002
 62
     3
 10
80.324083
 20
116.398978
 30
0.0
  0
VERTEX
  5
399
  8
002
 62
     3
 10
80.450966
 20
116.404535
 30
0.0
  0
VERTEX
  5
39A
  8
002
 62
     3
 10
80.577295
 20
116.415494
 30
0.0
  0
VERTEX
  5
39B
  8
002
 62
     3
 10
80.703128
 20
116.43629
 30
0.0
  0
VERTEX
  5
39C
  8
002
 62
     3
 10
80.827128
 20
116.466789
 30
0.0
  0
VERTEX
  5
39D
  8
002
 62
     3
 10
80.940038
 20
116.502962
 30
0.0
  0
VERTEX
  5
39E
  8
002
 62
     3
 10
81.050133
 20
116.546761
 30
0.0
  0
VERTEX
  5
39F
  8
002
 62
     3
 10
81.154983
 20
116.597426
 30
0.0
  0
VERTEX
  5
3A0
  8
002
 62
     3
 10
81.255975
 20
116.655478
 30
0.0
  0
VERTEX
  5
3A1
  8
002
 62
     3
 10
81.38039
 20
116.7413
 30
0.0
  0
VERTEX
  5
3A2
  8
002
 62
     3
 10
81.496443
 20
116.838172
 30
0.0
  0
VERTEX
  5
3A3
  8
002
 62
     3
 10
81.601464
 20
116.943178
 30
0.0
  0
VERTEX
  5
3A4
  8
002
 62
     3
 10
81.696965
 20
117.056872
 30
0.0
  0
VERTEX
  5
3A5
  8
002
 62
     3
 10
81.813244
 20
117.227218
 30
0.0
  0
VERTEX
  5
3A6
  8
002
 62
     3
 10
81.910994
 20
117.409232
 30
0.0
  0
VERTEX
  5
3A7
  8
002
 62
     3
 10
81.990663
 20
117.600551
 30
0.0
  0
VERTEX
  5
3A8
  8
002
 62
     3
 10
82.049845
 20
117.798518
 30
0.0
  0
VERTEX
  5
3A9
  8
002
 62
     3
 10
82.099408
 20
118.096285
 30
0.0
  0
VERTEX
  5
3AA
  8
002
 62
     3
 10
82.124083
 20
118.398978
 30
0.0
  0
SEQEND
  5
397
  8
002
 62
     3
  0
LINE
  5
3AB
  8
002
 62
     3
 10
82.124083
 20
123.898978
 30
0.0
 11
148.124083
 21
123.898978
 31
0.0
  0
LINE
  5
3AC
  8
002
 62
     3
 10
79.124083
 20
116.398978
 30
0.0
 11
80.324083
 21
116.398978
 31
0.0
  0
LINE
  5
3AD
  8
002
 62
     3
 10
79.124083
 20
76.398978
 30
0.0
 11
80.324083
 21
76.398978
 31
0.0
  0
LINE
  5
3AE
  8
002
 62
     3
 10
151.124083
 20
116.398978
 30
0.0
 11
149.924083
 21
116.398978
 31
0.0
  0
LINE
  5
3AF
  8
002
 62
     3
 10
151.124083
 20
76.398978
 30
0.0
 11
149.924083
 21
76.398978
 31
0.0
  0
LINE
  5
3B0
  8
002
 62
     3
 10
296.376083
 20
123.898978
 30
0.0
 11
296.376083
 21
68.898978
 31
0.0
  0
LINE
  5
3B1
  8
002
 62
     3
 10
280.376083
 20
123.898978
 30
0.0
 11
296.376083
 21
123.898978
 31
0.0
  0
LINE
  5
3B2
  8
002
 62
     3
 10
280.376083
 20
68.898978
 30
0.0
 11
296.376083
 21
68.898978
 31
0.0
  0
LINE
  5
3B3
  8
002
 62
     3
 10
221.376083
 20
123.898978
 30
0.0
 11
221.376083
 21
68.898978
 31
0.0
  0
LINE
  5
3B4
  8
002
 62
     3
 10
284.376083
 20
76.398978
 30
0.0
 11
248.376083
 21
76.398978
 31
0.0
  0
LINE
  5
3B5
  8
002
 62
     3
 10
280.376083
 20
74.398978
 30
0.0
 11
280.376083
 21
68.898978
 31
0.0
  0
LINE
  5
3B6
  8
002
 62
     3
 10
246.376083
 20
114.398978
 30
0.0
 11
246.376083
 21
78.398978
 31
0.0
  0
LINE
  5
3B7
  8
002
 62
     3
 10
284.376083
 20
116.398978
 30
0.0
 11
248.376083
 21
116.398978
 31
0.0
  0
LINE
  5
3B8
  8
002
 62
     3
 10
286.376083
 20
78.398978
 30
0.0
 11
286.376083
 21
114.398978
 31
0.0
  0
LINE
  5
3B9
  8
002
 62
     3
 10
280.376083
 20
118.398978
 30
0.0
 11
280.376083
 21
123.898978
 31
0.0
  0
LINE
  5
3BA
  8
002
 62
     3
 10
223.376083
 20
121.898978
 30
0.0
 11
268.376083
 21
121.898978
 31
0.0
  0
LINE
  5
3BB
  8
002
 62
     3
 10
268.376083
 20
118.398978
 30
0.0
 11
268.376083
 21
121.898978
 31
0.0
  0
ARC
  5
3BC
  8
002
 62
     3
 10
265.376083
 20
74.398978
 30
0.0
 40
2.0
 50
90.0
 51
180.0
  0
ARC
  5
3BD
  8
002
 62
     3
 10
270.376083
 20
118.398978
 30
0.0
 40
2.0
 50
180.0
 51
270.0
  0
LINE
  5
3BE
  8
002
 62
     3
 10
263.376083
 20
74.398978
 30
0.0
 11
263.376083
 21
68.898978
 31
0.0
  0
ARC
  5
3BF
  8
002
 62
     3
 10
278.376083
 20
118.398978
 30
0.0
 40
2.0
 50
270.0
 51
0.0
  0
ARC
  5
3C0
  8
002
 62
     3
 10
278.376083
 20
74.398978
 30
0.0
 40
2.0
 50
0.0
 51
90.0
  0
ARC
  5
3C1
  8
002
 62
     3
 10
223.376083
 20
123.898978
 30
0.0
 40
2.0
 50
180.0
 51
270.0
  0
LINE
  5
3C2
  8
002
  6
CENTER
 62
    40
 10
266.376083
 20
118.266913
 30
0.0
 11
266.376083
 21
74.424669
 31
0.0
  0
ARC
  5
3C3
  8
002
 62
     3
 10
248.376083
 20
78.398978
 30
0.0
 40
2.0
 50
180.0
 51
270.0
  0
ARC
  5
3C4
  8
002
 62
     3
 10
248.376083
 20
114.398978
 30
0.0
 40
2.0
 50
90.0
 51
180.0
  0
ARC
  5
3C5
  8
002
 62
     3
 10
284.376083
 20
114.398978
 30
0.0
 40
2.0
 50
0.0
 51
90.0
  0
ARC
  5
3C6
  8
002
 62
     3
 10
284.376083
 20
78.398978
 30
0.0
 40
2.0
 50
270.0
 51
0.0
  0
LINE
  5
3C7
  8
002
 62
     3
 10
205.376083
 20
123.898978
 30
0.0
 11
205.376083
 21
68.898978
 31
0.0
  0
LINE
  5
3C8
  8
002
 62
     3
 10
264.876083
 20
82.501678
 30
0.0
 11
264.876083
 21
84.298978
 31
0.0
  0
ARC
  5
3C9
  8
002
 62
     3
 10
269.876083
 20
84.298978
 30
0.0
 40
1.999987664961913
 50
45.149904
 51
180.0
  0
ARC
  5
3CA
  8
002
 62
     3
 10
272.697083
 20
87.134778
 30
0.0
 40
1.999987664962033
 50
225.149904
 51
306.869898
  0
CIRCLE
  5
3CB
  8
002
 62
     3
 10
269.876083
 20
84.298978
 30
0.0
 40
1.0
  0
LINE
  5
3CC
  8
002
 62
     3
 10
267.876083
 20
84.298978
 30
0.0
 11
267.876083
 21
82.501678
 31
0.0
  0
CIRCLE
  5
3CD
  8
002
 62
     3
 10
262.876083
 20
84.298978
 30
0.0
 40
1.0
  0
ARC
  5
3CE
  8
002
 62
     3
 10
260.055183
 20
87.134778
 30
0.0
 40
1.999999999999977
 50
233.130102
 51
314.848065
  0
ARC
  5
3CF
  8
002
 62
     3
 10
266.376083
 20
95.563478
 30
0.0
 40
12.53556000703597
 50
306.867978
 51
233.132388
  0
ARC
  5
3D0
  8
002
 62
     3
 10
262.876083
 20
84.298978
 30
0.0
 40
2.0
 50
0.0
 51
134.850096
  0
CIRCLE
  5
3D1
  8
002
 62
     3
 10
266.376083
 20
96.398978
 30
0.0
 40
6.0
  0
LINE
  5
3D2
  8
002
 62
     3
 10
263.059483
 20
101.398978
 30
0.0
 11
269.692783
 21
101.398978
 31
0.0
  0
CIRCLE
  5
3D3
  8
002
 62
     3
 10
266.376083
 20
96.398978
 30
0.0
 40
14.0
  0
LINE
  5
3D4
  8
002
  6
CENTER
 62
    40
 10
213.375983
 20
125.902087
 30
0.0
 11
213.375983
 21
64.338378
 31
0.0
  0
LINE
  5
3D5
  8
002
  6
CENTER
 62
    40
 10
288.376083
 20
62.841278
 30
0.0
 11
288.376083
 21
125.902087
 31
0.0
  0
LINE
  5
3D6
  8
002
 62
     3
 10
205.376083
 20
123.898978
 30
0.0
 11
264.376083
 21
123.898978
 31
0.0
  0
LINE
  5
3D7
  8
002
 62
     3
 10
205.376083
 20
68.898978
 30
0.0
 11
263.376083
 21
68.898978
 31
0.0
  0
LINE
  5
3D8
  8
002
 62
    40
 10
263.293583
 20
123.898978
 30
0.0
 11
263.293583
 21
121.898978
 31
0.0
  0
LINE
  5
3D9
  8
002
 62
     3
 10
264.376083
 20
121.898978
 30
0.0
 11
264.376083
 21
123.898978
 31
0.0
  0
LINE
  5
3DA
  8
002
 62
     3
 10
348.956883
 20
90.398978
 30
0.0
 11
325.956843
 21
90.398978
 31
0.0
  0
LINE
  5
3DB
  8
002
 62
     3
 10
325.956843
 20
90.398978
 30
0.0
 11
324.956843
 21
91.398978
 31
0.0
  0
LINE
  5
3DC
  8
002
 62
     3
 10
324.956843
 20
91.398978
 30
0.0
 11
324.956843
 21
101.398978
 31
0.0
  0
LINE
  5
3DD
  8
002
 62
     3
 10
324.956843
 20
101.398978
 30
0.0
 11
344.956883
 21
101.398978
 31
0.0
  0
LINE
  5
3DE
  8
002
 62
     3
 10
344.956883
 20
101.398978
 30
0.0
 11
344.956883
 21
102.398978
 31
0.0
  0
LINE
  5
3DF
  8
002
 62
     3
 10
344.956883
 20
102.398978
 30
0.0
 11
348.956883
 21
102.398978
 31
0.0
  0
LINE
  5
3E0
  8
002
 62
     3
 10
325.956843
 20
101.398978
 30
0.0
 11
325.956843
 21
90.398978
 31
0.0
  0
LINE
  5
3E1
  8
002
 62
     3
 10
420.956883
 20
102.398978
 30
0.0
 11
424.956883
 21
102.398978
 31
0.0
  0
LINE
  5
3E2
  8
002
 62
     3
 10
424.956883
 20
102.398978
 30
0.0
 11
424.956883
 21
101.398978
 31
0.0
  0
LINE
  5
3E3
  8
002
 62
     3
 10
424.956883
 20
101.398978
 30
0.0
 11
444.956883
 21
101.398978
 31
0.0
  0
LINE
  5
3E4
  8
002
 62
     3
 10
444.956883
 20
101.398978
 30
0.0
 11
444.956883
 21
91.398978
 31
0.0
  0
LINE
  5
3E5
  8
002
 62
     3
 10
444.956883
 20
91.398978
 30
0.0
 11
443.956883
 21
90.398978
 31
0.0
  0
LINE
  5
3E6
  8
002
 62
     3
 10
443.956883
 20
90.398978
 30
0.0
 11
420.956883
 21
90.398978
 31
0.0
  0
LINE
  5
3E7
  8
002
 62
     3
 10
443.956883
 20
90.398978
 30
0.0
 11
443.956883
 21
101.398978
 31
0.0
  0
LINE
  5
3E8
  8
002
 62
     3
 10
367.956883
 20
123.898978
 30
0.0
 11
367.956883
 21
68.898978
 31
0.0
  0
LINE
  5
3E9
  8
002
 62
     3
 10
351.956883
 20
68.898978
 30
0.0
 11
351.956883
 21
123.898978
 31
0.0
  0
LINE
  5
3EA
  8
002
 62
     3
 10
401.956883
 20
68.898978
 30
0.0
 11
401.956883
 21
123.898978
 31
0.0
  0
LINE
  5
3EB
  8
002
 62
     3
 10
417.956883
 20
123.898978
 30
0.0
 11
417.956883
 21
68.898978
 31
0.0
  0
POLYLINE
  5
3EC
  8
002
 62
     3
 66
     1
 10
0.0
 20
0.0
 30
0.0
  0
VERTEX
  5
3EE
  8
002
 62
     3
 10
417.956883
 20
74.398978
 30
0.0
  0
VERTEX
  5
3EF
  8
002
 62
     3
 10
417.981542
 20
74.701682
 30
0.0
  0
VERTEX
  5
3F0
  8
002
 62
     3
 10
418.031122
 20
74.999438
 30
0.0
  0
VERTEX
  5
3F1
  8
002
 62
     3
 10
418.088589
 20
75.192476
 30
0.0
  0
VERTEX
  5
3F2
  8
002
 62
     3
 10
418.165553
 20
75.379267
 30
0.0
  0
VERTEX
  5
3F3
  8
002
 62
     3
 10
418.26504
 20
75.566272
 30
0.0
  0
VERTEX
  5
3F4
  8
002
 62
     3
 10
418.384002
 20
75.741083
 30
0.0
  0
VERTEX
  5
3F5
  8
002
 62
     3
 10
418.476855
 20
75.851884
 30
0.0
  0
VERTEX
  5
3F6
  8
002
 62
     3
 10
418.578752
 20
75.954473
 30
0.0
  0
VERTEX
  5
3F7
  8
002
 62
     3
 10
418.697462
 20
76.054275
 30
0.0
  0
VERTEX
  5
3F8
  8
002
 62
     3
 10
418.824992
 20
76.142478
 30
0.0
  0
VERTEX
  5
3F9
  8
002
 62
     3
 10
418.923425
 20
76.199178
 30
0.0
  0
VERTEX
  5
3FA
  8
002
 62
     3
 10
419.02554
 20
76.248852
 30
0.0
  0
VERTEX
  5
3FB
  8
002
 62
     3
 10
419.138206
 20
76.294009
 30
0.0
  0
VERTEX
  5
3FC
  8
002
 62
     3
 10
419.253838
 20
76.331167
 30
0.0
  0
VERTEX
  5
3FD
  8
002
 62
     3
 10
419.373662
 20
76.360795
 30
0.0
  0
VERTEX
  5
3FE
  8
002
 62
     3
 10
419.495218
 20
76.38132
 30
0.0
  0
VERTEX
  5
3FF
  8
002
 62
     3
 10
419.62574
 20
76.393055
 30
0.0
  0
VERTEX
  5
400
  8
002
 62
     3
 10
419.756883
 20
76.398978
 30
0.0
  0
SEQEND
  5
3ED
  8
002
 62
     3
  0
POLYLINE
  5
401
  8
002
 62
     3
 66
     1
 10
0.0
 20
0.0
 30
0.0
  0
VERTEX
  5
403
  8
002
 62
     3
 10
400.156883
 20
76.398978
 30
0.0
  0
VERTEX
  5
404
  8
002
 62
     3
 10
400.283766
 20
76.393421
 30
0.0
  0
VERTEX
  5
405
  8
002
 62
     3
 10
400.410095
 20
76.382461
 30
0.0
  0
VERTEX
  5
406
  8
002
 62
     3
 10
400.535928
 20
76.361665
 30
0.0
  0
VERTEX
  5
407
  8
002
 62
     3
 10
400.659928
 20
76.331167
 30
0.0
  0
VERTEX
  5
408
  8
002
 62
     3
 10
400.772838
 20
76.294994
 30
0.0
  0
VERTEX
  5
409
  8
002
 62
     3
 10
400.882933
 20
76.251195
 30
0.0
  0
VERTEX
  5
40A
  8
002
 62
     3
 10
400.987783
 20
76.20053
 30
0.0
  0
VERTEX
  5
40B
  8
002
 62
     3
 10
401.088775
 20
76.142478
 30
0.0
  0
VERTEX
  5
40C
  8
002
 62
     3
 10
401.21319
 20
76.056656
 30
0.0
  0
VERTEX
  5
40D
  8
002
 62
     3
 10
401.329243
 20
75.959784
 30
0.0
  0
VERTEX
  5
40E
  8
002
 62
     3
 10
401.434264
 20
75.854777
 30
0.0
  0
VERTEX
  5
40F
  8
002
 62
     3
 10
401.529765
 20
75.741083
 30
0.0
  0
VERTEX
  5
410
  8
002
 62
     3
 10
401.646044
 20
75.570738
 30
0.0
  0
VERTEX
  5
411
  8
002
 62
     3
 10
401.743794
 20
75.388724
 30
0.0
  0
VERTEX
  5
412
  8
002
 62
     3
 10
401.823463
 20
75.197404
 30
0.0
  0
VERTEX
  5
413
  8
002
 62
     3
 10
401.882645
 20
74.999438
 30
0.0
  0
VERTEX
  5
414
  8
002
 62
     3
 10
401.932208
 20
74.701671
 30
0.0
  0
VERTEX
  5
415
  8
002
 62
     3
 10
401.956883
 20
74.398978
 30
0.0
  0
SEQEND
  5
402
  8
002
 62
     3
  0
POLYLINE
  5
416
  8
002
 62
     3
 66
     1
 10
0.0
 20
0.0
 30
0.0
  0
VERTEX
  5
418
  8
002
 62
     3
 10
401.956883
 20
118.398978
 30
0.0
  0
VERTEX
  5
419
  8
002
 62
     3
 10
401.932225
 20
118.096274
 30
0.0
  0
VERTEX
  5
41A
  8
002
 62
     3
 10
401.882645
 20
117.798518
 30
0.0
  0
VERTEX
  5
41B
  8
002
 62
     3
 10
401.825178
 20
117.605479
 30
0.0
  0
VERTEX
  5
41C
  8
002
 62
     3
 10
401.748214
 20
117.418689
 30
0.0
  0
VERTEX
  5
41D
  8
002
 62
     3
 10
401.648726
 20
117.231683
 30
0.0
  0
VERTEX
  5
41E
  8
002
 62
     3
 10
401.529765
 20
117.056872
 30
0.0
  0
VERTEX
  5
41F
  8
002
 62
     3
 10
401.436912
 20
116.946072
 30
0.0
  0
VERTEX
  5
420
  8
002
 62
     3
 10
401.335015
 20
116.843483
 30
0.0
  0
VERTEX
  5
421
  8
002
 62
     3
 10
401.216305
 20
116.74368
 30
0.0
  0
VERTEX
  5
422
  8
002
 62
     3
 10
401.088775
 20
116.655478
 30
0.0
  0
VERTEX
  5
423
  8
002
 62
     3
 10
400.990342
 20
116.598778
 30
0.0
  0
VERTEX
  5
424
  8
002
 62
     3
 10
400.888226
 20
116.549104
 30
0.0
  0
VERTEX
  5
425
  8
002
 62
     3
 10
400.775561
 20
116.503947
 30
0.0
  0
VERTEX
  5
426
  8
002
 62
     3
 10
400.659928
 20
116.466789
 30
0.0
  0
VERTEX
  5
427
  8
002
 62
     3
 10
400.540105
 20
116.437161
 30
0.0
  0
VERTEX
  5
428
  8
002
 62
     3
 10
400.418549
 20
116.416636
 30
0.0
  0
VERTEX
  5
429
  8
002
 62
     3
 10
400.288027
 20
116.404901
 30
0.0
  0
VERTEX
  5
42A
  8
002
 62
     3
 10
400.156883
 20
116.398978
 30
0.0
  0
SEQEND
  5
417
  8
002
 62
     3
  0
POLYLINE
  5
42B
  8
002
 62
     3
 66
     1
 10
0.0
 20
0.0
 30
0.0
  0
VERTEX
  5
42D
  8
002
 62
     3
 10
419.756883
 20
116.398978
 30
0.0
  0
VERTEX
  5
42E
  8
002
 62
     3
 10
419.630001
 20
116.404535
 30
0.0
  0
VERTEX
  5
42F
  8
002
 62
     3
 10
419.503672
 20
116.415494
 30
0.0
  0
VERTEX
  5
430
  8
002
 62
     3
 10
419.377839
 20
116.43629
 30
0.0
  0
VERTEX
  5
431
  8
002
 62
     3
 10
419.253838
 20
116.466789
 30
0.0
  0
VERTEX
  5
432
  8
002
 62
     3
 10
419.140929
 20
116.502962
 30
0.0
  0
VERTEX
  5
433
  8
002
 62
     3
 10
419.030833
 20
116.546761
 30
0.0
  0
VERTEX
  5
434
  8
002
 62
     3
 10
418.925984
 20
116.597426
 30
0.0
  0
VERTEX
  5
435
  8
002
 62
     3
 10
418.824992
 20
116.655478
 30
0.0
  0
VERTEX
  5
436
  8
002
 62
     3
 10
418.700577
 20
116.7413
 30
0.0
  0
VERTEX
  5
437
  8
002
 62
     3
 10
418.584524
 20
116.838172
 30
0.0
  0
VERTEX
  5
438
  8
002
 62
     3
 10
418.479503
 20
116.943178
 30
0.0
  0
VERTEX
  5
439
  8
002
 62
     3
 10
418.384002
 20
117.056872
 30
0.0
  0
VERTEX
  5
43A
  8
002
 62
     3
 10
418.267723
 20
117.227218
 30
0.0
  0
VERTEX
  5
43B
  8
002
 62
     3
 10
418.169973
 20
117.409232
 30
0.0
  0
VERTEX
  5
43C
  8
002
 62
     3
 10
418.090304
 20
117.600551
 30
0.0
  0
VERTEX
  5
43D
  8
002
 62
     3
 10
418.031122
 20
117.798518
 30
0.0
  0
VERTEX
  5
43E
  8
002
 62
     3
 10
417.981559
 20
118.096285
 30
0.0
  0
VERTEX
  5
43F
  8
002
 62
     3
 10
417.956883
 20
118.398978
 30
0.0
  0
SEQEND
  5
42C
  8
002
 62
     3
  0
POLYLINE
  5
440
  8
002
 62
     3
 66
     1
 10
0.0
 20
0.0
 30
0.0
  0
VERTEX
  5
442
  8
002
 62
     3
 10
350.156883
 20
76.398978
 30
0.0
  0
VERTEX
  5
443
  8
002
 62
     3
 10
350.283766
 20
76.393421
 30
0.0
  0
VERTEX
  5
444
  8
002
 62
     3
 10
350.410095
 20
76.382461
 30
0.0
  0
VERTEX
  5
445
  8
002
 62
     3
 10
350.535928
 20
76.361665
 30
0.0
  0
VERTEX
  5
446
  8
002
 62
     3
 10
350.659928
 20
76.331167
 30
0.0
  0
VERTEX
  5
447
  8
002
 62
     3
 10
350.772838
 20
76.294994
 30
0.0
  0
VERTEX
  5
448
  8
002
 62
     3
 10
350.882933
 20
76.251195
 30
0.0
  0
VERTEX
  5
449
  8
002
 62
     3
 10
350.987783
 20
76.20053
 30
0.0
  0
VERTEX
  5
44A
  8
002
 62
     3
 10
351.088775
 20
76.142478
 30
0.0
  0
VERTEX
  5
44B
  8
002
 62
     3
 10
351.21319
 20
76.056656
 30
0.0
  0
VERTEX
  5
44C
  8
002
 62
     3
 10
351.329243
 20
75.959784
 30
0.0
  0
VERTEX
  5
44D
  8
002
 62
     3
 10
351.434264
 20
75.854777
 30
0.0
  0
VERTEX
  5
44E
  8
002
 62
     3
 10
351.529765
 20
75.741083
 30
0.0
  0
VERTEX
  5
44F
  8
002
 62
     3
 10
351.646044
 20
75.570738
 30
0.0
  0
VERTEX
  5
450
  8
002
 62
     3
 10
351.743794
 20
75.388724
 30
0.0
  0
VERTEX
  5
451
  8
002
 62
     3
 10
351.823463
 20
75.197404
 30
0.0
  0
VERTEX
  5
452
  8
002
 62
     3
 10
351.882645
 20
74.999438
 30
0.0
  0
VERTEX
  5
453
  8
002
 62
     3
 10
351.932208
 20
74.701671
 30
0.0
  0
VERTEX
  5
454
  8
002
 62
     3
 10
351.956883
 20
74.398978
 30
0.0
  0
SEQEND
  5
441
  8
002
 62
     3
  0
POLYLINE
  5
455
  8
002
 62
     3
 66
     1
 10
0.0
 20
0.0
 30
0.0
  0
VERTEX
  5
457
  8
002
 62
     3
 10
367.956883
 20
74.398978
 30
0.0
  0
VERTEX
  5
458
  8
002
 62
     3
 10
367.981542
 20
74.701682
 30
0.0
  0
VERTEX
  5
459
  8
002
 62
     3
 10
368.031122
 20
74.999438
 30
0.0
  0
VERTEX
  5
45A
  8
002
 62
     3
 10
368.088589
 20
75.192476
 30
0.0
  0
VERTEX
  5
45B
  8
002
 62
     3
 10
368.165553
 20
75.379267
 30
0.0
  0
VERTEX
  5
45C
  8
002
 62
     3
 10
368.26504
 20
75.566272
 30
0.0
  0
VERTEX
  5
45D
  8
002
 62
     3
 10
368.384002
 20
75.741083
 30
0.0
  0
VERTEX
  5
45E
  8
002
 62
     3
 10
368.476855
 20
75.851884
 30
0.0
  0
VERTEX
  5
45F
  8
002
 62
     3
 10
368.578752
 20
75.954473
 30
0.0
  0
VERTEX
  5
460
  8
002
 62
     3
 10
368.697462
 20
76.054275
 30
0.0
  0
VERTEX
  5
461
  8
002
 62
     3
 10
368.824992
 20
76.142478
 30
0.0
  0
VERTEX
  5
462
  8
002
 62
     3
 10
368.923425
 20
76.199178
 30
0.0
  0
VERTEX
  5
463
  8
002
 62
     3
 10
369.02554
 20
76.248852
 30
0.0
  0
VERTEX
  5
464
  8
002
 62
     3
 10
369.138206
 20
76.294009
 30
0.0
  0
VERTEX
  5
465
  8
002
 62
     3
 10
369.253838
 20
76.331167
 30
0.0
  0
VERTEX
  5
466
  8
002
 62
     3
 10
369.373662
 20
76.360795
 30
0.0
  0
VERTEX
  5
467
  8
002
 62
     3
 10
369.495218
 20
76.38132
 30
0.0
  0
VERTEX
  5
468
  8
002
 62
     3
 10
369.62574
 20
76.393055
 30
0.0
  0
VERTEX
  5
469
  8
002
 62
     3
 10
369.756883
 20
76.398978
 30
0.0
  0
SEQEND
  5
456
  8
002
 62
     3
  0
POLYLINE
  5
46A
  8
002
 62
     3
 66
     1
 10
0.0
 20
0.0
 30
0.0
  0
VERTEX
  5
46C
  8
002
 62
     3
 10
351.956883
 20
118.398978
 30
0.0
  0
VERTEX
  5
46D
  8
002
 62
     3
 10
351.932225
 20
118.096274
 30
0.0
  0
VERTEX
  5
46E
  8
002
 62
     3
 10
351.882645
 20
117.798518
 30
0.0
  0
VERTEX
  5
46F
  8
002
 62
     3
 10
351.825178
 20
117.605479
 30
0.0
  0
VERTEX
  5
470
  8
002
 62
     3
 10
351.748214
 20
117.418689
 30
0.0
  0
VERTEX
  5
471
  8
002
 62
     3
 10
351.648726
 20
117.231683
 30
0.0
  0
VERTEX
  5
472
  8
002
 62
     3
 10
351.529765
 20
117.056872
 30
0.0
  0
VERTEX
  5
473
  8
002
 62
     3
 10
351.436912
 20
116.946072
 30
0.0
  0
VERTEX
  5
474
  8
002
 62
     3
 10
351.335015
 20
116.843483
 30
0.0
  0
VERTEX
  5
475
  8
002
 62
     3
 10
351.216305
 20
116.74368
 30
0.0
  0
VERTEX
  5
476
  8
002
 62
     3
 10
351.088775
 20
116.655478
 30
0.0
  0
VERTEX
  5
477
  8
002
 62
     3
 10
350.990342
 20
116.598778
 30
0.0
  0
VERTEX
  5
478
  8
002
 62
     3
 10
350.888226
 20
116.549104
 30
0.0
  0
VERTEX
  5
479
  8
002
 62
     3
 10
350.775561
 20
116.503947
 30
0.0
  0
VERTEX
  5
47A
  8
002
 62
     3
 10
350.659928
 20
116.466789
 30
0.0
  0
VERTEX
  5
47B
  8
002
 62
     3
 10
350.540105
 20
116.437161
 30
0.0
  0
VERTEX
  5
47C
  8
002
 62
     3
 10
350.418549
 20
116.416636
 30
0.0
  0
VERTEX
  5
47D
  8
002
 62
     3
 10
350.288027
 20
116.404901
 30
0.0
  0
VERTEX
  5
47E
  8
002
 62
     3
 10
350.156883
 20
116.398978
 30
0.0
  0
SEQEND
  5
46B
  8
002
 62
     3
  0
POLYLINE
  5
47F
  8
002
 62
     3
 66
     1
 10
0.0
 20
0.0
 30
0.0
  0
VERTEX
  5
481
  8
002
 62
     3
 10
369.756883
 20
116.398978
 30
0.0
  0
VERTEX
  5
482
  8
002
 62
     3
 10
369.630001
 20
116.404535
 30
0.0
  0
VERTEX
  5
483
  8
002
 62
     3
 10
369.503672
 20
116.415494
 30
0.0
  0
VERTEX
  5
484
  8
002
 62
     3
 10
369.377839
 20
116.43629
 30
0.0
  0
VERTEX
  5
485
  8
002
 62
     3
 10
369.253838
 20
116.466789
 30
0.0
  0
VERTEX
  5
486
  8
002
 62
     3
 10
369.140929
 20
116.502962
 30
0.0
  0
VERTEX
  5
487
  8
002
 62
     3
 10
369.030833
 20
116.546761
 30
0.0
  0
VERTEX
  5
488
  8
002
 62
     3
 10
368.925984
 20
116.597426
 30
0.0
  0
VERTEX
  5
489
  8
002
 62
     3
 10
368.824992
 20
116.655478
 30
0.0
  0
VERTEX
  5
48A
  8
002
 62
     3
 10
368.700577
 20
116.7413
 30
0.0
  0
VERTEX
  5
48B
  8
002
 62
     3
 10
368.584524
 20
116.838172
 30
0.0
  0
VERTEX
  5
48C
  8
002
 62
     3
 10
368.479503
 20
116.943178
 30
0.0
  0
VERTEX
  5
48D
  8
002
 62
     3
 10
368.384002
 20
117.056872
 30
0.0
  0
VERTEX
  5
48E
  8
002
 62
     3
 10
368.267723
 20
117.227218
 30
0.0
  0
VERTEX
  5
48F
  8
002
 62
     3
 10
368.169973
 20
117.409232
 30
0.0
  0
VERTEX
  5
490
  8
002
 62
     3
 10
368.090304
 20
117.600551
 30
0.0
  0
VERTEX
  5
491
  8
002
 62
     3
 10
368.031122
 20
117.798518
 30
0.0
  0
VERTEX
  5
492
  8
002
 62
     3
 10
367.981559
 20
118.096285
 30
0.0
  0
VERTEX
  5
493
  8
002
 62
     3
 10
367.956883
 20
118.398978
 30
0.0
  0
SEQEND
  5
480
  8
002
 62
     3
  0
LINE
  5
494
  8
002
 62
     3
 10
420.956883
 20
76.398978
 30
0.0
 11
420.956883
 21
116.398978
 31
0.0
  0
LINE
  5
495
  8
002
 62
     3
 10
348.956883
 20
76.398978
 30
0.0
 11
348.956883
 21
116.398978
 31
0.0
  0
LINE
  5
496
  8
002
 62
     3
 10
400.156883
 20
76.398978
 30
0.0
 11
369.756883
 21
76.398978
 31
0.0
  0
LINE
  5
497
  8
002
 62
     3
 10
400.156883
 20
116.398978
 30
0.0
 11
369.756883
 21
116.398978
 31
0.0
  0
LINE
  5
498
  8
002
 62
     3
 10
401.956883
 20
121.898978
 30
0.0
 11
367.956883
 21
121.898978
 31
0.0
  0
LINE
  5
499
  8
002
 62
     3
 10
351.956883
 20
68.898978
 30
0.0
 11
417.956883
 21
68.898978
 31
0.0
  0
ARC
  5
49A
  8
002
 62
     3
 10
399.956883
 20
123.898978
 30
0.0
 40
2.0
 50
270.0
 51
0.0
  0
ARC
  5
49B
  8
002
 62
     3
 10
369.956883
 20
123.898978
 30
0.0
 40
2.0
 50
180.0
 51
270.0
  0
LINE
  5
49C
  8
002
 62
     3
 10
417.956883
 20
123.898978
 30
0.0
 11
351.956883
 21
123.898978
 31
0.0
  0
LINE
  5
49D
  8
002
 62
     3
 10
420.956883
 20
116.398978
 30
0.0
 11
419.756883
 21
116.398978
 31
0.0
  0
LINE
  5
49E
  8
002
 62
     3
 10
420.956883
 20
76.398978
 30
0.0
 11
419.756883
 21
76.398978
 31
0.0
  0
LINE
  5
49F
  8
002
 62
     3
 10
348.956883
 20
76.398978
 30
0.0
 11
350.156883
 21
76.398978
 31
0.0
  0
LINE
  5
4A0
  8
002
 62
     3
 10
348.956883
 20
116.398978
 30
0.0
 11
350.156883
 21
116.398978
 31
0.0
  0
LINE
  5
4A1
  8
002
 62
     3
 10
634.041883
 20
123.898978
 30
0.0
 11
634.041883
 21
68.898978
 31
0.0
  0
LINE
  5
4A2
  8
002
 62
     3
 10
618.041883
 20
123.898978
 30
0.0
 11
634.041883
 21
123.898978
 31
0.0
  0
LINE
  5
4A3
  8
002
 62
     3
 10
618.041883
 20
68.898978
 30
0.0
 11
634.041883
 21
68.898978
 31
0.0
  0
LINE
  5
4A4
  8
002
 62
     3
 10
559.041883
 20
123.898978
 30
0.0
 11
559.041883
 21
68.898978
 31
0.0
  0
LINE
  5
4A5
  8
002
 62
     3
 10
622.041883
 20
76.398978
 30
0.0
 11
586.041883
 21
76.398978
 31
0.0
  0
LINE
  5
4A6
  8
002
 62
     3
 10
618.041883
 20
74.398978
 30
0.0
 11
618.041883
 21
68.898978
 31
0.0
  0
LINE
  5
4A7
  8
002
 62
     3
 10
584.041883
 20
114.398978
 30
0.0
 11
584.041883
 21
78.398978
 31
0.0
  0
LINE
  5
4A8
  8
002
 62
     3
 10
622.041883
 20
116.398978
 30
0.0
 11
586.041883
 21
116.398978
 31
0.0
  0
LINE
  5
4A9
  8
002
 62
     3
 10
624.041883
 20
78.398978
 30
0.0
 11
624.041883
 21
114.398978
 31
0.0
  0
LINE
  5
4AA
  8
002
 62
     3
 10
618.041883
 20
118.398978
 30
0.0
 11
618.041883
 21
123.898978
 31
0.0
  0
LINE
  5
4AB
  8
002
 62
     3
 10
561.041883
 20
121.898978
 30
0.0
 11
606.041883
 21
121.898978
 31
0.0
  0
LINE
  5
4AC
  8
002
 62
     3
 10
606.041883
 20
118.398978
 30
0.0
 11
606.041883
 21
121.898978
 31
0.0
  0
ARC
  5
4AD
  8
002
 62
     3
 10
603.041883
 20
74.398978
 30
0.0
 40
2.0
 50
90.0
 51
180.0
  0
ARC
  5
4AE
  8
002
 62
     3
 10
608.041883
 20
118.398978
 30
0.0
 40
2.0
 50
180.0
 51
270.0
  0
LINE
  5
4AF
  8
002
 62
     3
 10
601.041883
 20
74.398978
 30
0.0
 11
601.041883
 21
68.898978
 31
0.0
  0
ARC
  5
4B0
  8
002
 62
     3
 10
616.041883
 20
118.398978
 30
0.0
 40
2.0
 50
270.0
 51
0.0
  0
ARC
  5
4B1
  8
002
 62
     3
 10
616.041883
 20
74.398978
 30
0.0
 40
2.0
 50
0.0
 51
90.0
  0
ARC
  5
4B2
  8
002
 62
     3
 10
561.041883
 20
123.898978
 30
0.0
 40
2.0
 50
180.0
 51
270.0
  0
LINE
  5
4B3
  8
002
  6
CENTER
 62
    40
 10
604.041883
 20
118.266913
 30
0.0
 11
604.041883
 21
74.424669
 31
0.0
  0
ARC
  5
4B4
  8
002
 62
     3
 10
586.041883
 20
78.398978
 30
0.0
 40
2.0
 50
180.0
 51
270.0
  0
ARC
  5
4B5
  8
002
 62
     3
 10
586.041883
 20
114.398978
 30
0.0
 40
2.0
 50
90.0
 51
180.0
  0
ARC
  5
4B6
  8
002
 62
     3
 10
622.041883
 20
114.398978
 30
0.0
 40
2.0
 50
0.0
 51
90.0
  0
ARC
  5
4B7
  8
002
 62
     3
 10
622.041883
 20
78.398978
 30
0.0
 40
2.0
 50
270.0
 51
0.0
  0
LINE
  5
4B8
  8
002
 62
     3
 10
543.041883
 20
123.898978
 30
0.0
 11
543.041883
 21
68.898978
 31
0.0
  0
LINE
  5
4B9
  8
002
 62
     3
 10
602.541883
 20
82.501678
 30
0.0
 11
602.541883
 21
84.298978
 31
0.0
  0
ARC
  5
4BA
  8
002
 62
     3
 10
607.541883
 20
84.298978
 30
0.0
 40
1.999987664961913
 50
45.149904
 51
180.0
  0
ARC
  5
4BB
  8
002
 62
     3
 10
610.362883
 20
87.134778
 30
0.0
 40
1.999987664962033
 50
225.149904
 51
306.869898
  0
CIRCLE
  5
4BC
  8
002
 62
     3
 10
607.541883
 20
84.298978
 30
0.0
 40
1.0
  0
LINE
  5
4BD
  8
002
 62
     3
 10
605.541883
 20
84.298978
 30
0.0
 11
605.541883
 21
82.501678
 31
0.0
  0
CIRCLE
  5
4BE
  8
002
 62
     3
 10
600.541883
 20
84.298978
 30
0.0
 40
1.0
  0
ARC
  5
4BF
  8
002
 62
     3
 10
597.720983
 20
87.134778
 30
0.0
 40
1.999999999999977
 50
233.130102
 51
314.848065
  0
ARC
  5
4C0
  8
002
 62
     3
 10
604.041883
 20
95.563478
 30
0.0
 40
12.53556000703597
 50
306.867978
 51
233.132388
  0
ARC
  5
4C1
  8
002
 62
     3
 10
600.541883
 20
84.298978
 30
0.0
 40
2.0
 50
0.0
 51
134.850096
  0
CIRCLE
  5
4C2
  8
002
 62
     3
 10
604.041883
 20
96.398978
 30
0.0
 40
6.0
  0
LINE
  5
4C3
  8
002
 62
     3
 10
600.725283
 20
101.398978
 30
0.0
 11
607.358583
 21
101.398978
 31
0.0
  0
CIRCLE
  5
4C4
  8
002
 62
     3
 10
604.041883
 20
96.398978
 30
0.0
 40
14.0
  0
LINE
  5
4C5
  8
002
  6
CENTER
 62
    40
 10
551.041783
 20
125.902087
 30
0.0
 11
551.041783
 21
64.338378
 31
0.0
  0
LINE
  5
4C6
  8
002
  6
CENTER
 62
    40
 10
626.041883
 20
62.841278
 30
0.0
 11
626.041883
 21
125.902087
 31
0.0
  0
LINE
  5
4C7
  8
002
 62
     3
 10
543.041883
 20
123.898978
 30
0.0
 11
602.041883
 21
123.898978
 31
0.0
  0
LINE
  5
4C8
  8
002
 62
     3
 10
543.041883
 20
68.898978
 30
0.0
 11
601.041883
 21
68.898978
 31
0.0
  0
LINE
  5
4C9
  8
002
 62
    40
 10
600.959383
 20
123.898978
 30
0.0
 11
600.959383
 21
121.898978
 31
0.0
  0
LINE
  5
4CA
  8
002
 62
     3
 10
602.041883
 20
121.898978
 30
0.0
 11
602.041883
 21
123.898978
 31
0.0
  0
LINE
  5
4CB
  8
002
 62
     3
 10
1107.150424
 20
477.950766
 30
0.0
 11
1107.150424
 21
478.950766
 31
0.0
  0
LINE
  5
4CC
  8
002
 62
     3
 10
1107.150424
 20
407.950766
 30
0.0
 11
1107.150424
 21
406.950766
 31
0.0
  0
ARC
  5
4CD
  8
002
 62
     3
 10
1061.150424
 20
478.895167
 30
0.0
 40
6.0
 50
266.815261
 51
0.530934
  0
LINE
  5
4CE
  8
002
 62
     3
 10
1081.150424
 20
406.950766
 30
0.0
 11
1081.150424
 21
383.950766
 31
0.0
  0
LINE
  5
4CF
  8
002
 62
     3
 10
1081.150424
 20
383.950766
 30
0.0
 11
1082.150424
 21
382.950766
 31
0.0
  0
LINE
  5
4D0
  8
002
 62
     3
 10
1082.150424
 20
382.950766
 30
0.0
 11
1092.150424
 21
382.950766
 31
0.0
  0
LINE
  5
4D1
  8
002
 62
     3
 10
1092.150424
 20
382.950766
 30
0.0
 11
1093.150424
 21
383.950766
 31
0.0
  0
LINE
  5
4D2
  8
002
 62
     3
 10
1093.150424
 20
383.950766
 30
0.0
 11
1093.150424
 21
406.950766
 31
0.0
  0
ARC
  5
4D3
  8
002
 62
     3
 10
1087.150424
 20
393.516766
 30
0.0
 40
10.00000957799538
 50
70.629917
 51
109.369542
  0
LINE
  5
4D4
  8
002
 62
     3
 10
1083.833824
 20
402.950766
 30
0.0
 11
1083.833824
 21
382.950766
 31
0.0
  0
LINE
  5
4D5
  8
002
 62
     3
 10
1083.833824
 20
383.950766
 30
0.0
 11
1081.150424
 21
383.950766
 31
0.0
  0
LINE
  5
4D6
  8
002
 62
     3
 10
1090.467124
 20
383.950766
 30
0.0
 11
1093.150424
 21
383.950766
 31
0.0
  0
LINE
  5
4D7
  8
002
 62
     3
 10
1090.467124
 20
382.950766
 30
0.0
 11
1090.467124
 21
402.950766
 31
0.0
  0
LINE
  5
4D8
  8
002
 62
     3
 10
1081.150424
 20
478.950766
 30
0.0
 11
1081.150424
 21
501.950766
 31
0.0
  0
LINE
  5
4D9
  8
002
 62
     3
 10
1081.150424
 20
501.950766
 30
0.0
 11
1082.150424
 21
502.950766
 31
0.0
  0
LINE
  5
4DA
  8
002
 62
     3
 10
1082.150424
 20
502.950766
 30
0.0
 11
1092.150424
 21
502.950766
 31
0.0
  0
LINE
  5
4DB
  8
002
 62
     3
 10
1092.150424
 20
502.950766
 30
0.0
 11
1093.150424
 21
501.950766
 31
0.0
  0
LINE
  5
4DC
  8
002
 62
     3
 10
1093.150424
 20
501.950766
 30
0.0
 11
1093.150424
 21
478.950766
 31
0.0
  0
ARC
  5
4DD
  8
002
 62
     3
 10
1087.150424
 20
492.384766
 30
0.0
 40
10.00000957799538
 50
250.630458
 51
289.370083
  0
LINE
  5
4DE
  8
002
 62
     3
 10
1083.833824
 20
482.950766
 30
0.0
 11
1083.833824
 21
502.950766
 31
0.0
  0
LINE
  5
4DF
  8
002
 62
     3
 10
1083.833824
 20
501.950766
 30
0.0
 11
1081.150424
 21
501.950766
 31
0.0
  0
LINE
  5
4E0
  8
002
 62
     3
 10
1090.467124
 20
501.950766
 30
0.0
 11
1093.150424
 21
501.950766
 31
0.0
  0
LINE
  5
4E1
  8
002
 62
     3
 10
1090.467124
 20
502.950766
 30
0.0
 11
1090.467124
 21
482.950766
 31
0.0
  0
LINE
  5
4E2
  8
002
  6
CENTER
 62
    40
 10
1087.150424
 20
507.746814
 30
0.0
 11
1087.150424
 21
378.647662
 31
0.0
  0
LINE
  5
4E3
  8
001
 62
     3
 10
1101.037174
 20
442.950766
 30
0.0
 11
1099.593798
 21
440.450766
 31
0.0
  0
LINE
  5
4E4
  8
001
 62
     3
 10
1099.593798
 20
445.450766
 30
0.0
 11
1096.707049
 21
445.450766
 31
0.0
  0
LINE
  5
4E5
  8
001
 62
     3
 10
1095.263674
 20
442.950766
 30
0.0
 11
1096.707049
 21
445.450766
 31
0.0
  0
LINE
  5
4E6
  8
001
 62
     3
 10
1096.707049
 20
440.450766
 30
0.0
 11
1095.263674
 21
442.950766
 31
0.0
  0
LINE
  5
4E7
  8
001
 62
     3
 10
1099.593798
 20
440.450766
 30
0.0
 11
1096.707049
 21
440.450766
 31
0.0
  0
CIRCLE
  5
4E8
  8
001
 62
    40
 10
1098.150424
 20
442.950766
 30
0.0
 40
4.573499999999999
  0
CIRCLE
  5
4E9
  8
001
 62
     3
 10
1098.150424
 20
442.950766
 30
0.0
 40
4.863999999999999
  0
LINE
  5
4EA
  8
001
 62
     3
 10
1101.036679
 20
442.951624
 30
0.0
 11
1099.593798
 21
445.450766
 31
0.0
  0
LINE
  5
4EB
  8
002
  6
CENTER
 62
    40
 10
1059.150424
 20
406.950766
 30
0.0
 11
1059.150424
 21
478.950766
 31
0.0
  0
LINE
  5
4EC
  8
002
 62
     3
 10
1067.150424
 20
407.006364
 30
0.0
 11
1067.150424
 21
406.950766
 31
0.0
  0
CIRCLE
  5
4ED
  8
002
 62
     3
 10
1109.150424
 20
467.950766
 30
0.0
 40
8.0
  0
CIRCLE
  5
4EE
  8
002
 62
     3
 10
1109.150424
 20
417.950766
 30
0.0
 40
8.0
  0
LINE
  5
4EF
  8
002
 62
     3
 10
1107.150424
 20
457.950766
 30
0.0
 11
1107.150424
 21
427.950766
 31
0.0
  0
LINE
  5
4F0
  8
002
 62
     3
 10
1107.150424
 20
478.950766
 30
0.0
 11
1067.150424
 21
478.950766
 31
0.0
  0
LINE
  5
4F1
  8
002
 62
     3
 10
1107.150424
 20
406.950766
 30
0.0
 11
1067.150424
 21
406.950766
 31
0.0
  0
ARC
  5
4F2
  8
002
 62
     3
 10
1061.150424
 20
407.006364
 30
0.0
 40
6.0
 50
0.0
 51
93.184739
  0
ARC
  5
4F3
  8
002
 62
     3
 10
1045.435617
 20
476.235959
 30
0.0
 40
6.0
 50
216.28481
 51
292.393585
  0
ARC
  5
4F4
  8
002
 62
     3
 10
1045.435617
 20
409.665573
 30
0.0
 40
6.0
 50
67.606415
 51
143.71519
  0
ARC
  5
4F5
  8
002
 62
     3
 10
1025.865231
 20
456.665573
 30
0.0
 40
6.0
 50
337.606415
 51
53.71519
  0
ARC
  5
4F6
  8
002
 62
     3
 10
1059.150424
 20
442.950766
 30
0.0
 40
29.99999999999999
 50
157.606415
 51
202.393585
  0
ARC
  5
4F7
  8
002
 62
     3
 10
1025.865231
 20
429.235959
 30
0.0
 40
6.0
 50
306.28481
 51
22.393585
  0
ARC
  5
4F8
  8
002
 62
     3
 10
1109.150424
 20
477.950766
 30
0.0
 40
2.0
 50
180.0
 51
270.0
  0
ARC
  5
4F9
  8
002
 62
     3
 10
1109.150424
 20
407.950766
 30
0.0
 40
2.0
 50
90.0
 51
180.0
  0
ARC
  5
4FA
  8
002
 62
     3
 10
1109.150424
 20
427.950766
 30
0.0
 40
2.0
 50
180.0
 51
270.0
  0
ARC
  5
4FB
  8
002
 62
     3
 10
1109.150424
 20
457.950766
 30
0.0
 40
2.0
 50
90.0
 51
180.0
  0
LINE
  5
4FC
  8
002
  6
CENTER
 62
    40
 10
1034.150424
 20
407.950766
 30
0.0
 11
1034.150424
 21
427.950766
 31
0.0
  0
LINE
  5
4FD
  8
002
  6
CENTER
 62
    40
 10
1044.150424
 20
417.950766
 30
0.0
 11
1024.150424
 21
417.950766
 31
0.0
  0
LINE
  5
4FE
  8
002
  6
CENTER
 62
    40
 10
1034.150424
 20
457.950766
 30
0.0
 11
1034.150424
 21
477.950766
 31
0.0
  0
LINE
  5
4FF
  8
002
  6
CENTER
 62
    40
 10
1044.150424
 20
467.950766
 30
0.0
 11
1024.150424
 21
467.950766
 31
0.0
  0
LINE
  5
500
  8
002
  6
CENTER
 62
    40
 10
1109.150424
 20
457.950766
 30
0.0
 11
1109.150424
 21
477.950766
 31
0.0
  0
LINE
  5
501
  8
002
  6
CENTER
 62
    40
 10
1109.150424
 20
407.950766
 30
0.0
 11
1109.150424
 21
427.950766
 31
0.0
  0
LINE
  5
502
  8
002
  6
CENTER
 62
    40
 10
1119.150424
 20
417.950766
 30
0.0
 11
1099.150424
 21
417.950766
 31
0.0
  0
ARC
  5
503
  8
002
 62
     3
 10
1059.150424
 20
442.950766
 30
0.0
 40
30.0
 50
247.606415
 51
273.184739
  0
ARC
  5
504
  8
002
 62
     3
 10
1059.150424
 20
442.950766
 30
0.0
 40
30.0
 50
86.815261
 51
112.393585
  0
LINE
  5
505
  8
002
  6
CENTER
 62
    40
 10
1119.150424
 20
467.950766
 30
0.0
 11
1099.150424
 21
467.950766
 31
0.0
  0
ARC
  5
506
  8
002
 62
     3
 10
1043.742125
 20
465.122467
 30
0.0
 40
2.0
 50
163.570824
 51
304.797501
  0
ARC
  5
507
  8
002
 62
     3
 10
1034.150424
 20
467.950766
 30
0.0
 40
8.0
 50
343.570824
 51
286.429176
  0
ARC
  5
508
  8
002
 62
     3
 10
1036.978723
 20
458.359065
 30
0.0
 40
2.0
 50
325.202499
 51
106.429176
  0
ARC
  5
509
  8
002
 62
     3
 10
1036.978723
 20
427.542467
 30
0.0
 40
2.0
 50
253.570824
 51
34.797501
  0
ARC
  5
50A
  8
002
 62
     3
 10
1034.150424
 20
417.950766
 30
0.0
 40
8.0
 50
73.570824
 51
16.429176
  0
ARC
  5
50B
  8
002
 62
     3
 10
1043.742125
 20
420.779065
 30
0.0
 40
2.0
 50
55.202499
 51
196.429176
  0
LINE
  5
50C
  8
002
  6
CENTER
 62
    40
 10
1118.3054
 20
442.950766
 30
0.0
 11
1016.309494
 21
442.950766
 31
0.0
  0
LINE
  5
50D
  8
002
 62
     3
 10
899.898424
 20
256.655496
 30
0.0
 11
876.898384
 21
256.655496
 31
0.0
  0
LINE
  5
50E
  8
002
 62
     3
 10
876.898384
 20
256.655496
 30
0.0
 11
875.898384
 21
257.655496
 31
0.0
  0
LINE
  5
50F
  8
002
 62
     3
 10
875.898384
 20
257.655496
 30
0.0
 11
875.898384
 21
267.655496
 31
0.0
  0
LINE
  5
510
  8
002
 62
     3
 10
875.898384
 20
267.655496
 30
0.0
 11
895.898424
 21
267.655496
 31
0.0
  0
LINE
  5
511
  8
002
 62
     3
 10
895.898424
 20
267.655496
 30
0.0
 11
895.898424
 21
268.655496
 31
0.0
  0
LINE
  5
512
  8
002
 62
     3
 10
895.898424
 20
268.655496
 30
0.0
 11
899.898424
 21
268.655496
 31
0.0
  0
LINE
  5
513
  8
002
 62
     3
 10
876.898384
 20
267.655496
 30
0.0
 11
876.898384
 21
256.655496
 31
0.0
  0
LINE
  5
514
  8
002
 62
     3
 10
971.898424
 20
268.655496
 30
0.0
 11
975.898424
 21
268.655496
 31
0.0
  0
LINE
  5
515
  8
002
 62
     3
 10
975.898424
 20
268.655496
 30
0.0
 11
975.898424
 21
267.655496
 31
0.0
  0
LINE
  5
516
  8
002
 62
     3
 10
975.898424
 20
267.655496
 30
0.0
 11
995.898424
 21
267.655496
 31
0.0
  0
LINE
  5
517
  8
002
 62
     3
 10
995.898424
 20
267.655496
 30
0.0
 11
995.898424
 21
257.655496
 31
0.0
  0
LINE
  5
518
  8
002
 62
     3
 10
995.898424
 20
257.655496
 30
0.0
 11
994.898424
 21
256.655496
 31
0.0
  0
LINE
  5
519
  8
002
 62
     3
 10
994.898424
 20
256.655496
 30
0.0
 11
971.898424
 21
256.655496
 31
0.0
  0
LINE
  5
51A
  8
002
 62
     3
 10
994.898424
 20
256.655496
 30
0.0
 11
994.898424
 21
267.655496
 31
0.0
  0
LINE
  5
51B
  8
002
 62
     3
 10
968.898424
 20
290.155496
 30
0.0
 11
968.898424
 21
235.155496
 31
0.0
  0
LINE
  5
51C
  8
002
 62
     3
 10
952.898424
 20
282.655496
 30
0.0
 11
952.898424
 21
290.155496
 31
0.0
  0
LINE
  5
51D
  8
002
 62
     3
 10
954.449742
 20
282.655496
 30
0.0
 11
954.449742
 21
235.155496
 31
0.0
  0
LINE
  5
51E
  8
002
 62
     3
 10
918.898424
 20
290.155496
 30
0.0
 11
918.898424
 21
282.655496
 31
0.0
  0
LINE
  5
51F
  8
002
 62
     3
 10
902.898424
 20
235.155496
 30
0.0
 11
902.898424
 21
290.155496
 31
0.0
  0
LINE
  5
520
  8
002
 62
     3
 10
917.347105
 20
282.655496
 30
0.0
 11
917.347105
 21
235.155496
 31
0.0
  0
ARC
  5
521
  8
002
 62
     3
 10
920.898424
 20
235.155496
 30
0.0
 40
2.0
 50
90.0
 51
180.0
  0
POLYLINE
  5
522
  8
002
 62
     3
 66
     1
 10
0.0
 20
0.0
 30
0.0
  0
VERTEX
  5
524
  8
002
 62
     3
 10
920.579987
 20
237.155496
 30
0.0
  0
VERTEX
  5
525
  8
002
 62
     3
 10
920.340891
 20
237.139868
 30
0.0
  0
VERTEX
  5
526
  8
002
 62
     3
 10
920.103754
 20
237.11115
 30
0.0
  0
VERTEX
  5
527
  8
002
 62
     3
 10
919.868792
 20
237.058925
 30
0.0
  0
VERTEX
  5
528
  8
002
 62
     3
 10
919.638795
 20
236.985803
 30
0.0
  0
VERTEX
  5
529
  8
002
 62
     3
 10
919.34196
 20
236.863948
 30
0.0
  0
VERTEX
  5
52A
  8
002
 62
     3
 10
919.056937
 20
236.717268
 30
0.0
  0
VERTEX
  5
52B
  8
002
 62
     3
 10
918.786752
 20
236.549631
 30
0.0
  0
VERTEX
  5
52C
  8
002
 62
     3
 10
918.52873
 20
236.363409
 30
0.0
  0
VERTEX
  5
52D
  8
002
 62
     3
 10
918.199627
 20
236.08857
 30
0.0
  0
VERTEX
  5
52E
  8
002
 62
     3
 10
917.89289
 20
235.789379
 30
0.0
  0
VERTEX
  5
52F
  8
002
 62
     3
 10
917.614296
 20
235.477602
 30
0.0
  0
VERTEX
  5
530
  8
002
 62
     3
 10
917.347105
 20
235.155496
 30
0.0
  0
SEQEND
  5
523
  8
002
 62
     3
  0
POLYLINE
  5
531
  8
002
 62
     3
 66
     1
 10
0.0
 20
0.0
 30
0.0
  0
VERTEX
  5
533
  8
002
 62
     3
 10
954.449742
 20
235.155496
 30
0.0
  0
VERTEX
  5
534
  8
002
 62
     3
 10
954.185094
 20
235.47531
 30
0.0
  0
VERTEX
  5
535
  8
002
 62
     3
 10
953.909072
 20
235.784828
 30
0.0
  0
VERTEX
  5
536
  8
002
 62
     3
 10
953.599949
 20
236.086469
 30
0.0
  0
VERTEX
  5
537
  8
002
 62
     3
 10
953.268118
 20
236.363409
 30
0.0
  0
VERTEX
  5
538
  8
002
 62
     3
 10
953.013265
 20
236.547535
 30
0.0
  0
VERTEX
  5
539
  8
002
 62
     3
 10
952.746577
 20
236.713607
 30
0.0
  0
VERTEX
  5
53A
  8
002
 62
     3
 10
952.458385
 20
236.862451
 30
0.0
  0
VERTEX
  5
53B
  8
002
 62
     3
 10
952.158053
 20
236.985803
 30
0.0
  0
VERTEX
  5
53C
  8
002
 62
     3
 10
951.931617
 20
237.057791
 30
0.0
  0
VERTEX
  5
53D
  8
002
 62
     3
 10
951.70036
 20
237.109563
 30
0.0
  0
VERTEX
  5
53E
  8
002
 62
     3
 10
951.459628
 20
237.139237
 30
0.0
  0
VERTEX
  5
53F
  8
002
 62
     3
 10
951.216861
 20
237.155496
 30
0.0
  0
SEQEND
  5
532
  8
002
 62
     3
  0
ARC
  5
540
  8
002
 62
     3
 10
950.898424
 20
235.155496
 30
0.0
 40
2.0
 50
0.0
 51
90.0
  0
LINE
  5
541
  8
002
 62
     3
 10
920.579987
 20
237.155496
 30
0.0
 11
951.216861
 21
237.155496
 31
0.0
  0
LINE
  5
542
  8
002
 62
     3
 10
917.347105
 20
282.655496
 30
0.0
 11
954.449742
 21
282.655496
 31
0.0
  0
LINE
  5
543
  8
002
 62
     3
 10
968.898424
 20
290.155496
 30
0.0
 11
902.898424
 21
290.155496
 31
0.0
  0
LINE
  5
544
  8
002
 62
     3
 10
899.898424
 20
242.655496
 30
0.0
 11
899.898424
 21
282.655496
 31
0.0
  0
LINE
  5
545
  8
002
 62
     3
 10
971.898424
 20
242.655496
 30
0.0
 11
971.898424
 21
282.655496
 31
0.0
  0
POLYLINE
  5
546
  8
002
 62
     3
 66
     1
 10
0.0
 20
0.0
 30
0.0
  0
VERTEX
  5
548
  8
002
 62
     3
 10
968.898424
 20
240.655496
 30
0.0
  0
VERTEX
  5
549
  8
002
 62
     3
 10
968.923082
 20
240.9582
 30
0.0
  0
VERTEX
  5
54A
  8
002
 62
     3
 10
968.972663
 20
241.255956
 30
0.0
  0
VERTEX
  5
54B
  8
002
 62
     3
 10
969.030129
 20
241.448994
 30
0.0
  0
VERTEX
  5
54C
  8
002
 62
     3
 10
969.107093
 20
241.635785
 30
0.0
  0
VERTEX
  5
54D
  8
002
 62
     3
 10
969.206581
 20
241.82279
 30
0.0
  0
VERTEX
  5
54E
  8
002
 62
     3
 10
969.325542
 20
241.997602
 30
0.0
  0
VERTEX
  5
54F
  8
002
 62
     3
 10
969.418395
 20
242.108402
 30
0.0
  0
VERTEX
  5
550
  8
002
 62
     3
 10
969.520292
 20
242.210991
 30
0.0
  0
VERTEX
  5
551
  8
002
 62
     3
 10
969.639002
 20
242.310793
 30
0.0
  0
VERTEX
  5
552
  8
002
 62
     3
 10
969.766532
 20
242.398996
 30
0.0
  0
VERTEX
  5
553
  8
002
 62
     3
 10
969.864965
 20
242.455696
 30
0.0
  0
VERTEX
  5
554
  8
002
 62
     3
 10
969.967081
 20
242.50537
 30
0.0
  0
VERTEX
  5
555
  8
002
 62
     3
 10
970.079746
 20
242.550527
 30
0.0
  0
VERTEX
  5
556
  8
002
 62
     3
 10
970.195379
 20
242.587685
 30
0.0
  0
VERTEX
  5
557
  8
002
 62
     3
 10
970.315203
 20
242.617313
 30
0.0
  0
VERTEX
  5
558
  8
002
 62
     3
 10
970.436758
 20
242.637838
 30
0.0
  0
VERTEX
  5
559
  8
002
 62
     3
 10
970.567281
 20
242.649573
 30
0.0
  0
VERTEX
  5
55A
  8
002
 62
     3
 10
970.698424
 20
242.655496
 30
0.0
  0
SEQEND
  5
547
  8
002
 62
     3
  0
POLYLINE
  5
55B
  8
002
 62
     3
 66
     1
 10
0.0
 20
0.0
 30
0.0
  0
VERTEX
  5
55D
  8
002
 62
     3
 10
970.698424
 20
282.655496
 30
0.0
  0
VERTEX
  5
55E
  8
002
 62
     3
 10
970.571541
 20
282.661053
 30
0.0
  0
VERTEX
  5
55F
  8
002
 62
     3
 10
970.445212
 20
282.672012
 30
0.0
  0
VERTEX
  5
560
  8
002
 62
     3
 10
970.319379
 20
282.692809
 30
0.0
  0
VERTEX
  5
561
  8
002
 62
     3
 10
970.195379
 20
282.723307
 30
0.0
  0
VERTEX
  5
562
  8
002
 62
     3
 10
970.082469
 20
282.75948
 30
0.0
  0
VERTEX
  5
563
  8
002
 62
     3
 10
969.972374
 20
282.803279
 30
0.0
  0
VERTEX
  5
564
  8
002
 62
     3
 10
969.867525
 20
282.853944
 30
0.0
  0
VERTEX
  5
565
  8
002
 62
     3
 10
969.766532
 20
282.911996
 30
0.0
  0
VERTEX
  5
566
  8
002
 62
     3
 10
969.642117
 20
282.997818
 30
0.0
  0
VERTEX
  5
567
  8
002
 62
     3
 10
969.526064
 20
283.09469
 30
0.0
  0
VERTEX
  5
568
  8
002
 62
     3
 10
969.421043
 20
283.199696
 30
0.0
  0
VERTEX
  5
569
  8
002
 62
     3
 10
969.325542
 20
283.31339
 30
0.0
  0
VERTEX
  5
56A
  8
002
 62
     3
 10
969.209263
 20
283.483736
 30
0.0
  0
VERTEX
  5
56B
  8
002
 62
     3
 10
969.111513
 20
283.66575
 30
0.0
  0
VERTEX
  5
56C
  8
002
 62
     3
 10
969.031844
 20
283.857069
 30
0.0
  0
VERTEX
  5
56D
  8
002
 62
     3
 10
968.972663
 20
284.055036
 30
0.0
  0
VERTEX
  5
56E
  8
002
 62
     3
 10
968.923099
 20
284.352803
 30
0.0
  0
VERTEX
  5
56F
  8
002
 62
     3
 10
968.898424
 20
284.655496
 30
0.0
  0
SEQEND
  5
55C
  8
002
 62
     3
  0
POLYLINE
  5
570
  8
002
 62
     3
 66
     1
 10
0.0
 20
0.0
 30
0.0
  0
VERTEX
  5
572
  8
002
 62
     3
 10
902.898424
 20
284.655496
 30
0.0
  0
VERTEX
  5
573
  8
002
 62
     3
 10
902.873766
 20
284.352792
 30
0.0
  0
VERTEX
  5
574
  8
002
 62
     3
 10
902.824185
 20
284.055036
 30
0.0
  0
VERTEX
  5
575
  8
002
 62
     3
 10
902.766718
 20
283.861997
 30
0.0
  0
VERTEX
  5
576
  8
002
 62
     3
 10
902.689754
 20
283.675207
 30
0.0
  0
VERTEX
  5
577
  8
002
 62
     3
 10
902.590267
 20
283.488201
 30
0.0
  0
VERTEX
  5
578
  8
002
 62
     3
 10
902.471305
 20
283.31339
 30
0.0
  0
VERTEX
  5
579
  8
002
 62
     3
 10
902.378453
 20
283.20259
 30
0.0
  0
VERTEX
  5
57A
  8
002
 62
     3
 10
902.276556
 20
283.100001
 30
0.0
  0
VERTEX
  5
57B
  8
002
 62
     3
 10
902.157846
 20
283.000198
 30
0.0
  0
VERTEX
  5
57C
  8
002
 62
     3
 10
902.030315
 20
282.911996
 30
0.0
  0
VERTEX
  5
57D
  8
002
 62
     3
 10
901.931882
 20
282.855296
 30
0.0
  0
VERTEX
  5
57E
  8
002
 62
     3
 10
901.829767
 20
282.805622
 30
0.0
  0
VERTEX
  5
57F
  8
002
 62
     3
 10
901.717102
 20
282.760465
 30
0.0
  0
VERTEX
  5
580
  8
002
 62
     3
 10
901.601469
 20
282.723307
 30
0.0
  0
VERTEX
  5
581
  8
002
 62
     3
 10
901.481645
 20
282.693679
 30
0.0
  0
VERTEX
  5
582
  8
002
 62
     3
 10
901.360089
 20
282.673154
 30
0.0
  0
VERTEX
  5
583
  8
002
 62
     3
 10
901.229567
 20
282.661419
 30
0.0
  0
VERTEX
  5
584
  8
002
 62
     3
 10
901.098424
 20
282.655496
 30
0.0
  0
SEQEND
  5
571
  8
002
 62
     3
  0
POLYLINE
  5
585
  8
002
 62
     3
 66
     1
 10
0.0
 20
0.0
 30
0.0
  0
VERTEX
  5
587
  8
002
 62
     3
 10
901.098424
 20
242.655496
 30
0.0
  0
VERTEX
  5
588
  8
002
 62
     3
 10
901.225306
 20
242.649939
 30
0.0
  0
VERTEX
  5
589
  8
002
 62
     3
 10
901.351635
 20
242.63898
 30
0.0
  0
VERTEX
  5
58A
  8
002
 62
     3
 10
901.477468
 20
242.618183
 30
0.0
  0
VERTEX
  5
58B
  8
002
 62
     3
 10
901.601469
 20
242.587685
 30
0.0
  0
VERTEX
  5
58C
  8
002
 62
     3
 10
901.714378
 20
242.551512
 30
0.0
  0
VERTEX
  5
58D
  8
002
 62
     3
 10
901.824474
 20
242.507713
 30
0.0
  0
VERTEX
  5
58E
  8
002
 62
     3
 10
901.929323
 20
242.457048
 30
0.0
  0
VERTEX
  5
58F
  8
002
 62
     3
 10
902.030315
 20
242.398996
 30
0.0
  0
VERTEX
  5
590
  8
002
 62
     3
 10
902.15473
 20
242.313174
 30
0.0
  0
VERTEX
  5
591
  8
002
 62
     3
 10
902.270784
 20
242.216302
 30
0.0
  0
VERTEX
  5
592
  8
002
 62
     3
 10
902.375804
 20
242.111295
 30
0.0
  0
VERTEX
  5
593
  8
002
 62
     3
 10
902.471305
 20
241.997602
 30
0.0
  0
VERTEX
  5
594
  8
002
 62
     3
 10
902.587585
 20
241.827256
 30
0.0
  0
VERTEX
  5
595
  8
002
 62
     3
 10
902.685334
 20
241.645242
 30
0.0
  0
VERTEX
  5
596
  8
002
 62
     3
 10
902.765003
 20
241.453922
 30
0.0
  0
VERTEX
  5
597
  8
002
 62
     3
 10
902.824185
 20
241.255956
 30
0.0
  0
VERTEX
  5
598
  8
002
 62
     3
 10
902.873748
 20
240.958189
 30
0.0
  0
VERTEX
  5
599
  8
002
 62
     3
 10
902.898424
 20
240.655496
 30
0.0
  0
SEQEND
  5
586
  8
002
 62
     3
  0
LINE
  5
59A
  8
002
 62
     3
 10
902.898424
 20
235.155496
 30
0.0
 11
968.898424
 21
235.155496
 31
0.0
  0
LINE
  5
59B
  8
002
 62
     3
 10
899.898424
 20
242.655496
 30
0.0
 11
901.098424
 21
242.655496
 31
0.0
  0
LINE
  5
59C
  8
002
 62
     3
 10
899.898424
 20
282.655496
 30
0.0
 11
901.098424
 21
282.655496
 31
0.0
  0
LINE
  5
59D
  8
002
 62
     3
 10
971.898424
 20
242.655496
 30
0.0
 11
970.698424
 21
242.655496
 31
0.0
  0
LINE
  5
59E
  8
002
 62
     3
 10
971.898424
 20
282.655496
 30
0.0
 11
970.698424
 21
282.655496
 31
0.0
  0
LINE
  5
59F
  8
002
 62
     3
 10
1117.150424
 20
235.155496
 30
0.0
 11
1117.150424
 21
290.155496
 31
0.0
  0
LINE
  5
5A0
  8
002
 62
     3
 10
1101.150424
 20
235.155496
 30
0.0
 11
1117.150424
 21
235.155496
 31
0.0
  0
LINE
  5
5A1
  8
002
 62
     3
 10
1101.150424
 20
290.155496
 30
0.0
 11
1117.150424
 21
290.155496
 31
0.0
  0
LINE
  5
5A2
  8
002
 62
     3
 10
1042.150424
 20
235.155496
 30
0.0
 11
1042.150424
 21
290.155496
 31
0.0
  0
LINE
  5
5A3
  8
002
 62
     3
 10
1105.150424
 20
282.655496
 30
0.0
 11
1069.150424
 21
282.655496
 31
0.0
  0
LINE
  5
5A4
  8
002
 62
     3
 10
1101.150424
 20
284.655496
 30
0.0
 11
1101.150424
 21
290.155496
 31
0.0
  0
LINE
  5
5A5
  8
002
 62
     3
 10
1067.150424
 20
244.655496
 30
0.0
 11
1067.150424
 21
280.655496
 31
0.0
  0
LINE
  5
5A6
  8
002
 62
     3
 10
1105.150424
 20
242.655496
 30
0.0
 11
1069.150424
 21
242.655496
 31
0.0
  0
LINE
  5
5A7
  8
002
 62
     3
 10
1107.150424
 20
280.655496
 30
0.0
 11
1107.150424
 21
244.655496
 31
0.0
  0
LINE
  5
5A8
  8
002
 62
     3
 10
1101.150424
 20
240.655496
 30
0.0
 11
1101.150424
 21
235.155496
 31
0.0
  0
LINE
  5
5A9
  8
002
 62
     3
 10
1044.150424
 20
237.155496
 30
0.0
 11
1089.150424
 21
237.155496
 31
0.0
  0
LINE
  5
5AA
  8
002
 62
     3
 10
1089.150424
 20
240.655496
 30
0.0
 11
1089.150424
 21
237.155496
 31
0.0
  0
ARC
  5
5AB
  8
002
 62
     3
 10
1086.150424
 20
284.655496
 30
0.0
 40
2.0
 50
180.0
 51
270.0
  0
ARC
  5
5AC
  8
002
 62
     3
 10
1091.150424
 20
240.655496
 30
0.0
 40
2.0
 50
90.0
 51
180.0
  0
LINE
  5
5AD
  8
002
 62
     3
 10
1084.150424
 20
284.655496
 30
0.0
 11
1084.150424
 21
290.155496
 31
0.0
  0
ARC
  5
5AE
  8
002
 62
     3
 10
1099.150424
 20
240.655496
 30
0.0
 40
2.0
 50
0.0
 51
90.0
  0
ARC
  5
5AF
  8
002
 62
     3
 10
1099.150424
 20
284.655496
 30
0.0
 40
2.0
 50
270.0
 51
0.0
  0
ARC
  5
5B0
  8
002
 62
     3
 10
1044.150424
 20
235.155496
 30
0.0
 40
2.0
 50
90.0
 51
180.0
  0
LINE
  5
5B1
  8
002
  6
CENTER
 62
    40
 10
1087.150424
 20
240.787561
 30
0.0
 11
1087.150424
 21
284.629804
 31
0.0
  0
ARC
  5
5B2
  8
002
 62
     3
 10
1069.150424
 20
280.655496
 30
0.0
 40
2.0
 50
90.0
 51
180.0
  0
ARC
  5
5B3
  8
002
 62
     3
 10
1069.150424
 20
244.655496
 30
0.0
 40
2.0
 50
180.0
 51
270.0
  0
ARC
  5
5B4
  8
002
 62
     3
 10
1105.150424
 20
244.655496
 30
0.0
 40
2.0
 50
270.0
 51
0.0
  0
ARC
  5
5B5
  8
002
 62
     3
 10
1105.150424
 20
280.655496
 30
0.0
 40
2.0
 50
0.0
 51
90.0
  0
LINE
  5
5B6
  8
002
 62
     3
 10
1026.150424
 20
235.155496
 30
0.0
 11
1026.150424
 21
290.155496
 31
0.0
  0
LINE
  5
5B7
  8
002
 62
     3
 10
1085.650424
 20
248.758196
 30
0.0
 11
1085.650424
 21
250.555496
 31
0.0
  0
ARC
  5
5B8
  8
002
 62
     3
 10
1090.650424
 20
250.555496
 30
0.0
 40
1.999987664961913
 50
45.149904
 51
180.0
  0
ARC
  5
5B9
  8
002
 62
     3
 10
1093.471424
 20
253.391296
 30
0.0
 40
1.999987664962033
 50
225.149904
 51
306.869898
  0
CIRCLE
  5
5BA
  8
002
 62
     3
 10
1090.650424
 20
250.555496
 30
0.0
 40
1.0
  0
LINE
  5
5BB
  8
002
 62
     3
 10
1088.650424
 20
250.555496
 30
0.0
 11
1088.650424
 21
248.758196
 31
0.0
  0
CIRCLE
  5
5BC
  8
002
 62
     3
 10
1083.650424
 20
250.555496
 30
0.0
 40
1.0
  0
ARC
  5
5BD
  8
002
 62
     3
 10
1080.829524
 20
253.391296
 30
0.0
 40
1.999999999999977
 50
233.130102
 51
314.848065
  0
ARC
  5
5BE
  8
002
 62
     3
 10
1087.150424
 20
261.819996
 30
0.0
 40
12.53556000703597
 50
306.867978
 51
233.132388
  0
ARC
  5
5BF
  8
002
 62
     3
 10
1083.650424
 20
250.555496
 30
0.0
 40
2.0
 50
0.0
 51
134.850096
  0
CIRCLE
  5
5C0
  8
002
 62
     3
 10
1087.150424
 20
262.655496
 30
0.0
 40
6.0
  0
LINE
  5
5C1
  8
002
 62
     3
 10
1083.833824
 20
267.655496
 30
0.0
 11
1090.467124
 21
267.655496
 31
0.0
  0
CIRCLE
  5
5C2
  8
002
 62
     3
 10
1087.150424
 20
262.655496
 30
0.0
 40
14.0
  0
LINE
  5
5C3
  8
002
  6
CENTER
 62
    40
 10
1034.150324
 20
233.152387
 30
0.0
 11
1034.150324
 21
294.716096
 31
0.0
  0
LINE
  5
5C4
  8
002
  6
CENTER
 62
    40
 10
1109.150424
 20
296.213196
 30
0.0
 11
1109.150424
 21
233.152387
 31
0.0
  0
LINE
  5
5C5
  8
002
 62
     3
 10
1026.150424
 20
235.155496
 30
0.0
 11
1085.150424
 21
235.155496
 31
0.0
  0
LINE
  5
5C6
  8
002
 62
     3
 10
1026.150424
 20
290.155496
 30
0.0
 11
1084.150424
 21
290.155496
 31
0.0
  0
LINE
  5
5C7
  8
002
 62
    40
 10
1084.067924
 20
235.155496
 30
0.0
 11
1084.067924
 21
237.155496
 31
0.0
  0
LINE
  5
5C8
  8
002
 62
     3
 10
1085.150424
 20
237.155496
 30
0.0
 11
1085.150424
 21
235.155496
 31
0.0
  0
LINE
  5
5C9
  8
002
 62
     3
 10
1169.731224
 20
256.655496
 30
0.0
 11
1146.731184
 21
256.655496
 31
0.0
  0
LINE
  5
5CA
  8
002
 62
     3
 10
1146.731184
 20
256.655496
 30
0.0
 11
1145.731184
 21
257.655496
 31
0.0
  0
LINE
  5
5CB
  8
002
 62
     3
 10
1145.731184
 20
257.655496
 30
0.0
 11
1145.731184
 21
267.655496
 31
0.0
  0
LINE
  5
5CC
  8
002
 62
     3
 10
1145.731184
 20
267.655496
 30
0.0
 11
1165.731224
 21
267.655496
 31
0.0
  0
LINE
  5
5CD
  8
002
 62
     3
 10
1165.731224
 20
267.655496
 30
0.0
 11
1165.731224
 21
268.655496
 31
0.0
  0
LINE
  5
5CE
  8
002
 62
     3
 10
1165.731224
 20
268.655496
 30
0.0
 11
1169.731224
 21
268.655496
 31
0.0
  0
LINE
  5
5CF
  8
002
 62
     3
 10
1146.731184
 20
267.655496
 30
0.0
 11
1146.731184
 21
256.655496
 31
0.0
  0
LINE
  5
5D0
  8
002
 62
     3
 10
1241.731224
 20
268.655496
 30
0.0
 11
1245.731224
 21
268.655496
 31
0.0
  0
LINE
  5
5D1
  8
002
 62
     3
 10
1245.731224
 20
268.655496
 30
0.0
 11
1245.731224
 21
267.655496
 31
0.0
  0
LINE
  5
5D2
  8
002
 62
     3
 10
1245.731224
 20
267.655496
 30
0.0
 11
1265.731224
 21
267.655496
 31
0.0
  0
LINE
  5
5D3
  8
002
 62
     3
 10
1265.731224
 20
267.655496
 30
0.0
 11
1265.731224
 21
257.655496
 31
0.0
  0
LINE
  5
5D4
  8
002
 62
     3
 10
1265.731224
 20
257.655496
 30
0.0
 11
1264.731224
 21
256.655496
 31
0.0
  0
LINE
  5
5D5
  8
002
 62
     3
 10
1264.731224
 20
256.655496
 30
0.0
 11
1241.731224
 21
256.655496
 31
0.0
  0
LINE
  5
5D6
  8
002
 62
     3
 10
1264.731224
 20
256.655496
 30
0.0
 11
1264.731224
 21
267.655496
 31
0.0
  0
LINE
  5
5D7
  8
002
 62
     3
 10
1188.731224
 20
235.155496
 30
0.0
 11
1188.731224
 21
290.155496
 31
0.0
  0
LINE
  5
5D8
  8
002
 62
     3
 10
1172.731224
 20
290.155496
 30
0.0
 11
1172.731224
 21
235.155496
 31
0.0
  0
LINE
  5
5D9
  8
002
 62
     3
 10
1222.731224
 20
290.155496
 30
0.0
 11
1222.731224
 21
235.155496
 31
0.0
  0
LINE
  5
5DA
  8
002
 62
     3
 10
1238.731224
 20
235.155496
 30
0.0
 11
1238.731224
 21
290.155496
 31
0.0
  0
POLYLINE
  5
5DB
  8
002
 62
     3
 66
     1
 10
0.0
 20
0.0
 30
0.0
  0
VERTEX
  5
5DD
  8
002
 62
     3
 10
1238.731224
 20
284.655496
 30
0.0
  0
VERTEX
  5
5DE
  8
002
 62
     3
 10
1238.755882
 20
284.352792
 30
0.0
  0
VERTEX
  5
5DF
  8
002
 62
     3
 10
1238.805463
 20
284.055036
 30
0.0
  0
VERTEX
  5
5E0
  8
002
 62
     3
 10
1238.862929
 20
283.861997
 30
0.0
  0
VERTEX
  5
5E1
  8
002
 62
     3
 10
1238.939893
 20
283.675207
 30
0.0
  0
VERTEX
  5
5E2
  8
002
 62
     3
 10
1239.039381
 20
283.488201
 30
0.0
  0
VERTEX
  5
5E3
  8
002
 62
     3
 10
1239.158342
 20
283.31339
 30
0.0
  0
VERTEX
  5
5E4
  8
002
 62
     3
 10
1239.251195
 20
283.20259
 30
0.0
  0
VERTEX
  5
5E5
  8
002
 62
     3
 10
1239.353092
 20
283.100001
 30
0.0
  0
VERTEX
  5
5E6
  8
002
 62
     3
 10
1239.471802
 20
283.000198
 30
0.0
  0
VERTEX
  5
5E7
  8
002
 62
     3
 10
1239.599332
 20
282.911996
 30
0.0
  0
VERTEX
  5
5E8
  8
002
 62
     3
 10
1239.697765
 20
282.855296
 30
0.0
  0
VERTEX
  5
5E9
  8
002
 62
     3
 10
1239.799881
 20
282.805622
 30
0.0
  0
VERTEX
  5
5EA
  8
002
 62
     3
 10
1239.912546
 20
282.760465
 30
0.0
  0
VERTEX
  5
5EB
  8
002
 62
     3
 10
1240.028179
 20
282.723307
 30
0.0
  0
VERTEX
  5
5EC
  8
002
 62
     3
 10
1240.148003
 20
282.693679
 30
0.0
  0
VERTEX
  5
5ED
  8
002
 62
     3
 10
1240.269558
 20
282.673154
 30
0.0
  0
VERTEX
  5
5EE
  8
002
 62
     3
 10
1240.400081
 20
282.661419
 30
0.0
  0
VERTEX
  5
5EF
  8
002
 62
     3
 10
1240.531224
 20
282.655496
 30
0.0
  0
SEQEND
  5
5DC
  8
002
 62
     3
  0
POLYLINE
  5
5F0
  8
002
 62
     3
 66
     1
 10
0.0
 20
0.0
 30
0.0
  0
VERTEX
  5
5F2
  8
002
 62
     3
 10
1220.931224
 20
282.655496
 30
0.0
  0
VERTEX
  5
5F3
  8
002
 62
     3
 10
1221.058106
 20
282.661053
 30
0.0
  0
VERTEX
  5
5F4
  8
002
 62
     3
 10
1221.184435
 20
282.672012
 30
0.0
  0
VERTEX
  5
5F5
  8
002
 62
     3
 10
1221.310268
 20
282.692809
 30
0.0
  0
VERTEX
  5
5F6
  8
002
 62
     3
 10
1221.434269
 20
282.723307
 30
0.0
  0
VERTEX
  5
5F7
  8
002
 62
     3
 10
1221.547178
 20
282.75948
 30
0.0
  0
VERTEX
  5
5F8
  8
002
 62
     3
 10
1221.657274
 20
282.803279
 30
0.0
  0
VERTEX
  5
5F9
  8
002
 62
     3
 10
1221.762123
 20
282.853944
 30
0.0
  0
VERTEX
  5
5FA
  8
002
 62
     3
 10
1221.863115
 20
282.911996
 30
0.0
  0
VERTEX
  5
5FB
  8
002
 62
     3
 10
1221.98753
 20
282.997818
 30
0.0
  0
VERTEX
  5
5FC
  8
002
 62
     3
 10
1222.103584
 20
283.09469
 30
0.0
  0
VERTEX
  5
5FD
  8
002
 62
     3
 10
1222.208604
 20
283.199696
 30
0.0
  0
VERTEX
  5
5FE
  8
002
 62
     3
 10
1222.304105
 20
283.31339
 30
0.0
  0
VERTEX
  5
5FF
  8
002
 62
     3
 10
1222.420385
 20
283.483736
 30
0.0
  0
VERTEX
  5
600
  8
002
 62
     3
 10
1222.518134
 20
283.66575
 30
0.0
  0
VERTEX
  5
601
  8
002
 62
     3
 10
1222.597803
 20
283.857069
 30
0.0
  0
VERTEX
  5
602
  8
002
 62
     3
 10
1222.656985
 20
284.055036
 30
0.0
  0
VERTEX
  5
603
  8
002
 62
     3
 10
1222.706548
 20
284.352803
 30
0.0
  0
VERTEX
  5
604
  8
002
 62
     3
 10
1222.731224
 20
284.655496
 30
0.0
  0
SEQEND
  5
5F1
  8
002
 62
     3
  0
POLYLINE
  5
605
  8
002
 62
     3
 66
     1
 10
0.0
 20
0.0
 30
0.0
  0
VERTEX
  5
607
  8
002
 62
     3
 10
1222.731224
 20
240.655496
 30
0.0
  0
VERTEX
  5
608
  8
002
 62
     3
 10
1222.706566
 20
240.9582
 30
0.0
  0
VERTEX
  5
609
  8
002
 62
     3
 10
1222.656985
 20
241.255956
 30
0.0
  0
VERTEX
  5
60A
  8
002
 62
     3
 10
1222.599518
 20
241.448994
 30
0.0
  0
VERTEX
  5
60B
  8
002
 62
     3
 10
1222.522554
 20
241.635785
 30
0.0
  0
VERTEX
  5
60C
  8
002
 62
     3
 10
1222.423067
 20
241.82279
 30
0.0
  0
VERTEX
  5
60D
  8
002
 62
     3
 10
1222.304105
 20
241.997602
 30
0.0
  0
VERTEX
  5
60E
  8
002
 62
     3
 10
1222.211253
 20
242.108402
 30
0.0
  0
VERTEX
  5
60F
  8
002
 62
     3
 10
1222.109356
 20
242.210991
 30
0.0
  0
VERTEX
  5
610
  8
002
 62
     3
 10
1221.990646
 20
242.310793
 30
0.0
  0
VERTEX
  5
611
  8
002
 62
     3
 10
1221.863115
 20
242.398996
 30
0.0
  0
VERTEX
  5
612
  8
002
 62
     3
 10
1221.764682
 20
242.455696
 30
0.0
  0
VERTEX
  5
613
  8
002
 62
     3
 10
1221.662567
 20
242.50537
 30
0.0
  0
VERTEX
  5
614
  8
002
 62
     3
 10
1221.549902
 20
242.550527
 30
0.0
  0
VERTEX
  5
615
  8
002
 62
     3
 10
1221.434269
 20
242.587685
 30
0.0
  0
VERTEX
  5
616
  8
002
 62
     3
 10
1221.314445
 20
242.617313
 30
0.0
  0
VERTEX
  5
617
  8
002
 62
     3
 10
1221.192889
 20
242.637838
 30
0.0
  0
VERTEX
  5
618
  8
002
 62
     3
 10
1221.062367
 20
242.649573
 30
0.0
  0
VERTEX
  5
619
  8
002
 62
     3
 10
1220.931224
 20
242.655496
 30
0.0
  0
SEQEND
  5
606
  8
002
 62
     3
  0
POLYLINE
  5
61A
  8
002
 62
     3
 66
     1
 10
0.0
 20
0.0
 30
0.0
  0
VERTEX
  5
61C
  8
002
 62
     3
 10
1240.531224
 20
242.655496
 30
0.0
  0
VERTEX
  5
61D
  8
002
 62
     3
 10
1240.404341
 20
242.649939
 30
0.0
  0
VERTEX
  5
61E
  8
002
 62
     3
 10
1240.278012
 20
242.63898
 30
0.0
  0
VERTEX
  5
61F
  8
002
 62
     3
 10
1240.152179
 20
242.618183
 30
0.0
  0
VERTEX
  5
620
  8
002
 62
     3
 10
1240.028179
 20
242.587685
 30
0.0
  0
VERTEX
  5
621
  8
002
 62
     3
 10
1239.915269
 20
242.551512
 30
0.0
  0
VERTEX
  5
622
  8
002
 62
     3
 10
1239.805174
 20
242.507713
 30
0.0
  0
VERTEX
  5
623
  8
002
 62
     3
 10
1239.700325
 20
242.457048
 30
0.0
  0
VERTEX
  5
624
  8
002
 62
     3
 10
1239.599332
 20
242.398996
 30
0.0
  0
VERTEX
  5
625
  8
002
 62
     3
 10
1239.474917
 20
242.313174
 30
0.0
  0
VERTEX
  5
626
  8
002
 62
     3
 10
1239.358864
 20
242.216302
 30
0.0
  0
VERTEX
  5
627
  8
002
 62
     3
 10
1239.253843
 20
242.111295
 30
0.0
  0
VERTEX
  5
628
  8
002
 62
     3
 10
1239.158342
 20
241.997602
 30
0.0
  0
VERTEX
  5
629
  8
002
 62
     3
 10
1239.042063
 20
241.827256
 30
0.0
  0
VERTEX
  5
62A
  8
002
 62
     3
 10
1238.944313
 20
241.645242
 30
0.0
  0
VERTEX
  5
62B
  8
002
 62
     3
 10
1238.864644
 20
241.453922
 30
0.0
  0
VERTEX
  5
62C
  8
002
 62
     3
 10
1238.805463
 20
241.255956
 30
0.0
  0
VERTEX
  5
62D
  8
002
 62
     3
 10
1238.755899
 20
240.958189
 30
0.0
  0
VERTEX
  5
62E
  8
002
 62
     3
 10
1238.731224
 20
240.655496
 30
0.0
  0
SEQEND
  5
61B
  8
002
 62
     3
  0
POLYLINE
  5
62F
  8
002
 62
     3
 66
     1
 10
0.0
 20
0.0
 30
0.0
  0
VERTEX
  5
631
  8
002
 62
     3
 10
1170.931224
 20
282.655496
 30
0.0
  0
VERTEX
  5
632
  8
002
 62
     3
 10
1171.058106
 20
282.661053
 30
0.0
  0
VERTEX
  5
633
  8
002
 62
     3
 10
1171.184435
 20
282.672012
 30
0.0
  0
VERTEX
  5
634
  8
002
 62
     3
 10
1171.310268
 20
282.692809
 30
0.0
  0
VERTEX
  5
635
  8
002
 62
     3
 10
1171.434269
 20
282.723307
 30
0.0
  0
VERTEX
  5
636
  8
002
 62
     3
 10
1171.547178
 20
282.75948
 30
0.0
  0
VERTEX
  5
637
  8
002
 62
     3
 10
1171.657274
 20
282.803279
 30
0.0
  0
VERTEX
  5
638
  8
002
 62
     3
 10
1171.762123
 20
282.853944
 30
0.0
  0
VERTEX
  5
639
  8
002
 62
     3
 10
1171.863115
 20
282.911996
 30
0.0
  0
VERTEX
  5
63A
  8
002
 62
     3
 10
1171.98753
 20
282.997818
 30
0.0
  0
VERTEX
  5
63B
  8
002
 62
     3
 10
1172.103584
 20
283.09469
 30
0.0
  0
VERTEX
  5
63C
  8
002
 62
     3
 10
1172.208604
 20
283.199696
 30
0.0
  0
VERTEX
  5
63D
  8
002
 62
     3
 10
1172.304105
 20
283.31339
 30
0.0
  0
VERTEX
  5
63E
  8
002
 62
     3
 10
1172.420385
 20
283.483736
 30
0.0
  0
VERTEX
  5
63F
  8
002
 62
     3
 10
1172.518134
 20
283.66575
 30
0.0
  0
VERTEX
  5
640
  8
002
 62
     3
 10
1172.597803
 20
283.857069
 30
0.0
  0
VERTEX
  5
641
  8
002
 62
     3
 10
1172.656985
 20
284.055036
 30
0.0
  0
VERTEX
  5
642
  8
002
 62
     3
 10
1172.706548
 20
284.352803
 30
0.0
  0
VERTEX
  5
643
  8
002
 62
     3
 10
1172.731224
 20
284.655496
 30
0.0
  0
SEQEND
  5
630
  8
002
 62
     3
  0
POLYLINE
  5
644
  8
002
 62
     3
 66
     1
 10
0.0
 20
0.0
 30
0.0
  0
VERTEX
  5
646
  8
002
 62
     3
 10
1188.731224
 20
284.655496
 30
0.0
  0
VERTEX
  5
647
  8
002
 62
     3
 10
1188.755882
 20
284.352792
 30
0.0
  0
VERTEX
  5
648
  8
002
 62
     3
 10
1188.805463
 20
284.055036
 30
0.0
  0
VERTEX
  5
649
  8
002
 62
     3
 10
1188.862929
 20
283.861997
 30
0.0
  0
VERTEX
  5
64A
  8
002
 62
     3
 10
1188.939893
 20
283.675207
 30
0.0
  0
VERTEX
  5
64B
  8
002
 62
     3
 10
1189.039381
 20
283.488201
 30
0.0
  0
VERTEX
  5
64C
  8
002
 62
     3
 10
1189.158342
 20
283.31339
 30
0.0
  0
VERTEX
  5
64D
  8
002
 62
     3
 10
1189.251195
 20
283.20259
 30
0.0
  0
VERTEX
  5
64E
  8
002
 62
     3
 10
1189.353092
 20
283.100001
 30
0.0
  0
VERTEX
  5
64F
  8
002
 62
     3
 10
1189.471802
 20
283.000198
 30
0.0
  0
VERTEX
  5
650
  8
002
 62
     3
 10
1189.599332
 20
282.911996
 30
0.0
  0
VERTEX
  5
651
  8
002
 62
     3
 10
1189.697765
 20
282.855296
 30
0.0
  0
VERTEX
  5
652
  8
002
 62
     3
 10
1189.799881
 20
282.805622
 30
0.0
  0
VERTEX
  5
653
  8
002
 62
     3
 10
1189.912546
 20
282.760465
 30
0.0
  0
VERTEX
  5
654
  8
002
 62
     3
 10
1190.028179
 20
282.723307
 30
0.0
  0
VERTEX
  5
655
  8
002
 62
     3
 10
1190.148003
 20
282.693679
 30
0.0
  0
VERTEX
  5
656
  8
002
 62
     3
 10
1190.269558
 20
282.673154
 30
0.0
  0
VERTEX
  5
657
  8
002
 62
     3
 10
1190.400081
 20
282.661419
 30
0.0
  0
VERTEX
  5
658
  8
002
 62
     3
 10
1190.531224
 20
282.655496
 30
0.0
  0
SEQEND
  5
645
  8
002
 62
     3
  0
POLYLINE
  5
659
  8
002
 62
     3
 66
     1
 10
0.0
 20
0.0
 30
0.0
  0
VERTEX
  5
65B
  8
002
 62
     3
 10
1172.731224
 20
240.655496
 30
0.0
  0
VERTEX
  5
65C
  8
002
 62
     3
 10
1172.706566
 20
240.9582
 30
0.0
  0
VERTEX
  5
65D
  8
002
 62
     3
 10
1172.656985
 20
241.255956
 30
0.0
  0
VERTEX
  5
65E
  8
002
 62
     3
 10
1172.599518
 20
241.448994
 30
0.0
  0
VERTEX
  5
65F
  8
002
 62
     3
 10
1172.522554
 20
241.635785
 30
0.0
  0
VERTEX
  5
660
  8
002
 62
     3
 10
1172.423067
 20
241.82279
 30
0.0
  0
VERTEX
  5
661
  8
002
 62
     3
 10
1172.304105
 20
241.997602
 30
0.0
  0
VERTEX
  5
662
  8
002
 62
     3
 10
1172.211253
 20
242.108402
 30
0.0
  0
VERTEX
  5
663
  8
002
 62
     3
 10
1172.109356
 20
242.210991
 30
0.0
  0
VERTEX
  5
664
  8
002
 62
     3
 10
1171.990646
 20
242.310793
 30
0.0
  0
VERTEX
  5
665
  8
002
 62
     3
 10
1171.863115
 20
242.398996
 30
0.0
  0
VERTEX
  5
666
  8
002
 62
     3
 10
1171.764682
 20
242.455696
 30
0.0
  0
VERTEX
  5
667
  8
002
 62
     3
 10
1171.662567
 20
242.50537
 30
0.0
  0
VERTEX
  5
668
  8
002
 62
     3
 10
1171.549902
 20
242.550527
 30
0.0
  0
VERTEX
  5
669
  8
002
 62
     3
 10
1171.434269
 20
242.587685
 30
0.0
  0
VERTEX
  5
66A
  8
002
 62
     3
 10
1171.314445
 20
242.617313
 30
0.0
  0
VERTEX
  5
66B
  8
002
 62
     3
 10
1171.192889
 20
242.637838
 30
0.0
  0
VERTEX
  5
66C
  8
002
 62
     3
 10
1171.062367
 20
242.649573
 30
0.0
  0
VERTEX
  5
66D
  8
002
 62
     3
 10
1170.931224
 20
242.655496
 30
0.0
  0
SEQEND
  5
65A
  8
002
 62
     3
  0
POLYLINE
  5
66E
  8
002
 62
     3
 66
     1
 10
0.0
 20
0.0
 30
0.0
  0
VERTEX
  5
670
  8
002
 62
     3
 10
1190.531224
 20
242.655496
 30
0.0
  0
VERTEX
  5
671
  8
002
 62
     3
 10
1190.404341
 20
242.649939
 30
0.0
  0
VERTEX
  5
672
  8
002
 62
     3
 10
1190.278012
 20
242.63898
 30
0.0
  0
VERTEX
  5
673
  8
002
 62
     3
 10
1190.152179
 20
242.618183
 30
0.0
  0
VERTEX
  5
674
  8
002
 62
     3
 10
1190.028179
 20
242.587685
 30
0.0
  0
VERTEX
  5
675
  8
002
 62
     3
 10
1189.915269
 20
242.551512
 30
0.0
  0
VERTEX
  5
676
  8
002
 62
     3
 10
1189.805174
 20
242.507713
 30
0.0
  0
VERTEX
  5
677
  8
002
 62
     3
 10
1189.700325
 20
242.457048
 30
0.0
  0
VERTEX
  5
678
  8
002
 62
     3
 10
1189.599332
 20
242.398996
 30
0.0
  0
VERTEX
  5
679
  8
002
 62
     3
 10
1189.474917
 20
242.313174
 30
0.0
  0
VERTEX
  5
67A
  8
002
 62
     3
 10
1189.358864
 20
242.216302
 30
0.0
  0
VERTEX
  5
67B
  8
002
 62
     3
 10
1189.253843
 20
242.111295
 30
0.0
  0
VERTEX
  5
67C
  8
002
 62
     3
 10
1189.158342
 20
241.997602
 30
0.0
  0
VERTEX
  5
67D
  8
002
 62
     3
 10
1189.042063
 20
241.827256
 30
0.0
  0
VERTEX
  5
67E
  8
002
 62
     3
 10
1188.944313
 20
241.645242
 30
0.0
  0
VERTEX
  5
67F
  8
002
 62
     3
 10
1188.864644
 20
241.453922
 30
0.0
  0
VERTEX
  5
680
  8
002
 62
     3
 10
1188.805463
 20
241.255956
 30
0.0
  0
VERTEX
  5
681
  8
002
 62
     3
 10
1188.755899
 20
240.958189
 30
0.0
  0
VERTEX
  5
682
  8
002
 62
     3
 10
1188.731224
 20
240.655496
 30
0.0
  0
SEQEND
  5
66F
  8
002
 62
     3
  0
LINE
  5
683
  8
002
 62
     3
 10
1241.731224
 20
282.655496
 30
0.0
 11
1241.731224
 21
242.655496
 31
0.0
  0
LINE
  5
684
  8
002
 62
     3
 10
1169.731224
 20
282.655496
 30
0.0
 11
1169.731224
 21
242.655496
 31
0.0
  0
LINE
  5
685
  8
002
 62
     3
 10
1220.931224
 20
282.655496
 30
0.0
 11
1190.531224
 21
282.655496
 31
0.0
  0
LINE
  5
686
  8
002
 62
     3
 10
1220.931224
 20
242.655496
 30
0.0
 11
1190.531224
 21
242.655496
 31
0.0
  0
LINE
  5
687
  8
002
 62
     3
 10
1222.731224
 20
237.155496
 30
0.0
 11
1188.731224
 21
237.155496
 31
0.0
  0
LINE
  5
688
  8
002
 62
     3
 10
1172.731224
 20
290.155496
 30
0.0
 11
1238.731224
 21
290.155496
 31
0.0
  0
ARC
  5
689
  8
002
 62
     3
 10
1220.731224
 20
235.155496
 30
0.0
 40
2.0
 50
360.0
 51
90.0
  0
ARC
  5
68A
  8
002
 62
     3
 10
1190.731224
 20
235.155496
 30
0.0
 40
2.0
 50
90.0
 51
180.0
  0
LINE
  5
68B
  8
002
 62
     3
 10
1238.731224
 20
235.155496
 30
0.0
 11
1172.731224
 21
235.155496
 31
0.0
  0
LINE
  5
68C
  8
002
 62
     3
 10
1241.731224
 20
242.655496
 30
0.0
 11
1240.531224
 21
242.655496
 31
0.0
  0
LINE
  5
68D
  8
002
 62
     3
 10
1241.731224
 20
282.655496
 30
0.0
 11
1240.531224
 21
282.655496
 31
0.0
  0
LINE
  5
68E
  8
002
 62
     3
 10
1169.731224
 20
282.655496
 30
0.0
 11
1170.931224
 21
282.655496
 31
0.0
  0
LINE
  5
68F
  8
002
 62
     3
 10
1169.731224
 20
242.655496
 30
0.0
 11
1170.931224
 21
242.655496
 31
0.0
  0
LINE
  5
690
  8
002
 62
     3
 10
1464.816524
 20
235.155496
 30
0.0
 11
1464.816524
 21
290.155496
 31
0.0
  0
LINE
  5
691
  8
002
 62
     3
 10
1448.816524
 20
235.155496
 30
0.0
 11
1464.816524
 21
235.155496
 31
0.0
  0
LINE
  5
692
  8
002
 62
     3
 10
1448.816524
 20
290.155496
 30
0.0
 11
1464.816524
 21
290.155496
 31
0.0
  0
LINE
  5
693
  8
002
 62
     3
 10
1389.816524
 20
235.155496
 30
0.0
 11
1389.816524
 21
290.155496
 31
0.0
  0
LINE
  5
694
  8
002
 62
     3
 10
1452.816524
 20
282.655496
 30
0.0
 11
1416.816524
 21
282.655496
 31
0.0
  0
LINE
  5
695
  8
002
 62
     3
 10
1448.816524
 20
284.655496
 30
0.0
 11
1448.816524
 21
290.155496
 31
0.0
  0
LINE
  5
696
  8
002
 62
     3
 10
1414.816524
 20
244.655496
 30
0.0
 11
1414.816524
 21
280.655496
 31
0.0
  0
LINE
  5
697
  8
002
 62
     3
 10
1452.816524
 20
242.655496
 30
0.0
 11
1416.816524
 21
242.655496
 31
0.0
  0
LINE
  5
698
  8
002
 62
     3
 10
1454.816524
 20
280.655496
 30
0.0
 11
1454.816524
 21
244.655496
 31
0.0
  0
LINE
  5
699
  8
002
 62
     3
 10
1448.816524
 20
240.655496
 30
0.0
 11
1448.816524
 21
235.155496
 31
0.0
  0
LINE
  5
69A
  8
002
 62
     3
 10
1391.816524
 20
237.155496
 30
0.0
 11
1436.816524
 21
237.155496
 31
0.0
  0
LINE
  5
69B
  8
002
 62
     3
 10
1436.816524
 20
240.655496
 30
0.0
 11
1436.816524
 21
237.155496
 31
0.0
  0
ARC
  5
69C
  8
002
 62
     3
 10
1433.816524
 20
284.655496
 30
0.0
 40
2.0
 50
180.0
 51
270.0
  0
ARC
  5
69D
  8
002
 62
     3
 10
1438.816524
 20
240.655496
 30
0.0
 40
2.0
 50
90.0
 51
180.0
  0
LINE
  5
69E
  8
002
 62
     3
 10
1431.816524
 20
284.655496
 30
0.0
 11
1431.816524
 21
290.155496
 31
0.0
  0
ARC
  5
69F
  8
002
 62
     3
 10
1446.816524
 20
240.655496
 30
0.0
 40
2.0
 50
0.0
 51
90.0
  0
ARC
  5
6A0
  8
002
 62
     3
 10
1446.816524
 20
284.655496
 30
0.0
 40
2.0
 50
270.0
 51
0.0
  0
ARC
  5
6A1
  8
002
 62
     3
 10
1391.816524
 20
235.155496
 30
0.0
 40
2.0
 50
90.0
 51
180.0
  0
LINE
  5
6A2
  8
002
  6
CENTER
 62
    40
 10
1434.816524
 20
240.787561
 30
0.0
 11
1434.816524
 21
284.629804
 31
0.0
  0
ARC
  5
6A3
  8
002
 62
     3
 10
1416.816524
 20
280.655496
 30
0.0
 40
2.0
 50
90.0
 51
180.0
  0
ARC
  5
6A4
  8
002
 62
     3
 10
1416.816524
 20
244.655496
 30
0.0
 40
2.0
 50
180.0
 51
270.0
  0
ARC
  5
6A5
  8
002
 62
     3
 10
1452.816524
 20
244.655496
 30
0.0
 40
2.0
 50
270.0
 51
0.0
  0
ARC
  5
6A6
  8
002
 62
     3
 10
1452.816524
 20
280.655496
 30
0.0
 40
2.0
 50
0.0
 51
90.0
  0
LINE
  5
6A7
  8
002
 62
     3
 10
1373.816524
 20
235.155496
 30
0.0
 11
1373.816524
 21
290.155496
 31
0.0
  0
LINE
  5
6A8
  8
002
 62
     3
 10
1433.316524
 20
248.758196
 30
0.0
 11
1433.316524
 21
250.555496
 31
0.0
  0
ARC
  5
6A9
  8
002
 62
     3
 10
1438.316524
 20
250.555496
 30
0.0
 40
1.999987664961913
 50
45.149904
 51
180.0
  0
ARC
  5
6AA
  8
002
 62
     3
 10
1441.137524
 20
253.391296
 30
0.0
 40
1.999987664962033
 50
225.149904
 51
306.869898
  0
CIRCLE
  5
6AB
  8
002
 62
     3
 10
1438.316524
 20
250.555496
 30
0.0
 40
1.0
  0
LINE
  5
6AC
  8
002
 62
     3
 10
1436.316524
 20
250.555496
 30
0.0
 11
1436.316524
 21
248.758196
 31
0.0
  0
CIRCLE
  5
6AD
  8
002
 62
     3
 10
1431.316524
 20
250.555496
 30
0.0
 40
1.0
  0
ARC
  5
6AE
  8
002
 62
     3
 10
1428.495624
 20
253.391296
 30
0.0
 40
1.999999999999977
 50
233.130102
 51
314.848065
  0
ARC
  5
6AF
  8
002
 62
     3
 10
1434.816524
 20
261.819996
 30
0.0
 40
12.53556000703597
 50
306.867978
 51
233.132388
  0
ARC
  5
6B0
  8
002
 62
     3
 10
1431.316524
 20
250.555496
 30
0.0
 40
2.0
 50
0.0
 51
134.850096
  0
CIRCLE
  5
6B1
  8
002
 62
     3
 10
1434.816524
 20
262.655496
 30
0.0
 40
6.0
  0
LINE
  5
6B2
  8
002
 62
     3
 10
1431.499924
 20
267.655496
 30
0.0
 11
1438.133224
 21
267.655496
 31
0.0
  0
CIRCLE
  5
6B3
  8
002
 62
     3
 10
1434.816524
 20
262.655496
 30
0.0
 40
14.0
  0
LINE
  5
6B4
  8
002
  6
CENTER
 62
    40
 10
1381.816424
 20
233.152387
 30
0.0
 11
1381.816424
 21
294.716096
 31
0.0
  0
LINE
  5
6B5
  8
002
  6
CENTER
 62
    40
 10
1456.816524
 20
296.213196
 30
0.0
 11
1456.816524
 21
233.152387
 31
0.0
  0
LINE
  5
6B6
  8
002
 62
     3
 10
1373.816524
 20
235.155496
 30
0.0
 11
1432.816524
 21
235.155496
 31
0.0
  0
LINE
  5
6B7
  8
002
 62
     3
 10
1373.816524
 20
290.155496
 30
0.0
 11
1431.816524
 21
290.155496
 31
0.0
  0
LINE
  5
6B8
  8
002
 62
    40
 10
1431.734024
 20
235.155496
 30
0.0
 11
1431.734024
 21
237.155496
 31
0.0
  0
LINE
  5
6B9
  8
002
 62
     3
 10
1432.816524
 20
237.155496
 30
0.0
 11
1432.816524
 21
235.155496
 31
0.0
  0
CIRCLE
  5
6BA
  8
002
 62
     3
 10
238.376083
 20
556.242682
 30
0.0
 40
5.0
  0
CIRCLE
  5
6BB
  8
002
 62
    40
 10
238.376083
 20
556.242682
 30
0.0
 40
6.75
  0
ENDSEC
  0
EOF
