  0
SECTION
  2
HEADER
  9
$ACADVER
  1
AC1009
  9
$DWGCODEPAGE
  3
ansi_932
  9
$INSBASE
 10
0.0
 20
0.0
 30
0.0
  9
$EXTMIN
 10
37.872559
 20
56.728455
 30
0.0
  9
$EXTMAX
 10
1963.29895
 20
795.586792
 30
0.0
  9
$LIMMIN
 10
0.0
 20
0.0
  9
$LIMMAX
 10
12.0
 20
9.0
  9
$ORTHOMODE
 70
     0
  9
$REGENMODE
 70
     1
  9
$FILLMODE
 70
     1
  9
$QTEXTMODE
 70
     0
  9
$MIRRTEXT
 70
     1
  9
$DRAGMODE
 70
     2
  9
$LTSCALE
 40
20.623236
  9
$OSMODE
 70
    37
  9
$ATTMODE
 70
     1
  9
$TEXTSIZE
 40
3.2
  9
$TRACEWID
 40
1.0
  9
$TEXTSTYLE
  7
STANDARD
  9
$CLAYER
  8
0
  9
$CELTYPE
  6
BYLAYER
  9
$CECOLOR
 62
   256
  9
$DIMSCALE
 40
1.0
  9
$DIMASZ
 40
2.5
  9
$DIMEXO
 40
0.625
  9
$DIMDLI
 40
3.75
  9
$DIMRND
 40
0.0
  9
$DIMDLE
 40
0.0
  9
$DIMEXE
 40
1.25
  9
$DIMTP
 40
0.0
  9
$DIMTM
 40
0.0
  9
$DIMTXT
 40
2.5
  9
$DIMCEN
 40
0.09
  9
$DIMTSZ
 40
0.0
  9
$DIMTOL
 70
     0
  9
$DIMLIM
 70
     0
  9
$DIMTIH
 70
     0
  9
$DIMTOH
 70
     0
  9
$DIMSE1
 70
     0
  9
$DIMSE2
 70
     0
  9
$DIMTAD
 70
     0
  9
$DIMZIN
 70
     8
  9
$DIMBLK
  1

  9
$DIMASO
 70
     1
  9
$DIMSHO
 70
     0
  9
$DIMPOST
  1

  9
$DIMAPOST
  1

  9
$DIMALT
 70
     0
  9
$DIMALTD
 70
     3
  9
$DIMALTF
 40
0.03937
  9
$DIMLFAC
 40
1.0
  9
$DIMTOFL
 70
     1
  9
$DIMTVP
 40
0.0
  9
$DIMTIX
 70
     0
  9
$DIMSOXD
 70
     0
  9
$DIMSAH
 70
     0
  9
$DIMBLK1
  1

  9
$DIMBLK2
  1

  9
$DIMSTYLE
  2
ISO-25
  9
$DIMCLRD
 70
     0
  9
$DIMCLRE
 70
     0
  9
$DIMCLRT
 70
     0
  9
$DIMTFAC
 40
1.0
  9
$DIMGAP
 40
0.625
  9
$LUNITS
 70
     2
  9
$LUPREC
 70
     4
  9
$SKETCHINC
 40
1.0
  9
$FILLETRAD
 40
0.0
  9
$AUNITS
 70
     0
  9
$AUPREC
 70
     0
  9
$MENU
  1
acad
  9
$ELEVATION
 40
0.0
  9
$PELEVATION
 40
0.0
  9
$THICKNESS
 40
0.0
  9
$LIMCHECK
 70
     0
  9
$CHAMFERA
 40
10.0
  9
$CHAMFERB
 40
10.0
  9
$SKPOLY
 70
     0
  9
$TDCREATE
 40
2457595.492215428
  9
$TDUPDATE
 40
2457595.492216331
  9
$TDINDWG
 40
0.0000000116
  9
$TDUSRTIMER
 40
0.0000000116
  9
$USRTIMER
 70
     1
  9
$ANGBASE
 50
0.0
  9
$ANGDIR
 70
     0
  9
$PDMODE
 70
     0
  9
$PDSIZE
 40
0.0
  9
$PLINEWID
 40
0.0
  9
$COORDS
 70
     1
  9
$SPLFRAME
 70
     0
  9
$SPLINETYPE
 70
     6
  9
$SPLINESEGS
 70
     8
  9
$ATTDIA
 70
     0
  9
$ATTREQ
 70
     1
  9
$HANDLING
 70
     1
  9
$HANDSEED
  5
89E
  9
$SURFTAB1
 70
     6
  9
$SURFTAB2
 70
     6
  9
$SURFTYPE
 70
     6
  9
$SURFU
 70
     6
  9
$SURFV
 70
     6
  9
$UCSNAME
  2

  9
$UCSORG
 10
0.0
 20
0.0
 30
0.0
  9
$UCSXDIR
 10
1.0
 20
0.0
 30
0.0
  9
$UCSYDIR
 10
0.0
 20
1.0
 30
0.0
  9
$PUCSNAME
  2

  9
$PUCSORG
 10
0.0
 20
0.0
 30
0.0
  9
$PUCSXDIR
 10
1.0
 20
0.0
 30
0.0
  9
$PUCSYDIR
 10
0.0
 20
1.0
 30
0.0
  9
$USERI1
 70
     0
  9
$USERI2
 70
     0
  9
$USERI3
 70
     0
  9
$USERI4
 70
     0
  9
$USERI5
 70
     0
  9
$USERR1
 40
0.0
  9
$USERR2
 40
0.0
  9
$USERR3
 40
0.0
  9
$USERR4
 40
0.0
  9
$USERR5
 40
0.0
  9
$WORLDVIEW
 70
     1
  9
$SHADEDGE
 70
     3
  9
$SHADEDIF
 70
    70
  9
$TILEMODE
 70
     1
  9
$MAXACTVP
 70
    64
  9
$PLIMCHECK
 70
     0
  9
$PEXTMIN
 10
1.000000E+20
 20
1.000000E+20
 30
0.0
  9
$PEXTMAX
 10
-1.000000E+20
 20
-1.000000E+20
 30
0.0
  9
$PLIMMIN
 10
0.0
 20
0.0
  9
$PLIMMAX
 10
12.0
 20
9.0
  9
$UNITMODE
 70
     0
  9
$VISRETAIN
 70
     1
  9
$PLINEGEN
 70
     0
  9
$PSLTSCALE
 70
     1
  0
ENDSEC
  0
SECTION
  2
TABLES
  0
TABLE
  2
VPORT
 70
     1
  0
VPORT
  2
*ACTIVE
 70
     0
 10
0.0
 20
0.0
 11
1.0
 21
1.0
 12
1000.585754
 22
426.157623
 13
0.0
 23
0.0
 14
1.0
 24
1.0
 15
0.0
 25
0.0
 16
0.0
 26
0.0
 36
1.0
 17
0.0
 27
0.0
 37
0.0
 40
1149.822298
 41
1.691288
 42
50.0
 43
0.0
 44
0.0
 50
0.0
 51
0.0
 71
     0
 72
  1000
 73
     1
 74
     3
 75
     0
 76
     0
 77
     0
 78
     0
  0
ENDTAB
  0
TABLE
  2
LTYPE
 70
     5
  0
LTYPE
  2
CONTINUOUS
 70
     0
  3
Solid line
 72
    65
 73
     0
 40
0.0
  0
LTYPE
  2
DASHED
 70
     0
  3
DASHED
 72
    83
 73
     2
 40
0.75
 49
0.5
 49
-0.25
  0
LTYPE
  2
HIDDEN
 70
     0
  3
HIDDEN
 72
    83
 73
     2
 40
0.375
 49
0.25
 49
-0.125
  0
LTYPE
  2
CENTER
 70
     0
  3
CENTER
 72
    83
 73
     4
 40
2.0
 49
1.25
 49
-0.25
 49
0.25
 49
-0.25
  0
LTYPE
  2
PHANTOM
 70
     0
  3
PHANTOM
 72
    83
 73
     6
 40
2.5
 49
1.25
 49
-0.25
 49
0.25
 49
-0.25
 49
0.25
 49
-0.25
  0
ENDTAB
  0
TABLE
  2
LAYER
 70
     4
  0
LAYER
  2
0
 70
     0
 62
     7
  6
CONTINUOUS
  0
LAYER
  2
001
 70
     0
 62
     7
  6
CONTINUOUS
  0
LAYER
  2
002
 70
     0
 62
     7
  6
CONTINUOUS
  0
LAYER
  2
003
 70
     0
 62
     7
  6
CONTINUOUS
  0
ENDTAB
  0
TABLE
  2
STYLE
 70
     2
  0
STYLE
  2
STANDARD
 70
     0
 40
0.0
 41
1.0
 50
0.0
 71
     0
 42
0.2
  3
TXT
  4
BIGFONT
  0
STYLE
  2
TATEGAKI
 70
     4
 40
1.0
 41
1.0
 50
0.0
 71
     0
 42
0.2
  3
TXT
  4
BIGFONT
  0
ENDTAB
  0
TABLE
  2
VIEW
 70
     0
  0
ENDTAB
  0
TABLE
  2
UCS
 70
     0
  0
ENDTAB
  0
TABLE
  2
APPID
 70
     1
  0
APPID
  2
ACAD
 70
     0
  0
ENDTAB
  0
TABLE
  2
DIMSTYLE
 70
     2
  0
DIMSTYLE
  2
ISO-25
 70
     0
  3

  4

  5

  6

  7

 40
1.0
 41
2.5
 42
0.625
 43
3.75
 44
1.25
 45
0.0
 46
0.0
 47
0.0
 48
0.0
140
2.5
141
2.5
142
0.0
143
0.03937
144
1.0
145
0.0
146
1.0
147
0.625
 71
     0
 72
     0
 73
     0
 74
     0
 75
     0
 76
     0
 77
     1
 78
     8
170
     0
171
     3
172
     1
173
     0
174
     0
175
     0
176
     0
177
     0
178
     0
  0
DIMSTYLE
  2
STANDARD
 70
     0
  3

  4

  5

  6

  7

 40
1.0
 41
3.0
 42
0.5
 43
0.38
 44
0.7
 45
0.0
 46
0.0
 47
0.0
 48
0.0
140
4.0
141
0.09
142
0.0
143
25.4
144
1.0
145
0.0
146
0.65
147
1.0
 71
     0
 72
     0
 73
     0
 74
     0
 75
     0
 76
     0
 77
     1
 78
     8
170
     0
171
     2
172
     1
173
     0
174
     0
175
     0
176
     0
177
     0
178
     0
  0
ENDTAB
  0
ENDSEC
  0
SECTION
  2
BLOCKS
  0
BLOCK
  8
0
  2
$MODEL_SPACE
 70
     0
 10
0.0
 20
0.0
 30
0.0
  3
$MODEL_SPACE
  1

  0
ENDBLK
  5
21
  8
0
  0
BLOCK
 67
     1
  8
0
  2
$PAPER_SPACE
 70
     0
 10
0.0
 20
0.0
 30
0.0
  3
$PAPER_SPACE
  1

  0
ENDBLK
  5
1D
 67
     1
  8
0
  0
BLOCK
  8
0
  2
JZB-1
 70
     0
 10
0.0
 20
0.0
 30
0.0
  3
JZB-1
  1

  0
CIRCLE
  5
4B
  8
002
 62
     3
 10
243.681663
 20
521.954128
 30
0.0
 40
3.5
  0
ENDBLK
  5
4A
  8
0
  0
BLOCK
  8
0
  2
JZB-2
 70
     0
 10
0.0
 20
0.0
 30
0.0
  3
JZB-2
  1

  0
CIRCLE
  5
4F
  8
002
 62
     3
 10
338.681663
 20
521.954128
 30
0.0
 40
3.5
  0
ENDBLK
  5
4E
  8
0
  0
BLOCK
  8
0
  2
JZB-3
 70
     0
 10
0.0
 20
0.0
 30
0.0
  3
JZB-3
  1

  0
CIRCLE
  5
53
  8
002
 62
     3
 10
338.681663
 20
591.954128
 30
0.0
 40
3.5
  0
ENDBLK
  5
52
  8
0
  0
BLOCK
  8
0
  2
JZB-4
 70
     0
 10
0.0
 20
0.0
 30
0.0
  3
JZB-4
  1

  0
CIRCLE
  5
57
  8
002
 62
     3
 10
243.681663
 20
591.954128
 30
0.0
 40
3.5
  0
ENDBLK
  5
56
  8
0
  0
BLOCK
  8
0
  2
JZB-5
 70
     0
 10
0.0
 20
0.0
 30
0.0
  3
JZB-5
  1

  0
LINE
  5
5B
  8
002
 62
     3
 10
325.681663
 20
551.454128
 30
0.0
 11
329.681663
 21
562.454128
 31
0.0
  0
LINE
  5
5C
  8
002
 62
     3
 10
329.014997
 20
561.787462
 30
0.0
 11
325.014997
 21
555.120795
 31
0.0
  0
LINE
  5
5D
  8
002
 62
     3
 10
329.681663
 20
562.454128
 30
0.0
 11
322.34833
 21
562.454128
 31
0.0
  0
LINE
  5
5E
  8
002
 62
     3
 10
325.681663
 20
561.787462
 30
0.0
 11
329.014997
 21
561.787462
 31
0.0
  0
LINE
  5
5F
  8
002
 62
     3
 10
325.014997
 20
557.120795
 30
0.0
 11
325.681663
 21
561.787462
 31
0.0
  0
LINE
  5
60
  8
002
 62
     3
 10
323.681663
 20
557.120795
 30
0.0
 11
325.014997
 21
557.120795
 31
0.0
  0
LINE
  5
61
  8
002
 62
     3
 10
322.34833
 20
562.454128
 30
0.0
 11
323.681663
 21
557.120795
 31
0.0
  0
LINE
  5
62
  8
002
 62
     3
 10
322.34833
 20
555.120795
 30
0.0
 11
317.681663
 21
562.454128
 31
0.0
  0
LINE
  5
63
  8
002
 62
     3
 10
325.014997
 20
555.120795
 30
0.0
 11
322.34833
 21
555.120795
 31
0.0
  0
LINE
  5
64
  8
002
 62
     3
 10
317.681663
 20
562.454128
 30
0.0
 11
321.681663
 21
551.454128
 31
0.0
  0
LINE
  5
65
  8
002
 62
     3
 10
321.681663
 20
551.454128
 30
0.0
 11
325.681663
 21
551.454128
 31
0.0
  0
ENDBLK
  5
5A
  8
0
  0
BLOCK
  8
0
  2
JZB-6
 70
     0
 10
0.0
 20
0.0
 30
0.0
  3
JZB-6
  1

  0
CIRCLE
  5
69
  8
002
 62
     3
 10
1282.871176
 20
650.907685
 30
0.0
 40
3.5
  0
ENDBLK
  5
68
  8
0
  0
BLOCK
  8
0
  2
JZB-7
 70
     0
 10
0.0
 20
0.0
 30
0.0
  3
JZB-7
  1

  0
CIRCLE
  5
6D
  8
002
 62
     3
 10
1377.871176
 20
650.907685
 30
0.0
 40
3.5
  0
ENDBLK
  5
6C
  8
0
  0
BLOCK
  8
0
  2
JZB-8
 70
     0
 10
0.0
 20
0.0
 30
0.0
  3
JZB-8
  1

  0
CIRCLE
  5
71
  8
002
 62
     3
 10
1377.871176
 20
580.907685
 30
0.0
 40
3.5
  0
ENDBLK
  5
70
  8
0
  0
BLOCK
  8
0
  2
JZB-9
 70
     0
 10
0.0
 20
0.0
 30
0.0
  3
JZB-9
  1

  0
CIRCLE
  5
75
  8
002
 62
     3
 10
1282.871176
 20
580.907685
 30
0.0
 40
3.5
  0
ENDBLK
  5
74
  8
0
  0
BLOCK
  8
0
  2
JZB-10
 70
     0
 10
0.0
 20
0.0
 30
0.0
  3
JZB-10
  1

  0
LINE
  5
79
  8
002
  6
CENTER
 62
    40
 10
1357.871176
 20
610.070886
 30
0.0
 11
1357.871176
 21
621.744483
 31
0.0
  0
ENDBLK
  5
78
  8
0
  0
ENDSEC
  0
SECTION
  2
ENTITIES
  0
INSERT
  5
7A
  8
002
  6
BYBLOCK
 62
     0
  2
JZB-1
 10
0.0
 20
0.0
 30
0.0
  0
INSERT
  5
7B
  8
002
  6
BYBLOCK
 62
     0
  2
JZB-2
 10
0.0
 20
0.0
 30
0.0
  0
INSERT
  5
7C
  8
002
  6
BYBLOCK
 62
     0
  2
JZB-3
 10
0.0
 20
0.0
 30
0.0
  0
INSERT
  5
7D
  8
002
  6
BYBLOCK
 62
     0
  2
JZB-4
 10
0.0
 20
0.0
 30
0.0
  0
INSERT
  5
7E
  8
002
  6
BYBLOCK
 62
     0
  2
JZB-5
 10
0.0
 20
0.0
 30
0.0
  0
INSERT
  5
7F
  8
002
  6
BYBLOCK
 62
     0
  2
JZB-6
 10
0.0
 20
0.0
 30
0.0
  0
INSERT
  5
80
  8
002
  6
BYBLOCK
 62
     0
  2
JZB-7
 10
0.0
 20
0.0
 30
0.0
  0
INSERT
  5
81
  8
002
  6
BYBLOCK
 62
     0
  2
JZB-8
 10
0.0
 20
0.0
 30
0.0
  0
INSERT
  5
82
  8
002
  6
BYBLOCK
 62
     0
  2
JZB-9
 10
0.0
 20
0.0
 30
0.0
  0
INSERT
  5
83
  8
002
  6
BYBLOCK
 62
     0
  2
JZB-10
 10
0.0
 20
0.0
 30
0.0
  0
LINE
  5
84
  8
002
 62
     3
 10
298.681763
 20
170.907685
 30
0.0
 11
258.681663
 21
170.907685
 31
0.0
  0
LINE
  5
85
  8
002
 62
     3
 10
258.681663
 20
170.907685
 30
0.0
 11
258.128663
 21
208.951385
 31
0.0
  0
ARC
  5
86
  8
002
 62
     3
 10
255.128663
 20
208.907685
 30
0.0
 40
3.0
 50
0.834549
 51
90.0
  0
LINE
  5
87
  8
002
 62
     3
 10
258.521663
 20
211.907685
 30
0.0
 11
258.521663
 21
206.907685
 31
0.0
  0
LINE
  5
88
  8
002
 62
     3
 10
267.021663
 20
206.907685
 30
0.0
 11
258.521663
 21
206.907685
 31
0.0
  0
LINE
  5
89
  8
002
 62
     3
 10
267.021663
 20
206.907685
 30
0.0
 11
267.021663
 21
211.907685
 31
0.0
  0
LINE
  5
8A
  8
002
 62
     3
 10
288.681663
 20
356.207685
 30
0.0
 11
268.681663
 21
356.207685
 31
0.0
  0
LINE
  5
8B
  8
002
 62
     3
 10
306.181763
 20
211.907685
 30
0.0
 11
251.181663
 21
211.907685
 31
0.0
  0
LINE
  5
8C
  8
002
 62
     3
 10
251.181663
 20
211.907685
 30
0.0
 11
251.181663
 21
215.907685
 31
0.0
  0
ARC
  5
8D
  8
002
 62
     3
 10
302.234863
 20
208.907685
 30
0.0
 40
3.000018296610834
 50
90.0
 51
179.165367
  0
LINE
  5
8E
  8
002
 62
     3
 10
299.235163
 20
208.951385
 30
0.0
 11
298.681763
 21
170.907685
 31
0.0
  0
LINE
  5
8F
  8
002
 62
     3
 10
290.341663
 20
206.907685
 30
0.0
 11
298.841663
 21
206.907685
 31
0.0
  0
LINE
  5
90
  8
002
 62
     3
 10
298.841663
 20
206.907685
 30
0.0
 11
298.841663
 21
211.907685
 31
0.0
  0
LINE
  5
91
  8
002
 62
     3
 10
290.341663
 20
206.907685
 30
0.0
 11
290.341663
 21
211.907685
 31
0.0
  0
LINE
  5
92
  8
002
 62
     3
 10
268.681663
 20
346.207685
 30
0.0
 11
288.681663
 21
346.207685
 31
0.0
  0
LINE
  5
93
  8
002
 62
     3
 10
285.681663
 20
356.207685
 30
0.0
 11
285.681663
 21
376.207685
 31
0.0
  0
LINE
  5
94
  8
002
 62
     3
 10
285.681663
 20
376.207685
 30
0.0
 11
271.681663
 21
376.207685
 31
0.0
  0
LINE
  5
95
  8
002
 62
     3
 10
271.681663
 20
376.207685
 30
0.0
 11
271.681663
 21
356.207685
 31
0.0
  0
LINE
  5
96
  8
002
 62
    40
 10
272.493663
 20
356.207685
 30
0.0
 11
272.493663
 21
376.207685
 31
0.0
  0
LINE
  5
97
  8
002
 62
    40
 10
284.869663
 20
356.207685
 30
0.0
 11
284.869663
 21
376.207685
 31
0.0
  0
LINE
  5
98
  8
002
  6
CENTER
 62
    40
 10
278.681663
 20
377.087285
 30
0.0
 11
278.681663
 21
57.309612
 31
0.0
  0
LINE
  5
99
  8
002
  6
CENTER
 62
    40
 10
354.504563
 20
245.907685
 30
0.0
 11
224.899663
 21
245.907685
 31
0.0
  0
LINE
  5
9A
  8
002
  6
CENTER
 62
    40
 10
294.591663
 20
204.420925
 30
0.0
 11
294.591663
 21
217.907685
 31
0.0
  0
LINE
  5
9B
  8
002
  6
CENTER
 62
    40
 10
262.771663
 20
217.907685
 30
0.0
 11
262.771663
 21
204.735256
 31
0.0
  0
LINE
  5
9C
  8
002
 62
     3
 10
306.181763
 20
215.907685
 30
0.0
 11
306.181763
 21
211.907685
 31
0.0
  0
LINE
  5
9D
  8
002
 62
     3
 10
263.681663
 20
65.907685
 30
0.0
 11
293.681663
 21
65.907685
 31
0.0
  0
ARC
  5
9E
  8
002
 62
     3
 10
293.681663
 20
68.907685
 30
0.0
 40
3.0
 50
270.0
 51
0.0
  0
LINE
  5
9F
  8
002
 62
     3
 10
296.681663
 20
68.907685
 30
0.0
 11
296.681663
 21
85.907685
 31
0.0
  0
ARC
  5
A0
  8
002
 62
     3
 10
263.681663
 20
68.907685
 30
0.0
 40
3.0
 50
180.0
 51
270.0
  0
LINE
  5
A1
  8
002
 62
     3
 10
260.681663
 20
85.907685
 30
0.0
 11
260.681663
 21
68.907685
 31
0.0
  0
LINE
  5
A2
  8
002
 62
     3
 10
296.681663
 20
85.907685
 30
0.0
 11
260.681663
 21
85.907685
 31
0.0
  0
LINE
  5
A3
  8
002
 62
     3
 10
683.674525
 20
615.200505
 30
0.0
 11
703.674525
 21
615.200505
 31
0.0
  0
LINE
  5
A4
  8
002
 62
     3
 10
703.674525
 20
598.870836
 30
0.0
 11
703.674525
 21
625.200505
 31
0.0
  0
LINE
  5
A5
  8
002
 62
     3
 10
683.674525
 20
625.200505
 30
0.0
 11
683.674525
 21
598.870836
 31
0.0
  0
LINE
  5
A6
  8
002
 62
    40
 10
685.674525
 20
598.870836
 30
0.0
 11
685.674525
 21
615.200505
 31
0.0
  0
LINE
  5
A7
  8
002
 62
    40
 10
701.674525
 20
598.870836
 30
0.0
 11
701.674525
 21
615.200505
 31
0.0
  0
LINE
  5
A8
  8
002
  6
CENTER
 62
    40
 10
693.674525
 20
695.145603
 30
0.0
 11
693.674525
 21
598.870836
 31
0.0
  0
LINE
  5
A9
  8
002
 62
     3
 10
313.181663
 20
447.748628
 30
0.0
 11
312.931663
 21
447.998628
 31
0.0
  0
LINE
  5
AA
  8
002
 62
     3
 10
312.931663
 20
447.998628
 30
0.0
 11
308.431663
 21
447.998628
 31
0.0
  0
LINE
  5
AB
  8
002
 62
     3
 10
308.431663
 20
447.998628
 30
0.0
 11
308.181663
 21
447.748628
 31
0.0
  0
LINE
  5
AC
  8
002
 62
     3
 10
308.181663
 20
447.748628
 30
0.0
 11
308.181663
 21
443.248628
 31
0.0
  0
LINE
  5
AD
  8
002
 62
     3
 10
308.181663
 20
443.248628
 30
0.0
 11
308.431663
 21
442.998628
 31
0.0
  0
LINE
  5
AE
  8
002
 62
     3
 10
308.431663
 20
442.998628
 30
0.0
 11
312.931663
 21
442.998628
 31
0.0
  0
LINE
  5
AF
  8
002
 62
     3
 10
312.931663
 20
442.998628
 30
0.0
 11
313.181663
 21
443.248628
 31
0.0
  0
LINE
  5
B0
  8
002
 62
     3
 10
313.181663
 20
443.248628
 30
0.0
 11
313.181663
 21
447.748628
 31
0.0
  0
ARC
  5
B1
  8
002
 62
     3
 10
312.981663
 20
443.198628
 30
0.0
 40
0.1999999999999318
 50
270.0
 51
0.0
  0
ARC
  5
B2
  8
002
 62
     3
 10
308.381663
 20
443.198628
 30
0.0
 40
0.1999999999999318
 50
180.0
 51
270.0
  0
ARC
  5
B3
  8
002
 62
     3
 10
310.681663
 20
438.498628
 30
0.0
 40
7.500030347271937
 50
109.471139
 51
70.528861
  0
LINE
  5
B4
  8
002
  6
CENTER
 62
    40
 10
310.681663
 20
428.375328
 30
0.0
 11
310.681663
 21
450.310328
 31
0.0
  0
LINE
  5
B5
  8
002
  6
CENTER
 62
    40
 10
299.882763
 20
438.498628
 30
0.0
 11
322.416063
 21
438.498628
 31
0.0
  0
LINE
  5
B6
  8
002
 62
     3
 10
808.9274
 20
170.907685
 30
0.0
 11
768.9273
 21
170.907685
 31
0.0
  0
LINE
  5
B7
  8
002
 62
     3
 10
768.9273
 20
170.907685
 30
0.0
 11
768.3743
 21
208.951385
 31
0.0
  0
ARC
  5
B8
  8
002
 62
     3
 10
765.3743
 20
208.907685
 30
0.0
 40
3.0
 50
0.834549
 51
90.0
  0
LINE
  5
B9
  8
002
 62
     3
 10
768.7673
 20
211.907685
 30
0.0
 11
768.7673
 21
206.907685
 31
0.0
  0
LINE
  5
BA
  8
002
 62
     3
 10
777.2673
 20
206.907685
 30
0.0
 11
768.7673
 21
206.907685
 31
0.0
  0
LINE
  5
BB
  8
002
 62
     3
 10
777.2673
 20
206.907685
 30
0.0
 11
777.2673
 21
211.907685
 31
0.0
  0
LINE
  5
BC
  8
002
 62
     3
 10
816.4274
 20
211.907685
 30
0.0
 11
761.4273
 21
211.907685
 31
0.0
  0
LINE
  5
BD
  8
002
 62
     3
 10
761.4273
 20
211.907685
 30
0.0
 11
761.4273
 21
215.907685
 31
0.0
  0
ARC
  5
BE
  8
002
 62
     3
 10
812.4805
 20
208.907685
 30
0.0
 40
3.000018296610834
 50
90.0
 51
179.165367
  0
LINE
  5
BF
  8
002
 62
     3
 10
809.4808
 20
208.951385
 30
0.0
 11
808.9274
 21
170.907685
 31
0.0
  0
LINE
  5
C0
  8
002
 62
     3
 10
800.5873
 20
206.907685
 30
0.0
 11
809.0873
 21
206.907685
 31
0.0
  0
LINE
  5
C1
  8
002
 62
     3
 10
809.0873
 20
206.907685
 30
0.0
 11
809.0873
 21
211.907685
 31
0.0
  0
LINE
  5
C2
  8
002
 62
     3
 10
800.5873
 20
206.907685
 30
0.0
 11
800.5873
 21
211.907685
 31
0.0
  0
LINE
  5
C3
  8
002
 62
     3
 10
761.4273
 20
275.907685
 30
0.0
 11
761.4273
 21
278.907685
 31
0.0
  0
LINE
  5
C4
  8
002
 62
     3
 10
761.4273
 20
278.907685
 30
0.0
 11
816.4273
 21
278.907685
 31
0.0
  0
LINE
  5
C5
  8
002
 62
     3
 10
816.4273
 20
278.907685
 30
0.0
 11
816.4273
 21
275.907685
 31
0.0
  0
LINE
  5
C6
  8
002
 62
     3
 10
809.0872
 20
278.907685
 30
0.0
 11
809.0872
 21
283.907685
 31
0.0
  0
LINE
  5
C7
  8
002
 62
     3
 10
809.0872
 20
283.907685
 30
0.0
 11
800.5872
 21
283.907685
 31
0.0
  0
LINE
  5
C8
  8
002
 62
     3
 10
800.5872
 20
283.907685
 30
0.0
 11
800.5872
 21
278.907685
 31
0.0
  0
LINE
  5
C9
  8
002
 62
     3
 10
800.5872
 20
280.907685
 30
0.0
 11
777.2674
 21
280.907685
 31
0.0
  0
LINE
  5
CA
  8
002
 62
     3
 10
777.2674
 20
278.907685
 30
0.0
 11
777.2674
 21
283.907685
 31
0.0
  0
LINE
  5
CB
  8
002
 62
     3
 10
768.7674
 20
283.907685
 30
0.0
 11
768.7674
 21
278.907685
 31
0.0
  0
LINE
  5
CC
  8
002
 62
     3
 10
768.7674
 20
280.907685
 30
0.0
 11
764.6273
 21
280.907685
 31
0.0
  0
LINE
  5
CD
  8
002
 62
     3
 10
762.6273
 20
282.907685
 30
0.0
 11
762.6273
 21
290.907685
 31
0.0
  0
LINE
  5
CE
  8
002
 62
     3
 10
764.6273
 20
292.907685
 30
0.0
 11
805.2273
 21
292.907685
 31
0.0
  0
LINE
  5
CF
  8
002
 62
     3
 10
805.2273
 20
292.907685
 30
0.0
 11
805.2273
 21
283.907685
 31
0.0
  0
LINE
  5
D0
  8
002
 62
     3
 10
804.6273
 20
292.907685
 30
0.0
 11
804.6273
 21
293.907685
 31
0.0
  0
LINE
  5
D1
  8
002
 62
     3
 10
804.6273
 20
293.907685
 30
0.0
 11
818.1009
 21
295.922885
 31
0.0
  0
ARC
  5
D2
  8
002
 62
     3
 10
817.9273
 20
296.907685
 30
0.0
 40
1.000082481598389
 50
279.997359
 51
80.003636
  0
LINE
  5
D3
  8
002
 62
     3
 10
818.1009
 20
297.892585
 30
0.0
 11
807.2538
 21
298.922885
 31
0.0
  0
ARC
  5
D4
  8
002
 62
     3
 10
807.4273
 20
299.907685
 30
0.0
 40
0.9999666444437085
 50
99.990722
 51
260.008284
  0
LINE
  5
D5
  8
002
 62
     3
 10
807.2538
 20
300.892585
 30
0.0
 11
818.1009
 21
301.922885
 31
0.0
  0
ARC
  5
D6
  8
002
 62
     3
 10
817.9273
 20
302.907685
 30
0.0
 40
1.000082481598389
 50
279.997359
 51
80.003636
  0
LINE
  5
D7
  8
002
 62
     3
 10
818.1009
 20
303.892585
 30
0.0
 11
807.2538
 21
304.922885
 31
0.0
  0
ARC
  5
D8
  8
002
 62
     3
 10
807.4273
 20
305.907685
 30
0.0
 40
0.9999666444437085
 50
180.0
 51
260.008284
  0
LINE
  5
D9
  8
002
 62
     3
 10
805.4273
 20
305.907685
 30
0.0
 11
772.4273
 21
305.907685
 31
0.0
  0
LINE
  5
DA
  8
002
 62
     3
 10
770.6009
 20
304.922885
 30
0.0
 11
759.7538
 21
303.892585
 31
0.0
  0
ARC
  5
DB
  8
002
 62
     3
 10
759.9273
 20
302.907685
 30
0.0
 40
0.9999666444437085
 50
99.990722
 51
260.008284
  0
LINE
  5
DC
  8
002
 62
     3
 10
759.7538
 20
301.922885
 30
0.0
 11
770.6009
 21
300.892585
 31
0.0
  0
ARC
  5
DD
  8
002
 62
     3
 10
770.4273
 20
299.907685
 30
0.0
 40
1.000082481598389
 50
279.997359
 51
80.003636
  0
LINE
  5
DE
  8
002
 62
     3
 10
770.6009
 20
298.922885
 30
0.0
 11
759.7538
 21
297.892585
 31
0.0
  0
ARC
  5
DF
  8
002
 62
     3
 10
759.9273
 20
296.907685
 30
0.0
 40
0.9999666444437085
 50
99.990722
 51
260.008284
  0
LINE
  5
E0
  8
002
 62
     3
 10
759.7538
 20
295.922885
 30
0.0
 11
773.2273
 21
293.907685
 31
0.0
  0
LINE
  5
E1
  8
002
 62
     3
 10
773.2273
 20
293.907685
 30
0.0
 11
773.2273
 21
292.907685
 31
0.0
  0
LINE
  5
E2
  8
002
 62
     3
 10
772.6273
 20
292.907685
 30
0.0
 11
772.6273
 21
283.907685
 31
0.0
  0
LINE
  5
E3
  8
002
 62
     3
 10
768.7674
 20
283.907685
 30
0.0
 11
777.2674
 21
283.907685
 31
0.0
  0
ARC
  5
E4
  8
002
 62
     3
 10
764.6273
 20
282.907685
 30
0.0
 40
2.0
 50
180.0
 51
270.0
  0
CIRCLE
  5
E5
  8
002
 62
     3
 10
767.6273
 20
286.407685
 30
0.0
 40
1.0
  0
ARC
  5
E6
  8
002
 62
     3
 10
764.6273
 20
290.907685
 30
0.0
 40
2.0
 50
90.0
 51
180.0
  0
LINE
  5
E7
  8
002
 62
     3
 10
759.9273
 20
296.907685
 30
0.0
 11
817.9273
 21
296.907685
 31
0.0
  0
LINE
  5
E8
  8
002
 62
     3
 10
817.9273
 20
302.907685
 30
0.0
 11
759.9273
 21
302.907685
 31
0.0
  0
ARC
  5
E9
  8
002
 62
     3
 10
770.4273
 20
305.907685
 30
0.0
 40
1.0
 50
279.997359
 51
0.0
  0
LINE
  5
EA
  8
002
 62
     3
 10
772.4273
 20
299.907685
 30
0.0
 11
805.4273
 21
299.907685
 31
0.0
  0
LINE
  5
EB
  8
002
 62
     3
 10
772.4273
 20
329.207685
 30
0.0
 11
805.4273
 21
329.207685
 31
0.0
  0
ARC
  5
EC
  8
002
 62
     3
 10
807.4273
 20
329.207685
 30
0.0
 40
1.0
 50
99.990722
 51
180.0
  0
LINE
  5
ED
  8
002
 62
     3
 10
807.2538
 20
330.192585
 30
0.0
 11
818.1009
 21
331.222885
 31
0.0
  0
ARC
  5
EE
  8
002
 62
     3
 10
817.9273
 20
332.207685
 30
0.0
 40
1.000082481598389
 50
279.997359
 51
80.003636
  0
LINE
  5
EF
  8
002
 62
     3
 10
818.1009
 20
333.192585
 30
0.0
 11
807.2538
 21
334.222885
 31
0.0
  0
ARC
  5
F0
  8
002
 62
     3
 10
807.4273
 20
335.207685
 30
0.0
 40
0.9999666444437085
 50
99.990722
 51
260.008284
  0
LINE
  5
F1
  8
002
 62
     3
 10
807.2538
 20
336.192585
 30
0.0
 11
818.1009
 21
337.222885
 31
0.0
  0
ARC
  5
F2
  8
002
 62
     3
 10
817.9273
 20
338.207685
 30
0.0
 40
1.000082481598389
 50
279.997359
 51
80.003636
  0
LINE
  5
F3
  8
002
 62
     3
 10
818.1009
 20
339.192585
 30
0.0
 11
799.6273
 21
341.207685
 31
0.0
  0
LINE
  5
F4
  8
002
 62
     3
 10
778.2273
 20
341.207685
 30
0.0
 11
759.7538
 21
339.192585
 31
0.0
  0
ARC
  5
F5
  8
002
 62
     3
 10
759.9273
 20
338.207685
 30
0.0
 40
0.9999666444437085
 50
99.990722
 51
260.008284
  0
LINE
  5
F6
  8
002
 62
     3
 10
759.7538
 20
337.222885
 30
0.0
 11
770.6009
 21
336.192585
 31
0.0
  0
LINE
  5
F7
  8
002
 62
     3
 10
770.6009
 20
334.222885
 30
0.0
 11
759.7538
 21
333.192585
 31
0.0
  0
ARC
  5
F8
  8
002
 62
     3
 10
759.9273
 20
332.207685
 30
0.0
 40
0.9999666444437085
 50
99.990722
 51
260.008284
  0
LINE
  5
F9
  8
002
 62
     3
 10
759.7538
 20
331.222885
 30
0.0
 11
770.6009
 21
330.192585
 31
0.0
  0
ARC
  5
FA
  8
002
 62
     3
 10
770.4273
 20
329.207685
 30
0.0
 40
1.000082481598389
 50
0.0
 51
80.003636
  0
ARC
  5
FB
  8
002
 62
     3
 10
770.4273
 20
335.207685
 30
0.0
 40
1.000082481598389
 50
279.997359
 51
80.003636
  0
LINE
  5
FC
  8
002
 62
     3
 10
772.4273
 20
335.207685
 30
0.0
 11
805.4273
 21
335.207685
 31
0.0
  0
LINE
  5
FD
  8
002
 62
     3
 10
799.6273
 20
341.207685
 30
0.0
 11
799.6273
 21
342.207685
 31
0.0
  0
LINE
  5
FE
  8
002
 62
     3
 10
800.2273
 20
342.207685
 30
0.0
 11
800.2273
 21
354.207685
 31
0.0
  0
LINE
  5
FF
  8
002
 62
     3
 10
800.2273
 20
354.207685
 30
0.0
 11
769.6273
 21
354.207685
 31
0.0
  0
ARC
  5
100
  8
002
 62
     3
 10
769.6273
 20
352.207685
 30
0.0
 40
2.0
 50
90.0
 51
180.0
  0
LINE
  5
101
  8
002
 62
     3
 10
767.6273
 20
352.207685
 30
0.0
 11
767.6273
 21
344.207685
 31
0.0
  0
ARC
  5
102
  8
002
 62
     3
 10
769.6273
 20
344.207685
 30
0.0
 40
2.0
 50
180.0
 51
270.0
  0
LINE
  5
103
  8
002
 62
     3
 10
769.6273
 20
342.207685
 30
0.0
 11
800.2273
 21
342.207685
 31
0.0
  0
LINE
  5
104
  8
002
 62
     3
 10
799.6273
 20
354.207685
 30
0.0
 11
799.6273
 21
356.207685
 31
0.0
  0
LINE
  5
105
  8
002
 62
     3
 10
799.6273
 20
356.207685
 30
0.0
 11
778.2273
 21
356.207685
 31
0.0
  0
LINE
  5
106
  8
002
 62
     3
 10
778.2273
 20
356.207685
 30
0.0
 11
778.2273
 21
354.207685
 31
0.0
  0
LINE
  5
107
  8
002
 62
     3
 10
777.6273
 20
354.207685
 30
0.0
 11
777.6273
 21
342.207685
 31
0.0
  0
LINE
  5
108
  8
002
 62
     3
 10
778.2273
 20
342.207685
 30
0.0
 11
778.2273
 21
341.207685
 31
0.0
  0
CIRCLE
  5
109
  8
002
 62
     3
 10
772.6273
 20
348.707685
 30
0.0
 40
1.0
  0
LINE
  5
10A
  8
002
 62
     3
 10
781.9273
 20
356.207685
 30
0.0
 11
781.9273
 21
376.207685
 31
0.0
  0
LINE
  5
10B
  8
002
 62
     3
 10
781.9273
 20
376.207685
 30
0.0
 11
795.9273
 21
376.207685
 31
0.0
  0
LINE
  5
10C
  8
002
 62
     3
 10
795.9273
 20
376.207685
 30
0.0
 11
795.9273
 21
356.207685
 31
0.0
  0
LINE
  5
10D
  8
002
 62
     3
 10
759.9273
 20
338.207685
 30
0.0
 11
817.9273
 21
338.207685
 31
0.0
  0
LINE
  5
10E
  8
002
 62
     3
 10
817.9273
 20
332.207685
 30
0.0
 11
759.9273
 21
332.207685
 31
0.0
  0
LINE
  5
10F
  8
002
  6
CENTER
 62
    40
 10
788.9273
 20
377.087285
 30
0.0
 11
788.9273
 21
56.728451
 31
0.0
  0
LINE
  5
110
  8
002
 62
    40
 10
782.7393
 20
376.207685
 30
0.0
 11
782.7393
 21
356.207685
 31
0.0
  0
LINE
  5
111
  8
002
 62
    40
 10
795.1153
 20
356.207685
 30
0.0
 11
795.1153
 21
376.207685
 31
0.0
  0
LINE
  5
112
  8
002
  6
CENTER
 62
    40
 10
775.2847
 20
348.707685
 30
0.0
 11
770.2595
 21
348.707685
 31
0.0
  0
LINE
  5
113
  8
002
  6
CENTER
 62
    40
 10
772.6273
 20
345.455485
 30
0.0
 11
772.6273
 21
352.215485
 31
0.0
  0
LINE
  5
114
  8
002
  6
PHANTOM
 62
    40
 10
771.4273
 20
329.207685
 30
0.0
 11
771.4273
 21
305.907685
 31
0.0
  0
LINE
  5
115
  8
002
  6
PHANTOM
 62
    40
 10
758.9273
 20
302.907685
 30
0.0
 11
758.9273
 21
332.207685
 31
0.0
  0
LINE
  5
116
  8
002
  6
PHANTOM
 62
    40
 10
806.4273
 20
305.907685
 30
0.0
 11
806.4273
 21
329.207685
 31
0.0
  0
LINE
  5
117
  8
002
  6
PHANTOM
 62
    40
 10
818.9273
 20
332.207685
 30
0.0
 11
818.9273
 21
302.907685
 31
0.0
  0
LINE
  5
118
  8
002
  6
CENTER
 62
    40
 10
765.2595
 20
286.407685
 30
0.0
 11
770.2847
 21
286.407685
 31
0.0
  0
LINE
  5
119
  8
002
  6
CENTER
 62
    40
 10
767.6273
 20
283.155485
 30
0.0
 11
767.6273
 21
289.915485
 31
0.0
  0
LINE
  5
11A
  8
002
  6
CENTER
 62
    40
 10
864.7502
 20
245.907685
 30
0.0
 11
735.1453
 21
245.907685
 31
0.0
  0
LINE
  5
11B
  8
002
  6
CENTER
 62
    40
 10
804.8373
 20
204.186085
 30
0.0
 11
804.8373
 21
222.710285
 31
0.0
  0
LINE
  5
11C
  8
002
  6
CENTER
 62
    40
 10
773.0173
 20
221.014278
 30
0.0
 11
773.0173
 21
204.186085
 31
0.0
  0
LINE
  5
11D
  8
002
 62
     3
 10
816.4274
 20
215.907685
 30
0.0
 11
816.4274
 21
211.907685
 31
0.0
  0
LINE
  5
11E
  8
002
 62
     3
 10
773.9273
 20
65.907685
 30
0.0
 11
803.9273
 21
65.907685
 31
0.0
  0
ARC
  5
11F
  8
002
 62
     3
 10
803.9273
 20
68.907685
 30
0.0
 40
3.0
 50
270.0
 51
0.0
  0
LINE
  5
120
  8
002
 62
     3
 10
806.9273
 20
68.907685
 30
0.0
 11
806.9273
 21
85.907685
 31
0.0
  0
LINE
  5
121
  8
002
 62
     3
 10
806.9273
 20
85.907685
 30
0.0
 11
770.9273
 21
85.907685
 31
0.0
  0
ARC
  5
122
  8
002
 62
     3
 10
773.9273
 20
68.907685
 30
0.0
 40
3.0
 50
180.0
 51
270.0
  0
LINE
  5
123
  8
002
 62
     3
 10
770.9273
 20
85.907685
 30
0.0
 11
770.9273
 21
68.907685
 31
0.0
  0
LINE
  5
124
  8
002
 62
     3
 10
1337.871276
 20
320.907685
 30
0.0
 11
1297.871176
 21
320.907685
 31
0.0
  0
LINE
  5
125
  8
002
 62
     3
 10
1297.871176
 20
320.907685
 30
0.0
 11
1297.318176
 21
282.863985
 31
0.0
  0
ARC
  5
126
  8
002
 62
     3
 10
1294.318176
 20
282.907685
 30
0.0
 40
3.0
 50
270.0
 51
359.165451
  0
LINE
  5
127
  8
002
 62
     3
 10
1297.711176
 20
279.907685
 30
0.0
 11
1297.711176
 21
284.907685
 31
0.0
  0
LINE
  5
128
  8
002
 62
     3
 10
1306.211176
 20
284.907685
 30
0.0
 11
1297.711176
 21
284.907685
 31
0.0
  0
LINE
  5
129
  8
002
 62
     3
 10
1306.211176
 20
284.907685
 30
0.0
 11
1306.211176
 21
279.907685
 31
0.0
  0
LINE
  5
12A
  8
002
 62
     3
 10
1327.871176
 20
135.607685
 30
0.0
 11
1307.871176
 21
135.607685
 31
0.0
  0
LINE
  5
12B
  8
002
 62
     3
 10
1345.371276
 20
279.907685
 30
0.0
 11
1290.371176
 21
279.907685
 31
0.0
  0
LINE
  5
12C
  8
002
 62
     3
 10
1290.371176
 20
279.907685
 30
0.0
 11
1290.371176
 21
275.907685
 31
0.0
  0
ARC
  5
12D
  8
002
 62
     3
 10
1341.424376
 20
282.907685
 30
0.0
 40
3.000018296610834
 50
180.834633
 51
270.0
  0
LINE
  5
12E
  8
002
 62
     3
 10
1338.424676
 20
282.863985
 30
0.0
 11
1337.871276
 21
320.907685
 31
0.0
  0
LINE
  5
12F
  8
002
 62
     3
 10
1329.531176
 20
284.907685
 30
0.0
 11
1338.031176
 21
284.907685
 31
0.0
  0
LINE
  5
130
  8
002
 62
     3
 10
1338.031176
 20
284.907685
 30
0.0
 11
1338.031176
 21
279.907685
 31
0.0
  0
LINE
  5
131
  8
002
 62
     3
 10
1329.531176
 20
284.907685
 30
0.0
 11
1329.531176
 21
279.907685
 31
0.0
  0
LINE
  5
132
  8
002
 62
     3
 10
1307.871176
 20
145.607685
 30
0.0
 11
1327.871176
 21
145.607685
 31
0.0
  0
LINE
  5
133
  8
002
 62
     3
 10
1324.871176
 20
135.607685
 30
0.0
 11
1324.871176
 21
115.607685
 31
0.0
  0
LINE
  5
134
  8
002
 62
     3
 10
1310.871176
 20
115.607685
 30
0.0
 11
1310.871176
 21
135.607685
 31
0.0
  0
LINE
  5
135
  8
002
 62
    40
 10
1324.059176
 20
135.607685
 30
0.0
 11
1324.059176
 21
115.607685
 31
0.0
  0
LINE
  5
136
  8
002
 62
    40
 10
1311.683176
 20
135.607685
 30
0.0
 11
1311.683176
 21
115.607685
 31
0.0
  0
LINE
  5
137
  8
002
  6
CENTER
 62
    40
 10
1393.694076
 20
245.907685
 30
0.0
 11
1264.089176
 21
245.907685
 31
0.0
  0
LINE
  5
138
  8
002
  6
CENTER
 62
    40
 10
1301.961176
 20
273.907685
 30
0.0
 11
1301.961176
 21
289.356747
 31
0.0
  0
LINE
  5
139
  8
002
  6
CENTER
 62
    40
 10
1333.781176
 20
289.356747
 30
0.0
 11
1333.781176
 21
273.907685
 31
0.0
  0
LINE
  5
13A
  8
002
 62
     3
 10
1345.371276
 20
275.907685
 30
0.0
 11
1345.371276
 21
279.907685
 31
0.0
  0
LINE
  5
13B
  8
002
 62
     3
 10
1302.871176
 20
425.907685
 30
0.0
 11
1332.871176
 21
425.907685
 31
0.0
  0
LINE
  5
13C
  8
002
 62
     3
 10
1335.871176
 20
422.907685
 30
0.0
 11
1335.871176
 21
405.907685
 31
0.0
  0
ARC
  5
13D
  8
002
 62
     3
 10
1332.871176
 20
422.907685
 30
0.0
 40
3.0
 50
0.0
 51
90.0
  0
ARC
  5
13E
  8
002
 62
     3
 10
1302.871176
 20
422.907685
 30
0.0
 40
3.0
 50
90.0
 51
180.0
  0
LINE
  5
13F
  8
002
 62
     3
 10
1299.871176
 20
405.907685
 30
0.0
 11
1299.871176
 21
422.907685
 31
0.0
  0
LINE
  5
140
  8
002
 62
     3
 10
1335.871176
 20
405.907685
 30
0.0
 11
1299.871176
 21
405.907685
 31
0.0
  0
LINE
  5
141
  8
002
 62
     3
 10
1324.871176
 20
115.607685
 30
0.0
 11
1310.871176
 21
115.607685
 31
0.0
  0
LINE
  5
142
  8
002
  6
CENTER
 62
    40
 10
1317.871176
 20
105.607685
 30
0.0
 11
1317.871176
 21
435.907685
 31
0.0
  0
ARC
  5
143
  8
002
 62
     3
 10
693.674525
 20
763.781787
 30
0.0
 40
13.00005157259
 50
302.204588
 51
57.795412
  0
ARC
  5
144
  8
002
 62
     3
 10
693.674525
 20
763.781787
 30
0.0
 40
12.99999827846152
 50
122.204215
 51
237.795785
  0
LINE
  5
145
  8
002
 62
     3
 10
682.055625
 20
752.781787
 30
0.0
 11
705.293525
 21
752.781787
 31
0.0
  0
CIRCLE
  5
146
  8
002
 62
     3
 10
693.674525
 20
763.781787
 30
0.0
 40
16.0
  0
LINE
  5
147
  8
002
 62
     3
 10
705.293525
 20
774.781787
 30
0.0
 11
682.055625
 21
774.781787
 31
0.0
  0
LINE
  5
148
  8
002
  6
CENTER
 62
    40
 10
670.831325
 20
763.781787
 30
0.0
 11
716.539225
 21
763.781787
 31
0.0
  0
LINE
  5
149
  8
002
  6
CENTER
 62
    40
 10
693.674525
 20
784.657787
 30
0.0
 11
693.674525
 21
743.342787
 31
0.0
  0
LINE
  5
14A
  8
002
 62
     3
 10
706.674525
 20
685.200505
 30
0.0
 11
680.674525
 21
685.200505
 31
0.0
  0
LINE
  5
14B
  8
002
 62
     3
 10
680.674525
 20
685.200505
 30
0.0
 11
677.674525
 21
682.200505
 31
0.0
  0
LINE
  5
14C
  8
002
 62
     3
 10
677.674525
 20
682.200505
 30
0.0
 11
677.674525
 21
627.200505
 31
0.0
  0
LINE
  5
14D
  8
002
 62
     3
 10
685.674525
 20
652.200505
 30
0.0
 11
701.674525
 21
652.200505
 31
0.0
  0
CIRCLE
  5
14E
  8
002
 62
     3
 10
693.674525
 20
670.200505
 30
0.0
 40
7.5
  0
LINE
  5
14F
  8
002
 62
     3
 10
705.293525
 20
655.200505
 30
0.0
 11
682.055625
 21
655.200505
 31
0.0
  0
ARC
  5
150
  8
002
 62
     3
 10
686.681525
 20
657.098005
 30
0.0
 40
4.999955524802121
 50
202.30297
 51
258.381056
  0
LINE
  5
151
  8
002
 62
     3
 10
682.055625
 20
655.200505
 30
0.0
 11
682.055625
 21
682.200505
 31
0.0
  0
LINE
  5
152
  8
002
 62
     3
 10
682.055625
 20
682.200505
 30
0.0
 11
677.674525
 21
682.200505
 31
0.0
  0
LINE
  5
153
  8
002
 62
     3
 10
682.055625
 20
682.200505
 30
0.0
 11
685.928625
 21
685.200505
 31
0.0
  0
LINE
  5
154
  8
002
  6
CENTER
 62
    40
 10
680.844925
 20
670.200505
 30
0.0
 11
705.990825
 21
670.200505
 31
0.0
  0
LINE
  5
155
  8
002
 62
     3
 10
705.293525
 20
682.200505
 30
0.0
 11
701.420525
 21
685.200505
 31
0.0
  0
LINE
  5
156
  8
002
 62
     3
 10
705.293525
 20
682.200505
 30
0.0
 11
709.674525
 21
682.200505
 31
0.0
  0
LINE
  5
157
  8
002
 62
     3
 10
705.293525
 20
655.200505
 30
0.0
 11
705.293525
 21
682.200505
 31
0.0
  0
LINE
  5
158
  8
002
 62
     3
 10
709.674525
 20
627.200505
 30
0.0
 11
709.674525
 21
682.200505
 31
0.0
  0
LINE
  5
159
  8
002
 62
     3
 10
709.674525
 20
682.200505
 30
0.0
 11
706.674525
 21
685.200505
 31
0.0
  0
ARC
  5
15A
  8
002
 62
     3
 10
700.667625
 20
657.098005
 30
0.0
 40
4.999945705705185
 50
281.617822
 51
337.69703
  0
LINE
  5
15B
  8
002
 62
     3
 10
709.674525
 20
627.200505
 30
0.0
 11
677.674525
 21
627.200505
 31
0.0
  0
LINE
  5
15C
  8
002
 62
     3
 10
677.674525
 20
627.200505
 30
0.0
 11
679.674525
 21
625.200505
 31
0.0
  0
LINE
  5
15D
  8
002
 62
     3
 10
679.674525
 20
625.200505
 30
0.0
 11
707.674525
 21
625.200505
 31
0.0
  0
LINE
  5
15E
  8
002
 62
     3
 10
707.674525
 20
625.200505
 30
0.0
 11
709.674525
 21
627.200505
 31
0.0
  0
LINE
  5
15F
  8
002
  6
HIDDEN
 62
    40
 10
686.174525
 20
774.781787
 30
0.0
 11
686.174525
 21
752.781787
 31
0.0
  0
LINE
  5
160
  8
002
  6
HIDDEN
 62
    40
 10
701.174525
 20
774.781787
 30
0.0
 11
701.174525
 21
752.781787
 31
0.0
  0
LINE
  5
161
  8
002
 62
     3
 10
927.989198
 20
615.200505
 30
0.0
 11
947.989198
 21
615.200505
 31
0.0
  0
CIRCLE
  5
162
  8
002
 62
     3
 10
937.992798
 20
763.781787
 30
0.0
 40
6.188
  0
CIRCLE
  5
163
  8
002
 62
     3
 10
937.993998
 20
741.279787
 30
0.0
 40
2.75
  0
CIRCLE
  5
164
  8
002
 62
     3
 10
915.491498
 20
763.782387
 30
0.0
 40
2.75
  0
CIRCLE
  5
165
  8
002
 62
     3
 10
937.993998
 20
786.284887
 30
0.0
 40
2.75
  0
CIRCLE
  5
166
  8
002
 62
     3
 10
960.496598
 20
763.782387
 30
0.0
 40
2.75
  0
CIRCLE
  5
167
  8
002
 62
     3
 10
937.989198
 20
763.781787
 30
0.0
 40
27.5
  0
LINE
  5
168
  8
002
 62
     3
 10
965.489198
 20
625.200505
 30
0.0
 11
910.489198
 21
625.200505
 31
0.0
  0
LINE
  5
169
  8
002
 62
     3
 10
965.489198
 20
647.200505
 30
0.0
 11
965.489198
 21
625.200505
 31
0.0
  0
LINE
  5
16A
  8
002
 62
     3
 10
910.489198
 20
647.200505
 30
0.0
 11
965.489198
 21
647.200505
 31
0.0
  0
LINE
  5
16B
  8
002
 62
     3
 10
910.489198
 20
625.200505
 30
0.0
 11
910.489198
 21
647.200505
 31
0.0
  0
LINE
  5
16C
  8
003
  6
CENTER
 62
    40
 10
982.074398
 20
763.781787
 30
0.0
 11
894.937798
 21
763.781787
 31
0.0
  0
LINE
  5
16D
  8
003
  6
CENTER
 62
    40
 10
937.992798
 20
730.503887
 30
0.0
 11
937.992798
 21
795.586787
 31
0.0
  0
CIRCLE
  5
16E
  8
003
  6
CENTER
 62
    40
 10
937.989198
 20
763.781787
 30
0.0
 40
22.5
  0
CIRCLE
  5
16F
  8
003
 62
    40
 10
937.992798
 20
763.781787
 30
0.0
 40
7.0
  0
LINE
  5
170
  8
003
  6
CENTER
 62
    40
 10
915.489198
 20
650.200505
 30
0.0
 11
915.489198
 21
622.200505
 31
0.0
  0
LINE
  5
171
  8
003
  6
CENTER
 62
    40
 10
960.489198
 20
650.200505
 30
0.0
 11
960.489198
 21
622.200505
 31
0.0
  0
LINE
  5
172
  8
002
 62
     3
 10
947.989198
 20
598.870836
 30
0.0
 11
947.989198
 21
625.200505
 31
0.0
  0
LINE
  5
173
  8
002
 62
     3
 10
927.989198
 20
625.200505
 30
0.0
 11
927.989198
 21
598.870836
 31
0.0
  0
LINE
  5
174
  8
002
 62
    40
 10
929.989198
 20
598.870836
 30
0.0
 11
929.989198
 21
615.200505
 31
0.0
  0
LINE
  5
175
  8
002
 62
    40
 10
945.989198
 20
598.870836
 30
0.0
 11
945.989198
 21
615.200505
 31
0.0
  0
LINE
  5
176
  8
002
  6
CENTER
 62
    40
 10
937.989198
 20
657.200505
 30
0.0
 11
937.989198
 21
598.870836
 31
0.0
  0
LINE
  5
177
  8
002
  6
HIDDEN
 62
    40
 10
930.989198
 20
625.200505
 30
0.0
 11
930.989198
 21
645.200505
 31
0.0
  0
LINE
  5
178
  8
002
  6
HIDDEN
 62
    40
 10
930.989198
 20
645.200505
 30
0.0
 11
944.989198
 21
645.200505
 31
0.0
  0
LINE
  5
179
  8
002
  6
HIDDEN
 62
    40
 10
944.989198
 20
645.200505
 30
0.0
 11
944.989198
 21
625.200505
 31
0.0
  0
LINE
  5
17A
  8
002
  6
HIDDEN
 62
    40
 10
931.801198
 20
645.200505
 30
0.0
 11
931.801198
 21
625.200505
 31
0.0
  0
LINE
  5
17B
  8
002
  6
HIDDEN
 62
    40
 10
944.177198
 20
625.200505
 30
0.0
 11
944.177198
 21
645.200505
 31
0.0
  0
LINE
  5
17C
  8
002
  6
HIDDEN
 62
    40
 10
686.674525
 20
625.200505
 30
0.0
 11
686.674525
 21
645.200505
 31
0.0
  0
LINE
  5
17D
  8
002
  6
HIDDEN
 62
    40
 10
686.674525
 20
645.200505
 30
0.0
 11
700.674525
 21
645.200505
 31
0.0
  0
LINE
  5
17E
  8
002
  6
HIDDEN
 62
    40
 10
700.674525
 20
645.200505
 30
0.0
 11
700.674525
 21
625.200505
 31
0.0
  0
LINE
  5
17F
  8
002
  6
HIDDEN
 62
    40
 10
687.486525
 20
645.200505
 30
0.0
 11
687.486525
 21
625.200505
 31
0.0
  0
LINE
  5
180
  8
002
  6
HIDDEN
 62
    40
 10
699.862525
 20
625.200505
 30
0.0
 11
699.862525
 21
645.200505
 31
0.0
  0
LINE
  5
181
  8
002
 62
     3
 10
1907.476176
 20
320.907685
 30
0.0
 11
1867.476076
 21
320.907685
 31
0.0
  0
LINE
  5
182
  8
002
 62
     3
 10
1867.476076
 20
320.907685
 30
0.0
 11
1866.923076
 21
282.863985
 31
0.0
  0
ARC
  5
183
  8
002
 62
     3
 10
1863.923076
 20
282.907685
 30
0.0
 40
3.0
 50
270.0
 51
359.165451
  0
LINE
  5
184
  8
002
 62
     3
 10
1867.316076
 20
279.907685
 30
0.0
 11
1867.316076
 21
284.907685
 31
0.0
  0
LINE
  5
185
  8
002
 62
     3
 10
1875.816076
 20
284.907685
 30
0.0
 11
1867.316076
 21
284.907685
 31
0.0
  0
LINE
  5
186
  8
002
 62
     3
 10
1875.816076
 20
284.907685
 30
0.0
 11
1875.816076
 21
279.907685
 31
0.0
  0
LINE
  5
187
  8
002
 62
     3
 10
1914.976176
 20
279.907685
 30
0.0
 11
1859.976076
 21
279.907685
 31
0.0
  0
LINE
  5
188
  8
002
 62
     3
 10
1859.976076
 20
279.907685
 30
0.0
 11
1859.976076
 21
275.907685
 31
0.0
  0
ARC
  5
189
  8
002
 62
     3
 10
1911.029276
 20
282.907685
 30
0.0
 40
3.000018296610834
 50
180.834633
 51
270.0
  0
LINE
  5
18A
  8
002
 62
     3
 10
1908.029576
 20
282.863985
 30
0.0
 11
1907.476176
 21
320.907685
 31
0.0
  0
LINE
  5
18B
  8
002
 62
     3
 10
1899.136076
 20
284.907685
 30
0.0
 11
1907.636076
 21
284.907685
 31
0.0
  0
LINE
  5
18C
  8
002
 62
     3
 10
1907.636076
 20
284.907685
 30
0.0
 11
1907.636076
 21
279.907685
 31
0.0
  0
LINE
  5
18D
  8
002
 62
     3
 10
1899.136076
 20
284.907685
 30
0.0
 11
1899.136076
 21
279.907685
 31
0.0
  0
LINE
  5
18E
  8
002
  6
CENTER
 62
    40
 10
1963.298976
 20
245.907685
 30
0.0
 11
1833.694076
 21
245.907685
 31
0.0
  0
LINE
  5
18F
  8
002
  6
CENTER
 62
    40
 10
1871.566076
 20
273.907685
 30
0.0
 11
1871.566076
 21
289.356747
 31
0.0
  0
LINE
  5
190
  8
002
  6
CENTER
 62
    40
 10
1903.386076
 20
289.356747
 30
0.0
 11
1903.386076
 21
273.907685
 31
0.0
  0
LINE
  5
191
  8
002
 62
     3
 10
1914.976176
 20
275.907685
 30
0.0
 11
1914.976176
 21
279.907685
 31
0.0
  0
LINE
  5
192
  8
002
 62
     3
 10
1872.476076
 20
425.907685
 30
0.0
 11
1902.476076
 21
425.907685
 31
0.0
  0
LINE
  5
193
  8
002
 62
     3
 10
1905.476076
 20
422.907685
 30
0.0
 11
1905.476076
 21
405.907685
 31
0.0
  0
ARC
  5
194
  8
002
 62
     3
 10
1902.476076
 20
422.907685
 30
0.0
 40
3.0
 50
0.0
 51
90.0
  0
ARC
  5
195
  8
002
 62
     3
 10
1872.476076
 20
422.907685
 30
0.0
 40
3.0
 50
90.0
 51
180.0
  0
LINE
  5
196
  8
002
 62
     3
 10
1869.476076
 20
405.907685
 30
0.0
 11
1869.476076
 21
422.907685
 31
0.0
  0
LINE
  5
197
  8
002
 62
     3
 10
1905.476076
 20
405.907685
 30
0.0
 11
1869.476076
 21
405.907685
 31
0.0
  0
LINE
  5
198
  8
002
  6
CENTER
 62
    40
 10
1887.476076
 20
105.607685
 30
0.0
 11
1887.476076
 21
435.907685
 31
0.0
  0
LINE
  5
199
  8
002
 62
     3
 10
1859.976076
 20
215.907685
 30
0.0
 11
1859.976076
 21
212.907685
 31
0.0
  0
LINE
  5
19A
  8
002
 62
     3
 10
1859.976076
 20
212.907685
 30
0.0
 11
1914.976076
 21
212.907685
 31
0.0
  0
LINE
  5
19B
  8
002
 62
     3
 10
1914.976076
 20
212.907685
 30
0.0
 11
1914.976076
 21
215.907685
 31
0.0
  0
LINE
  5
19C
  8
002
 62
     3
 10
1907.635976
 20
212.907685
 30
0.0
 11
1907.635976
 21
207.907685
 31
0.0
  0
LINE
  5
19D
  8
002
 62
     3
 10
1907.635976
 20
207.907685
 30
0.0
 11
1899.135976
 21
207.907685
 31
0.0
  0
LINE
  5
19E
  8
002
 62
     3
 10
1899.135976
 20
207.907685
 30
0.0
 11
1899.135976
 21
212.907685
 31
0.0
  0
LINE
  5
19F
  8
002
 62
     3
 10
1899.135976
 20
210.907685
 30
0.0
 11
1875.816176
 21
210.907685
 31
0.0
  0
LINE
  5
1A0
  8
002
 62
     3
 10
1875.816176
 20
212.907685
 30
0.0
 11
1875.816176
 21
207.907685
 31
0.0
  0
LINE
  5
1A1
  8
002
 62
     3
 10
1867.316176
 20
207.907685
 30
0.0
 11
1867.316176
 21
212.907685
 31
0.0
  0
LINE
  5
1A2
  8
002
 62
     3
 10
1867.316176
 20
210.907685
 30
0.0
 11
1863.176076
 21
210.907685
 31
0.0
  0
LINE
  5
1A3
  8
002
 62
     3
 10
1861.176076
 20
208.907685
 30
0.0
 11
1861.176076
 21
200.907685
 31
0.0
  0
LINE
  5
1A4
  8
002
 62
     3
 10
1863.176076
 20
198.907685
 30
0.0
 11
1903.776076
 21
198.907685
 31
0.0
  0
LINE
  5
1A5
  8
002
 62
     3
 10
1903.776076
 20
198.907685
 30
0.0
 11
1903.776076
 21
207.907685
 31
0.0
  0
LINE
  5
1A6
  8
002
 62
     3
 10
1903.176076
 20
198.907685
 30
0.0
 11
1903.176076
 21
197.907685
 31
0.0
  0
LINE
  5
1A7
  8
002
 62
     3
 10
1903.176076
 20
197.907685
 30
0.0
 11
1916.649676
 21
195.892485
 31
0.0
  0
ARC
  5
1A8
  8
002
 62
     3
 10
1916.476076
 20
194.907685
 30
0.0
 40
1.000082481598389
 50
279.996364
 51
80.002641
  0
LINE
  5
1A9
  8
002
 62
     3
 10
1916.649676
 20
193.922785
 30
0.0
 11
1905.802576
 21
192.892485
 31
0.0
  0
ARC
  5
1AA
  8
002
 62
     3
 10
1905.976076
 20
191.907685
 30
0.0
 40
0.9999666444437085
 50
99.991716
 51
260.009278
  0
LINE
  5
1AB
  8
002
 62
     3
 10
1905.802576
 20
190.922785
 30
0.0
 11
1916.649676
 21
189.892485
 31
0.0
  0
ARC
  5
1AC
  8
002
 62
     3
 10
1916.476076
 20
188.907685
 30
0.0
 40
1.000082481598389
 50
279.996364
 51
80.002641
  0
LINE
  5
1AD
  8
002
 62
     3
 10
1916.649676
 20
187.922785
 30
0.0
 11
1905.802576
 21
186.892485
 31
0.0
  0
ARC
  5
1AE
  8
002
 62
     3
 10
1905.976076
 20
185.907685
 30
0.0
 40
0.9999666444437085
 50
99.991716
 51
180.0
  0
LINE
  5
1AF
  8
002
 62
     3
 10
1903.976076
 20
185.907685
 30
0.0
 11
1870.976076
 21
185.907685
 31
0.0
  0
LINE
  5
1B0
  8
002
 62
     3
 10
1869.149676
 20
186.892485
 30
0.0
 11
1858.302576
 21
187.922785
 31
0.0
  0
ARC
  5
1B1
  8
002
 62
     3
 10
1858.476076
 20
188.907685
 30
0.0
 40
0.9999666444437085
 50
99.991716
 51
260.009278
  0
LINE
  5
1B2
  8
002
 62
     3
 10
1858.302576
 20
189.892485
 30
0.0
 11
1869.149676
 21
190.922785
 31
0.0
  0
ARC
  5
1B3
  8
002
 62
     3
 10
1868.976076
 20
191.907685
 30
0.0
 40
1.000082481598389
 50
279.996364
 51
80.002641
  0
LINE
  5
1B4
  8
002
 62
     3
 10
1869.149676
 20
192.892485
 30
0.0
 11
1858.302576
 21
193.922785
 31
0.0
  0
ARC
  5
1B5
  8
002
 62
     3
 10
1858.476076
 20
194.907685
 30
0.0
 40
0.9999666444437085
 50
99.991716
 51
260.009278
  0
LINE
  5
1B6
  8
002
 62
     3
 10
1858.302576
 20
195.892485
 30
0.0
 11
1871.776076
 21
197.907685
 31
0.0
  0
LINE
  5
1B7
  8
002
 62
     3
 10
1871.776076
 20
197.907685
 30
0.0
 11
1871.776076
 21
198.907685
 31
0.0
  0
LINE
  5
1B8
  8
002
 62
     3
 10
1871.176076
 20
198.907685
 30
0.0
 11
1871.176076
 21
207.907685
 31
0.0
  0
LINE
  5
1B9
  8
002
 62
     3
 10
1867.316176
 20
207.907685
 30
0.0
 11
1875.816176
 21
207.907685
 31
0.0
  0
ARC
  5
1BA
  8
002
 62
     3
 10
1863.176076
 20
208.907685
 30
0.0
 40
2.0
 50
90.0
 51
180.0
  0
CIRCLE
  5
1BB
  8
002
 62
     3
 10
1866.176076
 20
205.407685
 30
0.0
 40
1.0
  0
ARC
  5
1BC
  8
002
 62
     3
 10
1863.176076
 20
200.907685
 30
0.0
 40
2.0
 50
180.0
 51
270.0
  0
LINE
  5
1BD
  8
002
 62
     3
 10
1858.476076
 20
194.907685
 30
0.0
 11
1916.476076
 21
194.907685
 31
0.0
  0
LINE
  5
1BE
  8
002
 62
     3
 10
1916.476076
 20
188.907685
 30
0.0
 11
1858.476076
 21
188.907685
 31
0.0
  0
ARC
  5
1BF
  8
002
 62
     3
 10
1868.976076
 20
185.907685
 30
0.0
 40
1.0
 50
0.0
 51
80.002641
  0
LINE
  5
1C0
  8
002
 62
     3
 10
1870.976076
 20
191.907685
 30
0.0
 11
1903.976076
 21
191.907685
 31
0.0
  0
LINE
  5
1C1
  8
002
 62
     3
 10
1870.976076
 20
162.607685
 30
0.0
 11
1903.976076
 21
162.607685
 31
0.0
  0
ARC
  5
1C2
  8
002
 62
     3
 10
1905.976076
 20
162.607685
 30
0.0
 40
1.0
 50
180.0
 51
260.009278
  0
LINE
  5
1C3
  8
002
 62
     3
 10
1905.802576
 20
161.622785
 30
0.0
 11
1916.649676
 21
160.592485
 31
0.0
  0
ARC
  5
1C4
  8
002
 62
     3
 10
1916.476076
 20
159.607685
 30
0.0
 40
1.000082481598389
 50
279.996364
 51
80.002641
  0
LINE
  5
1C5
  8
002
 62
     3
 10
1916.649676
 20
158.622785
 30
0.0
 11
1905.802576
 21
157.592485
 31
0.0
  0
ARC
  5
1C6
  8
002
 62
     3
 10
1905.976076
 20
156.607685
 30
0.0
 40
0.9999666444437085
 50
99.991716
 51
260.009278
  0
LINE
  5
1C7
  8
002
 62
     3
 10
1905.802576
 20
155.622785
 30
0.0
 11
1916.649676
 21
154.592485
 31
0.0
  0
ARC
  5
1C8
  8
002
 62
     3
 10
1916.476076
 20
153.607685
 30
0.0
 40
1.000082481598389
 50
279.996364
 51
80.002641
  0
LINE
  5
1C9
  8
002
 62
     3
 10
1916.649676
 20
152.622785
 30
0.0
 11
1898.176076
 21
150.607685
 31
0.0
  0
LINE
  5
1CA
  8
002
 62
     3
 10
1876.776076
 20
150.607685
 30
0.0
 11
1858.302576
 21
152.622785
 31
0.0
  0
ARC
  5
1CB
  8
002
 62
     3
 10
1858.476076
 20
153.607685
 30
0.0
 40
0.9999666444437085
 50
99.991716
 51
260.009278
  0
LINE
  5
1CC
  8
002
 62
     3
 10
1858.302576
 20
154.592485
 30
0.0
 11
1869.149676
 21
155.622785
 31
0.0
  0
LINE
  5
1CD
  8
002
 62
     3
 10
1869.149676
 20
157.592485
 30
0.0
 11
1858.302576
 21
158.622785
 31
0.0
  0
ARC
  5
1CE
  8
002
 62
     3
 10
1858.476076
 20
159.607685
 30
0.0
 40
0.9999666444437085
 50
99.991716
 51
260.009278
  0
LINE
  5
1CF
  8
002
 62
     3
 10
1858.302576
 20
160.592485
 30
0.0
 11
1869.149676
 21
161.622785
 31
0.0
  0
ARC
  5
1D0
  8
002
 62
     3
 10
1868.976076
 20
162.607685
 30
0.0
 40
1.000082481598389
 50
279.996364
 51
0.0
  0
ARC
  5
1D1
  8
002
 62
     3
 10
1868.976076
 20
156.607685
 30
0.0
 40
1.000082481598389
 50
279.996364
 51
80.002641
  0
LINE
  5
1D2
  8
002
 62
     3
 10
1870.976076
 20
156.607685
 30
0.0
 11
1903.976076
 21
156.607685
 31
0.0
  0
LINE
  5
1D3
  8
002
 62
     3
 10
1898.176076
 20
150.607685
 30
0.0
 11
1898.176076
 21
149.607685
 31
0.0
  0
LINE
  5
1D4
  8
002
 62
     3
 10
1898.776076
 20
149.607685
 30
0.0
 11
1898.776076
 21
137.607685
 31
0.0
  0
LINE
  5
1D5
  8
002
 62
     3
 10
1898.776076
 20
137.607685
 30
0.0
 11
1868.176076
 21
137.607685
 31
0.0
  0
ARC
  5
1D6
  8
002
 62
     3
 10
1868.176076
 20
139.607685
 30
0.0
 40
2.0
 50
180.0
 51
270.0
  0
LINE
  5
1D7
  8
002
 62
     3
 10
1866.176076
 20
139.607685
 30
0.0
 11
1866.176076
 21
147.607685
 31
0.0
  0
ARC
  5
1D8
  8
002
 62
     3
 10
1868.176076
 20
147.607685
 30
0.0
 40
2.0
 50
90.0
 51
180.0
  0
LINE
  5
1D9
  8
002
 62
     3
 10
1868.176076
 20
149.607685
 30
0.0
 11
1898.776076
 21
149.607685
 31
0.0
  0
LINE
  5
1DA
  8
002
 62
     3
 10
1898.176076
 20
137.607685
 30
0.0
 11
1898.176076
 21
135.607685
 31
0.0
  0
LINE
  5
1DB
  8
002
 62
     3
 10
1898.176076
 20
135.607685
 30
0.0
 11
1876.776076
 21
135.607685
 31
0.0
  0
LINE
  5
1DC
  8
002
 62
     3
 10
1876.776076
 20
135.607685
 30
0.0
 11
1876.776076
 21
137.607685
 31
0.0
  0
LINE
  5
1DD
  8
002
 62
     3
 10
1876.176076
 20
137.607685
 30
0.0
 11
1876.176076
 21
149.607685
 31
0.0
  0
LINE
  5
1DE
  8
002
 62
     3
 10
1876.776076
 20
149.607685
 30
0.0
 11
1876.776076
 21
150.607685
 31
0.0
  0
CIRCLE
  5
1DF
  8
002
 62
     3
 10
1871.176076
 20
143.107685
 30
0.0
 40
1.0
  0
LINE
  5
1E0
  8
002
 62
     3
 10
1880.476076
 20
135.607685
 30
0.0
 11
1880.476076
 21
115.607685
 31
0.0
  0
LINE
  5
1E1
  8
002
 62
     3
 10
1880.476076
 20
115.607685
 30
0.0
 11
1894.476076
 21
115.607685
 31
0.0
  0
LINE
  5
1E2
  8
002
 62
     3
 10
1894.476076
 20
115.607685
 30
0.0
 11
1894.476076
 21
135.607685
 31
0.0
  0
LINE
  5
1E3
  8
002
 62
     3
 10
1858.476076
 20
153.607685
 30
0.0
 11
1916.476076
 21
153.607685
 31
0.0
  0
LINE
  5
1E4
  8
002
 62
     3
 10
1916.476076
 20
159.607685
 30
0.0
 11
1858.476076
 21
159.607685
 31
0.0
  0
LINE
  5
1E5
  8
002
 62
    40
 10
1881.288076
 20
115.607685
 30
0.0
 11
1881.288076
 21
135.607685
 31
0.0
  0
LINE
  5
1E6
  8
002
 62
    40
 10
1893.664076
 20
135.607685
 30
0.0
 11
1893.664076
 21
115.607685
 31
0.0
  0
LINE
  5
1E7
  8
002
  6
CENTER
 62
    40
 10
1873.833476
 20
143.107685
 30
0.0
 11
1868.808276
 21
143.107685
 31
0.0
  0
LINE
  5
1E8
  8
002
  6
CENTER
 62
    40
 10
1871.176076
 20
146.359885
 30
0.0
 11
1871.176076
 21
139.599885
 31
0.0
  0
LINE
  5
1E9
  8
002
  6
PHANTOM
 62
    40
 10
1869.976076
 20
162.607685
 30
0.0
 11
1869.976076
 21
185.907685
 31
0.0
  0
LINE
  5
1EA
  8
002
  6
PHANTOM
 62
    40
 10
1857.476076
 20
188.907685
 30
0.0
 11
1857.476076
 21
159.607685
 31
0.0
  0
LINE
  5
1EB
  8
002
  6
PHANTOM
 62
    40
 10
1904.976076
 20
185.907685
 30
0.0
 11
1904.976076
 21
162.607685
 31
0.0
  0
LINE
  5
1EC
  8
002
  6
PHANTOM
 62
    40
 10
1917.476076
 20
159.607685
 30
0.0
 11
1917.476076
 21
188.907685
 31
0.0
  0
LINE
  5
1ED
  8
002
  6
CENTER
 62
    40
 10
1863.808276
 20
205.407685
 30
0.0
 11
1868.833476
 21
205.407685
 31
0.0
  0
LINE
  5
1EE
  8
002
  6
CENTER
 62
    40
 10
1866.176076
 20
208.659885
 30
0.0
 11
1866.176076
 21
201.899885
 31
0.0
  0
LINE
  5
1EF
  8
002
  6
CENTER
 62
    40
 10
1903.385976
 20
205.186085
 30
0.0
 11
1903.385976
 21
218.907685
 31
0.0
  0
LINE
  5
1F0
  8
002
  6
CENTER
 62
    40
 10
1871.566176
 20
205.186085
 30
0.0
 11
1871.566176
 21
218.907685
 31
0.0
  0
LINE
  5
1F1
  8
002
  6
CENTER
 62
    40
 10
384.504363
 20
245.907685
 30
0.0
 11
541.496445
 21
245.907685
 31
0.0
  0
LINE
  5
1F2
  8
003
  6
CENTER
 62
    40
 10
37.872603
 20
245.907685
 30
0.0
 11
194.899963
 21
245.907685
 31
0.0
  0
POLYLINE
  5
1F3
  8
002
 62
     3
 66
     1
 10
0.0
 20
0.0
 30
0.0
  0
VERTEX
  5
1F5
  8
002
 62
     3
 10
262.681663
 20
114.407685
 30
0.0
  0
VERTEX
  5
1F6
  8
002
 62
     3
 10
264.681663
 20
112.938935
 30
0.0
  0
VERTEX
  5
1F7
  8
002
 62
     3
 10
266.681663
 20
111.657685
 30
0.0
  0
VERTEX
  5
1F8
  8
002
 62
     3
 10
268.681663
 20
110.751435
 30
0.0
  0
VERTEX
  5
1F9
  8
002
 62
     3
 10
270.681663
 20
110.407685
 30
0.0
  0
VERTEX
  5
1FA
  8
002
 62
     3
 10
272.681663
 20
110.751435
 30
0.0
  0
VERTEX
  5
1FB
  8
002
 62
     3
 10
274.681663
 20
111.657685
 30
0.0
  0
VERTEX
  5
1FC
  8
002
 62
     3
 10
276.681663
 20
112.938935
 30
0.0
  0
VERTEX
  5
1FD
  8
002
 62
     3
 10
278.681663
 20
114.407685
 30
0.0
  0
VERTEX
  5
1FE
  8
002
 62
     3
 10
280.681663
 20
115.876435
 30
0.0
  0
VERTEX
  5
1FF
  8
002
 62
     3
 10
282.681663
 20
117.157685
 30
0.0
  0
VERTEX
  5
200
  8
002
 62
     3
 10
284.681663
 20
118.063935
 30
0.0
  0
VERTEX
  5
201
  8
002
 62
     3
 10
286.681663
 20
118.407685
 30
0.0
  0
VERTEX
  5
202
  8
002
 62
     3
 10
288.681663
 20
118.063935
 30
0.0
  0
VERTEX
  5
203
  8
002
 62
     3
 10
290.681663
 20
117.157685
 30
0.0
  0
VERTEX
  5
204
  8
002
 62
     3
 10
292.681663
 20
115.876435
 30
0.0
  0
VERTEX
  5
205
  8
002
 62
     3
 10
294.681663
 20
114.407685
 30
0.0
  0
SEQEND
  5
1F4
  8
002
 62
     3
  0
POLYLINE
  5
206
  8
002
 62
     3
 66
     1
 10
0.0
 20
0.0
 30
0.0
  0
VERTEX
  5
208
  8
002
 62
     3
 10
262.681663
 20
122.407685
 30
0.0
  0
VERTEX
  5
209
  8
002
 62
     3
 10
264.681663
 20
120.938935
 30
0.0
  0
VERTEX
  5
20A
  8
002
 62
     3
 10
266.681663
 20
119.657685
 30
0.0
  0
VERTEX
  5
20B
  8
002
 62
     3
 10
268.681663
 20
118.751435
 30
0.0
  0
VERTEX
  5
20C
  8
002
 62
     3
 10
270.681663
 20
118.407685
 30
0.0
  0
VERTEX
  5
20D
  8
002
 62
     3
 10
272.681663
 20
118.751435
 30
0.0
  0
VERTEX
  5
20E
  8
002
 62
     3
 10
274.681663
 20
119.657685
 30
0.0
  0
VERTEX
  5
20F
  8
002
 62
     3
 10
276.681663
 20
120.938935
 30
0.0
  0
VERTEX
  5
210
  8
002
 62
     3
 10
278.681663
 20
122.407685
 30
0.0
  0
VERTEX
  5
211
  8
002
 62
     3
 10
280.681663
 20
123.876435
 30
0.0
  0
VERTEX
  5
212
  8
002
 62
     3
 10
282.681663
 20
125.157685
 30
0.0
  0
VERTEX
  5
213
  8
002
 62
     3
 10
284.681663
 20
126.063935
 30
0.0
  0
VERTEX
  5
214
  8
002
 62
     3
 10
286.681663
 20
126.407685
 30
0.0
  0
VERTEX
  5
215
  8
002
 62
     3
 10
288.681663
 20
126.063935
 30
0.0
  0
VERTEX
  5
216
  8
002
 62
     3
 10
290.681663
 20
125.157685
 30
0.0
  0
VERTEX
  5
217
  8
002
 62
     3
 10
292.681663
 20
123.876435
 30
0.0
  0
VERTEX
  5
218
  8
002
 62
     3
 10
294.681663
 20
122.407685
 30
0.0
  0
SEQEND
  5
207
  8
002
 62
     3
  0
POLYLINE
  5
219
  8
002
 62
     3
 66
     1
 10
0.0
 20
0.0
 30
0.0
  0
VERTEX
  5
21B
  8
002
 62
     3
 10
268.681663
 20
307.970864
 30
0.0
  0
VERTEX
  5
21C
  8
002
 62
     3
 10
270.34833
 20
306.044938
 30
0.0
  0
VERTEX
  5
21D
  8
002
 62
     3
 10
272.014997
 20
304.563456
 30
0.0
  0
VERTEX
  5
21E
  8
002
 62
     3
 10
273.681663
 20
303.970864
 30
0.0
  0
VERTEX
  5
21F
  8
002
 62
     3
 10
275.34833
 20
304.563456
 30
0.0
  0
VERTEX
  5
220
  8
002
 62
     3
 10
277.014997
 20
306.044938
 30
0.0
  0
VERTEX
  5
221
  8
002
 62
     3
 10
278.681663
 20
307.970864
 30
0.0
  0
VERTEX
  5
222
  8
002
 62
     3
 10
280.34833
 20
309.89679
 30
0.0
  0
VERTEX
  5
223
  8
002
 62
     3
 10
282.014997
 20
311.378271
 30
0.0
  0
VERTEX
  5
224
  8
002
 62
     3
 10
283.681663
 20
311.970864
 30
0.0
  0
VERTEX
  5
225
  8
002
 62
     3
 10
285.34833
 20
311.378271
 30
0.0
  0
VERTEX
  5
226
  8
002
 62
     3
 10
287.014997
 20
309.89679
 30
0.0
  0
VERTEX
  5
227
  8
002
 62
     3
 10
288.681663
 20
307.970864
 30
0.0
  0
SEQEND
  5
21A
  8
002
 62
     3
  0
POLYLINE
  5
228
  8
002
 62
     3
 66
     1
 10
0.0
 20
0.0
 30
0.0
  0
VERTEX
  5
22A
  8
002
 62
     3
 10
268.681663
 20
315.970864
 30
0.0
  0
VERTEX
  5
22B
  8
002
 62
     3
 10
270.34833
 20
314.044938
 30
0.0
  0
VERTEX
  5
22C
  8
002
 62
     3
 10
272.014997
 20
312.563456
 30
0.0
  0
VERTEX
  5
22D
  8
002
 62
     3
 10
273.681663
 20
311.970864
 30
0.0
  0
VERTEX
  5
22E
  8
002
 62
     3
 10
275.34833
 20
312.563456
 30
0.0
  0
VERTEX
  5
22F
  8
002
 62
     3
 10
277.014997
 20
314.044938
 30
0.0
  0
VERTEX
  5
230
  8
002
 62
     3
 10
278.681663
 20
315.970864
 30
0.0
  0
VERTEX
  5
231
  8
002
 62
     3
 10
280.34833
 20
317.89679
 30
0.0
  0
VERTEX
  5
232
  8
002
 62
     3
 10
282.014997
 20
319.378271
 30
0.0
  0
VERTEX
  5
233
  8
002
 62
     3
 10
283.681663
 20
319.970864
 30
0.0
  0
VERTEX
  5
234
  8
002
 62
     3
 10
285.34833
 20
319.378271
 30
0.0
  0
VERTEX
  5
235
  8
002
 62
     3
 10
287.014997
 20
317.89679
 30
0.0
  0
VERTEX
  5
236
  8
002
 62
     3
 10
288.681663
 20
315.970864
 30
0.0
  0
SEQEND
  5
229
  8
002
 62
     3
  0
LINE
  5
237
  8
002
 62
     3
 10
294.681663
 20
85.907685
 30
0.0
 11
294.681663
 21
114.407685
 31
0.0
  0
LINE
  5
238
  8
002
 62
     3
 10
294.681663
 20
122.407685
 30
0.0
 11
294.681663
 21
170.907685
 31
0.0
  0
LINE
  5
239
  8
002
 62
     3
 10
262.681663
 20
170.907685
 30
0.0
 11
262.681663
 21
122.407685
 31
0.0
  0
LINE
  5
23A
  8
002
 62
     3
 10
262.681663
 20
114.407685
 30
0.0
 11
262.681663
 21
85.907685
 31
0.0
  0
LINE
  5
23B
  8
002
 62
     3
 10
268.681663
 20
356.207685
 30
0.0
 11
268.681663
 21
315.970864
 31
0.0
  0
LINE
  5
23C
  8
002
 62
     3
 10
268.681663
 20
307.970864
 30
0.0
 11
268.681663
 21
275.907685
 31
0.0
  0
LINE
  5
23D
  8
002
 62
    40
 10
270.681663
 20
275.907685
 30
0.0
 11
270.681663
 21
305.698864
 31
0.0
  0
LINE
  5
23E
  8
002
 62
    40
 10
270.681663
 20
313.698864
 30
0.0
 11
270.681663
 21
346.207685
 31
0.0
  0
LINE
  5
23F
  8
002
 62
     3
 10
288.681663
 20
275.907685
 30
0.0
 11
288.681663
 21
307.970864
 31
0.0
  0
LINE
  5
240
  8
002
 62
     3
 10
288.681663
 20
315.970864
 30
0.0
 11
288.681663
 21
356.207685
 31
0.0
  0
LINE
  5
241
  8
002
 62
    40
 10
286.681663
 20
275.907685
 30
0.0
 11
286.681663
 21
310.242864
 31
0.0
  0
LINE
  5
242
  8
002
 62
    40
 10
286.681663
 20
318.242864
 30
0.0
 11
286.681663
 21
346.207685
 31
0.0
  0
LINE
  5
243
  8
002
 62
     3
 10
135.484763
 20
170.907685
 30
0.0
 11
95.484663
 21
170.907685
 31
0.0
  0
LINE
  5
244
  8
002
 62
     3
 10
95.484663
 20
170.907685
 30
0.0
 11
94.931663
 21
208.951385
 31
0.0
  0
ARC
  5
245
  8
002
 62
     3
 10
91.931663
 20
208.907685
 30
0.0
 40
3.0
 50
0.834549
 51
90.0
  0
LINE
  5
246
  8
002
 62
     3
 10
95.324663
 20
211.907685
 30
0.0
 11
95.324663
 21
206.907685
 31
0.0
  0
LINE
  5
247
  8
002
 62
     3
 10
103.824663
 20
206.907685
 30
0.0
 11
95.324663
 21
206.907685
 31
0.0
  0
LINE
  5
248
  8
002
 62
     3
 10
103.824663
 20
206.907685
 30
0.0
 11
103.824663
 21
211.907685
 31
0.0
  0
LINE
  5
249
  8
002
 62
     3
 10
125.484663
 20
356.207685
 30
0.0
 11
105.484663
 21
356.207685
 31
0.0
  0
LINE
  5
24A
  8
002
 62
     3
 10
142.984763
 20
211.907685
 30
0.0
 11
87.984663
 21
211.907685
 31
0.0
  0
LINE
  5
24B
  8
002
 62
     3
 10
87.984663
 20
211.907685
 30
0.0
 11
87.984663
 21
215.907685
 31
0.0
  0
ARC
  5
24C
  8
002
 62
     3
 10
139.037863
 20
208.907685
 30
0.0
 40
3.000018296610834
 50
90.0
 51
179.165367
  0
LINE
  5
24D
  8
002
 62
     3
 10
136.038163
 20
208.951385
 30
0.0
 11
135.484763
 21
170.907685
 31
0.0
  0
LINE
  5
24E
  8
002
 62
     3
 10
127.144663
 20
206.907685
 30
0.0
 11
135.644663
 21
206.907685
 31
0.0
  0
LINE
  5
24F
  8
002
 62
     3
 10
135.644663
 20
206.907685
 30
0.0
 11
135.644663
 21
211.907685
 31
0.0
  0
LINE
  5
250
  8
002
 62
     3
 10
127.144663
 20
206.907685
 30
0.0
 11
127.144663
 21
211.907685
 31
0.0
  0
LINE
  5
251
  8
002
 62
     3
 10
105.484663
 20
346.207685
 30
0.0
 11
125.484663
 21
346.207685
 31
0.0
  0
LINE
  5
252
  8
002
 62
     3
 10
122.484663
 20
356.207685
 30
0.0
 11
122.484663
 21
376.207685
 31
0.0
  0
LINE
  5
253
  8
002
 62
     3
 10
122.484663
 20
376.207685
 30
0.0
 11
108.484663
 21
376.207685
 31
0.0
  0
LINE
  5
254
  8
002
 62
     3
 10
108.484663
 20
376.207685
 30
0.0
 11
108.484663
 21
356.207685
 31
0.0
  0
LINE
  5
255
  8
002
 62
    40
 10
109.296663
 20
356.207685
 30
0.0
 11
109.296663
 21
376.207685
 31
0.0
  0
LINE
  5
256
  8
002
 62
    40
 10
121.672663
 20
356.207685
 30
0.0
 11
121.672663
 21
376.207685
 31
0.0
  0
LINE
  5
257
  8
002
  6
CENTER
 62
    40
 10
131.394663
 20
204.420925
 30
0.0
 11
131.394663
 21
217.907685
 31
0.0
  0
LINE
  5
258
  8
002
  6
CENTER
 62
    40
 10
99.574663
 20
217.907685
 30
0.0
 11
99.574663
 21
204.735256
 31
0.0
  0
LINE
  5
259
  8
002
 62
     3
 10
142.984763
 20
215.907685
 30
0.0
 11
142.984763
 21
211.907685
 31
0.0
  0
LINE
  5
25A
  8
002
 62
     3
 10
100.484663
 20
65.907685
 30
0.0
 11
130.484663
 21
65.907685
 31
0.0
  0
ARC
  5
25B
  8
002
 62
     3
 10
130.484663
 20
68.907685
 30
0.0
 40
3.0
 50
270.0
 51
0.0
  0
LINE
  5
25C
  8
002
 62
     3
 10
133.484663
 20
68.907685
 30
0.0
 11
133.484663
 21
85.907685
 31
0.0
  0
ARC
  5
25D
  8
002
 62
     3
 10
100.484663
 20
68.907685
 30
0.0
 40
3.0
 50
180.0
 51
270.0
  0
LINE
  5
25E
  8
002
 62
     3
 10
97.484663
 20
85.907685
 30
0.0
 11
97.484663
 21
68.907685
 31
0.0
  0
LINE
  5
25F
  8
002
 62
     3
 10
133.484663
 20
85.907685
 30
0.0
 11
97.484663
 21
85.907685
 31
0.0
  0
LINE
  5
260
  8
002
 62
     3
 10
131.484663
 20
85.907685
 30
0.0
 11
131.484663
 21
114.407685
 31
0.0
  0
LINE
  5
261
  8
002
 62
     3
 10
131.484663
 20
122.407685
 30
0.0
 11
131.484663
 21
170.907685
 31
0.0
  0
LINE
  5
262
  8
002
 62
     3
 10
99.484663
 20
170.907685
 30
0.0
 11
99.484663
 21
122.407685
 31
0.0
  0
LINE
  5
263
  8
002
 62
     3
 10
99.484663
 20
114.407685
 30
0.0
 11
99.484663
 21
85.907685
 31
0.0
  0
LINE
  5
264
  8
002
 62
     3
 10
105.484663
 20
356.207685
 30
0.0
 11
105.484663
 21
315.970864
 31
0.0
  0
LINE
  5
265
  8
002
 62
     3
 10
105.484663
 20
307.970864
 30
0.0
 11
105.484663
 21
275.907685
 31
0.0
  0
LINE
  5
266
  8
002
 62
    40
 10
107.484663
 20
275.907685
 30
0.0
 11
107.484663
 21
305.698864
 31
0.0
  0
LINE
  5
267
  8
002
 62
    40
 10
107.484663
 20
313.698864
 30
0.0
 11
107.484663
 21
346.207685
 31
0.0
  0
LINE
  5
268
  8
002
 62
     3
 10
125.484663
 20
275.907685
 30
0.0
 11
125.484663
 21
307.970864
 31
0.0
  0
LINE
  5
269
  8
002
 62
     3
 10
125.484663
 20
315.970864
 30
0.0
 11
125.484663
 21
356.207685
 31
0.0
  0
LINE
  5
26A
  8
002
 62
    40
 10
123.484663
 20
275.907685
 30
0.0
 11
123.484663
 21
310.242864
 31
0.0
  0
LINE
  5
26B
  8
002
 62
    40
 10
123.484663
 20
318.242864
 30
0.0
 11
123.484663
 21
346.207685
 31
0.0
  0
POLYLINE
  5
26C
  8
002
 62
     3
 66
     1
 10
0.0
 20
0.0
 30
0.0
  0
VERTEX
  5
26E
  8
002
 62
     3
 10
99.484663
 20
114.407685
 30
0.0
  0
VERTEX
  5
26F
  8
002
 62
     3
 10
101.484663
 20
112.938935
 30
0.0
  0
VERTEX
  5
270
  8
002
 62
     3
 10
103.484663
 20
111.657685
 30
0.0
  0
VERTEX
  5
271
  8
002
 62
     3
 10
105.484663
 20
110.751435
 30
0.0
  0
VERTEX
  5
272
  8
002
 62
     3
 10
107.484663
 20
110.407685
 30
0.0
  0
VERTEX
  5
273
  8
002
 62
     3
 10
109.484663
 20
110.751435
 30
0.0
  0
VERTEX
  5
274
  8
002
 62
     3
 10
111.484663
 20
111.657685
 30
0.0
  0
VERTEX
  5
275
  8
002
 62
     3
 10
113.484663
 20
112.938935
 30
0.0
  0
VERTEX
  5
276
  8
002
 62
     3
 10
115.484663
 20
114.407685
 30
0.0
  0
VERTEX
  5
277
  8
002
 62
     3
 10
117.484663
 20
115.876435
 30
0.0
  0
VERTEX
  5
278
  8
002
 62
     3
 10
119.484663
 20
117.157685
 30
0.0
  0
VERTEX
  5
279
  8
002
 62
     3
 10
121.484663
 20
118.063935
 30
0.0
  0
VERTEX
  5
27A
  8
002
 62
     3
 10
123.484663
 20
118.407685
 30
0.0
  0
VERTEX
  5
27B
  8
002
 62
     3
 10
125.484663
 20
118.063935
 30
0.0
  0
VERTEX
  5
27C
  8
002
 62
     3
 10
127.484663
 20
117.157685
 30
0.0
  0
VERTEX
  5
27D
  8
002
 62
     3
 10
129.484663
 20
115.876435
 30
0.0
  0
VERTEX
  5
27E
  8
002
 62
     3
 10
131.484663
 20
114.407685
 30
0.0
  0
SEQEND
  5
26D
  8
002
 62
     3
  0
POLYLINE
  5
27F
  8
002
 62
     3
 66
     1
 10
0.0
 20
0.0
 30
0.0
  0
VERTEX
  5
281
  8
002
 62
     3
 10
99.484663
 20
122.407685
 30
0.0
  0
VERTEX
  5
282
  8
002
 62
     3
 10
101.484663
 20
120.938935
 30
0.0
  0
VERTEX
  5
283
  8
002
 62
     3
 10
103.484663
 20
119.657685
 30
0.0
  0
VERTEX
  5
284
  8
002
 62
     3
 10
105.484663
 20
118.751435
 30
0.0
  0
VERTEX
  5
285
  8
002
 62
     3
 10
107.484663
 20
118.407685
 30
0.0
  0
VERTEX
  5
286
  8
002
 62
     3
 10
109.484663
 20
118.751435
 30
0.0
  0
VERTEX
  5
287
  8
002
 62
     3
 10
111.484663
 20
119.657685
 30
0.0
  0
VERTEX
  5
288
  8
002
 62
     3
 10
113.484663
 20
120.938935
 30
0.0
  0
VERTEX
  5
289
  8
002
 62
     3
 10
115.484663
 20
122.407685
 30
0.0
  0
VERTEX
  5
28A
  8
002
 62
     3
 10
117.484663
 20
123.876435
 30
0.0
  0
VERTEX
  5
28B
  8
002
 62
     3
 10
119.484663
 20
125.157685
 30
0.0
  0
VERTEX
  5
28C
  8
002
 62
     3
 10
121.484663
 20
126.063935
 30
0.0
  0
VERTEX
  5
28D
  8
002
 62
     3
 10
123.484663
 20
126.407685
 30
0.0
  0
VERTEX
  5
28E
  8
002
 62
     3
 10
125.484663
 20
126.063935
 30
0.0
  0
VERTEX
  5
28F
  8
002
 62
     3
 10
127.484663
 20
125.157685
 30
0.0
  0
VERTEX
  5
290
  8
002
 62
     3
 10
129.484663
 20
123.876435
 30
0.0
  0
VERTEX
  5
291
  8
002
 62
     3
 10
131.484663
 20
122.407685
 30
0.0
  0
SEQEND
  5
280
  8
002
 62
     3
  0
POLYLINE
  5
292
  8
002
 62
     3
 66
     1
 10
0.0
 20
0.0
 30
0.0
  0
VERTEX
  5
294
  8
002
 62
     3
 10
105.484663
 20
307.970864
 30
0.0
  0
VERTEX
  5
295
  8
002
 62
     3
 10
107.15133
 20
306.044938
 30
0.0
  0
VERTEX
  5
296
  8
002
 62
     3
 10
108.817997
 20
304.563456
 30
0.0
  0
VERTEX
  5
297
  8
002
 62
     3
 10
110.484663
 20
303.970864
 30
0.0
  0
VERTEX
  5
298
  8
002
 62
     3
 10
112.15133
 20
304.563456
 30
0.0
  0
VERTEX
  5
299
  8
002
 62
     3
 10
113.817997
 20
306.044938
 30
0.0
  0
VERTEX
  5
29A
  8
002
 62
     3
 10
115.484663
 20
307.970864
 30
0.0
  0
VERTEX
  5
29B
  8
002
 62
     3
 10
117.15133
 20
309.89679
 30
0.0
  0
VERTEX
  5
29C
  8
002
 62
     3
 10
118.817997
 20
311.378271
 30
0.0
  0
VERTEX
  5
29D
  8
002
 62
     3
 10
120.484663
 20
311.970864
 30
0.0
  0
VERTEX
  5
29E
  8
002
 62
     3
 10
122.15133
 20
311.378271
 30
0.0
  0
VERTEX
  5
29F
  8
002
 62
     3
 10
123.817997
 20
309.89679
 30
0.0
  0
VERTEX
  5
2A0
  8
002
 62
     3
 10
125.484663
 20
307.970864
 30
0.0
  0
SEQEND
  5
293
  8
002
 62
     3
  0
POLYLINE
  5
2A1
  8
002
 62
     3
 66
     1
 10
0.0
 20
0.0
 30
0.0
  0
VERTEX
  5
2A3
  8
002
 62
     3
 10
105.484663
 20
315.970864
 30
0.0
  0
VERTEX
  5
2A4
  8
002
 62
     3
 10
107.15133
 20
314.044938
 30
0.0
  0
VERTEX
  5
2A5
  8
002
 62
     3
 10
108.817997
 20
312.563456
 30
0.0
  0
VERTEX
  5
2A6
  8
002
 62
     3
 10
110.484663
 20
311.970864
 30
0.0
  0
VERTEX
  5
2A7
  8
002
 62
     3
 10
112.15133
 20
312.563456
 30
0.0
  0
VERTEX
  5
2A8
  8
002
 62
     3
 10
113.817997
 20
314.044938
 30
0.0
  0
VERTEX
  5
2A9
  8
002
 62
     3
 10
115.484663
 20
315.970864
 30
0.0
  0
VERTEX
  5
2AA
  8
002
 62
     3
 10
117.15133
 20
317.89679
 30
0.0
  0
VERTEX
  5
2AB
  8
002
 62
     3
 10
118.817997
 20
319.378271
 30
0.0
  0
VERTEX
  5
2AC
  8
002
 62
     3
 10
120.484663
 20
319.970864
 30
0.0
  0
VERTEX
  5
2AD
  8
002
 62
     3
 10
122.15133
 20
319.378271
 30
0.0
  0
VERTEX
  5
2AE
  8
002
 62
     3
 10
123.817997
 20
317.89679
 30
0.0
  0
VERTEX
  5
2AF
  8
002
 62
     3
 10
125.484663
 20
315.970864
 30
0.0
  0
SEQEND
  5
2A2
  8
002
 62
     3
  0
LINE
  5
2B0
  8
002
 62
     3
 10
483.657885
 20
170.907685
 30
0.0
 11
443.657785
 21
170.907685
 31
0.0
  0
LINE
  5
2B1
  8
002
 62
     3
 10
443.657785
 20
170.907685
 30
0.0
 11
443.104785
 21
208.951385
 31
0.0
  0
ARC
  5
2B2
  8
002
 62
     3
 10
440.104785
 20
208.907685
 30
0.0
 40
3.0
 50
0.834549
 51
90.0
  0
LINE
  5
2B3
  8
002
 62
     3
 10
443.497785
 20
211.907685
 30
0.0
 11
443.497785
 21
206.907685
 31
0.0
  0
LINE
  5
2B4
  8
002
 62
     3
 10
451.997785
 20
206.907685
 30
0.0
 11
443.497785
 21
206.907685
 31
0.0
  0
LINE
  5
2B5
  8
002
 62
     3
 10
451.997785
 20
206.907685
 30
0.0
 11
451.997785
 21
211.907685
 31
0.0
  0
LINE
  5
2B6
  8
002
 62
     3
 10
473.657785
 20
356.207685
 30
0.0
 11
453.657785
 21
356.207685
 31
0.0
  0
LINE
  5
2B7
  8
002
 62
     3
 10
491.157885
 20
211.907685
 30
0.0
 11
436.157785
 21
211.907685
 31
0.0
  0
LINE
  5
2B8
  8
002
 62
     3
 10
436.157785
 20
211.907685
 30
0.0
 11
436.157785
 21
215.907685
 31
0.0
  0
ARC
  5
2B9
  8
002
 62
     3
 10
487.210985
 20
208.907685
 30
0.0
 40
3.000018296610834
 50
90.0
 51
179.165367
  0
LINE
  5
2BA
  8
002
 62
     3
 10
484.211285
 20
208.951385
 30
0.0
 11
483.657885
 21
170.907685
 31
0.0
  0
LINE
  5
2BB
  8
002
 62
     3
 10
475.317785
 20
206.907685
 30
0.0
 11
483.817785
 21
206.907685
 31
0.0
  0
LINE
  5
2BC
  8
002
 62
     3
 10
483.817785
 20
206.907685
 30
0.0
 11
483.817785
 21
211.907685
 31
0.0
  0
LINE
  5
2BD
  8
002
 62
     3
 10
475.317785
 20
206.907685
 30
0.0
 11
475.317785
 21
211.907685
 31
0.0
  0
LINE
  5
2BE
  8
002
 62
     3
 10
453.657785
 20
346.207685
 30
0.0
 11
473.657785
 21
346.207685
 31
0.0
  0
LINE
  5
2BF
  8
002
 62
     3
 10
470.657785
 20
356.207685
 30
0.0
 11
470.657785
 21
376.207685
 31
0.0
  0
LINE
  5
2C0
  8
002
 62
     3
 10
470.657785
 20
376.207685
 30
0.0
 11
456.657785
 21
376.207685
 31
0.0
  0
LINE
  5
2C1
  8
002
 62
     3
 10
456.657785
 20
376.207685
 30
0.0
 11
456.657785
 21
356.207685
 31
0.0
  0
LINE
  5
2C2
  8
002
 62
    40
 10
457.469785
 20
356.207685
 30
0.0
 11
457.469785
 21
376.207685
 31
0.0
  0
LINE
  5
2C3
  8
002
 62
    40
 10
469.845785
 20
356.207685
 30
0.0
 11
469.845785
 21
376.207685
 31
0.0
  0
LINE
  5
2C4
  8
002
  6
CENTER
 62
    40
 10
479.567785
 20
204.420925
 30
0.0
 11
479.567785
 21
217.907685
 31
0.0
  0
LINE
  5
2C5
  8
002
  6
CENTER
 62
    40
 10
447.747785
 20
217.907685
 30
0.0
 11
447.747785
 21
204.735256
 31
0.0
  0
LINE
  5
2C6
  8
002
 62
     3
 10
491.157885
 20
215.907685
 30
0.0
 11
491.157885
 21
211.907685
 31
0.0
  0
LINE
  5
2C7
  8
002
 62
     3
 10
448.657785
 20
65.907685
 30
0.0
 11
478.657785
 21
65.907685
 31
0.0
  0
ARC
  5
2C8
  8
002
 62
     3
 10
478.657785
 20
68.907685
 30
0.0
 40
3.0
 50
270.0
 51
0.0
  0
LINE
  5
2C9
  8
002
 62
     3
 10
481.657785
 20
68.907685
 30
0.0
 11
481.657785
 21
85.907685
 31
0.0
  0
ARC
  5
2CA
  8
002
 62
     3
 10
448.657785
 20
68.907685
 30
0.0
 40
3.0
 50
180.0
 51
270.0
  0
LINE
  5
2CB
  8
002
 62
     3
 10
445.657785
 20
85.907685
 30
0.0
 11
445.657785
 21
68.907685
 31
0.0
  0
LINE
  5
2CC
  8
002
 62
     3
 10
481.657785
 20
85.907685
 30
0.0
 11
445.657785
 21
85.907685
 31
0.0
  0
LINE
  5
2CD
  8
002
 62
     3
 10
479.657785
 20
85.907685
 30
0.0
 11
479.657785
 21
114.407685
 31
0.0
  0
LINE
  5
2CE
  8
002
 62
     3
 10
479.657785
 20
122.407685
 30
0.0
 11
479.657785
 21
170.907685
 31
0.0
  0
LINE
  5
2CF
  8
002
 62
     3
 10
447.657785
 20
170.907685
 30
0.0
 11
447.657785
 21
122.407685
 31
0.0
  0
LINE
  5
2D0
  8
002
 62
     3
 10
447.657785
 20
114.407685
 30
0.0
 11
447.657785
 21
85.907685
 31
0.0
  0
LINE
  5
2D1
  8
002
 62
     3
 10
453.657785
 20
356.207685
 30
0.0
 11
453.657785
 21
315.970864
 31
0.0
  0
LINE
  5
2D2
  8
002
 62
     3
 10
453.657785
 20
307.970864
 30
0.0
 11
453.657785
 21
275.907685
 31
0.0
  0
LINE
  5
2D3
  8
002
 62
    40
 10
455.657785
 20
275.907685
 30
0.0
 11
455.657785
 21
305.698864
 31
0.0
  0
LINE
  5
2D4
  8
002
 62
    40
 10
455.657785
 20
313.698864
 30
0.0
 11
455.657785
 21
346.207685
 31
0.0
  0
LINE
  5
2D5
  8
002
 62
     3
 10
473.657785
 20
275.907685
 30
0.0
 11
473.657785
 21
307.970864
 31
0.0
  0
LINE
  5
2D6
  8
002
 62
     3
 10
473.657785
 20
315.970864
 30
0.0
 11
473.657785
 21
356.207685
 31
0.0
  0
LINE
  5
2D7
  8
002
 62
    40
 10
471.657785
 20
275.907685
 30
0.0
 11
471.657785
 21
310.242864
 31
0.0
  0
LINE
  5
2D8
  8
002
 62
    40
 10
471.657785
 20
318.242864
 30
0.0
 11
471.657785
 21
346.207685
 31
0.0
  0
POLYLINE
  5
2D9
  8
002
 62
     3
 66
     1
 10
0.0
 20
0.0
 30
0.0
  0
VERTEX
  5
2DB
  8
002
 62
     3
 10
447.657785
 20
114.407685
 30
0.0
  0
VERTEX
  5
2DC
  8
002
 62
     3
 10
449.657785
 20
112.938935
 30
0.0
  0
VERTEX
  5
2DD
  8
002
 62
     3
 10
451.657785
 20
111.657685
 30
0.0
  0
VERTEX
  5
2DE
  8
002
 62
     3
 10
453.657785
 20
110.751435
 30
0.0
  0
VERTEX
  5
2DF
  8
002
 62
     3
 10
455.657785
 20
110.407685
 30
0.0
  0
VERTEX
  5
2E0
  8
002
 62
     3
 10
457.657785
 20
110.751435
 30
0.0
  0
VERTEX
  5
2E1
  8
002
 62
     3
 10
459.657785
 20
111.657685
 30
0.0
  0
VERTEX
  5
2E2
  8
002
 62
     3
 10
461.657785
 20
112.938935
 30
0.0
  0
VERTEX
  5
2E3
  8
002
 62
     3
 10
463.657785
 20
114.407685
 30
0.0
  0
VERTEX
  5
2E4
  8
002
 62
     3
 10
465.657785
 20
115.876435
 30
0.0
  0
VERTEX
  5
2E5
  8
002
 62
     3
 10
467.657785
 20
117.157685
 30
0.0
  0
VERTEX
  5
2E6
  8
002
 62
     3
 10
469.657785
 20
118.063935
 30
0.0
  0
VERTEX
  5
2E7
  8
002
 62
     3
 10
471.657785
 20
118.407685
 30
0.0
  0
VERTEX
  5
2E8
  8
002
 62
     3
 10
473.657785
 20
118.063935
 30
0.0
  0
VERTEX
  5
2E9
  8
002
 62
     3
 10
475.657785
 20
117.157685
 30
0.0
  0
VERTEX
  5
2EA
  8
002
 62
     3
 10
477.657785
 20
115.876435
 30
0.0
  0
VERTEX
  5
2EB
  8
002
 62
     3
 10
479.657785
 20
114.407685
 30
0.0
  0
SEQEND
  5
2DA
  8
002
 62
     3
  0
POLYLINE
  5
2EC
  8
002
 62
     3
 66
     1
 10
0.0
 20
0.0
 30
0.0
  0
VERTEX
  5
2EE
  8
002
 62
     3
 10
447.657785
 20
122.407685
 30
0.0
  0
VERTEX
  5
2EF
  8
002
 62
     3
 10
449.657785
 20
120.938935
 30
0.0
  0
VERTEX
  5
2F0
  8
002
 62
     3
 10
451.657785
 20
119.657685
 30
0.0
  0
VERTEX
  5
2F1
  8
002
 62
     3
 10
453.657785
 20
118.751435
 30
0.0
  0
VERTEX
  5
2F2
  8
002
 62
     3
 10
455.657785
 20
118.407685
 30
0.0
  0
VERTEX
  5
2F3
  8
002
 62
     3
 10
457.657785
 20
118.751435
 30
0.0
  0
VERTEX
  5
2F4
  8
002
 62
     3
 10
459.657785
 20
119.657685
 30
0.0
  0
VERTEX
  5
2F5
  8
002
 62
     3
 10
461.657785
 20
120.938935
 30
0.0
  0
VERTEX
  5
2F6
  8
002
 62
     3
 10
463.657785
 20
122.407685
 30
0.0
  0
VERTEX
  5
2F7
  8
002
 62
     3
 10
465.657785
 20
123.876435
 30
0.0
  0
VERTEX
  5
2F8
  8
002
 62
     3
 10
467.657785
 20
125.157685
 30
0.0
  0
VERTEX
  5
2F9
  8
002
 62
     3
 10
469.657785
 20
126.063935
 30
0.0
  0
VERTEX
  5
2FA
  8
002
 62
     3
 10
471.657785
 20
126.407685
 30
0.0
  0
VERTEX
  5
2FB
  8
002
 62
     3
 10
473.657785
 20
126.063935
 30
0.0
  0
VERTEX
  5
2FC
  8
002
 62
     3
 10
475.657785
 20
125.157685
 30
0.0
  0
VERTEX
  5
2FD
  8
002
 62
     3
 10
477.657785
 20
123.876435
 30
0.0
  0
VERTEX
  5
2FE
  8
002
 62
     3
 10
479.657785
 20
122.407685
 30
0.0
  0
SEQEND
  5
2ED
  8
002
 62
     3
  0
POLYLINE
  5
2FF
  8
002
 62
     3
 66
     1
 10
0.0
 20
0.0
 30
0.0
  0
VERTEX
  5
301
  8
002
 62
     3
 10
453.657785
 20
307.970864
 30
0.0
  0
VERTEX
  5
302
  8
002
 62
     3
 10
455.324451
 20
306.044938
 30
0.0
  0
VERTEX
  5
303
  8
002
 62
     3
 10
456.991118
 20
304.563456
 30
0.0
  0
VERTEX
  5
304
  8
002
 62
     3
 10
458.657785
 20
303.970864
 30
0.0
  0
VERTEX
  5
305
  8
002
 62
     3
 10
460.324451
 20
304.563456
 30
0.0
  0
VERTEX
  5
306
  8
002
 62
     3
 10
461.991118
 20
306.044938
 30
0.0
  0
VERTEX
  5
307
  8
002
 62
     3
 10
463.657785
 20
307.970864
 30
0.0
  0
VERTEX
  5
308
  8
002
 62
     3
 10
465.324451
 20
309.89679
 30
0.0
  0
VERTEX
  5
309
  8
002
 62
     3
 10
466.991118
 20
311.378271
 30
0.0
  0
VERTEX
  5
30A
  8
002
 62
     3
 10
468.657785
 20
311.970864
 30
0.0
  0
VERTEX
  5
30B
  8
002
 62
     3
 10
470.324451
 20
311.378271
 30
0.0
  0
VERTEX
  5
30C
  8
002
 62
     3
 10
471.991118
 20
309.89679
 30
0.0
  0
VERTEX
  5
30D
  8
002
 62
     3
 10
473.657785
 20
307.970864
 30
0.0
  0
SEQEND
  5
300
  8
002
 62
     3
  0
POLYLINE
  5
30E
  8
002
 62
     3
 66
     1
 10
0.0
 20
0.0
 30
0.0
  0
VERTEX
  5
310
  8
002
 62
     3
 10
453.657785
 20
315.970864
 30
0.0
  0
VERTEX
  5
311
  8
002
 62
     3
 10
455.324451
 20
314.044938
 30
0.0
  0
VERTEX
  5
312
  8
002
 62
     3
 10
456.991118
 20
312.563456
 30
0.0
  0
VERTEX
  5
313
  8
002
 62
     3
 10
458.657785
 20
311.970864
 30
0.0
  0
VERTEX
  5
314
  8
002
 62
     3
 10
460.324451
 20
312.563456
 30
0.0
  0
VERTEX
  5
315
  8
002
 62
     3
 10
461.991118
 20
314.044938
 30
0.0
  0
VERTEX
  5
316
  8
002
 62
     3
 10
463.657785
 20
315.970864
 30
0.0
  0
VERTEX
  5
317
  8
002
 62
     3
 10
465.324451
 20
317.89679
 30
0.0
  0
VERTEX
  5
318
  8
002
 62
     3
 10
466.991118
 20
319.378271
 30
0.0
  0
VERTEX
  5
319
  8
002
 62
     3
 10
468.657785
 20
319.970864
 30
0.0
  0
VERTEX
  5
31A
  8
002
 62
     3
 10
470.324451
 20
319.378271
 30
0.0
  0
VERTEX
  5
31B
  8
002
 62
     3
 10
471.991118
 20
317.89679
 30
0.0
  0
VERTEX
  5
31C
  8
002
 62
     3
 10
473.657785
 20
315.970864
 30
0.0
  0
SEQEND
  5
30F
  8
002
 62
     3
  0
LINE
  5
31D
  8
002
  6
CENTER
 62
    40
 10
463.657785
 20
377.087285
 30
0.0
 11
463.657785
 21
57.309612
 31
0.0
  0
LINE
  5
31E
  8
003
  6
CENTER
 62
    40
 10
115.484663
 20
57.309612
 30
0.0
 11
115.484663
 21
376.207685
 31
0.0
  0
LINE
  5
31F
  8
002
  6
CENTER
 62
    40
 10
1423.693876
 20
245.907685
 30
0.0
 11
1580.685957
 21
245.907685
 31
0.0
  0
LINE
  5
320
  8
003
  6
CENTER
 62
    40
 10
1077.062116
 20
245.907685
 30
0.0
 11
1234.089476
 21
245.907685
 31
0.0
  0
LINE
  5
321
  8
003
  6
CENTER
 62
    40
 10
1154.674176
 20
105.607685
 30
0.0
 11
1154.674176
 21
435.907685
 31
0.0
  0
LINE
  5
322
  8
002
  6
CENTER
 62
    40
 10
1502.847297
 20
435.907685
 30
0.0
 11
1502.847297
 21
105.607685
 31
0.0
  0
LINE
  5
323
  8
002
 62
     3
 10
804.9273
 20
85.907685
 30
0.0
 11
804.9273
 21
114.407685
 31
0.0
  0
LINE
  5
324
  8
002
 62
     3
 10
804.9273
 20
122.407685
 30
0.0
 11
804.9273
 21
170.907685
 31
0.0
  0
LINE
  5
325
  8
002
 62
     3
 10
772.9273
 20
170.907685
 30
0.0
 11
772.9273
 21
122.407685
 31
0.0
  0
LINE
  5
326
  8
002
 62
     3
 10
772.9273
 20
114.407685
 30
0.0
 11
772.9273
 21
85.907685
 31
0.0
  0
POLYLINE
  5
327
  8
002
 62
     3
 66
     1
 10
0.0
 20
0.0
 30
0.0
  0
VERTEX
  5
329
  8
002
 62
     3
 10
772.9273
 20
114.407685
 30
0.0
  0
VERTEX
  5
32A
  8
002
 62
     3
 10
774.9273
 20
112.938935
 30
0.0
  0
VERTEX
  5
32B
  8
002
 62
     3
 10
776.9273
 20
111.657685
 30
0.0
  0
VERTEX
  5
32C
  8
002
 62
     3
 10
778.9273
 20
110.751435
 30
0.0
  0
VERTEX
  5
32D
  8
002
 62
     3
 10
780.9273
 20
110.407685
 30
0.0
  0
VERTEX
  5
32E
  8
002
 62
     3
 10
782.9273
 20
110.751435
 30
0.0
  0
VERTEX
  5
32F
  8
002
 62
     3
 10
784.9273
 20
111.657685
 30
0.0
  0
VERTEX
  5
330
  8
002
 62
     3
 10
786.9273
 20
112.938935
 30
0.0
  0
VERTEX
  5
331
  8
002
 62
     3
 10
788.9273
 20
114.407685
 30
0.0
  0
VERTEX
  5
332
  8
002
 62
     3
 10
790.9273
 20
115.876435
 30
0.0
  0
VERTEX
  5
333
  8
002
 62
     3
 10
792.9273
 20
117.157685
 30
0.0
  0
VERTEX
  5
334
  8
002
 62
     3
 10
794.9273
 20
118.063935
 30
0.0
  0
VERTEX
  5
335
  8
002
 62
     3
 10
796.9273
 20
118.407685
 30
0.0
  0
VERTEX
  5
336
  8
002
 62
     3
 10
798.9273
 20
118.063935
 30
0.0
  0
VERTEX
  5
337
  8
002
 62
     3
 10
800.9273
 20
117.157685
 30
0.0
  0
VERTEX
  5
338
  8
002
 62
     3
 10
802.9273
 20
115.876435
 30
0.0
  0
VERTEX
  5
339
  8
002
 62
     3
 10
804.9273
 20
114.407685
 30
0.0
  0
SEQEND
  5
328
  8
002
 62
     3
  0
POLYLINE
  5
33A
  8
002
 62
     3
 66
     1
 10
0.0
 20
0.0
 30
0.0
  0
VERTEX
  5
33C
  8
002
 62
     3
 10
772.9273
 20
122.407685
 30
0.0
  0
VERTEX
  5
33D
  8
002
 62
     3
 10
774.9273
 20
120.938935
 30
0.0
  0
VERTEX
  5
33E
  8
002
 62
     3
 10
776.9273
 20
119.657685
 30
0.0
  0
VERTEX
  5
33F
  8
002
 62
     3
 10
778.9273
 20
118.751435
 30
0.0
  0
VERTEX
  5
340
  8
002
 62
     3
 10
780.9273
 20
118.407685
 30
0.0
  0
VERTEX
  5
341
  8
002
 62
     3
 10
782.9273
 20
118.751435
 30
0.0
  0
VERTEX
  5
342
  8
002
 62
     3
 10
784.9273
 20
119.657685
 30
0.0
  0
VERTEX
  5
343
  8
002
 62
     3
 10
786.9273
 20
120.938935
 30
0.0
  0
VERTEX
  5
344
  8
002
 62
     3
 10
788.9273
 20
122.407685
 30
0.0
  0
VERTEX
  5
345
  8
002
 62
     3
 10
790.9273
 20
123.876435
 30
0.0
  0
VERTEX
  5
346
  8
002
 62
     3
 10
792.9273
 20
125.157685
 30
0.0
  0
VERTEX
  5
347
  8
002
 62
     3
 10
794.9273
 20
126.063935
 30
0.0
  0
VERTEX
  5
348
  8
002
 62
     3
 10
796.9273
 20
126.407685
 30
0.0
  0
VERTEX
  5
349
  8
002
 62
     3
 10
798.9273
 20
126.063935
 30
0.0
  0
VERTEX
  5
34A
  8
002
 62
     3
 10
800.9273
 20
125.157685
 30
0.0
  0
VERTEX
  5
34B
  8
002
 62
     3
 10
802.9273
 20
123.876435
 30
0.0
  0
VERTEX
  5
34C
  8
002
 62
     3
 10
804.9273
 20
122.407685
 30
0.0
  0
SEQEND
  5
33B
  8
002
 62
     3
  0
LINE
  5
34D
  8
002
 62
     3
 10
1333.871176
 20
320.907685
 30
0.0
 11
1333.871176
 21
349.407685
 31
0.0
  0
LINE
  5
34E
  8
002
 62
     3
 10
1333.871176
 20
357.407685
 30
0.0
 11
1333.871176
 21
405.907685
 31
0.0
  0
LINE
  5
34F
  8
002
 62
     3
 10
1301.871176
 20
405.907685
 30
0.0
 11
1301.871176
 21
357.407685
 31
0.0
  0
LINE
  5
350
  8
002
 62
     3
 10
1301.871176
 20
349.407685
 30
0.0
 11
1301.871176
 21
320.907685
 31
0.0
  0
POLYLINE
  5
351
  8
002
 62
     3
 66
     1
 10
0.0
 20
0.0
 30
0.0
  0
VERTEX
  5
353
  8
002
 62
     3
 10
1301.871176
 20
349.407685
 30
0.0
  0
VERTEX
  5
354
  8
002
 62
     3
 10
1303.871176
 20
347.938935
 30
0.0
  0
VERTEX
  5
355
  8
002
 62
     3
 10
1305.871176
 20
346.657685
 30
0.0
  0
VERTEX
  5
356
  8
002
 62
     3
 10
1307.871176
 20
345.751435
 30
0.0
  0
VERTEX
  5
357
  8
002
 62
     3
 10
1309.871176
 20
345.407685
 30
0.0
  0
VERTEX
  5
358
  8
002
 62
     3
 10
1311.871176
 20
345.751435
 30
0.0
  0
VERTEX
  5
359
  8
002
 62
     3
 10
1313.871176
 20
346.657685
 30
0.0
  0
VERTEX
  5
35A
  8
002
 62
     3
 10
1315.871176
 20
347.938935
 30
0.0
  0
VERTEX
  5
35B
  8
002
 62
     3
 10
1317.871176
 20
349.407685
 30
0.0
  0
VERTEX
  5
35C
  8
002
 62
     3
 10
1319.871176
 20
350.876435
 30
0.0
  0
VERTEX
  5
35D
  8
002
 62
     3
 10
1321.871176
 20
352.157685
 30
0.0
  0
VERTEX
  5
35E
  8
002
 62
     3
 10
1323.871176
 20
353.063935
 30
0.0
  0
VERTEX
  5
35F
  8
002
 62
     3
 10
1325.871176
 20
353.407685
 30
0.0
  0
VERTEX
  5
360
  8
002
 62
     3
 10
1327.871176
 20
353.063935
 30
0.0
  0
VERTEX
  5
361
  8
002
 62
     3
 10
1329.871176
 20
352.157685
 30
0.0
  0
VERTEX
  5
362
  8
002
 62
     3
 10
1331.871176
 20
350.876435
 30
0.0
  0
VERTEX
  5
363
  8
002
 62
     3
 10
1333.871176
 20
349.407685
 30
0.0
  0
SEQEND
  5
352
  8
002
 62
     3
  0
POLYLINE
  5
364
  8
002
 62
     3
 66
     1
 10
0.0
 20
0.0
 30
0.0
  0
VERTEX
  5
366
  8
002
 62
     3
 10
1301.871176
 20
357.407685
 30
0.0
  0
VERTEX
  5
367
  8
002
 62
     3
 10
1303.871176
 20
355.938935
 30
0.0
  0
VERTEX
  5
368
  8
002
 62
     3
 10
1305.871176
 20
354.657685
 30
0.0
  0
VERTEX
  5
369
  8
002
 62
     3
 10
1307.871176
 20
353.751435
 30
0.0
  0
VERTEX
  5
36A
  8
002
 62
     3
 10
1309.871176
 20
353.407685
 30
0.0
  0
VERTEX
  5
36B
  8
002
 62
     3
 10
1311.871176
 20
353.751435
 30
0.0
  0
VERTEX
  5
36C
  8
002
 62
     3
 10
1313.871176
 20
354.657685
 30
0.0
  0
VERTEX
  5
36D
  8
002
 62
     3
 10
1315.871176
 20
355.938935
 30
0.0
  0
VERTEX
  5
36E
  8
002
 62
     3
 10
1317.871176
 20
357.407685
 30
0.0
  0
VERTEX
  5
36F
  8
002
 62
     3
 10
1319.871176
 20
358.876435
 30
0.0
  0
VERTEX
  5
370
  8
002
 62
     3
 10
1321.871176
 20
360.157685
 30
0.0
  0
VERTEX
  5
371
  8
002
 62
     3
 10
1323.871176
 20
361.063935
 30
0.0
  0
VERTEX
  5
372
  8
002
 62
     3
 10
1325.871176
 20
361.407685
 30
0.0
  0
VERTEX
  5
373
  8
002
 62
     3
 10
1327.871176
 20
361.063935
 30
0.0
  0
VERTEX
  5
374
  8
002
 62
     3
 10
1329.871176
 20
360.157685
 30
0.0
  0
VERTEX
  5
375
  8
002
 62
     3
 10
1331.871176
 20
358.876435
 30
0.0
  0
VERTEX
  5
376
  8
002
 62
     3
 10
1333.871176
 20
357.407685
 30
0.0
  0
SEQEND
  5
365
  8
002
 62
     3
  0
POLYLINE
  5
377
  8
002
 62
     3
 66
     1
 10
0.0
 20
0.0
 30
0.0
  0
VERTEX
  5
379
  8
002
 62
     3
 10
1307.871176
 20
177.670864
 30
0.0
  0
VERTEX
  5
37A
  8
002
 62
     3
 10
1309.537842
 20
175.744938
 30
0.0
  0
VERTEX
  5
37B
  8
002
 62
     3
 10
1311.204509
 20
174.263456
 30
0.0
  0
VERTEX
  5
37C
  8
002
 62
     3
 10
1312.871176
 20
173.670864
 30
0.0
  0
VERTEX
  5
37D
  8
002
 62
     3
 10
1314.537842
 20
174.263456
 30
0.0
  0
VERTEX
  5
37E
  8
002
 62
     3
 10
1316.204509
 20
175.744938
 30
0.0
  0
VERTEX
  5
37F
  8
002
 62
     3
 10
1317.871176
 20
177.670864
 30
0.0
  0
VERTEX
  5
380
  8
002
 62
     3
 10
1319.537842
 20
179.59679
 30
0.0
  0
VERTEX
  5
381
  8
002
 62
     3
 10
1321.204509
 20
181.078271
 30
0.0
  0
VERTEX
  5
382
  8
002
 62
     3
 10
1322.871176
 20
181.670864
 30
0.0
  0
VERTEX
  5
383
  8
002
 62
     3
 10
1324.537842
 20
181.078271
 30
0.0
  0
VERTEX
  5
384
  8
002
 62
     3
 10
1326.204509
 20
179.59679
 30
0.0
  0
VERTEX
  5
385
  8
002
 62
     3
 10
1327.871176
 20
177.670864
 30
0.0
  0
SEQEND
  5
378
  8
002
 62
     3
  0
POLYLINE
  5
386
  8
002
 62
     3
 66
     1
 10
0.0
 20
0.0
 30
0.0
  0
VERTEX
  5
388
  8
002
 62
     3
 10
1307.871176
 20
185.670864
 30
0.0
  0
VERTEX
  5
389
  8
002
 62
     3
 10
1309.537842
 20
183.744938
 30
0.0
  0
VERTEX
  5
38A
  8
002
 62
     3
 10
1311.204509
 20
182.263456
 30
0.0
  0
VERTEX
  5
38B
  8
002
 62
     3
 10
1312.871176
 20
181.670864
 30
0.0
  0
VERTEX
  5
38C
  8
002
 62
     3
 10
1314.537842
 20
182.263456
 30
0.0
  0
VERTEX
  5
38D
  8
002
 62
     3
 10
1316.204509
 20
183.744938
 30
0.0
  0
VERTEX
  5
38E
  8
002
 62
     3
 10
1317.871176
 20
185.670864
 30
0.0
  0
VERTEX
  5
38F
  8
002
 62
     3
 10
1319.537842
 20
187.59679
 30
0.0
  0
VERTEX
  5
390
  8
002
 62
     3
 10
1321.204509
 20
189.078271
 30
0.0
  0
VERTEX
  5
391
  8
002
 62
     3
 10
1322.871176
 20
189.670864
 30
0.0
  0
VERTEX
  5
392
  8
002
 62
     3
 10
1324.537842
 20
189.078271
 30
0.0
  0
VERTEX
  5
393
  8
002
 62
     3
 10
1326.204509
 20
187.59679
 30
0.0
  0
VERTEX
  5
394
  8
002
 62
     3
 10
1327.871176
 20
185.670864
 30
0.0
  0
SEQEND
  5
387
  8
002
 62
     3
  0
LINE
  5
395
  8
002
 62
     3
 10
1327.871176
 20
215.907685
 30
0.0
 11
1327.871176
 21
185.670864
 31
0.0
  0
LINE
  5
396
  8
002
 62
     3
 10
1327.871176
 20
177.670864
 30
0.0
 11
1327.871176
 21
135.607685
 31
0.0
  0
LINE
  5
397
  8
002
 62
    40
 10
1325.871176
 20
215.907685
 30
0.0
 11
1325.871176
 21
187.942864
 31
0.0
  0
LINE
  5
398
  8
002
 62
    40
 10
1325.871176
 20
179.942864
 30
0.0
 11
1325.871176
 21
145.607685
 31
0.0
  0
LINE
  5
399
  8
002
 62
     3
 10
1307.871176
 20
135.607685
 30
0.0
 11
1307.871176
 21
177.670864
 31
0.0
  0
LINE
  5
39A
  8
002
 62
     3
 10
1307.871176
 20
185.670864
 30
0.0
 11
1307.871176
 21
215.907685
 31
0.0
  0
LINE
  5
39B
  8
002
 62
    40
 10
1309.871176
 20
215.907685
 30
0.0
 11
1309.871176
 21
183.398864
 31
0.0
  0
LINE
  5
39C
  8
002
 62
    40
 10
1309.871176
 20
175.398864
 30
0.0
 11
1309.871176
 21
145.607685
 31
0.0
  0
LINE
  5
39D
  8
002
 62
     3
 10
1174.674276
 20
320.907685
 30
0.0
 11
1134.674176
 21
320.907685
 31
0.0
  0
LINE
  5
39E
  8
002
 62
     3
 10
1134.674176
 20
320.907685
 30
0.0
 11
1134.121176
 21
282.863985
 31
0.0
  0
ARC
  5
39F
  8
002
 62
     3
 10
1131.121176
 20
282.907685
 30
0.0
 40
3.0
 50
270.0
 51
359.165451
  0
LINE
  5
3A0
  8
002
 62
     3
 10
1134.514176
 20
279.907685
 30
0.0
 11
1134.514176
 21
284.907685
 31
0.0
  0
LINE
  5
3A1
  8
002
 62
     3
 10
1143.014176
 20
284.907685
 30
0.0
 11
1134.514176
 21
284.907685
 31
0.0
  0
LINE
  5
3A2
  8
002
 62
     3
 10
1143.014176
 20
284.907685
 30
0.0
 11
1143.014176
 21
279.907685
 31
0.0
  0
LINE
  5
3A3
  8
002
 62
     3
 10
1164.674176
 20
135.607685
 30
0.0
 11
1144.674176
 21
135.607685
 31
0.0
  0
LINE
  5
3A4
  8
002
 62
     3
 10
1182.174276
 20
279.907685
 30
0.0
 11
1127.174176
 21
279.907685
 31
0.0
  0
LINE
  5
3A5
  8
002
 62
     3
 10
1127.174176
 20
279.907685
 30
0.0
 11
1127.174176
 21
275.907685
 31
0.0
  0
ARC
  5
3A6
  8
002
 62
     3
 10
1178.227376
 20
282.907685
 30
0.0
 40
3.000018296610834
 50
180.834633
 51
270.0
  0
LINE
  5
3A7
  8
002
 62
     3
 10
1175.227676
 20
282.863985
 30
0.0
 11
1174.674276
 21
320.907685
 31
0.0
  0
LINE
  5
3A8
  8
002
 62
     3
 10
1166.334176
 20
284.907685
 30
0.0
 11
1174.834176
 21
284.907685
 31
0.0
  0
LINE
  5
3A9
  8
002
 62
     3
 10
1174.834176
 20
284.907685
 30
0.0
 11
1174.834176
 21
279.907685
 31
0.0
  0
LINE
  5
3AA
  8
002
 62
     3
 10
1166.334176
 20
284.907685
 30
0.0
 11
1166.334176
 21
279.907685
 31
0.0
  0
LINE
  5
3AB
  8
002
 62
     3
 10
1144.674176
 20
145.607685
 30
0.0
 11
1164.674176
 21
145.607685
 31
0.0
  0
LINE
  5
3AC
  8
002
 62
     3
 10
1161.674176
 20
135.607685
 30
0.0
 11
1161.674176
 21
115.607685
 31
0.0
  0
LINE
  5
3AD
  8
002
 62
     3
 10
1147.674176
 20
115.607685
 30
0.0
 11
1147.674176
 21
135.607685
 31
0.0
  0
LINE
  5
3AE
  8
002
 62
    40
 10
1160.862176
 20
135.607685
 30
0.0
 11
1160.862176
 21
115.607685
 31
0.0
  0
LINE
  5
3AF
  8
002
 62
    40
 10
1148.486176
 20
135.607685
 30
0.0
 11
1148.486176
 21
115.607685
 31
0.0
  0
LINE
  5
3B0
  8
002
  6
CENTER
 62
    40
 10
1138.764176
 20
273.907685
 30
0.0
 11
1138.764176
 21
289.356747
 31
0.0
  0
LINE
  5
3B1
  8
002
  6
CENTER
 62
    40
 10
1170.584176
 20
289.356747
 30
0.0
 11
1170.584176
 21
273.907685
 31
0.0
  0
LINE
  5
3B2
  8
002
 62
     3
 10
1182.174276
 20
275.907685
 30
0.0
 11
1182.174276
 21
279.907685
 31
0.0
  0
LINE
  5
3B3
  8
002
 62
     3
 10
1139.674176
 20
425.907685
 30
0.0
 11
1169.674176
 21
425.907685
 31
0.0
  0
LINE
  5
3B4
  8
002
 62
     3
 10
1172.674176
 20
422.907685
 30
0.0
 11
1172.674176
 21
405.907685
 31
0.0
  0
ARC
  5
3B5
  8
002
 62
     3
 10
1169.674176
 20
422.907685
 30
0.0
 40
3.0
 50
0.0
 51
90.0
  0
ARC
  5
3B6
  8
002
 62
     3
 10
1139.674176
 20
422.907685
 30
0.0
 40
3.0
 50
90.0
 51
180.0
  0
LINE
  5
3B7
  8
002
 62
     3
 10
1136.674176
 20
405.907685
 30
0.0
 11
1136.674176
 21
422.907685
 31
0.0
  0
LINE
  5
3B8
  8
002
 62
     3
 10
1172.674176
 20
405.907685
 30
0.0
 11
1136.674176
 21
405.907685
 31
0.0
  0
LINE
  5
3B9
  8
002
 62
     3
 10
1161.674176
 20
115.607685
 30
0.0
 11
1147.674176
 21
115.607685
 31
0.0
  0
LINE
  5
3BA
  8
002
 62
     3
 10
1170.674176
 20
320.907685
 30
0.0
 11
1170.674176
 21
349.407685
 31
0.0
  0
LINE
  5
3BB
  8
002
 62
     3
 10
1170.674176
 20
357.407685
 30
0.0
 11
1170.674176
 21
405.907685
 31
0.0
  0
LINE
  5
3BC
  8
002
 62
     3
 10
1138.674176
 20
405.907685
 30
0.0
 11
1138.674176
 21
357.407685
 31
0.0
  0
LINE
  5
3BD
  8
002
 62
     3
 10
1138.674176
 20
349.407685
 30
0.0
 11
1138.674176
 21
320.907685
 31
0.0
  0
POLYLINE
  5
3BE
  8
002
 62
     3
 66
     1
 10
0.0
 20
0.0
 30
0.0
  0
VERTEX
  5
3C0
  8
002
 62
     3
 10
1138.674176
 20
349.407685
 30
0.0
  0
VERTEX
  5
3C1
  8
002
 62
     3
 10
1140.674176
 20
347.938935
 30
0.0
  0
VERTEX
  5
3C2
  8
002
 62
     3
 10
1142.674176
 20
346.657685
 30
0.0
  0
VERTEX
  5
3C3
  8
002
 62
     3
 10
1144.674176
 20
345.751435
 30
0.0
  0
VERTEX
  5
3C4
  8
002
 62
     3
 10
1146.674176
 20
345.407685
 30
0.0
  0
VERTEX
  5
3C5
  8
002
 62
     3
 10
1148.674176
 20
345.751435
 30
0.0
  0
VERTEX
  5
3C6
  8
002
 62
     3
 10
1150.674176
 20
346.657685
 30
0.0
  0
VERTEX
  5
3C7
  8
002
 62
     3
 10
1152.674176
 20
347.938935
 30
0.0
  0
VERTEX
  5
3C8
  8
002
 62
     3
 10
1154.674176
 20
349.407685
 30
0.0
  0
VERTEX
  5
3C9
  8
002
 62
     3
 10
1156.674176
 20
350.876435
 30
0.0
  0
VERTEX
  5
3CA
  8
002
 62
     3
 10
1158.674176
 20
352.157685
 30
0.0
  0
VERTEX
  5
3CB
  8
002
 62
     3
 10
1160.674176
 20
353.063935
 30
0.0
  0
VERTEX
  5
3CC
  8
002
 62
     3
 10
1162.674176
 20
353.407685
 30
0.0
  0
VERTEX
  5
3CD
  8
002
 62
     3
 10
1164.674176
 20
353.063935
 30
0.0
  0
VERTEX
  5
3CE
  8
002
 62
     3
 10
1166.674176
 20
352.157685
 30
0.0
  0
VERTEX
  5
3CF
  8
002
 62
     3
 10
1168.674176
 20
350.876435
 30
0.0
  0
VERTEX
  5
3D0
  8
002
 62
     3
 10
1170.674176
 20
349.407685
 30
0.0
  0
SEQEND
  5
3BF
  8
002
 62
     3
  0
POLYLINE
  5
3D1
  8
002
 62
     3
 66
     1
 10
0.0
 20
0.0
 30
0.0
  0
VERTEX
  5
3D3
  8
002
 62
     3
 10
1138.674176
 20
357.407685
 30
0.0
  0
VERTEX
  5
3D4
  8
002
 62
     3
 10
1140.674176
 20
355.938935
 30
0.0
  0
VERTEX
  5
3D5
  8
002
 62
     3
 10
1142.674176
 20
354.657685
 30
0.0
  0
VERTEX
  5
3D6
  8
002
 62
     3
 10
1144.674176
 20
353.751435
 30
0.0
  0
VERTEX
  5
3D7
  8
002
 62
     3
 10
1146.674176
 20
353.407685
 30
0.0
  0
VERTEX
  5
3D8
  8
002
 62
     3
 10
1148.674176
 20
353.751435
 30
0.0
  0
VERTEX
  5
3D9
  8
002
 62
     3
 10
1150.674176
 20
354.657685
 30
0.0
  0
VERTEX
  5
3DA
  8
002
 62
     3
 10
1152.674176
 20
355.938935
 30
0.0
  0
VERTEX
  5
3DB
  8
002
 62
     3
 10
1154.674176
 20
357.407685
 30
0.0
  0
VERTEX
  5
3DC
  8
002
 62
     3
 10
1156.674176
 20
358.876435
 30
0.0
  0
VERTEX
  5
3DD
  8
002
 62
     3
 10
1158.674176
 20
360.157685
 30
0.0
  0
VERTEX
  5
3DE
  8
002
 62
     3
 10
1160.674176
 20
361.063935
 30
0.0
  0
VERTEX
  5
3DF
  8
002
 62
     3
 10
1162.674176
 20
361.407685
 30
0.0
  0
VERTEX
  5
3E0
  8
002
 62
     3
 10
1164.674176
 20
361.063935
 30
0.0
  0
VERTEX
  5
3E1
  8
002
 62
     3
 10
1166.674176
 20
360.157685
 30
0.0
  0
VERTEX
  5
3E2
  8
002
 62
     3
 10
1168.674176
 20
358.876435
 30
0.0
  0
VERTEX
  5
3E3
  8
002
 62
     3
 10
1170.674176
 20
357.407685
 30
0.0
  0
SEQEND
  5
3D2
  8
002
 62
     3
  0
POLYLINE
  5
3E4
  8
002
 62
     3
 66
     1
 10
0.0
 20
0.0
 30
0.0
  0
VERTEX
  5
3E6
  8
002
 62
     3
 10
1144.674176
 20
177.670864
 30
0.0
  0
VERTEX
  5
3E7
  8
002
 62
     3
 10
1146.340842
 20
175.744938
 30
0.0
  0
VERTEX
  5
3E8
  8
002
 62
     3
 10
1148.007509
 20
174.263456
 30
0.0
  0
VERTEX
  5
3E9
  8
002
 62
     3
 10
1149.674176
 20
173.670864
 30
0.0
  0
VERTEX
  5
3EA
  8
002
 62
     3
 10
1151.340842
 20
174.263456
 30
0.0
  0
VERTEX
  5
3EB
  8
002
 62
     3
 10
1153.007509
 20
175.744938
 30
0.0
  0
VERTEX
  5
3EC
  8
002
 62
     3
 10
1154.674176
 20
177.670864
 30
0.0
  0
VERTEX
  5
3ED
  8
002
 62
     3
 10
1156.340842
 20
179.59679
 30
0.0
  0
VERTEX
  5
3EE
  8
002
 62
     3
 10
1158.007509
 20
181.078271
 30
0.0
  0
VERTEX
  5
3EF
  8
002
 62
     3
 10
1159.674176
 20
181.670864
 30
0.0
  0
VERTEX
  5
3F0
  8
002
 62
     3
 10
1161.340842
 20
181.078271
 30
0.0
  0
VERTEX
  5
3F1
  8
002
 62
     3
 10
1163.007509
 20
179.59679
 30
0.0
  0
VERTEX
  5
3F2
  8
002
 62
     3
 10
1164.674176
 20
177.670864
 30
0.0
  0
SEQEND
  5
3E5
  8
002
 62
     3
  0
POLYLINE
  5
3F3
  8
002
 62
     3
 66
     1
 10
0.0
 20
0.0
 30
0.0
  0
VERTEX
  5
3F5
  8
002
 62
     3
 10
1144.674176
 20
185.670864
 30
0.0
  0
VERTEX
  5
3F6
  8
002
 62
     3
 10
1146.340842
 20
183.744938
 30
0.0
  0
VERTEX
  5
3F7
  8
002
 62
     3
 10
1148.007509
 20
182.263456
 30
0.0
  0
VERTEX
  5
3F8
  8
002
 62
     3
 10
1149.674176
 20
181.670864
 30
0.0
  0
VERTEX
  5
3F9
  8
002
 62
     3
 10
1151.340842
 20
182.263456
 30
0.0
  0
VERTEX
  5
3FA
  8
002
 62
     3
 10
1153.007509
 20
183.744938
 30
0.0
  0
VERTEX
  5
3FB
  8
002
 62
     3
 10
1154.674176
 20
185.670864
 30
0.0
  0
VERTEX
  5
3FC
  8
002
 62
     3
 10
1156.340842
 20
187.59679
 30
0.0
  0
VERTEX
  5
3FD
  8
002
 62
     3
 10
1158.007509
 20
189.078271
 30
0.0
  0
VERTEX
  5
3FE
  8
002
 62
     3
 10
1159.674176
 20
189.670864
 30
0.0
  0
VERTEX
  5
3FF
  8
002
 62
     3
 10
1161.340842
 20
189.078271
 30
0.0
  0
VERTEX
  5
400
  8
002
 62
     3
 10
1163.007509
 20
187.59679
 30
0.0
  0
VERTEX
  5
401
  8
002
 62
     3
 10
1164.674176
 20
185.670864
 30
0.0
  0
SEQEND
  5
3F4
  8
002
 62
     3
  0
LINE
  5
402
  8
002
 62
     3
 10
1164.674176
 20
215.907685
 30
0.0
 11
1164.674176
 21
185.670864
 31
0.0
  0
LINE
  5
403
  8
002
 62
     3
 10
1164.674176
 20
177.670864
 30
0.0
 11
1164.674176
 21
135.607685
 31
0.0
  0
LINE
  5
404
  8
002
 62
    40
 10
1162.674176
 20
215.907685
 30
0.0
 11
1162.674176
 21
187.942864
 31
0.0
  0
LINE
  5
405
  8
002
 62
    40
 10
1162.674176
 20
179.942864
 30
0.0
 11
1162.674176
 21
145.607685
 31
0.0
  0
LINE
  5
406
  8
002
 62
     3
 10
1144.674176
 20
135.607685
 30
0.0
 11
1144.674176
 21
177.670864
 31
0.0
  0
LINE
  5
407
  8
002
 62
     3
 10
1144.674176
 20
185.670864
 30
0.0
 11
1144.674176
 21
215.907685
 31
0.0
  0
LINE
  5
408
  8
002
 62
    40
 10
1146.674176
 20
215.907685
 30
0.0
 11
1146.674176
 21
183.398864
 31
0.0
  0
LINE
  5
409
  8
002
 62
    40
 10
1146.674176
 20
175.398864
 30
0.0
 11
1146.674176
 21
145.607685
 31
0.0
  0
LINE
  5
40A
  8
002
 62
     3
 10
1522.847397
 20
320.907685
 30
0.0
 11
1482.847297
 21
320.907685
 31
0.0
  0
LINE
  5
40B
  8
002
 62
     3
 10
1482.847297
 20
320.907685
 30
0.0
 11
1482.294297
 21
282.863985
 31
0.0
  0
ARC
  5
40C
  8
002
 62
     3
 10
1479.294297
 20
282.907685
 30
0.0
 40
3.0
 50
270.0
 51
359.165451
  0
LINE
  5
40D
  8
002
 62
     3
 10
1482.687297
 20
279.907685
 30
0.0
 11
1482.687297
 21
284.907685
 31
0.0
  0
LINE
  5
40E
  8
002
 62
     3
 10
1491.187297
 20
284.907685
 30
0.0
 11
1482.687297
 21
284.907685
 31
0.0
  0
LINE
  5
40F
  8
002
 62
     3
 10
1491.187297
 20
284.907685
 30
0.0
 11
1491.187297
 21
279.907685
 31
0.0
  0
LINE
  5
410
  8
002
 62
     3
 10
1512.847297
 20
135.607685
 30
0.0
 11
1492.847297
 21
135.607685
 31
0.0
  0
LINE
  5
411
  8
002
 62
     3
 10
1530.347397
 20
279.907685
 30
0.0
 11
1475.347297
 21
279.907685
 31
0.0
  0
LINE
  5
412
  8
002
 62
     3
 10
1475.347297
 20
279.907685
 30
0.0
 11
1475.347297
 21
275.907685
 31
0.0
  0
ARC
  5
413
  8
002
 62
     3
 10
1526.400497
 20
282.907685
 30
0.0
 40
3.000018296610834
 50
180.834633
 51
270.0
  0
LINE
  5
414
  8
002
 62
     3
 10
1523.400797
 20
282.863985
 30
0.0
 11
1522.847397
 21
320.907685
 31
0.0
  0
LINE
  5
415
  8
002
 62
     3
 10
1514.507297
 20
284.907685
 30
0.0
 11
1523.007297
 21
284.907685
 31
0.0
  0
LINE
  5
416
  8
002
 62
     3
 10
1523.007297
 20
284.907685
 30
0.0
 11
1523.007297
 21
279.907685
 31
0.0
  0
LINE
  5
417
  8
002
 62
     3
 10
1514.507297
 20
284.907685
 30
0.0
 11
1514.507297
 21
279.907685
 31
0.0
  0
LINE
  5
418
  8
002
 62
     3
 10
1492.847297
 20
145.607685
 30
0.0
 11
1512.847297
 21
145.607685
 31
0.0
  0
LINE
  5
419
  8
002
 62
     3
 10
1509.847297
 20
135.607685
 30
0.0
 11
1509.847297
 21
115.607685
 31
0.0
  0
LINE
  5
41A
  8
002
 62
     3
 10
1495.847297
 20
115.607685
 30
0.0
 11
1495.847297
 21
135.607685
 31
0.0
  0
LINE
  5
41B
  8
002
 62
    40
 10
1509.035297
 20
135.607685
 30
0.0
 11
1509.035297
 21
115.607685
 31
0.0
  0
LINE
  5
41C
  8
002
 62
    40
 10
1496.659297
 20
135.607685
 30
0.0
 11
1496.659297
 21
115.607685
 31
0.0
  0
LINE
  5
41D
  8
002
  6
CENTER
 62
    40
 10
1486.937297
 20
273.907685
 30
0.0
 11
1486.937297
 21
289.356747
 31
0.0
  0
LINE
  5
41E
  8
002
  6
CENTER
 62
    40
 10
1518.757297
 20
289.356747
 30
0.0
 11
1518.757297
 21
273.907685
 31
0.0
  0
LINE
  5
41F
  8
002
 62
     3
 10
1530.347397
 20
275.907685
 30
0.0
 11
1530.347397
 21
279.907685
 31
0.0
  0
LINE
  5
420
  8
002
 62
     3
 10
1487.847297
 20
425.907685
 30
0.0
 11
1517.847297
 21
425.907685
 31
0.0
  0
LINE
  5
421
  8
002
 62
     3
 10
1520.847297
 20
422.907685
 30
0.0
 11
1520.847297
 21
405.907685
 31
0.0
  0
ARC
  5
422
  8
002
 62
     3
 10
1517.847297
 20
422.907685
 30
0.0
 40
3.0
 50
0.0
 51
90.0
  0
ARC
  5
423
  8
002
 62
     3
 10
1487.847297
 20
422.907685
 30
0.0
 40
3.0
 50
90.0
 51
180.0
  0
LINE
  5
424
  8
002
 62
     3
 10
1484.847297
 20
405.907685
 30
0.0
 11
1484.847297
 21
422.907685
 31
0.0
  0
LINE
  5
425
  8
002
 62
     3
 10
1520.847297
 20
405.907685
 30
0.0
 11
1484.847297
 21
405.907685
 31
0.0
  0
LINE
  5
426
  8
002
 62
     3
 10
1509.847297
 20
115.607685
 30
0.0
 11
1495.847297
 21
115.607685
 31
0.0
  0
LINE
  5
427
  8
002
 62
     3
 10
1518.847297
 20
320.907685
 30
0.0
 11
1518.847297
 21
349.407685
 31
0.0
  0
LINE
  5
428
  8
002
 62
     3
 10
1518.847297
 20
357.407685
 30
0.0
 11
1518.847297
 21
405.907685
 31
0.0
  0
LINE
  5
429
  8
002
 62
     3
 10
1486.847297
 20
405.907685
 30
0.0
 11
1486.847297
 21
357.407685
 31
0.0
  0
LINE
  5
42A
  8
002
 62
     3
 10
1486.847297
 20
349.407685
 30
0.0
 11
1486.847297
 21
320.907685
 31
0.0
  0
POLYLINE
  5
42B
  8
002
 62
     3
 66
     1
 10
0.0
 20
0.0
 30
0.0
  0
VERTEX
  5
42D
  8
002
 62
     3
 10
1486.847297
 20
349.407685
 30
0.0
  0
VERTEX
  5
42E
  8
002
 62
     3
 10
1488.847297
 20
347.938935
 30
0.0
  0
VERTEX
  5
42F
  8
002
 62
     3
 10
1490.847297
 20
346.657685
 30
0.0
  0
VERTEX
  5
430
  8
002
 62
     3
 10
1492.847297
 20
345.751435
 30
0.0
  0
VERTEX
  5
431
  8
002
 62
     3
 10
1494.847297
 20
345.407685
 30
0.0
  0
VERTEX
  5
432
  8
002
 62
     3
 10
1496.847297
 20
345.751435
 30
0.0
  0
VERTEX
  5
433
  8
002
 62
     3
 10
1498.847297
 20
346.657685
 30
0.0
  0
VERTEX
  5
434
  8
002
 62
     3
 10
1500.847297
 20
347.938935
 30
0.0
  0
VERTEX
  5
435
  8
002
 62
     3
 10
1502.847297
 20
349.407685
 30
0.0
  0
VERTEX
  5
436
  8
002
 62
     3
 10
1504.847297
 20
350.876435
 30
0.0
  0
VERTEX
  5
437
  8
002
 62
     3
 10
1506.847297
 20
352.157685
 30
0.0
  0
VERTEX
  5
438
  8
002
 62
     3
 10
1508.847297
 20
353.063935
 30
0.0
  0
VERTEX
  5
439
  8
002
 62
     3
 10
1510.847297
 20
353.407685
 30
0.0
  0
VERTEX
  5
43A
  8
002
 62
     3
 10
1512.847297
 20
353.063935
 30
0.0
  0
VERTEX
  5
43B
  8
002
 62
     3
 10
1514.847297
 20
352.157685
 30
0.0
  0
VERTEX
  5
43C
  8
002
 62
     3
 10
1516.847297
 20
350.876435
 30
0.0
  0
VERTEX
  5
43D
  8
002
 62
     3
 10
1518.847297
 20
349.407685
 30
0.0
  0
SEQEND
  5
42C
  8
002
 62
     3
  0
POLYLINE
  5
43E
  8
002
 62
     3
 66
     1
 10
0.0
 20
0.0
 30
0.0
  0
VERTEX
  5
440
  8
002
 62
     3
 10
1486.847297
 20
357.407685
 30
0.0
  0
VERTEX
  5
441
  8
002
 62
     3
 10
1488.847297
 20
355.938935
 30
0.0
  0
VERTEX
  5
442
  8
002
 62
     3
 10
1490.847297
 20
354.657685
 30
0.0
  0
VERTEX
  5
443
  8
002
 62
     3
 10
1492.847297
 20
353.751435
 30
0.0
  0
VERTEX
  5
444
  8
002
 62
     3
 10
1494.847297
 20
353.407685
 30
0.0
  0
VERTEX
  5
445
  8
002
 62
     3
 10
1496.847297
 20
353.751435
 30
0.0
  0
VERTEX
  5
446
  8
002
 62
     3
 10
1498.847297
 20
354.657685
 30
0.0
  0
VERTEX
  5
447
  8
002
 62
     3
 10
1500.847297
 20
355.938935
 30
0.0
  0
VERTEX
  5
448
  8
002
 62
     3
 10
1502.847297
 20
357.407685
 30
0.0
  0
VERTEX
  5
449
  8
002
 62
     3
 10
1504.847297
 20
358.876435
 30
0.0
  0
VERTEX
  5
44A
  8
002
 62
     3
 10
1506.847297
 20
360.157685
 30
0.0
  0
VERTEX
  5
44B
  8
002
 62
     3
 10
1508.847297
 20
361.063935
 30
0.0
  0
VERTEX
  5
44C
  8
002
 62
     3
 10
1510.847297
 20
361.407685
 30
0.0
  0
VERTEX
  5
44D
  8
002
 62
     3
 10
1512.847297
 20
361.063935
 30
0.0
  0
VERTEX
  5
44E
  8
002
 62
     3
 10
1514.847297
 20
360.157685
 30
0.0
  0
VERTEX
  5
44F
  8
002
 62
     3
 10
1516.847297
 20
358.876435
 30
0.0
  0
VERTEX
  5
450
  8
002
 62
     3
 10
1518.847297
 20
357.407685
 30
0.0
  0
SEQEND
  5
43F
  8
002
 62
     3
  0
POLYLINE
  5
451
  8
002
 62
     3
 66
     1
 10
0.0
 20
0.0
 30
0.0
  0
VERTEX
  5
453
  8
002
 62
     3
 10
1492.847297
 20
177.670864
 30
0.0
  0
VERTEX
  5
454
  8
002
 62
     3
 10
1494.513964
 20
175.744938
 30
0.0
  0
VERTEX
  5
455
  8
002
 62
     3
 10
1496.180631
 20
174.263456
 30
0.0
  0
VERTEX
  5
456
  8
002
 62
     3
 10
1497.847297
 20
173.670864
 30
0.0
  0
VERTEX
  5
457
  8
002
 62
     3
 10
1499.513964
 20
174.263456
 30
0.0
  0
VERTEX
  5
458
  8
002
 62
     3
 10
1501.180631
 20
175.744938
 30
0.0
  0
VERTEX
  5
459
  8
002
 62
     3
 10
1502.847297
 20
177.670864
 30
0.0
  0
VERTEX
  5
45A
  8
002
 62
     3
 10
1504.513964
 20
179.59679
 30
0.0
  0
VERTEX
  5
45B
  8
002
 62
     3
 10
1506.180631
 20
181.078271
 30
0.0
  0
VERTEX
  5
45C
  8
002
 62
     3
 10
1507.847297
 20
181.670864
 30
0.0
  0
VERTEX
  5
45D
  8
002
 62
     3
 10
1509.513964
 20
181.078271
 30
0.0
  0
VERTEX
  5
45E
  8
002
 62
     3
 10
1511.180631
 20
179.59679
 30
0.0
  0
VERTEX
  5
45F
  8
002
 62
     3
 10
1512.847297
 20
177.670864
 30
0.0
  0
SEQEND
  5
452
  8
002
 62
     3
  0
POLYLINE
  5
460
  8
002
 62
     3
 66
     1
 10
0.0
 20
0.0
 30
0.0
  0
VERTEX
  5
462
  8
002
 62
     3
 10
1492.847297
 20
185.670864
 30
0.0
  0
VERTEX
  5
463
  8
002
 62
     3
 10
1494.513964
 20
183.744938
 30
0.0
  0
VERTEX
  5
464
  8
002
 62
     3
 10
1496.180631
 20
182.263456
 30
0.0
  0
VERTEX
  5
465
  8
002
 62
     3
 10
1497.847297
 20
181.670864
 30
0.0
  0
VERTEX
  5
466
  8
002
 62
     3
 10
1499.513964
 20
182.263456
 30
0.0
  0
VERTEX
  5
467
  8
002
 62
     3
 10
1501.180631
 20
183.744938
 30
0.0
  0
VERTEX
  5
468
  8
002
 62
     3
 10
1502.847297
 20
185.670864
 30
0.0
  0
VERTEX
  5
469
  8
002
 62
     3
 10
1504.513964
 20
187.59679
 30
0.0
  0
VERTEX
  5
46A
  8
002
 62
     3
 10
1506.180631
 20
189.078271
 30
0.0
  0
VERTEX
  5
46B
  8
002
 62
     3
 10
1507.847297
 20
189.670864
 30
0.0
  0
VERTEX
  5
46C
  8
002
 62
     3
 10
1509.513964
 20
189.078271
 30
0.0
  0
VERTEX
  5
46D
  8
002
 62
     3
 10
1511.180631
 20
187.59679
 30
0.0
  0
VERTEX
  5
46E
  8
002
 62
     3
 10
1512.847297
 20
185.670864
 30
0.0
  0
SEQEND
  5
461
  8
002
 62
     3
  0
LINE
  5
46F
  8
002
 62
     3
 10
1512.847297
 20
215.907685
 30
0.0
 11
1512.847297
 21
185.670864
 31
0.0
  0
LINE
  5
470
  8
002
 62
     3
 10
1512.847297
 20
177.670864
 30
0.0
 11
1512.847297
 21
135.607685
 31
0.0
  0
LINE
  5
471
  8
002
 62
    40
 10
1510.847297
 20
215.907685
 30
0.0
 11
1510.847297
 21
187.942864
 31
0.0
  0
LINE
  5
472
  8
002
 62
    40
 10
1510.847297
 20
179.942864
 30
0.0
 11
1510.847297
 21
145.607685
 31
0.0
  0
LINE
  5
473
  8
002
 62
     3
 10
1492.847297
 20
135.607685
 30
0.0
 11
1492.847297
 21
177.670864
 31
0.0
  0
LINE
  5
474
  8
002
 62
     3
 10
1492.847297
 20
185.670864
 30
0.0
 11
1492.847297
 21
215.907685
 31
0.0
  0
LINE
  5
475
  8
002
 62
    40
 10
1494.847297
 20
215.907685
 30
0.0
 11
1494.847297
 21
183.398864
 31
0.0
  0
LINE
  5
476
  8
002
 62
    40
 10
1494.847297
 20
175.398864
 30
0.0
 11
1494.847297
 21
145.607685
 31
0.0
  0
CIRCLE
  5
477
  8
001
 62
     3
 10
1317.871176
 20
615.907685
 30
0.0
 40
17.0
  0
CIRCLE
  5
478
  8
002
 62
     3
 10
1301.961276
 20
631.817585
 30
0.0
 40
4.25
  0
LINE
  5
479
  8
002
 62
     3
 10
1300.806576
 20
633.817585
 30
0.0
 11
1303.115976
 21
633.817585
 31
0.0
  0
LINE
  5
47A
  8
002
 62
     3
 10
1303.115976
 20
633.817585
 30
0.0
 11
1304.270676
 21
631.817585
 31
0.0
  0
LINE
  5
47B
  8
002
 62
     3
 10
1304.270676
 20
631.817585
 30
0.0
 11
1303.115976
 21
629.817585
 31
0.0
  0
LINE
  5
47C
  8
002
 62
     3
 10
1303.115976
 20
629.817585
 30
0.0
 11
1300.806576
 21
629.817585
 31
0.0
  0
LINE
  5
47D
  8
002
 62
     3
 10
1300.806576
 20
629.817585
 30
0.0
 11
1299.651876
 21
631.817585
 31
0.0
  0
LINE
  5
47E
  8
002
 62
     3
 10
1299.651876
 20
631.817585
 30
0.0
 11
1300.806576
 21
633.817585
 31
0.0
  0
CIRCLE
  5
47F
  8
002
 62
     3
 10
1317.871176
 20
615.907685
 30
0.0
 40
27.5
  0
CIRCLE
  5
480
  8
002
 62
     3
 10
1301.961276
 20
599.997785
 30
0.0
 40
4.25
  0
LINE
  5
481
  8
002
 62
     3
 10
1301.961276
 20
602.307185
 30
0.0
 11
1299.961276
 21
601.152485
 31
0.0
  0
LINE
  5
482
  8
002
 62
     3
 10
1299.961276
 20
601.152485
 30
0.0
 11
1299.961276
 21
598.843085
 31
0.0
  0
LINE
  5
483
  8
002
 62
     3
 10
1299.961276
 20
598.843085
 30
0.0
 11
1301.961276
 21
597.688385
 31
0.0
  0
LINE
  5
484
  8
002
 62
     3
 10
1301.961276
 20
597.688385
 30
0.0
 11
1303.961276
 21
598.843085
 31
0.0
  0
LINE
  5
485
  8
002
 62
     3
 10
1303.961276
 20
598.843085
 30
0.0
 11
1303.961276
 21
601.152485
 31
0.0
  0
LINE
  5
486
  8
002
 62
     3
 10
1303.961276
 20
601.152485
 30
0.0
 11
1301.961276
 21
602.307185
 31
0.0
  0
LINE
  5
487
  8
002
 62
     3
 10
1331.471676
 20
599.997785
 30
0.0
 11
1332.626376
 21
597.997785
 31
0.0
  0
LINE
  5
488
  8
002
 62
     3
 10
1332.626376
 20
597.997785
 30
0.0
 11
1334.935776
 21
597.997785
 31
0.0
  0
LINE
  5
489
  8
002
 62
     3
 10
1334.935776
 20
597.997785
 30
0.0
 11
1336.090476
 21
599.997785
 31
0.0
  0
LINE
  5
48A
  8
002
 62
     3
 10
1336.090476
 20
599.997785
 30
0.0
 11
1334.935776
 21
601.997785
 31
0.0
  0
LINE
  5
48B
  8
002
 62
     3
 10
1334.935776
 20
601.997785
 30
0.0
 11
1332.626376
 21
601.997785
 31
0.0
  0
LINE
  5
48C
  8
002
 62
     3
 10
1332.626376
 20
601.997785
 30
0.0
 11
1331.471676
 21
599.997785
 31
0.0
  0
CIRCLE
  5
48D
  8
002
 62
     3
 10
1333.781076
 20
599.997785
 30
0.0
 40
4.25
  0
LINE
  5
48E
  8
002
 62
     3
 10
1333.781076
 20
629.508185
 30
0.0
 11
1335.781076
 21
630.662885
 31
0.0
  0
LINE
  5
48F
  8
002
 62
     3
 10
1335.781076
 20
630.662885
 30
0.0
 11
1335.781076
 21
632.972285
 31
0.0
  0
LINE
  5
490
  8
002
 62
     3
 10
1335.781076
 20
632.972285
 30
0.0
 11
1333.781076
 21
634.126985
 31
0.0
  0
LINE
  5
491
  8
002
 62
     3
 10
1333.781076
 20
634.126985
 30
0.0
 11
1331.781076
 21
632.972285
 31
0.0
  0
LINE
  5
492
  8
002
 62
     3
 10
1331.781076
 20
632.972285
 30
0.0
 11
1331.781076
 21
630.662885
 31
0.0
  0
LINE
  5
493
  8
002
 62
     3
 10
1331.781076
 20
630.662885
 30
0.0
 11
1333.781076
 21
629.508185
 31
0.0
  0
LINE
  5
494
  8
002
  6
CENTER
 62
    40
 10
1307.624176
 20
605.660685
 30
0.0
 11
1296.854576
 21
594.891085
 31
0.0
  0
CIRCLE
  5
495
  8
002
  6
CENTER
 62
    40
 10
1317.871176
 20
615.907685
 30
0.0
 40
22.5
  0
LINE
  5
496
  8
002
  6
CENTER
 62
    40
 10
1338.887776
 20
594.891085
 30
0.0
 11
1328.118176
 21
605.660685
 31
0.0
  0
LINE
  5
497
  8
002
  6
CENTER
 62
    40
 10
1328.118176
 20
626.154685
 30
0.0
 11
1338.887776
 21
636.924285
 31
0.0
  0
LINE
  5
498
  8
002
  6
CENTER
 62
    40
 10
1296.854576
 20
636.924285
 30
0.0
 11
1307.624176
 21
626.154685
 31
0.0
  0
CIRCLE
  5
499
  8
002
 62
     3
 10
1333.781076
 20
631.817585
 30
0.0
 40
4.25
  0
LINE
  5
49A
  8
002
 62
     3
 10
1352.371176
 20
506.702185
 30
0.0
 11
1352.121176
 21
506.952185
 31
0.0
  0
LINE
  5
49B
  8
002
 62
     3
 10
1352.121176
 20
506.952185
 30
0.0
 11
1347.621176
 21
506.952185
 31
0.0
  0
LINE
  5
49C
  8
002
 62
     3
 10
1347.621176
 20
506.952185
 30
0.0
 11
1347.371176
 21
506.702185
 31
0.0
  0
LINE
  5
49D
  8
002
 62
     3
 10
1347.371176
 20
506.702185
 30
0.0
 11
1347.371176
 21
502.202185
 31
0.0
  0
LINE
  5
49E
  8
002
 62
     3
 10
1347.371176
 20
502.202185
 30
0.0
 11
1347.621176
 21
501.952185
 31
0.0
  0
LINE
  5
49F
  8
002
 62
     3
 10
1347.621176
 20
501.952185
 30
0.0
 11
1352.121176
 21
501.952185
 31
0.0
  0
LINE
  5
4A0
  8
002
 62
     3
 10
1352.121176
 20
501.952185
 30
0.0
 11
1352.371176
 21
502.202185
 31
0.0
  0
LINE
  5
4A1
  8
002
 62
     3
 10
1352.371176
 20
502.202185
 30
0.0
 11
1352.371176
 21
506.702185
 31
0.0
  0
ARC
  5
4A2
  8
002
 62
     3
 10
1352.171176
 20
502.152185
 30
0.0
 40
0.1999999999999318
 50
270.0
 51
0.0
  0
ARC
  5
4A3
  8
002
 62
     3
 10
1347.571176
 20
502.152185
 30
0.0
 40
0.1999999999999318
 50
180.0
 51
270.0
  0
ARC
  5
4A4
  8
002
 62
     3
 10
1349.871176
 20
497.452185
 30
0.0
 40
7.500030347271937
 50
109.471139
 51
70.528861
  0
LINE
  5
4A5
  8
002
  6
CENTER
 62
    40
 10
1349.871176
 20
487.328885
 30
0.0
 11
1349.871176
 21
509.263885
 31
0.0
  0
LINE
  5
4A6
  8
002
  6
CENTER
 62
    40
 10
1339.072276
 20
497.452185
 30
0.0
 11
1361.605576
 21
497.452185
 31
0.0
  0
LINE
  5
4A7
  8
002
 62
     3
 10
1903.476076
 20
320.907685
 30
0.0
 11
1903.476076
 21
349.407685
 31
0.0
  0
LINE
  5
4A8
  8
002
 62
     3
 10
1903.476076
 20
357.407685
 30
0.0
 11
1903.476076
 21
405.907685
 31
0.0
  0
LINE
  5
4A9
  8
002
 62
     3
 10
1871.476076
 20
405.907685
 30
0.0
 11
1871.476076
 21
357.407685
 31
0.0
  0
LINE
  5
4AA
  8
002
 62
     3
 10
1871.476076
 20
349.407685
 30
0.0
 11
1871.476076
 21
320.907685
 31
0.0
  0
POLYLINE
  5
4AB
  8
002
 62
     3
 66
     1
 10
0.0
 20
0.0
 30
0.0
  0
VERTEX
  5
4AD
  8
002
 62
     3
 10
1871.476076
 20
349.407685
 30
0.0
  0
VERTEX
  5
4AE
  8
002
 62
     3
 10
1873.476076
 20
347.938935
 30
0.0
  0
VERTEX
  5
4AF
  8
002
 62
     3
 10
1875.476076
 20
346.657685
 30
0.0
  0
VERTEX
  5
4B0
  8
002
 62
     3
 10
1877.476076
 20
345.751435
 30
0.0
  0
VERTEX
  5
4B1
  8
002
 62
     3
 10
1879.476076
 20
345.407685
 30
0.0
  0
VERTEX
  5
4B2
  8
002
 62
     3
 10
1881.476076
 20
345.751435
 30
0.0
  0
VERTEX
  5
4B3
  8
002
 62
     3
 10
1883.476076
 20
346.657685
 30
0.0
  0
VERTEX
  5
4B4
  8
002
 62
     3
 10
1885.476076
 20
347.938935
 30
0.0
  0
VERTEX
  5
4B5
  8
002
 62
     3
 10
1887.476076
 20
349.407685
 30
0.0
  0
VERTEX
  5
4B6
  8
002
 62
     3
 10
1889.476076
 20
350.876435
 30
0.0
  0
VERTEX
  5
4B7
  8
002
 62
     3
 10
1891.476076
 20
352.157685
 30
0.0
  0
VERTEX
  5
4B8
  8
002
 62
     3
 10
1893.476076
 20
353.063935
 30
0.0
  0
VERTEX
  5
4B9
  8
002
 62
     3
 10
1895.476076
 20
353.407685
 30
0.0
  0
VERTEX
  5
4BA
  8
002
 62
     3
 10
1897.476076
 20
353.063935
 30
0.0
  0
VERTEX
  5
4BB
  8
002
 62
     3
 10
1899.476076
 20
352.157685
 30
0.0
  0
VERTEX
  5
4BC
  8
002
 62
     3
 10
1901.476076
 20
350.876435
 30
0.0
  0
VERTEX
  5
4BD
  8
002
 62
     3
 10
1903.476076
 20
349.407685
 30
0.0
  0
SEQEND
  5
4AC
  8
002
 62
     3
  0
POLYLINE
  5
4BE
  8
002
 62
     3
 66
     1
 10
0.0
 20
0.0
 30
0.0
  0
VERTEX
  5
4C0
  8
002
 62
     3
 10
1871.476076
 20
357.407685
 30
0.0
  0
VERTEX
  5
4C1
  8
002
 62
     3
 10
1873.476076
 20
355.938935
 30
0.0
  0
VERTEX
  5
4C2
  8
002
 62
     3
 10
1875.476076
 20
354.657685
 30
0.0
  0
VERTEX
  5
4C3
  8
002
 62
     3
 10
1877.476076
 20
353.751435
 30
0.0
  0
VERTEX
  5
4C4
  8
002
 62
     3
 10
1879.476076
 20
353.407685
 30
0.0
  0
VERTEX
  5
4C5
  8
002
 62
     3
 10
1881.476076
 20
353.751435
 30
0.0
  0
VERTEX
  5
4C6
  8
002
 62
     3
 10
1883.476076
 20
354.657685
 30
0.0
  0
VERTEX
  5
4C7
  8
002
 62
     3
 10
1885.476076
 20
355.938935
 30
0.0
  0
VERTEX
  5
4C8
  8
002
 62
     3
 10
1887.476076
 20
357.407685
 30
0.0
  0
VERTEX
  5
4C9
  8
002
 62
     3
 10
1889.476076
 20
358.876435
 30
0.0
  0
VERTEX
  5
4CA
  8
002
 62
     3
 10
1891.476076
 20
360.157685
 30
0.0
  0
VERTEX
  5
4CB
  8
002
 62
     3
 10
1893.476076
 20
361.063935
 30
0.0
  0
VERTEX
  5
4CC
  8
002
 62
     3
 10
1895.476076
 20
361.407685
 30
0.0
  0
VERTEX
  5
4CD
  8
002
 62
     3
 10
1897.476076
 20
361.063935
 30
0.0
  0
VERTEX
  5
4CE
  8
002
 62
     3
 10
1899.476076
 20
360.157685
 30
0.0
  0
VERTEX
  5
4CF
  8
002
 62
     3
 10
1901.476076
 20
358.876435
 30
0.0
  0
VERTEX
  5
4D0
  8
002
 62
     3
 10
1903.476076
 20
357.407685
 30
0.0
  0
SEQEND
  5
4BF
  8
002
 62
     3
  0
CIRCLE
  5
4D1
  8
002
 62
     3
 10
338.681663
 20
521.954128
 30
0.0
 40
8.0
  0
CIRCLE
  5
4D2
  8
002
 62
     3
 10
338.681663
 20
591.954128
 30
0.0
 40
8.0
  0
CIRCLE
  5
4D3
  8
002
 62
     3
 10
243.681663
 20
591.954128
 30
0.0
 40
8.0
  0
CIRCLE
  5
4D4
  8
002
 62
     3
 10
243.681663
 20
521.954128
 30
0.0
 40
8.0
  0
LINE
  5
4D5
  8
002
 62
     3
 10
334.681663
 20
529.954128
 30
0.0
 11
338.681663
 21
529.954128
 31
0.0
  0
LINE
  5
4D6
  8
002
 62
     3
 10
334.681663
 20
513.954128
 30
0.0
 11
338.681663
 21
513.954128
 31
0.0
  0
LINE
  5
4D7
  8
002
 62
     3
 10
334.681663
 20
599.954128
 30
0.0
 11
338.681663
 21
599.954128
 31
0.0
  0
LINE
  5
4D8
  8
002
 62
     3
 10
334.681663
 20
583.954128
 30
0.0
 11
338.681663
 21
583.954128
 31
0.0
  0
LINE
  5
4D9
  8
002
 62
     3
 10
332.681663
 20
581.954128
 30
0.0
 11
332.681663
 21
531.954128
 31
0.0
  0
ARC
  5
4DA
  8
002
 62
     3
 10
278.681663
 20
556.954128
 30
0.0
 40
36.00000000000006
 50
270.0
 51
90.0
  0
ARC
  5
4DB
  8
002
 62
     3
 10
278.681663
 20
602.954128
 30
0.0
 40
10.0
 50
270.0
 51
0.0
  0
ARC
  5
4DC
  8
002
 62
     3
 10
278.681663
 20
510.954128
 30
0.0
 40
10.0
 50
360.0
 51
90.0
  0
ARC
  5
4DD
  8
002
 62
     3
 10
278.681663
 20
556.954128
 30
0.0
 40
36.00000000000006
 50
90.0
 51
102.306598
  0
ARC
  5
4DE
  8
002
 62
     3
 10
219.08338
 20
569.955845
 30
0.0
 40
25.0
 50
347.693402
 51
41.806316
  0
ARC
  5
4DF
  8
002
 62
     3
 10
265.679946
 20
616.552411
 30
0.0
 40
25.0
 50
228.193684
 51
282.306598
  0
ARC
  5
4E0
  8
002
 62
     3
 10
219.08338
 20
543.952411
 30
0.0
 40
25.0
 50
318.193684
 51
12.306598
  0
ARC
  5
4E1
  8
002
 62
     3
 10
265.679946
 20
497.355845
 30
0.0
 40
25.0
 50
77.693402
 51
131.806316
  0
ARC
  5
4E2
  8
002
 62
     3
 10
278.681663
 20
556.954128
 30
0.0
 40
36.00000000000006
 50
167.693402
 51
192.306598
  0
ARC
  5
4E3
  8
002
 62
     3
 10
278.681663
 20
556.954128
 30
0.0
 40
36.00000000000006
 50
257.693402
 51
270.0
  0
LINE
  5
4E4
  8
002
  6
CENTER
 62
    40
 10
338.681663
 20
581.954128
 30
0.0
 11
338.681663
 21
601.954128
 31
0.0
  0
LINE
  5
4E5
  8
002
  6
CENTER
 62
    40
 10
348.681663
 20
591.954128
 30
0.0
 11
328.681663
 21
591.954128
 31
0.0
  0
LINE
  5
4E6
  8
002
  6
CENTER
 62
    40
 10
338.681663
 20
511.954128
 30
0.0
 11
338.681663
 21
531.954128
 31
0.0
  0
LINE
  5
4E7
  8
002
  6
CENTER
 62
    40
 10
348.681663
 20
521.954128
 30
0.0
 11
328.681663
 21
521.954128
 31
0.0
  0
LINE
  5
4E8
  8
002
  6
CENTER
 62
    40
 10
243.681663
 20
511.954128
 30
0.0
 11
243.681663
 21
531.954128
 31
0.0
  0
LINE
  5
4E9
  8
002
  6
CENTER
 62
    40
 10
253.681663
 20
521.954128
 30
0.0
 11
233.681663
 21
521.954128
 31
0.0
  0
LINE
  5
4EA
  8
002
  6
CENTER
 62
    40
 10
243.681663
 20
581.954128
 30
0.0
 11
243.681663
 21
601.954128
 31
0.0
  0
LINE
  5
4EB
  8
002
  6
CENTER
 62
    40
 10
253.681663
 20
591.954128
 30
0.0
 11
233.681663
 21
591.954128
 31
0.0
  0
LINE
  5
4EC
  8
002
  6
CENTER
 62
    40
 10
239.837127
 20
556.954128
 30
0.0
 11
339.495713
 21
556.954128
 31
0.0
  0
ARC
  5
4ED
  8
002
 62
     3
 10
334.681663
 20
531.954128
 30
0.0
 40
2.0
 50
180.0
 51
270.0
  0
ARC
  5
4EE
  8
002
 62
     3
 10
334.681663
 20
511.954128
 30
0.0
 40
2.0
 50
90.0
 51
180.0
  0
ARC
  5
4EF
  8
002
 62
     3
 10
334.681663
 20
581.954128
 30
0.0
 40
2.0
 50
90.0
 51
180.0
  0
ARC
  5
4F0
  8
002
 62
     3
 10
334.681663
 20
601.954128
 30
0.0
 40
2.0
 50
180.0
 51
270.0
  0
CIRCLE
  5
4F1
  8
002
 62
    40
 10
278.681663
 20
556.954128
 30
0.0
 40
31.0
  0
CIRCLE
  5
4F2
  8
002
 62
    40
 10
278.681663
 20
556.954128
 30
0.0
 40
29.9175
  0
LINE
  5
4F3
  8
002
 62
     3
 10
288.681663
 20
603.954128
 30
0.0
 11
332.681663
 21
603.954128
 31
0.0
  0
LINE
  5
4F4
  8
002
 62
     3
 10
288.631538
 20
509.954128
 30
0.0
 11
332.681663
 21
509.954128
 31
0.0
  0
LINE
  5
4F5
  8
002
 62
     3
 10
288.681663
 20
602.954128
 30
0.0
 11
288.681663
 21
603.954128
 31
0.0
  0
LINE
  5
4F6
  8
002
 62
     3
 10
332.681663
 20
601.954128
 30
0.0
 11
332.681663
 21
603.954128
 31
0.0
  0
LINE
  5
4F7
  8
002
 62
     3
 10
332.681663
 20
511.954128
 30
0.0
 11
332.681663
 21
509.954128
 31
0.0
  0
LINE
  5
4F8
  8
002
 62
     3
 10
288.681663
 20
510.954128
 30
0.0
 11
288.681663
 21
509.954128
 31
0.0
  0
LINE
  5
4F9
  8
002
 62
     3
 10
303.181663
 20
603.954128
 30
0.0
 11
303.181663
 21
630.954128
 31
0.0
  0
LINE
  5
4FA
  8
002
 62
     3
 10
303.181663
 20
630.954128
 30
0.0
 11
304.181663
 21
631.954128
 31
0.0
  0
LINE
  5
4FB
  8
002
 62
     3
 10
304.181663
 20
631.954128
 30
0.0
 11
317.181663
 21
631.954128
 31
0.0
  0
LINE
  5
4FC
  8
002
 62
     3
 10
317.181663
 20
631.954128
 30
0.0
 11
318.181663
 21
630.954128
 31
0.0
  0
LINE
  5
4FD
  8
002
 62
     3
 10
318.181663
 20
630.954128
 30
0.0
 11
313.181663
 21
630.954128
 31
0.0
  0
LINE
  5
4FE
  8
002
 62
     3
 10
313.181663
 20
631.954128
 30
0.0
 11
313.181663
 21
609.954128
 31
0.0
  0
LINE
  5
4FF
  8
002
 62
     3
 10
313.181663
 20
609.954128
 30
0.0
 11
308.181663
 21
609.954128
 31
0.0
  0
LINE
  5
500
  8
002
 62
     3
 10
308.181663
 20
609.954128
 30
0.0
 11
308.181663
 21
631.954128
 31
0.0
  0
LINE
  5
501
  8
002
 62
     3
 10
308.181663
 20
630.954128
 30
0.0
 11
303.181663
 21
630.954128
 31
0.0
  0
LINE
  5
502
  8
002
 62
     3
 10
318.181663
 20
630.954128
 30
0.0
 11
318.181663
 21
603.954128
 31
0.0
  0
ARC
  5
503
  8
002
 62
     3
 10
310.681663
 20
609.954128
 30
0.0
 40
2.5
 50
180.0
 51
0.0
  0
LINE
  5
504
  8
002
 62
     3
 10
318.181663
 20
509.954128
 30
0.0
 11
318.181663
 21
482.954128
 31
0.0
  0
LINE
  5
505
  8
002
 62
     3
 10
318.181663
 20
482.954128
 30
0.0
 11
317.181663
 21
481.954128
 31
0.0
  0
LINE
  5
506
  8
002
 62
     3
 10
317.181663
 20
481.954128
 30
0.0
 11
304.181663
 21
481.954128
 31
0.0
  0
LINE
  5
507
  8
002
 62
     3
 10
304.181663
 20
481.954128
 30
0.0
 11
303.181663
 21
482.954128
 31
0.0
  0
LINE
  5
508
  8
002
 62
     3
 10
303.181663
 20
482.954128
 30
0.0
 11
303.181663
 21
509.954128
 31
0.0
  0
LINE
  5
509
  8
002
 62
     3
 10
308.181663
 20
503.954128
 30
0.0
 11
313.181663
 21
503.954128
 31
0.0
  0
LINE
  5
50A
  8
002
 62
     3
 10
313.181663
 20
503.954128
 30
0.0
 11
313.181663
 21
481.954128
 31
0.0
  0
LINE
  5
50B
  8
002
 62
     3
 10
313.181663
 20
482.954128
 30
0.0
 11
318.181663
 21
482.954128
 31
0.0
  0
LINE
  5
50C
  8
002
 62
     3
 10
308.181663
 20
482.954128
 30
0.0
 11
303.181663
 21
482.954128
 31
0.0
  0
LINE
  5
50D
  8
002
 62
     3
 10
308.181663
 20
481.954128
 30
0.0
 11
308.181663
 21
503.954128
 31
0.0
  0
ARC
  5
50E
  8
002
 62
     3
 10
310.681663
 20
503.954128
 30
0.0
 40
2.5
 50
0.0
 51
180.0
  0
LINE
  5
50F
  8
002
  6
CENTER
 62
    40
 10
278.681663
 20
597.323912
 30
0.0
 11
278.681663
 21
513.479075
 31
0.0
  0
LINE
  5
510
  8
002
  6
CENTER
 62
    40
 10
310.681663
 20
635.337069
 30
0.0
 11
310.681663
 21
477.491635
 31
0.0
  0
CIRCLE
  5
511
  8
002
 62
     3
 10
278.681663
 20
556.954128
 30
0.0
 40
10.0
  0
CIRCLE
  5
512
  8
002
 62
     3
 10
278.681663
 20
556.954128
 30
0.0
 40
7.0
  0
CIRCLE
  5
513
  8
002
 62
    40
 10
278.681663
 20
556.954128
 30
0.0
 40
6.25
  0
LINE
  5
514
  8
002
 62
     3
 10
158.484663
 20
275.907685
 30
0.0
 11
72.484663
 21
275.907685
 31
0.0
  0
LINE
  5
515
  8
002
 62
     3
 10
68.484663
 20
267.907685
 30
0.0
 11
71.574671
 21
267.907685
 31
0.0
  0
LINE
  5
516
  8
002
 62
     3
 10
68.484663
 20
223.907685
 30
0.0
 11
71.574671
 21
223.907685
 31
0.0
  0
LINE
  5
517
  8
002
 62
     3
 10
162.484663
 20
223.907685
 30
0.0
 11
159.394655
 21
223.907685
 31
0.0
  0
LINE
  5
518
  8
002
 62
     3
 10
162.484663
 20
267.907685
 30
0.0
 11
159.394655
 21
267.907685
 31
0.0
  0
LINE
  5
519
  8
002
 62
     3
 10
68.484663
 20
238.407685
 30
0.0
 11
41.484623
 21
238.407685
 31
0.0
  0
LINE
  5
51A
  8
002
 62
     3
 10
41.484623
 20
238.407685
 30
0.0
 11
40.484623
 21
239.407685
 31
0.0
  0
LINE
  5
51B
  8
002
 62
     3
 10
40.484623
 20
239.407685
 30
0.0
 11
40.484623
 21
255.407685
 31
0.0
  0
LINE
  5
51C
  8
002
 62
     3
 10
40.484623
 20
255.407685
 30
0.0
 11
62.484663
 21
255.407685
 31
0.0
  0
LINE
  5
51D
  8
002
 62
     3
 10
62.484663
 20
255.407685
 30
0.0
 11
62.484663
 21
252.978785
 31
0.0
  0
LINE
  5
51E
  8
002
 62
     3
 10
62.484663
 20
252.978785
 30
0.0
 11
64.984663
 21
253.407685
 31
0.0
  0
LINE
  5
51F
  8
002
 62
     3
 10
64.984663
 20
253.407685
 30
0.0
 11
68.484663
 21
253.407685
 31
0.0
  0
LINE
  5
520
  8
002
 62
     3
 10
162.484663
 20
253.407685
 30
0.0
 11
165.984663
 21
253.407685
 31
0.0
  0
LINE
  5
521
  8
002
 62
     3
 10
165.984663
 20
253.407685
 30
0.0
 11
168.484663
 21
252.978785
 31
0.0
  0
LINE
  5
522
  8
002
 62
     3
 10
168.484663
 20
252.978785
 30
0.0
 11
168.484663
 21
255.407685
 31
0.0
  0
LINE
  5
523
  8
002
 62
     3
 10
168.484663
 20
255.407685
 30
0.0
 11
190.484663
 21
255.407685
 31
0.0
  0
LINE
  5
524
  8
002
 62
     3
 10
190.484663
 20
255.407685
 30
0.0
 11
190.484663
 21
239.407685
 31
0.0
  0
LINE
  5
525
  8
002
 62
     3
 10
190.484663
 20
239.407685
 30
0.0
 11
189.484663
 21
238.407685
 31
0.0
  0
LINE
  5
526
  8
002
 62
     3
 10
189.484663
 20
238.407685
 30
0.0
 11
162.484663
 21
238.407685
 31
0.0
  0
LINE
  5
527
  8
002
 62
     3
 10
62.484663
 20
252.978785
 30
0.0
 11
41.055693
 21
252.978785
 31
0.0
  0
LINE
  5
528
  8
002
 62
     3
 10
41.055693
 20
252.978785
 30
0.0
 11
40.484623
 21
252.407685
 31
0.0
  0
LINE
  5
529
  8
002
 62
     3
 10
41.484623
 20
252.978785
 30
0.0
 11
41.484623
 21
238.407685
 31
0.0
  0
LINE
  5
52A
  8
002
 62
     3
 10
168.484663
 20
252.978785
 30
0.0
 11
189.913563
 21
252.978785
 31
0.0
  0
LINE
  5
52B
  8
002
 62
     3
 10
189.913563
 20
252.978785
 30
0.0
 11
190.484663
 21
252.407685
 31
0.0
  0
LINE
  5
52C
  8
002
 62
     3
 10
189.484663
 20
252.978785
 30
0.0
 11
189.484663
 21
238.407685
 31
0.0
  0
LINE
  5
52D
  8
002
 62
     3
 10
158.484663
 20
215.907685
 30
0.0
 11
158.484663
 21
275.907685
 31
0.0
  0
LINE
  5
52E
  8
002
 62
     3
 10
142.484663
 20
221.907685
 30
0.0
 11
142.484663
 21
215.907685
 31
0.0
  0
LINE
  5
52F
  8
002
 62
     3
 10
145.151746
 20
221.907685
 30
0.0
 11
145.151746
 21
275.907685
 31
0.0
  0
LINE
  5
530
  8
002
 62
     3
 10
88.484663
 20
215.907685
 30
0.0
 11
88.484663
 21
221.907685
 31
0.0
  0
LINE
  5
531
  8
002
 62
     3
 10
72.484663
 20
275.907685
 30
0.0
 11
72.484663
 21
215.907685
 31
0.0
  0
LINE
  5
532
  8
002
 62
     3
 10
85.81758
 20
221.907685
 30
0.0
 11
85.81758
 21
275.907685
 31
0.0
  0
POLYLINE
  5
533
  8
002
 62
     3
 66
     1
 10
0.0
 20
0.0
 30
0.0
  0
VERTEX
  5
535
  8
002
 62
     3
 10
145.151746
 20
275.907685
 30
0.0
  0
VERTEX
  5
536
  8
002
 62
     3
 10
145.146713
 20
275.903807
 30
0.0
  0
VERTEX
  5
537
  8
002
 62
     3
 10
145.14168
 20
275.899929
 30
0.0
  0
VERTEX
  5
538
  8
002
 62
     3
 10
144.81873
 20
275.653613
 30
0.0
  0
VERTEX
  5
539
  8
002
 62
     3
 10
144.492294
 20
275.41195
 30
0.0
  0
VERTEX
  5
53A
  8
002
 62
     3
 10
144.156653
 20
275.174394
 30
0.0
  0
VERTEX
  5
53B
  8
002
 62
     3
 10
143.814467
 20
274.946264
 30
0.0
  0
VERTEX
  5
53C
  8
002
 62
     3
 10
143.456663
 20
274.725573
 30
0.0
  0
VERTEX
  5
53D
  8
002
 62
     3
 10
143.089259
 20
274.521595
 30
0.0
  0
VERTEX
  5
53E
  8
002
 62
     3
 10
142.709144
 20
274.33766
 30
0.0
  0
VERTEX
  5
53F
  8
002
 62
     3
 10
142.317795
 20
274.177777
 30
0.0
  0
VERTEX
  5
540
  8
002
 62
     3
 10
141.982556
 20
274.066151
 30
0.0
  0
VERTEX
  5
541
  8
002
 62
     3
 10
141.640021
 20
273.983737
 30
0.0
  0
VERTEX
  5
542
  8
002
 62
     3
 10
141.280133
 20
273.935109
 30
0.0
  0
VERTEX
  5
543
  8
002
 62
     3
 10
140.916692
 20
273.907685
 30
0.0
  0
SEQEND
  5
534
  8
002
 62
     3
  0
POLYLINE
  5
544
  8
002
 62
     3
 66
     1
 10
0.0
 20
0.0
 30
0.0
  0
VERTEX
  5
546
  8
002
 62
     3
 10
140.916692
 20
223.907685
 30
0.0
  0
VERTEX
  5
547
  8
002
 62
     3
 10
141.272008
 20
223.881406
 30
0.0
  0
VERTEX
  5
548
  8
002
 62
     3
 10
141.623991
 20
223.834863
 30
0.0
  0
VERTEX
  5
549
  8
002
 62
     3
 10
141.974688
 20
223.751517
 30
0.0
  0
VERTEX
  5
54A
  8
002
 62
     3
 10
142.317795
 20
223.637592
 30
0.0
  0
VERTEX
  5
54B
  8
002
 62
     3
 10
142.70277
 20
223.480575
 30
0.0
  0
VERTEX
  5
54C
  8
002
 62
     3
 10
143.076852
 20
223.300223
 30
0.0
  0
VERTEX
  5
54D
  8
002
 62
     3
 10
143.438618
 20
223.100346
 30
0.0
  0
VERTEX
  5
54E
  8
002
 62
     3
 10
143.79105
 20
222.884124
 30
0.0
  0
VERTEX
  5
54F
  8
002
 62
     3
 10
144.139521
 20
222.652768
 30
0.0
  0
VERTEX
  5
550
  8
002
 62
     3
 10
144.481146
 20
222.411514
 30
0.0
  0
VERTEX
  5
551
  8
002
 62
     3
 10
144.813229
 20
222.165901
 30
0.0
  0
VERTEX
  5
552
  8
002
 62
     3
 10
145.14168
 20
221.91544
 30
0.0
  0
VERTEX
  5
553
  8
002
 62
     3
 10
145.146713
 20
221.911562
 30
0.0
  0
VERTEX
  5
554
  8
002
 62
     3
 10
145.151746
 20
221.907685
 30
0.0
  0
SEQEND
  5
545
  8
002
 62
     3
  0
ARC
  5
555
  8
002
 62
     3
 10
140.484663
 20
221.907685
 30
0.0
 40
2.0
 50
0.0
 51
90.0
  0
ARC
  5
556
  8
002
 62
     3
 10
140.484663
 20
275.907685
 30
0.0
 40
2.0
 50
270.0
 51
360.0
  0
ARC
  5
557
  8
002
 62
     3
 10
90.484663
 20
275.907685
 30
0.0
 40
2.0
 50
180.0
 51
270.0
  0
POLYLINE
  5
558
  8
002
 62
     3
 66
     1
 10
0.0
 20
0.0
 30
0.0
  0
VERTEX
  5
55A
  8
002
 62
     3
 10
90.052635
 20
273.907685
 30
0.0
  0
VERTEX
  5
55B
  8
002
 62
     3
 10
89.697319
 20
273.933963
 30
0.0
  0
VERTEX
  5
55C
  8
002
 62
     3
 10
89.345335
 20
273.980506
 30
0.0
  0
VERTEX
  5
55D
  8
002
 62
     3
 10
88.994638
 20
274.063852
 30
0.0
  0
VERTEX
  5
55E
  8
002
 62
     3
 10
88.651532
 20
274.177777
 30
0.0
  0
VERTEX
  5
55F
  8
002
 62
     3
 10
88.266556
 20
274.334794
 30
0.0
  0
VERTEX
  5
560
  8
002
 62
     3
 10
87.892475
 20
274.515146
 30
0.0
  0
VERTEX
  5
561
  8
002
 62
     3
 10
87.530708
 20
274.715023
 30
0.0
  0
VERTEX
  5
562
  8
002
 62
     3
 10
87.178276
 20
274.931245
 30
0.0
  0
VERTEX
  5
563
  8
002
 62
     3
 10
86.829805
 20
275.162601
 30
0.0
  0
VERTEX
  5
564
  8
002
 62
     3
 10
86.48818
 20
275.403855
 30
0.0
  0
VERTEX
  5
565
  8
002
 62
     3
 10
86.156097
 20
275.649468
 30
0.0
  0
VERTEX
  5
566
  8
002
 62
     3
 10
85.827646
 20
275.899929
 30
0.0
  0
VERTEX
  5
567
  8
002
 62
     3
 10
85.822613
 20
275.903807
 30
0.0
  0
VERTEX
  5
568
  8
002
 62
     3
 10
85.81758
 20
275.907685
 30
0.0
  0
SEQEND
  5
559
  8
002
 62
     3
  0
ARC
  5
569
  8
002
 62
     3
 10
90.484663
 20
221.907685
 30
0.0
 40
2.0
 50
90.0
 51
180.0
  0
POLYLINE
  5
56A
  8
002
 62
     3
 66
     1
 10
0.0
 20
0.0
 30
0.0
  0
VERTEX
  5
56C
  8
002
 62
     3
 10
85.81758
 20
221.907685
 30
0.0
  0
VERTEX
  5
56D
  8
002
 62
     3
 10
85.822613
 20
221.911562
 30
0.0
  0
VERTEX
  5
56E
  8
002
 62
     3
 10
85.827646
 20
221.91544
 30
0.0
  0
VERTEX
  5
56F
  8
002
 62
     3
 10
86.150596
 20
222.161756
 30
0.0
  0
VERTEX
  5
570
  8
002
 62
     3
 10
86.477033
 20
222.403419
 30
0.0
  0
VERTEX
  5
571
  8
002
 62
     3
 10
86.812673
 20
222.640975
 30
0.0
  0
VERTEX
  5
572
  8
002
 62
     3
 10
87.154859
 20
222.869106
 30
0.0
  0
VERTEX
  5
573
  8
002
 62
     3
 10
87.512663
 20
223.089796
 30
0.0
  0
VERTEX
  5
574
  8
002
 62
     3
 10
87.880068
 20
223.293774
 30
0.0
  0
VERTEX
  5
575
  8
002
 62
     3
 10
88.260182
 20
223.477709
 30
0.0
  0
VERTEX
  5
576
  8
002
 62
     3
 10
88.651532
 20
223.637592
 30
0.0
  0
VERTEX
  5
577
  8
002
 62
     3
 10
88.986771
 20
223.749218
 30
0.0
  0
VERTEX
  5
578
  8
002
 62
     3
 10
89.329306
 20
223.831632
 30
0.0
  0
VERTEX
  5
579
  8
002
 62
     3
 10
89.689193
 20
223.88026
 30
0.0
  0
VERTEX
  5
57A
  8
002
 62
     3
 10
90.052635
 20
223.907685
 30
0.0
  0
SEQEND
  5
56B
  8
002
 62
     3
  0
LINE
  5
57B
  8
002
 62
     3
 10
140.916692
 20
223.907685
 30
0.0
 11
90.052635
 21
223.907685
 31
0.0
  0
LINE
  5
57C
  8
002
 62
     3
 10
140.916692
 20
273.907685
 30
0.0
 11
90.052635
 21
273.907685
 31
0.0
  0
LINE
  5
57D
  8
002
 62
     3
 10
158.484663
 20
215.907685
 30
0.0
 11
72.484663
 21
215.907685
 31
0.0
  0
LINE
  5
57E
  8
002
 62
     3
 10
162.484663
 20
267.907685
 30
0.0
 11
162.484663
 21
223.907685
 31
0.0
  0
LINE
  5
57F
  8
002
 62
     3
 10
68.484663
 20
267.907685
 30
0.0
 11
68.484663
 21
223.907685
 31
0.0
  0
POLYLINE
  5
580
  8
002
 62
     3
 66
     1
 10
0.0
 20
0.0
 30
0.0
  0
VERTEX
  5
582
  8
002
 62
     3
 10
159.394655
 20
223.907685
 30
0.0
  0
VERTEX
  5
583
  8
002
 62
     3
 10
159.272666
 20
223.896757
 30
0.0
  0
VERTEX
  5
584
  8
002
 62
     3
 10
159.153144
 20
223.874725
 30
0.0
  0
VERTEX
  5
585
  8
002
 62
     3
 10
159.045195
 20
223.835981
 30
0.0
  0
VERTEX
  5
586
  8
002
 62
     3
 10
158.943953
 20
223.780722
 30
0.0
  0
VERTEX
  5
587
  8
002
 62
     3
 10
158.828586
 20
223.691555
 30
0.0
  0
VERTEX
  5
588
  8
002
 62
     3
 10
158.729678
 20
223.584776
 30
0.0
  0
VERTEX
  5
589
  8
002
 62
     3
 10
158.647772
 20
223.462886
 30
0.0
  0
VERTEX
  5
58A
  8
002
 62
     3
 10
158.582641
 20
223.330883
 30
0.0
  0
VERTEX
  5
58B
  8
002
 62
     3
 10
158.539878
 20
223.214496
 30
0.0
  0
VERTEX
  5
58C
  8
002
 62
     3
 10
158.509852
 20
223.094653
 30
0.0
  0
VERTEX
  5
58D
  8
002
 62
     3
 10
158.494094
 20
222.98239
 30
0.0
  0
VERTEX
  5
58E
  8
002
 62
     3
 10
158.484663
 20
222.869051
 30
0.0
  0
SEQEND
  5
581
  8
002
 62
     3
  0
POLYLINE
  5
58F
  8
002
 62
     3
 66
     1
 10
0.0
 20
0.0
 30
0.0
  0
VERTEX
  5
591
  8
002
 62
     3
 10
158.484663
 20
268.946318
 30
0.0
  0
VERTEX
  5
592
  8
002
 62
     3
 10
158.506078
 20
268.768722
 30
0.0
  0
VERTEX
  5
593
  8
002
 62
     3
 10
158.542655
 20
268.594452
 30
0.0
  0
VERTEX
  5
594
  8
002
 62
     3
 10
158.615422
 20
268.409357
 30
0.0
  0
VERTEX
  5
595
  8
002
 62
     3
 10
158.721715
 20
268.240867
 30
0.0
  0
VERTEX
  5
596
  8
002
 62
     3
 10
158.796652
 20
268.154773
 30
0.0
  0
VERTEX
  5
597
  8
002
 62
     3
 10
158.88165
 20
268.078549
 30
0.0
  0
VERTEX
  5
598
  8
002
 62
     3
 10
158.982779
 20
268.010655
 30
0.0
  0
VERTEX
  5
599
  8
002
 62
     3
 10
159.092947
 20
267.960453
 30
0.0
  0
VERTEX
  5
59A
  8
002
 62
     3
 10
159.241235
 20
267.925089
 30
0.0
  0
VERTEX
  5
59B
  8
002
 62
     3
 10
159.394655
 20
267.907685
 30
0.0
  0
SEQEND
  5
590
  8
002
 62
     3
  0
POLYLINE
  5
59C
  8
002
 62
     3
 66
     1
 10
0.0
 20
0.0
 30
0.0
  0
VERTEX
  5
59E
  8
002
 62
     3
 10
71.574671
 20
267.907685
 30
0.0
  0
VERTEX
  5
59F
  8
002
 62
     3
 10
71.69666
 20
267.918612
 30
0.0
  0
VERTEX
  5
5A0
  8
002
 62
     3
 10
71.816183
 20
267.940644
 30
0.0
  0
VERTEX
  5
5A1
  8
002
 62
     3
 10
71.924132
 20
267.979388
 30
0.0
  0
VERTEX
  5
5A2
  8
002
 62
     3
 10
72.025373
 20
268.034647
 30
0.0
  0
VERTEX
  5
5A3
  8
002
 62
     3
 10
72.14074
 20
268.123814
 30
0.0
  0
VERTEX
  5
5A4
  8
002
 62
     3
 10
72.239648
 20
268.230593
 30
0.0
  0
VERTEX
  5
5A5
  8
002
 62
     3
 10
72.321554
 20
268.352483
 30
0.0
  0
VERTEX
  5
5A6
  8
002
 62
     3
 10
72.386685
 20
268.484486
 30
0.0
  0
VERTEX
  5
5A7
  8
002
 62
     3
 10
72.429449
 20
268.600873
 30
0.0
  0
VERTEX
  5
5A8
  8
002
 62
     3
 10
72.459475
 20
268.720716
 30
0.0
  0
VERTEX
  5
5A9
  8
002
 62
     3
 10
72.475233
 20
268.832979
 30
0.0
  0
VERTEX
  5
5AA
  8
002
 62
     3
 10
72.484663
 20
268.946318
 30
0.0
  0
SEQEND
  5
59D
  8
002
 62
     3
  0
POLYLINE
  5
5AB
  8
002
 62
     3
 66
     1
 10
0.0
 20
0.0
 30
0.0
  0
VERTEX
  5
5AD
  8
002
 62
     3
 10
72.484663
 20
222.869051
 30
0.0
  0
VERTEX
  5
5AE
  8
002
 62
     3
 10
72.463248
 20
223.046647
 30
0.0
  0
VERTEX
  5
5AF
  8
002
 62
     3
 10
72.426671
 20
223.220917
 30
0.0
  0
VERTEX
  5
5B0
  8
002
 62
     3
 10
72.353905
 20
223.406012
 30
0.0
  0
VERTEX
  5
5B1
  8
002
 62
     3
 10
72.247611
 20
223.574503
 30
0.0
  0
VERTEX
  5
5B2
  8
002
 62
     3
 10
72.172675
 20
223.660596
 30
0.0
  0
VERTEX
  5
5B3
  8
002
 62
     3
 10
72.087677
 20
223.73682
 30
0.0
  0
VERTEX
  5
5B4
  8
002
 62
     3
 10
71.986548
 20
223.804714
 30
0.0
  0
VERTEX
  5
5B5
  8
002
 62
     3
 10
71.876379
 20
223.854916
 30
0.0
  0
VERTEX
  5
5B6
  8
002
 62
     3
 10
71.728092
 20
223.89028
 30
0.0
  0
VERTEX
  5
5B7
  8
002
 62
     3
 10
71.574671
 20
223.907685
 30
0.0
  0
SEQEND
  5
5AC
  8
002
 62
     3
  0
LINE
  5
5B8
  8
002
 62
     3
 10
235.681663
 20
275.907685
 30
0.0
 11
235.681663
 21
215.907685
 31
0.0
  0
LINE
  5
5B9
  8
002
 62
     3
 10
346.681663
 20
275.907685
 30
0.0
 11
346.681663
 21
215.907685
 31
0.0
  0
LINE
  5
5BA
  8
002
 62
     3
 10
251.681663
 20
275.907685
 30
0.0
 11
251.681663
 21
215.907685
 31
0.0
  0
LINE
  5
5BB
  8
002
 62
     3
 10
346.681663
 20
275.907685
 30
0.0
 11
330.681663
 21
275.907685
 31
0.0
  0
LINE
  5
5BC
  8
002
 62
     3
 10
330.681663
 20
215.907685
 30
0.0
 11
346.681663
 21
215.907685
 31
0.0
  0
LINE
  5
5BD
  8
002
 62
     3
 10
314.681663
 20
269.907685
 30
0.0
 11
314.681663
 21
273.907685
 31
0.0
  0
LINE
  5
5BE
  8
002
 62
     3
 10
330.681663
 20
221.907685
 30
0.0
 11
330.681663
 21
215.907685
 31
0.0
  0
LINE
  5
5BF
  8
002
 62
     3
 10
330.681663
 20
269.907685
 30
0.0
 11
330.681663
 21
275.907685
 31
0.0
  0
ARC
  5
5C0
  8
002
 62
     3
 10
308.181663
 20
221.907685
 30
0.0
 40
2.0
 50
90.0
 51
180.0
  0
LINE
  5
5C1
  8
002
 62
     3
 10
306.181663
 20
221.907685
 30
0.0
 11
306.181663
 21
215.907685
 31
0.0
  0
LINE
  5
5C2
  8
002
 62
     3
 10
253.681663
 20
273.907685
 30
0.0
 11
314.681663
 21
273.907685
 31
0.0
  0
ARC
  5
5C3
  8
002
 62
     3
 10
253.681663
 20
275.907685
 30
0.0
 40
2.0
 50
180.0
 51
270.0
  0
ARC
  5
5C4
  8
002
 62
     3
 10
328.681663
 20
269.907685
 30
0.0
 40
2.0
 50
270.0
 51
0.0
  0
ARC
  5
5C5
  8
002
 62
     3
 10
316.681663
 20
269.907685
 30
0.0
 40
2.0
 50
180.0
 51
270.0
  0
ARC
  5
5C6
  8
002
 62
     3
 10
328.681663
 20
221.907685
 30
0.0
 40
2.0
 50
0.0
 51
90.0
  0
LINE
  5
5C7
  8
002
 62
     3
 10
288.681663
 20
265.907685
 30
0.0
 11
288.681663
 21
225.907685
 31
0.0
  0
LINE
  5
5C8
  8
002
 62
     3
 10
330.681663
 20
267.907685
 30
0.0
 11
290.681663
 21
267.907685
 31
0.0
  0
LINE
  5
5C9
  8
002
 62
     3
 10
332.681663
 20
225.907685
 30
0.0
 11
332.681663
 21
265.907685
 31
0.0
  0
LINE
  5
5CA
  8
002
 62
     3
 10
330.681663
 20
223.907685
 30
0.0
 11
290.681663
 21
223.907685
 31
0.0
  0
ARC
  5
5CB
  8
002
 62
     3
 10
290.681663
 20
225.907685
 30
0.0
 40
2.0
 50
180.0
 51
270.0
  0
ARC
  5
5CC
  8
002
 62
     3
 10
290.681663
 20
265.907685
 30
0.0
 40
2.0
 50
90.0
 51
180.0
  0
ARC
  5
5CD
  8
002
 62
     3
 10
330.681663
 20
265.907685
 30
0.0
 40
2.0
 50
0.0
 51
90.0
  0
ARC
  5
5CE
  8
002
 62
     3
 10
330.681663
 20
225.907685
 30
0.0
 40
2.0
 50
270.0
 51
0.0
  0
LINE
  5
5CF
  8
002
 62
     3
 10
309.681663
 20
273.907685
 30
0.0
 11
309.681663
 21
275.907685
 31
0.0
  0
LINE
  5
5D0
  8
002
 62
    40
 10
308.599163
 20
275.907685
 30
0.0
 11
308.599163
 21
273.907685
 31
0.0
  0
LINE
  5
5D1
  8
002
 62
     3
 10
309.681663
 20
275.907685
 30
0.0
 11
235.681663
 21
275.907685
 31
0.0
  0
LINE
  5
5D2
  8
002
 62
     3
 10
306.181663
 20
215.907685
 30
0.0
 11
235.681663
 21
215.907685
 31
0.0
  0
LINE
  5
5D3
  8
002
 62
     3
 10
308.967463
 20
230.025085
 30
0.0
 11
308.967463
 21
232.079085
 31
0.0
  0
CIRCLE
  5
5D4
  8
002
 62
     3
 10
306.681663
 20
232.079085
 30
0.0
 40
1.0
  0
ARC
  5
5D5
  8
002
 62
     3
 10
306.681663
 20
232.079085
 30
0.0
 40
2.285799999999995
 50
0.0
 51
134.849339
  0
LINE
  5
5D6
  8
002
 62
     3
 10
312.395963
 20
232.079085
 30
0.0
 11
312.395963
 21
230.025085
 31
0.0
  0
ARC
  5
5D7
  8
002
 62
     3
 10
314.681663
 20
232.079085
 30
0.0
 40
2.285730572486588
 50
45.150661
 51
180.0
  0
ARC
  5
5D8
  8
002
 62
     3
 10
317.905663
 20
235.320085
 30
0.0
 40
2.285730572486588
 50
225.150661
 51
306.868895
  0
CIRCLE
  5
5D9
  8
002
 62
     3
 10
314.681663
 20
232.079085
 30
0.0
 40
1.0
  0
ARC
  5
5DA
  8
002
 62
     3
 10
303.457763
 20
235.320085
 30
0.0
 40
2.28572000035006
 50
233.131105
 51
314.847561
  0
ARC
  5
5DB
  8
002
 62
     3
 10
310.681663
 20
244.952785
 30
0.0
 40
14.32628000738505
 50
306.868058
 51
233.132262
  0
LINE
  5
5DC
  8
002
 62
     3
 10
312.931663
 20
250.407685
 30
0.0
 11
308.431663
 21
250.407685
 31
0.0
  0
LINE
  5
5DD
  8
002
 62
     3
 10
308.431663
 20
250.407685
 30
0.0
 11
308.181663
 21
250.657685
 31
0.0
  0
LINE
  5
5DE
  8
002
 62
     3
 10
308.181663
 20
250.657685
 30
0.0
 11
308.181663
 21
255.157685
 31
0.0
  0
LINE
  5
5DF
  8
002
 62
     3
 10
308.181663
 20
255.157685
 30
0.0
 11
308.431663
 21
255.407685
 31
0.0
  0
LINE
  5
5E0
  8
002
 62
     3
 10
308.431663
 20
255.407685
 30
0.0
 11
312.931663
 21
255.407685
 31
0.0
  0
LINE
  5
5E1
  8
002
 62
     3
 10
312.931663
 20
255.407685
 30
0.0
 11
313.181663
 21
255.157685
 31
0.0
  0
LINE
  5
5E2
  8
002
 62
     3
 10
313.181663
 20
255.157685
 30
0.0
 11
313.181663
 21
250.657685
 31
0.0
  0
LINE
  5
5E3
  8
002
 62
     3
 10
313.181663
 20
250.657685
 30
0.0
 11
312.931663
 21
250.407685
 31
0.0
  0
ARC
  5
5E4
  8
002
 62
     3
 10
312.981663
 20
250.607685
 30
0.0
 40
0.1999999999999886
 50
270.0
 51
0.0
  0
ARC
  5
5E5
  8
002
 62
     3
 10
310.681663
 20
245.907685
 30
0.0
 40
7.499936066394191
 50
109.471393
 51
70.528607
  0
ARC
  5
5E6
  8
002
 62
     3
 10
308.381663
 20
250.607685
 30
0.0
 40
0.2000000000000455
 50
180.0
 51
270.0
  0
CIRCLE
  5
5E7
  8
002
 62
     3
 10
310.681663
 20
245.907685
 30
0.0
 40
16.0
  0
LINE
  5
5E8
  8
002
  6
CENTER
 62
    40
 10
243.681663
 20
211.495485
 30
0.0
 11
243.681663
 21
280.802385
 31
0.0
  0
LINE
  5
5E9
  8
002
  6
CENTER
 62
    40
 10
338.681763
 20
211.495485
 30
0.0
 11
338.681763
 21
280.802385
 31
0.0
  0
LINE
  5
5EA
  8
002
  6
CENTER
 62
    40
 10
310.681663
 20
275.907685
 30
0.0
 11
310.681663
 21
214.456231
 31
0.0
  0
LINE
  5
5EB
  8
002
 62
     3
 10
490.657785
 20
215.907685
 30
0.0
 11
490.657785
 21
275.907685
 31
0.0
  0
LINE
  5
5EC
  8
002
 62
     3
 10
506.657785
 20
275.907685
 30
0.0
 11
506.657785
 21
215.907685
 31
0.0
  0
LINE
  5
5ED
  8
002
 62
     3
 10
420.657785
 20
215.907685
 30
0.0
 11
420.657785
 21
275.907685
 31
0.0
  0
LINE
  5
5EE
  8
002
 62
     3
 10
436.657785
 20
275.907685
 30
0.0
 11
436.657785
 21
215.907685
 31
0.0
  0
POLYLINE
  5
5EF
  8
002
 62
     3
 66
     1
 10
0.0
 20
0.0
 30
0.0
  0
VERTEX
  5
5F1
  8
002
 62
     3
 10
490.657785
 20
268.946318
 30
0.0
  0
VERTEX
  5
5F2
  8
002
 62
     3
 10
490.636369
 20
268.768722
 30
0.0
  0
VERTEX
  5
5F3
  8
002
 62
     3
 10
490.599793
 20
268.594452
 30
0.0
  0
VERTEX
  5
5F4
  8
002
 62
     3
 10
490.527026
 20
268.409357
 30
0.0
  0
VERTEX
  5
5F5
  8
002
 62
     3
 10
490.420732
 20
268.240867
 30
0.0
  0
VERTEX
  5
5F6
  8
002
 62
     3
 10
490.345796
 20
268.154773
 30
0.0
  0
VERTEX
  5
5F7
  8
002
 62
     3
 10
490.260798
 20
268.078549
 30
0.0
  0
VERTEX
  5
5F8
  8
002
 62
     3
 10
490.159669
 20
268.010655
 30
0.0
  0
VERTEX
  5
5F9
  8
002
 62
     3
 10
490.049501
 20
267.960453
 30
0.0
  0
VERTEX
  5
5FA
  8
002
 62
     3
 10
489.901213
 20
267.925089
 30
0.0
  0
VERTEX
  5
5FB
  8
002
 62
     3
 10
489.747793
 20
267.907685
 30
0.0
  0
SEQEND
  5
5F0
  8
002
 62
     3
  0
POLYLINE
  5
5FC
  8
002
 62
     3
 66
     1
 10
0.0
 20
0.0
 30
0.0
  0
VERTEX
  5
5FE
  8
002
 62
     3
 10
507.567776
 20
267.907685
 30
0.0
  0
VERTEX
  5
5FF
  8
002
 62
     3
 10
507.445787
 20
267.918612
 30
0.0
  0
VERTEX
  5
600
  8
002
 62
     3
 10
507.326265
 20
267.940644
 30
0.0
  0
VERTEX
  5
601
  8
002
 62
     3
 10
507.218316
 20
267.979388
 30
0.0
  0
VERTEX
  5
602
  8
002
 62
     3
 10
507.117074
 20
268.034647
 30
0.0
  0
VERTEX
  5
603
  8
002
 62
     3
 10
507.001708
 20
268.123814
 30
0.0
  0
VERTEX
  5
604
  8
002
 62
     3
 10
506.9028
 20
268.230593
 30
0.0
  0
VERTEX
  5
605
  8
002
 62
     3
 10
506.820894
 20
268.352483
 30
0.0
  0
VERTEX
  5
606
  8
002
 62
     3
 10
506.755763
 20
268.484486
 30
0.0
  0
VERTEX
  5
607
  8
002
 62
     3
 10
506.712999
 20
268.600873
 30
0.0
  0
VERTEX
  5
608
  8
002
 62
     3
 10
506.682973
 20
268.720716
 30
0.0
  0
VERTEX
  5
609
  8
002
 62
     3
 10
506.667215
 20
268.832979
 30
0.0
  0
VERTEX
  5
60A
  8
002
 62
     3
 10
506.657785
 20
268.946318
 30
0.0
  0
SEQEND
  5
5FD
  8
002
 62
     3
  0
POLYLINE
  5
60B
  8
002
 62
     3
 66
     1
 10
0.0
 20
0.0
 30
0.0
  0
VERTEX
  5
60D
  8
002
 62
     3
 10
506.657785
 20
222.869051
 30
0.0
  0
VERTEX
  5
60E
  8
002
 62
     3
 10
506.6792
 20
223.046647
 30
0.0
  0
VERTEX
  5
60F
  8
002
 62
     3
 10
506.715776
 20
223.220917
 30
0.0
  0
VERTEX
  5
610
  8
002
 62
     3
 10
506.788543
 20
223.406012
 30
0.0
  0
VERTEX
  5
611
  8
002
 62
     3
 10
506.894837
 20
223.574503
 30
0.0
  0
VERTEX
  5
612
  8
002
 62
     3
 10
506.969773
 20
223.660596
 30
0.0
  0
VERTEX
  5
613
  8
002
 62
     3
 10
507.054771
 20
223.73682
 30
0.0
  0
VERTEX
  5
614
  8
002
 62
     3
 10
507.1559
 20
223.804714
 30
0.0
  0
VERTEX
  5
615
  8
002
 62
     3
 10
507.266068
 20
223.854916
 30
0.0
  0
VERTEX
  5
616
  8
002
 62
     3
 10
507.414356
 20
223.89028
 30
0.0
  0
VERTEX
  5
617
  8
002
 62
     3
 10
507.567776
 20
223.907685
 30
0.0
  0
SEQEND
  5
60C
  8
002
 62
     3
  0
POLYLINE
  5
618
  8
002
 62
     3
 66
     1
 10
0.0
 20
0.0
 30
0.0
  0
VERTEX
  5
61A
  8
002
 62
     3
 10
489.747793
 20
223.907685
 30
0.0
  0
VERTEX
  5
61B
  8
002
 62
     3
 10
489.869782
 20
223.896757
 30
0.0
  0
VERTEX
  5
61C
  8
002
 62
     3
 10
489.989304
 20
223.874725
 30
0.0
  0
VERTEX
  5
61D
  8
002
 62
     3
 10
490.097253
 20
223.835981
 30
0.0
  0
VERTEX
  5
61E
  8
002
 62
     3
 10
490.198495
 20
223.780722
 30
0.0
  0
VERTEX
  5
61F
  8
002
 62
     3
 10
490.313861
 20
223.691555
 30
0.0
  0
VERTEX
  5
620
  8
002
 62
     3
 10
490.41277
 20
223.584776
 30
0.0
  0
VERTEX
  5
621
  8
002
 62
     3
 10
490.494675
 20
223.462886
 30
0.0
  0
VERTEX
  5
622
  8
002
 62
     3
 10
490.559806
 20
223.330883
 30
0.0
  0
VERTEX
  5
623
  8
002
 62
     3
 10
490.60257
 20
223.214496
 30
0.0
  0
VERTEX
  5
624
  8
002
 62
     3
 10
490.632596
 20
223.094653
 30
0.0
  0
VERTEX
  5
625
  8
002
 62
     3
 10
490.648354
 20
222.98239
 30
0.0
  0
VERTEX
  5
626
  8
002
 62
     3
 10
490.657785
 20
222.869051
 30
0.0
  0
SEQEND
  5
619
  8
002
 62
     3
  0
POLYLINE
  5
627
  8
002
 62
     3
 66
     1
 10
0.0
 20
0.0
 30
0.0
  0
VERTEX
  5
629
  8
002
 62
     3
 10
436.657785
 20
222.869051
 30
0.0
  0
VERTEX
  5
62A
  8
002
 62
     3
 10
436.6792
 20
223.046647
 30
0.0
  0
VERTEX
  5
62B
  8
002
 62
     3
 10
436.715776
 20
223.220917
 30
0.0
  0
VERTEX
  5
62C
  8
002
 62
     3
 10
436.788543
 20
223.406012
 30
0.0
  0
VERTEX
  5
62D
  8
002
 62
     3
 10
436.894837
 20
223.574503
 30
0.0
  0
VERTEX
  5
62E
  8
002
 62
     3
 10
436.969773
 20
223.660596
 30
0.0
  0
VERTEX
  5
62F
  8
002
 62
     3
 10
437.054771
 20
223.73682
 30
0.0
  0
VERTEX
  5
630
  8
002
 62
     3
 10
437.1559
 20
223.804714
 30
0.0
  0
VERTEX
  5
631
  8
002
 62
     3
 10
437.266068
 20
223.854916
 30
0.0
  0
VERTEX
  5
632
  8
002
 62
     3
 10
437.414356
 20
223.89028
 30
0.0
  0
VERTEX
  5
633
  8
002
 62
     3
 10
437.567776
 20
223.907685
 30
0.0
  0
SEQEND
  5
628
  8
002
 62
     3
  0
POLYLINE
  5
634
  8
002
 62
     3
 66
     1
 10
0.0
 20
0.0
 30
0.0
  0
VERTEX
  5
636
  8
002
 62
     3
 10
419.747793
 20
223.907685
 30
0.0
  0
VERTEX
  5
637
  8
002
 62
     3
 10
419.869782
 20
223.896757
 30
0.0
  0
VERTEX
  5
638
  8
002
 62
     3
 10
419.989304
 20
223.874725
 30
0.0
  0
VERTEX
  5
639
  8
002
 62
     3
 10
420.097253
 20
223.835981
 30
0.0
  0
VERTEX
  5
63A
  8
002
 62
     3
 10
420.198495
 20
223.780722
 30
0.0
  0
VERTEX
  5
63B
  8
002
 62
     3
 10
420.313861
 20
223.691555
 30
0.0
  0
VERTEX
  5
63C
  8
002
 62
     3
 10
420.41277
 20
223.584776
 30
0.0
  0
VERTEX
  5
63D
  8
002
 62
     3
 10
420.494675
 20
223.462886
 30
0.0
  0
VERTEX
  5
63E
  8
002
 62
     3
 10
420.559806
 20
223.330883
 30
0.0
  0
VERTEX
  5
63F
  8
002
 62
     3
 10
420.60257
 20
223.214496
 30
0.0
  0
VERTEX
  5
640
  8
002
 62
     3
 10
420.632596
 20
223.094653
 30
0.0
  0
VERTEX
  5
641
  8
002
 62
     3
 10
420.648354
 20
222.98239
 30
0.0
  0
VERTEX
  5
642
  8
002
 62
     3
 10
420.657785
 20
222.869051
 30
0.0
  0
SEQEND
  5
635
  8
002
 62
     3
  0
POLYLINE
  5
643
  8
002
 62
     3
 66
     1
 10
0.0
 20
0.0
 30
0.0
  0
VERTEX
  5
645
  8
002
 62
     3
 10
420.657785
 20
268.946318
 30
0.0
  0
VERTEX
  5
646
  8
002
 62
     3
 10
420.636369
 20
268.768722
 30
0.0
  0
VERTEX
  5
647
  8
002
 62
     3
 10
420.599793
 20
268.594452
 30
0.0
  0
VERTEX
  5
648
  8
002
 62
     3
 10
420.527026
 20
268.409357
 30
0.0
  0
VERTEX
  5
649
  8
002
 62
     3
 10
420.420732
 20
268.240867
 30
0.0
  0
VERTEX
  5
64A
  8
002
 62
     3
 10
420.345796
 20
268.154773
 30
0.0
  0
VERTEX
  5
64B
  8
002
 62
     3
 10
420.260798
 20
268.078549
 30
0.0
  0
VERTEX
  5
64C
  8
002
 62
     3
 10
420.159669
 20
268.010655
 30
0.0
  0
VERTEX
  5
64D
  8
002
 62
     3
 10
420.049501
 20
267.960453
 30
0.0
  0
VERTEX
  5
64E
  8
002
 62
     3
 10
419.901213
 20
267.925089
 30
0.0
  0
VERTEX
  5
64F
  8
002
 62
     3
 10
419.747793
 20
267.907685
 30
0.0
  0
SEQEND
  5
644
  8
002
 62
     3
  0
POLYLINE
  5
650
  8
002
 62
     3
 66
     1
 10
0.0
 20
0.0
 30
0.0
  0
VERTEX
  5
652
  8
002
 62
     3
 10
437.567776
 20
267.907685
 30
0.0
  0
VERTEX
  5
653
  8
002
 62
     3
 10
437.445787
 20
267.918612
 30
0.0
  0
VERTEX
  5
654
  8
002
 62
     3
 10
437.326265
 20
267.940644
 30
0.0
  0
VERTEX
  5
655
  8
002
 62
     3
 10
437.218316
 20
267.979388
 30
0.0
  0
VERTEX
  5
656
  8
002
 62
     3
 10
437.117074
 20
268.034647
 30
0.0
  0
VERTEX
  5
657
  8
002
 62
     3
 10
437.001708
 20
268.123814
 30
0.0
  0
VERTEX
  5
658
  8
002
 62
     3
 10
436.9028
 20
268.230593
 30
0.0
  0
VERTEX
  5
659
  8
002
 62
     3
 10
436.820894
 20
268.352483
 30
0.0
  0
VERTEX
  5
65A
  8
002
 62
     3
 10
436.755763
 20
268.484486
 30
0.0
  0
VERTEX
  5
65B
  8
002
 62
     3
 10
436.712999
 20
268.600873
 30
0.0
  0
VERTEX
  5
65C
  8
002
 62
     3
 10
436.682973
 20
268.720716
 30
0.0
  0
VERTEX
  5
65D
  8
002
 62
     3
 10
436.667215
 20
268.832979
 30
0.0
  0
VERTEX
  5
65E
  8
002
 62
     3
 10
436.657785
 20
268.946318
 30
0.0
  0
SEQEND
  5
651
  8
002
 62
     3
  0
LINE
  5
65F
  8
002
 62
     3
 10
510.657785
 20
223.907685
 30
0.0
 11
510.657785
 21
267.907685
 31
0.0
  0
LINE
  5
660
  8
002
 62
     3
 10
416.657785
 20
223.907685
 30
0.0
 11
416.657785
 21
267.907685
 31
0.0
  0
LINE
  5
661
  8
002
 62
     3
 10
489.747793
 20
223.907685
 30
0.0
 11
437.567776
 21
223.907685
 31
0.0
  0
LINE
  5
662
  8
002
 62
     3
 10
489.747793
 20
267.907685
 30
0.0
 11
437.567776
 21
267.907685
 31
0.0
  0
LINE
  5
663
  8
002
 62
     3
 10
490.657785
 20
273.907685
 30
0.0
 11
436.657785
 21
273.907685
 31
0.0
  0
LINE
  5
664
  8
002
 62
     3
 10
506.657785
 20
215.907685
 30
0.0
 11
420.657785
 21
215.907685
 31
0.0
  0
ARC
  5
665
  8
002
 62
     3
 10
488.657785
 20
275.907685
 30
0.0
 40
2.0
 50
270.0
 51
360.0
  0
ARC
  5
666
  8
002
 62
     3
 10
438.657785
 20
275.907685
 30
0.0
 40
2.0
 50
180.0
 51
270.0
  0
LINE
  5
667
  8
002
 62
     3
 10
416.657785
 20
267.907685
 30
0.0
 11
419.747793
 21
267.907685
 31
0.0
  0
LINE
  5
668
  8
002
 62
     3
 10
416.657785
 20
223.907685
 30
0.0
 11
419.747793
 21
223.907685
 31
0.0
  0
LINE
  5
669
  8
002
 62
     3
 10
510.657785
 20
223.907685
 30
0.0
 11
507.567776
 21
223.907685
 31
0.0
  0
LINE
  5
66A
  8
002
 62
     3
 10
510.657785
 20
267.907685
 30
0.0
 11
507.567776
 21
267.907685
 31
0.0
  0
LINE
  5
66B
  8
002
 62
     3
 10
506.657785
 20
275.907685
 30
0.0
 11
420.657785
 21
275.907685
 31
0.0
  0
LINE
  5
66C
  8
002
 62
     3
 10
416.657785
 20
238.407685
 30
0.0
 11
389.657745
 21
238.407685
 31
0.0
  0
LINE
  5
66D
  8
002
 62
     3
 10
389.657745
 20
238.407685
 30
0.0
 11
388.657745
 21
239.407685
 31
0.0
  0
LINE
  5
66E
  8
002
 62
     3
 10
388.657745
 20
239.407685
 30
0.0
 11
388.657745
 21
255.407685
 31
0.0
  0
LINE
  5
66F
  8
002
 62
     3
 10
388.657745
 20
255.407685
 30
0.0
 11
410.657785
 21
255.407685
 31
0.0
  0
LINE
  5
670
  8
002
 62
     3
 10
410.657785
 20
255.407685
 30
0.0
 11
410.657785
 21
252.978785
 31
0.0
  0
LINE
  5
671
  8
002
 62
     3
 10
410.657785
 20
252.978785
 30
0.0
 11
413.157785
 21
253.407685
 31
0.0
  0
LINE
  5
672
  8
002
 62
     3
 10
413.157785
 20
253.407685
 30
0.0
 11
416.657785
 21
253.407685
 31
0.0
  0
LINE
  5
673
  8
002
 62
     3
 10
510.657785
 20
253.407685
 30
0.0
 11
514.157785
 21
253.407685
 31
0.0
  0
LINE
  5
674
  8
002
 62
     3
 10
514.157785
 20
253.407685
 30
0.0
 11
516.657785
 21
252.978785
 31
0.0
  0
LINE
  5
675
  8
002
 62
     3
 10
516.657785
 20
252.978785
 30
0.0
 11
516.657785
 21
255.407685
 31
0.0
  0
LINE
  5
676
  8
002
 62
     3
 10
516.657785
 20
255.407685
 30
0.0
 11
538.657785
 21
255.407685
 31
0.0
  0
LINE
  5
677
  8
002
 62
     3
 10
538.657785
 20
255.407685
 30
0.0
 11
538.657785
 21
239.407685
 31
0.0
  0
LINE
  5
678
  8
002
 62
     3
 10
538.657785
 20
239.407685
 30
0.0
 11
537.657785
 21
238.407685
 31
0.0
  0
LINE
  5
679
  8
002
 62
     3
 10
537.657785
 20
238.407685
 30
0.0
 11
510.657785
 21
238.407685
 31
0.0
  0
LINE
  5
67A
  8
002
 62
     3
 10
410.657785
 20
252.978785
 30
0.0
 11
389.228815
 21
252.978785
 31
0.0
  0
LINE
  5
67B
  8
002
 62
     3
 10
389.228815
 20
252.978785
 30
0.0
 11
388.657745
 21
252.407685
 31
0.0
  0
LINE
  5
67C
  8
002
 62
     3
 10
389.657745
 20
252.978785
 30
0.0
 11
389.657745
 21
238.407685
 31
0.0
  0
LINE
  5
67D
  8
002
 62
     3
 10
516.657785
 20
252.978785
 30
0.0
 11
538.086685
 21
252.978785
 31
0.0
  0
LINE
  5
67E
  8
002
 62
     3
 10
538.086685
 20
252.978785
 30
0.0
 11
538.657785
 21
252.407685
 31
0.0
  0
LINE
  5
67F
  8
002
 62
     3
 10
537.657785
 20
252.978785
 30
0.0
 11
537.657785
 21
238.407685
 31
0.0
  0
LINE
  5
680
  8
002
 62
     3
 10
745.9273
 20
275.907685
 30
0.0
 11
745.9273
 21
215.907685
 31
0.0
  0
LINE
  5
681
  8
002
 62
     3
 10
856.9273
 20
275.907685
 30
0.0
 11
856.9273
 21
215.907685
 31
0.0
  0
LINE
  5
682
  8
002
 62
     3
 10
761.9273
 20
275.907685
 30
0.0
 11
761.9273
 21
215.907685
 31
0.0
  0
LINE
  5
683
  8
002
 62
     3
 10
856.9273
 20
275.907685
 30
0.0
 11
840.9273
 21
275.907685
 31
0.0
  0
LINE
  5
684
  8
002
 62
     3
 10
840.9273
 20
215.907685
 30
0.0
 11
856.9273
 21
215.907685
 31
0.0
  0
LINE
  5
685
  8
002
 62
     3
 10
824.9273
 20
269.907685
 30
0.0
 11
824.9273
 21
273.907685
 31
0.0
  0
LINE
  5
686
  8
002
 62
     3
 10
840.9273
 20
221.907685
 30
0.0
 11
840.9273
 21
215.907685
 31
0.0
  0
LINE
  5
687
  8
002
 62
     3
 10
840.9273
 20
269.907685
 30
0.0
 11
840.9273
 21
275.907685
 31
0.0
  0
ARC
  5
688
  8
002
 62
     3
 10
818.4273
 20
221.907685
 30
0.0
 40
2.0
 50
90.0
 51
180.0
  0
LINE
  5
689
  8
002
 62
     3
 10
816.4273
 20
221.907685
 30
0.0
 11
816.4273
 21
215.907685
 31
0.0
  0
LINE
  5
68A
  8
002
 62
     3
 10
763.9273
 20
273.907685
 30
0.0
 11
824.9273
 21
273.907685
 31
0.0
  0
ARC
  5
68B
  8
002
 62
     3
 10
763.9273
 20
275.907685
 30
0.0
 40
2.0
 50
180.0
 51
270.0
  0
ARC
  5
68C
  8
002
 62
     3
 10
838.9273
 20
269.907685
 30
0.0
 40
2.0
 50
270.0
 51
0.0
  0
ARC
  5
68D
  8
002
 62
     3
 10
826.9273
 20
269.907685
 30
0.0
 40
2.0
 50
180.0
 51
270.0
  0
ARC
  5
68E
  8
002
 62
     3
 10
838.9273
 20
221.907685
 30
0.0
 40
2.0
 50
0.0
 51
90.0
  0
LINE
  5
68F
  8
002
 62
     3
 10
798.9273
 20
265.907685
 30
0.0
 11
798.9273
 21
225.907685
 31
0.0
  0
LINE
  5
690
  8
002
 62
     3
 10
840.9273
 20
267.907685
 30
0.0
 11
800.9273
 21
267.907685
 31
0.0
  0
LINE
  5
691
  8
002
 62
     3
 10
842.9273
 20
225.907685
 30
0.0
 11
842.9273
 21
265.907685
 31
0.0
  0
LINE
  5
692
  8
002
 62
     3
 10
840.9273
 20
223.907685
 30
0.0
 11
800.9273
 21
223.907685
 31
0.0
  0
ARC
  5
693
  8
002
 62
     3
 10
800.9273
 20
225.907685
 30
0.0
 40
2.0
 50
180.0
 51
270.0
  0
ARC
  5
694
  8
002
 62
     3
 10
800.9273
 20
265.907685
 30
0.0
 40
2.0
 50
90.0
 51
180.0
  0
ARC
  5
695
  8
002
 62
     3
 10
840.9273
 20
265.907685
 30
0.0
 40
2.0
 50
0.0
 51
90.0
  0
ARC
  5
696
  8
002
 62
     3
 10
840.9273
 20
225.907685
 30
0.0
 40
2.0
 50
270.0
 51
0.0
  0
LINE
  5
697
  8
002
 62
     3
 10
819.9273
 20
273.907685
 30
0.0
 11
819.9273
 21
275.907685
 31
0.0
  0
LINE
  5
698
  8
002
 62
    40
 10
818.8448
 20
275.907685
 30
0.0
 11
818.8448
 21
273.907685
 31
0.0
  0
LINE
  5
699
  8
002
 62
     3
 10
819.9273
 20
275.907685
 30
0.0
 11
745.9273
 21
275.907685
 31
0.0
  0
LINE
  5
69A
  8
002
 62
     3
 10
816.4273
 20
215.907685
 30
0.0
 11
745.9273
 21
215.907685
 31
0.0
  0
LINE
  5
69B
  8
002
 62
     3
 10
819.2131
 20
230.025085
 30
0.0
 11
819.2131
 21
232.079085
 31
0.0
  0
CIRCLE
  5
69C
  8
002
 62
     3
 10
816.9273
 20
232.079085
 30
0.0
 40
1.0
  0
ARC
  5
69D
  8
002
 62
     3
 10
816.9273
 20
232.079085
 30
0.0
 40
2.285799999999995
 50
0.0
 51
134.849339
  0
LINE
  5
69E
  8
002
 62
     3
 10
822.6416
 20
232.079085
 30
0.0
 11
822.6416
 21
230.025085
 31
0.0
  0
ARC
  5
69F
  8
002
 62
     3
 10
824.9273
 20
232.079085
 30
0.0
 40
2.285730572486588
 50
45.150661
 51
180.0
  0
ARC
  5
6A0
  8
002
 62
     3
 10
828.1513
 20
235.320085
 30
0.0
 40
2.285730572486588
 50
225.150661
 51
306.868895
  0
CIRCLE
  5
6A1
  8
002
 62
     3
 10
824.9273
 20
232.079085
 30
0.0
 40
1.0
  0
ARC
  5
6A2
  8
002
 62
     3
 10
813.7034
 20
235.320085
 30
0.0
 40
2.28572000035006
 50
233.131105
 51
314.847561
  0
ARC
  5
6A3
  8
002
 62
     3
 10
820.9273
 20
244.952785
 30
0.0
 40
14.32628000738505
 50
306.868058
 51
233.132262
  0
LINE
  5
6A4
  8
002
 62
     3
 10
823.1773
 20
250.407685
 30
0.0
 11
818.6773
 21
250.407685
 31
0.0
  0
LINE
  5
6A5
  8
002
 62
     3
 10
818.6773
 20
250.407685
 30
0.0
 11
818.4273
 21
250.657685
 31
0.0
  0
LINE
  5
6A6
  8
002
 62
     3
 10
818.4273
 20
250.657685
 30
0.0
 11
818.4273
 21
255.157685
 31
0.0
  0
LINE
  5
6A7
  8
002
 62
     3
 10
818.4273
 20
255.157685
 30
0.0
 11
818.6773
 21
255.407685
 31
0.0
  0
LINE
  5
6A8
  8
002
 62
     3
 10
818.6773
 20
255.407685
 30
0.0
 11
823.1773
 21
255.407685
 31
0.0
  0
LINE
  5
6A9
  8
002
 62
     3
 10
823.1773
 20
255.407685
 30
0.0
 11
823.4273
 21
255.157685
 31
0.0
  0
LINE
  5
6AA
  8
002
 62
     3
 10
823.4273
 20
255.157685
 30
0.0
 11
823.4273
 21
250.657685
 31
0.0
  0
LINE
  5
6AB
  8
002
 62
     3
 10
823.4273
 20
250.657685
 30
0.0
 11
823.1773
 21
250.407685
 31
0.0
  0
ARC
  5
6AC
  8
002
 62
     3
 10
823.2273
 20
250.607685
 30
0.0
 40
0.1999999999999886
 50
270.0
 51
0.0
  0
ARC
  5
6AD
  8
002
 62
     3
 10
820.9273
 20
245.907685
 30
0.0
 40
7.499936066394191
 50
109.471393
 51
70.528607
  0
ARC
  5
6AE
  8
002
 62
     3
 10
818.6273
 20
250.607685
 30
0.0
 40
0.2000000000000455
 50
180.0
 51
270.0
  0
CIRCLE
  5
6AF
  8
002
 62
     3
 10
820.9273
 20
245.907685
 30
0.0
 40
16.0
  0
LINE
  5
6B0
  8
002
  6
CENTER
 62
    40
 10
753.9273
 20
211.495485
 30
0.0
 11
753.9273
 21
280.802385
 31
0.0
  0
LINE
  5
6B1
  8
002
  6
CENTER
 62
    40
 10
848.9274
 20
211.495485
 30
0.0
 11
848.9274
 21
280.802385
 31
0.0
  0
LINE
  5
6B2
  8
002
  6
CENTER
 62
    40
 10
820.9273
 20
275.907685
 30
0.0
 11
820.9273
 21
214.456231
 31
0.0
  0
LINE
  5
6B3
  8
002
  6
CENTER
 62
    40
 10
804.8373
 20
287.629285
 30
0.0
 11
804.8373
 21
269.105084
 31
0.0
  0
LINE
  5
6B4
  8
002
  6
CENTER
 62
    40
 10
773.0173
 20
270.801091
 30
0.0
 11
773.0173
 21
287.629285
 31
0.0
  0
LINE
  5
6B5
  8
002
 62
     3
 10
1327.871176
 20
569.907685
 30
0.0
 11
1327.871176
 21
568.907685
 31
0.0
  0
LINE
  5
6B6
  8
002
 62
     3
 10
1327.871176
 20
661.907685
 30
0.0
 11
1327.871176
 21
662.907685
 31
0.0
  0
LINE
  5
6B7
  8
002
 62
     3
 10
1342.371176
 20
541.907685
 30
0.0
 11
1342.371176
 21
568.907685
 31
0.0
  0
LINE
  5
6B8
  8
002
 62
     3
 10
1357.371176
 20
568.907685
 30
0.0
 11
1357.371176
 21
541.907685
 31
0.0
  0
LINE
  5
6B9
  8
002
 62
     3
 10
1357.371176
 20
689.907685
 30
0.0
 11
1357.371176
 21
662.907685
 31
0.0
  0
LINE
  5
6BA
  8
002
 62
     3
 10
1342.371176
 20
662.907685
 30
0.0
 11
1342.371176
 21
689.907685
 31
0.0
  0
LINE
  5
6BB
  8
002
  6
CENTER
 62
    40
 10
1317.871176
 20
570.434177
 30
0.0
 11
1317.871176
 21
661.882384
 31
0.0
  0
CIRCLE
  5
6BC
  8
002
 62
     3
 10
1377.871176
 20
650.907685
 30
0.0
 40
8.0
  0
CIRCLE
  5
6BD
  8
002
 62
     3
 10
1377.871176
 20
580.907685
 30
0.0
 40
8.0
  0
LINE
  5
6BE
  8
002
 62
     3
 10
1371.871176
 20
568.907685
 30
0.0
 11
1327.871176
 21
568.907685
 31
0.0
  0
LINE
  5
6BF
  8
002
 62
     3
 10
1371.871176
 20
662.907685
 30
0.0
 11
1327.871176
 21
662.907685
 31
0.0
  0
CIRCLE
  5
6C0
  8
002
 62
     3
 10
1282.871176
 20
580.907685
 30
0.0
 40
8.0
  0
CIRCLE
  5
6C1
  8
002
 62
     3
 10
1282.871176
 20
650.907685
 30
0.0
 40
8.0
  0
LINE
  5
6C2
  8
002
 62
     3
 10
1375.871176
 20
642.907685
 30
0.0
 11
1377.871176
 21
642.907685
 31
0.0
  0
LINE
  5
6C3
  8
002
 62
     3
 10
1375.871176
 20
658.907685
 30
0.0
 11
1377.871176
 21
658.907685
 31
0.0
  0
LINE
  5
6C4
  8
002
 62
     3
 10
1375.871176
 20
572.907685
 30
0.0
 11
1377.871176
 21
572.907685
 31
0.0
  0
LINE
  5
6C5
  8
002
 62
     3
 10
1375.871176
 20
588.907685
 30
0.0
 11
1377.871176
 21
588.907685
 31
0.0
  0
LINE
  5
6C6
  8
002
 62
     3
 10
1371.871176
 20
592.907685
 30
0.0
 11
1371.871176
 21
638.907685
 31
0.0
  0
LINE
  5
6C7
  8
002
  6
CENTER
 62
    40
 10
1276.141037
 20
615.907685
 30
0.0
 11
1378.685226
 21
615.907685
 31
0.0
  0
ARC
  5
6C8
  8
002
 62
     3
 10
1317.871176
 20
569.907685
 30
0.0
 40
10.0
 50
360.0
 51
90.0
  0
ARC
  5
6C9
  8
002
 62
     3
 10
1317.871176
 20
661.907685
 30
0.0
 40
10.0
 50
270.0
 51
0.0
  0
ARC
  5
6CA
  8
002
 62
     3
 10
1317.871176
 20
615.907685
 30
0.0
 40
36.00000000000006
 50
257.693402
 51
270.0
  0
ARC
  5
6CB
  8
002
 62
     3
 10
1258.272893
 20
602.905968
 30
0.0
 40
25.0
 50
318.193684
 51
12.306598
  0
ARC
  5
6CC
  8
002
 62
     3
 10
1304.869459
 20
556.309401
 30
0.0
 40
25.0
 50
77.693402
 51
131.806316
  0
ARC
  5
6CD
  8
002
 62
     3
 10
1258.272893
 20
628.909401
 30
0.0
 40
25.0
 50
347.693402
 51
41.806316
  0
ARC
  5
6CE
  8
002
 62
     3
 10
1304.869459
 20
675.505968
 30
0.0
 40
25.0
 50
228.193684
 51
282.306598
  0
ARC
  5
6CF
  8
002
 62
     3
 10
1317.871176
 20
615.907685
 30
0.0
 40
36.00000000000006
 50
167.693402
 51
192.306598
  0
ARC
  5
6D0
  8
002
 62
     3
 10
1317.871176
 20
615.907685
 30
0.0
 40
36.00000000000006
 50
90.0
 51
102.306598
  0
ARC
  5
6D1
  8
002
 62
     3
 10
1375.871176
 20
568.907685
 30
0.0
 40
4.0
 50
90.0
 51
180.0
  0
ARC
  5
6D2
  8
002
 62
     3
 10
1375.871176
 20
662.907685
 30
0.0
 40
4.0
 50
180.0
 51
270.0
  0
ARC
  5
6D3
  8
002
 62
     3
 10
1375.871176
 20
638.907685
 30
0.0
 40
4.0
 50
90.0
 51
180.0
  0
ARC
  5
6D4
  8
002
 62
     3
 10
1375.871176
 20
592.907685
 30
0.0
 40
4.0
 50
180.0
 51
270.0
  0
LINE
  5
6D5
  8
002
  6
CENTER
 62
    40
 10
1377.871176
 20
590.907685
 30
0.0
 11
1377.871176
 21
570.907685
 31
0.0
  0
LINE
  5
6D6
  8
002
  6
CENTER
 62
    40
 10
1387.871176
 20
580.907685
 30
0.0
 11
1367.871176
 21
580.907685
 31
0.0
  0
LINE
  5
6D7
  8
002
  6
CENTER
 62
    40
 10
1377.871176
 20
660.907685
 30
0.0
 11
1377.871176
 21
640.907685
 31
0.0
  0
LINE
  5
6D8
  8
002
  6
CENTER
 62
    40
 10
1387.871176
 20
650.907685
 30
0.0
 11
1367.871176
 21
650.907685
 31
0.0
  0
LINE
  5
6D9
  8
002
  6
CENTER
 62
    40
 10
1282.871176
 20
660.907685
 30
0.0
 11
1282.871176
 21
640.907685
 31
0.0
  0
LINE
  5
6DA
  8
002
  6
CENTER
 62
    40
 10
1292.871176
 20
650.907685
 30
0.0
 11
1272.871176
 21
650.907685
 31
0.0
  0
LINE
  5
6DB
  8
002
  6
CENTER
 62
    40
 10
1282.871176
 20
590.907685
 30
0.0
 11
1282.871176
 21
570.907685
 31
0.0
  0
LINE
  5
6DC
  8
002
  6
CENTER
 62
    40
 10
1292.871176
 20
580.907685
 30
0.0
 11
1272.871176
 21
580.907685
 31
0.0
  0
LINE
  5
6DD
  8
002
 62
     3
 10
1342.371176
 20
689.907685
 30
0.0
 11
1343.371176
 21
690.907685
 31
0.0
  0
LINE
  5
6DE
  8
002
 62
     3
 10
1343.371176
 20
690.907685
 30
0.0
 11
1356.371176
 21
690.907685
 31
0.0
  0
LINE
  5
6DF
  8
002
 62
     3
 10
1356.371176
 20
690.907685
 30
0.0
 11
1357.371176
 21
689.907685
 31
0.0
  0
LINE
  5
6E0
  8
002
 62
     3
 10
1357.371176
 20
689.907685
 30
0.0
 11
1352.371176
 21
689.907685
 31
0.0
  0
LINE
  5
6E1
  8
002
 62
     3
 10
1352.371176
 20
690.907685
 30
0.0
 11
1352.371176
 21
668.907685
 31
0.0
  0
LINE
  5
6E2
  8
002
 62
     3
 10
1352.371176
 20
668.907685
 30
0.0
 11
1347.371176
 21
668.907685
 31
0.0
  0
LINE
  5
6E3
  8
002
 62
     3
 10
1347.371176
 20
668.907685
 30
0.0
 11
1347.371176
 21
690.907685
 31
0.0
  0
LINE
  5
6E4
  8
002
 62
     3
 10
1347.371176
 20
689.907685
 30
0.0
 11
1342.371176
 21
689.907685
 31
0.0
  0
ARC
  5
6E5
  8
002
 62
     3
 10
1349.871176
 20
668.907685
 30
0.0
 40
2.5
 50
180.0
 51
0.0
  0
LINE
  5
6E6
  8
002
 62
     3
 10
1357.371176
 20
541.907685
 30
0.0
 11
1356.371176
 21
540.907685
 31
0.0
  0
LINE
  5
6E7
  8
002
 62
     3
 10
1356.371176
 20
540.907685
 30
0.0
 11
1343.371176
 21
540.907685
 31
0.0
  0
LINE
  5
6E8
  8
002
 62
     3
 10
1343.371176
 20
540.907685
 30
0.0
 11
1342.371176
 21
541.907685
 31
0.0
  0
LINE
  5
6E9
  8
002
 62
     3
 10
1347.371176
 20
562.907685
 30
0.0
 11
1352.371176
 21
562.907685
 31
0.0
  0
LINE
  5
6EA
  8
002
 62
     3
 10
1352.371176
 20
562.907685
 30
0.0
 11
1352.371176
 21
540.907685
 31
0.0
  0
LINE
  5
6EB
  8
002
 62
     3
 10
1352.371176
 20
541.907685
 30
0.0
 11
1357.371176
 21
541.907685
 31
0.0
  0
LINE
  5
6EC
  8
002
 62
     3
 10
1347.371176
 20
541.907685
 30
0.0
 11
1342.371176
 21
541.907685
 31
0.0
  0
LINE
  5
6ED
  8
002
 62
     3
 10
1347.371176
 20
540.907685
 30
0.0
 11
1347.371176
 21
562.907685
 31
0.0
  0
ARC
  5
6EE
  8
002
 62
     3
 10
1349.871176
 20
562.907685
 30
0.0
 40
2.5
 50
0.0
 51
180.0
  0
LINE
  5
6EF
  8
002
  6
CENTER
 62
    40
 10
1349.871176
 20
538.210326
 30
0.0
 11
1349.871176
 21
694.58895
 31
0.0
  0
LINE
  5
6F0
  8
001
 62
     3
 10
1360.757926
 20
615.907685
 30
0.0
 11
1359.31455
 21
613.407685
 31
0.0
  0
LINE
  5
6F1
  8
001
 62
     3
 10
1359.31455
 20
618.407685
 30
0.0
 11
1356.427801
 21
618.407685
 31
0.0
  0
LINE
  5
6F2
  8
001
 62
     3
 10
1354.984426
 20
615.907685
 30
0.0
 11
1356.427801
 21
618.407685
 31
0.0
  0
LINE
  5
6F3
  8
001
 62
     3
 10
1356.427801
 20
613.407685
 30
0.0
 11
1354.984426
 21
615.907685
 31
0.0
  0
LINE
  5
6F4
  8
001
 62
     3
 10
1359.31455
 20
613.407685
 30
0.0
 11
1356.427801
 21
613.407685
 31
0.0
  0
CIRCLE
  5
6F5
  8
001
 62
    40
 10
1357.871176
 20
615.907685
 30
0.0
 40
4.573499999999999
  0
CIRCLE
  5
6F6
  8
001
 62
     3
 10
1357.871176
 20
615.907685
 30
0.0
 40
4.863999999999999
  0
LINE
  5
6F7
  8
001
 62
     3
 10
1360.757431
 20
615.908542
 30
0.0
 11
1359.31455
 21
618.407685
 31
0.0
  0
LINE
  5
6F8
  8
002
 62
     3
 10
1197.674176
 20
215.907685
 30
0.0
 11
1111.674176
 21
215.907685
 31
0.0
  0
LINE
  5
6F9
  8
002
 62
     3
 10
1107.674176
 20
223.907685
 30
0.0
 11
1110.764184
 21
223.907685
 31
0.0
  0
LINE
  5
6FA
  8
002
 62
     3
 10
1107.674176
 20
267.907685
 30
0.0
 11
1110.764184
 21
267.907685
 31
0.0
  0
LINE
  5
6FB
  8
002
 62
     3
 10
1201.674176
 20
267.907685
 30
0.0
 11
1198.584168
 21
267.907685
 31
0.0
  0
LINE
  5
6FC
  8
002
 62
     3
 10
1201.674176
 20
223.907685
 30
0.0
 11
1198.584168
 21
223.907685
 31
0.0
  0
LINE
  5
6FD
  8
002
 62
     3
 10
1107.674176
 20
238.407685
 30
0.0
 11
1080.674136
 21
238.407685
 31
0.0
  0
LINE
  5
6FE
  8
002
 62
     3
 10
1080.674136
 20
238.407685
 30
0.0
 11
1079.674136
 21
239.407685
 31
0.0
  0
LINE
  5
6FF
  8
002
 62
     3
 10
1079.674136
 20
239.407685
 30
0.0
 11
1079.674136
 21
255.407685
 31
0.0
  0
LINE
  5
700
  8
002
 62
     3
 10
1079.674136
 20
255.407685
 30
0.0
 11
1101.674176
 21
255.407685
 31
0.0
  0
LINE
  5
701
  8
002
 62
     3
 10
1101.674176
 20
255.407685
 30
0.0
 11
1101.674176
 21
252.978785
 31
0.0
  0
LINE
  5
702
  8
002
 62
     3
 10
1101.674176
 20
252.978785
 30
0.0
 11
1104.174176
 21
253.407685
 31
0.0
  0
LINE
  5
703
  8
002
 62
     3
 10
1104.174176
 20
253.407685
 30
0.0
 11
1107.674176
 21
253.407685
 31
0.0
  0
LINE
  5
704
  8
002
 62
     3
 10
1201.674176
 20
253.407685
 30
0.0
 11
1205.174176
 21
253.407685
 31
0.0
  0
LINE
  5
705
  8
002
 62
     3
 10
1205.174176
 20
253.407685
 30
0.0
 11
1207.674176
 21
252.978785
 31
0.0
  0
LINE
  5
706
  8
002
 62
     3
 10
1207.674176
 20
252.978785
 30
0.0
 11
1207.674176
 21
255.407685
 31
0.0
  0
LINE
  5
707
  8
002
 62
     3
 10
1207.674176
 20
255.407685
 30
0.0
 11
1229.674176
 21
255.407685
 31
0.0
  0
LINE
  5
708
  8
002
 62
     3
 10
1229.674176
 20
255.407685
 30
0.0
 11
1229.674176
 21
239.407685
 31
0.0
  0
LINE
  5
709
  8
002
 62
     3
 10
1229.674176
 20
239.407685
 30
0.0
 11
1228.674176
 21
238.407685
 31
0.0
  0
LINE
  5
70A
  8
002
 62
     3
 10
1228.674176
 20
238.407685
 30
0.0
 11
1201.674176
 21
238.407685
 31
0.0
  0
LINE
  5
70B
  8
002
 62
     3
 10
1101.674176
 20
252.978785
 30
0.0
 11
1080.245206
 21
252.978785
 31
0.0
  0
LINE
  5
70C
  8
002
 62
     3
 10
1080.245206
 20
252.978785
 30
0.0
 11
1079.674136
 21
252.407685
 31
0.0
  0
LINE
  5
70D
  8
002
 62
     3
 10
1080.674136
 20
252.978785
 30
0.0
 11
1080.674136
 21
238.407685
 31
0.0
  0
LINE
  5
70E
  8
002
 62
     3
 10
1207.674176
 20
252.978785
 30
0.0
 11
1229.103076
 21
252.978785
 31
0.0
  0
LINE
  5
70F
  8
002
 62
     3
 10
1229.103076
 20
252.978785
 30
0.0
 11
1229.674176
 21
252.407685
 31
0.0
  0
LINE
  5
710
  8
002
 62
     3
 10
1228.674176
 20
252.978785
 30
0.0
 11
1228.674176
 21
238.407685
 31
0.0
  0
LINE
  5
711
  8
002
 62
     3
 10
1197.674176
 20
275.907685
 30
0.0
 11
1197.674176
 21
215.907685
 31
0.0
  0
LINE
  5
712
  8
002
 62
     3
 10
1181.674176
 20
269.907685
 30
0.0
 11
1181.674176
 21
275.907685
 31
0.0
  0
LINE
  5
713
  8
002
 62
     3
 10
1184.341259
 20
269.907685
 30
0.0
 11
1184.341259
 21
215.907685
 31
0.0
  0
LINE
  5
714
  8
002
 62
     3
 10
1127.674176
 20
275.907685
 30
0.0
 11
1127.674176
 21
269.907685
 31
0.0
  0
LINE
  5
715
  8
002
 62
     3
 10
1111.674176
 20
215.907685
 30
0.0
 11
1111.674176
 21
275.907685
 31
0.0
  0
LINE
  5
716
  8
002
 62
     3
 10
1125.007093
 20
269.907685
 30
0.0
 11
1125.007093
 21
215.907685
 31
0.0
  0
POLYLINE
  5
717
  8
002
 62
     3
 66
     1
 10
0.0
 20
0.0
 30
0.0
  0
VERTEX
  5
719
  8
002
 62
     3
 10
1184.341259
 20
215.907685
 30
0.0
  0
VERTEX
  5
71A
  8
002
 62
     3
 10
1184.336226
 20
215.911562
 30
0.0
  0
VERTEX
  5
71B
  8
002
 62
     3
 10
1184.331193
 20
215.91544
 30
0.0
  0
VERTEX
  5
71C
  8
002
 62
     3
 10
1184.008243
 20
216.161756
 30
0.0
  0
VERTEX
  5
71D
  8
002
 62
     3
 10
1183.681806
 20
216.403419
 30
0.0
  0
VERTEX
  5
71E
  8
002
 62
     3
 10
1183.346166
 20
216.640975
 30
0.0
  0
VERTEX
  5
71F
  8
002
 62
     3
 10
1183.00398
 20
216.869106
 30
0.0
  0
VERTEX
  5
720
  8
002
 62
     3
 10
1182.646176
 20
217.089796
 30
0.0
  0
VERTEX
  5
721
  8
002
 62
     3
 10
1182.278771
 20
217.293774
 30
0.0
  0
VERTEX
  5
722
  8
002
 62
     3
 10
1181.898657
 20
217.477709
 30
0.0
  0
VERTEX
  5
723
  8
002
 62
     3
 10
1181.507307
 20
217.637592
 30
0.0
  0
VERTEX
  5
724
  8
002
 62
     3
 10
1181.172068
 20
217.749218
 30
0.0
  0
VERTEX
  5
725
  8
002
 62
     3
 10
1180.829533
 20
217.831632
 30
0.0
  0
VERTEX
  5
726
  8
002
 62
     3
 10
1180.469646
 20
217.88026
 30
0.0
  0
VERTEX
  5
727
  8
002
 62
     3
 10
1180.106204
 20
217.907685
 30
0.0
  0
SEQEND
  5
718
  8
002
 62
     3
  0
POLYLINE
  5
728
  8
002
 62
     3
 66
     1
 10
0.0
 20
0.0
 30
0.0
  0
VERTEX
  5
72A
  8
002
 62
     3
 10
1180.106204
 20
267.907685
 30
0.0
  0
VERTEX
  5
72B
  8
002
 62
     3
 10
1180.46152
 20
267.933963
 30
0.0
  0
VERTEX
  5
72C
  8
002
 62
     3
 10
1180.813504
 20
267.980506
 30
0.0
  0
VERTEX
  5
72D
  8
002
 62
     3
 10
1181.164201
 20
268.063852
 30
0.0
  0
VERTEX
  5
72E
  8
002
 62
     3
 10
1181.507307
 20
268.177777
 30
0.0
  0
VERTEX
  5
72F
  8
002
 62
     3
 10
1181.892283
 20
268.334794
 30
0.0
  0
VERTEX
  5
730
  8
002
 62
     3
 10
1182.266364
 20
268.515146
 30
0.0
  0
VERTEX
  5
731
  8
002
 62
     3
 10
1182.628131
 20
268.715023
 30
0.0
  0
VERTEX
  5
732
  8
002
 62
     3
 10
1182.980563
 20
268.931245
 30
0.0
  0
VERTEX
  5
733
  8
002
 62
     3
 10
1183.329034
 20
269.162601
 30
0.0
  0
VERTEX
  5
734
  8
002
 62
     3
 10
1183.670659
 20
269.403855
 30
0.0
  0
VERTEX
  5
735
  8
002
 62
     3
 10
1184.002742
 20
269.649468
 30
0.0
  0
VERTEX
  5
736
  8
002
 62
     3
 10
1184.331193
 20
269.899929
 30
0.0
  0
VERTEX
  5
737
  8
002
 62
     3
 10
1184.336226
 20
269.903807
 30
0.0
  0
VERTEX
  5
738
  8
002
 62
     3
 10
1184.341259
 20
269.907685
 30
0.0
  0
SEQEND
  5
729
  8
002
 62
     3
  0
ARC
  5
739
  8
002
 62
     3
 10
1179.674176
 20
269.907685
 30
0.0
 40
2.0
 50
270.0
 51
0.0
  0
ARC
  5
73A
  8
002
 62
     3
 10
1179.674176
 20
215.907685
 30
0.0
 40
2.0
 50
0.0
 51
90.0
  0
ARC
  5
73B
  8
002
 62
     3
 10
1129.674176
 20
215.907685
 30
0.0
 40
2.0
 50
90.0
 51
180.0
  0
POLYLINE
  5
73C
  8
002
 62
     3
 66
     1
 10
0.0
 20
0.0
 30
0.0
  0
VERTEX
  5
73E
  8
002
 62
     3
 10
1129.242147
 20
217.907685
 30
0.0
  0
VERTEX
  5
73F
  8
002
 62
     3
 10
1128.886831
 20
217.881406
 30
0.0
  0
VERTEX
  5
740
  8
002
 62
     3
 10
1128.534848
 20
217.834863
 30
0.0
  0
VERTEX
  5
741
  8
002
 62
     3
 10
1128.184151
 20
217.751517
 30
0.0
  0
VERTEX
  5
742
  8
002
 62
     3
 10
1127.841044
 20
217.637592
 30
0.0
  0
VERTEX
  5
743
  8
002
 62
     3
 10
1127.456069
 20
217.480575
 30
0.0
  0
VERTEX
  5
744
  8
002
 62
     3
 10
1127.081987
 20
217.300223
 30
0.0
  0
VERTEX
  5
745
  8
002
 62
     3
 10
1126.720221
 20
217.100346
 30
0.0
  0
VERTEX
  5
746
  8
002
 62
     3
 10
1126.367789
 20
216.884124
 30
0.0
  0
VERTEX
  5
747
  8
002
 62
     3
 10
1126.019318
 20
216.652768
 30
0.0
  0
VERTEX
  5
748
  8
002
 62
     3
 10
1125.677693
 20
216.411514
 30
0.0
  0
VERTEX
  5
749
  8
002
 62
     3
 10
1125.34561
 20
216.165901
 30
0.0
  0
VERTEX
  5
74A
  8
002
 62
     3
 10
1125.017159
 20
215.91544
 30
0.0
  0
VERTEX
  5
74B
  8
002
 62
     3
 10
1125.012126
 20
215.911562
 30
0.0
  0
VERTEX
  5
74C
  8
002
 62
     3
 10
1125.007093
 20
215.907685
 30
0.0
  0
SEQEND
  5
73D
  8
002
 62
     3
  0
ARC
  5
74D
  8
002
 62
     3
 10
1129.674176
 20
269.907685
 30
0.0
 40
2.0
 50
180.0
 51
270.0
  0
POLYLINE
  5
74E
  8
002
 62
     3
 66
     1
 10
0.0
 20
0.0
 30
0.0
  0
VERTEX
  5
750
  8
002
 62
     3
 10
1125.007093
 20
269.907685
 30
0.0
  0
VERTEX
  5
751
  8
002
 62
     3
 10
1125.012126
 20
269.903807
 30
0.0
  0
VERTEX
  5
752
  8
002
 62
     3
 10
1125.017159
 20
269.899929
 30
0.0
  0
VERTEX
  5
753
  8
002
 62
     3
 10
1125.340109
 20
269.653613
 30
0.0
  0
VERTEX
  5
754
  8
002
 62
     3
 10
1125.666545
 20
269.41195
 30
0.0
  0
VERTEX
  5
755
  8
002
 62
     3
 10
1126.002186
 20
269.174394
 30
0.0
  0
VERTEX
  5
756
  8
002
 62
     3
 10
1126.344372
 20
268.946264
 30
0.0
  0
VERTEX
  5
757
  8
002
 62
     3
 10
1126.702176
 20
268.725573
 30
0.0
  0
VERTEX
  5
758
  8
002
 62
     3
 10
1127.06958
 20
268.521595
 30
0.0
  0
VERTEX
  5
759
  8
002
 62
     3
 10
1127.449695
 20
268.33766
 30
0.0
  0
VERTEX
  5
75A
  8
002
 62
     3
 10
1127.841044
 20
268.177777
 30
0.0
  0
VERTEX
  5
75B
  8
002
 62
     3
 10
1128.176283
 20
268.066151
 30
0.0
  0
VERTEX
  5
75C
  8
002
 62
     3
 10
1128.518818
 20
267.983737
 30
0.0
  0
VERTEX
  5
75D
  8
002
 62
     3
 10
1128.878706
 20
267.935109
 30
0.0
  0
VERTEX
  5
75E
  8
002
 62
     3
 10
1129.242147
 20
267.907685
 30
0.0
  0
SEQEND
  5
74F
  8
002
 62
     3
  0
LINE
  5
75F
  8
002
 62
     3
 10
1180.106204
 20
267.907685
 30
0.0
 11
1129.242147
 21
267.907685
 31
0.0
  0
LINE
  5
760
  8
002
 62
     3
 10
1180.106204
 20
217.907685
 30
0.0
 11
1129.242147
 21
217.907685
 31
0.0
  0
LINE
  5
761
  8
002
 62
     3
 10
1197.674176
 20
275.907685
 30
0.0
 11
1111.674176
 21
275.907685
 31
0.0
  0
LINE
  5
762
  8
002
 62
     3
 10
1201.674176
 20
223.907685
 30
0.0
 11
1201.674176
 21
267.907685
 31
0.0
  0
LINE
  5
763
  8
002
 62
     3
 10
1107.674176
 20
223.907685
 30
0.0
 11
1107.674176
 21
267.907685
 31
0.0
  0
POLYLINE
  5
764
  8
002
 62
     3
 66
     1
 10
0.0
 20
0.0
 30
0.0
  0
VERTEX
  5
766
  8
002
 62
     3
 10
1198.584168
 20
267.907685
 30
0.0
  0
VERTEX
  5
767
  8
002
 62
     3
 10
1198.462179
 20
267.918612
 30
0.0
  0
VERTEX
  5
768
  8
002
 62
     3
 10
1198.342656
 20
267.940644
 30
0.0
  0
VERTEX
  5
769
  8
002
 62
     3
 10
1198.234707
 20
267.979388
 30
0.0
  0
VERTEX
  5
76A
  8
002
 62
     3
 10
1198.133466
 20
268.034647
 30
0.0
  0
VERTEX
  5
76B
  8
002
 62
     3
 10
1198.018099
 20
268.123814
 30
0.0
  0
VERTEX
  5
76C
  8
002
 62
     3
 10
1197.919191
 20
268.230593
 30
0.0
  0
VERTEX
  5
76D
  8
002
 62
     3
 10
1197.837285
 20
268.352483
 30
0.0
  0
VERTEX
  5
76E
  8
002
 62
     3
 10
1197.772154
 20
268.484486
 30
0.0
  0
VERTEX
  5
76F
  8
002
 62
     3
 10
1197.72939
 20
268.600873
 30
0.0
  0
VERTEX
  5
770
  8
002
 62
     3
 10
1197.699364
 20
268.720716
 30
0.0
  0
VERTEX
  5
771
  8
002
 62
     3
 10
1197.683606
 20
268.832979
 30
0.0
  0
VERTEX
  5
772
  8
002
 62
     3
 10
1197.674176
 20
268.946318
 30
0.0
  0
SEQEND
  5
765
  8
002
 62
     3
  0
POLYLINE
  5
773
  8
002
 62
     3
 66
     1
 10
0.0
 20
0.0
 30
0.0
  0
VERTEX
  5
775
  8
002
 62
     3
 10
1197.674176
 20
222.869051
 30
0.0
  0
VERTEX
  5
776
  8
002
 62
     3
 10
1197.695591
 20
223.046647
 30
0.0
  0
VERTEX
  5
777
  8
002
 62
     3
 10
1197.732168
 20
223.220917
 30
0.0
  0
VERTEX
  5
778
  8
002
 62
     3
 10
1197.804934
 20
223.406012
 30
0.0
  0
VERTEX
  5
779
  8
002
 62
     3
 10
1197.911228
 20
223.574503
 30
0.0
  0
VERTEX
  5
77A
  8
002
 62
     3
 10
1197.986164
 20
223.660596
 30
0.0
  0
VERTEX
  5
77B
  8
002
 62
     3
 10
1198.071162
 20
223.73682
 30
0.0
  0
VERTEX
  5
77C
  8
002
 62
     3
 10
1198.172291
 20
223.804714
 30
0.0
  0
VERTEX
  5
77D
  8
002
 62
     3
 10
1198.28246
 20
223.854916
 30
0.0
  0
VERTEX
  5
77E
  8
002
 62
     3
 10
1198.430747
 20
223.89028
 30
0.0
  0
VERTEX
  5
77F
  8
002
 62
     3
 10
1198.584168
 20
223.907685
 30
0.0
  0
SEQEND
  5
774
  8
002
 62
     3
  0
POLYLINE
  5
780
  8
002
 62
     3
 66
     1
 10
0.0
 20
0.0
 30
0.0
  0
VERTEX
  5
782
  8
002
 62
     3
 10
1110.764184
 20
223.907685
 30
0.0
  0
VERTEX
  5
783
  8
002
 62
     3
 10
1110.886173
 20
223.896757
 30
0.0
  0
VERTEX
  5
784
  8
002
 62
     3
 10
1111.005695
 20
223.874725
 30
0.0
  0
VERTEX
  5
785
  8
002
 62
     3
 10
1111.113644
 20
223.835981
 30
0.0
  0
VERTEX
  5
786
  8
002
 62
     3
 10
1111.214886
 20
223.780722
 30
0.0
  0
VERTEX
  5
787
  8
002
 62
     3
 10
1111.330253
 20
223.691555
 30
0.0
  0
VERTEX
  5
788
  8
002
 62
     3
 10
1111.429161
 20
223.584776
 30
0.0
  0
VERTEX
  5
789
  8
002
 62
     3
 10
1111.511067
 20
223.462886
 30
0.0
  0
VERTEX
  5
78A
  8
002
 62
     3
 10
1111.576198
 20
223.330883
 30
0.0
  0
VERTEX
  5
78B
  8
002
 62
     3
 10
1111.618961
 20
223.214496
 30
0.0
  0
VERTEX
  5
78C
  8
002
 62
     3
 10
1111.648987
 20
223.094653
 30
0.0
  0
VERTEX
  5
78D
  8
002
 62
     3
 10
1111.664745
 20
222.98239
 30
0.0
  0
VERTEX
  5
78E
  8
002
 62
     3
 10
1111.674176
 20
222.869051
 30
0.0
  0
SEQEND
  5
781
  8
002
 62
     3
  0
POLYLINE
  5
78F
  8
002
 62
     3
 66
     1
 10
0.0
 20
0.0
 30
0.0
  0
VERTEX
  5
791
  8
002
 62
     3
 10
1111.674176
 20
268.946318
 30
0.0
  0
VERTEX
  5
792
  8
002
 62
     3
 10
1111.652761
 20
268.768722
 30
0.0
  0
VERTEX
  5
793
  8
002
 62
     3
 10
1111.616184
 20
268.594452
 30
0.0
  0
VERTEX
  5
794
  8
002
 62
     3
 10
1111.543417
 20
268.409357
 30
0.0
  0
VERTEX
  5
795
  8
002
 62
     3
 10
1111.437124
 20
268.240867
 30
0.0
  0
VERTEX
  5
796
  8
002
 62
     3
 10
1111.362187
 20
268.154773
 30
0.0
  0
VERTEX
  5
797
  8
002
 62
     3
 10
1111.277189
 20
268.078549
 30
0.0
  0
VERTEX
  5
798
  8
002
 62
     3
 10
1111.17606
 20
268.010655
 30
0.0
  0
VERTEX
  5
799
  8
002
 62
     3
 10
1111.065892
 20
267.960453
 30
0.0
  0
VERTEX
  5
79A
  8
002
 62
     3
 10
1110.917604
 20
267.925089
 30
0.0
  0
VERTEX
  5
79B
  8
002
 62
     3
 10
1110.764184
 20
267.907685
 30
0.0
  0
SEQEND
  5
790
  8
002
 62
     3
  0
LINE
  5
79C
  8
002
 62
     3
 10
1274.871176
 20
215.907685
 30
0.0
 11
1274.871176
 21
275.907685
 31
0.0
  0
LINE
  5
79D
  8
002
 62
     3
 10
1385.871176
 20
215.907685
 30
0.0
 11
1385.871176
 21
275.907685
 31
0.0
  0
LINE
  5
79E
  8
002
 62
     3
 10
1290.871176
 20
215.907685
 30
0.0
 11
1290.871176
 21
275.907685
 31
0.0
  0
LINE
  5
79F
  8
002
 62
     3
 10
1385.871176
 20
215.907685
 30
0.0
 11
1369.871176
 21
215.907685
 31
0.0
  0
LINE
  5
7A0
  8
002
 62
     3
 10
1369.871176
 20
275.907685
 30
0.0
 11
1385.871176
 21
275.907685
 31
0.0
  0
LINE
  5
7A1
  8
002
 62
     3
 10
1353.871176
 20
221.907685
 30
0.0
 11
1353.871176
 21
217.907685
 31
0.0
  0
LINE
  5
7A2
  8
002
 62
     3
 10
1369.871176
 20
269.907685
 30
0.0
 11
1369.871176
 21
275.907685
 31
0.0
  0
LINE
  5
7A3
  8
002
 62
     3
 10
1369.871176
 20
221.907685
 30
0.0
 11
1369.871176
 21
215.907685
 31
0.0
  0
ARC
  5
7A4
  8
002
 62
     3
 10
1347.371176
 20
269.907685
 30
0.0
 40
2.0
 50
180.0
 51
270.0
  0
LINE
  5
7A5
  8
002
 62
     3
 10
1345.371176
 20
269.907685
 30
0.0
 11
1345.371176
 21
275.907685
 31
0.0
  0
LINE
  5
7A6
  8
002
 62
     3
 10
1292.871176
 20
217.907685
 30
0.0
 11
1353.871176
 21
217.907685
 31
0.0
  0
ARC
  5
7A7
  8
002
 62
     3
 10
1292.871176
 20
215.907685
 30
0.0
 40
2.0
 50
90.0
 51
180.0
  0
ARC
  5
7A8
  8
002
 62
     3
 10
1367.871176
 20
221.907685
 30
0.0
 40
2.0
 50
360.0
 51
90.0
  0
ARC
  5
7A9
  8
002
 62
     3
 10
1355.871176
 20
221.907685
 30
0.0
 40
2.0
 50
90.0
 51
180.0
  0
ARC
  5
7AA
  8
002
 62
     3
 10
1367.871176
 20
269.907685
 30
0.0
 40
2.0
 50
270.0
 51
0.0
  0
LINE
  5
7AB
  8
002
 62
     3
 10
1327.871176
 20
225.907685
 30
0.0
 11
1327.871176
 21
265.907685
 31
0.0
  0
LINE
  5
7AC
  8
002
 62
     3
 10
1369.871176
 20
223.907685
 30
0.0
 11
1329.871176
 21
223.907685
 31
0.0
  0
LINE
  5
7AD
  8
002
 62
     3
 10
1371.871176
 20
265.907685
 30
0.0
 11
1371.871176
 21
225.907685
 31
0.0
  0
LINE
  5
7AE
  8
002
 62
     3
 10
1369.871176
 20
267.907685
 30
0.0
 11
1329.871176
 21
267.907685
 31
0.0
  0
ARC
  5
7AF
  8
002
 62
     3
 10
1329.871176
 20
265.907685
 30
0.0
 40
2.0
 50
90.0
 51
180.0
  0
ARC
  5
7B0
  8
002
 62
     3
 10
1329.871176
 20
225.907685
 30
0.0
 40
2.0
 50
180.0
 51
270.0
  0
ARC
  5
7B1
  8
002
 62
     3
 10
1369.871176
 20
225.907685
 30
0.0
 40
2.0
 50
270.0
 51
0.0
  0
ARC
  5
7B2
  8
002
 62
     3
 10
1369.871176
 20
265.907685
 30
0.0
 40
2.0
 50
360.0
 51
90.0
  0
LINE
  5
7B3
  8
002
 62
     3
 10
1348.871176
 20
217.907685
 30
0.0
 11
1348.871176
 21
215.907685
 31
0.0
  0
LINE
  5
7B4
  8
002
 62
    40
 10
1347.788676
 20
215.907685
 30
0.0
 11
1347.788676
 21
217.907685
 31
0.0
  0
LINE
  5
7B5
  8
002
 62
     3
 10
1348.871176
 20
215.907685
 30
0.0
 11
1274.871176
 21
215.907685
 31
0.0
  0
LINE
  5
7B6
  8
002
 62
     3
 10
1345.371176
 20
275.907685
 30
0.0
 11
1274.871176
 21
275.907685
 31
0.0
  0
LINE
  5
7B7
  8
002
 62
     3
 10
1348.156976
 20
230.025085
 30
0.0
 11
1348.156976
 21
232.079085
 31
0.0
  0
CIRCLE
  5
7B8
  8
002
 62
     3
 10
1345.871176
 20
232.079085
 30
0.0
 40
1.0
  0
ARC
  5
7B9
  8
002
 62
     3
 10
1345.871176
 20
232.079085
 30
0.0
 40
2.285799999999995
 50
0.0
 51
134.849339
  0
LINE
  5
7BA
  8
002
 62
     3
 10
1351.585476
 20
232.079085
 30
0.0
 11
1351.585476
 21
230.025085
 31
0.0
  0
ARC
  5
7BB
  8
002
 62
     3
 10
1353.871176
 20
232.079085
 30
0.0
 40
2.285730572486588
 50
45.150661
 51
180.0
  0
ARC
  5
7BC
  8
002
 62
     3
 10
1357.095176
 20
235.320085
 30
0.0
 40
2.285730572486588
 50
225.150661
 51
306.868895
  0
CIRCLE
  5
7BD
  8
002
 62
     3
 10
1353.871176
 20
232.079085
 30
0.0
 40
1.0
  0
ARC
  5
7BE
  8
002
 62
     3
 10
1342.647276
 20
235.320085
 30
0.0
 40
2.28572000035006
 50
233.131105
 51
314.847561
  0
ARC
  5
7BF
  8
002
 62
     3
 10
1349.871176
 20
244.952785
 30
0.0
 40
14.32628000738505
 50
306.868058
 51
233.132262
  0
LINE
  5
7C0
  8
002
 62
     3
 10
1352.121176
 20
250.407685
 30
0.0
 11
1347.621176
 21
250.407685
 31
0.0
  0
LINE
  5
7C1
  8
002
 62
     3
 10
1347.621176
 20
250.407685
 30
0.0
 11
1347.371176
 21
250.657685
 31
0.0
  0
LINE
  5
7C2
  8
002
 62
     3
 10
1347.371176
 20
250.657685
 30
0.0
 11
1347.371176
 21
255.157685
 31
0.0
  0
LINE
  5
7C3
  8
002
 62
     3
 10
1347.371176
 20
255.157685
 30
0.0
 11
1347.621176
 21
255.407685
 31
0.0
  0
LINE
  5
7C4
  8
002
 62
     3
 10
1347.621176
 20
255.407685
 30
0.0
 11
1352.121176
 21
255.407685
 31
0.0
  0
LINE
  5
7C5
  8
002
 62
     3
 10
1352.121176
 20
255.407685
 30
0.0
 11
1352.371176
 21
255.157685
 31
0.0
  0
LINE
  5
7C6
  8
002
 62
     3
 10
1352.371176
 20
255.157685
 30
0.0
 11
1352.371176
 21
250.657685
 31
0.0
  0
LINE
  5
7C7
  8
002
 62
     3
 10
1352.371176
 20
250.657685
 30
0.0
 11
1352.121176
 21
250.407685
 31
0.0
  0
ARC
  5
7C8
  8
002
 62
     3
 10
1352.171176
 20
250.607685
 30
0.0
 40
0.1999999999999886
 50
270.0
 51
0.0
  0
ARC
  5
7C9
  8
002
 62
     3
 10
1349.871176
 20
245.907685
 30
0.0
 40
7.499936066394191
 50
109.471393
 51
70.528607
  0
ARC
  5
7CA
  8
002
 62
     3
 10
1347.571176
 20
250.607685
 30
0.0
 40
0.2000000000000455
 50
180.0
 51
270.0
  0
CIRCLE
  5
7CB
  8
002
 62
     3
 10
1349.871176
 20
245.907685
 30
0.0
 40
16.0
  0
LINE
  5
7CC
  8
002
  6
CENTER
 62
    40
 10
1282.871176
 20
280.319885
 30
0.0
 11
1282.871176
 21
211.012985
 31
0.0
  0
LINE
  5
7CD
  8
002
  6
CENTER
 62
    40
 10
1377.871276
 20
280.319885
 30
0.0
 11
1377.871276
 21
211.012985
 31
0.0
  0
LINE
  5
7CE
  8
002
  6
CENTER
 62
    40
 10
1349.871176
 20
215.907685
 30
0.0
 11
1349.871176
 21
277.359138
 31
0.0
  0
LINE
  5
7CF
  8
002
 62
     3
 10
1529.847297
 20
275.907685
 30
0.0
 11
1529.847297
 21
215.907685
 31
0.0
  0
LINE
  5
7D0
  8
002
 62
     3
 10
1545.847297
 20
215.907685
 30
0.0
 11
1545.847297
 21
275.907685
 31
0.0
  0
LINE
  5
7D1
  8
002
 62
     3
 10
1459.847297
 20
275.907685
 30
0.0
 11
1459.847297
 21
215.907685
 31
0.0
  0
LINE
  5
7D2
  8
002
 62
     3
 10
1475.847297
 20
215.907685
 30
0.0
 11
1475.847297
 21
275.907685
 31
0.0
  0
POLYLINE
  5
7D3
  8
002
 62
     3
 66
     1
 10
0.0
 20
0.0
 30
0.0
  0
VERTEX
  5
7D5
  8
002
 62
     3
 10
1529.847297
 20
222.869051
 30
0.0
  0
VERTEX
  5
7D6
  8
002
 62
     3
 10
1529.825882
 20
223.046647
 30
0.0
  0
VERTEX
  5
7D7
  8
002
 62
     3
 10
1529.789305
 20
223.220917
 30
0.0
  0
VERTEX
  5
7D8
  8
002
 62
     3
 10
1529.716539
 20
223.406012
 30
0.0
  0
VERTEX
  5
7D9
  8
002
 62
     3
 10
1529.610245
 20
223.574503
 30
0.0
  0
VERTEX
  5
7DA
  8
002
 62
     3
 10
1529.535309
 20
223.660596
 30
0.0
  0
VERTEX
  5
7DB
  8
002
 62
     3
 10
1529.450311
 20
223.73682
 30
0.0
  0
VERTEX
  5
7DC
  8
002
 62
     3
 10
1529.349182
 20
223.804714
 30
0.0
  0
VERTEX
  5
7DD
  8
002
 62
     3
 10
1529.239013
 20
223.854916
 30
0.0
  0
VERTEX
  5
7DE
  8
002
 62
     3
 10
1529.090726
 20
223.89028
 30
0.0
  0
VERTEX
  5
7DF
  8
002
 62
     3
 10
1528.937305
 20
223.907685
 30
0.0
  0
SEQEND
  5
7D4
  8
002
 62
     3
  0
POLYLINE
  5
7E0
  8
002
 62
     3
 66
     1
 10
0.0
 20
0.0
 30
0.0
  0
VERTEX
  5
7E2
  8
002
 62
     3
 10
1546.757289
 20
223.907685
 30
0.0
  0
VERTEX
  5
7E3
  8
002
 62
     3
 10
1546.6353
 20
223.896757
 30
0.0
  0
VERTEX
  5
7E4
  8
002
 62
     3
 10
1546.515778
 20
223.874725
 30
0.0
  0
VERTEX
  5
7E5
  8
002
 62
     3
 10
1546.407829
 20
223.835981
 30
0.0
  0
VERTEX
  5
7E6
  8
002
 62
     3
 10
1546.306587
 20
223.780722
 30
0.0
  0
VERTEX
  5
7E7
  8
002
 62
     3
 10
1546.19122
 20
223.691555
 30
0.0
  0
VERTEX
  5
7E8
  8
002
 62
     3
 10
1546.092312
 20
223.584776
 30
0.0
  0
VERTEX
  5
7E9
  8
002
 62
     3
 10
1546.010406
 20
223.462886
 30
0.0
  0
VERTEX
  5
7EA
  8
002
 62
     3
 10
1545.945275
 20
223.330883
 30
0.0
  0
VERTEX
  5
7EB
  8
002
 62
     3
 10
1545.902512
 20
223.214496
 30
0.0
  0
VERTEX
  5
7EC
  8
002
 62
     3
 10
1545.872486
 20
223.094653
 30
0.0
  0
VERTEX
  5
7ED
  8
002
 62
     3
 10
1545.856728
 20
222.98239
 30
0.0
  0
VERTEX
  5
7EE
  8
002
 62
     3
 10
1545.847297
 20
222.869051
 30
0.0
  0
SEQEND
  5
7E1
  8
002
 62
     3
  0
POLYLINE
  5
7EF
  8
002
 62
     3
 66
     1
 10
0.0
 20
0.0
 30
0.0
  0
VERTEX
  5
7F1
  8
002
 62
     3
 10
1545.847297
 20
268.946318
 30
0.0
  0
VERTEX
  5
7F2
  8
002
 62
     3
 10
1545.868712
 20
268.768722
 30
0.0
  0
VERTEX
  5
7F3
  8
002
 62
     3
 10
1545.905289
 20
268.594452
 30
0.0
  0
VERTEX
  5
7F4
  8
002
 62
     3
 10
1545.978056
 20
268.409357
 30
0.0
  0
VERTEX
  5
7F5
  8
002
 62
     3
 10
1546.084349
 20
268.240867
 30
0.0
  0
VERTEX
  5
7F6
  8
002
 62
     3
 10
1546.159286
 20
268.154773
 30
0.0
  0
VERTEX
  5
7F7
  8
002
 62
     3
 10
1546.244284
 20
268.078549
 30
0.0
  0
VERTEX
  5
7F8
  8
002
 62
     3
 10
1546.345413
 20
268.010655
 30
0.0
  0
VERTEX
  5
7F9
  8
002
 62
     3
 10
1546.455581
 20
267.960453
 30
0.0
  0
VERTEX
  5
7FA
  8
002
 62
     3
 10
1546.603869
 20
267.925089
 30
0.0
  0
VERTEX
  5
7FB
  8
002
 62
     3
 10
1546.757289
 20
267.907685
 30
0.0
  0
SEQEND
  5
7F0
  8
002
 62
     3
  0
POLYLINE
  5
7FC
  8
002
 62
     3
 66
     1
 10
0.0
 20
0.0
 30
0.0
  0
VERTEX
  5
7FE
  8
002
 62
     3
 10
1528.937305
 20
267.907685
 30
0.0
  0
VERTEX
  5
7FF
  8
002
 62
     3
 10
1529.059294
 20
267.918612
 30
0.0
  0
VERTEX
  5
800
  8
002
 62
     3
 10
1529.178817
 20
267.940644
 30
0.0
  0
VERTEX
  5
801
  8
002
 62
     3
 10
1529.286766
 20
267.979388
 30
0.0
  0
VERTEX
  5
802
  8
002
 62
     3
 10
1529.388007
 20
268.034647
 30
0.0
  0
VERTEX
  5
803
  8
002
 62
     3
 10
1529.503374
 20
268.123814
 30
0.0
  0
VERTEX
  5
804
  8
002
 62
     3
 10
1529.602282
 20
268.230593
 30
0.0
  0
VERTEX
  5
805
  8
002
 62
     3
 10
1529.684188
 20
268.352483
 30
0.0
  0
VERTEX
  5
806
  8
002
 62
     3
 10
1529.749319
 20
268.484486
 30
0.0
  0
VERTEX
  5
807
  8
002
 62
     3
 10
1529.792083
 20
268.600873
 30
0.0
  0
VERTEX
  5
808
  8
002
 62
     3
 10
1529.822109
 20
268.720716
 30
0.0
  0
VERTEX
  5
809
  8
002
 62
     3
 10
1529.837867
 20
268.832979
 30
0.0
  0
VERTEX
  5
80A
  8
002
 62
     3
 10
1529.847297
 20
268.946318
 30
0.0
  0
SEQEND
  5
7FD
  8
002
 62
     3
  0
POLYLINE
  5
80B
  8
002
 62
     3
 66
     1
 10
0.0
 20
0.0
 30
0.0
  0
VERTEX
  5
80D
  8
002
 62
     3
 10
1475.847297
 20
268.946318
 30
0.0
  0
VERTEX
  5
80E
  8
002
 62
     3
 10
1475.868712
 20
268.768722
 30
0.0
  0
VERTEX
  5
80F
  8
002
 62
     3
 10
1475.905289
 20
268.594452
 30
0.0
  0
VERTEX
  5
810
  8
002
 62
     3
 10
1475.978056
 20
268.409357
 30
0.0
  0
VERTEX
  5
811
  8
002
 62
     3
 10
1476.084349
 20
268.240867
 30
0.0
  0
VERTEX
  5
812
  8
002
 62
     3
 10
1476.159286
 20
268.154773
 30
0.0
  0
VERTEX
  5
813
  8
002
 62
     3
 10
1476.244284
 20
268.078549
 30
0.0
  0
VERTEX
  5
814
  8
002
 62
     3
 10
1476.345413
 20
268.010655
 30
0.0
  0
VERTEX
  5
815
  8
002
 62
     3
 10
1476.455581
 20
267.960453
 30
0.0
  0
VERTEX
  5
816
  8
002
 62
     3
 10
1476.603869
 20
267.925089
 30
0.0
  0
VERTEX
  5
817
  8
002
 62
     3
 10
1476.757289
 20
267.907685
 30
0.0
  0
SEQEND
  5
80C
  8
002
 62
     3
  0
POLYLINE
  5
818
  8
002
 62
     3
 66
     1
 10
0.0
 20
0.0
 30
0.0
  0
VERTEX
  5
81A
  8
002
 62
     3
 10
1458.937305
 20
267.907685
 30
0.0
  0
VERTEX
  5
81B
  8
002
 62
     3
 10
1459.059294
 20
267.918612
 30
0.0
  0
VERTEX
  5
81C
  8
002
 62
     3
 10
1459.178817
 20
267.940644
 30
0.0
  0
VERTEX
  5
81D
  8
002
 62
     3
 10
1459.286766
 20
267.979388
 30
0.0
  0
VERTEX
  5
81E
  8
002
 62
     3
 10
1459.388007
 20
268.034647
 30
0.0
  0
VERTEX
  5
81F
  8
002
 62
     3
 10
1459.503374
 20
268.123814
 30
0.0
  0
VERTEX
  5
820
  8
002
 62
     3
 10
1459.602282
 20
268.230593
 30
0.0
  0
VERTEX
  5
821
  8
002
 62
     3
 10
1459.684188
 20
268.352483
 30
0.0
  0
VERTEX
  5
822
  8
002
 62
     3
 10
1459.749319
 20
268.484486
 30
0.0
  0
VERTEX
  5
823
  8
002
 62
     3
 10
1459.792083
 20
268.600873
 30
0.0
  0
VERTEX
  5
824
  8
002
 62
     3
 10
1459.822109
 20
268.720716
 30
0.0
  0
VERTEX
  5
825
  8
002
 62
     3
 10
1459.837867
 20
268.832979
 30
0.0
  0
VERTEX
  5
826
  8
002
 62
     3
 10
1459.847297
 20
268.946318
 30
0.0
  0
SEQEND
  5
819
  8
002
 62
     3
  0
POLYLINE
  5
827
  8
002
 62
     3
 66
     1
 10
0.0
 20
0.0
 30
0.0
  0
VERTEX
  5
829
  8
002
 62
     3
 10
1459.847297
 20
222.869051
 30
0.0
  0
VERTEX
  5
82A
  8
002
 62
     3
 10
1459.825882
 20
223.046647
 30
0.0
  0
VERTEX
  5
82B
  8
002
 62
     3
 10
1459.789305
 20
223.220917
 30
0.0
  0
VERTEX
  5
82C
  8
002
 62
     3
 10
1459.716539
 20
223.406012
 30
0.0
  0
VERTEX
  5
82D
  8
002
 62
     3
 10
1459.610245
 20
223.574503
 30
0.0
  0
VERTEX
  5
82E
  8
002
 62
     3
 10
1459.535309
 20
223.660596
 30
0.0
  0
VERTEX
  5
82F
  8
002
 62
     3
 10
1459.450311
 20
223.73682
 30
0.0
  0
VERTEX
  5
830
  8
002
 62
     3
 10
1459.349182
 20
223.804714
 30
0.0
  0
VERTEX
  5
831
  8
002
 62
     3
 10
1459.239013
 20
223.854916
 30
0.0
  0
VERTEX
  5
832
  8
002
 62
     3
 10
1459.090726
 20
223.89028
 30
0.0
  0
VERTEX
  5
833
  8
002
 62
     3
 10
1458.937305
 20
223.907685
 30
0.0
  0
SEQEND
  5
828
  8
002
 62
     3
  0
POLYLINE
  5
834
  8
002
 62
     3
 66
     1
 10
0.0
 20
0.0
 30
0.0
  0
VERTEX
  5
836
  8
002
 62
     3
 10
1476.757289
 20
223.907685
 30
0.0
  0
VERTEX
  5
837
  8
002
 62
     3
 10
1476.6353
 20
223.896757
 30
0.0
  0
VERTEX
  5
838
  8
002
 62
     3
 10
1476.515778
 20
223.874725
 30
0.0
  0
VERTEX
  5
839
  8
002
 62
     3
 10
1476.407829
 20
223.835981
 30
0.0
  0
VERTEX
  5
83A
  8
002
 62
     3
 10
1476.306587
 20
223.780722
 30
0.0
  0
VERTEX
  5
83B
  8
002
 62
     3
 10
1476.19122
 20
223.691555
 30
0.0
  0
VERTEX
  5
83C
  8
002
 62
     3
 10
1476.092312
 20
223.584776
 30
0.0
  0
VERTEX
  5
83D
  8
002
 62
     3
 10
1476.010406
 20
223.462886
 30
0.0
  0
VERTEX
  5
83E
  8
002
 62
     3
 10
1475.945275
 20
223.330883
 30
0.0
  0
VERTEX
  5
83F
  8
002
 62
     3
 10
1475.902512
 20
223.214496
 30
0.0
  0
VERTEX
  5
840
  8
002
 62
     3
 10
1475.872486
 20
223.094653
 30
0.0
  0
VERTEX
  5
841
  8
002
 62
     3
 10
1475.856728
 20
222.98239
 30
0.0
  0
VERTEX
  5
842
  8
002
 62
     3
 10
1475.847297
 20
222.869051
 30
0.0
  0
SEQEND
  5
835
  8
002
 62
     3
  0
LINE
  5
843
  8
002
 62
     3
 10
1549.847297
 20
267.907685
 30
0.0
 11
1549.847297
 21
223.907685
 31
0.0
  0
LINE
  5
844
  8
002
 62
     3
 10
1455.847297
 20
267.907685
 30
0.0
 11
1455.847297
 21
223.907685
 31
0.0
  0
LINE
  5
845
  8
002
 62
     3
 10
1528.937305
 20
267.907685
 30
0.0
 11
1476.757289
 21
267.907685
 31
0.0
  0
LINE
  5
846
  8
002
 62
     3
 10
1528.937305
 20
223.907685
 30
0.0
 11
1476.757289
 21
223.907685
 31
0.0
  0
LINE
  5
847
  8
002
 62
     3
 10
1529.847297
 20
217.907685
 30
0.0
 11
1475.847297
 21
217.907685
 31
0.0
  0
LINE
  5
848
  8
002
 62
     3
 10
1545.847297
 20
275.907685
 30
0.0
 11
1459.847297
 21
275.907685
 31
0.0
  0
ARC
  5
849
  8
002
 62
     3
 10
1527.847297
 20
215.907685
 30
0.0
 40
2.0
 50
0.0
 51
90.0
  0
ARC
  5
84A
  8
002
 62
     3
 10
1477.847297
 20
215.907685
 30
0.0
 40
2.0
 50
90.0
 51
180.0
  0
LINE
  5
84B
  8
002
 62
     3
 10
1455.847297
 20
223.907685
 30
0.0
 11
1458.937305
 21
223.907685
 31
0.0
  0
LINE
  5
84C
  8
002
 62
     3
 10
1455.847297
 20
267.907685
 30
0.0
 11
1458.937305
 21
267.907685
 31
0.0
  0
LINE
  5
84D
  8
002
 62
     3
 10
1549.847297
 20
267.907685
 30
0.0
 11
1546.757289
 21
267.907685
 31
0.0
  0
LINE
  5
84E
  8
002
 62
     3
 10
1549.847297
 20
223.907685
 30
0.0
 11
1546.757289
 21
223.907685
 31
0.0
  0
LINE
  5
84F
  8
002
 62
     3
 10
1545.847297
 20
215.907685
 30
0.0
 11
1459.847297
 21
215.907685
 31
0.0
  0
LINE
  5
850
  8
002
 62
     3
 10
1455.847297
 20
238.407685
 30
0.0
 11
1428.847257
 21
238.407685
 31
0.0
  0
LINE
  5
851
  8
002
 62
     3
 10
1428.847257
 20
238.407685
 30
0.0
 11
1427.847257
 21
239.407685
 31
0.0
  0
LINE
  5
852
  8
002
 62
     3
 10
1427.847257
 20
239.407685
 30
0.0
 11
1427.847257
 21
255.407685
 31
0.0
  0
LINE
  5
853
  8
002
 62
     3
 10
1427.847257
 20
255.407685
 30
0.0
 11
1449.847297
 21
255.407685
 31
0.0
  0
LINE
  5
854
  8
002
 62
     3
 10
1449.847297
 20
255.407685
 30
0.0
 11
1449.847297
 21
252.978785
 31
0.0
  0
LINE
  5
855
  8
002
 62
     3
 10
1449.847297
 20
252.978785
 30
0.0
 11
1452.347297
 21
253.407685
 31
0.0
  0
LINE
  5
856
  8
002
 62
     3
 10
1452.347297
 20
253.407685
 30
0.0
 11
1455.847297
 21
253.407685
 31
0.0
  0
LINE
  5
857
  8
002
 62
     3
 10
1549.847297
 20
253.407685
 30
0.0
 11
1553.347297
 21
253.407685
 31
0.0
  0
LINE
  5
858
  8
002
 62
     3
 10
1553.347297
 20
253.407685
 30
0.0
 11
1555.847297
 21
252.978785
 31
0.0
  0
LINE
  5
859
  8
002
 62
     3
 10
1555.847297
 20
252.978785
 30
0.0
 11
1555.847297
 21
255.407685
 31
0.0
  0
LINE
  5
85A
  8
002
 62
     3
 10
1555.847297
 20
255.407685
 30
0.0
 11
1577.847297
 21
255.407685
 31
0.0
  0
LINE
  5
85B
  8
002
 62
     3
 10
1577.847297
 20
255.407685
 30
0.0
 11
1577.847297
 21
239.407685
 31
0.0
  0
LINE
  5
85C
  8
002
 62
     3
 10
1577.847297
 20
239.407685
 30
0.0
 11
1576.847297
 21
238.407685
 31
0.0
  0
LINE
  5
85D
  8
002
 62
     3
 10
1576.847297
 20
238.407685
 30
0.0
 11
1549.847297
 21
238.407685
 31
0.0
  0
LINE
  5
85E
  8
002
 62
     3
 10
1449.847297
 20
252.978785
 30
0.0
 11
1428.418327
 21
252.978785
 31
0.0
  0
LINE
  5
85F
  8
002
 62
     3
 10
1428.418327
 20
252.978785
 30
0.0
 11
1427.847257
 21
252.407685
 31
0.0
  0
LINE
  5
860
  8
002
 62
     3
 10
1428.847257
 20
252.978785
 30
0.0
 11
1428.847257
 21
238.407685
 31
0.0
  0
LINE
  5
861
  8
002
 62
     3
 10
1555.847297
 20
252.978785
 30
0.0
 11
1577.276197
 21
252.978785
 31
0.0
  0
LINE
  5
862
  8
002
 62
     3
 10
1577.276197
 20
252.978785
 30
0.0
 11
1577.847297
 21
252.407685
 31
0.0
  0
LINE
  5
863
  8
002
 62
     3
 10
1576.847297
 20
252.978785
 30
0.0
 11
1576.847297
 21
238.407685
 31
0.0
  0
LINE
  5
864
  8
002
 62
     3
 10
1844.476076
 20
215.907685
 30
0.0
 11
1844.476076
 21
275.907685
 31
0.0
  0
LINE
  5
865
  8
002
 62
     3
 10
1955.476076
 20
215.907685
 30
0.0
 11
1955.476076
 21
275.907685
 31
0.0
  0
LINE
  5
866
  8
002
 62
     3
 10
1860.476076
 20
215.907685
 30
0.0
 11
1860.476076
 21
275.907685
 31
0.0
  0
LINE
  5
867
  8
002
 62
     3
 10
1955.476076
 20
215.907685
 30
0.0
 11
1939.476076
 21
215.907685
 31
0.0
  0
LINE
  5
868
  8
002
 62
     3
 10
1939.476076
 20
275.907685
 30
0.0
 11
1955.476076
 21
275.907685
 31
0.0
  0
LINE
  5
869
  8
002
 62
     3
 10
1923.476076
 20
221.907685
 30
0.0
 11
1923.476076
 21
217.907685
 31
0.0
  0
LINE
  5
86A
  8
002
 62
     3
 10
1939.476076
 20
269.907685
 30
0.0
 11
1939.476076
 21
275.907685
 31
0.0
  0
LINE
  5
86B
  8
002
 62
     3
 10
1939.476076
 20
221.907685
 30
0.0
 11
1939.476076
 21
215.907685
 31
0.0
  0
ARC
  5
86C
  8
002
 62
     3
 10
1916.976076
 20
269.907685
 30
0.0
 40
2.0
 50
180.0
 51
270.0
  0
LINE
  5
86D
  8
002
 62
     3
 10
1914.976076
 20
269.907685
 30
0.0
 11
1914.976076
 21
275.907685
 31
0.0
  0
LINE
  5
86E
  8
002
 62
     3
 10
1862.476076
 20
217.907685
 30
0.0
 11
1923.476076
 21
217.907685
 31
0.0
  0
ARC
  5
86F
  8
002
 62
     3
 10
1862.476076
 20
215.907685
 30
0.0
 40
2.0
 50
90.0
 51
180.0
  0
ARC
  5
870
  8
002
 62
     3
 10
1937.476076
 20
221.907685
 30
0.0
 40
2.0
 50
360.0
 51
90.0
  0
ARC
  5
871
  8
002
 62
     3
 10
1925.476076
 20
221.907685
 30
0.0
 40
2.0
 50
90.0
 51
180.0
  0
ARC
  5
872
  8
002
 62
     3
 10
1937.476076
 20
269.907685
 30
0.0
 40
2.0
 50
270.0
 51
0.0
  0
LINE
  5
873
  8
002
 62
     3
 10
1897.476076
 20
225.907685
 30
0.0
 11
1897.476076
 21
265.907685
 31
0.0
  0
LINE
  5
874
  8
002
 62
     3
 10
1939.476076
 20
223.907685
 30
0.0
 11
1899.476076
 21
223.907685
 31
0.0
  0
LINE
  5
875
  8
002
 62
     3
 10
1941.476076
 20
265.907685
 30
0.0
 11
1941.476076
 21
225.907685
 31
0.0
  0
LINE
  5
876
  8
002
 62
     3
 10
1939.476076
 20
267.907685
 30
0.0
 11
1899.476076
 21
267.907685
 31
0.0
  0
ARC
  5
877
  8
002
 62
     3
 10
1899.476076
 20
265.907685
 30
0.0
 40
2.0
 50
90.0
 51
180.0
  0
ARC
  5
878
  8
002
 62
     3
 10
1899.476076
 20
225.907685
 30
0.0
 40
2.0
 50
180.0
 51
270.0
  0
ARC
  5
879
  8
002
 62
     3
 10
1939.476076
 20
225.907685
 30
0.0
 40
2.0
 50
270.0
 51
0.0
  0
ARC
  5
87A
  8
002
 62
     3
 10
1939.476076
 20
265.907685
 30
0.0
 40
2.0
 50
360.0
 51
90.0
  0
LINE
  5
87B
  8
002
 62
     3
 10
1918.476076
 20
217.907685
 30
0.0
 11
1918.476076
 21
215.907685
 31
0.0
  0
LINE
  5
87C
  8
002
 62
    40
 10
1917.393576
 20
215.907685
 30
0.0
 11
1917.393576
 21
217.907685
 31
0.0
  0
LINE
  5
87D
  8
002
 62
     3
 10
1918.476076
 20
215.907685
 30
0.0
 11
1844.476076
 21
215.907685
 31
0.0
  0
LINE
  5
87E
  8
002
 62
     3
 10
1914.976076
 20
275.907685
 30
0.0
 11
1844.476076
 21
275.907685
 31
0.0
  0
LINE
  5
87F
  8
002
 62
     3
 10
1917.761876
 20
230.025085
 30
0.0
 11
1917.761876
 21
232.079085
 31
0.0
  0
CIRCLE
  5
880
  8
002
 62
     3
 10
1915.476076
 20
232.079085
 30
0.0
 40
1.0
  0
ARC
  5
881
  8
002
 62
     3
 10
1915.476076
 20
232.079085
 30
0.0
 40
2.285799999999995
 50
0.0
 51
134.849339
  0
LINE
  5
882
  8
002
 62
     3
 10
1921.190376
 20
232.079085
 30
0.0
 11
1921.190376
 21
230.025085
 31
0.0
  0
ARC
  5
883
  8
002
 62
     3
 10
1923.476076
 20
232.079085
 30
0.0
 40
2.285730572486588
 50
45.150661
 51
180.0
  0
ARC
  5
884
  8
002
 62
     3
 10
1926.700076
 20
235.320085
 30
0.0
 40
2.285730572486588
 50
225.150661
 51
306.868895
  0
CIRCLE
  5
885
  8
002
 62
     3
 10
1923.476076
 20
232.079085
 30
0.0
 40
1.0
  0
ARC
  5
886
  8
002
 62
     3
 10
1912.252176
 20
235.320085
 30
0.0
 40
2.28572000035006
 50
233.131105
 51
314.847561
  0
ARC
  5
887
  8
002
 62
     3
 10
1919.476076
 20
244.952785
 30
0.0
 40
14.32628000738505
 50
306.868058
 51
233.132262
  0
LINE
  5
888
  8
002
 62
     3
 10
1921.726076
 20
250.407685
 30
0.0
 11
1917.226076
 21
250.407685
 31
0.0
  0
LINE
  5
889
  8
002
 62
     3
 10
1917.226076
 20
250.407685
 30
0.0
 11
1916.976076
 21
250.657685
 31
0.0
  0
LINE
  5
88A
  8
002
 62
     3
 10
1916.976076
 20
250.657685
 30
0.0
 11
1916.976076
 21
255.157685
 31
0.0
  0
LINE
  5
88B
  8
002
 62
     3
 10
1916.976076
 20
255.157685
 30
0.0
 11
1917.226076
 21
255.407685
 31
0.0
  0
LINE
  5
88C
  8
002
 62
     3
 10
1917.226076
 20
255.407685
 30
0.0
 11
1921.726076
 21
255.407685
 31
0.0
  0
LINE
  5
88D
  8
002
 62
     3
 10
1921.726076
 20
255.407685
 30
0.0
 11
1921.976076
 21
255.157685
 31
0.0
  0
LINE
  5
88E
  8
002
 62
     3
 10
1921.976076
 20
255.157685
 30
0.0
 11
1921.976076
 21
250.657685
 31
0.0
  0
LINE
  5
88F
  8
002
 62
     3
 10
1921.976076
 20
250.657685
 30
0.0
 11
1921.726076
 21
250.407685
 31
0.0
  0
ARC
  5
890
  8
002
 62
     3
 10
1921.776076
 20
250.607685
 30
0.0
 40
0.1999999999999886
 50
270.0
 51
0.0
  0
ARC
  5
891
  8
002
 62
     3
 10
1919.476076
 20
245.907685
 30
0.0
 40
7.499936066394191
 50
109.471393
 51
70.528607
  0
ARC
  5
892
  8
002
 62
     3
 10
1917.176076
 20
250.607685
 30
0.0
 40
0.2000000000000455
 50
180.0
 51
270.0
  0
CIRCLE
  5
893
  8
002
 62
     3
 10
1919.476076
 20
245.907685
 30
0.0
 40
16.0
  0
LINE
  5
894
  8
002
  6
CENTER
 62
    40
 10
1852.476076
 20
280.319885
 30
0.0
 11
1852.476076
 21
211.012985
 31
0.0
  0
LINE
  5
895
  8
002
  6
CENTER
 62
    40
 10
1947.476176
 20
280.319885
 30
0.0
 11
1947.476176
 21
211.012985
 31
0.0
  0
LINE
  5
896
  8
002
  6
CENTER
 62
    40
 10
1919.476076
 20
215.907685
 30
0.0
 11
1919.476076
 21
277.359138
 31
0.0
  0
ENDSEC
  0
EOF
