  0
SECTION
  2
HEADER
  9
$ACADVER
  1
AC1015
  9
$ACADMAINTVER
 70
     6
  9
$DWGCODEPAGE
  3
ANSI_932
  9
$INSBASE
 10
0.0
 20
0.0
 30
0.0
  9
$EXTMIN
 10
111.478516
 20
44.548462
 30
0.0
  9
$EXTMAX
 10
913.053711
 20
783.088989
 30
0.0
  9
$LIMMIN
 10
0.0
 20
0.0
  9
$LIMMAX
 10
12.0
 20
9.0
  9
$ORTHOMODE
 70
     0
  9
$REGENMODE
 70
     1
  9
$FILLMODE
 70
     1
  9
$QTEXTMODE
 70
     0
  9
$MIRRTEXT
 70
     1
  9
$LTSCALE
 40
10.89938
  9
$ATTMODE
 70
     1
  9
$TEXTSIZE
 40
3.2
  9
$TRACEWID
 40
1.0
  9
$TEXTSTYLE
  7
Standard
  9
$CLAYER
  8
0
  9
$CELTYPE
  6
ByLayer
  9
$CECOLOR
 62
   256
  9
$CELTSCALE
 40
1.0
  9
$DISPSILH
 70
     0
  9
$DIMSCALE
 40
1.0
  9
$DIMASZ
 40
2.5
  9
$DIMEXO
 40
0.625
  9
$DIMDLI
 40
3.75
  9
$DIMRND
 40
0.0
  9
$DIMDLE
 40
0.0
  9
$DIMEXE
 40
1.25
  9
$DIMTP
 40
0.0
  9
$DIMTM
 40
0.0
  9
$DIMTXT
 40
2.5
  9
$DIMCEN
 40
0.09
  9
$DIMTSZ
 40
0.0
  9
$DIMTOL
 70
     0
  9
$DIMLIM
 70
     0
  9
$DIMTIH
 70
     0
  9
$DIMTOH
 70
     0
  9
$DIMSE1
 70
     0
  9
$DIMSE2
 70
     0
  9
$DIMTAD
 70
     0
  9
$DIMZIN
 70
     8
  9
$DIMBLK
  1

  9
$DIMASO
 70
     1
  9
$DIMSHO
 70
     0
  9
$DIMPOST
  1

  9
$DIMAPOST
  1

  9
$DIMALT
 70
     0
  9
$DIMALTD
 70
     3
  9
$DIMALTF
 40
0.03937
  9
$DIMLFAC
 40
1.0
  9
$DIMTOFL
 70
     1
  9
$DIMTVP
 40
0.0
  9
$DIMTIX
 70
     0
  9
$DIMSOXD
 70
     0
  9
$DIMSAH
 70
     0
  9
$DIMBLK1
  1

  9
$DIMBLK2
  1

  9
$DIMSTYLE
  2
ISO-25
  9
$DIMCLRD
 70
     0
  9
$DIMCLRE
 70
     0
  9
$DIMCLRT
 70
     0
  9
$DIMTFAC
 40
1.0
  9
$DIMGAP
 40
0.625
  9
$DIMJUST
 70
     0
  9
$DIMSD1
 70
     0
  9
$DIMSD2
 70
     0
  9
$DIMTOLJ
 70
     0
  9
$DIMTZIN
 70
     8
  9
$DIMALTZ
 70
     0
  9
$DIMALTTZ
 70
     0
  9
$DIMUPT
 70
     0
  9
$DIMDEC
 70
     2
  9
$DIMTDEC
 70
     2
  9
$DIMALTU
 70
     2
  9
$DIMALTTD
 70
     3
  9
$DIMTXSTY
  7
Standard
  9
$DIMAUNIT
 70
     0
  9
$DIMADEC
 70
     0
  9
$DIMALTRND
 40
0.0
  9
$DIMAZIN
 70
     0
  9
$DIMDSEP
 70
    44
  9
$DIMATFIT
 70
     3
  9
$DIMFRAC
 70
     0
  9
$DIMLDRBLK
  1

  9
$DIMLUNIT
 70
     2
  9
$DIMLWD
 70
    -2
  9
$DIMLWE
 70
    -2
  9
$DIMTMOVE
 70
     0
  9
$LUNITS
 70
     2
  9
$LUPREC
 70
     4
  9
$SKETCHINC
 40
1.0
  9
$FILLETRAD
 40
0.0
  9
$AUNITS
 70
     0
  9
$AUPREC
 70
     0
  9
$MENU
  1
.
  9
$ELEVATION
 40
0.0
  9
$PELEVATION
 40
0.0
  9
$THICKNESS
 40
0.0
  9
$LIMCHECK
 70
     0
  9
$CHAMFERA
 40
10.0
  9
$CHAMFERB
 40
10.0
  9
$CHAMFERC
 40
20.0
  9
$CHAMFERD
 40
0.0
  9
$SKPOLY
 70
     0
  9
$TDCREATE
 40
2455649.658564989
  9
$TDUCREATE
 40
2455649.283564989
  9
$TDUPDATE
 40
2455649.658565
  9
$TDUUPDATE
 40
2455649.283565
  9
$TDINDWG
 40
0.0000000116
  9
$TDUSRTIMER
 40
0.0000000116
  9
$USRTIMER
 70
     1
  9
$ANGBASE
 50
0.0
  9
$ANGDIR
 70
     0
  9
$PDMODE
 70
     0
  9
$PDSIZE
 40
0.0
  9
$PLINEWID
 40
0.0
  9
$SPLFRAME
 70
     0
  9
$SPLINETYPE
 70
     6
  9
$SPLINESEGS
 70
     8
  9
$HANDSEED
  5
453
  9
$SURFTAB1
 70
     6
  9
$SURFTAB2
 70
     6
  9
$SURFTYPE
 70
     6
  9
$SURFU
 70
     6
  9
$SURFV
 70
     6
  9
$UCSBASE
  2

  9
$UCSNAME
  2

  9
$UCSORG
 10
0.0
 20
0.0
 30
0.0
  9
$UCSXDIR
 10
1.0
 20
0.0
 30
0.0
  9
$UCSYDIR
 10
0.0
 20
1.0
 30
0.0
  9
$UCSORTHOREF
  2

  9
$UCSORTHOVIEW
 70
     0
  9
$UCSORGTOP
 10
0.0
 20
0.0
 30
0.0
  9
$UCSORGBOTTOM
 10
0.0
 20
0.0
 30
0.0
  9
$UCSORGLEFT
 10
0.0
 20
0.0
 30
0.0
  9
$UCSORGRIGHT
 10
0.0
 20
0.0
 30
0.0
  9
$UCSORGFRONT
 10
0.0
 20
0.0
 30
0.0
  9
$UCSORGBACK
 10
0.0
 20
0.0
 30
0.0
  9
$PUCSBASE
  2

  9
$PUCSNAME
  2

  9
$PUCSORG
 10
0.0
 20
0.0
 30
0.0
  9
$PUCSXDIR
 10
1.0
 20
0.0
 30
0.0
  9
$PUCSYDIR
 10
0.0
 20
1.0
 30
0.0
  9
$PUCSORTHOREF
  2

  9
$PUCSORTHOVIEW
 70
     0
  9
$PUCSORGTOP
 10
0.0
 20
0.0
 30
0.0
  9
$PUCSORGBOTTOM
 10
0.0
 20
0.0
 30
0.0
  9
$PUCSORGLEFT
 10
0.0
 20
0.0
 30
0.0
  9
$PUCSORGRIGHT
 10
0.0
 20
0.0
 30
0.0
  9
$PUCSORGFRONT
 10
0.0
 20
0.0
 30
0.0
  9
$PUCSORGBACK
 10
0.0
 20
0.0
 30
0.0
  9
$USERI1
 70
     0
  9
$USERI2
 70
     0
  9
$USERI3
 70
     0
  9
$USERI4
 70
     0
  9
$USERI5
 70
     0
  9
$USERR1
 40
0.0
  9
$USERR2
 40
0.0
  9
$USERR3
 40
0.0
  9
$USERR4
 40
0.0
  9
$USERR5
 40
0.0
  9
$WORLDVIEW
 70
     1
  9
$SHADEDGE
 70
     3
  9
$SHADEDIF
 70
    70
  9
$TILEMODE
 70
     1
  9
$MAXACTVP
 70
    64
  9
$PINSBASE
 10
0.0
 20
0.0
 30
0.0
  9
$PLIMCHECK
 70
     0
  9
$PEXTMIN
 10
1.000000E+20
 20
1.000000E+20
 30
0.0
  9
$PEXTMAX
 10
-1.000000E+20
 20
-1.000000E+20
 30
0.0
  9
$PLIMMIN
 10
0.0
 20
0.0
  9
$PLIMMAX
 10
12.0
 20
9.0
  9
$UNITMODE
 70
     0
  9
$VISRETAIN
 70
     1
  9
$PLINEGEN
 70
     0
  9
$PSLTSCALE
 70
     1
  9
$TREEDEPTH
 70
  3020
  9
$CMLSTYLE
  2
Standard
  9
$CMLJUST
 70
     0
  9
$CMLSCALE
 40
20.0
  9
$PROXYGRAPHICS
 70
     1
  9
$MEASUREMENT
 70
     1
  9
$CELWEIGHT
370
    -1
  9
$ENDCAPS
280
     0
  9
$JOINSTYLE
280
     0
  9
$LWDISPLAY
290
     0
  9
$INSUNITS
 70
     4
  9
$HYPERLINKBASE
  1

  9
$STYLESHEET
  1

  9
$XEDIT
290
     1
  9
$CEPSNTYPE
380
     0
  9
$PSTYLEMODE
290
     1
  9
$FINGERPRINTGUID
  2
{60A87DC8-B78E-44D0-AB41-A14731D5C96E}
  9
$VERSIONGUID
  2
{FAEB1C32-E019-11D5-929B-00C0DF256EC4}
  9
$EXTNAMES
290
     1
  9
$PSVPSCALE
 40
0.0
  9
$OLESTARTUP
290
     0
  0
ENDSEC
  0
SECTION
  2
CLASSES
  0
CLASS
  1
ACDBDICTIONARYWDFLT
  2
AcDbDictionaryWithDefault
  3
ObjectDBX Classes
 90
        0
280
     0
281
     0
  0
CLASS
  1
VISUALSTYLE
  2
AcDbVisualStyle
  3
ObjectDBX Classes
 90
     4095
280
     0
281
     0
  0
CLASS
  1
DICTIONARYVAR
  2
AcDbDictionaryVar
  3
ObjectDBX Classes
 90
        0
280
     0
281
     0
  0
CLASS
  1
ACDBPLACEHOLDER
  2
AcDbPlaceHolder
  3
ObjectDBX Classes
 90
        0
280
     0
281
     0
  0
CLASS
  1
LAYOUT
  2
AcDbLayout
  3
ObjectDBX Classes
 90
        0
280
     0
281
     0
  0
ENDSEC
  0
SECTION
  2
TABLES
  0
TABLE
  2
VPORT
  5
8
330
0
100
AcDbSymbolTable
 70
     1
  0
VPORT
  5
29
330
8
100
AcDbSymbolTableRecord
100
AcDbViewportTableRecord
  2
*Active
 70
     0
 10
0.0
 20
0.0
 11
1.0
 21
1.0
 12
512.266113
 22
413.818726
 13
0.0
 23
0.0
 14
1.0
 24
1.0
 15
0.0
 25
0.0
 16
0.0
 26
0.0
 36
1.0
 17
0.0
 27
0.0
 37
0.0
 40
745.925933
 41
1.691288
 42
50.0
 43
0.0
 44
0.0
 50
0.0
 51
0.0
 71
     0
 72
   100
 73
     1
 74
     3
 75
     0
 76
     0
 77
     0
 78
     0
281
     0
 65
     1
110
0.0
120
0.0
130
0.0
111
1.0
121
0.0
131
0.0
112
0.0
122
1.0
132
0.0
 79
     0
146
0.0
  0
ENDTAB
  0
TABLE
  2
LTYPE
  5
5
330
0
100
AcDbSymbolTable
 70
     5
  0
LTYPE
  5
14
330
5
100
AcDbSymbolTableRecord
100
AcDbLinetypeTableRecord
  2
ByBlock
 70
     0
  3

 72
    65
 73
     0
 40
0.0
  0
LTYPE
  5
15
330
5
100
AcDbSymbolTableRecord
100
AcDbLinetypeTableRecord
  2
ByLayer
 70
     0
  3

 72
    65
 73
     0
 40
0.0
  0
LTYPE
  5
16
330
5
100
AcDbSymbolTableRecord
100
AcDbLinetypeTableRecord
  2
Continuous
 70
     0
  3
Solid line
 72
    65
 73
     0
 40
0.0
  0
LTYPE
  5
3B
330
5
100
AcDbSymbolTableRecord
100
AcDbLinetypeTableRecord
  2
DASHED
 70
     0
  3
DASHED
 72
    83
 73
     2
 40
0.75
 49
0.5
 74
     0
 49
-0.25
 74
     0
  0
LTYPE
  5
3C
330
5
100
AcDbSymbolTableRecord
100
AcDbLinetypeTableRecord
  2
HIDDEN
 70
     0
  3
HIDDEN
 72
    83
 73
     2
 40
0.375
 49
0.25
 74
     0
 49
-0.125
 74
     0
  0
LTYPE
  5
3D
330
5
100
AcDbSymbolTableRecord
100
AcDbLinetypeTableRecord
  2
CENTER
 70
     0
  3
CENTER
 72
    83
 73
     4
 40
2.0
 49
1.25
 74
     0
 49
-0.25
 74
     0
 49
0.25
 74
     0
 49
-0.25
 74
     0
  0
LTYPE
  5
3E
330
5
100
AcDbSymbolTableRecord
100
AcDbLinetypeTableRecord
  2
PHANTOM
 70
     0
  3
PHANTOM
 72
    83
 73
     6
 40
2.5
 49
1.25
 74
     0
 49
-0.25
 74
     0
 49
0.25
 74
     0
 49
-0.25
 74
     0
 49
0.25
 74
     0
 49
-0.25
 74
     0
  0
ENDTAB
  0
TABLE
  2
LAYER
  5
2
330
0
100
AcDbSymbolTable
 70
     5
  0
LAYER
  5
10
330
2
100
AcDbSymbolTableRecord
100
AcDbLayerTableRecord
  2
0
 70
     0
 62
     7
  6
Continuous
370
    -3
390
F
  0
LAYER
  5
3F
330
2
100
AcDbSymbolTableRecord
100
AcDbLayerTableRecord
  2
001
 70
     0
 62
     7
  6
Continuous
370
    -3
390
F
  0
LAYER
  5
40
330
2
100
AcDbSymbolTableRecord
100
AcDbLayerTableRecord
  2
002
 70
     0
 62
     7
  6
Continuous
370
    -3
390
F
  0
LAYER
  5
41
330
2
100
AcDbSymbolTableRecord
100
AcDbLayerTableRecord
  2
003
 70
     0
 62
     7
  6
Continuous
370
    -3
390
F
  0
LAYER
  5
42
330
2
100
AcDbSymbolTableRecord
100
AcDbLayerTableRecord
  2
005
 70
     0
 62
     7
  6
Continuous
370
    -3
390
F
  0
ENDTAB
  0
TABLE
  2
STYLE
  5
3
330
0
100
AcDbSymbolTable
 70
     2
  0
STYLE
  5
11
330
3
100
AcDbSymbolTableRecord
100
AcDbTextStyleTableRecord
  2
Standard
 70
     0
 40
0.0
 41
1.0
 50
0.0
 71
     0
 42
0.2
  3
TXT
  4
BIGFONT
  0
STYLE
  5
43
330
3
100
AcDbSymbolTableRecord
100
AcDbTextStyleTableRecord
  2
TATEGAKI
 70
     4
 40
1.0
 41
1.0
 50
0.0
 71
     0
 42
0.2
  3
TXT
  4
BIGFONT
  0
ENDTAB
  0
TABLE
  2
VIEW
  5
6
330
0
100
AcDbSymbolTable
 70
     0
  0
ENDTAB
  0
TABLE
  2
UCS
  5
7
330
0
100
AcDbSymbolTable
 70
     0
  0
ENDTAB
  0
TABLE
  2
APPID
  5
9
330
0
100
AcDbSymbolTable
 70
     1
  0
APPID
  5
12
330
9
100
AcDbSymbolTableRecord
100
AcDbRegAppTableRecord
  2
ACAD
 70
     0
  0
ENDTAB
  0
TABLE
  2
DIMSTYLE
  5
A
330
0
100
AcDbSymbolTable
 70
     2
100
AcDbDimStyleTable
  0
DIMSTYLE
105
27
330
A
100
AcDbSymbolTableRecord
100
AcDbDimStyleTableRecord
  2
ISO-25
 70
     0
 41
2.5
 42
0.625
 43
3.75
 44
1.25
 73
     0
 74
     0
 77
     1
 78
     8
140
2.5
141
2.5
143
0.03937
147
0.625
171
     3
172
     1
271
     2
272
     2
274
     3
278
    44
283
     0
284
     8
340
11
  0
DIMSTYLE
105
44
330
A
100
AcDbSymbolTableRecord
100
AcDbDimStyleTableRecord
  2
Standard
 70
     0
 41
3.0
 42
0.5
 44
0.7
 73
     0
 74
     0
 77
     1
 78
     8
 79
     2
140
4.0
146
0.65
147
1.0
172
     1
179
     3
271
     3
283
     2
340
11
  0
ENDTAB
  0
TABLE
  2
BLOCK_RECORD
  5
1
330
0
100
AcDbSymbolTable
 70
     1
  0
BLOCK_RECORD
  5
1F
330
1
100
AcDbSymbolTableRecord
100
AcDbBlockTableRecord
  2
*Model_Space
340
22
  0
BLOCK_RECORD
  5
1B
330
1
100
AcDbSymbolTableRecord
100
AcDbBlockTableRecord
  2
*Paper_Space
340
1E
  0
BLOCK_RECORD
  5
23
330
1
100
AcDbSymbolTableRecord
100
AcDbBlockTableRecord
  2
*Paper_Space0
340
26
  0
ENDTAB
  0
ENDSEC
  0
SECTION
  2
BLOCKS
  0
BLOCK
  5
20
330
1F
100
AcDbEntity
  8
0
100
AcDbBlockBegin
  2
*Model_Space
 70
     0
 10
0.0
 20
0.0
 30
0.0
  3
*Model_Space
  1

  0
ENDBLK
  5
21
330
1F
100
AcDbEntity
  8
0
100
AcDbBlockEnd
  0
BLOCK
  5
1C
330
1B
100
AcDbEntity
 67
     1
  8
0
100
AcDbBlockBegin
  2
*Paper_Space
 70
     0
 10
0.0
 20
0.0
 30
0.0
  3
*Paper_Space
  1

  0
ENDBLK
  5
1D
330
1B
100
AcDbEntity
 67
     1
  8
0
100
AcDbBlockEnd
  0
BLOCK
  5
24
330
23
100
AcDbEntity
  8
0
100
AcDbBlockBegin
  2
*Paper_Space0
 70
     0
 10
0.0
 20
0.0
 30
0.0
  3
*Paper_Space0
  1

  0
ENDBLK
  5
25
330
23
100
AcDbEntity
  8
0
100
AcDbBlockEnd
  0
ENDSEC
  0
SECTION
  2
ENTITIES
  0
LINE
  5
45
330
1F
100
AcDbEntity
  8
001
 62
     3
370
    30
100
AcDbLine
 10
241.878518
 20
722.691531
 30
0.0
 11
241.878518
 21
710.191531
 31
0.0
  0
LINE
  5
46
330
1F
100
AcDbEntity
  8
002
 62
     3
370
    30
100
AcDbLine
 10
116.878518
 20
681.441531
 30
0.0
 11
116.878518
 21
751.441531
 31
0.0
  0
LINE
  5
47
330
1F
100
AcDbEntity
  8
002
 62
     3
370
    30
100
AcDbLine
 10
246.878518
 20
751.441531
 30
0.0
 11
246.878518
 21
681.441531
 31
0.0
  0
LINE
  5
48
330
1F
100
AcDbEntity
  8
002
 62
     3
370
    30
100
AcDbLine
 10
246.878518
 20
681.441531
 30
0.0
 11
116.878518
 21
681.441531
 31
0.0
  0
LINE
  5
49
330
1F
100
AcDbEntity
  8
002
 62
     3
370
    30
100
AcDbLine
 10
246.878518
 20
751.441531
 30
0.0
 11
116.878518
 21
751.441531
 31
0.0
  0
CIRCLE
  5
4A
330
1F
100
AcDbEntity
  8
002
 62
     3
370
    30
100
AcDbCircle
 10
236.878518
 20
744.441531
 30
0.0
 40
3.3
  0
CIRCLE
  5
4B
330
1F
100
AcDbEntity
  8
002
 62
     3
370
    30
100
AcDbCircle
 10
236.878518
 20
688.441531
 30
0.0
 40
3.3
  0
CIRCLE
  5
4C
330
1F
100
AcDbEntity
  8
002
 62
     3
370
    30
100
AcDbCircle
 10
138.878518
 20
744.441531
 30
0.0
 40
3.3
  0
CIRCLE
  5
4D
330
1F
100
AcDbEntity
  8
002
 62
     3
370
    30
100
AcDbCircle
 10
138.878518
 20
688.441531
 30
0.0
 40
3.3
  0
LINE
  5
4E
330
1F
100
AcDbEntity
  8
002
  6
CENTER
 62
    40
370
     9
100
AcDbLine
 10
111.478516
 20
716.441531
 30
0.0
 11
248.878518
 21
716.441531
 31
0.0
  0
LINE
  5
4F
330
1F
100
AcDbEntity
  8
002
  6
CENTER
 62
    40
370
     9
100
AcDbLine
 10
166.878518
 20
677.641532
 30
0.0
 11
166.878518
 21
755.866484
 31
0.0
  0
LINE
  5
50
330
1F
100
AcDbEntity
  8
002
  6
CENTER
 62
    40
370
     9
100
AcDbLine
 10
150.240422
 20
744.441531
 30
0.0
 11
113.973755
 21
744.441531
 31
0.0
  0
LINE
  5
51
330
1F
100
AcDbEntity
  8
002
  6
CENTER
 62
    40
370
     9
100
AcDbLine
 10
138.878518
 20
735.317721
 30
0.0
 11
138.878518
 21
755.06058
 31
0.0
  0
LINE
  5
52
330
1F
100
AcDbEntity
  8
002
  6
CENTER
 62
    40
370
     9
100
AcDbLine
 10
149.926136
 20
688.441531
 30
0.0
 11
130.392804
 21
688.441531
 31
0.0
  0
LINE
  5
53
330
1F
100
AcDbEntity
  8
002
  6
CENTER
 62
    40
370
     9
100
AcDbLine
 10
138.878518
 20
699.355816
 30
0.0
 11
138.878518
 21
677.641532
 31
0.0
  0
LINE
  5
54
330
1F
100
AcDbEntity
  8
002
  6
CENTER
 62
    40
370
     9
100
AcDbLine
 10
113.030899
 20
688.441531
 30
0.0
 11
130.392804
 21
688.441531
 31
0.0
  0
LINE
  5
55
330
1F
100
AcDbEntity
  8
002
  6
CENTER
 62
    40
370
     9
100
AcDbLine
 10
228.497567
 20
688.441531
 30
0.0
 11
245.021378
 21
688.441531
 31
0.0
  0
LINE
  5
56
330
1F
100
AcDbEntity
  8
002
  6
CENTER
 62
    40
370
     9
100
AcDbLine
 10
236.878518
 20
696.860579
 30
0.0
 11
236.878518
 21
677.641532
 31
0.0
  0
LINE
  5
57
330
1F
100
AcDbEntity
  8
002
  6
CENTER
 62
    40
370
     9
100
AcDbLine
 10
245.021378
 20
744.441531
 30
0.0
 11
228.183281
 21
744.441531
 31
0.0
  0
LINE
  5
58
330
1F
100
AcDbEntity
  8
002
  6
CENTER
 62
    40
370
     9
100
AcDbLine
 10
236.878518
 20
734.070101
 30
0.0
 11
236.878518
 21
755.06058
 31
0.0
  0
LINE
  5
59
330
1F
100
AcDbEntity
  8
002
 62
     3
370
    30
100
AcDbLine
 10
161.878518
 20
743.483165
 30
0.0
 11
161.878518
 21
751.441531
 31
0.0
  0
LINE
  5
5A
330
1F
100
AcDbEntity
  8
002
 62
     3
370
    30
100
AcDbLine
 10
161.878518
 20
689.399896
 30
0.0
 11
161.878518
 21
681.441531
 31
0.0
  0
LINE
  5
5B
330
1F
100
AcDbEntity
  8
002
 62
     3
370
    30
100
AcDbLine
 10
134.378518
 20
722.691531
 30
0.0
 11
136.38774
 21
722.691531
 31
0.0
  0
LINE
  5
5C
330
1F
100
AcDbEntity
  8
002
 62
     3
370
    30
100
AcDbLine
 10
134.378518
 20
710.191531
 30
0.0
 11
136.38774
 21
710.191531
 31
0.0
  0
LINE
  5
5D
330
1F
100
AcDbEntity
  8
002
 62
     3
370
    30
100
AcDbLine
 10
226.878518
 20
726.441531
 30
0.0
 11
246.878518
 21
726.441531
 31
0.0
  0
LINE
  5
5E
330
1F
100
AcDbEntity
  8
002
 62
     3
370
    30
100
AcDbLine
 10
226.878518
 20
706.441531
 30
0.0
 11
246.878518
 21
706.441531
 31
0.0
  0
LINE
  5
5F
330
1F
100
AcDbEntity
  8
002
 62
     3
370
    30
100
AcDbLine
 10
129.378518
 20
681.441531
 30
0.0
 11
129.378518
 21
705.191531
 31
0.0
  0
LINE
  5
60
330
1F
100
AcDbEntity
  8
002
 62
     3
370
    30
100
AcDbLine
 10
129.378518
 20
727.691531
 30
0.0
 11
129.378518
 21
751.441531
 31
0.0
  0
ARC
  5
61
330
1F
100
AcDbEntity
  8
002
 62
     3
370
    30
100
AcDbCircle
 10
134.378518
 20
727.691531
 30
0.0
 40
5.0
100
AcDbArc
 50
180.0
 51
270.0
  0
ARC
  5
62
330
1F
100
AcDbEntity
  8
002
 62
     3
370
    30
100
AcDbCircle
 10
134.378518
 20
705.191531
 30
0.0
 40
5.0
100
AcDbArc
 50
90.0
 51
180.0
  0
ARC
  5
63
330
1F
100
AcDbEntity
  8
002
 62
     3
370
    30
100
AcDbCircle
 10
136.38774
 20
727.691531
 30
0.0
 40
5.0
100
AcDbArc
 50
270.0
 51
339.747753
  0
ARC
  5
64
330
1F
100
AcDbEntity
  8
002
 62
     3
370
    30
100
AcDbCircle
 10
136.38774
 20
705.191531
 30
0.0
 40
5.0
100
AcDbArc
 50
20.252247
 51
90.0
  0
ARC
  5
65
330
1F
100
AcDbEntity
  8
002
 62
     3
370
    30
100
AcDbCircle
 10
226.878518
 20
701.441531
 30
0.0
 40
5.0
100
AcDbArc
 50
90.0
 51
180.0
  0
ARC
  5
66
330
1F
100
AcDbEntity
  8
002
 62
     3
370
    30
100
AcDbCircle
 10
226.878518
 20
705.191531
 30
0.0
 40
5.0
100
AcDbArc
 50
90.0
 51
180.0
  0
ARC
  5
67
330
1F
100
AcDbEntity
  8
002
 62
     3
370
    30
100
AcDbCircle
 10
226.878518
 20
731.441531
 30
0.0
 40
5.0
100
AcDbArc
 50
180.0
 51
270.0
  0
ARC
  5
68
330
1F
100
AcDbEntity
  8
002
 62
     3
370
    30
100
AcDbCircle
 10
226.878518
 20
727.691531
 30
0.0
 40
5.0
100
AcDbArc
 50
180.0
 51
270.0
  0
ARC
  5
69
330
1F
100
AcDbEntity
  8
002
 62
     3
370
    30
100
AcDbCircle
 10
138.878518
 20
744.441531
 30
0.0
 40
7.5
100
AcDbArc
 50
111.03947
 51
68.96053
  0
ARC
  5
6A
330
1F
100
AcDbEntity
  8
002
 62
     3
370
    30
100
AcDbCircle
 10
138.878518
 20
688.441531
 30
0.0
 40
7.5
100
AcDbArc
 50
291.03947
 51
248.96053
  0
CIRCLE
  5
6B
330
1F
100
AcDbEntity
  8
002
 62
    40
370
     9
100
AcDbCircle
 10
166.878518
 20
716.441531
 30
0.0
 40
5.25
  0
LINE
  5
6C
330
1F
100
AcDbEntity
  8
002
 62
     3
370
    30
100
AcDbLine
 10
221.878518
 20
705.191531
 30
0.0
 11
221.878518
 21
681.441531
 31
0.0
  0
LINE
  5
6D
330
1F
100
AcDbEntity
  8
002
 62
     3
370
    30
100
AcDbLine
 10
221.878518
 20
727.691531
 30
0.0
 11
221.878518
 21
751.441531
 31
0.0
  0
ARC
  5
6E
330
1F
100
AcDbEntity
  8
002
 62
     3
370
    30
100
AcDbCircle
 10
166.878518
 20
716.441531
 30
0.0
 40
27.5
100
AcDbArc
 50
200.252247
 51
339.747753
  0
ARC
  5
6F
330
1F
100
AcDbEntity
  8
002
 62
     3
370
    30
100
AcDbCircle
 10
166.878518
 20
716.441531
 30
0.0
 40
27.5
100
AcDbArc
 50
20.252247
 51
159.747753
  0
LINE
  5
70
330
1F
100
AcDbEntity
  8
002
  6
CENTER
 62
    40
370
     9
100
AcDbLine
 10
180.491943
 20
539.625548
 30
0.0
 11
203.731384
 21
539.625548
 31
0.0
  0
LINE
  5
71
330
1F
100
AcDbEntity
  8
002
  6
CENTER
 62
    40
370
     9
100
AcDbLine
 10
191.878518
 20
552.45172
 30
0.0
 11
191.878518
 21
528.941985
 31
0.0
  0
LINE
  5
72
330
1F
100
AcDbEntity
  8
002
  6
CENTER
 62
    40
370
     9
100
AcDbLine
 10
191.878518
 20
647.807005
 30
0.0
 11
191.878518
 21
783.088988
 31
0.0
  0
LINE
  5
73
330
1F
100
AcDbEntity
  8
002
 62
    40
370
     9
100
AcDbLine
 10
172.878518
 20
724.441531
 30
0.0
 11
172.878518
 21
708.441531
 31
0.0
  0
LINE
  5
74
330
1F
100
AcDbEntity
  8
002
  6
CENTER
 62
    40
370
     9
100
AcDbLine
 10
174.878518
 20
724.441531
 30
0.0
 11
174.878518
 21
708.441531
 31
0.0
  0
LINE
  5
75
330
1F
100
AcDbEntity
  8
002
 62
     3
370
    30
100
AcDbLine
 10
200.378518
 20
754.441531
 30
0.0
 11
200.378518
 21
751.441531
 31
0.0
  0
LINE
  5
76
330
1F
100
AcDbEntity
  8
002
 62
     3
370
    30
100
AcDbLine
 10
183.378518
 20
754.441531
 30
0.0
 11
183.378518
 21
751.441531
 31
0.0
  0
LINE
  5
77
330
1F
100
AcDbEntity
  8
002
 62
     3
370
    30
100
AcDbLine
 10
200.378518
 20
754.441531
 30
0.0
 11
183.378518
 21
754.441531
 31
0.0
  0
LINE
  5
78
330
1F
100
AcDbEntity
  8
002
 62
     3
370
    30
100
AcDbLine
 10
199.378518
 20
778.441531
 30
0.0
 11
199.378518
 21
754.441531
 31
0.0
  0
ARC
  5
79
330
1F
100
AcDbEntity
  8
002
 62
     3
370
    30
100
AcDbCircle
 10
191.878518
 20
761.941531
 30
0.0
 40
2.5
100
AcDbArc
 50
270.0
 51
0.0
  0
ARC
  5
7A
330
1F
100
AcDbEntity
  8
002
 62
     3
370
    30
100
AcDbCircle
 10
191.878518
 20
761.941531
 30
0.0
 40
2.5
100
AcDbArc
 50
180.0
 51
270.0
  0
LINE
  5
7B
330
1F
100
AcDbEntity
  8
002
 62
     3
370
    30
100
AcDbLine
 10
189.378518
 20
761.941531
 30
0.0
 11
189.378518
 21
779.441531
 31
0.0
  0
LINE
  5
7C
330
1F
100
AcDbEntity
  8
002
 62
     3
370
    30
100
AcDbLine
 10
194.378518
 20
761.941531
 30
0.0
 11
194.378518
 21
779.441531
 31
0.0
  0
LINE
  5
7D
330
1F
100
AcDbEntity
  8
002
 62
     3
370
    30
100
AcDbLine
 10
184.378518
 20
778.441531
 30
0.0
 11
184.378518
 21
754.441531
 31
0.0
  0
LINE
  5
7E
330
1F
100
AcDbEntity
  8
002
 62
     3
370
    30
100
AcDbLine
 10
198.378518
 20
779.441531
 30
0.0
 11
199.378518
 21
778.441531
 31
0.0
  0
LINE
  5
7F
330
1F
100
AcDbEntity
  8
002
 62
     3
370
    30
100
AcDbLine
 10
198.378518
 20
779.441531
 30
0.0
 11
185.378518
 21
779.441531
 31
0.0
  0
LINE
  5
80
330
1F
100
AcDbEntity
  8
002
 62
     3
370
    30
100
AcDbLine
 10
184.378518
 20
778.441531
 30
0.0
 11
185.378518
 21
779.441531
 31
0.0
  0
LINE
  5
81
330
1F
100
AcDbEntity
  8
002
 62
     3
370
    30
100
AcDbLine
 10
198.378518
 20
653.441531
 30
0.0
 11
185.378518
 21
653.441531
 31
0.0
  0
LINE
  5
82
330
1F
100
AcDbEntity
  8
002
 62
     3
370
    30
100
AcDbLine
 10
194.378518
 20
670.941531
 30
0.0
 11
194.378518
 21
653.441531
 31
0.0
  0
LINE
  5
83
330
1F
100
AcDbEntity
  8
002
 62
     3
370
    30
100
AcDbLine
 10
189.378518
 20
670.941531
 30
0.0
 11
189.378518
 21
653.441531
 31
0.0
  0
LINE
  5
84
330
1F
100
AcDbEntity
  8
002
 62
     3
370
    30
100
AcDbLine
 10
184.378518
 20
654.441531
 30
0.0
 11
185.378518
 21
653.441531
 31
0.0
  0
LINE
  5
85
330
1F
100
AcDbEntity
  8
002
 62
     3
370
    30
100
AcDbLine
 10
184.378518
 20
654.441531
 30
0.0
 11
184.378518
 21
678.441531
 31
0.0
  0
LINE
  5
86
330
1F
100
AcDbEntity
  8
002
 62
     3
370
    30
100
AcDbLine
 10
198.378518
 20
653.441531
 30
0.0
 11
199.378518
 21
654.441531
 31
0.0
  0
LINE
  5
87
330
1F
100
AcDbEntity
  8
002
 62
     3
370
    30
100
AcDbLine
 10
199.378518
 20
654.441531
 30
0.0
 11
199.378518
 21
678.441531
 31
0.0
  0
ARC
  5
88
330
1F
100
AcDbEntity
  8
002
 62
     3
370
    30
100
AcDbCircle
 10
191.878518
 20
670.941531
 30
0.0
 40
2.5
100
AcDbArc
 50
0.0
 51
90.0
  0
ARC
  5
89
330
1F
100
AcDbEntity
  8
002
 62
     3
370
    30
100
AcDbCircle
 10
191.878518
 20
670.941531
 30
0.0
 40
2.5
100
AcDbArc
 50
90.0
 51
180.0
  0
LINE
  5
8A
330
1F
100
AcDbEntity
  8
002
 62
     3
370
    30
100
AcDbLine
 10
200.378518
 20
678.441531
 30
0.0
 11
183.378518
 21
678.441531
 31
0.0
  0
LINE
  5
8B
330
1F
100
AcDbEntity
  8
002
 62
     3
370
    30
100
AcDbLine
 10
200.378518
 20
678.441531
 30
0.0
 11
200.378518
 21
681.441531
 31
0.0
  0
LINE
  5
8C
330
1F
100
AcDbEntity
  8
002
 62
     3
370
    30
100
AcDbLine
 10
183.378518
 20
678.441531
 30
0.0
 11
183.378518
 21
681.441531
 31
0.0
  0
CIRCLE
  5
8D
330
1F
100
AcDbEntity
  8
002
 62
     3
370
    30
100
AcDbCircle
 10
166.878518
 20
716.441531
 30
0.0
 40
10.0
  0
CIRCLE
  5
8E
330
1F
100
AcDbEntity
  8
002
 62
     3
370
    30
100
AcDbCircle
 10
166.878518
 20
716.441531
 30
0.0
 40
6.0
  0
LINE
  5
8F
330
1F
100
AcDbEntity
  8
002
 62
     3
370
    30
100
AcDbLine
 10
197.369295
 20
710.191531
 30
0.0
 11
246.878518
 21
710.191531
 31
0.0
  0
LINE
  5
90
330
1F
100
AcDbEntity
  8
002
 62
     3
370
    30
100
AcDbLine
 10
197.369295
 20
722.691531
 30
0.0
 11
246.878518
 21
722.691531
 31
0.0
  0
LINE
  5
91
330
1F
100
AcDbEntity
  8
002
 62
     3
370
    30
100
AcDbLine
 10
247.878518
 20
712.580031
 30
0.0
 11
246.878518
 21
712.580031
 31
0.0
  0
ARC
  5
92
330
1F
100
AcDbEntity
  8
002
 62
     3
370
    30
100
AcDbCircle
 10
251.503518
 20
713.941531
 30
0.0
 40
3.625
100
AcDbArc
 50
136.397181
 51
223.602819
  0
LINE
  5
93
330
1F
100
AcDbEntity
  8
002
 62
     3
370
    30
100
AcDbLine
 10
247.878518
 20
712.441531
 30
0.0
 11
247.878518
 21
720.441531
 31
0.0
  0
LINE
  5
94
330
1F
100
AcDbEntity
  8
002
 62
     3
370
    30
100
AcDbLine
 10
247.878518
 20
720.303031
 30
0.0
 11
246.878518
 21
720.303031
 31
0.0
  0
LINE
  5
95
330
1F
100
AcDbEntity
  8
002
 62
     3
370
    30
100
AcDbLine
 10
247.878518
 20
720.441531
 30
0.0
 11
248.878518
 21
721.441531
 31
0.0
  0
LINE
  5
96
330
1F
100
AcDbEntity
  8
002
 62
     3
370
    30
100
AcDbLine
 10
248.878518
 20
711.441531
 30
0.0
 11
247.878518
 21
712.441531
 31
0.0
  0
LINE
  5
97
330
1F
100
AcDbEntity
  8
002
 62
     3
370
    30
100
AcDbLine
 10
251.878518
 20
711.441531
 30
0.0
 11
248.878518
 21
711.441531
 31
0.0
  0
ARC
  5
98
330
1F
100
AcDbEntity
  8
002
 62
     3
370
    30
100
AcDbCircle
 10
249.253518
 20
713.941531
 30
0.0
 40
3.625
100
AcDbArc
 50
316.397181
 51
43.602819
  0
LINE
  5
99
330
1F
100
AcDbEntity
  8
002
 62
     3
370
    30
100
AcDbLine
 10
248.878518
 20
716.441531
 30
0.0
 11
251.878518
 21
716.441531
 31
0.0
  0
ARC
  5
9A
330
1F
100
AcDbEntity
  8
002
 62
     3
370
    30
100
AcDbCircle
 10
249.253518
 20
718.941531
 30
0.0
 40
3.625
100
AcDbArc
 50
316.397181
 51
43.602819
  0
ARC
  5
9B
330
1F
100
AcDbEntity
  8
002
 62
     3
370
    30
100
AcDbCircle
 10
251.503518
 20
718.941531
 30
0.0
 40
3.625
100
AcDbArc
 50
136.397181
 51
223.602819
  0
LINE
  5
9C
330
1F
100
AcDbEntity
  8
002
 62
     3
370
    30
100
AcDbLine
 10
248.878518
 20
721.441531
 30
0.0
 11
251.878518
 21
721.441531
 31
0.0
  0
LINE
  5
9D
330
1F
100
AcDbEntity
  8
002
 62
     3
370
    30
100
AcDbLine
 10
251.878518
 20
721.441531
 30
0.0
 11
254.791918
 21
719.301531
 31
0.0
  0
ARC
  5
9E
330
1F
100
AcDbEntity
  8
002
 62
     3
370
    30
100
AcDbCircle
 10
255.499118
 20
720.008631
 30
0.0
 40
1.000001999998045
100
AcDbArc
 50
224.995949
 51
302.005383
  0
LINE
  5
9F
330
1F
100
AcDbEntity
  8
002
 62
     3
370
    30
100
AcDbLine
 10
256.029118
 20
719.160631
 30
0.0
 11
256.878518
 21
719.691531
 31
0.0
  0
LINE
  5
A0
330
1F
100
AcDbEntity
  8
002
 62
     3
370
    30
100
AcDbLine
 10
256.878518
 20
719.691531
 30
0.0
 11
259.878518
 21
718.941531
 31
0.0
  0
LINE
  5
A1
330
1F
100
AcDbEntity
  8
002
 62
     3
370
    30
100
AcDbLine
 10
254.791918
 20
713.581531
 30
0.0
 11
251.878518
 21
711.441531
 31
0.0
  0
ARC
  5
A2
330
1F
100
AcDbEntity
  8
002
 62
     3
370
    30
100
AcDbCircle
 10
255.499118
 20
712.874431
 30
0.0
 40
1.000061123131999
100
AcDbArc
 50
57.994617
 51
135.004051
  0
LINE
  5
A3
330
1F
100
AcDbEntity
  8
002
 62
     3
370
    30
100
AcDbLine
 10
256.878518
 20
713.191531
 30
0.0
 11
256.029118
 21
713.722431
 31
0.0
  0
LINE
  5
A4
330
1F
100
AcDbEntity
  8
002
 62
     3
370
    30
100
AcDbLine
 10
259.878518
 20
713.941531
 30
0.0
 11
256.878518
 21
713.191531
 31
0.0
  0
LINE
  5
A5
330
1F
100
AcDbEntity
  8
002
 62
     3
370
    30
100
AcDbLine
 10
256.878518
 20
718.941531
 30
0.0
 11
256.878518
 21
713.941531
 31
0.0
  0
LINE
  5
A6
330
1F
100
AcDbEntity
  8
002
 62
     3
370
    30
100
AcDbLine
 10
255.354518
 20
714.144031
 30
0.0
 11
255.354518
 21
718.739031
 31
0.0
  0
LINE
  5
A7
330
1F
100
AcDbEntity
  8
002
 62
     3
370
    30
100
AcDbLine
 10
259.878518
 20
718.941531
 30
0.0
 11
259.878518
 21
713.941531
 31
0.0
  0
ARC
  5
A8
330
1F
100
AcDbEntity
  8
002
 62
     3
370
    30
100
AcDbCircle
 10
259.217018
 20
716.441531
 30
0.0
 40
1.000041124154433
100
AcDbArc
 50
311.412294
 51
48.587706
  0
ARC
  5
A9
330
1F
100
AcDbEntity
  8
002
 62
     3
370
    30
100
AcDbCircle
 10
191.878518
 20
539.625548
 30
0.0
 40
7.5
100
AcDbArc
 50
109.471221
 51
70.528779
  0
LINE
  5
AA
330
1F
100
AcDbEntity
  8
002
 62
     3
370
    30
100
AcDbLine
 10
189.378518
 20
544.125548
 30
0.0
 11
194.378518
 21
544.125548
 31
0.0
  0
LINE
  5
AB
330
1F
100
AcDbEntity
  8
002
 62
     3
370
    30
100
AcDbLine
 10
194.378518
 20
549.125548
 30
0.0
 11
194.378518
 21
544.125548
 31
0.0
  0
LINE
  5
AC
330
1F
100
AcDbEntity
  8
002
 62
     3
370
    30
100
AcDbLine
 10
189.378518
 20
549.125548
 30
0.0
 11
189.378518
 21
544.125548
 31
0.0
  0
LINE
  5
AD
330
1F
100
AcDbEntity
  8
002
 62
     3
370
    30
100
AcDbLine
 10
189.378518
 20
549.125548
 30
0.0
 11
194.378518
 21
549.125548
 31
0.0
  0
LINE
  5
AE
330
1F
100
AcDbEntity
  8
002
  6
HIDDEN
 62
    40
370
     9
100
AcDbLine
 10
129.378518
 20
741.141531
 30
0.0
 11
116.878518
 21
741.141531
 31
0.0
  0
LINE
  5
AF
330
1F
100
AcDbEntity
  8
002
  6
HIDDEN
 62
    40
370
     9
100
AcDbLine
 10
129.378518
 20
747.741531
 30
0.0
 11
116.878518
 21
747.741531
 31
0.0
  0
LINE
  5
B0
330
1F
100
AcDbEntity
  8
002
  6
HIDDEN
 62
    40
370
     9
100
AcDbLine
 10
129.378518
 20
691.741531
 30
0.0
 11
116.878518
 21
691.741531
 31
0.0
  0
LINE
  5
B1
330
1F
100
AcDbEntity
  8
002
 62
     3
370
    30
100
AcDbLine
 10
121.878518
 20
199.776884
 30
0.0
 11
246.878518
 21
199.776884
 31
0.0
  0
LINE
  5
B2
330
1F
100
AcDbEntity
  8
002
 62
     3
370
    30
100
AcDbLine
 10
134.378518
 20
212.276884
 30
0.0
 11
246.878518
 21
212.276884
 31
0.0
  0
LINE
  5
B3
330
1F
100
AcDbEntity
  8
002
 62
     3
370
    30
100
AcDbLine
 10
116.878518
 20
204.776884
 30
0.0
 11
116.878518
 21
299.776884
 31
0.0
  0
LINE
  5
B4
330
1F
100
AcDbEntity
  8
002
 62
     3
370
    30
100
AcDbLine
 10
129.378518
 20
299.776884
 30
0.0
 11
129.378518
 21
217.276884
 31
0.0
  0
LINE
  5
B5
330
1F
100
AcDbEntity
  8
002
 62
     3
370
    30
100
AcDbLine
 10
116.878518
 20
204.776884
 30
0.0
 11
121.878518
 21
199.776884
 31
0.0
  0
LINE
  5
B6
330
1F
100
AcDbEntity
  8
002
  6
CENTER
 62
    40
370
     9
100
AcDbLine
 10
145.341309
 20
249.776884
 30
0.0
 11
246.878518
 21
249.776884
 31
0.0
  0
LINE
  5
B7
330
1F
100
AcDbEntity
  8
002
  6
CENTER
 62
    40
370
     9
100
AcDbLine
 10
191.878518
 20
194.41023
 30
0.0
 11
191.878518
 21
305.411726
 31
0.0
  0
LINE
  5
B8
330
1F
100
AcDbEntity
  8
002
 62
     3
370
    30
100
AcDbLine
 10
171.878518
 20
219.776884
 30
0.0
 11
211.878518
 21
219.776884
 31
0.0
  0
LINE
  5
B9
330
1F
100
AcDbEntity
  8
002
 62
     3
370
    30
100
AcDbLine
 10
139.378518
 20
279.776884
 30
0.0
 11
211.878518
 21
279.776884
 31
0.0
  0
LINE
  5
BA
330
1F
100
AcDbEntity
  8
002
 62
     3
370
    30
100
AcDbLine
 10
221.878518
 20
217.276884
 30
0.0
 11
221.878518
 21
269.776884
 31
0.0
  0
LINE
  5
BB
330
1F
100
AcDbEntity
  8
002
 62
     3
370
    30
100
AcDbLine
 10
161.878518
 20
217.276884
 30
0.0
 11
161.878518
 21
269.776884
 31
0.0
  0
ARC
  5
BC
330
1F
100
AcDbEntity
  8
002
 62
     3
370
    30
100
AcDbCircle
 10
171.878518
 20
269.776884
 30
0.0
 40
10.0
100
AcDbArc
 50
90.0
 51
180.0
  0
ARC
  5
BD
330
1F
100
AcDbEntity
  8
002
 62
     3
370
    30
100
AcDbCircle
 10
211.878518
 20
269.776884
 30
0.0
 40
10.0
100
AcDbArc
 50
0.0
 51
90.0
  0
ARC
  5
BE
330
1F
100
AcDbEntity
  8
002
 62
     3
370
    30
100
AcDbCircle
 10
211.878518
 20
229.776884
 30
0.0
 40
10.0
100
AcDbArc
 50
270.0
 51
0.0
  0
ARC
  5
BF
330
1F
100
AcDbEntity
  8
002
 62
     3
370
    30
100
AcDbCircle
 10
171.878518
 20
229.776884
 30
0.0
 40
10.0
100
AcDbArc
 50
180.0
 51
270.0
  0
CIRCLE
  5
C0
330
1F
100
AcDbEntity
  8
002
 62
     3
370
    30
100
AcDbCircle
 10
191.878518
 20
249.776884
 30
0.0
 40
20.0
  0
LINE
  5
C1
330
1F
100
AcDbEntity
  8
002
 62
     3
370
    30
100
AcDbLine
 10
139.378518
 20
279.776884
 30
0.0
 11
139.378518
 21
299.776884
 31
0.0
  0
LINE
  5
C2
330
1F
100
AcDbEntity
  8
002
 62
     3
370
    30
100
AcDbLine
 10
194.378518
 20
279.776884
 30
0.0
 11
194.378518
 21
299.776884
 31
0.0
  0
LINE
  5
C3
330
1F
100
AcDbEntity
  8
002
 62
     3
370
    30
100
AcDbLine
 10
144.878518
 20
217.276884
 30
0.0
 11
144.878518
 21
274.276884
 31
0.0
  0
LINE
  5
C4
330
1F
100
AcDbEntity
  8
002
 62
     3
370
    30
100
AcDbLine
 10
139.378518
 20
279.776884
 30
0.0
 11
144.878518
 21
274.276884
 31
0.0
  0
LINE
  5
C5
330
1F
100
AcDbEntity
  8
002
 62
     3
370
    30
100
AcDbLine
 10
144.878518
 20
274.276884
 30
0.0
 11
162.470403
 21
274.276884
 31
0.0
  0
ARC
  5
C6
330
1F
100
AcDbEntity
  8
002
 62
     3
370
    30
100
AcDbCircle
 10
134.378518
 20
217.276884
 30
0.0
 40
5.0
100
AcDbArc
 50
180.0
 51
270.0
  0
ARC
  5
C7
330
1F
100
AcDbEntity
  8
002
 62
     3
370
    30
100
AcDbCircle
 10
139.878518
 20
217.276884
 30
0.0
 40
5.0
100
AcDbArc
 50
270.0
 51
0.0
  0
ARC
  5
C8
330
1F
100
AcDbEntity
  8
002
 62
     3
370
    30
100
AcDbCircle
 10
156.878518
 20
217.276884
 30
0.0
 40
5.0
100
AcDbArc
 50
270.0
 51
0.0
  0
ARC
  5
C9
330
1F
100
AcDbEntity
  8
002
 62
     3
370
    30
100
AcDbCircle
 10
226.878518
 20
217.276884
 30
0.0
 40
5.0
100
AcDbArc
 50
180.0
 51
270.0
  0
LINE
  5
CA
330
1F
100
AcDbEntity
  8
002
  6
CENTER
 62
    40
370
     9
100
AcDbLine
 10
236.878518
 20
198.367383
 30
0.0
 11
236.878518
 21
213.891553
 31
0.0
  0
LINE
  5
CB
330
1F
100
AcDbEntity
  8
002
  6
CENTER
 62
    40
370
     9
100
AcDbLine
 10
138.878518
 20
198.501111
 30
0.0
 11
138.878518
 21
213.490385
 31
0.0
  0
LINE
  5
CC
330
1F
100
AcDbEntity
  8
002
  6
CENTER
 62
    40
370
     9
100
AcDbLine
 10
131.677449
 20
229.776884
 30
0.0
 11
114.907166
 21
229.776884
 31
0.0
  0
LINE
  5
CD
330
1F
100
AcDbEntity
  8
002
  6
CENTER
 62
    40
370
     9
100
AcDbLine
 10
131.677449
 20
289.776884
 30
0.0
 11
114.907166
 21
289.776884
 31
0.0
  0
LINE
  5
CE
330
1F
100
AcDbEntity
  8
002
 62
     3
370
    30
100
AcDbLine
 10
248.878518
 20
231.776884
 30
0.0
 11
251.878518
 21
231.776884
 31
0.0
  0
ARC
  5
CF
330
1F
100
AcDbEntity
  8
002
 62
     3
370
    30
100
AcDbCircle
 10
191.878518
 20
249.776884
 30
0.0
 40
7.5
100
AcDbArc
 50
109.471221
 51
70.528779
  0
LINE
  5
D0
330
1F
100
AcDbEntity
  8
002
 62
     3
370
    30
100
AcDbLine
 10
189.378518
 20
254.276884
 30
0.0
 11
194.378518
 21
254.276884
 31
0.0
  0
LINE
  5
D1
330
1F
100
AcDbEntity
  8
002
 62
     3
370
    30
100
AcDbLine
 10
194.378518
 20
259.276884
 30
0.0
 11
194.378518
 21
254.276884
 31
0.0
  0
LINE
  5
D2
330
1F
100
AcDbEntity
  8
002
 62
     3
370
    30
100
AcDbLine
 10
189.378518
 20
259.276884
 30
0.0
 11
194.378518
 21
259.276884
 31
0.0
  0
LINE
  5
D3
330
1F
100
AcDbEntity
  8
002
 62
     3
370
    30
100
AcDbLine
 10
189.378518
 20
259.276884
 30
0.0
 11
189.378518
 21
254.276884
 31
0.0
  0
LINE
  5
D4
330
1F
100
AcDbEntity
  8
002
 62
     3
370
    30
100
AcDbLine
 10
246.878518
 20
294.776884
 30
0.0
 11
246.878518
 21
199.776884
 31
0.0
  0
LINE
  5
D5
330
1F
100
AcDbEntity
  8
002
 62
     3
370
    30
100
AcDbLine
 10
226.878518
 20
241.776884
 30
0.0
 11
246.878518
 21
241.776884
 31
0.0
  0
ARC
  5
D6
330
1F
100
AcDbEntity
  8
002
 62
     3
370
    30
100
AcDbCircle
 10
226.878518
 20
246.776884
 30
0.0
 40
5.0
100
AcDbArc
 50
180.0
 51
270.0
  0
LINE
  5
D7
330
1F
100
AcDbEntity
  8
002
 62
     3
370
    30
100
AcDbLine
 10
251.878518
 20
226.776884
 30
0.0
 11
248.878518
 21
226.776884
 31
0.0
  0
ARC
  5
D8
330
1F
100
AcDbEntity
  8
002
 62
     3
370
    30
100
AcDbCircle
 10
249.253518
 20
229.276884
 30
0.0
 40
3.625
100
AcDbArc
 50
316.397181
 51
43.602819
  0
ARC
  5
D9
330
1F
100
AcDbEntity
  8
002
 62
     3
370
    30
100
AcDbCircle
 10
251.503518
 20
229.276884
 30
0.0
 40
3.625
100
AcDbArc
 50
136.397181
 51
223.602819
  0
LINE
  5
DA
330
1F
100
AcDbEntity
  8
002
 62
     3
370
    30
100
AcDbLine
 10
248.878518
 20
226.776884
 30
0.0
 11
247.878518
 21
227.776884
 31
0.0
  0
LINE
  5
DB
330
1F
100
AcDbEntity
  8
002
 62
     3
370
    30
100
AcDbLine
 10
247.878518
 20
227.776884
 30
0.0
 11
247.878518
 21
235.776884
 31
0.0
  0
LINE
  5
DC
330
1F
100
AcDbEntity
  8
002
 62
     3
370
    30
100
AcDbLine
 10
247.878518
 20
227.915384
 30
0.0
 11
246.878518
 21
227.915384
 31
0.0
  0
ARC
  5
DD
330
1F
100
AcDbEntity
  8
002
 62
     3
370
    30
100
AcDbCircle
 10
251.503518
 20
234.276884
 30
0.0
 40
3.625
100
AcDbArc
 50
136.397181
 51
223.602819
  0
LINE
  5
DE
330
1F
100
AcDbEntity
  8
002
 62
     3
370
    30
100
AcDbLine
 10
247.878518
 20
235.638384
 30
0.0
 11
246.878518
 21
235.638384
 31
0.0
  0
LINE
  5
DF
330
1F
100
AcDbEntity
  8
002
 62
     3
370
    30
100
AcDbLine
 10
247.878518
 20
235.776884
 30
0.0
 11
248.878518
 21
236.776884
 31
0.0
  0
LINE
  5
E0
330
1F
100
AcDbEntity
  8
002
 62
     3
370
    30
100
AcDbLine
 10
248.878518
 20
236.776884
 30
0.0
 11
251.878518
 21
236.776884
 31
0.0
  0
ARC
  5
E1
330
1F
100
AcDbEntity
  8
002
 62
     3
370
    30
100
AcDbCircle
 10
249.253518
 20
234.276884
 30
0.0
 40
3.625
100
AcDbArc
 50
316.397181
 51
43.602819
  0
LINE
  5
E2
330
1F
100
AcDbEntity
  8
002
 62
     3
370
    30
100
AcDbLine
 10
254.791918
 20
228.916884
 30
0.0
 11
251.878518
 21
226.776884
 31
0.0
  0
ARC
  5
E3
330
1F
100
AcDbEntity
  8
002
 62
     3
370
    30
100
AcDbCircle
 10
255.499118
 20
228.209784
 30
0.0
 40
1.000061123131999
100
AcDbArc
 50
57.994617
 51
135.004051
  0
LINE
  5
E4
330
1F
100
AcDbEntity
  8
002
 62
     3
370
    30
100
AcDbLine
 10
256.878518
 20
228.526884
 30
0.0
 11
256.029118
 21
229.057784
 31
0.0
  0
LINE
  5
E5
330
1F
100
AcDbEntity
  8
002
 62
     3
370
    30
100
AcDbLine
 10
259.878518
 20
229.276884
 30
0.0
 11
256.878518
 21
228.526884
 31
0.0
  0
LINE
  5
E6
330
1F
100
AcDbEntity
  8
002
 62
     3
370
    30
100
AcDbLine
 10
256.878518
 20
234.276884
 30
0.0
 11
256.878518
 21
229.276884
 31
0.0
  0
LINE
  5
E7
330
1F
100
AcDbEntity
  8
002
 62
     3
370
    30
100
AcDbLine
 10
255.354518
 20
229.479384
 30
0.0
 11
255.354518
 21
234.074384
 31
0.0
  0
LINE
  5
E8
330
1F
100
AcDbEntity
  8
002
 62
     3
370
    30
100
AcDbLine
 10
251.878518
 20
236.776884
 30
0.0
 11
254.791918
 21
234.636884
 31
0.0
  0
ARC
  5
E9
330
1F
100
AcDbEntity
  8
002
 62
     3
370
    30
100
AcDbCircle
 10
255.499118
 20
235.343984
 30
0.0
 40
1.000001999998045
100
AcDbArc
 50
224.995949
 51
302.005383
  0
LINE
  5
EA
330
1F
100
AcDbEntity
  8
002
 62
     3
370
    30
100
AcDbLine
 10
256.029118
 20
234.495984
 30
0.0
 11
256.878518
 21
235.026884
 31
0.0
  0
LINE
  5
EB
330
1F
100
AcDbEntity
  8
002
 62
     3
370
    30
100
AcDbLine
 10
256.878518
 20
235.026884
 30
0.0
 11
259.878518
 21
234.276884
 31
0.0
  0
LINE
  5
EC
330
1F
100
AcDbEntity
  8
002
 62
     3
370
    30
100
AcDbLine
 10
259.878518
 20
234.276884
 30
0.0
 11
259.878518
 21
229.276884
 31
0.0
  0
ARC
  5
ED
330
1F
100
AcDbEntity
  8
002
 62
     3
370
    30
100
AcDbCircle
 10
259.217018
 20
231.776884
 30
0.0
 40
1.000041124154433
100
AcDbArc
 50
311.412294
 51
48.587706
  0
LINE
  5
EE
330
1F
100
AcDbEntity
  8
002
  6
CENTER
 62
    40
370
     9
100
AcDbLine
 10
243.913203
 20
231.776884
 30
0.0
 11
248.878518
 21
231.776884
 31
0.0
  0
LINE
  5
EF
330
1F
100
AcDbEntity
  8
002
 62
     3
370
    30
100
AcDbLine
 10
241.878518
 20
299.776884
 30
0.0
 11
116.878518
 21
299.776884
 31
0.0
  0
LINE
  5
F0
330
1F
100
AcDbEntity
  8
002
 62
     3
370
    30
100
AcDbLine
 10
241.878518
 20
299.776884
 30
0.0
 11
246.878518
 21
294.776884
 31
0.0
  0
LINE
  5
F1
330
1F
100
AcDbEntity
  8
002
  6
HIDDEN
 62
    40
370
     9
100
AcDbLine
 10
129.378518
 20
286.476884
 30
0.0
 11
116.878518
 21
286.476884
 31
0.0
  0
LINE
  5
F2
330
1F
100
AcDbEntity
  8
002
  6
HIDDEN
 62
    40
370
     9
100
AcDbLine
 10
129.378518
 20
293.076884
 30
0.0
 11
116.878518
 21
293.076884
 31
0.0
  0
LINE
  5
F3
330
1F
100
AcDbEntity
  8
002
  6
HIDDEN
 62
    40
370
     9
100
AcDbLine
 10
129.378518
 20
233.076884
 30
0.0
 11
116.878518
 21
233.076884
 31
0.0
  0
LINE
  5
F4
330
1F
100
AcDbEntity
  8
002
  6
HIDDEN
 62
    40
370
     9
100
AcDbLine
 10
129.378518
 20
226.476884
 30
0.0
 11
116.878518
 21
226.476884
 31
0.0
  0
LINE
  5
F5
330
1F
100
AcDbEntity
  8
002
  6
HIDDEN
 62
    40
370
     9
100
AcDbLine
 10
135.578518
 20
199.776884
 30
0.0
 11
135.578518
 21
212.276884
 31
0.0
  0
LINE
  5
F6
330
1F
100
AcDbEntity
  8
002
  6
HIDDEN
 62
    40
370
     9
100
AcDbLine
 10
142.178518
 20
199.776884
 30
0.0
 11
142.178518
 21
212.276884
 31
0.0
  0
LINE
  5
F7
330
1F
100
AcDbEntity
  8
002
  6
HIDDEN
 62
    40
370
     9
100
AcDbLine
 10
233.578518
 20
199.776884
 30
0.0
 11
233.578518
 21
212.276884
 31
0.0
  0
LINE
  5
F8
330
1F
100
AcDbEntity
  8
002
  6
HIDDEN
 62
    40
370
     9
100
AcDbLine
 10
240.178518
 20
199.776884
 30
0.0
 11
240.178518
 21
212.276884
 31
0.0
  0
LINE
  5
F9
330
1F
100
AcDbEntity
  8
002
  6
CENTER
 62
    40
370
     9
100
AcDbLine
 10
182.788518
 20
201.776884
 30
0.0
 11
182.788518
 21
188.055284
 31
0.0
  0
LINE
  5
FA
330
1F
100
AcDbEntity
  8
002
  6
CENTER
 62
    40
370
     9
100
AcDbLine
 10
150.968518
 20
201.776884
 30
0.0
 11
150.968518
 21
188.055284
 31
0.0
  0
LINE
  5
FB
330
1F
100
AcDbEntity
  8
002
 62
     3
370
    30
100
AcDbLine
 10
186.878618
 20
154.776884
 30
0.0
 11
146.878518
 21
154.776884
 31
0.0
  0
LINE
  5
FC
330
1F
100
AcDbEntity
  8
002
 62
     3
370
    30
100
AcDbLine
 10
146.878518
 20
154.776884
 30
0.0
 11
146.325518
 21
192.820584
 31
0.0
  0
LINE
  5
FD
330
1F
100
AcDbEntity
  8
002
 62
     3
370
    30
100
AcDbLine
 10
187.432018
 20
192.820584
 30
0.0
 11
186.878618
 21
154.776884
 31
0.0
  0
LINE
  5
FE
330
1F
100
AcDbEntity
  8
002
 62
     3
370
    30
100
AcDbLine
 10
187.038518
 20
190.776884
 30
0.0
 11
178.538518
 21
190.776884
 31
0.0
  0
LINE
  5
FF
330
1F
100
AcDbEntity
  8
002
 62
     3
370
    30
100
AcDbLine
 10
187.038518
 20
195.776884
 30
0.0
 11
187.038518
 21
190.776884
 31
0.0
  0
LINE
  5
100
330
1F
100
AcDbEntity
  8
002
 62
     3
370
    30
100
AcDbLine
 10
178.538518
 20
195.776884
 30
0.0
 11
178.538518
 21
190.776884
 31
0.0
  0
ARC
  5
101
330
1F
100
AcDbEntity
  8
002
 62
     3
370
    30
100
AcDbCircle
 10
190.431718
 20
192.776884
 30
0.0
 40
3.000018296610834
100
AcDbArc
 50
90.0
 51
179.165367
  0
LINE
  5
102
330
1F
100
AcDbEntity
  8
002
 62
     3
370
    30
100
AcDbLine
 10
139.378518
 20
195.776884
 30
0.0
 11
194.378618
 21
195.776884
 31
0.0
  0
LINE
  5
103
330
1F
100
AcDbEntity
  8
002
 62
     3
370
    30
100
AcDbLine
 10
194.378618
 20
195.776884
 30
0.0
 11
194.378618
 21
199.776884
 31
0.0
  0
ARC
  5
104
330
1F
100
AcDbEntity
  8
002
 62
     3
370
    30
100
AcDbCircle
 10
143.325518
 20
192.776884
 30
0.0
 40
3.0
100
AcDbArc
 50
0.834549
 51
90.0
  0
LINE
  5
105
330
1F
100
AcDbEntity
  8
002
 62
     3
370
    30
100
AcDbLine
 10
146.718518
 20
195.776884
 30
0.0
 11
146.718518
 21
190.776884
 31
0.0
  0
LINE
  5
106
330
1F
100
AcDbEntity
  8
002
 62
     3
370
    30
100
AcDbLine
 10
155.218518
 20
190.776884
 30
0.0
 11
155.218518
 21
195.776884
 31
0.0
  0
LINE
  5
107
330
1F
100
AcDbEntity
  8
002
 62
     3
370
    30
100
AcDbLine
 10
146.718518
 20
190.776884
 30
0.0
 11
155.218518
 21
190.776884
 31
0.0
  0
LINE
  5
108
330
1F
100
AcDbEntity
  8
002
 62
     3
370
    30
100
AcDbLine
 10
148.878518
 20
69.776884
 30
0.0
 11
148.878518
 21
52.776884
 31
0.0
  0
LINE
  5
109
330
1F
100
AcDbEntity
  8
002
 62
     3
370
    30
100
AcDbLine
 10
184.878518
 20
69.776884
 30
0.0
 11
148.878518
 21
69.776884
 31
0.0
  0
LINE
  5
10A
330
1F
100
AcDbEntity
  8
002
 62
     3
370
    30
100
AcDbLine
 10
151.878518
 20
49.776884
 30
0.0
 11
181.878518
 21
49.776884
 31
0.0
  0
ARC
  5
10B
330
1F
100
AcDbEntity
  8
002
 62
     3
370
    30
100
AcDbCircle
 10
151.878518
 20
52.776884
 30
0.0
 40
3.0
100
AcDbArc
 50
180.0
 51
270.0
  0
ARC
  5
10C
330
1F
100
AcDbEntity
  8
002
 62
     3
370
    30
100
AcDbCircle
 10
181.878518
 20
52.776884
 30
0.0
 40
3.0
100
AcDbArc
 50
270.0
 51
0.0
  0
LINE
  5
10D
330
1F
100
AcDbEntity
  8
002
 62
     3
370
    30
100
AcDbLine
 10
184.878518
 20
52.776884
 30
0.0
 11
184.878518
 21
69.776884
 31
0.0
  0
LINE
  5
10E
330
1F
100
AcDbEntity
  8
002
 62
     3
370
    30
100
AcDbLine
 10
139.378518
 20
199.776884
 30
0.0
 11
139.378518
 21
195.776884
 31
0.0
  0
LINE
  5
10F
330
1F
100
AcDbEntity
  8
002
 62
    40
370
     9
100
AcDbLine
 10
172.128518
 20
417.776884
 30
0.0
 11
172.128518
 21
429.776884
 31
0.0
  0
LINE
  5
110
330
1F
100
AcDbEntity
  8
002
 62
    40
370
     9
100
AcDbLine
 10
161.628518
 20
417.776884
 30
0.0
 11
161.628518
 21
429.776884
 31
0.0
  0
LINE
  5
111
330
1F
100
AcDbEntity
  8
002
 62
     3
370
    30
100
AcDbLine
 10
176.878518
 20
414.776884
 30
0.0
 11
156.878518
 21
414.776884
 31
0.0
  0
LINE
  5
112
330
1F
100
AcDbEntity
  8
002
 62
     3
370
    30
100
AcDbLine
 10
171.878518
 20
414.776884
 30
0.0
 11
171.878518
 21
417.776884
 31
0.0
  0
LINE
  5
113
330
1F
100
AcDbEntity
  8
002
 62
     3
370
    30
100
AcDbLine
 10
161.878518
 20
414.776884
 30
0.0
 11
161.878518
 21
417.776884
 31
0.0
  0
LINE
  5
114
330
1F
100
AcDbEntity
  8
002
 62
     3
370
    30
100
AcDbLine
 10
172.878518
 20
417.776884
 30
0.0
 11
160.878518
 21
417.776884
 31
0.0
  0
LINE
  5
115
330
1F
100
AcDbEntity
  8
002
 62
     3
370
    30
100
AcDbLine
 10
160.878518
 20
429.776884
 30
0.0
 11
160.878518
 21
417.776884
 31
0.0
  0
LINE
  5
116
330
1F
100
AcDbEntity
  8
002
 62
     3
370
    30
100
AcDbLine
 10
172.878518
 20
429.776884
 30
0.0
 11
172.878518
 21
417.776884
 31
0.0
  0
LINE
  5
117
330
1F
100
AcDbEntity
  8
002
 62
     3
370
    30
100
AcDbLine
 10
172.878518
 20
429.776884
 30
0.0
 11
160.878518
 21
429.776884
 31
0.0
  0
LINE
  5
118
330
1F
100
AcDbEntity
  8
002
  6
HIDDEN
 62
    40
370
     9
100
AcDbLine
 10
129.378518
 20
685.141531
 30
0.0
 11
116.878518
 21
685.141531
 31
0.0
  0
ARC
  5
119
330
1F
100
AcDbEntity
  8
003
 62
     3
370
    30
100
AcDbCircle
 10
197.369295
 20
705.191531
 30
0.0
 40
5.0
100
AcDbArc
 50
90.0
 51
159.747753
  0
ARC
  5
11A
330
1F
100
AcDbEntity
  8
003
 62
     3
370
    30
100
AcDbCircle
 10
197.369295
 20
727.691531
 30
0.0
 40
5.0
100
AcDbArc
 50
200.252247
 51
270.0
  0
LINE
  5
11B
330
1F
100
AcDbEntity
  8
001
 62
     3
370
    30
100
AcDbLine
 10
432.416417
 20
399.776884
 30
0.0
 11
450.88995
 21
397.761684
 31
0.0
  0
LINE
  5
11C
330
1F
100
AcDbEntity
  8
001
 62
     3
370
    30
100
AcDbLine
 10
450.889933
 20
395.792081
 30
0.0
 11
440.042799
 21
394.761781
 31
0.0
  0
LINE
  5
11D
330
1F
100
AcDbEntity
  8
001
 62
     3
370
    30
100
AcDbLine
 10
440.042817
 20
392.791984
 30
0.0
 11
450.88995
 21
391.761684
 31
0.0
  0
LINE
  5
11E
330
1F
100
AcDbEntity
  8
001
 62
     3
370
    30
100
AcDbLine
 10
450.889933
 20
389.792081
 30
0.0
 11
440.042814
 21
388.761699
 31
0.0
  0
LINE
  5
11F
330
1F
100
AcDbEntity
  8
001
 62
     3
370
    30
100
AcDbLine
 10
403.389917
 20
388.761684
 30
0.0
 11
392.542934
 21
389.792081
 31
0.0
  0
LINE
  5
120
330
1F
100
AcDbEntity
  8
001
 62
     3
370
    30
100
AcDbLine
 10
392.542917
 20
391.761684
 30
0.0
 11
403.389899
 21
392.792081
 31
0.0
  0
LINE
  5
121
330
1F
100
AcDbEntity
  8
001
 62
     3
370
    30
100
AcDbLine
 10
403.389917
 20
394.761684
 30
0.0
 11
392.542934
 21
395.792081
 31
0.0
  0
LINE
  5
122
330
1F
100
AcDbEntity
  8
001
 62
     3
370
    30
100
AcDbLine
 10
392.542917
 20
397.761684
 30
0.0
 11
411.016417
 21
399.776884
 31
0.0
  0
LINE
  5
123
330
1F
100
AcDbEntity
  8
002
 62
     3
370
    30
100
AcDbLine
 10
376.716417
 20
199.776884
 30
0.0
 11
501.716417
 21
199.776884
 31
0.0
  0
LINE
  5
124
330
1F
100
AcDbEntity
  8
002
 62
     3
370
    30
100
AcDbLine
 10
389.216417
 20
212.276884
 30
0.0
 11
501.716417
 21
212.276884
 31
0.0
  0
LINE
  5
125
330
1F
100
AcDbEntity
  8
002
 62
     3
370
    30
100
AcDbLine
 10
371.716417
 20
204.776884
 30
0.0
 11
371.716417
 21
299.776884
 31
0.0
  0
LINE
  5
126
330
1F
100
AcDbEntity
  8
002
 62
     3
370
    30
100
AcDbLine
 10
384.216417
 20
299.776884
 30
0.0
 11
384.216417
 21
217.276884
 31
0.0
  0
LINE
  5
127
330
1F
100
AcDbEntity
  8
002
 62
     3
370
    30
100
AcDbLine
 10
371.716417
 20
204.776884
 30
0.0
 11
376.716417
 21
199.776884
 31
0.0
  0
LINE
  5
128
330
1F
100
AcDbEntity
  8
002
  6
CENTER
 62
    40
370
     9
100
AcDbLine
 10
400.179208
 20
249.776884
 30
0.0
 11
501.716417
 21
249.776884
 31
0.0
  0
LINE
  5
129
330
1F
100
AcDbEntity
  8
002
  6
CENTER
 62
    40
370
     9
100
AcDbLine
 10
446.716417
 20
194.41023
 30
0.0
 11
446.716417
 21
305.411726
 31
0.0
  0
LINE
  5
12A
330
1F
100
AcDbEntity
  8
002
 62
     3
370
    30
100
AcDbLine
 10
426.716417
 20
219.776884
 30
0.0
 11
466.716417
 21
219.776884
 31
0.0
  0
LINE
  5
12B
330
1F
100
AcDbEntity
  8
002
 62
     3
370
    30
100
AcDbLine
 10
394.216417
 20
279.776884
 30
0.0
 11
466.716417
 21
279.776884
 31
0.0
  0
LINE
  5
12C
330
1F
100
AcDbEntity
  8
002
 62
     3
370
    30
100
AcDbLine
 10
476.716417
 20
217.276884
 30
0.0
 11
476.716417
 21
269.776884
 31
0.0
  0
LINE
  5
12D
330
1F
100
AcDbEntity
  8
002
 62
     3
370
    30
100
AcDbLine
 10
416.716417
 20
217.276884
 30
0.0
 11
416.716417
 21
269.776884
 31
0.0
  0
ARC
  5
12E
330
1F
100
AcDbEntity
  8
002
 62
     3
370
    30
100
AcDbCircle
 10
426.716417
 20
269.776884
 30
0.0
 40
10.0
100
AcDbArc
 50
90.0
 51
180.0
  0
ARC
  5
12F
330
1F
100
AcDbEntity
  8
002
 62
     3
370
    30
100
AcDbCircle
 10
466.716417
 20
269.776884
 30
0.0
 40
10.0
100
AcDbArc
 50
0.0
 51
90.0
  0
ARC
  5
130
330
1F
100
AcDbEntity
  8
002
 62
     3
370
    30
100
AcDbCircle
 10
466.716417
 20
229.776884
 30
0.0
 40
10.0
100
AcDbArc
 50
270.0
 51
0.0
  0
ARC
  5
131
330
1F
100
AcDbEntity
  8
002
 62
     3
370
    30
100
AcDbCircle
 10
426.716417
 20
229.776884
 30
0.0
 40
10.0
100
AcDbArc
 50
180.0
 51
270.0
  0
CIRCLE
  5
132
330
1F
100
AcDbEntity
  8
002
 62
     3
370
    30
100
AcDbCircle
 10
446.716417
 20
249.776884
 30
0.0
 40
20.0
  0
LINE
  5
133
330
1F
100
AcDbEntity
  8
002
 62
     3
370
    30
100
AcDbLine
 10
394.216417
 20
279.776884
 30
0.0
 11
394.216417
 21
299.776884
 31
0.0
  0
LINE
  5
134
330
1F
100
AcDbEntity
  8
002
 62
     3
370
    30
100
AcDbLine
 10
449.216417
 20
279.776884
 30
0.0
 11
449.216417
 21
299.776884
 31
0.0
  0
LINE
  5
135
330
1F
100
AcDbEntity
  8
002
 62
     3
370
    30
100
AcDbLine
 10
399.716417
 20
217.276884
 30
0.0
 11
399.716417
 21
274.276884
 31
0.0
  0
LINE
  5
136
330
1F
100
AcDbEntity
  8
002
 62
     3
370
    30
100
AcDbLine
 10
394.216417
 20
279.776884
 30
0.0
 11
399.716417
 21
274.276884
 31
0.0
  0
LINE
  5
137
330
1F
100
AcDbEntity
  8
002
 62
     3
370
    30
100
AcDbLine
 10
399.716417
 20
274.276884
 30
0.0
 11
417.308302
 21
274.276884
 31
0.0
  0
ARC
  5
138
330
1F
100
AcDbEntity
  8
002
 62
     3
370
    30
100
AcDbCircle
 10
389.216417
 20
217.276884
 30
0.0
 40
5.0
100
AcDbArc
 50
180.0
 51
270.0
  0
ARC
  5
139
330
1F
100
AcDbEntity
  8
002
 62
     3
370
    30
100
AcDbCircle
 10
394.716417
 20
217.276884
 30
0.0
 40
5.0
100
AcDbArc
 50
270.0
 51
0.0
  0
ARC
  5
13A
330
1F
100
AcDbEntity
  8
002
 62
     3
370
    30
100
AcDbCircle
 10
411.716417
 20
217.276884
 30
0.0
 40
5.0
100
AcDbArc
 50
270.0
 51
0.0
  0
ARC
  5
13B
330
1F
100
AcDbEntity
  8
002
 62
     3
370
    30
100
AcDbCircle
 10
481.716417
 20
217.276884
 30
0.0
 40
5.0
100
AcDbArc
 50
180.0
 51
270.0
  0
LINE
  5
13C
330
1F
100
AcDbEntity
  8
002
  6
CENTER
 62
    40
370
     9
100
AcDbLine
 10
393.716417
 20
198.501111
 30
0.0
 11
393.716417
 21
213.490385
 31
0.0
  0
LINE
  5
13D
330
1F
100
AcDbEntity
  8
002
  6
CENTER
 62
    40
370
     9
100
AcDbLine
 10
386.515348
 20
229.776884
 30
0.0
 11
369.745065
 21
229.776884
 31
0.0
  0
LINE
  5
13E
330
1F
100
AcDbEntity
  8
002
  6
CENTER
 62
    40
370
     9
100
AcDbLine
 10
386.515348
 20
289.776884
 30
0.0
 11
369.745065
 21
289.776884
 31
0.0
  0
LINE
  5
13F
330
1F
100
AcDbEntity
  8
002
 62
     3
370
    30
100
AcDbLine
 10
503.716417
 20
231.776884
 30
0.0
 11
506.716417
 21
231.776884
 31
0.0
  0
ARC
  5
140
330
1F
100
AcDbEntity
  8
002
 62
     3
370
    30
100
AcDbCircle
 10
446.716417
 20
249.776884
 30
0.0
 40
7.5
100
AcDbArc
 50
109.471221
 51
70.528779
  0
LINE
  5
141
330
1F
100
AcDbEntity
  8
002
 62
     3
370
    30
100
AcDbLine
 10
444.216417
 20
254.276884
 30
0.0
 11
449.216417
 21
254.276884
 31
0.0
  0
LINE
  5
142
330
1F
100
AcDbEntity
  8
002
 62
     3
370
    30
100
AcDbLine
 10
449.216417
 20
259.276884
 30
0.0
 11
449.216417
 21
254.276884
 31
0.0
  0
LINE
  5
143
330
1F
100
AcDbEntity
  8
002
 62
     3
370
    30
100
AcDbLine
 10
444.216417
 20
259.276884
 30
0.0
 11
449.216417
 21
259.276884
 31
0.0
  0
LINE
  5
144
330
1F
100
AcDbEntity
  8
002
 62
     3
370
    30
100
AcDbLine
 10
444.216417
 20
259.276884
 30
0.0
 11
444.216417
 21
254.276884
 31
0.0
  0
LINE
  5
145
330
1F
100
AcDbEntity
  8
002
 62
     3
370
    30
100
AcDbLine
 10
501.716417
 20
294.776884
 30
0.0
 11
501.716417
 21
199.776884
 31
0.0
  0
LINE
  5
146
330
1F
100
AcDbEntity
  8
002
 62
     3
370
    30
100
AcDbLine
 10
481.716417
 20
241.776884
 30
0.0
 11
501.716417
 21
241.776884
 31
0.0
  0
ARC
  5
147
330
1F
100
AcDbEntity
  8
002
 62
     3
370
    30
100
AcDbCircle
 10
481.716417
 20
246.776884
 30
0.0
 40
5.0
100
AcDbArc
 50
180.0
 51
270.0
  0
LINE
  5
148
330
1F
100
AcDbEntity
  8
002
 62
     3
370
    30
100
AcDbLine
 10
506.716417
 20
226.776884
 30
0.0
 11
503.716417
 21
226.776884
 31
0.0
  0
ARC
  5
149
330
1F
100
AcDbEntity
  8
002
 62
     3
370
    30
100
AcDbCircle
 10
504.091417
 20
229.276884
 30
0.0
 40
3.625
100
AcDbArc
 50
316.397181
 51
43.602819
  0
ARC
  5
14A
330
1F
100
AcDbEntity
  8
002
 62
     3
370
    30
100
AcDbCircle
 10
506.341417
 20
229.276884
 30
0.0
 40
3.625
100
AcDbArc
 50
136.397181
 51
223.602819
  0
LINE
  5
14B
330
1F
100
AcDbEntity
  8
002
 62
     3
370
    30
100
AcDbLine
 10
503.716417
 20
226.776884
 30
0.0
 11
502.716417
 21
227.776884
 31
0.0
  0
LINE
  5
14C
330
1F
100
AcDbEntity
  8
002
 62
     3
370
    30
100
AcDbLine
 10
502.716417
 20
227.776884
 30
0.0
 11
502.716417
 21
235.776884
 31
0.0
  0
LINE
  5
14D
330
1F
100
AcDbEntity
  8
002
 62
     3
370
    30
100
AcDbLine
 10
502.716417
 20
227.915384
 30
0.0
 11
501.716417
 21
227.915384
 31
0.0
  0
ARC
  5
14E
330
1F
100
AcDbEntity
  8
002
 62
     3
370
    30
100
AcDbCircle
 10
506.341417
 20
234.276884
 30
0.0
 40
3.625
100
AcDbArc
 50
136.397181
 51
223.602819
  0
LINE
  5
14F
330
1F
100
AcDbEntity
  8
002
 62
     3
370
    30
100
AcDbLine
 10
502.716417
 20
235.638384
 30
0.0
 11
501.716417
 21
235.638384
 31
0.0
  0
LINE
  5
150
330
1F
100
AcDbEntity
  8
002
 62
     3
370
    30
100
AcDbLine
 10
502.716417
 20
235.776884
 30
0.0
 11
503.716417
 21
236.776884
 31
0.0
  0
LINE
  5
151
330
1F
100
AcDbEntity
  8
002
 62
     3
370
    30
100
AcDbLine
 10
503.716417
 20
236.776884
 30
0.0
 11
506.716417
 21
236.776884
 31
0.0
  0
ARC
  5
152
330
1F
100
AcDbEntity
  8
002
 62
     3
370
    30
100
AcDbCircle
 10
504.091417
 20
234.276884
 30
0.0
 40
3.625
100
AcDbArc
 50
316.397181
 51
43.602819
  0
LINE
  5
153
330
1F
100
AcDbEntity
  8
002
 62
     3
370
    30
100
AcDbLine
 10
509.629817
 20
228.916884
 30
0.0
 11
506.716417
 21
226.776884
 31
0.0
  0
ARC
  5
154
330
1F
100
AcDbEntity
  8
002
 62
     3
370
    30
100
AcDbCircle
 10
510.337017
 20
228.209784
 30
0.0
 40
1.000061123131999
100
AcDbArc
 50
57.994617
 51
135.004051
  0
LINE
  5
155
330
1F
100
AcDbEntity
  8
002
 62
     3
370
    30
100
AcDbLine
 10
511.716417
 20
228.526884
 30
0.0
 11
510.867017
 21
229.057784
 31
0.0
  0
LINE
  5
156
330
1F
100
AcDbEntity
  8
002
 62
     3
370
    30
100
AcDbLine
 10
514.716417
 20
229.276884
 30
0.0
 11
511.716417
 21
228.526884
 31
0.0
  0
LINE
  5
157
330
1F
100
AcDbEntity
  8
002
 62
     3
370
    30
100
AcDbLine
 10
511.716417
 20
234.276884
 30
0.0
 11
511.716417
 21
229.276884
 31
0.0
  0
LINE
  5
158
330
1F
100
AcDbEntity
  8
002
 62
     3
370
    30
100
AcDbLine
 10
510.192417
 20
229.479384
 30
0.0
 11
510.192417
 21
234.074384
 31
0.0
  0
LINE
  5
159
330
1F
100
AcDbEntity
  8
002
 62
     3
370
    30
100
AcDbLine
 10
506.716417
 20
236.776884
 30
0.0
 11
509.629817
 21
234.636884
 31
0.0
  0
ARC
  5
15A
330
1F
100
AcDbEntity
  8
002
 62
     3
370
    30
100
AcDbCircle
 10
510.337017
 20
235.343984
 30
0.0
 40
1.000001999998045
100
AcDbArc
 50
224.995949
 51
302.005383
  0
LINE
  5
15B
330
1F
100
AcDbEntity
  8
002
 62
     3
370
    30
100
AcDbLine
 10
510.867017
 20
234.495984
 30
0.0
 11
511.716417
 21
235.026884
 31
0.0
  0
LINE
  5
15C
330
1F
100
AcDbEntity
  8
002
 62
     3
370
    30
100
AcDbLine
 10
511.716417
 20
235.026884
 30
0.0
 11
514.716417
 21
234.276884
 31
0.0
  0
LINE
  5
15D
330
1F
100
AcDbEntity
  8
002
 62
     3
370
    30
100
AcDbLine
 10
514.716417
 20
234.276884
 30
0.0
 11
514.716417
 21
229.276884
 31
0.0
  0
ARC
  5
15E
330
1F
100
AcDbEntity
  8
002
 62
     3
370
    30
100
AcDbCircle
 10
514.054917
 20
231.776884
 30
0.0
 40
1.000041124154433
100
AcDbArc
 50
311.412294
 51
48.587706
  0
LINE
  5
15F
330
1F
100
AcDbEntity
  8
002
  6
CENTER
 62
    40
370
     9
100
AcDbLine
 10
498.751102
 20
231.776884
 30
0.0
 11
503.716417
 21
231.776884
 31
0.0
  0
LINE
  5
160
330
1F
100
AcDbEntity
  8
002
 62
     3
370
    30
100
AcDbLine
 10
496.716417
 20
299.776884
 30
0.0
 11
371.716417
 21
299.776884
 31
0.0
  0
LINE
  5
161
330
1F
100
AcDbEntity
  8
002
 62
     3
370
    30
100
AcDbLine
 10
496.716417
 20
299.776884
 30
0.0
 11
501.716417
 21
294.776884
 31
0.0
  0
LINE
  5
162
330
1F
100
AcDbEntity
  8
002
  6
HIDDEN
 62
    40
370
     9
100
AcDbLine
 10
384.216417
 20
286.476884
 30
0.0
 11
371.716417
 21
286.476884
 31
0.0
  0
LINE
  5
163
330
1F
100
AcDbEntity
  8
002
  6
HIDDEN
 62
    40
370
     9
100
AcDbLine
 10
384.216417
 20
293.076884
 30
0.0
 11
371.716417
 21
293.076884
 31
0.0
  0
LINE
  5
164
330
1F
100
AcDbEntity
  8
002
  6
HIDDEN
 62
    40
370
     9
100
AcDbLine
 10
384.216417
 20
233.076884
 30
0.0
 11
371.716417
 21
233.076884
 31
0.0
  0
LINE
  5
165
330
1F
100
AcDbEntity
  8
002
  6
HIDDEN
 62
    40
370
     9
100
AcDbLine
 10
384.216417
 20
226.476884
 30
0.0
 11
371.716417
 21
226.476884
 31
0.0
  0
LINE
  5
166
330
1F
100
AcDbEntity
  8
002
  6
HIDDEN
 62
    40
370
     9
100
AcDbLine
 10
390.416417
 20
199.776884
 30
0.0
 11
390.416417
 21
212.276884
 31
0.0
  0
LINE
  5
167
330
1F
100
AcDbEntity
  8
002
  6
HIDDEN
 62
    40
370
     9
100
AcDbLine
 10
397.016417
 20
199.776884
 30
0.0
 11
397.016417
 21
212.276884
 31
0.0
  0
LINE
  5
168
330
1F
100
AcDbEntity
  8
002
  6
HIDDEN
 62
    40
370
     9
100
AcDbLine
 10
488.416417
 20
199.776884
 30
0.0
 11
488.416417
 21
212.276884
 31
0.0
  0
LINE
  5
169
330
1F
100
AcDbEntity
  8
002
  6
HIDDEN
 62
    40
370
     9
100
AcDbLine
 10
495.016417
 20
199.776884
 30
0.0
 11
495.016417
 21
212.276884
 31
0.0
  0
LINE
  5
16A
330
1F
100
AcDbEntity
  8
002
  6
CENTER
 62
    40
370
     9
100
AcDbLine
 10
437.626417
 20
201.776884
 30
0.0
 11
437.626417
 21
188.055284
 31
0.0
  0
LINE
  5
16B
330
1F
100
AcDbEntity
  8
002
  6
CENTER
 62
    40
370
     9
100
AcDbLine
 10
405.806417
 20
201.776884
 30
0.0
 11
405.806417
 21
188.055284
 31
0.0
  0
LINE
  5
16C
330
1F
100
AcDbEntity
  8
002
 62
     3
370
    30
100
AcDbLine
 10
441.716517
 20
154.776884
 30
0.0
 11
401.716417
 21
154.776884
 31
0.0
  0
LINE
  5
16D
330
1F
100
AcDbEntity
  8
002
 62
     3
370
    30
100
AcDbLine
 10
401.716417
 20
154.776884
 30
0.0
 11
401.163417
 21
192.820584
 31
0.0
  0
LINE
  5
16E
330
1F
100
AcDbEntity
  8
002
 62
     3
370
    30
100
AcDbLine
 10
442.269917
 20
192.820584
 30
0.0
 11
441.716517
 21
154.776884
 31
0.0
  0
LINE
  5
16F
330
1F
100
AcDbEntity
  8
002
 62
     3
370
    30
100
AcDbLine
 10
441.876417
 20
190.776884
 30
0.0
 11
433.376417
 21
190.776884
 31
0.0
  0
LINE
  5
170
330
1F
100
AcDbEntity
  8
002
 62
     3
370
    30
100
AcDbLine
 10
441.876417
 20
195.776884
 30
0.0
 11
441.876417
 21
190.776884
 31
0.0
  0
LINE
  5
171
330
1F
100
AcDbEntity
  8
002
 62
     3
370
    30
100
AcDbLine
 10
433.376417
 20
195.776884
 30
0.0
 11
433.376417
 21
190.776884
 31
0.0
  0
ARC
  5
172
330
1F
100
AcDbEntity
  8
002
 62
     3
370
    30
100
AcDbCircle
 10
445.269617
 20
192.776884
 30
0.0
 40
3.000018296610834
100
AcDbArc
 50
90.0
 51
179.165367
  0
LINE
  5
173
330
1F
100
AcDbEntity
  8
002
 62
     3
370
    30
100
AcDbLine
 10
394.216417
 20
195.776884
 30
0.0
 11
449.216517
 21
195.776884
 31
0.0
  0
LINE
  5
174
330
1F
100
AcDbEntity
  8
002
 62
     3
370
    30
100
AcDbLine
 10
449.216517
 20
195.776884
 30
0.0
 11
449.216517
 21
199.776884
 31
0.0
  0
ARC
  5
175
330
1F
100
AcDbEntity
  8
002
 62
     3
370
    30
100
AcDbCircle
 10
398.163417
 20
192.776884
 30
0.0
 40
3.0
100
AcDbArc
 50
0.834549
 51
90.0
  0
LINE
  5
176
330
1F
100
AcDbEntity
  8
002
 62
     3
370
    30
100
AcDbLine
 10
401.556417
 20
195.776884
 30
0.0
 11
401.556417
 21
190.776884
 31
0.0
  0
LINE
  5
177
330
1F
100
AcDbEntity
  8
002
 62
     3
370
    30
100
AcDbLine
 10
410.056417
 20
190.776884
 30
0.0
 11
410.056417
 21
195.776884
 31
0.0
  0
LINE
  5
178
330
1F
100
AcDbEntity
  8
002
 62
     3
370
    30
100
AcDbLine
 10
401.556417
 20
190.776884
 30
0.0
 11
410.056417
 21
190.776884
 31
0.0
  0
LINE
  5
179
330
1F
100
AcDbEntity
  8
002
 62
     3
370
    30
100
AcDbLine
 10
403.716417
 20
69.776884
 30
0.0
 11
403.716417
 21
52.776884
 31
0.0
  0
LINE
  5
17A
330
1F
100
AcDbEntity
  8
002
 62
     3
370
    30
100
AcDbLine
 10
439.716417
 20
69.776884
 30
0.0
 11
403.716417
 21
69.776884
 31
0.0
  0
LINE
  5
17B
330
1F
100
AcDbEntity
  8
002
 62
     3
370
    30
100
AcDbLine
 10
406.716417
 20
49.776884
 30
0.0
 11
436.716417
 21
49.776884
 31
0.0
  0
ARC
  5
17C
330
1F
100
AcDbEntity
  8
002
 62
     3
370
    30
100
AcDbCircle
 10
406.716417
 20
52.776884
 30
0.0
 40
3.0
100
AcDbArc
 50
180.0
 51
270.0
  0
ARC
  5
17D
330
1F
100
AcDbEntity
  8
002
 62
     3
370
    30
100
AcDbCircle
 10
436.716417
 20
52.776884
 30
0.0
 40
3.0
100
AcDbArc
 50
270.0
 51
0.0
  0
LINE
  5
17E
330
1F
100
AcDbEntity
  8
002
 62
     3
370
    30
100
AcDbLine
 10
439.716417
 20
52.776884
 30
0.0
 11
439.716417
 21
69.776884
 31
0.0
  0
LINE
  5
17F
330
1F
100
AcDbEntity
  8
002
 62
     3
370
    30
100
AcDbLine
 10
394.216417
 20
199.776884
 30
0.0
 11
394.216417
 21
195.776884
 31
0.0
  0
LINE
  5
180
330
1F
100
AcDbEntity
  8
002
  6
CENTER
 62
    40
370
     9
100
AcDbLine
 10
491.716417
 20
198.367383
 30
0.0
 11
491.716417
 21
213.891553
 31
0.0
  0
LINE
  5
181
330
1F
100
AcDbEntity
  8
002
 62
    40
370
     9
100
AcDbLine
 10
426.966417
 20
417.776884
 30
0.0
 11
426.966417
 21
429.776884
 31
0.0
  0
LINE
  5
182
330
1F
100
AcDbEntity
  8
002
 62
    40
370
     9
100
AcDbLine
 10
416.466417
 20
417.776884
 30
0.0
 11
416.466417
 21
429.776884
 31
0.0
  0
LINE
  5
183
330
1F
100
AcDbEntity
  8
002
 62
     3
370
    30
100
AcDbLine
 10
426.716417
 20
414.776884
 30
0.0
 11
426.716417
 21
417.776884
 31
0.0
  0
LINE
  5
184
330
1F
100
AcDbEntity
  8
002
 62
     3
370
    30
100
AcDbLine
 10
416.716417
 20
414.776884
 30
0.0
 11
416.716417
 21
417.776884
 31
0.0
  0
LINE
  5
185
330
1F
100
AcDbEntity
  8
002
 62
     3
370
    30
100
AcDbLine
 10
427.716417
 20
417.776884
 30
0.0
 11
415.716417
 21
417.776884
 31
0.0
  0
LINE
  5
186
330
1F
100
AcDbEntity
  8
002
 62
     3
370
    30
100
AcDbLine
 10
415.716417
 20
429.776884
 30
0.0
 11
415.716417
 21
417.776884
 31
0.0
  0
LINE
  5
187
330
1F
100
AcDbEntity
  8
002
 62
     3
370
    30
100
AcDbLine
 10
427.716417
 20
429.776884
 30
0.0
 11
427.716417
 21
417.776884
 31
0.0
  0
LINE
  5
188
330
1F
100
AcDbEntity
  8
002
 62
     3
370
    30
100
AcDbLine
 10
427.716417
 20
429.776884
 30
0.0
 11
415.716417
 21
429.776884
 31
0.0
  0
LINE
  5
189
330
1F
100
AcDbEntity
  8
002
 62
     3
370
    30
100
AcDbLine
 10
432.416417
 20
414.776884
 30
0.0
 11
411.016417
 21
414.776884
 31
0.0
  0
LINE
  5
18A
330
1F
100
AcDbEntity
  8
002
 62
     3
370
    30
100
AcDbLine
 10
438.216417
 20
387.776884
 30
0.0
 11
405.216417
 21
387.776884
 31
0.0
  0
LINE
  5
18B
330
1F
100
AcDbEntity
  8
002
 62
     3
370
    30
100
AcDbLine
 10
392.716417
 20
390.776884
 30
0.0
 11
450.716417
 21
390.776884
 31
0.0
  0
LINE
  5
18C
330
1F
100
AcDbEntity
  8
002
 62
     3
370
    30
100
AcDbLine
 10
432.416417
 20
399.776884
 30
0.0
 11
411.016417
 21
399.776884
 31
0.0
  0
LINE
  5
18D
330
1F
100
AcDbEntity
  8
002
 62
     3
370
    30
100
AcDbLine
 10
392.716417
 20
396.776884
 30
0.0
 11
450.716417
 21
396.776884
 31
0.0
  0
LINE
  5
18E
330
1F
100
AcDbEntity
  8
002
 62
     3
370
    30
100
AcDbLine
 10
438.216417
 20
393.776884
 30
0.0
 11
405.216417
 21
393.776884
 31
0.0
  0
LINE
  5
18F
330
1F
100
AcDbEntity
  8
002
 62
     3
370
    30
100
AcDbLine
 10
402.416417
 20
400.776884
 30
0.0
 11
433.016417
 21
400.776884
 31
0.0
  0
LINE
  5
190
330
1F
100
AcDbEntity
  8
002
 62
     3
370
    30
100
AcDbLine
 10
433.016417
 20
400.776884
 30
0.0
 11
433.016417
 21
413.776884
 31
0.0
  0
LINE
  5
191
330
1F
100
AcDbEntity
  8
002
 62
     3
370
    30
100
AcDbLine
 10
433.016417
 20
413.776884
 30
0.0
 11
402.416417
 21
413.776884
 31
0.0
  0
LINE
  5
192
330
1F
100
AcDbEntity
  8
002
 62
     3
370
    30
100
AcDbLine
 10
432.416417
 20
414.776884
 30
0.0
 11
432.416417
 21
413.776884
 31
0.0
  0
LINE
  5
193
330
1F
100
AcDbEntity
  8
002
 62
     3
370
    30
100
AcDbLine
 10
432.416417
 20
399.776884
 30
0.0
 11
432.416417
 21
400.776884
 31
0.0
  0
ARC
  5
194
330
1F
100
AcDbEntity
  8
002
 62
     3
370
    30
100
AcDbCircle
 10
450.71645
 20
396.776884
 30
0.0
 40
0.9999666444436526
100
AcDbArc
 50
279.990722
 51
80.008284
  0
ARC
  5
195
330
1F
100
AcDbEntity
  8
002
 62
     3
370
    30
100
AcDbCircle
 10
450.71645
 20
390.776884
 30
0.0
 40
0.9999666444436526
100
AcDbArc
 50
279.990722
 51
80.008284
  0
ARC
  5
196
330
1F
100
AcDbEntity
  8
002
 62
     3
370
    30
100
AcDbCircle
 10
440.216417
 20
387.776884
 30
0.0
 40
1.0
100
AcDbArc
 50
99.997359
 51
180.0
  0
ARC
  5
197
330
1F
100
AcDbEntity
  8
002
 62
     3
370
    30
100
AcDbCircle
 10
440.216417
 20
393.776884
 30
0.0
 40
1.000082481598435
100
AcDbArc
 50
99.997359
 51
260.003636
  0
ARC
  5
198
330
1F
100
AcDbEntity
  8
002
 62
     3
370
    30
100
AcDbCircle
 10
403.216417
 20
387.776884
 30
0.0
 40
0.9999666444436526
100
AcDbArc
 50
0.0
 51
80.008284
  0
ARC
  5
199
330
1F
100
AcDbEntity
  8
002
 62
     3
370
    30
100
AcDbCircle
 10
403.216417
 20
393.776884
 30
0.0
 40
0.9999666444436526
100
AcDbArc
 50
279.990722
 51
80.008284
  0
ARC
  5
19A
330
1F
100
AcDbEntity
  8
002
 62
     3
370
    30
100
AcDbCircle
 10
402.416417
 20
411.776884
 30
0.0
 40
2.0
100
AcDbArc
 50
90.0
 51
180.0
  0
LINE
  5
19B
330
1F
100
AcDbEntity
  8
002
 62
     3
370
    30
100
AcDbLine
 10
400.416417
 20
411.776884
 30
0.0
 11
400.416417
 21
402.776884
 31
0.0
  0
ARC
  5
19C
330
1F
100
AcDbEntity
  8
002
 62
     3
370
    30
100
AcDbCircle
 10
402.416417
 20
402.776884
 30
0.0
 40
2.0
100
AcDbArc
 50
180.0
 51
270.0
  0
CIRCLE
  5
19D
330
1F
100
AcDbEntity
  8
002
 62
     3
370
    30
100
AcDbCircle
 10
405.416417
 20
407.276884
 30
0.0
 40
1.0
  0
LINE
  5
19E
330
1F
100
AcDbEntity
  8
002
 62
     3
370
    30
100
AcDbLine
 10
410.416417
 20
400.776884
 30
0.0
 11
410.416417
 21
413.776884
 31
0.0
  0
LINE
  5
19F
330
1F
100
AcDbEntity
  8
002
 62
     3
370
    30
100
AcDbLine
 10
411.016417
 20
413.776884
 30
0.0
 11
411.016417
 21
414.776884
 31
0.0
  0
LINE
  5
1A0
330
1F
100
AcDbEntity
  8
002
 62
     3
370
    30
100
AcDbLine
 10
411.016417
 20
400.776884
 30
0.0
 11
411.016417
 21
399.776884
 31
0.0
  0
LINE
  5
1A1
330
1F
100
AcDbEntity
  8
002
  6
CENTER
 62
    40
370
     9
100
AcDbLine
 10
405.416417
 20
404.024684
 30
0.0
 11
405.416417
 21
410.784584
 31
0.0
  0
LINE
  5
1A2
330
1F
100
AcDbEntity
  8
002
  6
CENTER
 62
    40
370
     9
100
AcDbLine
 10
403.048617
 20
407.276884
 30
0.0
 11
408.073717
 21
407.276884
 31
0.0
  0
ARC
  5
1A3
330
1F
100
AcDbEntity
  8
002
 62
     3
370
    30
100
AcDbCircle
 10
392.716417
 20
396.776884
 30
0.0
 40
0.9999666444436526
100
AcDbArc
 50
99.991716
 51
260.009278
  0
ARC
  5
1A4
330
1F
100
AcDbEntity
  8
002
 62
     3
370
    30
100
AcDbCircle
 10
392.716417
 20
390.776884
 30
0.0
 40
0.9999666444436526
100
AcDbArc
 50
99.991716
 51
260.009278
  0
LINE
  5
1A5
330
1F
100
AcDbEntity
  8
005
 62
     3
370
    30
100
AcDbLine
 10
449.216417
 20
299.776884
 30
0.0
 11
449.216417
 21
300.776884
 31
0.0
  0
LINE
  5
1A6
330
1F
100
AcDbEntity
  8
002
 62
     3
370
    30
100
AcDbLine
 10
587.44969
 20
199.776884
 30
0.0
 11
712.44969
 21
199.776884
 31
0.0
  0
LINE
  5
1A7
330
1F
100
AcDbEntity
  8
002
 62
     3
370
    30
100
AcDbLine
 10
599.94969
 20
212.276884
 30
0.0
 11
712.44969
 21
212.276884
 31
0.0
  0
LINE
  5
1A8
330
1F
100
AcDbEntity
  8
002
 62
     3
370
    30
100
AcDbLine
 10
582.44969
 20
204.776884
 30
0.0
 11
582.44969
 21
299.776884
 31
0.0
  0
LINE
  5
1A9
330
1F
100
AcDbEntity
  8
002
 62
     3
370
    30
100
AcDbLine
 10
594.94969
 20
299.776884
 30
0.0
 11
594.94969
 21
217.276884
 31
0.0
  0
LINE
  5
1AA
330
1F
100
AcDbEntity
  8
002
 62
     3
370
    30
100
AcDbLine
 10
582.44969
 20
204.776884
 30
0.0
 11
587.44969
 21
199.776884
 31
0.0
  0
LINE
  5
1AB
330
1F
100
AcDbEntity
  8
002
  6
CENTER
 62
    40
370
     9
100
AcDbLine
 10
610.912481
 20
249.776884
 30
0.0
 11
712.44969
 21
249.776884
 31
0.0
  0
LINE
  5
1AC
330
1F
100
AcDbEntity
  8
002
  6
CENTER
 62
    40
370
     9
100
AcDbLine
 10
657.44969
 20
194.41023
 30
0.0
 11
657.44969
 21
305.411726
 31
0.0
  0
LINE
  5
1AD
330
1F
100
AcDbEntity
  8
002
 62
     3
370
    30
100
AcDbLine
 10
637.44969
 20
219.776884
 30
0.0
 11
677.44969
 21
219.776884
 31
0.0
  0
LINE
  5
1AE
330
1F
100
AcDbEntity
  8
002
 62
     3
370
    30
100
AcDbLine
 10
604.94969
 20
279.776884
 30
0.0
 11
677.44969
 21
279.776884
 31
0.0
  0
LINE
  5
1AF
330
1F
100
AcDbEntity
  8
002
 62
     3
370
    30
100
AcDbLine
 10
687.44969
 20
217.276884
 30
0.0
 11
687.44969
 21
269.776884
 31
0.0
  0
LINE
  5
1B0
330
1F
100
AcDbEntity
  8
002
 62
     3
370
    30
100
AcDbLine
 10
627.44969
 20
217.276884
 30
0.0
 11
627.44969
 21
269.776884
 31
0.0
  0
ARC
  5
1B1
330
1F
100
AcDbEntity
  8
002
 62
     3
370
    30
100
AcDbCircle
 10
637.44969
 20
269.776884
 30
0.0
 40
10.0
100
AcDbArc
 50
90.0
 51
180.0
  0
ARC
  5
1B2
330
1F
100
AcDbEntity
  8
002
 62
     3
370
    30
100
AcDbCircle
 10
677.44969
 20
269.776884
 30
0.0
 40
10.0
100
AcDbArc
 50
0.0
 51
90.0
  0
ARC
  5
1B3
330
1F
100
AcDbEntity
  8
002
 62
     3
370
    30
100
AcDbCircle
 10
677.44969
 20
229.776884
 30
0.0
 40
10.0
100
AcDbArc
 50
270.0
 51
0.0
  0
ARC
  5
1B4
330
1F
100
AcDbEntity
  8
002
 62
     3
370
    30
100
AcDbCircle
 10
637.44969
 20
229.776884
 30
0.0
 40
10.0
100
AcDbArc
 50
180.0
 51
270.0
  0
CIRCLE
  5
1B5
330
1F
100
AcDbEntity
  8
002
 62
     3
370
    30
100
AcDbCircle
 10
657.44969
 20
249.776884
 30
0.0
 40
20.0
  0
LINE
  5
1B6
330
1F
100
AcDbEntity
  8
002
 62
     3
370
    30
100
AcDbLine
 10
604.94969
 20
279.776884
 30
0.0
 11
604.94969
 21
299.776884
 31
0.0
  0
LINE
  5
1B7
330
1F
100
AcDbEntity
  8
002
 62
     3
370
    30
100
AcDbLine
 10
659.94969
 20
279.776884
 30
0.0
 11
659.94969
 21
299.776884
 31
0.0
  0
LINE
  5
1B8
330
1F
100
AcDbEntity
  8
002
 62
     3
370
    30
100
AcDbLine
 10
610.44969
 20
217.276884
 30
0.0
 11
610.44969
 21
274.276884
 31
0.0
  0
LINE
  5
1B9
330
1F
100
AcDbEntity
  8
002
 62
     3
370
    30
100
AcDbLine
 10
604.94969
 20
279.776884
 30
0.0
 11
610.44969
 21
274.276884
 31
0.0
  0
LINE
  5
1BA
330
1F
100
AcDbEntity
  8
002
 62
     3
370
    30
100
AcDbLine
 10
610.44969
 20
274.276884
 30
0.0
 11
628.041575
 21
274.276884
 31
0.0
  0
ARC
  5
1BB
330
1F
100
AcDbEntity
  8
002
 62
     3
370
    30
100
AcDbCircle
 10
599.94969
 20
217.276884
 30
0.0
 40
5.0
100
AcDbArc
 50
180.0
 51
270.0
  0
ARC
  5
1BC
330
1F
100
AcDbEntity
  8
002
 62
     3
370
    30
100
AcDbCircle
 10
605.44969
 20
217.276884
 30
0.0
 40
5.0
100
AcDbArc
 50
270.0
 51
0.0
  0
ARC
  5
1BD
330
1F
100
AcDbEntity
  8
002
 62
     3
370
    30
100
AcDbCircle
 10
622.44969
 20
217.276884
 30
0.0
 40
5.0
100
AcDbArc
 50
270.0
 51
0.0
  0
ARC
  5
1BE
330
1F
100
AcDbEntity
  8
002
 62
     3
370
    30
100
AcDbCircle
 10
692.44969
 20
217.276884
 30
0.0
 40
5.0
100
AcDbArc
 50
180.0
 51
270.0
  0
LINE
  5
1BF
330
1F
100
AcDbEntity
  8
002
  6
CENTER
 62
    40
370
     9
100
AcDbLine
 10
702.44969
 20
198.367383
 30
0.0
 11
702.44969
 21
213.891553
 31
0.0
  0
LINE
  5
1C0
330
1F
100
AcDbEntity
  8
002
  6
CENTER
 62
    40
370
     9
100
AcDbLine
 10
604.44969
 20
198.501111
 30
0.0
 11
604.44969
 21
213.490385
 31
0.0
  0
LINE
  5
1C1
330
1F
100
AcDbEntity
  8
002
  6
CENTER
 62
    40
370
     9
100
AcDbLine
 10
597.248621
 20
229.776884
 30
0.0
 11
580.478338
 21
229.776884
 31
0.0
  0
LINE
  5
1C2
330
1F
100
AcDbEntity
  8
002
  6
CENTER
 62
    40
370
     9
100
AcDbLine
 10
597.248621
 20
289.776884
 30
0.0
 11
580.478338
 21
289.776884
 31
0.0
  0
LINE
  5
1C3
330
1F
100
AcDbEntity
  8
002
 62
     3
370
    30
100
AcDbLine
 10
714.44969
 20
231.776884
 30
0.0
 11
717.44969
 21
231.776884
 31
0.0
  0
ARC
  5
1C4
330
1F
100
AcDbEntity
  8
002
 62
     3
370
    30
100
AcDbCircle
 10
657.44969
 20
249.776884
 30
0.0
 40
7.5
100
AcDbArc
 50
109.471221
 51
70.528779
  0
LINE
  5
1C5
330
1F
100
AcDbEntity
  8
002
 62
     3
370
    30
100
AcDbLine
 10
654.94969
 20
254.276884
 30
0.0
 11
659.94969
 21
254.276884
 31
0.0
  0
LINE
  5
1C6
330
1F
100
AcDbEntity
  8
002
 62
     3
370
    30
100
AcDbLine
 10
659.94969
 20
259.276884
 30
0.0
 11
659.94969
 21
254.276884
 31
0.0
  0
LINE
  5
1C7
330
1F
100
AcDbEntity
  8
002
 62
     3
370
    30
100
AcDbLine
 10
654.94969
 20
259.276884
 30
0.0
 11
659.94969
 21
259.276884
 31
0.0
  0
LINE
  5
1C8
330
1F
100
AcDbEntity
  8
002
 62
     3
370
    30
100
AcDbLine
 10
654.94969
 20
259.276884
 30
0.0
 11
654.94969
 21
254.276884
 31
0.0
  0
LINE
  5
1C9
330
1F
100
AcDbEntity
  8
002
 62
     3
370
    30
100
AcDbLine
 10
712.44969
 20
294.776884
 30
0.0
 11
712.44969
 21
199.776884
 31
0.0
  0
LINE
  5
1CA
330
1F
100
AcDbEntity
  8
002
 62
     3
370
    30
100
AcDbLine
 10
692.44969
 20
241.776884
 30
0.0
 11
712.44969
 21
241.776884
 31
0.0
  0
ARC
  5
1CB
330
1F
100
AcDbEntity
  8
002
 62
     3
370
    30
100
AcDbCircle
 10
692.44969
 20
246.776884
 30
0.0
 40
5.0
100
AcDbArc
 50
180.0
 51
270.0
  0
LINE
  5
1CC
330
1F
100
AcDbEntity
  8
002
 62
     3
370
    30
100
AcDbLine
 10
717.44969
 20
226.776884
 30
0.0
 11
714.44969
 21
226.776884
 31
0.0
  0
ARC
  5
1CD
330
1F
100
AcDbEntity
  8
002
 62
     3
370
    30
100
AcDbCircle
 10
714.82469
 20
229.276884
 30
0.0
 40
3.625
100
AcDbArc
 50
316.397181
 51
43.602819
  0
ARC
  5
1CE
330
1F
100
AcDbEntity
  8
002
 62
     3
370
    30
100
AcDbCircle
 10
717.07469
 20
229.276884
 30
0.0
 40
3.625
100
AcDbArc
 50
136.397181
 51
223.602819
  0
LINE
  5
1CF
330
1F
100
AcDbEntity
  8
002
 62
     3
370
    30
100
AcDbLine
 10
714.44969
 20
226.776884
 30
0.0
 11
713.44969
 21
227.776884
 31
0.0
  0
LINE
  5
1D0
330
1F
100
AcDbEntity
  8
002
 62
     3
370
    30
100
AcDbLine
 10
713.44969
 20
227.776884
 30
0.0
 11
713.44969
 21
235.776884
 31
0.0
  0
LINE
  5
1D1
330
1F
100
AcDbEntity
  8
002
 62
     3
370
    30
100
AcDbLine
 10
713.44969
 20
227.915384
 30
0.0
 11
712.44969
 21
227.915384
 31
0.0
  0
ARC
  5
1D2
330
1F
100
AcDbEntity
  8
002
 62
     3
370
    30
100
AcDbCircle
 10
717.07469
 20
234.276884
 30
0.0
 40
3.625
100
AcDbArc
 50
136.397181
 51
223.602819
  0
LINE
  5
1D3
330
1F
100
AcDbEntity
  8
002
 62
     3
370
    30
100
AcDbLine
 10
713.44969
 20
235.638384
 30
0.0
 11
712.44969
 21
235.638384
 31
0.0
  0
LINE
  5
1D4
330
1F
100
AcDbEntity
  8
002
 62
     3
370
    30
100
AcDbLine
 10
713.44969
 20
235.776884
 30
0.0
 11
714.44969
 21
236.776884
 31
0.0
  0
LINE
  5
1D5
330
1F
100
AcDbEntity
  8
002
 62
     3
370
    30
100
AcDbLine
 10
714.44969
 20
236.776884
 30
0.0
 11
717.44969
 21
236.776884
 31
0.0
  0
ARC
  5
1D6
330
1F
100
AcDbEntity
  8
002
 62
     3
370
    30
100
AcDbCircle
 10
714.82469
 20
234.276884
 30
0.0
 40
3.625
100
AcDbArc
 50
316.397181
 51
43.602819
  0
LINE
  5
1D7
330
1F
100
AcDbEntity
  8
002
 62
     3
370
    30
100
AcDbLine
 10
720.36309
 20
228.916884
 30
0.0
 11
717.44969
 21
226.776884
 31
0.0
  0
ARC
  5
1D8
330
1F
100
AcDbEntity
  8
002
 62
     3
370
    30
100
AcDbCircle
 10
721.07029
 20
228.209784
 30
0.0
 40
1.000061123131999
100
AcDbArc
 50
57.994617
 51
135.004051
  0
LINE
  5
1D9
330
1F
100
AcDbEntity
  8
002
 62
     3
370
    30
100
AcDbLine
 10
722.44969
 20
228.526884
 30
0.0
 11
721.60029
 21
229.057784
 31
0.0
  0
LINE
  5
1DA
330
1F
100
AcDbEntity
  8
002
 62
     3
370
    30
100
AcDbLine
 10
725.44969
 20
229.276884
 30
0.0
 11
722.44969
 21
228.526884
 31
0.0
  0
LINE
  5
1DB
330
1F
100
AcDbEntity
  8
002
 62
     3
370
    30
100
AcDbLine
 10
722.44969
 20
234.276884
 30
0.0
 11
722.44969
 21
229.276884
 31
0.0
  0
LINE
  5
1DC
330
1F
100
AcDbEntity
  8
002
 62
     3
370
    30
100
AcDbLine
 10
720.92569
 20
229.479384
 30
0.0
 11
720.92569
 21
234.074384
 31
0.0
  0
LINE
  5
1DD
330
1F
100
AcDbEntity
  8
002
 62
     3
370
    30
100
AcDbLine
 10
717.44969
 20
236.776884
 30
0.0
 11
720.36309
 21
234.636884
 31
0.0
  0
ARC
  5
1DE
330
1F
100
AcDbEntity
  8
002
 62
     3
370
    30
100
AcDbCircle
 10
721.07029
 20
235.343984
 30
0.0
 40
1.000001999998045
100
AcDbArc
 50
224.995949
 51
302.005383
  0
LINE
  5
1DF
330
1F
100
AcDbEntity
  8
002
 62
     3
370
    30
100
AcDbLine
 10
721.60029
 20
234.495984
 30
0.0
 11
722.44969
 21
235.026884
 31
0.0
  0
LINE
  5
1E0
330
1F
100
AcDbEntity
  8
002
 62
     3
370
    30
100
AcDbLine
 10
722.44969
 20
235.026884
 30
0.0
 11
725.44969
 21
234.276884
 31
0.0
  0
LINE
  5
1E1
330
1F
100
AcDbEntity
  8
002
 62
     3
370
    30
100
AcDbLine
 10
725.44969
 20
234.276884
 30
0.0
 11
725.44969
 21
229.276884
 31
0.0
  0
ARC
  5
1E2
330
1F
100
AcDbEntity
  8
002
 62
     3
370
    30
100
AcDbCircle
 10
724.78819
 20
231.776884
 30
0.0
 40
1.000041124154433
100
AcDbArc
 50
311.412294
 51
48.587706
  0
LINE
  5
1E3
330
1F
100
AcDbEntity
  8
002
  6
CENTER
 62
    40
370
     9
100
AcDbLine
 10
709.484375
 20
231.776884
 30
0.0
 11
714.44969
 21
231.776884
 31
0.0
  0
LINE
  5
1E4
330
1F
100
AcDbEntity
  8
002
 62
     3
370
    30
100
AcDbLine
 10
707.44969
 20
299.776884
 30
0.0
 11
582.44969
 21
299.776884
 31
0.0
  0
LINE
  5
1E5
330
1F
100
AcDbEntity
  8
002
 62
     3
370
    30
100
AcDbLine
 10
707.44969
 20
299.776884
 30
0.0
 11
712.44969
 21
294.776884
 31
0.0
  0
LINE
  5
1E6
330
1F
100
AcDbEntity
  8
002
  6
HIDDEN
 62
    40
370
     9
100
AcDbLine
 10
594.94969
 20
286.476884
 30
0.0
 11
582.44969
 21
286.476884
 31
0.0
  0
LINE
  5
1E7
330
1F
100
AcDbEntity
  8
002
  6
HIDDEN
 62
    40
370
     9
100
AcDbLine
 10
594.94969
 20
293.076884
 30
0.0
 11
582.44969
 21
293.076884
 31
0.0
  0
LINE
  5
1E8
330
1F
100
AcDbEntity
  8
002
  6
HIDDEN
 62
    40
370
     9
100
AcDbLine
 10
594.94969
 20
233.076884
 30
0.0
 11
582.44969
 21
233.076884
 31
0.0
  0
LINE
  5
1E9
330
1F
100
AcDbEntity
  8
002
  6
HIDDEN
 62
    40
370
     9
100
AcDbLine
 10
594.94969
 20
226.476884
 30
0.0
 11
582.44969
 21
226.476884
 31
0.0
  0
LINE
  5
1EA
330
1F
100
AcDbEntity
  8
002
  6
HIDDEN
 62
    40
370
     9
100
AcDbLine
 10
601.14969
 20
199.776884
 30
0.0
 11
601.14969
 21
212.276884
 31
0.0
  0
LINE
  5
1EB
330
1F
100
AcDbEntity
  8
002
  6
HIDDEN
 62
    40
370
     9
100
AcDbLine
 10
607.74969
 20
199.776884
 30
0.0
 11
607.74969
 21
212.276884
 31
0.0
  0
LINE
  5
1EC
330
1F
100
AcDbEntity
  8
002
  6
HIDDEN
 62
    40
370
     9
100
AcDbLine
 10
699.14969
 20
199.776884
 30
0.0
 11
699.14969
 21
212.276884
 31
0.0
  0
LINE
  5
1ED
330
1F
100
AcDbEntity
  8
002
  6
HIDDEN
 62
    40
370
     9
100
AcDbLine
 10
705.74969
 20
199.776884
 30
0.0
 11
705.74969
 21
212.276884
 31
0.0
  0
LINE
  5
1EE
330
1F
100
AcDbEntity
  8
002
  6
CENTER
 62
    40
370
     9
100
AcDbLine
 10
648.35969
 20
297.776884
 30
0.0
 11
648.35969
 21
311.498484
 31
0.0
  0
LINE
  5
1EF
330
1F
100
AcDbEntity
  8
002
  6
CENTER
 62
    40
370
     9
100
AcDbLine
 10
616.53969
 20
297.776884
 30
0.0
 11
616.53969
 21
311.498484
 31
0.0
  0
LINE
  5
1F0
330
1F
100
AcDbEntity
  8
002
 62
     3
370
    30
100
AcDbLine
 10
652.44979
 20
344.776884
 30
0.0
 11
612.44969
 21
344.776884
 31
0.0
  0
LINE
  5
1F1
330
1F
100
AcDbEntity
  8
002
 62
     3
370
    30
100
AcDbLine
 10
612.44969
 20
344.776884
 30
0.0
 11
611.89669
 21
306.733184
 31
0.0
  0
LINE
  5
1F2
330
1F
100
AcDbEntity
  8
002
 62
     3
370
    30
100
AcDbLine
 10
653.00319
 20
306.733184
 30
0.0
 11
652.44979
 21
344.776884
 31
0.0
  0
LINE
  5
1F3
330
1F
100
AcDbEntity
  8
002
 62
     3
370
    30
100
AcDbLine
 10
652.60969
 20
308.776884
 30
0.0
 11
644.10969
 21
308.776884
 31
0.0
  0
LINE
  5
1F4
330
1F
100
AcDbEntity
  8
002
 62
     3
370
    30
100
AcDbLine
 10
652.60969
 20
303.776884
 30
0.0
 11
652.60969
 21
308.776884
 31
0.0
  0
LINE
  5
1F5
330
1F
100
AcDbEntity
  8
002
 62
     3
370
    30
100
AcDbLine
 10
644.10969
 20
303.776884
 30
0.0
 11
644.10969
 21
308.776884
 31
0.0
  0
ARC
  5
1F6
330
1F
100
AcDbEntity
  8
002
 62
     3
370
    30
100
AcDbCircle
 10
656.00289
 20
306.776884
 30
0.0
 40
3.000018296610834
100
AcDbArc
 50
180.834633
 51
270.0
  0
LINE
  5
1F7
330
1F
100
AcDbEntity
  8
002
 62
     3
370
    30
100
AcDbLine
 10
604.94969
 20
303.776884
 30
0.0
 11
659.94979
 21
303.776884
 31
0.0
  0
LINE
  5
1F8
330
1F
100
AcDbEntity
  8
002
 62
     3
370
    30
100
AcDbLine
 10
659.94979
 20
303.776884
 30
0.0
 11
659.94979
 21
299.776884
 31
0.0
  0
ARC
  5
1F9
330
1F
100
AcDbEntity
  8
002
 62
     3
370
    30
100
AcDbCircle
 10
608.89669
 20
306.776884
 30
0.0
 40
3.0
100
AcDbArc
 50
270.0
 51
359.165451
  0
LINE
  5
1FA
330
1F
100
AcDbEntity
  8
002
 62
     3
370
    30
100
AcDbLine
 10
612.28969
 20
303.776884
 30
0.0
 11
612.28969
 21
308.776884
 31
0.0
  0
LINE
  5
1FB
330
1F
100
AcDbEntity
  8
002
 62
     3
370
    30
100
AcDbLine
 10
604.94969
 20
299.776884
 30
0.0
 11
604.94969
 21
303.776884
 31
0.0
  0
LINE
  5
1FC
330
1F
100
AcDbEntity
  8
002
 62
     3
370
    30
100
AcDbLine
 10
620.78969
 20
308.776884
 30
0.0
 11
620.78969
 21
303.776884
 31
0.0
  0
LINE
  5
1FD
330
1F
100
AcDbEntity
  8
002
 62
     3
370
    30
100
AcDbLine
 10
612.28969
 20
308.776884
 30
0.0
 11
620.78969
 21
308.776884
 31
0.0
  0
LINE
  5
1FE
330
1F
100
AcDbEntity
  8
002
 62
     3
370
    30
100
AcDbLine
 10
614.44969
 20
429.776884
 30
0.0
 11
614.44969
 21
446.776884
 31
0.0
  0
LINE
  5
1FF
330
1F
100
AcDbEntity
  8
002
 62
     3
370
    30
100
AcDbLine
 10
650.44969
 20
429.776884
 30
0.0
 11
614.44969
 21
429.776884
 31
0.0
  0
LINE
  5
200
330
1F
100
AcDbEntity
  8
002
 62
     3
370
    30
100
AcDbLine
 10
617.44969
 20
449.776884
 30
0.0
 11
647.44969
 21
449.776884
 31
0.0
  0
ARC
  5
201
330
1F
100
AcDbEntity
  8
002
 62
     3
370
    30
100
AcDbCircle
 10
617.44969
 20
446.776884
 30
0.0
 40
3.0
100
AcDbArc
 50
90.0
 51
180.0
  0
ARC
  5
202
330
1F
100
AcDbEntity
  8
002
 62
     3
370
    30
100
AcDbCircle
 10
647.44969
 20
446.776884
 30
0.0
 40
3.0
100
AcDbArc
 50
0.0
 51
90.0
  0
LINE
  5
203
330
1F
100
AcDbEntity
  8
002
 62
     3
370
    30
100
AcDbLine
 10
650.44969
 20
446.776884
 30
0.0
 11
650.44969
 21
429.776884
 31
0.0
  0
LINE
  5
204
330
1F
100
AcDbEntity
  8
002
 62
    40
370
     9
100
AcDbLine
 10
637.69969
 20
81.776884
 30
0.0
 11
637.69969
 21
69.776884
 31
0.0
  0
LINE
  5
205
330
1F
100
AcDbEntity
  8
002
 62
    40
370
     9
100
AcDbLine
 10
627.19969
 20
81.776884
 30
0.0
 11
627.19969
 21
69.776884
 31
0.0
  0
LINE
  5
206
330
1F
100
AcDbEntity
  8
002
 62
     3
370
    30
100
AcDbLine
 10
642.44969
 20
84.776884
 30
0.0
 11
622.44969
 21
84.776884
 31
0.0
  0
LINE
  5
207
330
1F
100
AcDbEntity
  8
002
 62
     3
370
    30
100
AcDbLine
 10
637.44969
 20
84.776884
 30
0.0
 11
637.44969
 21
81.776884
 31
0.0
  0
LINE
  5
208
330
1F
100
AcDbEntity
  8
002
 62
     3
370
    30
100
AcDbLine
 10
627.44969
 20
84.776884
 30
0.0
 11
627.44969
 21
81.776884
 31
0.0
  0
LINE
  5
209
330
1F
100
AcDbEntity
  8
002
 62
     3
370
    30
100
AcDbLine
 10
638.44969
 20
81.776884
 30
0.0
 11
626.44969
 21
81.776884
 31
0.0
  0
LINE
  5
20A
330
1F
100
AcDbEntity
  8
002
 62
     3
370
    30
100
AcDbLine
 10
626.44969
 20
69.776884
 30
0.0
 11
626.44969
 21
81.776884
 31
0.0
  0
LINE
  5
20B
330
1F
100
AcDbEntity
  8
002
 62
     3
370
    30
100
AcDbLine
 10
638.44969
 20
69.776884
 30
0.0
 11
638.44969
 21
81.776884
 31
0.0
  0
LINE
  5
20C
330
1F
100
AcDbEntity
  8
002
 62
     3
370
    30
100
AcDbLine
 10
638.44969
 20
69.776884
 30
0.0
 11
626.44969
 21
69.776884
 31
0.0
  0
LINE
  5
20D
330
1F
100
AcDbEntity
  8
002
 62
     3
370
    30
100
AcDbLine
 10
540.584665
 20
598.617681
 30
0.0
 11
518.584665
 21
598.617681
 31
0.0
  0
LINE
  5
20E
330
1F
100
AcDbEntity
  8
002
 62
     3
370
    30
100
AcDbLine
 10
518.584665
 20
598.617681
 30
0.0
 11
517.584665
 21
597.617681
 31
0.0
  0
LINE
  5
20F
330
1F
100
AcDbEntity
  8
002
 62
     3
370
    30
100
AcDbLine
 10
517.584665
 20
597.617681
 30
0.0
 11
517.584665
 21
557.585563
 31
0.0
  0
LINE
  5
210
330
1F
100
AcDbEntity
  8
002
  6
CENTER
 62
    40
370
     9
100
AcDbLine
 10
548.827022
 20
657.131841
 30
0.0
 11
509.610317
 21
657.131841
 31
0.0
  0
LINE
  5
211
330
1F
100
AcDbEntity
  8
002
  6
CENTER
 62
    40
370
     9
100
AcDbLine
 10
630.102982
 20
528.569919
 30
0.0
 11
630.102982
 21
576.613419
 31
0.0
  0
LINE
  5
212
330
1F
100
AcDbEntity
  8
002
 62
     3
370
    30
100
AcDbLine
 10
541.584665
 20
597.617681
 30
0.0
 11
541.584665
 21
557.649799
 31
0.0
  0
LINE
  5
213
330
1F
100
AcDbEntity
  8
002
 62
     3
370
    30
100
AcDbLine
 10
540.584665
 20
598.617681
 30
0.0
 11
541.584665
 21
597.617681
 31
0.0
  0
LINE
  5
214
330
1F
100
AcDbEntity
  8
002
  6
CENTER
 62
    40
370
     9
100
AcDbLine
 10
529.584665
 20
636.725347
 30
0.0
 11
529.584665
 21
676.284795
 31
0.0
  0
LINE
  5
215
330
1F
100
AcDbEntity
  8
002
 62
     3
370
    30
100
AcDbLine
 10
540.552547
 20
556.617681
 30
0.0
 11
518.552547
 21
556.617681
 31
0.0
  0
LINE
  5
216
330
1F
100
AcDbEntity
  8
002
 62
     3
370
    30
100
AcDbLine
 10
518.552547
 20
556.617681
 30
0.0
 11
517.552547
 21
557.617681
 31
0.0
  0
CIRCLE
  5
217
330
1F
100
AcDbEntity
  8
002
 62
     3
370
    30
100
AcDbCircle
 10
610.102982
 20
657.131841
 30
0.0
 40
2.75
  0
CIRCLE
  5
218
330
1F
100
AcDbEntity
  8
002
 62
     3
370
    30
100
AcDbCircle
 10
630.102982
 20
657.131841
 30
0.0
 40
5.188
  0
CIRCLE
  5
219
330
1F
100
AcDbEntity
  8
002
 62
     3
370
    30
100
AcDbCircle
 10
650.102982
 20
657.131841
 30
0.0
 40
2.75
  0
CIRCLE
  5
21A
330
1F
100
AcDbEntity
  8
002
 62
     3
370
    30
100
AcDbCircle
 10
630.102982
 20
657.131841
 30
0.0
 40
25.0
  0
CIRCLE
  5
21B
330
1F
100
AcDbEntity
  8
002
 62
     3
370
    30
100
AcDbCircle
 10
630.102982
 20
677.131841
 30
0.0
 40
2.75
  0
CIRCLE
  5
21C
330
1F
100
AcDbEntity
  8
002
 62
     3
370
    30
100
AcDbCircle
 10
630.102982
 20
637.131841
 30
0.0
 40
2.75
  0
LINE
  5
21D
330
1F
100
AcDbEntity
  8
002
  6
CENTER
 62
    40
370
     9
100
AcDbLine
 10
658.595111
 20
657.131841
 30
0.0
 11
600.691836
 21
657.131841
 31
0.0
  0
CIRCLE
  5
21E
330
1F
100
AcDbEntity
  8
002
 62
    40
370
     9
100
AcDbCircle
 10
630.102982
 20
657.131841
 30
0.0
 40
6.0
  0
CIRCLE
  5
21F
330
1F
100
AcDbEntity
  8
002
  6
CENTER
 62
    40
370
     9
100
AcDbCircle
 10
630.102982
 20
657.131841
 30
0.0
 40
20.0
  0
LINE
  5
220
330
1F
100
AcDbEntity
  8
002
  6
CENTER
 62
    40
370
     9
100
AcDbLine
 10
630.102982
 20
685.423141
 30
0.0
 11
630.102982
 21
628.6442
 31
0.0
  0
LINE
  5
221
330
1F
100
AcDbEntity
  8
002
 62
     3
370
    30
100
AcDbLine
 10
619.102982
 20
566.617681
 30
0.0
 11
619.102982
 21
557.617681
 31
0.0
  0
LINE
  5
222
330
1F
100
AcDbEntity
  8
002
 62
     3
370
    30
100
AcDbLine
 10
655.102982
 20
572.617681
 30
0.0
 11
605.102982
 21
572.617681
 31
0.0
  0
LINE
  5
223
330
1F
100
AcDbEntity
  8
002
 62
     3
370
    30
100
AcDbLine
 10
605.102982
 20
572.617681
 30
0.0
 11
605.102982
 21
566.617681
 31
0.0
  0
LINE
  5
224
330
1F
100
AcDbEntity
  8
002
 62
     3
370
    30
100
AcDbLine
 10
605.102982
 20
566.617681
 30
0.0
 11
641.102982
 21
566.617681
 31
0.0
  0
LINE
  5
225
330
1F
100
AcDbEntity
  8
002
  6
CENTER
 62
    40
370
     9
100
AcDbLine
 10
610.102982
 20
575.689681
 30
0.0
 11
610.102982
 21
563.017881
 31
0.0
  0
LINE
  5
226
330
1F
100
AcDbEntity
  8
002
 62
     3
370
    30
100
AcDbLine
 10
641.102982
 20
566.617681
 30
0.0
 11
655.102982
 21
566.617681
 31
0.0
  0
LINE
  5
227
330
1F
100
AcDbEntity
  8
002
 62
     3
370
    30
100
AcDbLine
 10
641.102982
 20
557.617681
 30
0.0
 11
641.102982
 21
566.617681
 31
0.0
  0
LINE
  5
228
330
1F
100
AcDbEntity
  8
002
  6
CENTER
 62
    40
370
     9
100
AcDbLine
 10
650.102982
 20
563.017881
 30
0.0
 11
650.102982
 21
575.689681
 31
0.0
  0
LINE
  5
229
330
1F
100
AcDbEntity
  8
002
 62
     3
370
    30
100
AcDbLine
 10
655.102982
 20
566.617681
 30
0.0
 11
655.102982
 21
572.617681
 31
0.0
  0
LINE
  5
22A
330
1F
100
AcDbEntity
  8
002
 62
     3
370
    30
100
AcDbLine
 10
620.102982
 20
556.617681
 30
0.0
 11
640.102982
 21
556.617681
 31
0.0
  0
LINE
  5
22B
330
1F
100
AcDbEntity
  8
002
 62
     3
370
    30
100
AcDbLine
 10
640.102982
 20
556.617681
 30
0.0
 11
641.102982
 21
557.617681
 31
0.0
  0
LINE
  5
22C
330
1F
100
AcDbEntity
  8
002
 62
     3
370
    30
100
AcDbLine
 10
619.102982
 20
557.617681
 30
0.0
 11
620.102982
 21
556.617681
 31
0.0
  0
LINE
  5
22D
330
1F
100
AcDbEntity
  8
002
 62
     3
370
    30
100
AcDbLine
 10
540.552547
 20
556.617681
 30
0.0
 11
541.552547
 21
557.617681
 31
0.0
  0
LINE
  5
22E
330
1F
100
AcDbEntity
  8
002
  6
CENTER
 62
    40
370
     9
100
AcDbLine
 10
529.584665
 20
528.569919
 30
0.0
 11
529.584665
 21
606.573571
 31
0.0
  0
LINE
  5
22F
330
1F
100
AcDbEntity
  8
002
  6
HIDDEN
 62
    40
370
     9
100
AcDbLine
 10
523.584665
 20
556.617681
 30
0.0
 11
523.584665
 21
571.617681
 31
0.0
  0
LINE
  5
230
330
1F
100
AcDbEntity
  8
002
  6
HIDDEN
 62
    40
370
     9
100
AcDbLine
 10
523.584665
 20
571.617681
 30
0.0
 11
535.584665
 21
571.617681
 31
0.0
  0
LINE
  5
231
330
1F
100
AcDbEntity
  8
002
  6
HIDDEN
 62
    40
370
     9
100
AcDbLine
 10
535.584665
 20
571.617681
 30
0.0
 11
535.584665
 21
556.617681
 31
0.0
  0
LINE
  5
232
330
1F
100
AcDbEntity
  8
002
  6
HIDDEN
 62
    40
370
     9
100
AcDbLine
 10
524.396665
 20
556.617681
 30
0.0
 11
524.396665
 21
571.617681
 31
0.0
  0
LINE
  5
233
330
1F
100
AcDbEntity
  8
002
  6
HIDDEN
 62
    40
370
     9
100
AcDbLine
 10
534.772665
 20
571.617681
 30
0.0
 11
534.772665
 21
556.617681
 31
0.0
  0
LINE
  5
234
330
1F
100
AcDbEntity
  8
002
  6
HIDDEN
 62
    40
370
     9
100
AcDbLine
 10
624.102982
 20
556.617681
 30
0.0
 11
624.102982
 21
571.617681
 31
0.0
  0
LINE
  5
235
330
1F
100
AcDbEntity
  8
002
  6
HIDDEN
 62
    40
370
     9
100
AcDbLine
 10
624.102982
 20
571.617681
 30
0.0
 11
636.102982
 21
571.617681
 31
0.0
  0
LINE
  5
236
330
1F
100
AcDbEntity
  8
002
  6
HIDDEN
 62
    40
370
     9
100
AcDbLine
 10
636.102982
 20
571.617681
 30
0.0
 11
636.102982
 21
556.617681
 31
0.0
  0
LINE
  5
237
330
1F
100
AcDbEntity
  8
002
  6
HIDDEN
 62
    40
370
     9
100
AcDbLine
 10
624.914982
 20
556.617681
 30
0.0
 11
624.914982
 21
571.617681
 31
0.0
  0
LINE
  5
238
330
1F
100
AcDbEntity
  8
002
  6
HIDDEN
 62
    40
370
     9
100
AcDbLine
 10
635.290982
 20
571.617681
 30
0.0
 11
635.290982
 21
556.617681
 31
0.0
  0
LINE
  5
239
330
1F
100
AcDbEntity
  8
002
 62
     3
370
    30
100
AcDbLine
 10
426.740131
 20
598.617681
 30
0.0
 11
404.740131
 21
598.617681
 31
0.0
  0
LINE
  5
23A
330
1F
100
AcDbEntity
  8
002
 62
     3
370
    30
100
AcDbLine
 10
404.740131
 20
598.617681
 30
0.0
 11
403.740131
 21
597.617681
 31
0.0
  0
CIRCLE
  5
23B
330
1F
100
AcDbEntity
  8
002
 62
     3
370
    30
100
AcDbCircle
 10
415.740131
 20
586.617681
 30
0.0
 40
6.0
  0
LINE
  5
23C
330
1F
100
AcDbEntity
  8
002
 62
     3
370
    30
100
AcDbLine
 10
403.740131
 20
597.617681
 30
0.0
 11
403.740131
 21
557.585563
 31
0.0
  0
LINE
  5
23D
330
1F
100
AcDbEntity
  8
002
  6
CENTER
 62
    40
370
     9
100
AcDbLine
 10
434.982489
 20
586.617681
 30
0.0
 11
395.765783
 21
586.617681
 31
0.0
  0
ARC
  5
23E
330
1F
100
AcDbEntity
  8
002
 62
     3
370
    30
100
AcDbCircle
 10
415.740131
 20
577.458501
 30
0.0
 40
19.0
100
AcDbArc
 50
230.833289
 51
309.166711
  0
ARC
  5
23F
330
1F
100
AcDbEntity
  8
002
 62
     3
370
    30
100
AcDbCircle
 10
415.740131
 20
577.458501
 30
0.0
 40
19.0
100
AcDbArc
 50
50.833289
 51
129.166711
  0
LINE
  5
240
330
1F
100
AcDbEntity
  8
002
 62
     3
370
    30
100
AcDbLine
 10
403.740131
 20
669.131841
 30
0.0
 11
427.740131
 21
669.131841
 31
0.0
  0
LINE
  5
241
330
1F
100
AcDbEntity
  8
002
 62
     3
370
    30
100
AcDbLine
 10
427.740131
 20
645.131841
 30
0.0
 11
403.740131
 21
645.131841
 31
0.0
  0
CIRCLE
  5
242
330
1F
100
AcDbEntity
  8
002
 62
     3
370
    30
100
AcDbCircle
 10
415.740131
 20
657.131841
 30
0.0
 40
11.0
  0
LINE
  5
243
330
1F
100
AcDbEntity
  8
002
 62
     3
370
    30
100
AcDbLine
 10
403.740131
 20
645.131841
 30
0.0
 11
403.740131
 21
669.131841
 31
0.0
  0
LINE
  5
244
330
1F
100
AcDbEntity
  8
002
  6
CENTER
 62
    40
370
     9
100
AcDbLine
 10
434.982489
 20
657.131841
 30
0.0
 11
395.765783
 21
657.131841
 31
0.0
  0
LINE
  5
245
330
1F
100
AcDbEntity
  8
002
  6
HIDDEN
 62
    40
370
     9
100
AcDbLine
 10
409.740131
 20
669.131841
 30
0.0
 11
409.740131
 21
645.131841
 31
0.0
  0
LINE
  5
246
330
1F
100
AcDbEntity
  8
002
 62
     3
370
    30
100
AcDbLine
 10
427.740131
 20
597.617681
 30
0.0
 11
427.740131
 21
557.649799
 31
0.0
  0
LINE
  5
247
330
1F
100
AcDbEntity
  8
002
 62
     3
370
    30
100
AcDbLine
 10
426.740131
 20
598.617681
 30
0.0
 11
427.740131
 21
597.617681
 31
0.0
  0
LINE
  5
248
330
1F
100
AcDbEntity
  8
002
 62
     3
370
    30
100
AcDbLine
 10
427.740131
 20
645.131841
 30
0.0
 11
427.740131
 21
669.131841
 31
0.0
  0
LINE
  5
249
330
1F
100
AcDbEntity
  8
002
  6
HIDDEN
 62
    40
370
     9
100
AcDbLine
 10
421.740131
 20
669.131841
 30
0.0
 11
421.740131
 21
645.131841
 31
0.0
  0
LINE
  5
24A
330
1F
100
AcDbEntity
  8
002
  6
CENTER
 62
    40
370
     9
100
AcDbLine
 10
415.740131
 20
636.725347
 30
0.0
 11
415.740131
 21
676.284795
 31
0.0
  0
LINE
  5
24B
330
1F
100
AcDbEntity
  8
002
 62
     3
370
    30
100
AcDbLine
 10
426.708014
 20
556.617681
 30
0.0
 11
404.708014
 21
556.617681
 31
0.0
  0
LINE
  5
24C
330
1F
100
AcDbEntity
  8
002
 62
     3
370
    30
100
AcDbLine
 10
404.708014
 20
556.617681
 30
0.0
 11
403.708014
 21
557.617681
 31
0.0
  0
LINE
  5
24D
330
1F
100
AcDbEntity
  8
002
 62
     3
370
    30
100
AcDbLine
 10
426.708014
 20
556.617681
 30
0.0
 11
427.708014
 21
557.617681
 31
0.0
  0
LINE
  5
24E
330
1F
100
AcDbEntity
  8
002
  6
CENTER
 62
    40
370
     9
100
AcDbLine
 10
415.740131
 20
528.569919
 30
0.0
 11
415.740131
 21
606.573571
 31
0.0
  0
LINE
  5
24F
330
1F
100
AcDbEntity
  8
002
  6
HIDDEN
 62
    40
370
     9
100
AcDbLine
 10
409.740131
 20
556.617681
 30
0.0
 11
409.740131
 21
571.617681
 31
0.0
  0
LINE
  5
250
330
1F
100
AcDbEntity
  8
002
  6
HIDDEN
 62
    40
370
     9
100
AcDbLine
 10
409.740131
 20
571.617681
 30
0.0
 11
421.740131
 21
571.617681
 31
0.0
  0
LINE
  5
251
330
1F
100
AcDbEntity
  8
002
  6
HIDDEN
 62
    40
370
     9
100
AcDbLine
 10
421.740131
 20
571.617681
 30
0.0
 11
421.740131
 21
556.617681
 31
0.0
  0
LINE
  5
252
330
1F
100
AcDbEntity
  8
002
  6
HIDDEN
 62
    40
370
     9
100
AcDbLine
 10
410.552131
 20
556.617681
 30
0.0
 11
410.552131
 21
571.617681
 31
0.0
  0
LINE
  5
253
330
1F
100
AcDbEntity
  8
002
  6
HIDDEN
 62
    40
370
     9
100
AcDbLine
 10
420.928131
 20
571.617681
 30
0.0
 11
420.928131
 21
556.617681
 31
0.0
  0
LINE
  5
254
330
1F
100
AcDbEntity
  8
002
  6
CENTER
 62
    40
370
     9
100
AcDbLine
 10
423.740131
 20
558.814824
 30
0.0
 11
423.740131
 21
528.569919
 31
0.0
  0
LINE
  5
255
330
1F
100
AcDbEntity
  8
002
 62
    40
370
     9
100
AcDbLine
 10
421.740131
 20
556.617681
 30
0.0
 11
421.740131
 21
528.569919
 31
0.0
  0
LINE
  5
256
330
1F
100
AcDbEntity
  8
002
 62
     3
370
    30
100
AcDbLine
 10
425.740131
 20
556.617681
 30
0.0
 11
425.740131
 21
528.569919
 31
0.0
  0
LINE
  5
257
330
1F
100
AcDbEntity
  8
002
 62
     3
370
    30
100
AcDbLine
 10
405.740131
 20
556.617681
 30
0.0
 11
405.740131
 21
528.569919
 31
0.0
  0
LINE
  5
258
330
1F
100
AcDbEntity
  8
002
  6
CENTER
 62
    40
370
     9
100
AcDbLine
 10
537.584665
 20
558.814824
 30
0.0
 11
537.584665
 21
528.569919
 31
0.0
  0
LINE
  5
259
330
1F
100
AcDbEntity
  8
002
 62
    40
370
     9
100
AcDbLine
 10
535.584665
 20
556.617681
 30
0.0
 11
535.584665
 21
528.569919
 31
0.0
  0
LINE
  5
25A
330
1F
100
AcDbEntity
  8
002
 62
     3
370
    30
100
AcDbLine
 10
539.584665
 20
556.617681
 30
0.0
 11
539.584665
 21
528.569919
 31
0.0
  0
LINE
  5
25B
330
1F
100
AcDbEntity
  8
002
 62
     3
370
    30
100
AcDbLine
 10
519.584665
 20
556.617681
 30
0.0
 11
519.584665
 21
528.569919
 31
0.0
  0
LINE
  5
25C
330
1F
100
AcDbEntity
  8
002
  6
CENTER
 62
    40
370
     9
100
AcDbLine
 10
638.102982
 20
558.814824
 30
0.0
 11
638.102982
 21
528.569919
 31
0.0
  0
LINE
  5
25D
330
1F
100
AcDbEntity
  8
002
 62
    40
370
     9
100
AcDbLine
 10
636.102982
 20
556.617681
 30
0.0
 11
636.102982
 21
528.569919
 31
0.0
  0
LINE
  5
25E
330
1F
100
AcDbEntity
  8
002
 62
     3
370
    30
100
AcDbLine
 10
640.102982
 20
556.617681
 30
0.0
 11
640.102982
 21
528.569919
 31
0.0
  0
LINE
  5
25F
330
1F
100
AcDbEntity
  8
002
 62
     3
370
    30
100
AcDbLine
 10
620.102982
 20
556.617681
 30
0.0
 11
620.102982
 21
528.569919
 31
0.0
  0
ARC
  5
260
330
1F
100
AcDbEntity
  8
002
 62
     3
370
    30
100
AcDbCircle
 10
529.584665
 20
577.458501
 30
0.0
 40
19.0
100
AcDbArc
 50
230.833289
 51
309.166711
  0
ARC
  5
261
330
1F
100
AcDbEntity
  8
002
 62
     3
370
    30
100
AcDbCircle
 10
529.584665
 20
577.458501
 30
0.0
 40
19.0
100
AcDbArc
 50
50.833289
 51
129.166711
  0
LINE
  5
262
330
1F
100
AcDbEntity
  8
002
 62
     3
370
    30
100
AcDbLine
 10
517.584665
 20
669.131841
 30
0.0
 11
541.584665
 21
669.131841
 31
0.0
  0
LINE
  5
263
330
1F
100
AcDbEntity
  8
002
 62
     3
370
    30
100
AcDbLine
 10
541.584665
 20
645.131841
 30
0.0
 11
517.584665
 21
645.131841
 31
0.0
  0
CIRCLE
  5
264
330
1F
100
AcDbEntity
  8
002
 62
     3
370
    30
100
AcDbCircle
 10
529.584665
 20
657.131841
 30
0.0
 40
11.0
  0
LINE
  5
265
330
1F
100
AcDbEntity
  8
002
 62
     3
370
    30
100
AcDbLine
 10
517.584665
 20
645.131841
 30
0.0
 11
517.584665
 21
669.131841
 31
0.0
  0
LINE
  5
266
330
1F
100
AcDbEntity
  8
002
 62
     3
370
    30
100
AcDbLine
 10
541.584665
 20
645.131841
 30
0.0
 11
541.584665
 21
669.131841
 31
0.0
  0
LINE
  5
267
330
1F
100
AcDbEntity
  8
002
 62
     3
370
    30
100
AcDbLine
 10
772.44969
 20
199.776884
 30
0.0
 11
897.44969
 21
199.776884
 31
0.0
  0
LINE
  5
268
330
1F
100
AcDbEntity
  8
002
 62
     3
370
    30
100
AcDbLine
 10
784.94969
 20
212.276884
 30
0.0
 11
897.44969
 21
212.276884
 31
0.0
  0
LINE
  5
269
330
1F
100
AcDbEntity
  8
002
 62
     3
370
    30
100
AcDbLine
 10
767.44969
 20
204.776884
 30
0.0
 11
767.44969
 21
299.776884
 31
0.0
  0
LINE
  5
26A
330
1F
100
AcDbEntity
  8
002
 62
     3
370
    30
100
AcDbLine
 10
779.94969
 20
299.776884
 30
0.0
 11
779.94969
 21
217.276884
 31
0.0
  0
LINE
  5
26B
330
1F
100
AcDbEntity
  8
002
 62
     3
370
    30
100
AcDbLine
 10
767.44969
 20
204.776884
 30
0.0
 11
772.44969
 21
199.776884
 31
0.0
  0
LINE
  5
26C
330
1F
100
AcDbEntity
  8
002
  6
CENTER
 62
    40
370
     9
100
AcDbLine
 10
795.912481
 20
249.776884
 30
0.0
 11
897.44969
 21
249.776884
 31
0.0
  0
LINE
  5
26D
330
1F
100
AcDbEntity
  8
002
  6
CENTER
 62
    40
370
     9
100
AcDbLine
 10
842.44969
 20
194.41023
 30
0.0
 11
842.44969
 21
305.411726
 31
0.0
  0
LINE
  5
26E
330
1F
100
AcDbEntity
  8
002
 62
     3
370
    30
100
AcDbLine
 10
822.44969
 20
219.776884
 30
0.0
 11
862.44969
 21
219.776884
 31
0.0
  0
LINE
  5
26F
330
1F
100
AcDbEntity
  8
002
 62
     3
370
    30
100
AcDbLine
 10
789.94969
 20
279.776884
 30
0.0
 11
862.44969
 21
279.776884
 31
0.0
  0
LINE
  5
270
330
1F
100
AcDbEntity
  8
002
 62
     3
370
    30
100
AcDbLine
 10
872.44969
 20
217.276884
 30
0.0
 11
872.44969
 21
269.776884
 31
0.0
  0
LINE
  5
271
330
1F
100
AcDbEntity
  8
002
 62
     3
370
    30
100
AcDbLine
 10
812.44969
 20
217.276884
 30
0.0
 11
812.44969
 21
269.776884
 31
0.0
  0
ARC
  5
272
330
1F
100
AcDbEntity
  8
002
 62
     3
370
    30
100
AcDbCircle
 10
822.44969
 20
269.776884
 30
0.0
 40
10.0
100
AcDbArc
 50
90.0
 51
180.0
  0
ARC
  5
273
330
1F
100
AcDbEntity
  8
002
 62
     3
370
    30
100
AcDbCircle
 10
862.44969
 20
269.776884
 30
0.0
 40
10.0
100
AcDbArc
 50
0.0
 51
90.0
  0
ARC
  5
274
330
1F
100
AcDbEntity
  8
002
 62
     3
370
    30
100
AcDbCircle
 10
862.44969
 20
229.776884
 30
0.0
 40
10.0
100
AcDbArc
 50
270.0
 51
0.0
  0
ARC
  5
275
330
1F
100
AcDbEntity
  8
002
 62
     3
370
    30
100
AcDbCircle
 10
822.44969
 20
229.776884
 30
0.0
 40
10.0
100
AcDbArc
 50
180.0
 51
270.0
  0
CIRCLE
  5
276
330
1F
100
AcDbEntity
  8
002
 62
     3
370
    30
100
AcDbCircle
 10
842.44969
 20
249.776884
 30
0.0
 40
20.0
  0
LINE
  5
277
330
1F
100
AcDbEntity
  8
002
 62
     3
370
    30
100
AcDbLine
 10
789.94969
 20
279.776884
 30
0.0
 11
789.94969
 21
299.776884
 31
0.0
  0
LINE
  5
278
330
1F
100
AcDbEntity
  8
002
 62
     3
370
    30
100
AcDbLine
 10
844.94969
 20
279.776884
 30
0.0
 11
844.94969
 21
299.776884
 31
0.0
  0
LINE
  5
279
330
1F
100
AcDbEntity
  8
002
 62
     3
370
    30
100
AcDbLine
 10
795.44969
 20
217.276884
 30
0.0
 11
795.44969
 21
274.276884
 31
0.0
  0
LINE
  5
27A
330
1F
100
AcDbEntity
  8
002
 62
     3
370
    30
100
AcDbLine
 10
789.94969
 20
279.776884
 30
0.0
 11
795.44969
 21
274.276884
 31
0.0
  0
LINE
  5
27B
330
1F
100
AcDbEntity
  8
002
 62
     3
370
    30
100
AcDbLine
 10
795.44969
 20
274.276884
 30
0.0
 11
813.041575
 21
274.276884
 31
0.0
  0
ARC
  5
27C
330
1F
100
AcDbEntity
  8
002
 62
     3
370
    30
100
AcDbCircle
 10
784.94969
 20
217.276884
 30
0.0
 40
5.0
100
AcDbArc
 50
180.0
 51
270.0
  0
ARC
  5
27D
330
1F
100
AcDbEntity
  8
002
 62
     3
370
    30
100
AcDbCircle
 10
790.44969
 20
217.276884
 30
0.0
 40
5.0
100
AcDbArc
 50
270.0
 51
0.0
  0
ARC
  5
27E
330
1F
100
AcDbEntity
  8
002
 62
     3
370
    30
100
AcDbCircle
 10
807.44969
 20
217.276884
 30
0.0
 40
5.0
100
AcDbArc
 50
270.0
 51
0.0
  0
ARC
  5
27F
330
1F
100
AcDbEntity
  8
002
 62
     3
370
    30
100
AcDbCircle
 10
877.44969
 20
217.276884
 30
0.0
 40
5.0
100
AcDbArc
 50
180.0
 51
270.0
  0
LINE
  5
280
330
1F
100
AcDbEntity
  8
002
  6
CENTER
 62
    40
370
     9
100
AcDbLine
 10
887.44969
 20
198.367383
 30
0.0
 11
887.44969
 21
213.891553
 31
0.0
  0
LINE
  5
281
330
1F
100
AcDbEntity
  8
002
  6
CENTER
 62
    40
370
     9
100
AcDbLine
 10
789.44969
 20
198.501111
 30
0.0
 11
789.44969
 21
213.490385
 31
0.0
  0
LINE
  5
282
330
1F
100
AcDbEntity
  8
002
  6
CENTER
 62
    40
370
     9
100
AcDbLine
 10
782.248621
 20
229.776884
 30
0.0
 11
765.478338
 21
229.776884
 31
0.0
  0
LINE
  5
283
330
1F
100
AcDbEntity
  8
002
  6
CENTER
 62
    40
370
     9
100
AcDbLine
 10
782.248621
 20
289.776884
 30
0.0
 11
765.478338
 21
289.776884
 31
0.0
  0
LINE
  5
284
330
1F
100
AcDbEntity
  8
002
 62
     3
370
    30
100
AcDbLine
 10
899.44969
 20
231.776884
 30
0.0
 11
902.44969
 21
231.776884
 31
0.0
  0
ARC
  5
285
330
1F
100
AcDbEntity
  8
002
 62
     3
370
    30
100
AcDbCircle
 10
842.44969
 20
249.776884
 30
0.0
 40
7.5
100
AcDbArc
 50
109.471221
 51
70.528779
  0
LINE
  5
286
330
1F
100
AcDbEntity
  8
002
 62
     3
370
    30
100
AcDbLine
 10
839.94969
 20
254.276884
 30
0.0
 11
844.94969
 21
254.276884
 31
0.0
  0
LINE
  5
287
330
1F
100
AcDbEntity
  8
002
 62
     3
370
    30
100
AcDbLine
 10
844.94969
 20
259.276884
 30
0.0
 11
844.94969
 21
254.276884
 31
0.0
  0
LINE
  5
288
330
1F
100
AcDbEntity
  8
002
 62
     3
370
    30
100
AcDbLine
 10
839.94969
 20
259.276884
 30
0.0
 11
844.94969
 21
259.276884
 31
0.0
  0
LINE
  5
289
330
1F
100
AcDbEntity
  8
002
 62
     3
370
    30
100
AcDbLine
 10
839.94969
 20
259.276884
 30
0.0
 11
839.94969
 21
254.276884
 31
0.0
  0
LINE
  5
28A
330
1F
100
AcDbEntity
  8
002
 62
     3
370
    30
100
AcDbLine
 10
897.44969
 20
294.776884
 30
0.0
 11
897.44969
 21
199.776884
 31
0.0
  0
LINE
  5
28B
330
1F
100
AcDbEntity
  8
002
 62
     3
370
    30
100
AcDbLine
 10
877.44969
 20
241.776884
 30
0.0
 11
897.44969
 21
241.776884
 31
0.0
  0
ARC
  5
28C
330
1F
100
AcDbEntity
  8
002
 62
     3
370
    30
100
AcDbCircle
 10
877.44969
 20
246.776884
 30
0.0
 40
5.0
100
AcDbArc
 50
180.0
 51
270.0
  0
LINE
  5
28D
330
1F
100
AcDbEntity
  8
002
 62
     3
370
    30
100
AcDbLine
 10
902.44969
 20
226.776884
 30
0.0
 11
899.44969
 21
226.776884
 31
0.0
  0
ARC
  5
28E
330
1F
100
AcDbEntity
  8
002
 62
     3
370
    30
100
AcDbCircle
 10
899.82469
 20
229.276884
 30
0.0
 40
3.625
100
AcDbArc
 50
316.397181
 51
43.602819
  0
ARC
  5
28F
330
1F
100
AcDbEntity
  8
002
 62
     3
370
    30
100
AcDbCircle
 10
902.07469
 20
229.276884
 30
0.0
 40
3.625
100
AcDbArc
 50
136.397181
 51
223.602819
  0
LINE
  5
290
330
1F
100
AcDbEntity
  8
002
 62
     3
370
    30
100
AcDbLine
 10
899.44969
 20
226.776884
 30
0.0
 11
898.44969
 21
227.776884
 31
0.0
  0
LINE
  5
291
330
1F
100
AcDbEntity
  8
002
 62
     3
370
    30
100
AcDbLine
 10
898.44969
 20
227.776884
 30
0.0
 11
898.44969
 21
235.776884
 31
0.0
  0
LINE
  5
292
330
1F
100
AcDbEntity
  8
002
 62
     3
370
    30
100
AcDbLine
 10
898.44969
 20
227.915384
 30
0.0
 11
897.44969
 21
227.915384
 31
0.0
  0
ARC
  5
293
330
1F
100
AcDbEntity
  8
002
 62
     3
370
    30
100
AcDbCircle
 10
902.07469
 20
234.276884
 30
0.0
 40
3.625
100
AcDbArc
 50
136.397181
 51
223.602819
  0
LINE
  5
294
330
1F
100
AcDbEntity
  8
002
 62
     3
370
    30
100
AcDbLine
 10
898.44969
 20
235.638384
 30
0.0
 11
897.44969
 21
235.638384
 31
0.0
  0
LINE
  5
295
330
1F
100
AcDbEntity
  8
002
 62
     3
370
    30
100
AcDbLine
 10
898.44969
 20
235.776884
 30
0.0
 11
899.44969
 21
236.776884
 31
0.0
  0
LINE
  5
296
330
1F
100
AcDbEntity
  8
002
 62
     3
370
    30
100
AcDbLine
 10
899.44969
 20
236.776884
 30
0.0
 11
902.44969
 21
236.776884
 31
0.0
  0
ARC
  5
297
330
1F
100
AcDbEntity
  8
002
 62
     3
370
    30
100
AcDbCircle
 10
899.82469
 20
234.276884
 30
0.0
 40
3.625
100
AcDbArc
 50
316.397181
 51
43.602819
  0
LINE
  5
298
330
1F
100
AcDbEntity
  8
002
 62
     3
370
    30
100
AcDbLine
 10
905.36309
 20
228.916884
 30
0.0
 11
902.44969
 21
226.776884
 31
0.0
  0
ARC
  5
299
330
1F
100
AcDbEntity
  8
002
 62
     3
370
    30
100
AcDbCircle
 10
906.07029
 20
228.209784
 30
0.0
 40
1.000061123131999
100
AcDbArc
 50
57.994617
 51
135.004051
  0
LINE
  5
29A
330
1F
100
AcDbEntity
  8
002
 62
     3
370
    30
100
AcDbLine
 10
907.44969
 20
228.526884
 30
0.0
 11
906.60029
 21
229.057784
 31
0.0
  0
LINE
  5
29B
330
1F
100
AcDbEntity
  8
002
 62
     3
370
    30
100
AcDbLine
 10
910.44969
 20
229.276884
 30
0.0
 11
907.44969
 21
228.526884
 31
0.0
  0
LINE
  5
29C
330
1F
100
AcDbEntity
  8
002
 62
     3
370
    30
100
AcDbLine
 10
907.44969
 20
234.276884
 30
0.0
 11
907.44969
 21
229.276884
 31
0.0
  0
LINE
  5
29D
330
1F
100
AcDbEntity
  8
002
 62
     3
370
    30
100
AcDbLine
 10
905.92569
 20
229.479384
 30
0.0
 11
905.92569
 21
234.074384
 31
0.0
  0
LINE
  5
29E
330
1F
100
AcDbEntity
  8
002
 62
     3
370
    30
100
AcDbLine
 10
902.44969
 20
236.776884
 30
0.0
 11
905.36309
 21
234.636884
 31
0.0
  0
ARC
  5
29F
330
1F
100
AcDbEntity
  8
002
 62
     3
370
    30
100
AcDbCircle
 10
906.07029
 20
235.343984
 30
0.0
 40
1.000001999998045
100
AcDbArc
 50
224.995949
 51
302.005383
  0
LINE
  5
2A0
330
1F
100
AcDbEntity
  8
002
 62
     3
370
    30
100
AcDbLine
 10
906.60029
 20
234.495984
 30
0.0
 11
907.44969
 21
235.026884
 31
0.0
  0
LINE
  5
2A1
330
1F
100
AcDbEntity
  8
002
 62
     3
370
    30
100
AcDbLine
 10
907.44969
 20
235.026884
 30
0.0
 11
910.44969
 21
234.276884
 31
0.0
  0
LINE
  5
2A2
330
1F
100
AcDbEntity
  8
002
 62
     3
370
    30
100
AcDbLine
 10
910.44969
 20
234.276884
 30
0.0
 11
910.44969
 21
229.276884
 31
0.0
  0
ARC
  5
2A3
330
1F
100
AcDbEntity
  8
002
 62
     3
370
    30
100
AcDbCircle
 10
909.78819
 20
231.776884
 30
0.0
 40
1.000041124154433
100
AcDbArc
 50
311.412294
 51
48.587706
  0
LINE
  5
2A4
330
1F
100
AcDbEntity
  8
002
  6
CENTER
 62
    40
370
     9
100
AcDbLine
 10
894.484375
 20
231.776884
 30
0.0
 11
899.44969
 21
231.776884
 31
0.0
  0
LINE
  5
2A5
330
1F
100
AcDbEntity
  8
002
 62
     3
370
    30
100
AcDbLine
 10
892.44969
 20
299.776884
 30
0.0
 11
767.44969
 21
299.776884
 31
0.0
  0
LINE
  5
2A6
330
1F
100
AcDbEntity
  8
002
 62
     3
370
    30
100
AcDbLine
 10
892.44969
 20
299.776884
 30
0.0
 11
897.44969
 21
294.776884
 31
0.0
  0
LINE
  5
2A7
330
1F
100
AcDbEntity
  8
002
  6
HIDDEN
 62
    40
370
     9
100
AcDbLine
 10
779.94969
 20
286.476884
 30
0.0
 11
767.44969
 21
286.476884
 31
0.0
  0
LINE
  5
2A8
330
1F
100
AcDbEntity
  8
002
  6
HIDDEN
 62
    40
370
     9
100
AcDbLine
 10
779.94969
 20
293.076884
 30
0.0
 11
767.44969
 21
293.076884
 31
0.0
  0
LINE
  5
2A9
330
1F
100
AcDbEntity
  8
002
  6
HIDDEN
 62
    40
370
     9
100
AcDbLine
 10
779.94969
 20
233.076884
 30
0.0
 11
767.44969
 21
233.076884
 31
0.0
  0
LINE
  5
2AA
330
1F
100
AcDbEntity
  8
002
  6
HIDDEN
 62
    40
370
     9
100
AcDbLine
 10
779.94969
 20
226.476884
 30
0.0
 11
767.44969
 21
226.476884
 31
0.0
  0
LINE
  5
2AB
330
1F
100
AcDbEntity
  8
002
  6
HIDDEN
 62
    40
370
     9
100
AcDbLine
 10
786.14969
 20
199.776884
 30
0.0
 11
786.14969
 21
212.276884
 31
0.0
  0
LINE
  5
2AC
330
1F
100
AcDbEntity
  8
002
  6
HIDDEN
 62
    40
370
     9
100
AcDbLine
 10
792.74969
 20
199.776884
 30
0.0
 11
792.74969
 21
212.276884
 31
0.0
  0
LINE
  5
2AD
330
1F
100
AcDbEntity
  8
002
  6
HIDDEN
 62
    40
370
     9
100
AcDbLine
 10
884.14969
 20
199.776884
 30
0.0
 11
884.14969
 21
212.276884
 31
0.0
  0
LINE
  5
2AE
330
1F
100
AcDbEntity
  8
002
  6
HIDDEN
 62
    40
370
     9
100
AcDbLine
 10
890.74969
 20
199.776884
 30
0.0
 11
890.74969
 21
212.276884
 31
0.0
  0
LINE
  5
2AF
330
1F
100
AcDbEntity
  8
002
  6
CENTER
 62
    40
370
     9
100
AcDbLine
 10
833.35969
 20
297.776884
 30
0.0
 11
833.35969
 21
311.498484
 31
0.0
  0
LINE
  5
2B0
330
1F
100
AcDbEntity
  8
002
  6
CENTER
 62
    40
370
     9
100
AcDbLine
 10
801.53969
 20
297.776884
 30
0.0
 11
801.53969
 21
311.498484
 31
0.0
  0
LINE
  5
2B1
330
1F
100
AcDbEntity
  8
002
 62
     3
370
    30
100
AcDbLine
 10
837.44979
 20
344.776884
 30
0.0
 11
797.44969
 21
344.776884
 31
0.0
  0
LINE
  5
2B2
330
1F
100
AcDbEntity
  8
002
 62
     3
370
    30
100
AcDbLine
 10
797.44969
 20
344.776884
 30
0.0
 11
796.89669
 21
306.733184
 31
0.0
  0
LINE
  5
2B3
330
1F
100
AcDbEntity
  8
002
 62
     3
370
    30
100
AcDbLine
 10
838.00319
 20
306.733184
 30
0.0
 11
837.44979
 21
344.776884
 31
0.0
  0
LINE
  5
2B4
330
1F
100
AcDbEntity
  8
002
 62
     3
370
    30
100
AcDbLine
 10
837.60969
 20
308.776884
 30
0.0
 11
829.10969
 21
308.776884
 31
0.0
  0
LINE
  5
2B5
330
1F
100
AcDbEntity
  8
002
 62
     3
370
    30
100
AcDbLine
 10
837.60969
 20
303.776884
 30
0.0
 11
837.60969
 21
308.776884
 31
0.0
  0
LINE
  5
2B6
330
1F
100
AcDbEntity
  8
002
 62
     3
370
    30
100
AcDbLine
 10
829.10969
 20
303.776884
 30
0.0
 11
829.10969
 21
308.776884
 31
0.0
  0
ARC
  5
2B7
330
1F
100
AcDbEntity
  8
002
 62
     3
370
    30
100
AcDbCircle
 10
841.00289
 20
306.776884
 30
0.0
 40
3.000018296610834
100
AcDbArc
 50
180.834633
 51
270.0
  0
LINE
  5
2B8
330
1F
100
AcDbEntity
  8
002
 62
     3
370
    30
100
AcDbLine
 10
789.94969
 20
303.776884
 30
0.0
 11
844.94979
 21
303.776884
 31
0.0
  0
LINE
  5
2B9
330
1F
100
AcDbEntity
  8
002
 62
     3
370
    30
100
AcDbLine
 10
844.94979
 20
303.776884
 30
0.0
 11
844.94979
 21
299.776884
 31
0.0
  0
ARC
  5
2BA
330
1F
100
AcDbEntity
  8
002
 62
     3
370
    30
100
AcDbCircle
 10
793.89669
 20
306.776884
 30
0.0
 40
3.0
100
AcDbArc
 50
270.0
 51
359.165451
  0
LINE
  5
2BB
330
1F
100
AcDbEntity
  8
002
 62
     3
370
    30
100
AcDbLine
 10
797.28969
 20
303.776884
 30
0.0
 11
797.28969
 21
308.776884
 31
0.0
  0
LINE
  5
2BC
330
1F
100
AcDbEntity
  8
002
 62
     3
370
    30
100
AcDbLine
 10
789.94969
 20
299.776884
 30
0.0
 11
789.94969
 21
303.776884
 31
0.0
  0
LINE
  5
2BD
330
1F
100
AcDbEntity
  8
002
 62
     3
370
    30
100
AcDbLine
 10
805.78969
 20
308.776884
 30
0.0
 11
805.78969
 21
303.776884
 31
0.0
  0
LINE
  5
2BE
330
1F
100
AcDbEntity
  8
002
 62
     3
370
    30
100
AcDbLine
 10
797.28969
 20
308.776884
 30
0.0
 11
805.78969
 21
308.776884
 31
0.0
  0
LINE
  5
2BF
330
1F
100
AcDbEntity
  8
002
 62
     3
370
    30
100
AcDbLine
 10
799.44969
 20
429.776884
 30
0.0
 11
799.44969
 21
446.776884
 31
0.0
  0
LINE
  5
2C0
330
1F
100
AcDbEntity
  8
002
 62
     3
370
    30
100
AcDbLine
 10
835.44969
 20
429.776884
 30
0.0
 11
799.44969
 21
429.776884
 31
0.0
  0
LINE
  5
2C1
330
1F
100
AcDbEntity
  8
002
 62
     3
370
    30
100
AcDbLine
 10
802.44969
 20
449.776884
 30
0.0
 11
832.44969
 21
449.776884
 31
0.0
  0
ARC
  5
2C2
330
1F
100
AcDbEntity
  8
002
 62
     3
370
    30
100
AcDbCircle
 10
802.44969
 20
446.776884
 30
0.0
 40
3.0
100
AcDbArc
 50
90.0
 51
180.0
  0
ARC
  5
2C3
330
1F
100
AcDbEntity
  8
002
 62
     3
370
    30
100
AcDbCircle
 10
832.44969
 20
446.776884
 30
0.0
 40
3.0
100
AcDbArc
 50
0.0
 51
90.0
  0
LINE
  5
2C4
330
1F
100
AcDbEntity
  8
002
 62
     3
370
    30
100
AcDbLine
 10
835.44969
 20
446.776884
 30
0.0
 11
835.44969
 21
429.776884
 31
0.0
  0
LINE
  5
2C5
330
1F
100
AcDbEntity
  8
001
 62
     3
370
    30
100
AcDbLine
 10
828.14969
 20
99.776884
 30
0.0
 11
846.623223
 21
101.792084
 31
0.0
  0
LINE
  5
2C6
330
1F
100
AcDbEntity
  8
001
 62
     3
370
    30
100
AcDbLine
 10
846.623206
 20
103.761687
 30
0.0
 11
835.776073
 21
104.791987
 31
0.0
  0
LINE
  5
2C7
330
1F
100
AcDbEntity
  8
001
 62
     3
370
    30
100
AcDbLine
 10
835.77609
 20
106.761784
 30
0.0
 11
846.623223
 21
107.792084
 31
0.0
  0
LINE
  5
2C8
330
1F
100
AcDbEntity
  8
001
 62
     3
370
    30
100
AcDbLine
 10
846.623206
 20
109.761687
 30
0.0
 11
835.776087
 21
110.792068
 31
0.0
  0
LINE
  5
2C9
330
1F
100
AcDbEntity
  8
001
 62
     3
370
    30
100
AcDbLine
 10
799.12319
 20
110.792084
 30
0.0
 11
788.276207
 21
109.761687
 31
0.0
  0
LINE
  5
2CA
330
1F
100
AcDbEntity
  8
001
 62
     3
370
    30
100
AcDbLine
 10
788.27619
 20
107.792084
 30
0.0
 11
799.123173
 21
106.761687
 31
0.0
  0
LINE
  5
2CB
330
1F
100
AcDbEntity
  8
001
 62
     3
370
    30
100
AcDbLine
 10
799.12319
 20
104.792084
 30
0.0
 11
788.276207
 21
103.761687
 31
0.0
  0
LINE
  5
2CC
330
1F
100
AcDbEntity
  8
001
 62
     3
370
    30
100
AcDbLine
 10
788.27619
 20
101.792084
 30
0.0
 11
806.74969
 21
99.776884
 31
0.0
  0
LINE
  5
2CD
330
1F
100
AcDbEntity
  8
002
 62
    40
370
     9
100
AcDbLine
 10
822.69969
 20
81.776884
 30
0.0
 11
822.69969
 21
69.776884
 31
0.0
  0
LINE
  5
2CE
330
1F
100
AcDbEntity
  8
002
 62
    40
370
     9
100
AcDbLine
 10
812.19969
 20
81.776884
 30
0.0
 11
812.19969
 21
69.776884
 31
0.0
  0
LINE
  5
2CF
330
1F
100
AcDbEntity
  8
002
 62
     3
370
    30
100
AcDbLine
 10
822.44969
 20
84.776884
 30
0.0
 11
822.44969
 21
81.776884
 31
0.0
  0
LINE
  5
2D0
330
1F
100
AcDbEntity
  8
002
 62
     3
370
    30
100
AcDbLine
 10
812.44969
 20
84.776884
 30
0.0
 11
812.44969
 21
81.776884
 31
0.0
  0
LINE
  5
2D1
330
1F
100
AcDbEntity
  8
002
 62
     3
370
    30
100
AcDbLine
 10
823.44969
 20
81.776884
 30
0.0
 11
811.44969
 21
81.776884
 31
0.0
  0
LINE
  5
2D2
330
1F
100
AcDbEntity
  8
002
 62
     3
370
    30
100
AcDbLine
 10
811.44969
 20
69.776884
 30
0.0
 11
811.44969
 21
81.776884
 31
0.0
  0
LINE
  5
2D3
330
1F
100
AcDbEntity
  8
002
 62
     3
370
    30
100
AcDbLine
 10
823.44969
 20
69.776884
 30
0.0
 11
823.44969
 21
81.776884
 31
0.0
  0
LINE
  5
2D4
330
1F
100
AcDbEntity
  8
002
 62
     3
370
    30
100
AcDbLine
 10
823.44969
 20
69.776884
 30
0.0
 11
811.44969
 21
69.776884
 31
0.0
  0
LINE
  5
2D5
330
1F
100
AcDbEntity
  8
002
 62
     3
370
    30
100
AcDbLine
 10
828.14969
 20
84.776884
 30
0.0
 11
806.74969
 21
84.776884
 31
0.0
  0
LINE
  5
2D6
330
1F
100
AcDbEntity
  8
002
 62
     3
370
    30
100
AcDbLine
 10
833.94969
 20
111.776884
 30
0.0
 11
800.94969
 21
111.776884
 31
0.0
  0
LINE
  5
2D7
330
1F
100
AcDbEntity
  8
002
 62
     3
370
    30
100
AcDbLine
 10
788.44969
 20
108.776884
 30
0.0
 11
846.44969
 21
108.776884
 31
0.0
  0
LINE
  5
2D8
330
1F
100
AcDbEntity
  8
002
 62
     3
370
    30
100
AcDbLine
 10
828.14969
 20
99.776884
 30
0.0
 11
806.74969
 21
99.776884
 31
0.0
  0
LINE
  5
2D9
330
1F
100
AcDbEntity
  8
002
 62
     3
370
    30
100
AcDbLine
 10
788.44969
 20
102.776884
 30
0.0
 11
846.44969
 21
102.776884
 31
0.0
  0
LINE
  5
2DA
330
1F
100
AcDbEntity
  8
002
 62
     3
370
    30
100
AcDbLine
 10
833.94969
 20
105.776884
 30
0.0
 11
800.94969
 21
105.776884
 31
0.0
  0
LINE
  5
2DB
330
1F
100
AcDbEntity
  8
002
 62
     3
370
    30
100
AcDbLine
 10
798.14969
 20
98.776884
 30
0.0
 11
828.74969
 21
98.776884
 31
0.0
  0
LINE
  5
2DC
330
1F
100
AcDbEntity
  8
002
 62
     3
370
    30
100
AcDbLine
 10
828.74969
 20
98.776884
 30
0.0
 11
828.74969
 21
85.776884
 31
0.0
  0
LINE
  5
2DD
330
1F
100
AcDbEntity
  8
002
 62
     3
370
    30
100
AcDbLine
 10
828.74969
 20
85.776884
 30
0.0
 11
798.14969
 21
85.776884
 31
0.0
  0
LINE
  5
2DE
330
1F
100
AcDbEntity
  8
002
 62
     3
370
    30
100
AcDbLine
 10
828.14969
 20
84.776884
 30
0.0
 11
828.14969
 21
85.776884
 31
0.0
  0
LINE
  5
2DF
330
1F
100
AcDbEntity
  8
002
 62
     3
370
    30
100
AcDbLine
 10
828.14969
 20
99.776884
 30
0.0
 11
828.14969
 21
98.776884
 31
0.0
  0
ARC
  5
2E0
330
1F
100
AcDbEntity
  8
002
 62
     3
370
    30
100
AcDbCircle
 10
846.449723
 20
102.776884
 30
0.0
 40
0.9999666444436526
100
AcDbArc
 50
279.991716
 51
80.009278
  0
ARC
  5
2E1
330
1F
100
AcDbEntity
  8
002
 62
     3
370
    30
100
AcDbCircle
 10
846.449723
 20
108.776884
 30
0.0
 40
0.9999666444436526
100
AcDbArc
 50
279.991716
 51
80.009278
  0
ARC
  5
2E2
330
1F
100
AcDbEntity
  8
002
 62
     3
370
    30
100
AcDbCircle
 10
835.94969
 20
111.776884
 30
0.0
 40
1.0
100
AcDbArc
 50
180.0
 51
260.002641
  0
ARC
  5
2E3
330
1F
100
AcDbEntity
  8
002
 62
     3
370
    30
100
AcDbCircle
 10
835.94969
 20
105.776884
 30
0.0
 40
1.000082481598435
100
AcDbArc
 50
99.996364
 51
260.002641
  0
ARC
  5
2E4
330
1F
100
AcDbEntity
  8
002
 62
     3
370
    30
100
AcDbCircle
 10
798.94969
 20
111.776884
 30
0.0
 40
0.9999666444436526
100
AcDbArc
 50
279.991716
 51
0.0
  0
ARC
  5
2E5
330
1F
100
AcDbEntity
  8
002
 62
     3
370
    30
100
AcDbCircle
 10
798.94969
 20
105.776884
 30
0.0
 40
0.9999666444436526
100
AcDbArc
 50
279.991716
 51
80.009278
  0
ARC
  5
2E6
330
1F
100
AcDbEntity
  8
002
 62
     3
370
    30
100
AcDbCircle
 10
798.14969
 20
87.776884
 30
0.0
 40
2.0
100
AcDbArc
 50
180.0
 51
270.0
  0
LINE
  5
2E7
330
1F
100
AcDbEntity
  8
002
 62
     3
370
    30
100
AcDbLine
 10
796.14969
 20
87.776884
 30
0.0
 11
796.14969
 21
96.776884
 31
0.0
  0
ARC
  5
2E8
330
1F
100
AcDbEntity
  8
002
 62
     3
370
    30
100
AcDbCircle
 10
798.14969
 20
96.776884
 30
0.0
 40
2.0
100
AcDbArc
 50
90.0
 51
180.0
  0
CIRCLE
  5
2E9
330
1F
100
AcDbEntity
  8
002
 62
     3
370
    30
100
AcDbCircle
 10
801.14969
 20
92.276884
 30
0.0
 40
1.0
  0
LINE
  5
2EA
330
1F
100
AcDbEntity
  8
002
 62
     3
370
    30
100
AcDbLine
 10
806.14969
 20
98.776884
 30
0.0
 11
806.14969
 21
85.776884
 31
0.0
  0
LINE
  5
2EB
330
1F
100
AcDbEntity
  8
002
 62
     3
370
    30
100
AcDbLine
 10
806.74969
 20
85.776884
 30
0.0
 11
806.74969
 21
84.776884
 31
0.0
  0
LINE
  5
2EC
330
1F
100
AcDbEntity
  8
002
 62
     3
370
    30
100
AcDbLine
 10
806.74969
 20
98.776884
 30
0.0
 11
806.74969
 21
99.776884
 31
0.0
  0
LINE
  5
2ED
330
1F
100
AcDbEntity
  8
002
  6
CENTER
 62
    40
370
     9
100
AcDbLine
 10
801.14969
 20
95.529084
 30
0.0
 11
801.14969
 21
88.769184
 31
0.0
  0
LINE
  5
2EE
330
1F
100
AcDbEntity
  8
002
  6
CENTER
 62
    40
370
     9
100
AcDbLine
 10
798.78189
 20
92.276884
 30
0.0
 11
803.80699
 21
92.276884
 31
0.0
  0
ARC
  5
2EF
330
1F
100
AcDbEntity
  8
002
 62
     3
370
    30
100
AcDbCircle
 10
788.44969
 20
102.776884
 30
0.0
 40
0.9999666444436526
100
AcDbArc
 50
99.990722
 51
260.008284
  0
ARC
  5
2F0
330
1F
100
AcDbEntity
  8
002
 62
     3
370
    30
100
AcDbCircle
 10
788.44969
 20
108.776884
 30
0.0
 40
0.9999666444436526
100
AcDbArc
 50
99.990722
 51
260.008284
  0
LINE
  5
2F1
330
1F
100
AcDbEntity
  8
002
 62
     3
370
    30
100
AcDbLine
 10
789.94969
 20
199.776884
 30
0.0
 11
789.94969
 21
196.776884
 31
0.0
  0
LINE
  5
2F2
330
1F
100
AcDbEntity
  8
002
 62
     3
370
    30
100
AcDbLine
 10
789.94969
 20
196.776884
 30
0.0
 11
844.94939
 21
196.776884
 31
0.0
  0
LINE
  5
2F3
330
1F
100
AcDbEntity
  8
002
 62
     3
370
    30
100
AcDbLine
 10
844.94939
 20
196.776884
 30
0.0
 11
844.94939
 21
199.776884
 31
0.0
  0
LINE
  5
2F4
330
1F
100
AcDbEntity
  8
002
 62
     3
370
    30
100
AcDbLine
 10
837.60929
 20
196.776884
 30
0.0
 11
837.60929
 21
191.776884
 31
0.0
  0
LINE
  5
2F5
330
1F
100
AcDbEntity
  8
002
 62
     3
370
    30
100
AcDbLine
 10
829.10929
 20
191.776884
 30
0.0
 11
829.10929
 21
196.776884
 31
0.0
  0
LINE
  5
2F6
330
1F
100
AcDbEntity
  8
002
 62
     3
370
    30
100
AcDbLine
 10
805.78969
 20
196.776884
 30
0.0
 11
805.78969
 21
191.776884
 31
0.0
  0
LINE
  5
2F7
330
1F
100
AcDbEntity
  8
002
 62
     3
370
    30
100
AcDbLine
 10
793.14969
 20
182.776884
 30
0.0
 11
833.74939
 21
182.776884
 31
0.0
  0
LINE
  5
2F8
330
1F
100
AcDbEntity
  8
002
 62
     3
370
    30
100
AcDbLine
 10
833.74939
 20
182.776884
 30
0.0
 11
833.74939
 21
191.776884
 31
0.0
  0
LINE
  5
2F9
330
1F
100
AcDbEntity
  8
002
 62
     3
370
    30
100
AcDbLine
 10
837.60929
 20
191.776884
 30
0.0
 11
829.10929
 21
191.776884
 31
0.0
  0
LINE
  5
2FA
330
1F
100
AcDbEntity
  8
002
 62
     3
370
    30
100
AcDbLine
 10
833.14939
 20
182.776884
 30
0.0
 11
833.14939
 21
181.776884
 31
0.0
  0
LINE
  5
2FB
330
1F
100
AcDbEntity
  8
002
 62
     3
370
    30
100
AcDbLine
 10
833.14939
 20
181.776884
 30
0.0
 11
846.62299
 21
179.761684
 31
0.0
  0
ARC
  5
2FC
330
1F
100
AcDbEntity
  8
002
 62
     3
370
    30
100
AcDbCircle
 10
846.44939
 20
178.776884
 30
0.0
 40
1.000082481598389
100
AcDbArc
 50
279.996364
 51
80.002641
  0
LINE
  5
2FD
330
1F
100
AcDbEntity
  8
002
 62
     3
370
    30
100
AcDbLine
 10
846.62299
 20
177.791984
 30
0.0
 11
835.77589
 21
176.761684
 31
0.0
  0
ARC
  5
2FE
330
1F
100
AcDbEntity
  8
002
 62
     3
370
    30
100
AcDbCircle
 10
835.94939
 20
175.776884
 30
0.0
 40
0.9999666444437085
100
AcDbArc
 50
99.991716
 51
260.009278
  0
LINE
  5
2FF
330
1F
100
AcDbEntity
  8
002
 62
     3
370
    30
100
AcDbLine
 10
835.77589
 20
174.791984
 30
0.0
 11
846.62299
 21
173.761684
 31
0.0
  0
ARC
  5
300
330
1F
100
AcDbEntity
  8
002
 62
     3
370
    30
100
AcDbCircle
 10
846.44939
 20
172.776884
 30
0.0
 40
1.000082481598389
100
AcDbArc
 50
279.996364
 51
80.002641
  0
LINE
  5
301
330
1F
100
AcDbEntity
  8
002
 62
     3
370
    30
100
AcDbLine
 10
846.62299
 20
171.791984
 30
0.0
 11
835.77589
 21
170.761684
 31
0.0
  0
ARC
  5
302
330
1F
100
AcDbEntity
  8
002
 62
     3
370
    30
100
AcDbCircle
 10
835.94939
 20
169.776884
 30
0.0
 40
0.9999666444437085
100
AcDbArc
 50
99.991716
 51
180.0
  0
LINE
  5
303
330
1F
100
AcDbEntity
  8
002
 62
     3
370
    30
100
AcDbLine
 10
833.94939
 20
169.776884
 30
0.0
 11
800.94969
 21
169.776884
 31
0.0
  0
LINE
  5
304
330
1F
100
AcDbEntity
  8
002
 62
     3
370
    30
100
AcDbLine
 10
799.12269
 20
170.761684
 30
0.0
 11
788.27569
 21
171.791984
 31
0.0
  0
ARC
  5
305
330
1F
100
AcDbEntity
  8
002
 62
     3
370
    30
100
AcDbCircle
 10
788.44969
 20
172.776884
 30
0.0
 40
1.000053518567884
100
AcDbArc
 50
100.019928
 51
259.981069
  0
LINE
  5
306
330
1F
100
AcDbEntity
  8
002
 62
     3
370
    30
100
AcDbLine
 10
788.27569
 20
173.761684
 30
0.0
 11
799.12269
 21
174.791984
 31
0.0
  0
ARC
  5
307
330
1F
100
AcDbEntity
  8
002
 62
     3
370
    30
100
AcDbCircle
 10
798.94969
 20
175.776884
 30
0.0
 40
0.99997850476896
100
AcDbArc
 50
279.962508
 51
80.036501
  0
LINE
  5
308
330
1F
100
AcDbEntity
  8
002
 62
     3
370
    30
100
AcDbLine
 10
799.12269
 20
176.761684
 30
0.0
 11
788.27569
 21
177.791984
 31
0.0
  0
ARC
  5
309
330
1F
100
AcDbEntity
  8
002
 62
     3
370
    30
100
AcDbCircle
 10
788.44969
 20
178.776884
 30
0.0
 40
1.000053518567884
100
AcDbArc
 50
100.019928
 51
259.981069
  0
LINE
  5
30A
330
1F
100
AcDbEntity
  8
002
 62
     3
370
    30
100
AcDbLine
 10
788.27569
 20
179.761684
 30
0.0
 11
801.74969
 21
181.776884
 31
0.0
  0
LINE
  5
30B
330
1F
100
AcDbEntity
  8
002
 62
     3
370
    30
100
AcDbLine
 10
833.94939
 20
175.776884
 30
0.0
 11
800.94969
 21
175.776884
 31
0.0
  0
ARC
  5
30C
330
1F
100
AcDbEntity
  8
002
 62
     3
370
    30
100
AcDbCircle
 10
798.94969
 20
169.776884
 30
0.0
 40
1.0
100
AcDbArc
 50
0.0
 51
80.036501
  0
LINE
  5
30D
330
1F
100
AcDbEntity
  8
002
 62
     3
370
    30
100
AcDbLine
 10
788.44969
 20
172.776884
 30
0.0
 11
846.44939
 21
172.776884
 31
0.0
  0
LINE
  5
30E
330
1F
100
AcDbEntity
  8
002
 62
     3
370
    30
100
AcDbLine
 10
846.44939
 20
178.776884
 30
0.0
 11
788.44969
 21
178.776884
 31
0.0
  0
CIRCLE
  5
30F
330
1F
100
AcDbEntity
  8
002
 62
     3
370
    30
100
AcDbCircle
 10
796.14969
 20
189.276884
 30
0.0
 40
1.0
  0
LINE
  5
310
330
1F
100
AcDbEntity
  8
002
 62
     3
370
    30
100
AcDbLine
 10
797.28969
 20
191.776884
 30
0.0
 11
805.78969
 21
191.776884
 31
0.0
  0
LINE
  5
311
330
1F
100
AcDbEntity
  8
002
 62
     3
370
    30
100
AcDbLine
 10
801.14969
 20
191.776884
 30
0.0
 11
801.14969
 21
182.776884
 31
0.0
  0
LINE
  5
312
330
1F
100
AcDbEntity
  8
002
 62
     3
370
    30
100
AcDbLine
 10
801.74969
 20
182.776884
 30
0.0
 11
801.74969
 21
181.776884
 31
0.0
  0
LINE
  5
313
330
1F
100
AcDbEntity
  8
002
  6
CENTER
 62
    40
370
     9
100
AcDbLine
 10
833.35929
 20
189.055284
 30
0.0
 11
833.35929
 21
202.776884
 31
0.0
  0
LINE
  5
314
330
1F
100
AcDbEntity
  8
002
  6
CENTER
 62
    40
370
     9
100
AcDbLine
 10
801.53969
 20
189.055284
 30
0.0
 11
801.53969
 21
202.776884
 31
0.0
  0
LINE
  5
315
330
1F
100
AcDbEntity
  8
002
  6
CENTER
 62
    40
370
     9
100
AcDbLine
 10
793.78169
 20
189.276884
 30
0.0
 11
798.80669
 21
189.276884
 31
0.0
  0
LINE
  5
316
330
1F
100
AcDbEntity
  8
002
  6
CENTER
 62
    40
370
     9
100
AcDbLine
 10
796.14969
 20
192.529084
 30
0.0
 11
796.14969
 21
185.769084
 31
0.0
  0
LINE
  5
317
330
1F
100
AcDbEntity
  8
002
 62
     3
370
    30
100
AcDbLine
 10
829.10929
 20
194.776884
 30
0.0
 11
805.78969
 21
194.776884
 31
0.0
  0
LINE
  5
318
330
1F
100
AcDbEntity
  8
002
 62
     3
370
    30
100
AcDbLine
 10
797.28969
 20
191.776884
 30
0.0
 11
797.28969
 21
196.776884
 31
0.0
  0
LINE
  5
319
330
1F
100
AcDbEntity
  8
002
 62
     3
370
    30
100
AcDbLine
 10
797.28969
 20
194.776884
 30
0.0
 11
793.14969
 21
194.776884
 31
0.0
  0
ARC
  5
31A
330
1F
100
AcDbEntity
  8
002
 62
     3
370
    30
100
AcDbCircle
 10
793.14969
 20
184.776884
 30
0.0
 40
2.0
100
AcDbArc
 50
180.0
 51
270.0
  0
ARC
  5
31B
330
1F
100
AcDbEntity
  8
002
 62
     3
370
    30
100
AcDbCircle
 10
793.14969
 20
192.776884
 30
0.0
 40
2.0
100
AcDbArc
 50
90.0
 51
180.0
  0
LINE
  5
31C
330
1F
100
AcDbEntity
  8
002
 62
     3
370
    30
100
AcDbLine
 10
791.14969
 20
192.776884
 30
0.0
 11
791.14969
 21
184.776884
 31
0.0
  0
LINE
  5
31D
330
1F
100
AcDbEntity
  8
002
  6
PHANTOM
 62
    40
370
     9
100
AcDbLine
 10
834.94939
 20
169.776884
 30
0.0
 11
834.94939
 21
111.776884
 31
0.0
  0
LINE
  5
31E
330
1F
100
AcDbEntity
  8
002
  6
PHANTOM
 62
    40
370
     9
100
AcDbLine
 10
847.44939
 20
108.776884
 30
0.0
 11
847.44939
 21
172.776884
 31
0.0
  0
LINE
  5
31F
330
1F
100
AcDbEntity
  8
002
  6
PHANTOM
 62
    40
370
     9
100
AcDbLine
 10
799.94969
 20
111.776884
 30
0.0
 11
799.94969
 21
169.776884
 31
0.0
  0
LINE
  5
320
330
1F
100
AcDbEntity
  8
002
  6
PHANTOM
 62
    40
370
     9
100
AcDbLine
 10
787.44969
 20
172.776884
 30
0.0
 11
787.44969
 21
108.776884
 31
0.0
  0
LINE
  5
321
330
1F
100
AcDbEntity
  8
002
 62
     3
370
    30
100
AcDbLine
 10
394.216417
 20
299.776884
 30
0.0
 11
394.216417
 21
302.776884
 31
0.0
  0
LINE
  5
322
330
1F
100
AcDbEntity
  8
002
 62
     3
370
    30
100
AcDbLine
 10
394.216417
 20
302.776884
 30
0.0
 11
449.216117
 21
302.776884
 31
0.0
  0
LINE
  5
323
330
1F
100
AcDbEntity
  8
002
 62
     3
370
    30
100
AcDbLine
 10
449.216117
 20
302.776884
 30
0.0
 11
449.216117
 21
299.776884
 31
0.0
  0
LINE
  5
324
330
1F
100
AcDbEntity
  8
002
 62
     3
370
    30
100
AcDbLine
 10
441.876017
 20
302.776884
 30
0.0
 11
441.876017
 21
307.776884
 31
0.0
  0
LINE
  5
325
330
1F
100
AcDbEntity
  8
002
 62
     3
370
    30
100
AcDbLine
 10
433.376017
 20
307.776884
 30
0.0
 11
433.376017
 21
302.776884
 31
0.0
  0
LINE
  5
326
330
1F
100
AcDbEntity
  8
002
 62
     3
370
    30
100
AcDbLine
 10
410.056417
 20
302.776884
 30
0.0
 11
410.056417
 21
307.776884
 31
0.0
  0
LINE
  5
327
330
1F
100
AcDbEntity
  8
002
 62
     3
370
    30
100
AcDbLine
 10
397.416417
 20
316.776884
 30
0.0
 11
438.016117
 21
316.776884
 31
0.0
  0
LINE
  5
328
330
1F
100
AcDbEntity
  8
002
 62
     3
370
    30
100
AcDbLine
 10
438.016117
 20
316.776884
 30
0.0
 11
438.016117
 21
307.776884
 31
0.0
  0
LINE
  5
329
330
1F
100
AcDbEntity
  8
002
 62
     3
370
    30
100
AcDbLine
 10
441.876017
 20
307.776884
 30
0.0
 11
433.376017
 21
307.776884
 31
0.0
  0
LINE
  5
32A
330
1F
100
AcDbEntity
  8
002
 62
     3
370
    30
100
AcDbLine
 10
437.416117
 20
316.776884
 30
0.0
 11
437.416117
 21
317.776884
 31
0.0
  0
LINE
  5
32B
330
1F
100
AcDbEntity
  8
002
 62
     3
370
    30
100
AcDbLine
 10
437.416117
 20
317.776884
 30
0.0
 11
450.889717
 21
319.792084
 31
0.0
  0
ARC
  5
32C
330
1F
100
AcDbEntity
  8
002
 62
     3
370
    30
100
AcDbCircle
 10
450.716117
 20
320.776884
 30
0.0
 40
1.000082481598389
100
AcDbArc
 50
279.997359
 51
80.003636
  0
LINE
  5
32D
330
1F
100
AcDbEntity
  8
002
 62
     3
370
    30
100
AcDbLine
 10
450.889717
 20
321.761784
 30
0.0
 11
440.042617
 21
322.792084
 31
0.0
  0
ARC
  5
32E
330
1F
100
AcDbEntity
  8
002
 62
     3
370
    30
100
AcDbCircle
 10
440.216117
 20
323.776884
 30
0.0
 40
0.9999666444437085
100
AcDbArc
 50
99.990722
 51
260.008284
  0
LINE
  5
32F
330
1F
100
AcDbEntity
  8
002
 62
     3
370
    30
100
AcDbLine
 10
440.042617
 20
324.761784
 30
0.0
 11
450.889717
 21
325.792084
 31
0.0
  0
ARC
  5
330
330
1F
100
AcDbEntity
  8
002
 62
     3
370
    30
100
AcDbCircle
 10
450.716117
 20
326.776884
 30
0.0
 40
1.000082481598389
100
AcDbArc
 50
279.997359
 51
80.003636
  0
LINE
  5
331
330
1F
100
AcDbEntity
  8
002
 62
     3
370
    30
100
AcDbLine
 10
450.889717
 20
327.761784
 30
0.0
 11
440.042617
 21
328.792084
 31
0.0
  0
ARC
  5
332
330
1F
100
AcDbEntity
  8
002
 62
     3
370
    30
100
AcDbCircle
 10
440.216117
 20
329.776884
 30
0.0
 40
0.9999666444437085
100
AcDbArc
 50
180.0
 51
260.008284
  0
LINE
  5
333
330
1F
100
AcDbEntity
  8
002
 62
     3
370
    30
100
AcDbLine
 10
438.216117
 20
329.776884
 30
0.0
 11
405.216417
 21
329.776884
 31
0.0
  0
LINE
  5
334
330
1F
100
AcDbEntity
  8
002
 62
     3
370
    30
100
AcDbLine
 10
403.389417
 20
328.792084
 30
0.0
 11
392.542417
 21
327.761784
 31
0.0
  0
ARC
  5
335
330
1F
100
AcDbEntity
  8
002
 62
     3
370
    30
100
AcDbCircle
 10
392.716417
 20
326.776884
 30
0.0
 40
1.000053518567884
100
AcDbArc
 50
100.018931
 51
259.980072
  0
LINE
  5
336
330
1F
100
AcDbEntity
  8
002
 62
     3
370
    30
100
AcDbLine
 10
392.542417
 20
325.792084
 30
0.0
 11
403.389417
 21
324.761784
 31
0.0
  0
ARC
  5
337
330
1F
100
AcDbEntity
  8
002
 62
     3
370
    30
100
AcDbCircle
 10
403.216417
 20
323.776884
 30
0.0
 40
0.99997850476896
100
AcDbArc
 50
279.963499
 51
80.037492
  0
LINE
  5
338
330
1F
100
AcDbEntity
  8
002
 62
     3
370
    30
100
AcDbLine
 10
403.389417
 20
322.792084
 30
0.0
 11
392.542417
 21
321.761784
 31
0.0
  0
ARC
  5
339
330
1F
100
AcDbEntity
  8
002
 62
     3
370
    30
100
AcDbCircle
 10
392.716417
 20
320.776884
 30
0.0
 40
1.000053518567884
100
AcDbArc
 50
100.018931
 51
259.980072
  0
LINE
  5
33A
330
1F
100
AcDbEntity
  8
002
 62
     3
370
    30
100
AcDbLine
 10
392.542417
 20
319.792084
 30
0.0
 11
406.016417
 21
317.776884
 31
0.0
  0
LINE
  5
33B
330
1F
100
AcDbEntity
  8
002
 62
     3
370
    30
100
AcDbLine
 10
438.216117
 20
323.776884
 30
0.0
 11
405.216417
 21
323.776884
 31
0.0
  0
ARC
  5
33C
330
1F
100
AcDbEntity
  8
002
 62
     3
370
    30
100
AcDbCircle
 10
403.216417
 20
329.776884
 30
0.0
 40
1.0
100
AcDbArc
 50
279.963499
 51
0.0
  0
LINE
  5
33D
330
1F
100
AcDbEntity
  8
002
 62
     3
370
    30
100
AcDbLine
 10
392.716417
 20
326.776884
 30
0.0
 11
450.716117
 21
326.776884
 31
0.0
  0
LINE
  5
33E
330
1F
100
AcDbEntity
  8
002
 62
     3
370
    30
100
AcDbLine
 10
450.716117
 20
320.776884
 30
0.0
 11
392.716417
 21
320.776884
 31
0.0
  0
CIRCLE
  5
33F
330
1F
100
AcDbEntity
  8
002
 62
     3
370
    30
100
AcDbCircle
 10
400.416417
 20
310.276884
 30
0.0
 40
1.0
  0
LINE
  5
340
330
1F
100
AcDbEntity
  8
002
 62
     3
370
    30
100
AcDbLine
 10
401.556417
 20
307.776884
 30
0.0
 11
410.056417
 21
307.776884
 31
0.0
  0
LINE
  5
341
330
1F
100
AcDbEntity
  8
002
 62
     3
370
    30
100
AcDbLine
 10
405.416417
 20
307.776884
 30
0.0
 11
405.416417
 21
316.776884
 31
0.0
  0
LINE
  5
342
330
1F
100
AcDbEntity
  8
002
 62
     3
370
    30
100
AcDbLine
 10
406.016417
 20
316.776884
 30
0.0
 11
406.016417
 21
317.776884
 31
0.0
  0
LINE
  5
343
330
1F
100
AcDbEntity
  8
002
  6
CENTER
 62
    40
370
     9
100
AcDbLine
 10
437.626017
 20
310.498484
 30
0.0
 11
437.626017
 21
296.776884
 31
0.0
  0
LINE
  5
344
330
1F
100
AcDbEntity
  8
002
  6
CENTER
 62
    40
370
     9
100
AcDbLine
 10
405.806417
 20
310.498484
 30
0.0
 11
405.806417
 21
296.776884
 31
0.0
  0
LINE
  5
345
330
1F
100
AcDbEntity
  8
002
  6
CENTER
 62
    40
370
     9
100
AcDbLine
 10
398.048417
 20
310.276884
 30
0.0
 11
403.073417
 21
310.276884
 31
0.0
  0
LINE
  5
346
330
1F
100
AcDbEntity
  8
002
  6
CENTER
 62
    40
370
     9
100
AcDbLine
 10
400.416417
 20
307.024684
 30
0.0
 11
400.416417
 21
313.784684
 31
0.0
  0
LINE
  5
347
330
1F
100
AcDbEntity
  8
002
 62
     3
370
    30
100
AcDbLine
 10
433.376017
 20
304.776884
 30
0.0
 11
410.056417
 21
304.776884
 31
0.0
  0
LINE
  5
348
330
1F
100
AcDbEntity
  8
002
 62
     3
370
    30
100
AcDbLine
 10
401.556417
 20
307.776884
 30
0.0
 11
401.556417
 21
302.776884
 31
0.0
  0
LINE
  5
349
330
1F
100
AcDbEntity
  8
002
 62
     3
370
    30
100
AcDbLine
 10
401.556417
 20
304.776884
 30
0.0
 11
397.416417
 21
304.776884
 31
0.0
  0
ARC
  5
34A
330
1F
100
AcDbEntity
  8
002
 62
     3
370
    30
100
AcDbCircle
 10
397.416417
 20
314.776884
 30
0.0
 40
2.0
100
AcDbArc
 50
90.0
 51
180.0
  0
ARC
  5
34B
330
1F
100
AcDbEntity
  8
002
 62
     3
370
    30
100
AcDbCircle
 10
397.416417
 20
306.776884
 30
0.0
 40
2.0
100
AcDbArc
 50
180.0
 51
270.0
  0
LINE
  5
34C
330
1F
100
AcDbEntity
  8
002
 62
     3
370
    30
100
AcDbLine
 10
395.416417
 20
306.776884
 30
0.0
 11
395.416417
 21
314.776884
 31
0.0
  0
LINE
  5
34D
330
1F
100
AcDbEntity
  8
002
  6
PHANTOM
 62
    40
370
     9
100
AcDbLine
 10
439.216117
 20
329.776884
 30
0.0
 11
439.216117
 21
387.776884
 31
0.0
  0
LINE
  5
34E
330
1F
100
AcDbEntity
  8
002
  6
PHANTOM
 62
    40
370
     9
100
AcDbLine
 10
404.216417
 20
387.776884
 30
0.0
 11
404.216417
 21
329.776884
 31
0.0
  0
LINE
  5
34F
330
1F
100
AcDbEntity
  8
002
  6
PHANTOM
 62
    40
370
     9
100
AcDbLine
 10
391.716417
 20
326.776884
 30
0.0
 11
391.716417
 21
390.776884
 31
0.0
  0
LINE
  5
350
330
1F
100
AcDbEntity
  8
002
  6
PHANTOM
 62
    40
370
     9
100
AcDbLine
 10
451.716117
 20
390.776884
 30
0.0
 11
451.716117
 21
326.776884
 31
0.0
  0
POLYLINE
  5
351
330
1F
100
AcDbEntity
  8
002
 62
     3
370
     9
100
AcDb2dPolyline
 66
     1
 10
0.0
 20
0.0
 30
0.0
  0
VERTEX
  5
353
330
351
100
AcDbEntity
  8
002
 62
     3
370
     9
100
AcDbVertex
100
AcDb2dVertex
 10
150.878518
 20
108.276884
 30
0.0
  0
VERTEX
  5
354
330
351
100
AcDbEntity
  8
002
 62
     3
370
     9
100
AcDbVertex
100
AcDb2dVertex
 10
152.878518
 20
106.808134
 30
0.0
  0
VERTEX
  5
355
330
351
100
AcDbEntity
  8
002
 62
     3
370
     9
100
AcDbVertex
100
AcDb2dVertex
 10
154.878518
 20
105.526884
 30
0.0
  0
VERTEX
  5
356
330
351
100
AcDbEntity
  8
002
 62
     3
370
     9
100
AcDbVertex
100
AcDb2dVertex
 10
156.878518
 20
104.620634
 30
0.0
  0
VERTEX
  5
357
330
351
100
AcDbEntity
  8
002
 62
     3
370
     9
100
AcDbVertex
100
AcDb2dVertex
 10
158.878518
 20
104.276884
 30
0.0
  0
VERTEX
  5
358
330
351
100
AcDbEntity
  8
002
 62
     3
370
     9
100
AcDbVertex
100
AcDb2dVertex
 10
160.878518
 20
104.620634
 30
0.0
  0
VERTEX
  5
359
330
351
100
AcDbEntity
  8
002
 62
     3
370
     9
100
AcDbVertex
100
AcDb2dVertex
 10
162.878518
 20
105.526884
 30
0.0
  0
VERTEX
  5
35A
330
351
100
AcDbEntity
  8
002
 62
     3
370
     9
100
AcDbVertex
100
AcDb2dVertex
 10
164.878518
 20
106.808134
 30
0.0
  0
VERTEX
  5
35B
330
351
100
AcDbEntity
  8
002
 62
     3
370
     9
100
AcDbVertex
100
AcDb2dVertex
 10
166.878518
 20
108.276884
 30
0.0
  0
VERTEX
  5
35C
330
351
100
AcDbEntity
  8
002
 62
     3
370
     9
100
AcDbVertex
100
AcDb2dVertex
 10
168.878518
 20
109.745634
 30
0.0
  0
VERTEX
  5
35D
330
351
100
AcDbEntity
  8
002
 62
     3
370
     9
100
AcDbVertex
100
AcDb2dVertex
 10
170.878518
 20
111.026884
 30
0.0
  0
VERTEX
  5
35E
330
351
100
AcDbEntity
  8
002
 62
     3
370
     9
100
AcDbVertex
100
AcDb2dVertex
 10
172.878518
 20
111.933134
 30
0.0
  0
VERTEX
  5
35F
330
351
100
AcDbEntity
  8
002
 62
     3
370
     9
100
AcDbVertex
100
AcDb2dVertex
 10
174.878518
 20
112.276884
 30
0.0
  0
VERTEX
  5
360
330
351
100
AcDbEntity
  8
002
 62
     3
370
     9
100
AcDbVertex
100
AcDb2dVertex
 10
176.878518
 20
111.933134
 30
0.0
  0
VERTEX
  5
361
330
351
100
AcDbEntity
  8
002
 62
     3
370
     9
100
AcDbVertex
100
AcDb2dVertex
 10
178.878518
 20
111.026884
 30
0.0
  0
VERTEX
  5
362
330
351
100
AcDbEntity
  8
002
 62
     3
370
     9
100
AcDbVertex
100
AcDb2dVertex
 10
180.878518
 20
109.745634
 30
0.0
  0
VERTEX
  5
363
330
351
100
AcDbEntity
  8
002
 62
     3
370
     9
100
AcDbVertex
100
AcDb2dVertex
 10
182.878518
 20
108.276884
 30
0.0
  0
SEQEND
  5
352
330
351
100
AcDbEntity
  8
002
370
     9
  0
POLYLINE
  5
364
330
1F
100
AcDbEntity
  8
002
 62
     3
370
     9
100
AcDb2dPolyline
 66
     1
 10
0.0
 20
0.0
 30
0.0
  0
VERTEX
  5
366
330
364
100
AcDbEntity
  8
002
 62
     3
370
     9
100
AcDbVertex
100
AcDb2dVertex
 10
150.878518
 20
116.276884
 30
0.0
  0
VERTEX
  5
367
330
364
100
AcDbEntity
  8
002
 62
     3
370
     9
100
AcDbVertex
100
AcDb2dVertex
 10
152.878518
 20
114.808134
 30
0.0
  0
VERTEX
  5
368
330
364
100
AcDbEntity
  8
002
 62
     3
370
     9
100
AcDbVertex
100
AcDb2dVertex
 10
154.878518
 20
113.526884
 30
0.0
  0
VERTEX
  5
369
330
364
100
AcDbEntity
  8
002
 62
     3
370
     9
100
AcDbVertex
100
AcDb2dVertex
 10
156.878518
 20
112.620634
 30
0.0
  0
VERTEX
  5
36A
330
364
100
AcDbEntity
  8
002
 62
     3
370
     9
100
AcDbVertex
100
AcDb2dVertex
 10
158.878518
 20
112.276884
 30
0.0
  0
VERTEX
  5
36B
330
364
100
AcDbEntity
  8
002
 62
     3
370
     9
100
AcDbVertex
100
AcDb2dVertex
 10
160.878518
 20
112.620634
 30
0.0
  0
VERTEX
  5
36C
330
364
100
AcDbEntity
  8
002
 62
     3
370
     9
100
AcDbVertex
100
AcDb2dVertex
 10
162.878518
 20
113.526884
 30
0.0
  0
VERTEX
  5
36D
330
364
100
AcDbEntity
  8
002
 62
     3
370
     9
100
AcDbVertex
100
AcDb2dVertex
 10
164.878518
 20
114.808134
 30
0.0
  0
VERTEX
  5
36E
330
364
100
AcDbEntity
  8
002
 62
     3
370
     9
100
AcDbVertex
100
AcDb2dVertex
 10
166.878518
 20
116.276884
 30
0.0
  0
VERTEX
  5
36F
330
364
100
AcDbEntity
  8
002
 62
     3
370
     9
100
AcDbVertex
100
AcDb2dVertex
 10
168.878518
 20
117.745634
 30
0.0
  0
VERTEX
  5
370
330
364
100
AcDbEntity
  8
002
 62
     3
370
     9
100
AcDbVertex
100
AcDb2dVertex
 10
170.878518
 20
119.026884
 30
0.0
  0
VERTEX
  5
371
330
364
100
AcDbEntity
  8
002
 62
     3
370
     9
100
AcDbVertex
100
AcDb2dVertex
 10
172.878518
 20
119.933134
 30
0.0
  0
VERTEX
  5
372
330
364
100
AcDbEntity
  8
002
 62
     3
370
     9
100
AcDbVertex
100
AcDb2dVertex
 10
174.878518
 20
120.276884
 30
0.0
  0
VERTEX
  5
373
330
364
100
AcDbEntity
  8
002
 62
     3
370
     9
100
AcDbVertex
100
AcDb2dVertex
 10
176.878518
 20
119.933134
 30
0.0
  0
VERTEX
  5
374
330
364
100
AcDbEntity
  8
002
 62
     3
370
     9
100
AcDbVertex
100
AcDb2dVertex
 10
178.878518
 20
119.026884
 30
0.0
  0
VERTEX
  5
375
330
364
100
AcDbEntity
  8
002
 62
     3
370
     9
100
AcDbVertex
100
AcDb2dVertex
 10
180.878518
 20
117.745634
 30
0.0
  0
VERTEX
  5
376
330
364
100
AcDbEntity
  8
002
 62
     3
370
     9
100
AcDbVertex
100
AcDb2dVertex
 10
182.878518
 20
116.276884
 30
0.0
  0
SEQEND
  5
365
330
364
100
AcDbEntity
  8
002
370
     9
  0
LINE
  5
377
330
1F
100
AcDbEntity
  8
002
 62
     3
370
    30
100
AcDbLine
 10
182.878518
 20
69.776884
 30
0.0
 11
182.878518
 21
108.276884
 31
0.0
  0
LINE
  5
378
330
1F
100
AcDbEntity
  8
002
 62
     3
370
    30
100
AcDbLine
 10
182.878518
 20
116.276884
 30
0.0
 11
182.878518
 21
154.776884
 31
0.0
  0
LINE
  5
379
330
1F
100
AcDbEntity
  8
002
 62
     3
370
    30
100
AcDbLine
 10
150.878518
 20
154.776884
 30
0.0
 11
150.878518
 21
116.276884
 31
0.0
  0
LINE
  5
37A
330
1F
100
AcDbEntity
  8
002
 62
     3
370
    30
100
AcDbLine
 10
150.878518
 20
108.276884
 30
0.0
 11
150.878518
 21
69.776884
 31
0.0
  0
POLYLINE
  5
37B
330
1F
100
AcDbEntity
  8
002
 62
     3
370
     9
100
AcDb2dPolyline
 66
     1
 10
0.0
 20
0.0
 30
0.0
  0
VERTEX
  5
37D
330
37B
100
AcDbEntity
  8
002
 62
     3
370
     9
100
AcDbVertex
100
AcDb2dVertex
 10
156.878518
 20
353.276884
 30
0.0
  0
VERTEX
  5
37E
330
37B
100
AcDbEntity
  8
002
 62
     3
370
     9
100
AcDbVertex
100
AcDb2dVertex
 10
158.545184
 20
351.350958
 30
0.0
  0
VERTEX
  5
37F
330
37B
100
AcDbEntity
  8
002
 62
     3
370
     9
100
AcDbVertex
100
AcDb2dVertex
 10
160.211851
 20
349.869476
 30
0.0
  0
VERTEX
  5
380
330
37B
100
AcDbEntity
  8
002
 62
     3
370
     9
100
AcDbVertex
100
AcDb2dVertex
 10
161.878518
 20
349.276884
 30
0.0
  0
VERTEX
  5
381
330
37B
100
AcDbEntity
  8
002
 62
     3
370
     9
100
AcDbVertex
100
AcDb2dVertex
 10
163.545184
 20
349.869476
 30
0.0
  0
VERTEX
  5
382
330
37B
100
AcDbEntity
  8
002
 62
     3
370
     9
100
AcDbVertex
100
AcDb2dVertex
 10
165.211851
 20
351.350958
 30
0.0
  0
VERTEX
  5
383
330
37B
100
AcDbEntity
  8
002
 62
     3
370
     9
100
AcDbVertex
100
AcDb2dVertex
 10
166.878518
 20
353.276884
 30
0.0
  0
VERTEX
  5
384
330
37B
100
AcDbEntity
  8
002
 62
     3
370
     9
100
AcDbVertex
100
AcDb2dVertex
 10
168.545184
 20
355.20281
 30
0.0
  0
VERTEX
  5
385
330
37B
100
AcDbEntity
  8
002
 62
     3
370
     9
100
AcDbVertex
100
AcDb2dVertex
 10
170.211851
 20
356.684291
 30
0.0
  0
VERTEX
  5
386
330
37B
100
AcDbEntity
  8
002
 62
     3
370
     9
100
AcDbVertex
100
AcDb2dVertex
 10
171.878518
 20
357.276884
 30
0.0
  0
VERTEX
  5
387
330
37B
100
AcDbEntity
  8
002
 62
     3
370
     9
100
AcDbVertex
100
AcDb2dVertex
 10
173.545184
 20
356.684291
 30
0.0
  0
VERTEX
  5
388
330
37B
100
AcDbEntity
  8
002
 62
     3
370
     9
100
AcDbVertex
100
AcDb2dVertex
 10
175.211851
 20
355.20281
 30
0.0
  0
VERTEX
  5
389
330
37B
100
AcDbEntity
  8
002
 62
     3
370
     9
100
AcDbVertex
100
AcDb2dVertex
 10
176.878518
 20
353.276884
 30
0.0
  0
SEQEND
  5
37C
330
37B
100
AcDbEntity
  8
002
370
     9
  0
POLYLINE
  5
38A
330
1F
100
AcDbEntity
  8
002
 62
     3
370
     9
100
AcDb2dPolyline
 66
     1
 10
0.0
 20
0.0
 30
0.0
  0
VERTEX
  5
38C
330
38A
100
AcDbEntity
  8
002
 62
     3
370
     9
100
AcDbVertex
100
AcDb2dVertex
 10
156.878518
 20
361.276884
 30
0.0
  0
VERTEX
  5
38D
330
38A
100
AcDbEntity
  8
002
 62
     3
370
     9
100
AcDbVertex
100
AcDb2dVertex
 10
158.545184
 20
359.350958
 30
0.0
  0
VERTEX
  5
38E
330
38A
100
AcDbEntity
  8
002
 62
     3
370
     9
100
AcDbVertex
100
AcDb2dVertex
 10
160.211851
 20
357.869476
 30
0.0
  0
VERTEX
  5
38F
330
38A
100
AcDbEntity
  8
002
 62
     3
370
     9
100
AcDbVertex
100
AcDb2dVertex
 10
161.878518
 20
357.276884
 30
0.0
  0
VERTEX
  5
390
330
38A
100
AcDbEntity
  8
002
 62
     3
370
     9
100
AcDbVertex
100
AcDb2dVertex
 10
163.545184
 20
357.869476
 30
0.0
  0
VERTEX
  5
391
330
38A
100
AcDbEntity
  8
002
 62
     3
370
     9
100
AcDbVertex
100
AcDb2dVertex
 10
165.211851
 20
359.350958
 30
0.0
  0
VERTEX
  5
392
330
38A
100
AcDbEntity
  8
002
 62
     3
370
     9
100
AcDbVertex
100
AcDb2dVertex
 10
166.878518
 20
361.276884
 30
0.0
  0
VERTEX
  5
393
330
38A
100
AcDbEntity
  8
002
 62
     3
370
     9
100
AcDbVertex
100
AcDb2dVertex
 10
168.545184
 20
363.20281
 30
0.0
  0
VERTEX
  5
394
330
38A
100
AcDbEntity
  8
002
 62
     3
370
     9
100
AcDbVertex
100
AcDb2dVertex
 10
170.211851
 20
364.684291
 30
0.0
  0
VERTEX
  5
395
330
38A
100
AcDbEntity
  8
002
 62
     3
370
     9
100
AcDbVertex
100
AcDb2dVertex
 10
171.878518
 20
365.276884
 30
0.0
  0
VERTEX
  5
396
330
38A
100
AcDbEntity
  8
002
 62
     3
370
     9
100
AcDbVertex
100
AcDb2dVertex
 10
173.545184
 20
364.684291
 30
0.0
  0
VERTEX
  5
397
330
38A
100
AcDbEntity
  8
002
 62
     3
370
     9
100
AcDbVertex
100
AcDb2dVertex
 10
175.211851
 20
363.20281
 30
0.0
  0
VERTEX
  5
398
330
38A
100
AcDbEntity
  8
002
 62
     3
370
     9
100
AcDbVertex
100
AcDb2dVertex
 10
176.878518
 20
361.276884
 30
0.0
  0
SEQEND
  5
38B
330
38A
100
AcDbEntity
  8
002
370
     9
  0
LINE
  5
399
330
1F
100
AcDbEntity
  8
002
  6
CENTER
 62
    40
370
     9
100
AcDbLine
 10
174.878518
 20
416.974027
 30
0.0
 11
174.878518
 21
363.548884
 31
0.0
  0
LINE
  5
39A
330
1F
100
AcDbEntity
  8
002
  6
CENTER
 62
    40
370
     9
100
AcDbLine
 10
174.878518
 20
355.548884
 30
0.0
 11
174.878518
 21
299.776884
 31
0.0
  0
LINE
  5
39B
330
1F
100
AcDbEntity
  8
002
 62
    40
370
     9
100
AcDbLine
 10
172.878518
 20
414.776884
 30
0.0
 11
172.878518
 21
365.052884
 31
0.0
  0
LINE
  5
39C
330
1F
100
AcDbEntity
  8
002
 62
    40
370
     9
100
AcDbLine
 10
172.878518
 20
357.052884
 30
0.0
 11
172.878518
 21
299.776884
 31
0.0
  0
LINE
  5
39D
330
1F
100
AcDbEntity
  8
002
 62
     3
370
    30
100
AcDbLine
 10
156.878518
 20
414.776884
 30
0.0
 11
156.878518
 21
361.276884
 31
0.0
  0
LINE
  5
39E
330
1F
100
AcDbEntity
  8
002
 62
     3
370
    30
100
AcDbLine
 10
156.878518
 20
353.276884
 30
0.0
 11
156.878518
 21
299.776884
 31
0.0
  0
LINE
  5
39F
330
1F
100
AcDbEntity
  8
002
 62
     3
370
    30
100
AcDbLine
 10
176.878518
 20
414.776884
 30
0.0
 11
176.878518
 21
361.276884
 31
0.0
  0
LINE
  5
3A0
330
1F
100
AcDbEntity
  8
002
 62
     3
370
    30
100
AcDbLine
 10
176.878518
 20
353.276884
 30
0.0
 11
176.878518
 21
299.776884
 31
0.0
  0
POLYLINE
  5
3A1
330
1F
100
AcDbEntity
  8
002
 62
     3
370
     9
100
AcDb2dPolyline
 66
     1
 10
0.0
 20
0.0
 30
0.0
  0
VERTEX
  5
3A3
330
3A1
100
AcDbEntity
  8
002
 62
     3
370
     9
100
AcDbVertex
100
AcDb2dVertex
 10
405.716417
 20
108.276884
 30
0.0
  0
VERTEX
  5
3A4
330
3A1
100
AcDbEntity
  8
002
 62
     3
370
     9
100
AcDbVertex
100
AcDb2dVertex
 10
407.716417
 20
106.808134
 30
0.0
  0
VERTEX
  5
3A5
330
3A1
100
AcDbEntity
  8
002
 62
     3
370
     9
100
AcDbVertex
100
AcDb2dVertex
 10
409.716417
 20
105.526884
 30
0.0
  0
VERTEX
  5
3A6
330
3A1
100
AcDbEntity
  8
002
 62
     3
370
     9
100
AcDbVertex
100
AcDb2dVertex
 10
411.716417
 20
104.620634
 30
0.0
  0
VERTEX
  5
3A7
330
3A1
100
AcDbEntity
  8
002
 62
     3
370
     9
100
AcDbVertex
100
AcDb2dVertex
 10
413.716417
 20
104.276884
 30
0.0
  0
VERTEX
  5
3A8
330
3A1
100
AcDbEntity
  8
002
 62
     3
370
     9
100
AcDbVertex
100
AcDb2dVertex
 10
415.716417
 20
104.620634
 30
0.0
  0
VERTEX
  5
3A9
330
3A1
100
AcDbEntity
  8
002
 62
     3
370
     9
100
AcDbVertex
100
AcDb2dVertex
 10
417.716417
 20
105.526884
 30
0.0
  0
VERTEX
  5
3AA
330
3A1
100
AcDbEntity
  8
002
 62
     3
370
     9
100
AcDbVertex
100
AcDb2dVertex
 10
419.716417
 20
106.808134
 30
0.0
  0
VERTEX
  5
3AB
330
3A1
100
AcDbEntity
  8
002
 62
     3
370
     9
100
AcDbVertex
100
AcDb2dVertex
 10
421.716417
 20
108.276884
 30
0.0
  0
VERTEX
  5
3AC
330
3A1
100
AcDbEntity
  8
002
 62
     3
370
     9
100
AcDbVertex
100
AcDb2dVertex
 10
423.716417
 20
109.745634
 30
0.0
  0
VERTEX
  5
3AD
330
3A1
100
AcDbEntity
  8
002
 62
     3
370
     9
100
AcDbVertex
100
AcDb2dVertex
 10
425.716417
 20
111.026884
 30
0.0
  0
VERTEX
  5
3AE
330
3A1
100
AcDbEntity
  8
002
 62
     3
370
     9
100
AcDbVertex
100
AcDb2dVertex
 10
427.716417
 20
111.933134
 30
0.0
  0
VERTEX
  5
3AF
330
3A1
100
AcDbEntity
  8
002
 62
     3
370
     9
100
AcDbVertex
100
AcDb2dVertex
 10
429.716417
 20
112.276884
 30
0.0
  0
VERTEX
  5
3B0
330
3A1
100
AcDbEntity
  8
002
 62
     3
370
     9
100
AcDbVertex
100
AcDb2dVertex
 10
431.716417
 20
111.933134
 30
0.0
  0
VERTEX
  5
3B1
330
3A1
100
AcDbEntity
  8
002
 62
     3
370
     9
100
AcDbVertex
100
AcDb2dVertex
 10
433.716417
 20
111.026884
 30
0.0
  0
VERTEX
  5
3B2
330
3A1
100
AcDbEntity
  8
002
 62
     3
370
     9
100
AcDbVertex
100
AcDb2dVertex
 10
435.716417
 20
109.745634
 30
0.0
  0
VERTEX
  5
3B3
330
3A1
100
AcDbEntity
  8
002
 62
     3
370
     9
100
AcDbVertex
100
AcDb2dVertex
 10
437.716417
 20
108.276884
 30
0.0
  0
SEQEND
  5
3A2
330
3A1
100
AcDbEntity
  8
002
370
     9
  0
POLYLINE
  5
3B4
330
1F
100
AcDbEntity
  8
002
 62
     3
370
     9
100
AcDb2dPolyline
 66
     1
 10
0.0
 20
0.0
 30
0.0
  0
VERTEX
  5
3B6
330
3B4
100
AcDbEntity
  8
002
 62
     3
370
     9
100
AcDbVertex
100
AcDb2dVertex
 10
405.716417
 20
116.276884
 30
0.0
  0
VERTEX
  5
3B7
330
3B4
100
AcDbEntity
  8
002
 62
     3
370
     9
100
AcDbVertex
100
AcDb2dVertex
 10
407.716417
 20
114.808134
 30
0.0
  0
VERTEX
  5
3B8
330
3B4
100
AcDbEntity
  8
002
 62
     3
370
     9
100
AcDbVertex
100
AcDb2dVertex
 10
409.716417
 20
113.526884
 30
0.0
  0
VERTEX
  5
3B9
330
3B4
100
AcDbEntity
  8
002
 62
     3
370
     9
100
AcDbVertex
100
AcDb2dVertex
 10
411.716417
 20
112.620634
 30
0.0
  0
VERTEX
  5
3BA
330
3B4
100
AcDbEntity
  8
002
 62
     3
370
     9
100
AcDbVertex
100
AcDb2dVertex
 10
413.716417
 20
112.276884
 30
0.0
  0
VERTEX
  5
3BB
330
3B4
100
AcDbEntity
  8
002
 62
     3
370
     9
100
AcDbVertex
100
AcDb2dVertex
 10
415.716417
 20
112.620634
 30
0.0
  0
VERTEX
  5
3BC
330
3B4
100
AcDbEntity
  8
002
 62
     3
370
     9
100
AcDbVertex
100
AcDb2dVertex
 10
417.716417
 20
113.526884
 30
0.0
  0
VERTEX
  5
3BD
330
3B4
100
AcDbEntity
  8
002
 62
     3
370
     9
100
AcDbVertex
100
AcDb2dVertex
 10
419.716417
 20
114.808134
 30
0.0
  0
VERTEX
  5
3BE
330
3B4
100
AcDbEntity
  8
002
 62
     3
370
     9
100
AcDbVertex
100
AcDb2dVertex
 10
421.716417
 20
116.276884
 30
0.0
  0
VERTEX
  5
3BF
330
3B4
100
AcDbEntity
  8
002
 62
     3
370
     9
100
AcDbVertex
100
AcDb2dVertex
 10
423.716417
 20
117.745634
 30
0.0
  0
VERTEX
  5
3C0
330
3B4
100
AcDbEntity
  8
002
 62
     3
370
     9
100
AcDbVertex
100
AcDb2dVertex
 10
425.716417
 20
119.026884
 30
0.0
  0
VERTEX
  5
3C1
330
3B4
100
AcDbEntity
  8
002
 62
     3
370
     9
100
AcDbVertex
100
AcDb2dVertex
 10
427.716417
 20
119.933134
 30
0.0
  0
VERTEX
  5
3C2
330
3B4
100
AcDbEntity
  8
002
 62
     3
370
     9
100
AcDbVertex
100
AcDb2dVertex
 10
429.716417
 20
120.276884
 30
0.0
  0
VERTEX
  5
3C3
330
3B4
100
AcDbEntity
  8
002
 62
     3
370
     9
100
AcDbVertex
100
AcDb2dVertex
 10
431.716417
 20
119.933134
 30
0.0
  0
VERTEX
  5
3C4
330
3B4
100
AcDbEntity
  8
002
 62
     3
370
     9
100
AcDbVertex
100
AcDb2dVertex
 10
433.716417
 20
119.026884
 30
0.0
  0
VERTEX
  5
3C5
330
3B4
100
AcDbEntity
  8
002
 62
     3
370
     9
100
AcDbVertex
100
AcDb2dVertex
 10
435.716417
 20
117.745634
 30
0.0
  0
VERTEX
  5
3C6
330
3B4
100
AcDbEntity
  8
002
 62
     3
370
     9
100
AcDbVertex
100
AcDb2dVertex
 10
437.716417
 20
116.276884
 30
0.0
  0
SEQEND
  5
3B5
330
3B4
100
AcDbEntity
  8
002
370
     9
  0
LINE
  5
3C7
330
1F
100
AcDbEntity
  8
002
 62
     3
370
    30
100
AcDbLine
 10
437.716417
 20
69.776884
 30
0.0
 11
437.716417
 21
108.276884
 31
0.0
  0
LINE
  5
3C8
330
1F
100
AcDbEntity
  8
002
 62
     3
370
    30
100
AcDbLine
 10
437.716417
 20
116.276884
 30
0.0
 11
437.716417
 21
154.776884
 31
0.0
  0
LINE
  5
3C9
330
1F
100
AcDbEntity
  8
002
 62
     3
370
    30
100
AcDbLine
 10
405.716417
 20
154.776884
 30
0.0
 11
405.716417
 21
116.276884
 31
0.0
  0
LINE
  5
3CA
330
1F
100
AcDbEntity
  8
002
 62
     3
370
    30
100
AcDbLine
 10
405.716417
 20
108.276884
 30
0.0
 11
405.716417
 21
69.776884
 31
0.0
  0
POLYLINE
  5
3CB
330
1F
100
AcDbEntity
  8
002
 62
     3
370
     9
100
AcDb2dPolyline
 66
     1
 10
0.0
 20
0.0
 30
0.0
  0
VERTEX
  5
3CD
330
3CB
100
AcDbEntity
  8
002
 62
     3
370
     9
100
AcDbVertex
100
AcDb2dVertex
 10
622.44969
 20
138.276884
 30
0.0
  0
VERTEX
  5
3CE
330
3CB
100
AcDbEntity
  8
002
 62
     3
370
     9
100
AcDbVertex
100
AcDb2dVertex
 10
624.116357
 20
136.350958
 30
0.0
  0
VERTEX
  5
3CF
330
3CB
100
AcDbEntity
  8
002
 62
     3
370
     9
100
AcDbVertex
100
AcDb2dVertex
 10
625.783023
 20
134.869476
 30
0.0
  0
VERTEX
  5
3D0
330
3CB
100
AcDbEntity
  8
002
 62
     3
370
     9
100
AcDbVertex
100
AcDb2dVertex
 10
627.44969
 20
134.276884
 30
0.0
  0
VERTEX
  5
3D1
330
3CB
100
AcDbEntity
  8
002
 62
     3
370
     9
100
AcDbVertex
100
AcDb2dVertex
 10
629.116357
 20
134.869476
 30
0.0
  0
VERTEX
  5
3D2
330
3CB
100
AcDbEntity
  8
002
 62
     3
370
     9
100
AcDbVertex
100
AcDb2dVertex
 10
630.783023
 20
136.350958
 30
0.0
  0
VERTEX
  5
3D3
330
3CB
100
AcDbEntity
  8
002
 62
     3
370
     9
100
AcDbVertex
100
AcDb2dVertex
 10
632.44969
 20
138.276884
 30
0.0
  0
VERTEX
  5
3D4
330
3CB
100
AcDbEntity
  8
002
 62
     3
370
     9
100
AcDbVertex
100
AcDb2dVertex
 10
634.116357
 20
140.20281
 30
0.0
  0
VERTEX
  5
3D5
330
3CB
100
AcDbEntity
  8
002
 62
     3
370
     9
100
AcDbVertex
100
AcDb2dVertex
 10
635.783023
 20
141.684291
 30
0.0
  0
VERTEX
  5
3D6
330
3CB
100
AcDbEntity
  8
002
 62
     3
370
     9
100
AcDbVertex
100
AcDb2dVertex
 10
637.44969
 20
142.276884
 30
0.0
  0
VERTEX
  5
3D7
330
3CB
100
AcDbEntity
  8
002
 62
     3
370
     9
100
AcDbVertex
100
AcDb2dVertex
 10
639.116357
 20
141.684291
 30
0.0
  0
VERTEX
  5
3D8
330
3CB
100
AcDbEntity
  8
002
 62
     3
370
     9
100
AcDbVertex
100
AcDb2dVertex
 10
640.783023
 20
140.20281
 30
0.0
  0
VERTEX
  5
3D9
330
3CB
100
AcDbEntity
  8
002
 62
     3
370
     9
100
AcDbVertex
100
AcDb2dVertex
 10
642.44969
 20
138.276884
 30
0.0
  0
SEQEND
  5
3CC
330
3CB
100
AcDbEntity
  8
002
370
     9
  0
POLYLINE
  5
3DA
330
1F
100
AcDbEntity
  8
002
 62
     3
370
     9
100
AcDb2dPolyline
 66
     1
 10
0.0
 20
0.0
 30
0.0
  0
VERTEX
  5
3DC
330
3DA
100
AcDbEntity
  8
002
 62
     3
370
     9
100
AcDbVertex
100
AcDb2dVertex
 10
622.44969
 20
146.276884
 30
0.0
  0
VERTEX
  5
3DD
330
3DA
100
AcDbEntity
  8
002
 62
     3
370
     9
100
AcDbVertex
100
AcDb2dVertex
 10
624.116357
 20
144.350958
 30
0.0
  0
VERTEX
  5
3DE
330
3DA
100
AcDbEntity
  8
002
 62
     3
370
     9
100
AcDbVertex
100
AcDb2dVertex
 10
625.783023
 20
142.869476
 30
0.0
  0
VERTEX
  5
3DF
330
3DA
100
AcDbEntity
  8
002
 62
     3
370
     9
100
AcDbVertex
100
AcDb2dVertex
 10
627.44969
 20
142.276884
 30
0.0
  0
VERTEX
  5
3E0
330
3DA
100
AcDbEntity
  8
002
 62
     3
370
     9
100
AcDbVertex
100
AcDb2dVertex
 10
629.116357
 20
142.869476
 30
0.0
  0
VERTEX
  5
3E1
330
3DA
100
AcDbEntity
  8
002
 62
     3
370
     9
100
AcDbVertex
100
AcDb2dVertex
 10
630.783023
 20
144.350958
 30
0.0
  0
VERTEX
  5
3E2
330
3DA
100
AcDbEntity
  8
002
 62
     3
370
     9
100
AcDbVertex
100
AcDb2dVertex
 10
632.44969
 20
146.276884
 30
0.0
  0
VERTEX
  5
3E3
330
3DA
100
AcDbEntity
  8
002
 62
     3
370
     9
100
AcDbVertex
100
AcDb2dVertex
 10
634.116357
 20
148.20281
 30
0.0
  0
VERTEX
  5
3E4
330
3DA
100
AcDbEntity
  8
002
 62
     3
370
     9
100
AcDbVertex
100
AcDb2dVertex
 10
635.783023
 20
149.684291
 30
0.0
  0
VERTEX
  5
3E5
330
3DA
100
AcDbEntity
  8
002
 62
     3
370
     9
100
AcDbVertex
100
AcDb2dVertex
 10
637.44969
 20
150.276884
 30
0.0
  0
VERTEX
  5
3E6
330
3DA
100
AcDbEntity
  8
002
 62
     3
370
     9
100
AcDbVertex
100
AcDb2dVertex
 10
639.116357
 20
149.684291
 30
0.0
  0
VERTEX
  5
3E7
330
3DA
100
AcDbEntity
  8
002
 62
     3
370
     9
100
AcDbVertex
100
AcDb2dVertex
 10
640.783023
 20
148.20281
 30
0.0
  0
VERTEX
  5
3E8
330
3DA
100
AcDbEntity
  8
002
 62
     3
370
     9
100
AcDbVertex
100
AcDb2dVertex
 10
642.44969
 20
146.276884
 30
0.0
  0
SEQEND
  5
3DB
330
3DA
100
AcDbEntity
  8
002
370
     9
  0
LINE
  5
3E9
330
1F
100
AcDbEntity
  8
002
  6
CENTER
 62
    40
370
     9
100
AcDbLine
 10
640.44969
 20
82.57974
 30
0.0
 11
640.44969
 21
140.548884
 31
0.0
  0
LINE
  5
3EA
330
1F
100
AcDbEntity
  8
002
  6
CENTER
 62
    40
370
     9
100
AcDbLine
 10
640.44969
 20
148.548884
 30
0.0
 11
640.44969
 21
199.776884
 31
0.0
  0
LINE
  5
3EB
330
1F
100
AcDbEntity
  8
002
 62
    40
370
     9
100
AcDbLine
 10
638.44969
 20
84.776884
 30
0.0
 11
638.44969
 21
142.052884
 31
0.0
  0
LINE
  5
3EC
330
1F
100
AcDbEntity
  8
002
 62
    40
370
     9
100
AcDbLine
 10
638.44969
 20
150.052884
 30
0.0
 11
638.44969
 21
199.776884
 31
0.0
  0
LINE
  5
3ED
330
1F
100
AcDbEntity
  8
002
 62
     3
370
    30
100
AcDbLine
 10
622.44969
 20
84.776884
 30
0.0
 11
622.44969
 21
138.276884
 31
0.0
  0
LINE
  5
3EE
330
1F
100
AcDbEntity
  8
002
 62
     3
370
    30
100
AcDbLine
 10
622.44969
 20
146.276884
 30
0.0
 11
622.44969
 21
199.776884
 31
0.0
  0
LINE
  5
3EF
330
1F
100
AcDbEntity
  8
002
 62
     3
370
    30
100
AcDbLine
 10
642.44969
 20
84.776884
 30
0.0
 11
642.44969
 21
138.276884
 31
0.0
  0
LINE
  5
3F0
330
1F
100
AcDbEntity
  8
002
 62
     3
370
    30
100
AcDbLine
 10
642.44969
 20
146.276884
 30
0.0
 11
642.44969
 21
199.776884
 31
0.0
  0
POLYLINE
  5
3F1
330
1F
100
AcDbEntity
  8
002
 62
     3
370
     9
100
AcDb2dPolyline
 66
     1
 10
0.0
 20
0.0
 30
0.0
  0
VERTEX
  5
3F3
330
3F1
100
AcDbEntity
  8
002
 62
     3
370
     9
100
AcDbVertex
100
AcDb2dVertex
 10
616.44969
 20
383.276884
 30
0.0
  0
VERTEX
  5
3F4
330
3F1
100
AcDbEntity
  8
002
 62
     3
370
     9
100
AcDbVertex
100
AcDb2dVertex
 10
618.44969
 20
381.808134
 30
0.0
  0
VERTEX
  5
3F5
330
3F1
100
AcDbEntity
  8
002
 62
     3
370
     9
100
AcDbVertex
100
AcDb2dVertex
 10
620.44969
 20
380.526884
 30
0.0
  0
VERTEX
  5
3F6
330
3F1
100
AcDbEntity
  8
002
 62
     3
370
     9
100
AcDbVertex
100
AcDb2dVertex
 10
622.44969
 20
379.620634
 30
0.0
  0
VERTEX
  5
3F7
330
3F1
100
AcDbEntity
  8
002
 62
     3
370
     9
100
AcDbVertex
100
AcDb2dVertex
 10
624.44969
 20
379.276884
 30
0.0
  0
VERTEX
  5
3F8
330
3F1
100
AcDbEntity
  8
002
 62
     3
370
     9
100
AcDbVertex
100
AcDb2dVertex
 10
626.44969
 20
379.620634
 30
0.0
  0
VERTEX
  5
3F9
330
3F1
100
AcDbEntity
  8
002
 62
     3
370
     9
100
AcDbVertex
100
AcDb2dVertex
 10
628.44969
 20
380.526884
 30
0.0
  0
VERTEX
  5
3FA
330
3F1
100
AcDbEntity
  8
002
 62
     3
370
     9
100
AcDbVertex
100
AcDb2dVertex
 10
630.44969
 20
381.808134
 30
0.0
  0
VERTEX
  5
3FB
330
3F1
100
AcDbEntity
  8
002
 62
     3
370
     9
100
AcDbVertex
100
AcDb2dVertex
 10
632.44969
 20
383.276884
 30
0.0
  0
VERTEX
  5
3FC
330
3F1
100
AcDbEntity
  8
002
 62
     3
370
     9
100
AcDbVertex
100
AcDb2dVertex
 10
634.44969
 20
384.745634
 30
0.0
  0
VERTEX
  5
3FD
330
3F1
100
AcDbEntity
  8
002
 62
     3
370
     9
100
AcDbVertex
100
AcDb2dVertex
 10
636.44969
 20
386.026884
 30
0.0
  0
VERTEX
  5
3FE
330
3F1
100
AcDbEntity
  8
002
 62
     3
370
     9
100
AcDbVertex
100
AcDb2dVertex
 10
638.44969
 20
386.933134
 30
0.0
  0
VERTEX
  5
3FF
330
3F1
100
AcDbEntity
  8
002
 62
     3
370
     9
100
AcDbVertex
100
AcDb2dVertex
 10
640.44969
 20
387.276884
 30
0.0
  0
VERTEX
  5
400
330
3F1
100
AcDbEntity
  8
002
 62
     3
370
     9
100
AcDbVertex
100
AcDb2dVertex
 10
642.44969
 20
386.933134
 30
0.0
  0
VERTEX
  5
401
330
3F1
100
AcDbEntity
  8
002
 62
     3
370
     9
100
AcDbVertex
100
AcDb2dVertex
 10
644.44969
 20
386.026884
 30
0.0
  0
VERTEX
  5
402
330
3F1
100
AcDbEntity
  8
002
 62
     3
370
     9
100
AcDbVertex
100
AcDb2dVertex
 10
646.44969
 20
384.745634
 30
0.0
  0
VERTEX
  5
403
330
3F1
100
AcDbEntity
  8
002
 62
     3
370
     9
100
AcDbVertex
100
AcDb2dVertex
 10
648.44969
 20
383.276884
 30
0.0
  0
SEQEND
  5
3F2
330
3F1
100
AcDbEntity
  8
002
370
     9
  0
POLYLINE
  5
404
330
1F
100
AcDbEntity
  8
002
 62
     3
370
     9
100
AcDb2dPolyline
 66
     1
 10
0.0
 20
0.0
 30
0.0
  0
VERTEX
  5
406
330
404
100
AcDbEntity
  8
002
 62
     3
370
     9
100
AcDbVertex
100
AcDb2dVertex
 10
616.44969
 20
391.276884
 30
0.0
  0
VERTEX
  5
407
330
404
100
AcDbEntity
  8
002
 62
     3
370
     9
100
AcDbVertex
100
AcDb2dVertex
 10
618.44969
 20
389.808134
 30
0.0
  0
VERTEX
  5
408
330
404
100
AcDbEntity
  8
002
 62
     3
370
     9
100
AcDbVertex
100
AcDb2dVertex
 10
620.44969
 20
388.526884
 30
0.0
  0
VERTEX
  5
409
330
404
100
AcDbEntity
  8
002
 62
     3
370
     9
100
AcDbVertex
100
AcDb2dVertex
 10
622.44969
 20
387.620634
 30
0.0
  0
VERTEX
  5
40A
330
404
100
AcDbEntity
  8
002
 62
     3
370
     9
100
AcDbVertex
100
AcDb2dVertex
 10
624.44969
 20
387.276884
 30
0.0
  0
VERTEX
  5
40B
330
404
100
AcDbEntity
  8
002
 62
     3
370
     9
100
AcDbVertex
100
AcDb2dVertex
 10
626.44969
 20
387.620634
 30
0.0
  0
VERTEX
  5
40C
330
404
100
AcDbEntity
  8
002
 62
     3
370
     9
100
AcDbVertex
100
AcDb2dVertex
 10
628.44969
 20
388.526884
 30
0.0
  0
VERTEX
  5
40D
330
404
100
AcDbEntity
  8
002
 62
     3
370
     9
100
AcDbVertex
100
AcDb2dVertex
 10
630.44969
 20
389.808134
 30
0.0
  0
VERTEX
  5
40E
330
404
100
AcDbEntity
  8
002
 62
     3
370
     9
100
AcDbVertex
100
AcDb2dVertex
 10
632.44969
 20
391.276884
 30
0.0
  0
VERTEX
  5
40F
330
404
100
AcDbEntity
  8
002
 62
     3
370
     9
100
AcDbVertex
100
AcDb2dVertex
 10
634.44969
 20
392.745634
 30
0.0
  0
VERTEX
  5
410
330
404
100
AcDbEntity
  8
002
 62
     3
370
     9
100
AcDbVertex
100
AcDb2dVertex
 10
636.44969
 20
394.026884
 30
0.0
  0
VERTEX
  5
411
330
404
100
AcDbEntity
  8
002
 62
     3
370
     9
100
AcDbVertex
100
AcDb2dVertex
 10
638.44969
 20
394.933134
 30
0.0
  0
VERTEX
  5
412
330
404
100
AcDbEntity
  8
002
 62
     3
370
     9
100
AcDbVertex
100
AcDb2dVertex
 10
640.44969
 20
395.276884
 30
0.0
  0
VERTEX
  5
413
330
404
100
AcDbEntity
  8
002
 62
     3
370
     9
100
AcDbVertex
100
AcDb2dVertex
 10
642.44969
 20
394.933134
 30
0.0
  0
VERTEX
  5
414
330
404
100
AcDbEntity
  8
002
 62
     3
370
     9
100
AcDbVertex
100
AcDb2dVertex
 10
644.44969
 20
394.026884
 30
0.0
  0
VERTEX
  5
415
330
404
100
AcDbEntity
  8
002
 62
     3
370
     9
100
AcDbVertex
100
AcDb2dVertex
 10
646.44969
 20
392.745634
 30
0.0
  0
VERTEX
  5
416
330
404
100
AcDbEntity
  8
002
 62
     3
370
     9
100
AcDbVertex
100
AcDb2dVertex
 10
648.44969
 20
391.276884
 30
0.0
  0
SEQEND
  5
405
330
404
100
AcDbEntity
  8
002
370
     9
  0
LINE
  5
417
330
1F
100
AcDbEntity
  8
002
 62
     3
370
    30
100
AcDbLine
 10
648.44969
 20
429.776884
 30
0.0
 11
648.44969
 21
391.276884
 31
0.0
  0
LINE
  5
418
330
1F
100
AcDbEntity
  8
002
 62
     3
370
    30
100
AcDbLine
 10
648.44969
 20
383.276884
 30
0.0
 11
648.44969
 21
344.776884
 31
0.0
  0
LINE
  5
419
330
1F
100
AcDbEntity
  8
002
 62
     3
370
    30
100
AcDbLine
 10
616.44969
 20
344.776884
 30
0.0
 11
616.44969
 21
383.276884
 31
0.0
  0
LINE
  5
41A
330
1F
100
AcDbEntity
  8
002
 62
     3
370
    30
100
AcDbLine
 10
616.44969
 20
391.276884
 30
0.0
 11
616.44969
 21
429.776884
 31
0.0
  0
POLYLINE
  5
41B
330
1F
100
AcDbEntity
  8
002
 62
     3
370
     9
100
AcDb2dPolyline
 66
     1
 10
0.0
 20
0.0
 30
0.0
  0
VERTEX
  5
41D
330
41B
100
AcDbEntity
  8
002
 62
     3
370
     9
100
AcDbVertex
100
AcDb2dVertex
 10
801.44969
 20
383.276884
 30
0.0
  0
VERTEX
  5
41E
330
41B
100
AcDbEntity
  8
002
 62
     3
370
     9
100
AcDbVertex
100
AcDb2dVertex
 10
803.44969
 20
381.808134
 30
0.0
  0
VERTEX
  5
41F
330
41B
100
AcDbEntity
  8
002
 62
     3
370
     9
100
AcDbVertex
100
AcDb2dVertex
 10
805.44969
 20
380.526884
 30
0.0
  0
VERTEX
  5
420
330
41B
100
AcDbEntity
  8
002
 62
     3
370
     9
100
AcDbVertex
100
AcDb2dVertex
 10
807.44969
 20
379.620634
 30
0.0
  0
VERTEX
  5
421
330
41B
100
AcDbEntity
  8
002
 62
     3
370
     9
100
AcDbVertex
100
AcDb2dVertex
 10
809.44969
 20
379.276884
 30
0.0
  0
VERTEX
  5
422
330
41B
100
AcDbEntity
  8
002
 62
     3
370
     9
100
AcDbVertex
100
AcDb2dVertex
 10
811.44969
 20
379.620634
 30
0.0
  0
VERTEX
  5
423
330
41B
100
AcDbEntity
  8
002
 62
     3
370
     9
100
AcDbVertex
100
AcDb2dVertex
 10
813.44969
 20
380.526884
 30
0.0
  0
VERTEX
  5
424
330
41B
100
AcDbEntity
  8
002
 62
     3
370
     9
100
AcDbVertex
100
AcDb2dVertex
 10
815.44969
 20
381.808134
 30
0.0
  0
VERTEX
  5
425
330
41B
100
AcDbEntity
  8
002
 62
     3
370
     9
100
AcDbVertex
100
AcDb2dVertex
 10
817.44969
 20
383.276884
 30
0.0
  0
VERTEX
  5
426
330
41B
100
AcDbEntity
  8
002
 62
     3
370
     9
100
AcDbVertex
100
AcDb2dVertex
 10
819.44969
 20
384.745634
 30
0.0
  0
VERTEX
  5
427
330
41B
100
AcDbEntity
  8
002
 62
     3
370
     9
100
AcDbVertex
100
AcDb2dVertex
 10
821.44969
 20
386.026884
 30
0.0
  0
VERTEX
  5
428
330
41B
100
AcDbEntity
  8
002
 62
     3
370
     9
100
AcDbVertex
100
AcDb2dVertex
 10
823.44969
 20
386.933134
 30
0.0
  0
VERTEX
  5
429
330
41B
100
AcDbEntity
  8
002
 62
     3
370
     9
100
AcDbVertex
100
AcDb2dVertex
 10
825.44969
 20
387.276884
 30
0.0
  0
VERTEX
  5
42A
330
41B
100
AcDbEntity
  8
002
 62
     3
370
     9
100
AcDbVertex
100
AcDb2dVertex
 10
827.44969
 20
386.933134
 30
0.0
  0
VERTEX
  5
42B
330
41B
100
AcDbEntity
  8
002
 62
     3
370
     9
100
AcDbVertex
100
AcDb2dVertex
 10
829.44969
 20
386.026884
 30
0.0
  0
VERTEX
  5
42C
330
41B
100
AcDbEntity
  8
002
 62
     3
370
     9
100
AcDbVertex
100
AcDb2dVertex
 10
831.44969
 20
384.745634
 30
0.0
  0
VERTEX
  5
42D
330
41B
100
AcDbEntity
  8
002
 62
     3
370
     9
100
AcDbVertex
100
AcDb2dVertex
 10
833.44969
 20
383.276884
 30
0.0
  0
SEQEND
  5
41C
330
41B
100
AcDbEntity
  8
002
370
     9
  0
POLYLINE
  5
42E
330
1F
100
AcDbEntity
  8
002
 62
     3
370
     9
100
AcDb2dPolyline
 66
     1
 10
0.0
 20
0.0
 30
0.0
  0
VERTEX
  5
430
330
42E
100
AcDbEntity
  8
002
 62
     3
370
     9
100
AcDbVertex
100
AcDb2dVertex
 10
801.44969
 20
391.276884
 30
0.0
  0
VERTEX
  5
431
330
42E
100
AcDbEntity
  8
002
 62
     3
370
     9
100
AcDbVertex
100
AcDb2dVertex
 10
803.44969
 20
389.808134
 30
0.0
  0
VERTEX
  5
432
330
42E
100
AcDbEntity
  8
002
 62
     3
370
     9
100
AcDbVertex
100
AcDb2dVertex
 10
805.44969
 20
388.526884
 30
0.0
  0
VERTEX
  5
433
330
42E
100
AcDbEntity
  8
002
 62
     3
370
     9
100
AcDbVertex
100
AcDb2dVertex
 10
807.44969
 20
387.620634
 30
0.0
  0
VERTEX
  5
434
330
42E
100
AcDbEntity
  8
002
 62
     3
370
     9
100
AcDbVertex
100
AcDb2dVertex
 10
809.44969
 20
387.276884
 30
0.0
  0
VERTEX
  5
435
330
42E
100
AcDbEntity
  8
002
 62
     3
370
     9
100
AcDbVertex
100
AcDb2dVertex
 10
811.44969
 20
387.620634
 30
0.0
  0
VERTEX
  5
436
330
42E
100
AcDbEntity
  8
002
 62
     3
370
     9
100
AcDbVertex
100
AcDb2dVertex
 10
813.44969
 20
388.526884
 30
0.0
  0
VERTEX
  5
437
330
42E
100
AcDbEntity
  8
002
 62
     3
370
     9
100
AcDbVertex
100
AcDb2dVertex
 10
815.44969
 20
389.808134
 30
0.0
  0
VERTEX
  5
438
330
42E
100
AcDbEntity
  8
002
 62
     3
370
     9
100
AcDbVertex
100
AcDb2dVertex
 10
817.44969
 20
391.276884
 30
0.0
  0
VERTEX
  5
439
330
42E
100
AcDbEntity
  8
002
 62
     3
370
     9
100
AcDbVertex
100
AcDb2dVertex
 10
819.44969
 20
392.745634
 30
0.0
  0
VERTEX
  5
43A
330
42E
100
AcDbEntity
  8
002
 62
     3
370
     9
100
AcDbVertex
100
AcDb2dVertex
 10
821.44969
 20
394.026884
 30
0.0
  0
VERTEX
  5
43B
330
42E
100
AcDbEntity
  8
002
 62
     3
370
     9
100
AcDbVertex
100
AcDb2dVertex
 10
823.44969
 20
394.933134
 30
0.0
  0
VERTEX
  5
43C
330
42E
100
AcDbEntity
  8
002
 62
     3
370
     9
100
AcDbVertex
100
AcDb2dVertex
 10
825.44969
 20
395.276884
 30
0.0
  0
VERTEX
  5
43D
330
42E
100
AcDbEntity
  8
002
 62
     3
370
     9
100
AcDbVertex
100
AcDb2dVertex
 10
827.44969
 20
394.933134
 30
0.0
  0
VERTEX
  5
43E
330
42E
100
AcDbEntity
  8
002
 62
     3
370
     9
100
AcDbVertex
100
AcDb2dVertex
 10
829.44969
 20
394.026884
 30
0.0
  0
VERTEX
  5
43F
330
42E
100
AcDbEntity
  8
002
 62
     3
370
     9
100
AcDbVertex
100
AcDb2dVertex
 10
831.44969
 20
392.745634
 30
0.0
  0
VERTEX
  5
440
330
42E
100
AcDbEntity
  8
002
 62
     3
370
     9
100
AcDbVertex
100
AcDb2dVertex
 10
833.44969
 20
391.276884
 30
0.0
  0
SEQEND
  5
42F
330
42E
100
AcDbEntity
  8
002
370
     9
  0
LINE
  5
441
330
1F
100
AcDbEntity
  8
002
 62
     3
370
    30
100
AcDbLine
 10
833.44969
 20
429.776884
 30
0.0
 11
833.44969
 21
391.276884
 31
0.0
  0
LINE
  5
442
330
1F
100
AcDbEntity
  8
002
 62
     3
370
    30
100
AcDbLine
 10
833.44969
 20
383.276884
 30
0.0
 11
833.44969
 21
344.776884
 31
0.0
  0
LINE
  5
443
330
1F
100
AcDbEntity
  8
002
 62
     3
370
    30
100
AcDbLine
 10
801.44969
 20
344.776884
 30
0.0
 11
801.44969
 21
383.276884
 31
0.0
  0
LINE
  5
444
330
1F
100
AcDbEntity
  8
002
 62
     3
370
    30
100
AcDbLine
 10
801.44969
 20
391.276884
 30
0.0
 11
801.44969
 21
429.776884
 31
0.0
  0
LINE
  5
445
330
1F
100
AcDbEntity
  8
002
  6
CENTER
 62
    40
370
     9
100
AcDbLine
 10
166.878518
 20
44.54849
 30
0.0
 11
166.878518
 21
433.758817
 31
0.0
  0
LINE
  5
446
330
1F
100
AcDbEntity
  8
002
  6
CENTER
 62
    40
370
     9
100
AcDbLine
 10
421.716417
 20
44.54849
 30
0.0
 11
421.716417
 21
433.758817
 31
0.0
  0
LINE
  5
447
330
1F
100
AcDbEntity
  8
002
  6
CENTER
 62
    40
370
     9
100
AcDbLine
 10
632.44969
 20
455.005277
 30
0.0
 11
632.44969
 21
65.79495
 31
0.0
  0
LINE
  5
448
330
1F
100
AcDbEntity
  8
002
  6
CENTER
 62
    40
370
     9
100
AcDbLine
 10
817.44969
 20
455.005277
 30
0.0
 11
817.44969
 21
65.79495
 31
0.0
  0
LINE
  5
449
330
1F
100
AcDbEntity
  8
002
  6
CENTER
 62
    40
370
     9
100
AcDbLine
 10
251.878518
 20
716.441531
 30
0.0
 11
261.343017
 21
716.441531
 31
0.0
  0
LINE
  5
44A
330
1F
100
AcDbEntity
  8
002
  6
CENTER
 62
    40
370
     9
100
AcDbLine
 10
251.878518
 20
231.776884
 30
0.0
 11
262.482518
 21
231.776884
 31
0.0
  0
LINE
  5
44B
330
1F
100
AcDbEntity
  8
002
  6
CENTER
 62
    40
370
     9
100
AcDbLine
 10
506.716417
 20
231.776884
 30
0.0
 11
517.320417
 21
231.776884
 31
0.0
  0
LINE
  5
44C
330
1F
100
AcDbEntity
  8
002
  6
CENTER
 62
    40
370
     9
100
AcDbLine
 10
717.44969
 20
231.776884
 30
0.0
 11
728.05369
 21
231.776884
 31
0.0
  0
LINE
  5
44D
330
1F
100
AcDbEntity
  8
002
  6
CENTER
 62
    40
370
     9
100
AcDbLine
 10
902.44969
 20
231.776884
 30
0.0
 11
913.05369
 21
231.776884
 31
0.0
  0
ENDSEC
  0
SECTION
  2
OBJECTS
  0
DICTIONARY
  5
C
330
0
100
AcDbDictionary
281
     1
  3
ACAD_GROUP
350
D
  3
ACAD_LAYOUT
350
1A
  3
ACAD_MLEADERSTYLE
350
450
  3
ACAD_MLINESTYLE
350
17
  3
ACAD_PLOTSETTINGS
350
19
  3
ACAD_PLOTSTYLENAME
350
E
  3
ACAD_VISUALSTYLE
350
2A
  3
AcDbVariableDictionary
350
44E
  0
DICTIONARY
  5
D
102
{ACAD_REACTORS
330
C
102
}
330
C
100
AcDbDictionary
281
     1
  0
DICTIONARY
  5
1A
102
{ACAD_REACTORS
330
C
102
}
330
C
100
AcDbDictionary
281
     1
  3
Layout1
350
1E
  3
Layout2
350
26
  3
Model
350
22
  0
DICTIONARY
  5
450
102
{ACAD_REACTORS
330
C
102
}
330
C
100
AcDbDictionary
281
     1
  0
DICTIONARY
  5
17
102
{ACAD_REACTORS
330
C
102
}
330
C
100
AcDbDictionary
281
     1
  3
Standard
350
18
  0
DICTIONARY
  5
19
102
{ACAD_REACTORS
330
C
102
}
330
C
100
AcDbDictionary
281
     1
  0
ACDBDICTIONARYWDFLT
  5
E
102
{ACAD_REACTORS
330
C
102
}
330
C
100
AcDbDictionary
281
     1
  3
Normal
350
F
100
AcDbDictionaryWithDefault
340
F
  0
DICTIONARY
  5
2A
102
{ACAD_REACTORS
330
C
102
}
330
C
100
AcDbDictionary
281
     1
  3
2dWireframe
350
2F
  3
3D Hidden
350
31
  3
3dWireframe
350
30
  3
Basic
350
32
  3
Brighten
350
36
  3
ColorChange
350
3A
  3
Conceptual
350
34
  3
Dim
350
35
  3
Facepattern
350
39
  3
Flat
350
2B
  3
FlatWithEdges
350
2C
  3
Gouraud
350
2D
  3
GouraudWithEdges
350
2E
  3
Linepattern
350
38
  3
Realistic
350
33
  3
Thicken
350
37
  0
DICTIONARY
  5
44E
102
{ACAD_REACTORS
330
C
102
}
330
C
100
AcDbDictionary
281
     1
  3
PSOLHEIGHT
350
452
  3
PSOLWIDTH
350
451
  0
LAYOUT
  5
1E
102
{ACAD_REACTORS
330
1A
102
}
330
1A
100
AcDbPlotSettings
  1

  2
none_device
  4

  6

 40
0.0
 41
0.0
 42
0.0
 43
0.0
 44
0.0
 45
0.0
 46
0.0
 47
0.0
 48
0.0
 49
0.0
140
0.0
141
0.0
142
1.0
143
1.0
 70
   688
 72
     0
 73
     0
 74
     5
  7

 75
    16
147
1.0
148
0.0
149
0.0
100
AcDbLayout
  1
Layout1
 70
     1
 71
     1
 10
0.0
 20
0.0
 11
12.0
 21
9.0
 12
0.0
 22
0.0
 32
0.0
 14
1.000000E+20
 24
1.000000E+20
 34
0.0
 15
-1.000000E+20
 25
-1.000000E+20
 35
0.0
146
0.0
 13
0.0
 23
0.0
 33
0.0
 16
1.0
 26
0.0
 36
0.0
 17
0.0
 27
1.0
 37
0.0
 76
     0
330
1B
  0
LAYOUT
  5
26
102
{ACAD_REACTORS
330
1A
102
}
330
1A
100
AcDbPlotSettings
  1

  2
none_device
  4

  6

 40
0.0
 41
0.0
 42
0.0
 43
0.0
 44
0.0
 45
0.0
 46
0.0
 47
0.0
 48
0.0
 49
0.0
140
0.0
141
0.0
142
1.0
143
1.0
 70
   688
 72
     0
 73
     0
 74
     5
  7

 75
    16
147
1.0
148
0.0
149
0.0
100
AcDbLayout
  1
Layout2
 70
     1
 71
     2
 10
0.0
 20
0.0
 11
0.0
 21
0.0
 12
0.0
 22
0.0
 32
0.0
 14
0.0
 24
0.0
 34
0.0
 15
0.0
 25
0.0
 35
0.0
146
0.0
 13
0.0
 23
0.0
 33
0.0
 16
1.0
 26
0.0
 36
0.0
 17
0.0
 27
1.0
 37
0.0
 76
     0
330
23
  0
LAYOUT
  5
22
102
{ACAD_REACTORS
330
1A
102
}
330
1A
100
AcDbPlotSettings
  1

  2
none_device
  4

  6

 40
0.0
 41
0.0
 42
0.0
 43
0.0
 44
0.0
 45
0.0
 46
0.0
 47
0.0
 48
0.0
 49
0.0
140
0.0
141
0.0
142
1.0
143
1.0
 70
  1712
 72
     0
 73
     0
 74
     0
  7

 75
     0
147
1.0
148
0.0
149
0.0
100
AcDbLayout
  1
Model
 70
     1
 71
     0
 10
0.0
 20
0.0
 11
12.0
 21
9.0
 12
0.0
 22
0.0
 32
0.0
 14
111.478516
 24
44.548462
 34
0.0
 15
913.053711
 25
783.088989
 35
0.0
146
0.0
 13
0.0
 23
0.0
 33
0.0
 16
1.0
 26
0.0
 36
0.0
 17
0.0
 27
1.0
 37
0.0
 76
     0
330
1F
331
29
  0
MLINESTYLE
  5
18
102
{ACAD_REACTORS
330
17
102
}
330
17
100
AcDbMlineStyle
  2
Standard
 70
     0
  3

 62
   256
 51
90.0
 52
90.0
 71
     2
 49
0.5
 62
   256
  6
BYLAYER
 49
-0.5
 62
   256
  6
BYLAYER
  0
ACDBPLACEHOLDER
  5
F
102
{ACAD_REACTORS
330
E
102
}
330
E
  0
VISUALSTYLE
  5
2F
102
{ACAD_REACTORS
330
2A
102
}
330
2A
100
AcDbVisualStyle
  2
2dWireframe
 70
     4
 71
     0
 72
     2
 73
     0
 90
        0
 40
-0.6
 41
-30.0
 62
     5
 63
     7
 74
     1
 91
        4
 64
     7
 65
   257
 75
     1
175
     1
 42
1.0
 92
        0
 66
   257
 43
1.0
 76
     1
 77
     6
 78
     2
 67
     7
 79
     5
170
     0
171
     0
290
     0
174
     0
 93
        1
 44
0.0
173
     0
291
     0
 45
0.0
1001
ACAD
1000
AcDbSavedByObjectVersion
1070
     0
  0
VISUALSTYLE
  5
31
102
{ACAD_REACTORS
330
2A
102
}
330
2A
100
AcDbVisualStyle
  2
3D Hidden
 70
     6
 71
     1
 72
     2
 73
     2
 90
        0
 40
-0.6
 41
-30.0
 62
     5
 63
     7
 74
     2
 91
        2
 64
     7
 65
   257
 75
     2
175
     1
 42
40.0
 92
        0
 66
   257
 43
1.0
 76
     1
 77
     6
 78
     2
 67
     7
 79
     3
170
     0
171
     0
290
     0
174
     0
 93
        1
 44
0.0
173
     0
291
     0
 45
0.0
1001
ACAD
1000
AcDbSavedByObjectVersion
1070
     0
  0
VISUALSTYLE
  5
30
102
{ACAD_REACTORS
330
2A
102
}
330
2A
100
AcDbVisualStyle
  2
3dWireframe
 70
     5
 71
     0
 72
     2
 73
     0
 90
        0
 40
-0.6
 41
-30.0
 62
     5
 63
     7
 74
     1
 91
        4
 64
     7
 65
   257
 75
     1
175
     1
 42
1.0
 92
        0
 66
   257
 43
1.0
 76
     1
 77
     6
 78
     2
 67
     7
 79
     5
170
     0
171
     0
290
     0
174
     0
 93
        1
 44
0.0
173
     0
291
     0
 45
0.0
1001
ACAD
1000
AcDbSavedByObjectVersion
1070
     0
  0
VISUALSTYLE
  5
32
102
{ACAD_REACTORS
330
2A
102
}
330
2A
100
AcDbVisualStyle
  2
Basic
 70
     7
 71
     1
 72
     0
 73
     1
 90
        0
 40
-0.6
 41
-30.0
 62
     5
 63
     7
 74
     0
 91
        4
 64
     7
 65
   257
 75
     1
175
     1
 42
1.0
 92
        8
 66
     7
 43
1.0
 76
     1
 77
     6
 78
     2
 67
     7
 79
     5
170
     0
171
     0
290
     0
174
     0
 93
        1
 44
0.0
173
     0
291
     1
 45
0.0
1001
ACAD
1000
AcDbSavedByObjectVersion
1070
     0
  0
VISUALSTYLE
  5
36
102
{ACAD_REACTORS
330
2A
102
}
330
2A
100
AcDbVisualStyle
  2
Brighten
 70
    12
 71
     2
 72
     2
 73
     0
 90
        0
 40
-0.6
 41
-30.0
 62
     5
 63
     7
 74
     1
 91
        4
 64
     7
 65
   257
 75
     1
175
     1
 42
1.0
 92
        8
 66
     7
 43
1.0
 76
     1
 77
     6
 78
     2
 67
     7
 79
     5
170
     0
171
     0
290
     0
174
     0
 93
        1
 44
50.0
173
     0
291
     1
 45
0.0
1001
ACAD
1000
AcDbSavedByObjectVersion
1070
     0
  0
VISUALSTYLE
  5
3A
102
{ACAD_REACTORS
330
2A
102
}
330
2A
100
AcDbVisualStyle
  2
ColorChange
 70
    16
 71
     2
 72
     2
 73
     3
 90
        0
 40
-0.6
 41
-30.0
 62
     5
 63
     8
 74
     1
 91
        4
 64
     7
 65
   257
 75
     1
175
     1
 42
1.0
 92
        8
 66
     8
 43
1.0
 76
     1
 77
     6
 78
     2
 67
     7
 79
     5
170
     0
171
     0
290
     0
174
     0
 93
        1
 44
0.0
173
     0
291
     1
 45
0.0
1001
ACAD
1000
AcDbSavedByObjectVersion
1070
     0
  0
VISUALSTYLE
  5
34
102
{ACAD_REACTORS
330
2A
102
}
330
2A
100
AcDbVisualStyle
  2
Conceptual
 70
     9
 71
     3
 72
     2
 73
     0
 90
        0
 40
-0.6
 41
-30.0
 62
     5
 63
     7
 74
     2
 91
        2
 64
     7
 65
   257
 75
     1
175
     1
 42
40.0
 92
        8
 66
     7
 43
1.0
 76
     1
 77
     6
 78
     2
 67
     7
 79
     3
170
     0
171
     0
290
     0
174
     0
 93
        1
 44
0.0
173
     0
291
     0
 45
0.0
1001
ACAD
1000
AcDbSavedByObjectVersion
1070
     0
  0
VISUALSTYLE
  5
35
102
{ACAD_REACTORS
330
2A
102
}
330
2A
100
AcDbVisualStyle
  2
Dim
 70
    11
 71
     2
 72
     2
 73
     0
 90
        0
 40
-0.6
 41
-30.0
 62
     5
 63
     7
 74
     1
 91
        4
 64
     7
 65
   257
 75
     1
175
     1
 42
1.0
 92
        8
 66
     7
 43
1.0
 76
     1
 77
     6
 78
     2
 67
     7
 79
     5
170
     0
171
     0
290
     0
174
     0
 93
        1
 44
-50.0
173
     0
291
     1
 45
0.0
1001
ACAD
1000
AcDbSavedByObjectVersion
1070
     0
  0
VISUALSTYLE
  5
39
102
{ACAD_REACTORS
330
2A
102
}
330
2A
100
AcDbVisualStyle
  2
Facepattern
 70
    15
 71
     2
 72
     2
 73
     0
 90
        0
 40
-0.6
 41
-30.0
 62
     5
 63
     7
 74
     1
 91
        4
 64
     7
 65
   257
 75
     1
175
     1
 42
1.0
 92
        8
 66
     7
 43
1.0
 76
     1
 77
     6
 78
     2
 67
     7
 79
     5
170
     0
171
     0
290
     0
174
     0
 93
        1
 44
0.0
173
     0
291
     1
 45
0.0
1001
ACAD
1000
AcDbSavedByObjectVersion
1070
     0
  0
VISUALSTYLE
  5
2B
102
{ACAD_REACTORS
330
2A
102
}
330
2A
100
AcDbVisualStyle
  2
Flat
 70
     0
 71
     2
 72
     1
 73
     1
 90
        2
 40
-0.6
 41
30.0
 62
     5
 63
     7
 74
     0
 91
        4
 64
     7
 65
   257
 75
     1
175
     1
 42
1.0
 92
        8
 66
     7
 43
1.0
 76
     1
 77
     6
 78
     2
 67
     7
 79
     5
170
     0
171
     0
290
     0
174
     0
 93
       13
 44
0.0
173
     0
291
     1
 45
0.0
1001
ACAD
1000
AcDbSavedByObjectVersion
1070
     0
  0
VISUALSTYLE
  5
2C
102
{ACAD_REACTORS
330
2A
102
}
330
2A
100
AcDbVisualStyle
  2
FlatWithEdges
 70
     1
 71
     2
 72
     1
 73
     1
 90
        2
 40
-0.6
 41
30.0
 62
     5
 63
     7
 74
     1
 91
        4
 64
     7
 65
   257
 75
     1
175
     1
 42
1.0
 92
        0
 66
   257
 43
1.0
 76
     1
 77
     6
 78
     2
 67
     7
 79
     5
170
     0
171
     0
290
     0
174
     0
 93
       13
 44
0.0
173
     0
291
     1
 45
0.0
1001
ACAD
1000
AcDbSavedByObjectVersion
1070
     0
  0
VISUALSTYLE
  5
2D
102
{ACAD_REACTORS
330
2A
102
}
330
2A
100
AcDbVisualStyle
  2
Gouraud
 70
     2
 71
     2
 72
     2
 73
     1
 90
        2
 40
-0.6
 41
30.0
 62
     5
 63
     7
 74
     0
 91
        4
 64
     7
 65
   257
 75
     1
175
     1
 42
1.0
 92
        0
 66
     7
 43
1.0
 76
     1
 77
     6
 78
     2
 67
     7
 79
     5
170
     0
171
     0
290
     0
174
     0
 93
       13
 44
0.0
173
     0
291
     1
 45
0.0
1001
ACAD
1000
AcDbSavedByObjectVersion
1070
     0
  0
VISUALSTYLE
  5
2E
102
{ACAD_REACTORS
330
2A
102
}
330
2A
100
AcDbVisualStyle
  2
GouraudWithEdges
 70
     3
 71
     2
 72
     2
 73
     1
 90
        2
 40
-0.6
 41
30.0
 62
     5
 63
     7
 74
     1
 91
        4
 64
     7
 65
   257
 75
     1
175
     1
 42
1.0
 92
        0
 66
   257
 43
1.0
 76
     1
 77
     6
 78
     2
 67
     7
 79
     5
170
     0
171
     0
290
     0
174
     0
 93
       13
 44
0.0
173
     0
291
     1
 45
0.0
1001
ACAD
1000
AcDbSavedByObjectVersion
1070
     0
  0
VISUALSTYLE
  5
38
102
{ACAD_REACTORS
330
2A
102
}
330
2A
100
AcDbVisualStyle
  2
Linepattern
 70
    14
 71
     2
 72
     2
 73
     0
 90
        0
 40
-0.6
 41
-30.0
 62
     5
 63
     7
 74
     1
 91
        4
 64
     7
 65
   257
 75
     7
175
     7
 42
1.0
 92
        8
 66
     7
 43
1.0
 76
     1
 77
     6
 78
     2
 67
     7
 79
     5
170
     0
171
     0
290
     0
174
     0
 93
        1
 44
0.0
173
     0
291
     1
 45
0.0
1001
ACAD
1000
AcDbSavedByObjectVersion
1070
     0
  0
VISUALSTYLE
  5
33
102
{ACAD_REACTORS
330
2A
102
}
330
2A
100
AcDbVisualStyle
  2
Realistic
 70
     8
 71
     2
 72
     2
 73
     0
 90
        0
 40
-0.6
 41
-30.0
 62
     5
 63
     7
 74
     1
 91
        0
 64
     7
 65
   257
 75
     1
175
     1
 42
1.0
 92
        8
 66
     8
 43
1.0
 76
     1
 77
     6
 78
     2
 67
     7
 79
     5
170
     0
171
     0
290
     0
174
     0
 93
       13
 44
0.0
173
     0
291
     0
 45
0.0
1001
ACAD
1000
AcDbSavedByObjectVersion
1070
     0
  0
VISUALSTYLE
  5
37
102
{ACAD_REACTORS
330
2A
102
}
330
2A
100
AcDbVisualStyle
  2
Thicken
 70
    13
 71
     2
 72
     2
 73
     0
 90
        0
 40
-0.6
 41
-30.0
 62
     5
 63
     7
 74
     1
 91
        4
 64
     7
 65
   257
 75
     1
175
     1
 42
1.0
 92
       12
 66
     7
 43
1.0
 76
     1
 77
     6
 78
     2
 67
     7
 79
     5
170
     0
171
     0
290
     0
174
     0
 93
        1
 44
0.0
173
     0
291
     1
 45
0.0
1001
ACAD
1000
AcDbSavedByObjectVersion
1070
     0
  0
DICTIONARYVAR
  5
452
102
{ACAD_REACTORS
330
44E
102
}
330
44E
100
DictionaryVariables
280
     0
  1
80.000000
  0
DICTIONARYVAR
  5
451
102
{ACAD_REACTORS
330
44E
102
}
330
44E
100
DictionaryVariables
280
     0
  1
5.000000
  0
ENDSEC
  0
EOF
