  0
SECTION
  2
HEADER
  9
$ACADVER
  1
AC1015
  9
$ACADMAINTVER
 70
     6
  9
$DWGCODEPAGE
  3
ANSI_932
  9
$INSBASE
 10
0.0
 20
0.0
 30
0.0
  9
$EXTMIN
 10
95.839691
 20
64.356689
 30
0.0
  9
$EXTMAX
 10
1113.551392
 20
1106.012085
 30
0.0
  9
$LIMMIN
 10
0.0
 20
0.0
  9
$LIMMAX
 10
12.0
 20
9.0
  9
$ORTHOMODE
 70
     0
  9
$REGENMODE
 70
     1
  9
$FILLMODE
 70
     1
  9
$QTEXTMODE
 70
     0
  9
$MIRRTEXT
 70
     1
  9
$LTSCALE
 40
14.562909
  9
$ATTMODE
 70
     1
  9
$TEXTSIZE
 40
3.2
  9
$TRACEWID
 40
1.0
  9
$TEXTSTYLE
  7
Standard
  9
$CLAYER
  8
0
  9
$CELTYPE
  6
ByLayer
  9
$CECOLOR
 62
   256
  9
$CELTSCALE
 40
1.0
  9
$DISPSILH
 70
     0
  9
$DIMSCALE
 40
1.0
  9
$DIMASZ
 40
2.5
  9
$DIMEXO
 40
0.625
  9
$DIMDLI
 40
3.75
  9
$DIMRND
 40
0.0
  9
$DIMDLE
 40
0.0
  9
$DIMEXE
 40
1.25
  9
$DIMTP
 40
0.0
  9
$DIMTM
 40
0.0
  9
$DIMTXT
 40
2.5
  9
$DIMCEN
 40
0.09
  9
$DIMTSZ
 40
0.0
  9
$DIMTOL
 70
     0
  9
$DIMLIM
 70
     0
  9
$DIMTIH
 70
     0
  9
$DIMTOH
 70
     0
  9
$DIMSE1
 70
     0
  9
$DIMSE2
 70
     0
  9
$DIMTAD
 70
     0
  9
$DIMZIN
 70
     8
  9
$DIMBLK
  1

  9
$DIMASO
 70
     1
  9
$DIMSHO
 70
     0
  9
$DIMPOST
  1

  9
$DIMAPOST
  1

  9
$DIMALT
 70
     0
  9
$DIMALTD
 70
     3
  9
$DIMALTF
 40
0.03937
  9
$DIMLFAC
 40
1.0
  9
$DIMTOFL
 70
     1
  9
$DIMTVP
 40
0.0
  9
$DIMTIX
 70
     0
  9
$DIMSOXD
 70
     0
  9
$DIMSAH
 70
     0
  9
$DIMBLK1
  1

  9
$DIMBLK2
  1

  9
$DIMSTYLE
  2
ISO-25
  9
$DIMCLRD
 70
     0
  9
$DIMCLRE
 70
     0
  9
$DIMCLRT
 70
     0
  9
$DIMTFAC
 40
1.0
  9
$DIMGAP
 40
0.625
  9
$DIMJUST
 70
     0
  9
$DIMSD1
 70
     0
  9
$DIMSD2
 70
     0
  9
$DIMTOLJ
 70
     0
  9
$DIMTZIN
 70
     8
  9
$DIMALTZ
 70
     0
  9
$DIMALTTZ
 70
     0
  9
$DIMUPT
 70
     0
  9
$DIMDEC
 70
     2
  9
$DIMTDEC
 70
     2
  9
$DIMALTU
 70
     2
  9
$DIMALTTD
 70
     3
  9
$DIMTXSTY
  7
Standard
  9
$DIMAUNIT
 70
     0
  9
$DIMADEC
 70
     0
  9
$DIMALTRND
 40
0.0
  9
$DIMAZIN
 70
     0
  9
$DIMDSEP
 70
    44
  9
$DIMATFIT
 70
     3
  9
$DIMFRAC
 70
     0
  9
$DIMLDRBLK
  1

  9
$DIMLUNIT
 70
     2
  9
$DIMLWD
 70
    -2
  9
$DIMLWE
 70
    -2
  9
$DIMTMOVE
 70
     0
  9
$LUNITS
 70
     2
  9
$LUPREC
 70
     4
  9
$SKETCHINC
 40
1.0
  9
$FILLETRAD
 40
0.0
  9
$AUNITS
 70
     0
  9
$AUPREC
 70
     0
  9
$MENU
  1
.
  9
$ELEVATION
 40
0.0
  9
$PELEVATION
 40
0.0
  9
$THICKNESS
 40
0.0
  9
$LIMCHECK
 70
     0
  9
$CHAMFERA
 40
10.0
  9
$CHAMFERB
 40
10.0
  9
$CHAMFERC
 40
20.0
  9
$CHAMFERD
 40
0.0
  9
$SKPOLY
 70
     0
  9
$TDCREATE
 40
2455649.65856897
  9
$TDUCREATE
 40
2455649.28356897
  9
$TDUPDATE
 40
2455649.658568982
  9
$TDUUPDATE
 40
2455649.283568982
  9
$TDINDWG
 40
0.0000000116
  9
$TDUSRTIMER
 40
0.0000000116
  9
$USRTIMER
 70
     1
  9
$ANGBASE
 50
0.0
  9
$ANGDIR
 70
     0
  9
$PDMODE
 70
     0
  9
$PDSIZE
 40
0.0
  9
$PLINEWID
 40
0.0
  9
$SPLFRAME
 70
     0
  9
$SPLINETYPE
 70
     6
  9
$SPLINESEGS
 70
     8
  9
$HANDSEED
  5
4BE
  9
$SURFTAB1
 70
     6
  9
$SURFTAB2
 70
     6
  9
$SURFTYPE
 70
     6
  9
$SURFU
 70
     6
  9
$SURFV
 70
     6
  9
$UCSBASE
  2

  9
$UCSNAME
  2

  9
$UCSORG
 10
0.0
 20
0.0
 30
0.0
  9
$UCSXDIR
 10
1.0
 20
0.0
 30
0.0
  9
$UCSYDIR
 10
0.0
 20
1.0
 30
0.0
  9
$UCSORTHOREF
  2

  9
$UCSORTHOVIEW
 70
     0
  9
$UCSORGTOP
 10
0.0
 20
0.0
 30
0.0
  9
$UCSORGBOTTOM
 10
0.0
 20
0.0
 30
0.0
  9
$UCSORGLEFT
 10
0.0
 20
0.0
 30
0.0
  9
$UCSORGRIGHT
 10
0.0
 20
0.0
 30
0.0
  9
$UCSORGFRONT
 10
0.0
 20
0.0
 30
0.0
  9
$UCSORGBACK
 10
0.0
 20
0.0
 30
0.0
  9
$PUCSBASE
  2

  9
$PUCSNAME
  2

  9
$PUCSORG
 10
0.0
 20
0.0
 30
0.0
  9
$PUCSXDIR
 10
1.0
 20
0.0
 30
0.0
  9
$PUCSYDIR
 10
0.0
 20
1.0
 30
0.0
  9
$PUCSORTHOREF
  2

  9
$PUCSORTHOVIEW
 70
     0
  9
$PUCSORGTOP
 10
0.0
 20
0.0
 30
0.0
  9
$PUCSORGBOTTOM
 10
0.0
 20
0.0
 30
0.0
  9
$PUCSORGLEFT
 10
0.0
 20
0.0
 30
0.0
  9
$PUCSORGRIGHT
 10
0.0
 20
0.0
 30
0.0
  9
$PUCSORGFRONT
 10
0.0
 20
0.0
 30
0.0
  9
$PUCSORGBACK
 10
0.0
 20
0.0
 30
0.0
  9
$USERI1
 70
     0
  9
$USERI2
 70
     0
  9
$USERI3
 70
     0
  9
$USERI4
 70
     0
  9
$USERI5
 70
     0
  9
$USERR1
 40
0.0
  9
$USERR2
 40
0.0
  9
$USERR3
 40
0.0
  9
$USERR4
 40
0.0
  9
$USERR5
 40
0.0
  9
$WORLDVIEW
 70
     1
  9
$SHADEDGE
 70
     3
  9
$SHADEDIF
 70
    70
  9
$TILEMODE
 70
     1
  9
$MAXACTVP
 70
    64
  9
$PINSBASE
 10
0.0
 20
0.0
 30
0.0
  9
$PLIMCHECK
 70
     0
  9
$PEXTMIN
 10
1.000000E+20
 20
1.000000E+20
 30
0.0
  9
$PEXTMAX
 10
-1.000000E+20
 20
-1.000000E+20
 30
0.0
  9
$PLIMMIN
 10
0.0
 20
0.0
  9
$PLIMMAX
 10
12.0
 20
9.0
  9
$UNITMODE
 70
     0
  9
$VISRETAIN
 70
     1
  9
$PLINEGEN
 70
     0
  9
$PSLTSCALE
 70
     1
  9
$TREEDEPTH
 70
  3020
  9
$CMLSTYLE
  2
Standard
  9
$CMLJUST
 70
     0
  9
$CMLSCALE
 40
20.0
  9
$PROXYGRAPHICS
 70
     1
  9
$MEASUREMENT
 70
     1
  9
$CELWEIGHT
370
    -1
  9
$ENDCAPS
280
     0
  9
$JOINSTYLE
280
     0
  9
$LWDISPLAY
290
     0
  9
$INSUNITS
 70
     4
  9
$HYPERLINKBASE
  1

  9
$STYLESHEET
  1

  9
$XEDIT
290
     1
  9
$CEPSNTYPE
380
     0
  9
$PSTYLEMODE
290
     1
  9
$FINGERPRINTGUID
  2
{4D9BA1A6-FADA-45F0-9EC3-8266C0754CF4}
  9
$VERSIONGUID
  2
{FAEB1C32-E019-11D5-929B-00C0DF256EC4}
  9
$EXTNAMES
290
     1
  9
$PSVPSCALE
 40
0.0
  9
$OLESTARTUP
290
     0
  0
ENDSEC
  0
SECTION
  2
CLASSES
  0
CLASS
  1
ACDBDICTIONARYWDFLT
  2
AcDbDictionaryWithDefault
  3
ObjectDBX Classes
 90
        0
280
     0
281
     0
  0
CLASS
  1
VISUALSTYLE
  2
AcDbVisualStyle
  3
ObjectDBX Classes
 90
     4095
280
     0
281
     0
  0
CLASS
  1
DICTIONARYVAR
  2
AcDbDictionaryVar
  3
ObjectDBX Classes
 90
        0
280
     0
281
     0
  0
CLASS
  1
ACDBPLACEHOLDER
  2
AcDbPlaceHolder
  3
ObjectDBX Classes
 90
        0
280
     0
281
     0
  0
CLASS
  1
LAYOUT
  2
AcDbLayout
  3
ObjectDBX Classes
 90
        0
280
     0
281
     0
  0
ENDSEC
  0
SECTION
  2
TABLES
  0
TABLE
  2
VPORT
  5
8
330
0
100
AcDbSymbolTable
 70
     1
  0
VPORT
  5
29
330
8
100
AcDbSymbolTableRecord
100
AcDbViewportTableRecord
  2
*Active
 70
     0
 10
0.0
 20
0.0
 11
1.0
 21
1.0
 12
604.695541
 22
585.184387
 13
0.0
 23
0.0
 14
1.0
 24
1.0
 15
0.0
 25
0.0
 16
0.0
 26
0.0
 36
1.0
 17
0.0
 27
0.0
 37
0.0
 40
1052.071949
 41
1.691288
 42
50.0
 43
0.0
 44
0.0
 50
0.0
 51
0.0
 71
     0
 72
   100
 73
     1
 74
     3
 75
     0
 76
     0
 77
     0
 78
     0
281
     0
 65
     1
110
0.0
120
0.0
130
0.0
111
1.0
121
0.0
131
0.0
112
0.0
122
1.0
132
0.0
 79
     0
146
0.0
  0
ENDTAB
  0
TABLE
  2
LTYPE
  5
5
330
0
100
AcDbSymbolTable
 70
     5
  0
LTYPE
  5
14
330
5
100
AcDbSymbolTableRecord
100
AcDbLinetypeTableRecord
  2
ByBlock
 70
     0
  3

 72
    65
 73
     0
 40
0.0
  0
LTYPE
  5
15
330
5
100
AcDbSymbolTableRecord
100
AcDbLinetypeTableRecord
  2
ByLayer
 70
     0
  3

 72
    65
 73
     0
 40
0.0
  0
LTYPE
  5
16
330
5
100
AcDbSymbolTableRecord
100
AcDbLinetypeTableRecord
  2
Continuous
 70
     0
  3
Solid line
 72
    65
 73
     0
 40
0.0
  0
LTYPE
  5
3B
330
5
100
AcDbSymbolTableRecord
100
AcDbLinetypeTableRecord
  2
DASHED
 70
     0
  3
DASHED
 72
    83
 73
     2
 40
0.75
 49
0.5
 74
     0
 49
-0.25
 74
     0
  0
LTYPE
  5
3C
330
5
100
AcDbSymbolTableRecord
100
AcDbLinetypeTableRecord
  2
HIDDEN
 70
     0
  3
HIDDEN
 72
    83
 73
     2
 40
0.375
 49
0.25
 74
     0
 49
-0.125
 74
     0
  0
LTYPE
  5
3D
330
5
100
AcDbSymbolTableRecord
100
AcDbLinetypeTableRecord
  2
CENTER
 70
     0
  3
CENTER
 72
    83
 73
     4
 40
2.0
 49
1.25
 74
     0
 49
-0.25
 74
     0
 49
0.25
 74
     0
 49
-0.25
 74
     0
  0
LTYPE
  5
3E
330
5
100
AcDbSymbolTableRecord
100
AcDbLinetypeTableRecord
  2
PHANTOM
 70
     0
  3
PHANTOM
 72
    83
 73
     6
 40
2.5
 49
1.25
 74
     0
 49
-0.25
 74
     0
 49
0.25
 74
     0
 49
-0.25
 74
     0
 49
0.25
 74
     0
 49
-0.25
 74
     0
  0
ENDTAB
  0
TABLE
  2
LAYER
  5
2
330
0
100
AcDbSymbolTable
 70
     3
  0
LAYER
  5
10
330
2
100
AcDbSymbolTableRecord
100
AcDbLayerTableRecord
  2
0
 70
     0
 62
     7
  6
Continuous
370
    -3
390
F
  0
LAYER
  5
3F
330
2
100
AcDbSymbolTableRecord
100
AcDbLayerTableRecord
  2
001
 70
     0
 62
     7
  6
Continuous
370
    -3
390
F
  0
LAYER
  5
40
330
2
100
AcDbSymbolTableRecord
100
AcDbLayerTableRecord
  2
002
 70
     0
 62
     7
  6
Continuous
370
    -3
390
F
  0
ENDTAB
  0
TABLE
  2
STYLE
  5
3
330
0
100
AcDbSymbolTable
 70
     2
  0
STYLE
  5
11
330
3
100
AcDbSymbolTableRecord
100
AcDbTextStyleTableRecord
  2
Standard
 70
     0
 40
0.0
 41
1.0
 50
0.0
 71
     0
 42
0.2
  3
TXT
  4
BIGFONT
  0
STYLE
  5
41
330
3
100
AcDbSymbolTableRecord
100
AcDbTextStyleTableRecord
  2
TATEGAKI
 70
     4
 40
1.0
 41
1.0
 50
0.0
 71
     0
 42
0.2
  3
TXT
  4
BIGFONT
  0
ENDTAB
  0
TABLE
  2
VIEW
  5
6
330
0
100
AcDbSymbolTable
 70
     0
  0
ENDTAB
  0
TABLE
  2
UCS
  5
7
330
0
100
AcDbSymbolTable
 70
     0
  0
ENDTAB
  0
TABLE
  2
APPID
  5
9
330
0
100
AcDbSymbolTable
 70
     1
  0
APPID
  5
12
330
9
100
AcDbSymbolTableRecord
100
AcDbRegAppTableRecord
  2
ACAD
 70
     0
  0
ENDTAB
  0
TABLE
  2
DIMSTYLE
  5
A
330
0
100
AcDbSymbolTable
 70
     2
100
AcDbDimStyleTable
  0
DIMSTYLE
105
27
330
A
100
AcDbSymbolTableRecord
100
AcDbDimStyleTableRecord
  2
ISO-25
 70
     0
 41
2.5
 42
0.625
 43
3.75
 44
1.25
 73
     0
 74
     0
 77
     1
 78
     8
140
2.5
141
2.5
143
0.03937
147
0.625
171
     3
172
     1
271
     2
272
     2
274
     3
278
    44
283
     0
284
     8
340
11
  0
DIMSTYLE
105
42
330
A
100
AcDbSymbolTableRecord
100
AcDbDimStyleTableRecord
  2
Standard
 70
     0
 41
3.0
 42
0.5
 44
0.7
 73
     0
 74
     0
 77
     1
 78
     8
 79
     2
140
4.0
146
0.65
147
1.0
172
     1
179
     3
271
     3
283
     2
340
11
  0
ENDTAB
  0
TABLE
  2
BLOCK_RECORD
  5
1
330
0
100
AcDbSymbolTable
 70
     1
  0
BLOCK_RECORD
  5
1F
330
1
100
AcDbSymbolTableRecord
100
AcDbBlockTableRecord
  2
*Model_Space
340
22
  0
BLOCK_RECORD
  5
1B
330
1
100
AcDbSymbolTableRecord
100
AcDbBlockTableRecord
  2
*Paper_Space
340
1E
  0
BLOCK_RECORD
  5
23
330
1
100
AcDbSymbolTableRecord
100
AcDbBlockTableRecord
  2
*Paper_Space0
340
26
  0
ENDTAB
  0
ENDSEC
  0
SECTION
  2
BLOCKS
  0
BLOCK
  5
20
330
1F
100
AcDbEntity
  8
0
100
AcDbBlockBegin
  2
*Model_Space
 70
     0
 10
0.0
 20
0.0
 30
0.0
  3
*Model_Space
  1

  0
ENDBLK
  5
21
330
1F
100
AcDbEntity
  8
0
100
AcDbBlockEnd
  0
BLOCK
  5
1C
330
1B
100
AcDbEntity
 67
     1
  8
0
100
AcDbBlockBegin
  2
*Paper_Space
 70
     0
 10
0.0
 20
0.0
 30
0.0
  3
*Paper_Space
  1

  0
ENDBLK
  5
1D
330
1B
100
AcDbEntity
 67
     1
  8
0
100
AcDbBlockEnd
  0
BLOCK
  5
24
330
23
100
AcDbEntity
  8
0
100
AcDbBlockBegin
  2
*Paper_Space0
 70
     0
 10
0.0
 20
0.0
 30
0.0
  3
*Paper_Space0
  1

  0
ENDBLK
  5
25
330
23
100
AcDbEntity
  8
0
100
AcDbBlockEnd
  0
ENDSEC
  0
SECTION
  2
ENTITIES
  0
LINE
  5
43
330
1F
100
AcDbEntity
  8
002
  6
CENTER
 62
    40
370
     9
100
AcDbLine
 10
252.450993
 20
331.422337
 30
0.0
 11
95.839665
 21
331.422337
 31
0.0
  0
LINE
  5
44
330
1F
100
AcDbEntity
  8
002
  6
CENTER
 62
    40
370
     9
100
AcDbLine
 10
255.450993
 20
1001.453755
 30
0.0
 11
284.18626
 21
1001.453755
 31
0.0
  0
LINE
  5
45
330
1F
100
AcDbEntity
  8
002
 62
     3
370
    30
100
AcDbLine
 10
205.450993
 20
251.422337
 30
0.0
 11
130.450993
 21
251.422337
 31
0.0
  0
LINE
  5
46
330
1F
100
AcDbEntity
  8
001
 62
     3
370
    30
100
AcDbLine
 10
187.950993
 20
116.422337
 30
0.0
 11
147.950993
 21
116.422337
 31
0.0
  0
LINE
  5
47
330
1F
100
AcDbEntity
  8
001
 62
     3
370
    30
100
AcDbLine
 10
191.950993
 20
117.022337
 30
0.0
 11
147.950993
 21
117.022337
 31
0.0
  0
LINE
  5
48
330
1F
100
AcDbEntity
  8
001
 62
     3
370
    30
100
AcDbLine
 10
147.950993
 20
117.022337
 30
0.0
 11
143.950993
 21
117.022337
 31
0.0
  0
ARC
  5
49
330
1F
100
AcDbEntity
  8
001
 62
     3
370
    30
100
AcDbCircle
 10
191.950993
 20
120.022337
 30
0.0
 40
3.0
100
AcDbArc
 50
270.0
 51
0.0
  0
ARC
  5
4A
330
1F
100
AcDbEntity
  8
001
 62
     3
370
    30
100
AcDbCircle
 10
143.950993
 20
120.022337
 30
0.0
 40
3.0
100
AcDbArc
 50
180.0
 51
270.0
  0
LINE
  5
4B
330
1F
100
AcDbEntity
  8
001
 62
     3
370
    30
100
AcDbLine
 10
194.950993
 20
136.422337
 30
0.0
 11
191.950993
 21
136.422337
 31
0.0
  0
LINE
  5
4C
330
1F
100
AcDbEntity
  8
001
 62
     3
370
    30
100
AcDbLine
 10
191.950993
 20
136.422337
 30
0.0
 11
140.950993
 21
136.422337
 31
0.0
  0
LINE
  5
4D
330
1F
100
AcDbEntity
  8
002
 62
     3
370
    30
100
AcDbLine
 10
275.950993
 20
286.422337
 30
0.0
 11
275.950993
 21
271.422337
 31
0.0
  0
LINE
  5
4E
330
1F
100
AcDbEntity
  8
002
 62
     3
370
    30
100
AcDbLine
 10
250.450993
 20
365.422337
 30
0.0
 11
250.450993
 21
291.422337
 31
0.0
  0
LINE
  5
4F
330
1F
100
AcDbEntity
  8
002
 62
     3
370
    30
100
AcDbLine
 10
160.450993
 20
365.422337
 30
0.0
 11
160.450993
 21
285.422337
 31
0.0
  0
LINE
  5
50
330
1F
100
AcDbEntity
  8
002
 62
     3
370
    30
100
AcDbLine
 10
205.450993
 20
401.422337
 30
0.0
 11
205.450993
 21
381.422337
 31
0.0
  0
LINE
  5
51
330
1F
100
AcDbEntity
  8
002
 62
     3
370
    30
100
AcDbLine
 10
205.450993
 20
401.422337
 30
0.0
 11
102.950993
 21
401.422337
 31
0.0
  0
LINE
  5
52
330
1F
100
AcDbEntity
  8
002
 62
     3
370
    30
100
AcDbLine
 10
239.450993
 20
376.422337
 30
0.0
 11
135.450993
 21
376.422337
 31
0.0
  0
LINE
  5
53
330
1F
100
AcDbEntity
  8
002
 62
     3
370
    30
100
AcDbLine
 10
275.950993
 20
286.422337
 30
0.0
 11
255.450993
 21
286.422337
 31
0.0
  0
LINE
  5
54
330
1F
100
AcDbEntity
  8
002
 62
     3
370
    30
100
AcDbLine
 10
107.950993
 20
271.422337
 30
0.0
 11
275.950993
 21
271.422337
 31
0.0
  0
LINE
  5
55
330
1F
100
AcDbEntity
  8
002
 62
     3
370
    30
100
AcDbLine
 10
239.450993
 20
286.422337
 30
0.0
 11
171.450993
 21
286.422337
 31
0.0
  0
ARC
  5
56
330
1F
100
AcDbEntity
  8
002
 62
     3
370
    30
100
AcDbCircle
 10
239.450993
 20
297.422337
 30
0.0
 40
11.0
100
AcDbArc
 50
270.0
 51
0.0
  0
ARC
  5
57
330
1F
100
AcDbEntity
  8
002
 62
     3
370
    30
100
AcDbCircle
 10
239.450993
 20
365.422337
 30
0.0
 40
11.0
100
AcDbArc
 50
0.0
 51
90.0
  0
ARC
  5
58
330
1F
100
AcDbEntity
  8
002
 62
     3
370
    30
100
AcDbCircle
 10
171.450993
 20
365.422337
 30
0.0
 40
11.0
100
AcDbArc
 50
90.0
 51
180.0
  0
ARC
  5
59
330
1F
100
AcDbEntity
  8
002
 62
     3
370
    30
100
AcDbCircle
 10
171.450993
 20
297.422337
 30
0.0
 40
11.0
100
AcDbArc
 50
180.0
 51
270.0
  0
LINE
  5
5A
330
1F
100
AcDbEntity
  8
002
 62
     3
370
    30
100
AcDbLine
 10
131.915459
 20
297.886803
 30
0.0
 11
140.486527
 21
306.457871
 31
0.0
  0
LINE
  5
5B
330
1F
100
AcDbEntity
  8
002
 62
     3
370
    30
100
AcDbLine
 10
141.950993
 20
362.851269
 30
0.0
 11
141.950993
 21
309.993405
 31
0.0
  0
LINE
  5
5C
330
1F
100
AcDbEntity
  8
002
 62
     3
370
    30
100
AcDbLine
 10
131.915459
 20
374.957871
 30
0.0
 11
140.486527
 21
366.386803
 31
0.0
  0
LINE
  5
5D
330
1F
100
AcDbEntity
  8
002
 62
     3
370
    30
100
AcDbLine
 10
130.450993
 20
378.493405
 30
0.0
 11
130.450993
 21
401.422337
 31
0.0
  0
LINE
  5
5E
330
1F
100
AcDbEntity
  8
002
 62
     3
370
    30
100
AcDbLine
 10
130.450993
 20
294.351269
 30
0.0
 11
130.450993
 21
286.422337
 31
0.0
  0
LINE
  5
5F
330
1F
100
AcDbEntity
  8
002
 62
     3
370
    30
100
AcDbLine
 10
155.450993
 20
280.422337
 30
0.0
 11
114.950993
 21
280.422337
 31
0.0
  0
ARC
  5
60
330
1F
100
AcDbEntity
  8
002
 62
     3
370
    30
100
AcDbCircle
 10
155.450993
 20
285.422337
 30
0.0
 40
5.0
100
AcDbArc
 50
270.0
 51
0.0
  0
LINE
  5
61
330
1F
100
AcDbEntity
  8
002
 62
     3
370
    30
100
AcDbLine
 10
158.270382
 20
286.422337
 30
0.0
 11
118.450993
 21
286.422337
 31
0.0
  0
ARC
  5
62
330
1F
100
AcDbEntity
  8
002
 62
     3
370
    30
100
AcDbCircle
 10
210.450993
 20
381.422337
 30
0.0
 40
5.0
100
AcDbArc
 50
180.0
 51
270.0
  0
CIRCLE
  5
63
330
1F
100
AcDbEntity
  8
002
 62
     3
370
    30
100
AcDbCircle
 10
205.450993
 20
331.422337
 30
0.0
 40
22.0
  0
LINE
  5
64
330
1F
100
AcDbEntity
  8
002
 62
     3
370
    30
100
AcDbLine
 10
117.950993
 20
374.422337
 30
0.0
 11
111.950993
 21
370.958235
 31
0.0
  0
LINE
  5
65
330
1F
100
AcDbEntity
  8
002
 62
     3
370
    30
100
AcDbLine
 10
111.950993
 20
370.958235
 30
0.0
 11
111.950993
 21
316.886438
 31
0.0
  0
LINE
  5
66
330
1F
100
AcDbEntity
  8
002
 62
     3
370
    30
100
AcDbLine
 10
117.950993
 20
313.422337
 30
0.0
 11
111.950993
 21
316.886438
 31
0.0
  0
LINE
  5
67
330
1F
100
AcDbEntity
  8
002
 62
     3
370
    30
100
AcDbLine
 10
117.950993
 20
374.422337
 30
0.0
 11
117.950993
 21
401.422337
 31
0.0
  0
LINE
  5
68
330
1F
100
AcDbEntity
  8
002
 62
     3
370
    30
100
AcDbLine
 10
117.950993
 20
313.422337
 30
0.0
 11
117.950993
 21
289.422337
 31
0.0
  0
ARC
  5
69
330
1F
100
AcDbEntity
  8
002
 62
     3
370
    30
100
AcDbCircle
 10
114.950993
 20
283.422337
 30
0.0
 40
3.0
100
AcDbArc
 50
107.893993
 51
180.0
  0
ARC
  5
6A
330
1F
100
AcDbEntity
  8
002
 62
     3
370
    30
100
AcDbCircle
 10
114.950993
 20
283.422337
 30
0.0
 40
3.0
100
AcDbArc
 50
180.0
 51
270.0
  0
ARC
  5
6B
330
1F
100
AcDbEntity
  8
002
 62
     3
370
    30
100
AcDbCircle
 10
112.492938
 20
291.03535
 30
0.0
 40
5.0
100
AcDbArc
 50
287.893993
 51
315.0
  0
ARC
  5
6C
330
1F
100
AcDbEntity
  8
002
 62
     3
370
    30
100
AcDbCircle
 10
135.450993
 20
381.422337
 30
0.0
 40
5.0
100
AcDbArc
 50
180.0
 51
270.0
  0
ARC
  5
6D
330
1F
100
AcDbEntity
  8
002
 62
     3
370
    30
100
AcDbCircle
 10
255.450993
 20
291.422337
 30
0.0
 40
5.0
100
AcDbArc
 50
180.0
 51
270.0
  0
LINE
  5
6E
330
1F
100
AcDbEntity
  8
002
 62
     3
370
    30
100
AcDbLine
 10
118.450993
 20
286.422337
 30
0.0
 11
118.450993
 21
280.422337
 31
0.0
  0
LINE
  5
6F
330
1F
100
AcDbEntity
  8
002
 62
     3
370
    30
100
AcDbLine
 10
117.950993
 20
289.422337
 30
0.0
 11
116.028472
 21
287.499816
 31
0.0
  0
LINE
  5
70
330
1F
100
AcDbEntity
  8
002
 62
     3
370
    30
100
AcDbLine
 10
107.950993
 20
271.422337
 30
0.0
 11
102.950993
 21
276.422337
 31
0.0
  0
LINE
  5
71
330
1F
100
AcDbEntity
  8
002
 62
     3
370
    30
100
AcDbLine
 10
252.450993
 20
331.422337
 30
0.0
 11
255.450993
 21
331.422337
 31
0.0
  0
LINE
  5
72
330
1F
100
AcDbEntity
  8
002
 62
     3
370
    30
100
AcDbLine
 10
255.450993
 20
326.422337
 30
0.0
 11
252.450993
 21
326.422337
 31
0.0
  0
ARC
  5
73
330
1F
100
AcDbEntity
  8
002
 62
     3
370
    30
100
AcDbCircle
 10
252.825993
 20
328.922337
 30
0.0
 40
3.625
100
AcDbArc
 50
316.397181
 51
43.602819
  0
ARC
  5
74
330
1F
100
AcDbEntity
  8
002
 62
     3
370
    30
100
AcDbCircle
 10
255.075993
 20
328.922337
 30
0.0
 40
3.625
100
AcDbArc
 50
136.397181
 51
223.602819
  0
LINE
  5
75
330
1F
100
AcDbEntity
  8
002
 62
     3
370
    30
100
AcDbLine
 10
252.450993
 20
326.422337
 30
0.0
 11
251.450993
 21
327.422337
 31
0.0
  0
LINE
  5
76
330
1F
100
AcDbEntity
  8
002
 62
     3
370
    30
100
AcDbLine
 10
251.450993
 20
327.422337
 30
0.0
 11
251.450993
 21
335.422337
 31
0.0
  0
LINE
  5
77
330
1F
100
AcDbEntity
  8
002
 62
     3
370
    30
100
AcDbLine
 10
251.450993
 20
327.560837
 30
0.0
 11
250.450993
 21
327.560837
 31
0.0
  0
ARC
  5
78
330
1F
100
AcDbEntity
  8
002
 62
     3
370
    30
100
AcDbCircle
 10
255.075993
 20
333.922337
 30
0.0
 40
3.625
100
AcDbArc
 50
136.397181
 51
223.602819
  0
LINE
  5
79
330
1F
100
AcDbEntity
  8
002
 62
     3
370
    30
100
AcDbLine
 10
251.450993
 20
335.283837
 30
0.0
 11
250.450993
 21
335.283837
 31
0.0
  0
LINE
  5
7A
330
1F
100
AcDbEntity
  8
002
 62
     3
370
    30
100
AcDbLine
 10
251.450993
 20
335.422337
 30
0.0
 11
252.450993
 21
336.422337
 31
0.0
  0
LINE
  5
7B
330
1F
100
AcDbEntity
  8
002
 62
     3
370
    30
100
AcDbLine
 10
252.450993
 20
336.422337
 30
0.0
 11
255.450993
 21
336.422337
 31
0.0
  0
ARC
  5
7C
330
1F
100
AcDbEntity
  8
002
 62
     3
370
    30
100
AcDbCircle
 10
252.825993
 20
333.922337
 30
0.0
 40
3.625
100
AcDbArc
 50
316.397181
 51
43.602819
  0
LINE
  5
7D
330
1F
100
AcDbEntity
  8
002
 62
     3
370
    30
100
AcDbLine
 10
258.364393
 20
328.562337
 30
0.0
 11
255.450993
 21
326.422337
 31
0.0
  0
ARC
  5
7E
330
1F
100
AcDbEntity
  8
002
 62
     3
370
    30
100
AcDbCircle
 10
259.071593
 20
327.855237
 30
0.0
 40
1.000061123131999
100
AcDbArc
 50
57.994617
 51
135.004051
  0
LINE
  5
7F
330
1F
100
AcDbEntity
  8
002
 62
     3
370
    30
100
AcDbLine
 10
260.450993
 20
328.172337
 30
0.0
 11
259.601593
 21
328.703237
 31
0.0
  0
LINE
  5
80
330
1F
100
AcDbEntity
  8
002
 62
     3
370
    30
100
AcDbLine
 10
263.450993
 20
328.922337
 30
0.0
 11
260.450993
 21
328.172337
 31
0.0
  0
LINE
  5
81
330
1F
100
AcDbEntity
  8
002
 62
     3
370
    30
100
AcDbLine
 10
260.450993
 20
333.922337
 30
0.0
 11
260.450993
 21
328.922337
 31
0.0
  0
LINE
  5
82
330
1F
100
AcDbEntity
  8
002
 62
     3
370
    30
100
AcDbLine
 10
258.926993
 20
329.124837
 30
0.0
 11
258.926993
 21
333.719837
 31
0.0
  0
LINE
  5
83
330
1F
100
AcDbEntity
  8
002
 62
     3
370
    30
100
AcDbLine
 10
255.450993
 20
336.422337
 30
0.0
 11
258.364393
 21
334.282337
 31
0.0
  0
ARC
  5
84
330
1F
100
AcDbEntity
  8
002
 62
     3
370
    30
100
AcDbCircle
 10
259.071593
 20
334.989437
 30
0.0
 40
1.000001999998045
100
AcDbArc
 50
224.995949
 51
302.005383
  0
LINE
  5
85
330
1F
100
AcDbEntity
  8
002
 62
     3
370
    30
100
AcDbLine
 10
259.601593
 20
334.141437
 30
0.0
 11
260.450993
 21
334.672337
 31
0.0
  0
LINE
  5
86
330
1F
100
AcDbEntity
  8
002
 62
     3
370
    30
100
AcDbLine
 10
260.450993
 20
334.672337
 30
0.0
 11
263.450993
 21
333.922337
 31
0.0
  0
LINE
  5
87
330
1F
100
AcDbEntity
  8
002
 62
     3
370
    30
100
AcDbLine
 10
263.450993
 20
333.922337
 30
0.0
 11
263.450993
 21
328.922337
 31
0.0
  0
ARC
  5
88
330
1F
100
AcDbEntity
  8
002
 62
     3
370
    30
100
AcDbCircle
 10
262.789493
 20
331.422337
 30
0.0
 40
1.000041124154433
100
AcDbArc
 50
311.412294
 51
48.587706
  0
ARC
  5
89
330
1F
100
AcDbEntity
  8
002
 62
     3
370
    30
100
AcDbCircle
 10
205.450993
 20
331.422337
 30
0.0
 40
10.0
100
AcDbArc
 50
104.477512
 51
75.522488
  0
LINE
  5
8A
330
1F
100
AcDbEntity
  8
002
 62
     3
370
    30
100
AcDbLine
 10
202.950993
 20
338.422337
 30
0.0
 11
207.950993
 21
338.422337
 31
0.0
  0
LINE
  5
8B
330
1F
100
AcDbEntity
  8
002
 62
     3
370
    30
100
AcDbLine
 10
202.950993
 20
343.422337
 30
0.0
 11
207.950993
 21
343.422337
 31
0.0
  0
LINE
  5
8C
330
1F
100
AcDbEntity
  8
002
 62
     3
370
    30
100
AcDbLine
 10
202.950993
 20
343.422337
 30
0.0
 11
202.950993
 21
338.422337
 31
0.0
  0
LINE
  5
8D
330
1F
100
AcDbEntity
  8
002
 62
     3
370
    30
100
AcDbLine
 10
207.950993
 20
343.422337
 30
0.0
 11
207.950993
 21
338.422337
 31
0.0
  0
ARC
  5
8E
330
1F
100
AcDbEntity
  8
002
 62
     3
370
    30
100
AcDbCircle
 10
135.450993
 20
378.493405
 30
0.0
 40
5.0
100
AcDbArc
 50
180.0
 51
225.0
  0
ARC
  5
8F
330
1F
100
AcDbEntity
  8
002
 62
     3
370
    30
100
AcDbCircle
 10
136.950993
 20
362.851269
 30
0.0
 40
5.0
100
AcDbArc
 50
0.0
 51
45.0
  0
ARC
  5
90
330
1F
100
AcDbEntity
  8
002
 62
     3
370
    30
100
AcDbCircle
 10
136.950993
 20
309.993405
 30
0.0
 40
5.0
100
AcDbArc
 50
315.0
 51
0.0
  0
ARC
  5
91
330
1F
100
AcDbEntity
  8
002
 62
     3
370
    30
100
AcDbCircle
 10
135.450993
 20
294.351269
 30
0.0
 40
5.0
100
AcDbArc
 50
135.0
 51
180.0
  0
LINE
  5
92
330
1F
100
AcDbEntity
  8
002
  6
CENTER
 62
    40
370
     9
100
AcDbLine
 10
119.597702
 20
386.422337
 30
0.0
 11
98.944622
 21
386.422337
 31
0.0
  0
LINE
  5
93
330
1F
100
AcDbEntity
  8
002
  6
CENTER
 62
    40
370
     9
100
AcDbLine
 10
120.242943
 20
301.422337
 30
0.0
 11
99.949093
 21
301.422337
 31
0.0
  0
LINE
  5
94
330
1F
100
AcDbEntity
  8
002
  6
CENTER
 62
    40
370
     9
100
AcDbLine
 10
130.450993
 20
285.981339
 30
0.0
 11
130.450993
 21
271.422337
 31
0.0
  0
LINE
  5
95
330
1F
100
AcDbEntity
  8
002
  6
CENTER
 62
    40
370
     9
100
AcDbLine
 10
137.950993
 20
275.769654
 30
0.0
 11
137.950993
 21
246.613037
 31
0.0
  0
LINE
  5
96
330
1F
100
AcDbEntity
  8
002
  6
CENTER
 62
    40
370
     9
100
AcDbLine
 10
205.450993
 20
377.859085
 30
0.0
 11
205.450993
 21
285.422337
 31
0.0
  0
LINE
  5
97
330
1F
100
AcDbEntity
  8
002
  6
CENTER
 62
    40
370
     9
100
AcDbLine
 10
265.152848
 20
331.422337
 30
0.0
 11
255.450993
 21
331.422337
 31
0.0
  0
LINE
  5
98
330
1F
100
AcDbEntity
  8
002
  6
CENTER
 62
    40
370
     9
100
AcDbLine
 10
197.950993
 20
278.268433
 30
0.0
 11
197.950993
 21
246.613037
 31
0.0
  0
LINE
  5
99
330
1F
100
AcDbEntity
  8
002
  6
CENTER
 62
    40
370
     9
100
AcDbLine
 10
265.450993
 20
289.607109
 30
0.0
 11
265.450993
 21
267.877976
 31
0.0
  0
LINE
  5
9A
330
1F
100
AcDbEntity
  8
002
 62
     3
370
    30
100
AcDbLine
 10
130.450993
 20
251.422337
 30
0.0
 11
130.450993
 21
271.422337
 31
0.0
  0
LINE
  5
9B
330
1F
100
AcDbEntity
  8
002
 62
     3
370
    30
100
AcDbLine
 10
205.450993
 20
271.422337
 30
0.0
 11
205.450993
 21
251.422337
 31
0.0
  0
LINE
  5
9C
330
1F
100
AcDbEntity
  8
002
 62
     3
370
    30
100
AcDbLine
 10
182.948088
 20
561.128131
 30
0.0
 11
152.948088
 21
561.128131
 31
0.0
  0
LINE
  5
9D
330
1F
100
AcDbEntity
  8
002
 62
     3
370
    50
100
AcDbLine
 10
174.950993
 20
581.128131
 30
0.0
 11
160.950993
 21
581.128131
 31
0.0
  0
LINE
  5
9E
330
1F
100
AcDbEntity
  8
002
 62
     3
370
    50
100
AcDbLine
 10
160.950993
 20
581.128131
 30
0.0
 11
160.950993
 21
563.128131
 31
0.0
  0
LINE
  5
9F
330
1F
100
AcDbEntity
  8
002
 62
     3
370
    50
100
AcDbLine
 10
174.950993
 20
581.128131
 30
0.0
 11
174.950993
 21
563.128131
 31
0.0
  0
LINE
  5
A0
330
1F
100
AcDbEntity
  8
002
 62
    40
370
     9
100
AcDbLine
 10
161.700993
 20
581.128131
 30
0.0
 11
161.700993
 21
563.128131
 31
0.0
  0
LINE
  5
A1
330
1F
100
AcDbEntity
  8
002
 62
    40
370
     9
100
AcDbLine
 10
174.200993
 20
581.128131
 30
0.0
 11
174.200993
 21
563.128131
 31
0.0
  0
LINE
  5
A2
330
1F
100
AcDbEntity
  8
002
 62
     3
370
    50
100
AcDbLine
 10
160.950993
 20
563.128131
 30
0.0
 11
174.950993
 21
563.128131
 31
0.0
  0
ARC
  5
A3
330
1F
100
AcDbEntity
  8
002
 62
     3
370
    50
100
AcDbCircle
 10
160.950993
 20
562.128131
 30
0.0
 40
1.0
100
AcDbArc
 50
0.0
 51
90.0
  0
ARC
  5
A4
330
1F
100
AcDbEntity
  8
002
 62
     3
370
    50
100
AcDbCircle
 10
160.950993
 20
562.128131
 30
0.0
 40
1.0
100
AcDbArc
 50
270.0
 51
0.0
  0
ARC
  5
A5
330
1F
100
AcDbEntity
  8
002
 62
     3
370
    50
100
AcDbCircle
 10
174.950993
 20
562.128131
 30
0.0
 40
1.0
100
AcDbArc
 50
180.0
 51
270.0
  0
ARC
  5
A6
330
1F
100
AcDbEntity
  8
002
 62
     3
370
    50
100
AcDbCircle
 10
174.950993
 20
562.128131
 30
0.0
 40
1.0
100
AcDbArc
 50
90.0
 51
180.0
  0
LINE
  5
A7
330
1F
100
AcDbEntity
  8
002
  6
HIDDEN
 62
    40
370
     9
100
AcDbLine
 10
117.950993
 20
391.922337
 30
0.0
 11
102.950993
 21
391.922337
 31
0.0
  0
LINE
  5
A8
330
1F
100
AcDbEntity
  8
002
  6
HIDDEN
 62
    40
370
     9
100
AcDbLine
 10
117.950993
 20
380.922337
 30
0.0
 11
102.950993
 21
380.922337
 31
0.0
  0
LINE
  5
A9
330
1F
100
AcDbEntity
  8
002
  6
HIDDEN
 62
    40
370
     9
100
AcDbLine
 10
117.950993
 20
306.922337
 30
0.0
 11
102.950993
 21
306.922337
 31
0.0
  0
LINE
  5
AA
330
1F
100
AcDbEntity
  8
002
  6
HIDDEN
 62
    40
370
     9
100
AcDbLine
 10
117.950993
 20
295.922337
 30
0.0
 11
102.950993
 21
295.922337
 31
0.0
  0
LINE
  5
AB
330
1F
100
AcDbEntity
  8
002
  6
HIDDEN
 62
    40
370
     9
100
AcDbLine
 10
124.950993
 20
286.422337
 30
0.0
 11
124.950993
 21
271.422337
 31
0.0
  0
LINE
  5
AC
330
1F
100
AcDbEntity
  8
002
  6
HIDDEN
 62
    40
370
     9
100
AcDbLine
 10
135.950993
 20
286.422337
 30
0.0
 11
135.950993
 21
271.422337
 31
0.0
  0
LINE
  5
AD
330
1F
100
AcDbEntity
  8
002
  6
HIDDEN
 62
    40
370
     9
100
AcDbLine
 10
259.950993
 20
286.422337
 30
0.0
 11
259.950993
 21
271.422337
 31
0.0
  0
LINE
  5
AE
330
1F
100
AcDbEntity
  8
002
  6
HIDDEN
 62
    40
370
     9
100
AcDbLine
 10
270.950993
 20
286.422337
 30
0.0
 11
270.950993
 21
271.422337
 31
0.0
  0
LINE
  5
AF
330
1F
100
AcDbEntity
  8
002
 62
     3
370
    30
100
AcDbLine
 10
194.950993
 20
136.422337
 30
0.0
 11
194.950993
 21
120.022337
 31
0.0
  0
LINE
  5
B0
330
1F
100
AcDbEntity
  8
002
 62
     3
370
    30
100
AcDbLine
 10
187.950993
 20
117.022337
 30
0.0
 11
187.950993
 21
116.422337
 31
0.0
  0
LINE
  5
B1
330
1F
100
AcDbEntity
  8
002
 62
     3
370
    30
100
AcDbLine
 10
147.950993
 20
117.022337
 30
0.0
 11
147.950993
 21
116.422337
 31
0.0
  0
LINE
  5
B2
330
1F
100
AcDbEntity
  8
002
 62
     3
370
    30
100
AcDbLine
 10
140.950993
 20
136.422337
 30
0.0
 11
140.950993
 21
120.022337
 31
0.0
  0
LINE
  5
B3
330
1F
100
AcDbEntity
  8
002
 62
     3
370
    30
100
AcDbLine
 10
102.950993
 20
276.422337
 30
0.0
 11
102.950993
 21
401.422337
 31
0.0
  0
LINE
  5
B4
330
1F
100
AcDbEntity
  8
002
 62
     3
370
    30
100
AcDbLine
 10
102.950993
 20
953.453755
 30
0.0
 11
102.950993
 21
1049.453755
 31
0.0
  0
LINE
  5
B5
330
1F
100
AcDbEntity
  8
002
 62
     3
370
    30
100
AcDbLine
 10
250.450993
 20
951.453755
 30
0.0
 11
160.450993
 21
951.453755
 31
0.0
  0
LINE
  5
B6
330
1F
100
AcDbEntity
  8
002
 62
     3
370
    30
100
AcDbLine
 10
250.450993
 20
1051.453755
 30
0.0
 11
160.450993
 21
1051.453755
 31
0.0
  0
LINE
  5
B7
330
1F
100
AcDbEntity
  8
002
 62
     3
370
    30
100
AcDbLine
 10
275.950993
 20
1049.453755
 30
0.0
 11
275.950993
 21
953.453755
 31
0.0
  0
LINE
  5
B8
330
1F
100
AcDbEntity
  8
002
 62
     3
370
    30
100
AcDbLine
 10
160.450993
 20
953.453755
 30
0.0
 11
102.950993
 21
953.453755
 31
0.0
  0
LINE
  5
B9
330
1F
100
AcDbEntity
  8
002
 62
     3
370
    30
100
AcDbLine
 10
160.450993
 20
1049.453755
 30
0.0
 11
102.950993
 21
1049.453755
 31
0.0
  0
LINE
  5
BA
330
1F
100
AcDbEntity
  8
002
 62
     3
370
    30
100
AcDbLine
 10
250.450993
 20
953.453755
 30
0.0
 11
275.950993
 21
953.453755
 31
0.0
  0
LINE
  5
BB
330
1F
100
AcDbEntity
  8
002
 62
     3
370
    30
100
AcDbLine
 10
250.450993
 20
1049.453755
 30
0.0
 11
275.950993
 21
1049.453755
 31
0.0
  0
CIRCLE
  5
BC
330
1F
100
AcDbEntity
  8
002
 62
     3
370
    30
100
AcDbCircle
 10
265.450993
 20
966.453755
 30
0.0
 40
5.5
  0
CIRCLE
  5
BD
330
1F
100
AcDbEntity
  8
002
 62
     3
370
    30
100
AcDbCircle
 10
265.450993
 20
1036.453755
 30
0.0
 40
5.5
  0
CIRCLE
  5
BE
330
1F
100
AcDbEntity
  8
002
 62
     3
370
    30
100
AcDbCircle
 10
130.450993
 20
1036.453755
 30
0.0
 40
5.5
  0
CIRCLE
  5
BF
330
1F
100
AcDbEntity
  8
002
 62
     3
370
    30
100
AcDbCircle
 10
130.450993
 20
966.453755
 30
0.0
 40
5.5
  0
ARC
  5
C0
330
1F
100
AcDbEntity
  8
002
 62
     3
370
    30
100
AcDbCircle
 10
130.450993
 20
966.453755
 30
0.0
 40
12.0
100
AcDbArc
 50
135.0
 51
315.0
  0
ARC
  5
C1
330
1F
100
AcDbEntity
  8
002
 62
     3
370
    30
100
AcDbCircle
 10
130.450993
 20
1036.453755
 30
0.0
 40
12.0
100
AcDbArc
 50
45.0
 51
225.0
  0
LINE
  5
C2
330
1F
100
AcDbEntity
  8
002
 62
     3
370
    30
100
AcDbLine
 10
149.981501
 20
1033.893809
 30
0.0
 11
138.936274
 21
1044.939036
 31
0.0
  0
LINE
  5
C3
330
1F
100
AcDbEntity
  8
002
 62
     3
370
    30
100
AcDbLine
 10
133.690512
 20
1016.243673
 30
0.0
 11
121.965711
 21
1027.968473
 31
0.0
  0
ARC
  5
C4
330
1F
100
AcDbEntity
  8
002
 62
     3
370
    30
100
AcDbCircle
 10
167.950993
 20
1001.453755
 30
0.0
 40
37.5
100
AcDbArc
 50
203.20929
 51
134.979312
  0
LINE
  5
C5
330
1F
100
AcDbEntity
  8
002
 62
     3
370
    30
100
AcDbLine
 10
149.858161
 20
968.89036
 30
0.0
 11
138.936274
 21
957.968473
 31
0.0
  0
LINE
  5
C6
330
1F
100
AcDbEntity
  8
002
 62
     3
370
    30
100
AcDbLine
 10
133.796828
 20
986.770153
 30
0.0
 11
121.965711
 21
974.939036
 31
0.0
  0
ARC
  5
C7
330
1F
100
AcDbEntity
  8
002
 62
     3
370
    30
100
AcDbCircle
 10
123.950993
 20
990.953755
 30
0.0
 40
6.0
100
AcDbArc
 50
90.0
 51
180.0
  0
ARC
  5
C8
330
1F
100
AcDbEntity
  8
002
 62
     3
370
    30
100
AcDbCircle
 10
123.950993
 20
1011.953755
 30
0.0
 40
6.0
100
AcDbArc
 50
180.0
 51
270.0
  0
ARC
  5
C9
330
1F
100
AcDbEntity
  8
002
 62
     3
370
    30
100
AcDbCircle
 10
125.737251
 20
1011.953755
 30
0.0
 40
6.0
100
AcDbArc
 50
270.0
 51
346.032037
  0
LINE
  5
CA
330
1F
100
AcDbEntity
  8
002
 62
     3
370
    30
100
AcDbLine
 10
255.450993
 20
978.453755
 30
0.0
 11
275.950993
 21
978.453755
 31
0.0
  0
LINE
  5
CB
330
1F
100
AcDbEntity
  8
002
 62
     3
370
    30
100
AcDbLine
 10
255.450993
 20
1024.453755
 30
0.0
 11
275.950993
 21
1024.453755
 31
0.0
  0
LINE
  5
CC
330
1F
100
AcDbEntity
  8
002
 62
     3
370
    30
100
AcDbLine
 10
255.450993
 20
1020.453755
 30
0.0
 11
275.950993
 21
1020.453755
 31
0.0
  0
LINE
  5
CD
330
1F
100
AcDbEntity
  8
002
 62
     3
370
    30
100
AcDbLine
 10
255.450993
 20
982.453755
 30
0.0
 11
275.950993
 21
982.453755
 31
0.0
  0
LINE
  5
CE
330
1F
100
AcDbEntity
  8
002
 62
     3
370
    30
100
AcDbLine
 10
250.450993
 20
1051.453755
 30
0.0
 11
250.450993
 21
951.453755
 31
0.0
  0
ARC
  5
CF
330
1F
100
AcDbEntity
  8
002
 62
     3
370
    30
100
AcDbCircle
 10
255.450993
 20
987.453755
 30
0.0
 40
5.0
100
AcDbArc
 50
180.0
 51
270.0
  0
ARC
  5
D0
330
1F
100
AcDbEntity
  8
002
 62
     3
370
    30
100
AcDbCircle
 10
255.450993
 20
983.453755
 30
0.0
 40
5.0
100
AcDbArc
 50
180.0
 51
270.0
  0
ARC
  5
D1
330
1F
100
AcDbEntity
  8
002
 62
     3
370
    30
100
AcDbCircle
 10
255.450993
 20
1015.453755
 30
0.0
 40
5.0
100
AcDbArc
 50
90.0
 51
180.0
  0
ARC
  5
D2
330
1F
100
AcDbEntity
  8
002
 62
     3
370
    30
100
AcDbCircle
 10
255.450993
 20
1019.453755
 30
0.0
 40
5.0
100
AcDbArc
 50
90.0
 51
180.0
  0
LINE
  5
D3
330
1F
100
AcDbEntity
  8
002
 62
     3
370
    30
100
AcDbLine
 10
160.450993
 20
964.768616
 30
0.0
 11
160.450993
 21
951.453755
 31
0.0
  0
LINE
  5
D4
330
1F
100
AcDbEntity
  8
002
 62
     3
370
    30
100
AcDbLine
 10
160.450993
 20
1038.124447
 30
0.0
 11
160.450993
 21
1051.453755
 31
0.0
  0
LINE
  5
D5
330
1F
100
AcDbEntity
  8
002
 62
     3
370
    30
100
AcDbLine
 10
251.450993
 20
997.592255
 30
0.0
 11
250.450993
 21
997.592255
 31
0.0
  0
ARC
  5
D6
330
1F
100
AcDbEntity
  8
002
 62
     3
370
    30
100
AcDbCircle
 10
255.075993
 20
998.953755
 30
0.0
 40
3.625
100
AcDbArc
 50
136.397181
 51
223.602819
  0
LINE
  5
D7
330
1F
100
AcDbEntity
  8
002
 62
     3
370
    30
100
AcDbLine
 10
251.450993
 20
997.453755
 30
0.0
 11
251.450993
 21
1005.453755
 31
0.0
  0
LINE
  5
D8
330
1F
100
AcDbEntity
  8
002
 62
     3
370
    30
100
AcDbLine
 10
251.450993
 20
1005.315255
 30
0.0
 11
250.450993
 21
1005.315255
 31
0.0
  0
LINE
  5
D9
330
1F
100
AcDbEntity
  8
002
 62
     3
370
    30
100
AcDbLine
 10
251.450993
 20
1005.453755
 30
0.0
 11
252.450993
 21
1006.453755
 31
0.0
  0
LINE
  5
DA
330
1F
100
AcDbEntity
  8
002
 62
     3
370
    30
100
AcDbLine
 10
252.450993
 20
996.453755
 30
0.0
 11
251.450993
 21
997.453755
 31
0.0
  0
LINE
  5
DB
330
1F
100
AcDbEntity
  8
002
 62
     3
370
    30
100
AcDbLine
 10
255.450993
 20
996.453755
 30
0.0
 11
252.450993
 21
996.453755
 31
0.0
  0
ARC
  5
DC
330
1F
100
AcDbEntity
  8
002
 62
     3
370
    30
100
AcDbCircle
 10
252.825993
 20
998.953755
 30
0.0
 40
3.625
100
AcDbArc
 50
316.397181
 51
43.602819
  0
LINE
  5
DD
330
1F
100
AcDbEntity
  8
002
 62
     3
370
    30
100
AcDbLine
 10
252.450993
 20
1001.453755
 30
0.0
 11
255.450993
 21
1001.453755
 31
0.0
  0
ARC
  5
DE
330
1F
100
AcDbEntity
  8
002
 62
     3
370
    30
100
AcDbCircle
 10
255.075993
 20
1003.953755
 30
0.0
 40
3.625
100
AcDbArc
 50
136.397181
 51
223.602819
  0
LINE
  5
DF
330
1F
100
AcDbEntity
  8
002
 62
     3
370
    30
100
AcDbLine
 10
252.450993
 20
1006.453755
 30
0.0
 11
255.450993
 21
1006.453755
 31
0.0
  0
LINE
  5
E0
330
1F
100
AcDbEntity
  8
002
 62
     3
370
    30
100
AcDbLine
 10
255.450993
 20
1006.453755
 30
0.0
 11
258.364393
 21
1004.313755
 31
0.0
  0
ARC
  5
E1
330
1F
100
AcDbEntity
  8
002
 62
     3
370
    30
100
AcDbCircle
 10
259.071593
 20
1005.020855
 30
0.0
 40
1.000001999998045
100
AcDbArc
 50
224.995949
 51
302.005383
  0
LINE
  5
E2
330
1F
100
AcDbEntity
  8
002
 62
     3
370
    30
100
AcDbLine
 10
259.601593
 20
1004.172855
 30
0.0
 11
260.450993
 21
1004.703755
 31
0.0
  0
LINE
  5
E3
330
1F
100
AcDbEntity
  8
002
 62
     3
370
    30
100
AcDbLine
 10
260.450993
 20
1004.703755
 30
0.0
 11
263.450993
 21
1003.953755
 31
0.0
  0
LINE
  5
E4
330
1F
100
AcDbEntity
  8
002
 62
     3
370
    30
100
AcDbLine
 10
258.364393
 20
998.593755
 30
0.0
 11
255.450993
 21
996.453755
 31
0.0
  0
ARC
  5
E5
330
1F
100
AcDbEntity
  8
002
 62
     3
370
    30
100
AcDbCircle
 10
259.071593
 20
997.886655
 30
0.0
 40
1.000061123131999
100
AcDbArc
 50
57.994617
 51
135.004051
  0
LINE
  5
E6
330
1F
100
AcDbEntity
  8
002
 62
     3
370
    30
100
AcDbLine
 10
260.450993
 20
998.203755
 30
0.0
 11
259.601593
 21
998.734655
 31
0.0
  0
LINE
  5
E7
330
1F
100
AcDbEntity
  8
002
 62
     3
370
    30
100
AcDbLine
 10
263.450993
 20
998.953755
 30
0.0
 11
260.450993
 21
998.203755
 31
0.0
  0
LINE
  5
E8
330
1F
100
AcDbEntity
  8
002
 62
     3
370
    30
100
AcDbLine
 10
260.450993
 20
1003.953755
 30
0.0
 11
260.450993
 21
998.953755
 31
0.0
  0
LINE
  5
E9
330
1F
100
AcDbEntity
  8
002
 62
     3
370
    30
100
AcDbLine
 10
258.926993
 20
999.156255
 30
0.0
 11
258.926993
 21
1003.751255
 31
0.0
  0
LINE
  5
EA
330
1F
100
AcDbEntity
  8
002
 62
     3
370
    30
100
AcDbLine
 10
263.450993
 20
1003.953755
 30
0.0
 11
263.450993
 21
998.953755
 31
0.0
  0
ARC
  5
EB
330
1F
100
AcDbEntity
  8
002
 62
     3
370
    30
100
AcDbCircle
 10
262.789493
 20
1001.453755
 30
0.0
 40
1.000041124154433
100
AcDbArc
 50
311.412294
 51
48.587706
  0
LINE
  5
EC
330
1F
100
AcDbEntity
  8
002
 62
     3
370
    30
100
AcDbLine
 10
195.450993
 20
906.453755
 30
0.0
 11
215.450993
 21
906.453755
 31
0.0
  0
LINE
  5
ED
330
1F
100
AcDbEntity
  8
002
 62
     3
370
    30
100
AcDbLine
 10
215.450993
 20
946.453755
 30
0.0
 11
215.450993
 21
906.453755
 31
0.0
  0
LINE
  5
EE
330
1F
100
AcDbEntity
  8
002
 62
     3
370
    30
100
AcDbLine
 10
195.450993
 20
946.453755
 30
0.0
 11
195.450993
 21
906.453755
 31
0.0
  0
LINE
  5
EF
330
1F
100
AcDbEntity
  8
002
 62
     3
370
    30
100
AcDbLine
 10
192.950993
 20
946.453755
 30
0.0
 11
217.950993
 21
946.453755
 31
0.0
  0
LINE
  5
F0
330
1F
100
AcDbEntity
  8
002
 62
     3
370
    30
100
AcDbLine
 10
192.950993
 20
951.453755
 30
0.0
 11
192.950993
 21
946.453755
 31
0.0
  0
LINE
  5
F1
330
1F
100
AcDbEntity
  8
002
 62
     3
370
    30
100
AcDbLine
 10
217.950993
 20
951.453755
 30
0.0
 11
217.950993
 21
946.453755
 31
0.0
  0
LINE
  5
F2
330
1F
100
AcDbEntity
  8
002
 62
     3
370
    30
100
AcDbLine
 10
202.950993
 20
941.953755
 30
0.0
 11
202.950993
 21
906.453755
 31
0.0
  0
LINE
  5
F3
330
1F
100
AcDbEntity
  8
002
 62
     3
370
    30
100
AcDbLine
 10
207.950993
 20
941.953755
 30
0.0
 11
207.950993
 21
906.453755
 31
0.0
  0
ARC
  5
F4
330
1F
100
AcDbEntity
  8
002
 62
     3
370
    30
100
AcDbCircle
 10
205.450993
 20
941.953755
 30
0.0
 40
2.5
100
AcDbArc
 50
90.0
 51
180.0
  0
ARC
  5
F5
330
1F
100
AcDbEntity
  8
002
 62
     3
370
    30
100
AcDbCircle
 10
205.450993
 20
941.953755
 30
0.0
 40
2.5
100
AcDbArc
 50
0.0
 51
90.0
  0
LINE
  5
F6
330
1F
100
AcDbEntity
  8
002
 62
     3
370
    30
100
AcDbLine
 10
195.450993
 20
1096.453755
 30
0.0
 11
215.450993
 21
1096.453755
 31
0.0
  0
LINE
  5
F7
330
1F
100
AcDbEntity
  8
002
 62
     3
370
    30
100
AcDbLine
 10
215.450993
 20
1056.453755
 30
0.0
 11
215.450993
 21
1096.453755
 31
0.0
  0
LINE
  5
F8
330
1F
100
AcDbEntity
  8
002
 62
     3
370
    30
100
AcDbLine
 10
195.450993
 20
1056.453755
 30
0.0
 11
195.450993
 21
1096.453755
 31
0.0
  0
LINE
  5
F9
330
1F
100
AcDbEntity
  8
002
 62
     3
370
    30
100
AcDbLine
 10
192.950993
 20
1056.453755
 30
0.0
 11
217.950993
 21
1056.453755
 31
0.0
  0
LINE
  5
FA
330
1F
100
AcDbEntity
  8
002
 62
     3
370
    30
100
AcDbLine
 10
192.950993
 20
1051.453755
 30
0.0
 11
192.950993
 21
1056.453755
 31
0.0
  0
LINE
  5
FB
330
1F
100
AcDbEntity
  8
002
 62
     3
370
    30
100
AcDbLine
 10
217.950993
 20
1051.453755
 30
0.0
 11
217.950993
 21
1056.453755
 31
0.0
  0
LINE
  5
FC
330
1F
100
AcDbEntity
  8
002
 62
     3
370
    30
100
AcDbLine
 10
202.950993
 20
1060.953755
 30
0.0
 11
202.950993
 21
1096.453755
 31
0.0
  0
LINE
  5
FD
330
1F
100
AcDbEntity
  8
002
 62
     3
370
    30
100
AcDbLine
 10
207.950993
 20
1060.953755
 30
0.0
 11
207.950993
 21
1096.453755
 31
0.0
  0
ARC
  5
FE
330
1F
100
AcDbEntity
  8
002
 62
     3
370
    30
100
AcDbCircle
 10
205.450993
 20
1060.953755
 30
0.0
 40
2.5
100
AcDbArc
 50
180.0
 51
270.0
  0
ARC
  5
FF
330
1F
100
AcDbEntity
  8
002
 62
     3
370
    30
100
AcDbCircle
 10
205.450993
 20
1060.953755
 30
0.0
 40
2.5
100
AcDbArc
 50
270.0
 51
0.0
  0
ARC
  5
100
330
1F
100
AcDbEntity
  8
002
  6
CENTER
 62
     3
370
    30
100
AcDbCircle
 10
252.825993
 20
1003.953755
 30
0.0
 40
3.625
100
AcDbArc
 50
316.397181
 51
43.602819
  0
LINE
  5
101
330
1F
100
AcDbEntity
  8
002
 62
     3
370
    30
100
AcDbLine
 10
117.950993
 20
990.953755
 30
0.0
 11
117.950993
 21
953.453755
 31
0.0
  0
LINE
  5
102
330
1F
100
AcDbEntity
  8
002
 62
     3
370
    30
100
AcDbLine
 10
117.950993
 20
1011.953755
 30
0.0
 11
117.950993
 21
1049.453755
 31
0.0
  0
ARC
  5
103
330
1F
100
AcDbEntity
  8
002
 62
     3
370
    30
100
AcDbCircle
 10
167.950993
 20
1001.453755
 30
0.0
 40
37.5
100
AcDbArc
 50
135.394984
 51
166.032037
  0
ARC
  5
104
330
1F
100
AcDbEntity
  8
002
 62
     3
370
    30
100
AcDbCircle
 10
167.950993
 20
1001.453755
 30
0.0
 40
37.5
100
AcDbArc
 50
193.967963
 51
203.20929
  0
ARC
  5
105
330
1F
100
AcDbEntity
  8
002
 62
     3
370
    30
100
AcDbCircle
 10
125.737251
 20
990.953755
 30
0.0
 40
6.0
100
AcDbArc
 50
13.967963
 51
90.0
  0
CIRCLE
  5
106
330
1F
100
AcDbEntity
  8
002
 62
     3
370
    30
100
AcDbCircle
 10
167.950993
 20
1001.453755
 30
0.0
 40
15.0
  0
CIRCLE
  5
107
330
1F
100
AcDbEntity
  8
002
 62
     3
370
    30
100
AcDbCircle
 10
167.950993
 20
1001.453755
 30
0.0
 40
7.0
  0
LINE
  5
108
330
1F
100
AcDbEntity
  8
002
 62
     3
370
    30
100
AcDbLine
 10
125.737251
 20
996.953755
 30
0.0
 11
123.950993
 21
996.953755
 31
0.0
  0
LINE
  5
109
330
1F
100
AcDbEntity
  8
002
 62
     3
370
    30
100
AcDbLine
 10
125.737251
 20
1005.953755
 30
0.0
 11
123.950993
 21
1005.953755
 31
0.0
  0
LINE
  5
10A
330
1F
100
AcDbEntity
  8
002
  6
DASHED
370
     9
100
AcDbLine
 10
160.450993
 20
1038.124447
 30
0.0
 11
160.450993
 21
1037.706692
 31
0.0
  0
LINE
  5
10B
330
1F
100
AcDbEntity
  8
002
  6
CENTER
 62
    40
370
     9
100
AcDbLine
 10
96.052761
 20
1001.453755
 30
0.0
 11
252.450993
 21
1001.453755
 31
0.0
  0
LINE
  5
10C
330
1F
100
AcDbEntity
  8
002
  6
CENTER
 62
    40
370
     9
100
AcDbLine
 10
205.450993
 20
899.933216
 30
0.0
 11
205.450993
 21
1106.012134
 31
0.0
  0
LINE
  5
10D
330
1F
100
AcDbEntity
  8
002
  6
CENTER
 62
    40
370
     9
100
AcDbLine
 10
265.450993
 20
974.199402
 30
0.0
 11
265.450993
 21
958.969029
 31
0.0
  0
LINE
  5
10E
330
1F
100
AcDbEntity
  8
002
  6
CENTER
 62
    40
370
     9
100
AcDbLine
 10
258.556706
 20
966.453755
 30
0.0
 11
272.154194
 21
966.453755
 31
0.0
  0
LINE
  5
10F
330
1F
100
AcDbEntity
  8
002
  6
CENTER
 62
    40
370
     9
100
AcDbLine
 10
167.950993
 20
1059.995491
 30
0.0
 11
167.950993
 21
946.716683
 31
0.0
  0
LINE
  5
110
330
1F
100
AcDbEntity
  8
002
  6
CENTER
 62
    40
370
     9
100
AcDbLine
 10
179.950993
 20
1013.453755
 30
0.0
 11
179.950993
 21
989.453755
 31
0.0
  0
LINE
  5
111
330
1F
100
AcDbEntity
  8
002
 62
    40
370
     9
100
AcDbLine
 10
176.950993
 20
1013.453755
 30
0.0
 11
176.950993
 21
989.453755
 31
0.0
  0
CIRCLE
  5
112
330
1F
100
AcDbEntity
  8
002
 62
    40
370
     9
100
AcDbCircle
 10
167.950993
 20
1001.453755
 30
0.0
 40
6.25
  0
LINE
  5
113
330
1F
100
AcDbEntity
  8
002
  6
CENTER
 62
    40
370
     9
100
AcDbLine
 10
119.070889
 20
966.453755
 30
0.0
 11
101.582363
 21
966.453755
 31
0.0
  0
LINE
  5
114
330
1F
100
AcDbEntity
  8
002
  6
CENTER
 62
    40
370
     9
100
AcDbLine
 10
130.450993
 20
974.969351
 30
0.0
 11
130.450993
 21
957.065865
 31
0.0
  0
LINE
  5
115
330
1F
100
AcDbEntity
  8
002
  6
CENTER
 62
    40
370
     9
100
AcDbLine
 10
137.1976
 20
966.453755
 30
0.0
 11
122.944012
 21
966.453755
 31
0.0
  0
LINE
  5
116
330
1F
100
AcDbEntity
  8
002
  6
CENTER
 62
    40
370
     9
100
AcDbLine
 10
119.825905
 20
1036.453755
 30
0.0
 11
100.779156
 21
1036.453755
 31
0.0
  0
LINE
  5
117
330
1F
100
AcDbEntity
  8
002
  6
CENTER
 62
    40
370
     9
100
AcDbLine
 10
130.450993
 20
1027.831515
 30
0.0
 11
130.450993
 21
1043.915631
 31
0.0
  0
LINE
  5
118
330
1F
100
AcDbEntity
  8
002
  6
CENTER
 62
    40
370
     9
100
AcDbLine
 10
139.016968
 20
1036.453755
 30
0.0
 11
122.944012
 21
1036.453755
 31
0.0
  0
LINE
  5
119
330
1F
100
AcDbEntity
  8
002
  6
CENTER
 62
    40
370
     9
100
AcDbLine
 10
265.450993
 20
1029.598772
 30
0.0
 11
265.450993
 21
1044.175991
 31
0.0
  0
LINE
  5
11A
330
1F
100
AcDbEntity
  8
002
  6
CENTER
 62
    40
370
     9
100
AcDbLine
 10
257.903553
 20
1036.453755
 30
0.0
 11
272.48077
 21
1036.453755
 31
0.0
  0
LINE
  5
11B
330
1F
100
AcDbEntity
  8
002
  6
HIDDEN
 62
    40
370
     9
100
AcDbLine
 10
117.950993
 20
960.953755
 30
0.0
 11
102.950993
 21
960.953755
 31
0.0
  0
LINE
  5
11C
330
1F
100
AcDbEntity
  8
002
  6
HIDDEN
 62
    40
370
     9
100
AcDbLine
 10
117.950993
 20
971.953755
 30
0.0
 11
102.950993
 21
971.953755
 31
0.0
  0
LINE
  5
11D
330
1F
100
AcDbEntity
  8
002
  6
HIDDEN
 62
    40
370
     9
100
AcDbLine
 10
117.950993
 20
1030.953755
 30
0.0
 11
102.950993
 21
1030.953755
 31
0.0
  0
LINE
  5
11E
330
1F
100
AcDbEntity
  8
002
  6
HIDDEN
 62
    40
370
     9
100
AcDbLine
 10
117.950993
 20
1041.953755
 30
0.0
 11
102.950993
 21
1041.953755
 31
0.0
  0
LINE
  5
11F
330
1F
100
AcDbEntity
  8
002
  6
CENTER
 62
    40
370
     9
100
AcDbLine
 10
205.450993
 20
759.545755
 30
0.0
 11
205.450993
 21
734.607755
 31
0.0
  0
LINE
  5
120
330
1F
100
AcDbEntity
  8
002
  6
CENTER
 62
    40
370
     9
100
AcDbLine
 10
216.846993
 20
746.453755
 30
0.0
 11
192.865993
 21
746.453755
 31
0.0
  0
LINE
  5
121
330
1F
100
AcDbEntity
  8
002
 62
     3
370
    30
100
AcDbLine
 10
208.450993
 20
752.953698
 30
0.0
 11
202.450993
 21
752.953698
 31
0.0
  0
LINE
  5
122
330
1F
100
AcDbEntity
  8
002
 62
     3
370
    30
100
AcDbLine
 10
202.450993
 20
758.953698
 30
0.0
 11
208.450993
 21
758.953698
 31
0.0
  0
LINE
  5
123
330
1F
100
AcDbEntity
  8
002
 62
     3
370
    30
100
AcDbLine
 10
208.450993
 20
758.953698
 30
0.0
 11
208.450993
 21
752.953698
 31
0.0
  0
LINE
  5
124
330
1F
100
AcDbEntity
  8
002
 62
     3
370
    30
100
AcDbLine
 10
202.450993
 20
758.953698
 30
0.0
 11
202.450993
 21
752.953698
 31
0.0
  0
ARC
  5
125
330
1F
100
AcDbEntity
  8
002
 62
     3
370
    30
100
AcDbCircle
 10
205.450993
 20
746.453755
 30
0.0
 40
10.00052443624832
100
AcDbArc
 50
107.456658
 51
72.543342
  0
LINE
  5
126
330
1F
100
AcDbEntity
  8
002
  6
CENTER
 62
    40
370
     9
100
AcDbLine
 10
605.682307
 20
331.422337
 30
0.0
 11
449.070979
 21
331.422337
 31
0.0
  0
LINE
  5
127
330
1F
100
AcDbEntity
  8
002
 62
     3
370
    30
100
AcDbLine
 10
558.682307
 20
251.422337
 30
0.0
 11
483.682307
 21
251.422337
 31
0.0
  0
LINE
  5
128
330
1F
100
AcDbEntity
  8
002
 62
     3
370
    30
100
AcDbLine
 10
536.179402
 20
561.128131
 30
0.0
 11
506.179402
 21
561.128131
 31
0.0
  0
LINE
  5
129
330
1F
100
AcDbEntity
  8
002
 62
     3
370
    50
100
AcDbLine
 10
514.182307
 20
581.128131
 30
0.0
 11
514.182307
 21
563.128131
 31
0.0
  0
LINE
  5
12A
330
1F
100
AcDbEntity
  8
002
 62
     3
370
    50
100
AcDbLine
 10
528.182307
 20
581.128131
 30
0.0
 11
528.182307
 21
563.128131
 31
0.0
  0
LINE
  5
12B
330
1F
100
AcDbEntity
  8
002
 62
    40
370
     9
100
AcDbLine
 10
514.932307
 20
581.128131
 30
0.0
 11
514.932307
 21
563.128131
 31
0.0
  0
LINE
  5
12C
330
1F
100
AcDbEntity
  8
002
 62
    40
370
     9
100
AcDbLine
 10
527.432307
 20
581.128131
 30
0.0
 11
527.432307
 21
563.128131
 31
0.0
  0
LINE
  5
12D
330
1F
100
AcDbEntity
  8
002
 62
     3
370
    50
100
AcDbLine
 10
514.182307
 20
563.128131
 30
0.0
 11
528.182307
 21
563.128131
 31
0.0
  0
ARC
  5
12E
330
1F
100
AcDbEntity
  8
002
 62
     3
370
    50
100
AcDbCircle
 10
514.182307
 20
562.128131
 30
0.0
 40
1.0
100
AcDbArc
 50
0.0
 51
90.0
  0
ARC
  5
12F
330
1F
100
AcDbEntity
  8
002
 62
     3
370
    50
100
AcDbCircle
 10
514.182307
 20
562.128131
 30
0.0
 40
1.0
100
AcDbArc
 50
270.0
 51
0.0
  0
ARC
  5
130
330
1F
100
AcDbEntity
  8
002
 62
     3
370
    50
100
AcDbCircle
 10
528.182307
 20
562.128131
 30
0.0
 40
1.0
100
AcDbArc
 50
180.0
 51
270.0
  0
ARC
  5
131
330
1F
100
AcDbEntity
  8
002
 62
     3
370
    50
100
AcDbCircle
 10
528.182307
 20
562.128131
 30
0.0
 40
1.0
100
AcDbArc
 50
90.0
 51
180.0
  0
LINE
  5
132
330
1F
100
AcDbEntity
  8
002
 62
     3
370
    30
100
AcDbLine
 10
539.179402
 20
526.128131
 30
0.0
 11
503.179402
 21
526.128131
 31
0.0
  0
ARC
  5
133
330
1F
100
AcDbEntity
  8
002
 62
     3
370
    30
100
AcDbCircle
 10
499.179402
 20
526.128131
 30
0.0
 40
1.999943591704517
100
AcDbArc
 50
0.0
 51
85.810693
  0
LINE
  5
134
330
1F
100
AcDbEntity
  8
002
 62
     3
370
    30
100
AcDbLine
 10
499.325502
 20
528.122731
 30
0.0
 11
485.533202
 21
529.133431
 31
0.0
  0
LINE
  5
135
330
1F
100
AcDbEntity
  8
002
 62
     3
370
    30
100
AcDbLine
 10
485.679402
 20
531.128131
 30
0.0
 11
556.679402
 21
531.128131
 31
0.0
  0
LINE
  5
136
330
1F
100
AcDbEntity
  8
002
 62
     3
370
    30
100
AcDbLine
 10
556.825502
 20
533.122731
 30
0.0
 11
543.033202
 21
534.133431
 31
0.0
  0
ARC
  5
137
330
1F
100
AcDbEntity
  8
002
 62
     3
370
    30
100
AcDbCircle
 10
543.179402
 20
536.128131
 30
0.0
 40
2.000050631859185
100
AcDbArc
 50
94.192164
 51
265.808046
  0
LINE
  5
138
330
1F
100
AcDbEntity
  8
002
 62
     3
370
    30
100
AcDbLine
 10
543.033202
 20
538.122731
 30
0.0
 11
556.825502
 21
539.133431
 31
0.0
  0
ARC
  5
139
330
1F
100
AcDbEntity
  8
002
 62
     3
370
    30
100
AcDbCircle
 10
556.679402
 20
541.128131
 30
0.0
 40
1.999943591704517
100
AcDbArc
 50
274.189097
 51
85.810693
  0
ARC
  5
13A
330
1F
100
AcDbEntity
  8
002
 62
     3
370
    30
100
AcDbCircle
 10
538.179402
 20
546.128131
 30
0.0
 40
2.000050631859183
100
AcDbArc
 50
180.0
 51
265.808046
  0
LINE
  5
13B
330
1F
100
AcDbEntity
  8
002
 62
     3
370
    30
100
AcDbLine
 10
536.179402
 20
546.128131
 30
0.0
 11
536.179402
 21
547.128131
 31
0.0
  0
LINE
  5
13C
330
1F
100
AcDbEntity
  8
002
 62
     3
370
    30
100
AcDbLine
 10
537.179402
 20
547.128131
 30
0.0
 11
537.179402
 21
560.128131
 31
0.0
  0
LINE
  5
13D
330
1F
100
AcDbEntity
  8
002
 62
     3
370
    30
100
AcDbLine
 10
536.179402
 20
560.128131
 30
0.0
 11
536.179402
 21
561.128131
 31
0.0
  0
LINE
  5
13E
330
1F
100
AcDbEntity
  8
002
 62
     3
370
    30
100
AcDbLine
 10
506.179402
 20
561.128131
 30
0.0
 11
506.179402
 21
560.128131
 31
0.0
  0
LINE
  5
13F
330
1F
100
AcDbEntity
  8
002
 62
     3
370
    30
100
AcDbLine
 10
505.179402
 20
560.128131
 30
0.0
 11
545.179402
 21
560.128131
 31
0.0
  0
LINE
  5
140
330
1F
100
AcDbEntity
  8
002
 62
     3
370
    30
100
AcDbLine
 10
548.179402
 20
557.128131
 30
0.0
 11
548.179402
 21
550.128131
 31
0.0
  0
LINE
  5
141
330
1F
100
AcDbEntity
  8
002
 62
     3
370
    30
100
AcDbLine
 10
545.179402
 20
547.128131
 30
0.0
 11
505.179402
 21
547.128131
 31
0.0
  0
LINE
  5
142
330
1F
100
AcDbEntity
  8
002
 62
     3
370
    30
100
AcDbLine
 10
505.179402
 20
547.128131
 30
0.0
 11
505.179402
 21
560.128131
 31
0.0
  0
CIRCLE
  5
143
330
1F
100
AcDbEntity
  8
002
 62
     3
370
    30
100
AcDbCircle
 10
542.679402
 20
553.628131
 30
0.0
 40
1.0
  0
ARC
  5
144
330
1F
100
AcDbEntity
  8
002
 62
     3
370
    30
100
AcDbCircle
 10
545.179402
 20
557.128131
 30
0.0
 40
3.0
100
AcDbArc
 50
0.0
 51
90.0
  0
ARC
  5
145
330
1F
100
AcDbEntity
  8
002
 62
     3
370
    30
100
AcDbCircle
 10
545.179402
 20
550.128131
 30
0.0
 40
3.0
100
AcDbArc
 50
270.0
 51
0.0
  0
LINE
  5
146
330
1F
100
AcDbEntity
  8
002
 62
     3
370
    30
100
AcDbLine
 10
556.679402
 20
541.128131
 30
0.0
 11
485.679402
 21
541.128131
 31
0.0
  0
LINE
  5
147
330
1F
100
AcDbEntity
  8
002
 62
     3
370
    30
100
AcDbLine
 10
485.533202
 20
539.133431
 30
0.0
 11
499.325502
 21
538.122731
 31
0.0
  0
LINE
  5
148
330
1F
100
AcDbEntity
  8
002
 62
     3
370
    30
100
AcDbLine
 10
499.325502
 20
534.133431
 30
0.0
 11
485.533202
 21
533.122731
 31
0.0
  0
ARC
  5
149
330
1F
100
AcDbEntity
  8
002
 62
     3
370
    30
100
AcDbCircle
 10
485.679402
 20
531.128131
 30
0.0
 40
2.000050631859183
100
AcDbArc
 50
94.192164
 51
265.808046
  0
ARC
  5
14A
330
1F
100
AcDbEntity
  8
002
 62
     3
370
    30
100
AcDbCircle
 10
485.679402
 20
541.128131
 30
0.0
 40
2.000050631859183
100
AcDbArc
 50
94.192164
 51
265.808046
  0
ARC
  5
14B
330
1F
100
AcDbEntity
  8
002
 62
     3
370
    30
100
AcDbCircle
 10
504.179402
 20
546.128131
 30
0.0
 40
2.0
100
AcDbArc
 50
274.189097
 51
0.0
  0
LINE
  5
14C
330
1F
100
AcDbEntity
  8
002
 62
     3
370
    30
100
AcDbLine
 10
506.179402
 20
546.128131
 30
0.0
 11
506.179402
 21
547.128131
 31
0.0
  0
LINE
  5
14D
330
1F
100
AcDbEntity
  8
002
 62
     3
370
    30
100
AcDbLine
 10
503.179402
 20
536.128131
 30
0.0
 11
539.179402
 21
536.128131
 31
0.0
  0
LINE
  5
14E
330
1F
100
AcDbEntity
  8
002
 62
     3
370
    30
100
AcDbLine
 10
543.033202
 20
528.122731
 30
0.0
 11
556.825502
 21
529.133431
 31
0.0
  0
ARC
  5
14F
330
1F
100
AcDbEntity
  8
002
 62
     3
370
    30
100
AcDbCircle
 10
556.679402
 20
531.128131
 30
0.0
 40
1.999943591704517
100
AcDbArc
 50
274.189097
 51
85.810693
  0
ARC
  5
150
330
1F
100
AcDbEntity
  8
002
 62
     3
370
    30
100
AcDbCircle
 10
543.179402
 20
526.128131
 30
0.0
 40
2.0
100
AcDbArc
 50
94.192164
 51
180.0
  0
ARC
  5
151
330
1F
100
AcDbEntity
  8
002
 62
     3
370
    30
100
AcDbCircle
 10
499.179402
 20
536.128131
 30
0.0
 40
1.999943591704517
100
AcDbArc
 50
274.189097
 51
85.810693
  0
LINE
  5
152
330
1F
100
AcDbEntity
  8
002
  6
CENTER
 62
    40
370
     9
100
AcDbLine
 10
542.679402
 20
555.499031
 30
0.0
 11
542.679402
 21
551.527931
 31
0.0
  0
LINE
  5
153
330
1F
100
AcDbEntity
  8
002
  6
CENTER
 62
    40
370
     9
100
AcDbLine
 10
540.423602
 20
553.628131
 30
0.0
 11
545.024202
 21
553.628131
 31
0.0
  0
LINE
  5
154
330
1F
100
AcDbEntity
  8
002
 62
     3
370
    30
100
AcDbLine
 10
538.033202
 20
544.133431
 30
0.0
 11
556.825502
 21
543.122731
 31
0.0
  0
LINE
  5
155
330
1F
100
AcDbEntity
  8
002
 62
     3
370
    30
100
AcDbLine
 10
504.325499
 20
544.133474
 30
0.0
 11
485.533195
 21
543.122831
 31
0.0
  0
LINE
  5
156
330
1F
100
AcDbEntity
  8
001
 62
     3
370
    30
100
AcDbLine
 10
541.182307
 20
116.422337
 30
0.0
 11
501.182307
 21
116.422337
 31
0.0
  0
LINE
  5
157
330
1F
100
AcDbEntity
  8
001
 62
     3
370
    30
100
AcDbLine
 10
545.182307
 20
117.022337
 30
0.0
 11
501.182307
 21
117.022337
 31
0.0
  0
LINE
  5
158
330
1F
100
AcDbEntity
  8
001
 62
     3
370
    30
100
AcDbLine
 10
501.182307
 20
117.022337
 30
0.0
 11
497.182307
 21
117.022337
 31
0.0
  0
ARC
  5
159
330
1F
100
AcDbEntity
  8
001
 62
     3
370
    30
100
AcDbCircle
 10
545.182307
 20
120.022337
 30
0.0
 40
3.0
100
AcDbArc
 50
270.0
 51
0.0
  0
ARC
  5
15A
330
1F
100
AcDbEntity
  8
001
 62
     3
370
    30
100
AcDbCircle
 10
497.182307
 20
120.022337
 30
0.0
 40
3.0
100
AcDbArc
 50
180.0
 51
270.0
  0
LINE
  5
15B
330
1F
100
AcDbEntity
  8
001
 62
     3
370
    30
100
AcDbLine
 10
548.182307
 20
136.422337
 30
0.0
 11
545.182307
 21
136.422337
 31
0.0
  0
LINE
  5
15C
330
1F
100
AcDbEntity
  8
001
 62
     3
370
    30
100
AcDbLine
 10
545.182307
 20
136.422337
 30
0.0
 11
494.182307
 21
136.422337
 31
0.0
  0
LINE
  5
15D
330
1F
100
AcDbEntity
  8
002
 62
     3
370
    30
100
AcDbLine
 10
629.182307
 20
286.422337
 30
0.0
 11
629.182307
 21
271.422337
 31
0.0
  0
LINE
  5
15E
330
1F
100
AcDbEntity
  8
002
 62
     3
370
    30
100
AcDbLine
 10
603.682307
 20
365.422337
 30
0.0
 11
603.682307
 21
291.422337
 31
0.0
  0
LINE
  5
15F
330
1F
100
AcDbEntity
  8
002
 62
     3
370
    30
100
AcDbLine
 10
513.682307
 20
365.422337
 30
0.0
 11
513.682307
 21
285.422337
 31
0.0
  0
LINE
  5
160
330
1F
100
AcDbEntity
  8
002
 62
     3
370
    30
100
AcDbLine
 10
558.682307
 20
401.422337
 30
0.0
 11
558.682307
 21
381.422337
 31
0.0
  0
LINE
  5
161
330
1F
100
AcDbEntity
  8
002
 62
     3
370
    30
100
AcDbLine
 10
558.682307
 20
401.422337
 30
0.0
 11
456.182307
 21
401.422337
 31
0.0
  0
LINE
  5
162
330
1F
100
AcDbEntity
  8
002
 62
     3
370
    30
100
AcDbLine
 10
592.682307
 20
376.422337
 30
0.0
 11
488.682307
 21
376.422337
 31
0.0
  0
LINE
  5
163
330
1F
100
AcDbEntity
  8
002
 62
     3
370
    30
100
AcDbLine
 10
629.182307
 20
286.422337
 30
0.0
 11
608.682307
 21
286.422337
 31
0.0
  0
LINE
  5
164
330
1F
100
AcDbEntity
  8
002
 62
     3
370
    30
100
AcDbLine
 10
461.182307
 20
271.422337
 30
0.0
 11
629.182307
 21
271.422337
 31
0.0
  0
LINE
  5
165
330
1F
100
AcDbEntity
  8
002
 62
     3
370
    30
100
AcDbLine
 10
592.682307
 20
286.422337
 30
0.0
 11
524.682307
 21
286.422337
 31
0.0
  0
ARC
  5
166
330
1F
100
AcDbEntity
  8
002
 62
     3
370
    30
100
AcDbCircle
 10
592.682307
 20
297.422337
 30
0.0
 40
11.0
100
AcDbArc
 50
270.0
 51
0.0
  0
ARC
  5
167
330
1F
100
AcDbEntity
  8
002
 62
     3
370
    30
100
AcDbCircle
 10
592.682307
 20
365.422337
 30
0.0
 40
11.0
100
AcDbArc
 50
0.0
 51
90.0
  0
ARC
  5
168
330
1F
100
AcDbEntity
  8
002
 62
     3
370
    30
100
AcDbCircle
 10
524.682307
 20
365.422337
 30
0.0
 40
11.0
100
AcDbArc
 50
90.0
 51
180.0
  0
ARC
  5
169
330
1F
100
AcDbEntity
  8
002
 62
     3
370
    30
100
AcDbCircle
 10
524.682307
 20
297.422337
 30
0.0
 40
11.0
100
AcDbArc
 50
180.0
 51
270.0
  0
LINE
  5
16A
330
1F
100
AcDbEntity
  8
002
 62
     3
370
    30
100
AcDbLine
 10
485.146773
 20
297.886803
 30
0.0
 11
493.717841
 21
306.457871
 31
0.0
  0
LINE
  5
16B
330
1F
100
AcDbEntity
  8
002
 62
     3
370
    30
100
AcDbLine
 10
495.182307
 20
362.851269
 30
0.0
 11
495.182307
 21
309.993405
 31
0.0
  0
LINE
  5
16C
330
1F
100
AcDbEntity
  8
002
 62
     3
370
    30
100
AcDbLine
 10
485.146773
 20
374.957871
 30
0.0
 11
493.717841
 21
366.386803
 31
0.0
  0
LINE
  5
16D
330
1F
100
AcDbEntity
  8
002
 62
     3
370
    30
100
AcDbLine
 10
483.682307
 20
378.493405
 30
0.0
 11
483.682307
 21
401.422337
 31
0.0
  0
LINE
  5
16E
330
1F
100
AcDbEntity
  8
002
 62
     3
370
    30
100
AcDbLine
 10
483.682307
 20
294.351269
 30
0.0
 11
483.682307
 21
286.422337
 31
0.0
  0
LINE
  5
16F
330
1F
100
AcDbEntity
  8
002
 62
     3
370
    30
100
AcDbLine
 10
508.682307
 20
280.422337
 30
0.0
 11
468.182307
 21
280.422337
 31
0.0
  0
ARC
  5
170
330
1F
100
AcDbEntity
  8
002
 62
     3
370
    30
100
AcDbCircle
 10
508.682307
 20
285.422337
 30
0.0
 40
5.0
100
AcDbArc
 50
270.0
 51
0.0
  0
LINE
  5
171
330
1F
100
AcDbEntity
  8
002
 62
     3
370
    30
100
AcDbLine
 10
511.501697
 20
286.422337
 30
0.0
 11
471.682307
 21
286.422337
 31
0.0
  0
ARC
  5
172
330
1F
100
AcDbEntity
  8
002
 62
     3
370
    30
100
AcDbCircle
 10
563.682307
 20
381.422337
 30
0.0
 40
5.0
100
AcDbArc
 50
180.0
 51
270.0
  0
CIRCLE
  5
173
330
1F
100
AcDbEntity
  8
002
 62
     3
370
    30
100
AcDbCircle
 10
558.682307
 20
331.422337
 30
0.0
 40
22.0
  0
LINE
  5
174
330
1F
100
AcDbEntity
  8
002
 62
     3
370
    30
100
AcDbLine
 10
471.182307
 20
374.422337
 30
0.0
 11
465.182307
 21
370.958235
 31
0.0
  0
LINE
  5
175
330
1F
100
AcDbEntity
  8
002
 62
     3
370
    30
100
AcDbLine
 10
465.182307
 20
370.958235
 30
0.0
 11
465.182307
 21
316.886438
 31
0.0
  0
LINE
  5
176
330
1F
100
AcDbEntity
  8
002
 62
     3
370
    30
100
AcDbLine
 10
471.182307
 20
313.422337
 30
0.0
 11
465.182307
 21
316.886438
 31
0.0
  0
LINE
  5
177
330
1F
100
AcDbEntity
  8
002
 62
     3
370
    30
100
AcDbLine
 10
471.182307
 20
374.422337
 30
0.0
 11
471.182307
 21
401.422337
 31
0.0
  0
LINE
  5
178
330
1F
100
AcDbEntity
  8
002
 62
     3
370
    30
100
AcDbLine
 10
471.182307
 20
313.422337
 30
0.0
 11
471.182307
 21
289.422337
 31
0.0
  0
ARC
  5
179
330
1F
100
AcDbEntity
  8
002
 62
     3
370
    30
100
AcDbCircle
 10
468.182307
 20
283.422337
 30
0.0
 40
3.0
100
AcDbArc
 50
107.893993
 51
180.0
  0
ARC
  5
17A
330
1F
100
AcDbEntity
  8
002
 62
     3
370
    30
100
AcDbCircle
 10
468.182307
 20
283.422337
 30
0.0
 40
3.0
100
AcDbArc
 50
180.0
 51
270.0
  0
ARC
  5
17B
330
1F
100
AcDbEntity
  8
002
 62
     3
370
    30
100
AcDbCircle
 10
465.724252
 20
291.03535
 30
0.0
 40
5.0
100
AcDbArc
 50
287.893993
 51
315.0
  0
ARC
  5
17C
330
1F
100
AcDbEntity
  8
002
 62
     3
370
    30
100
AcDbCircle
 10
488.682307
 20
381.422337
 30
0.0
 40
5.0
100
AcDbArc
 50
180.0
 51
270.0
  0
ARC
  5
17D
330
1F
100
AcDbEntity
  8
002
 62
     3
370
    30
100
AcDbCircle
 10
608.682307
 20
291.422337
 30
0.0
 40
5.0
100
AcDbArc
 50
180.0
 51
270.0
  0
LINE
  5
17E
330
1F
100
AcDbEntity
  8
002
 62
     3
370
    30
100
AcDbLine
 10
471.682307
 20
286.422337
 30
0.0
 11
471.682307
 21
280.422337
 31
0.0
  0
LINE
  5
17F
330
1F
100
AcDbEntity
  8
002
 62
     3
370
    30
100
AcDbLine
 10
471.182307
 20
289.422337
 30
0.0
 11
469.259786
 21
287.499816
 31
0.0
  0
LINE
  5
180
330
1F
100
AcDbEntity
  8
002
 62
     3
370
    30
100
AcDbLine
 10
461.182307
 20
271.422337
 30
0.0
 11
456.182307
 21
276.422337
 31
0.0
  0
LINE
  5
181
330
1F
100
AcDbEntity
  8
002
 62
     3
370
    30
100
AcDbLine
 10
605.682307
 20
331.422337
 30
0.0
 11
608.682307
 21
331.422337
 31
0.0
  0
LINE
  5
182
330
1F
100
AcDbEntity
  8
002
 62
     3
370
    30
100
AcDbLine
 10
608.682307
 20
326.422337
 30
0.0
 11
605.682307
 21
326.422337
 31
0.0
  0
ARC
  5
183
330
1F
100
AcDbEntity
  8
002
 62
     3
370
    30
100
AcDbCircle
 10
606.057307
 20
328.922337
 30
0.0
 40
3.625
100
AcDbArc
 50
316.397181
 51
43.602819
  0
ARC
  5
184
330
1F
100
AcDbEntity
  8
002
 62
     3
370
    30
100
AcDbCircle
 10
608.307307
 20
328.922337
 30
0.0
 40
3.625
100
AcDbArc
 50
136.397181
 51
223.602819
  0
LINE
  5
185
330
1F
100
AcDbEntity
  8
002
 62
     3
370
    30
100
AcDbLine
 10
605.682307
 20
326.422337
 30
0.0
 11
604.682307
 21
327.422337
 31
0.0
  0
LINE
  5
186
330
1F
100
AcDbEntity
  8
002
 62
     3
370
    30
100
AcDbLine
 10
604.682307
 20
327.422337
 30
0.0
 11
604.682307
 21
335.422337
 31
0.0
  0
LINE
  5
187
330
1F
100
AcDbEntity
  8
002
 62
     3
370
    30
100
AcDbLine
 10
604.682307
 20
327.560837
 30
0.0
 11
603.682307
 21
327.560837
 31
0.0
  0
ARC
  5
188
330
1F
100
AcDbEntity
  8
002
 62
     3
370
    30
100
AcDbCircle
 10
608.307307
 20
333.922337
 30
0.0
 40
3.625
100
AcDbArc
 50
136.397181
 51
223.602819
  0
LINE
  5
189
330
1F
100
AcDbEntity
  8
002
 62
     3
370
    30
100
AcDbLine
 10
604.682307
 20
335.283837
 30
0.0
 11
603.682307
 21
335.283837
 31
0.0
  0
LINE
  5
18A
330
1F
100
AcDbEntity
  8
002
 62
     3
370
    30
100
AcDbLine
 10
604.682307
 20
335.422337
 30
0.0
 11
605.682307
 21
336.422337
 31
0.0
  0
LINE
  5
18B
330
1F
100
AcDbEntity
  8
002
 62
     3
370
    30
100
AcDbLine
 10
605.682307
 20
336.422337
 30
0.0
 11
608.682307
 21
336.422337
 31
0.0
  0
ARC
  5
18C
330
1F
100
AcDbEntity
  8
002
 62
     3
370
    30
100
AcDbCircle
 10
606.057307
 20
333.922337
 30
0.0
 40
3.625
100
AcDbArc
 50
316.397181
 51
43.602819
  0
LINE
  5
18D
330
1F
100
AcDbEntity
  8
002
 62
     3
370
    30
100
AcDbLine
 10
611.595707
 20
328.562337
 30
0.0
 11
608.682307
 21
326.422337
 31
0.0
  0
ARC
  5
18E
330
1F
100
AcDbEntity
  8
002
 62
     3
370
    30
100
AcDbCircle
 10
612.302907
 20
327.855237
 30
0.0
 40
1.000061123131999
100
AcDbArc
 50
57.994617
 51
135.004051
  0
LINE
  5
18F
330
1F
100
AcDbEntity
  8
002
 62
     3
370
    30
100
AcDbLine
 10
613.682307
 20
328.172337
 30
0.0
 11
612.832907
 21
328.703237
 31
0.0
  0
LINE
  5
190
330
1F
100
AcDbEntity
  8
002
 62
     3
370
    30
100
AcDbLine
 10
616.682307
 20
328.922337
 30
0.0
 11
613.682307
 21
328.172337
 31
0.0
  0
LINE
  5
191
330
1F
100
AcDbEntity
  8
002
 62
     3
370
    30
100
AcDbLine
 10
613.682307
 20
333.922337
 30
0.0
 11
613.682307
 21
328.922337
 31
0.0
  0
LINE
  5
192
330
1F
100
AcDbEntity
  8
002
 62
     3
370
    30
100
AcDbLine
 10
612.158307
 20
329.124837
 30
0.0
 11
612.158307
 21
333.719837
 31
0.0
  0
LINE
  5
193
330
1F
100
AcDbEntity
  8
002
 62
     3
370
    30
100
AcDbLine
 10
608.682307
 20
336.422337
 30
0.0
 11
611.595707
 21
334.282337
 31
0.0
  0
ARC
  5
194
330
1F
100
AcDbEntity
  8
002
 62
     3
370
    30
100
AcDbCircle
 10
612.302907
 20
334.989437
 30
0.0
 40
1.000001999998045
100
AcDbArc
 50
224.995949
 51
302.005383
  0
LINE
  5
195
330
1F
100
AcDbEntity
  8
002
 62
     3
370
    30
100
AcDbLine
 10
612.832907
 20
334.141437
 30
0.0
 11
613.682307
 21
334.672337
 31
0.0
  0
LINE
  5
196
330
1F
100
AcDbEntity
  8
002
 62
     3
370
    30
100
AcDbLine
 10
613.682307
 20
334.672337
 30
0.0
 11
616.682307
 21
333.922337
 31
0.0
  0
LINE
  5
197
330
1F
100
AcDbEntity
  8
002
 62
     3
370
    30
100
AcDbLine
 10
616.682307
 20
333.922337
 30
0.0
 11
616.682307
 21
328.922337
 31
0.0
  0
ARC
  5
198
330
1F
100
AcDbEntity
  8
002
 62
     3
370
    30
100
AcDbCircle
 10
616.020807
 20
331.422337
 30
0.0
 40
1.000041124154433
100
AcDbArc
 50
311.412294
 51
48.587706
  0
ARC
  5
199
330
1F
100
AcDbEntity
  8
002
 62
     3
370
    30
100
AcDbCircle
 10
558.682307
 20
331.422337
 30
0.0
 40
10.0
100
AcDbArc
 50
104.477512
 51
75.522488
  0
LINE
  5
19A
330
1F
100
AcDbEntity
  8
002
 62
     3
370
    30
100
AcDbLine
 10
556.182307
 20
338.422337
 30
0.0
 11
561.182307
 21
338.422337
 31
0.0
  0
LINE
  5
19B
330
1F
100
AcDbEntity
  8
002
 62
     3
370
    30
100
AcDbLine
 10
556.182307
 20
343.422337
 30
0.0
 11
561.182307
 21
343.422337
 31
0.0
  0
LINE
  5
19C
330
1F
100
AcDbEntity
  8
002
 62
     3
370
    30
100
AcDbLine
 10
556.182307
 20
343.422337
 30
0.0
 11
556.182307
 21
338.422337
 31
0.0
  0
LINE
  5
19D
330
1F
100
AcDbEntity
  8
002
 62
     3
370
    30
100
AcDbLine
 10
561.182307
 20
343.422337
 30
0.0
 11
561.182307
 21
338.422337
 31
0.0
  0
ARC
  5
19E
330
1F
100
AcDbEntity
  8
002
 62
     3
370
    30
100
AcDbCircle
 10
488.682307
 20
378.493405
 30
0.0
 40
5.0
100
AcDbArc
 50
180.0
 51
225.0
  0
ARC
  5
19F
330
1F
100
AcDbEntity
  8
002
 62
     3
370
    30
100
AcDbCircle
 10
490.182307
 20
362.851269
 30
0.0
 40
5.0
100
AcDbArc
 50
0.0
 51
45.0
  0
ARC
  5
1A0
330
1F
100
AcDbEntity
  8
002
 62
     3
370
    30
100
AcDbCircle
 10
490.182307
 20
309.993405
 30
0.0
 40
5.0
100
AcDbArc
 50
315.0
 51
0.0
  0
ARC
  5
1A1
330
1F
100
AcDbEntity
  8
002
 62
     3
370
    30
100
AcDbCircle
 10
488.682307
 20
294.351269
 30
0.0
 40
5.0
100
AcDbArc
 50
135.0
 51
180.0
  0
LINE
  5
1A2
330
1F
100
AcDbEntity
  8
002
  6
CENTER
 62
    40
370
     9
100
AcDbLine
 10
472.829017
 20
386.422337
 30
0.0
 11
452.175937
 21
386.422337
 31
0.0
  0
LINE
  5
1A3
330
1F
100
AcDbEntity
  8
002
  6
CENTER
 62
    40
370
     9
100
AcDbLine
 10
473.474258
 20
301.422337
 30
0.0
 11
453.180408
 21
301.422337
 31
0.0
  0
LINE
  5
1A4
330
1F
100
AcDbEntity
  8
002
  6
CENTER
 62
    40
370
     9
100
AcDbLine
 10
483.682307
 20
285.981339
 30
0.0
 11
483.682307
 21
271.422337
 31
0.0
  0
LINE
  5
1A5
330
1F
100
AcDbEntity
  8
002
  6
CENTER
 62
    40
370
     9
100
AcDbLine
 10
491.182307
 20
275.769654
 30
0.0
 11
491.182307
 21
246.613037
 31
0.0
  0
LINE
  5
1A6
330
1F
100
AcDbEntity
  8
002
  6
CENTER
 62
    40
370
     9
100
AcDbLine
 10
558.682307
 20
377.859085
 30
0.0
 11
558.682307
 21
285.422337
 31
0.0
  0
LINE
  5
1A7
330
1F
100
AcDbEntity
  8
002
  6
CENTER
 62
    40
370
     9
100
AcDbLine
 10
618.384162
 20
331.422337
 30
0.0
 11
608.682307
 21
331.422337
 31
0.0
  0
LINE
  5
1A8
330
1F
100
AcDbEntity
  8
002
  6
CENTER
 62
    40
370
     9
100
AcDbLine
 10
551.182307
 20
278.268433
 30
0.0
 11
551.182307
 21
246.613037
 31
0.0
  0
LINE
  5
1A9
330
1F
100
AcDbEntity
  8
002
  6
CENTER
 62
    40
370
     9
100
AcDbLine
 10
618.682307
 20
289.607109
 30
0.0
 11
618.682307
 21
267.877976
 31
0.0
  0
LINE
  5
1AA
330
1F
100
AcDbEntity
  8
002
 62
     3
370
    30
100
AcDbLine
 10
483.682307
 20
251.422337
 30
0.0
 11
483.682307
 21
271.422337
 31
0.0
  0
LINE
  5
1AB
330
1F
100
AcDbEntity
  8
002
 62
     3
370
    30
100
AcDbLine
 10
558.682307
 20
271.422337
 30
0.0
 11
558.682307
 21
251.422337
 31
0.0
  0
LINE
  5
1AC
330
1F
100
AcDbEntity
  8
002
 62
     3
370
    50
100
AcDbLine
 10
528.182307
 20
581.128131
 30
0.0
 11
514.182307
 21
581.128131
 31
0.0
  0
LINE
  5
1AD
330
1F
100
AcDbEntity
  8
002
  6
HIDDEN
 62
    40
370
     9
100
AcDbLine
 10
471.182307
 20
391.922337
 30
0.0
 11
456.182307
 21
391.922337
 31
0.0
  0
LINE
  5
1AE
330
1F
100
AcDbEntity
  8
002
  6
HIDDEN
 62
    40
370
     9
100
AcDbLine
 10
471.182307
 20
380.922337
 30
0.0
 11
456.182307
 21
380.922337
 31
0.0
  0
LINE
  5
1AF
330
1F
100
AcDbEntity
  8
002
  6
HIDDEN
 62
    40
370
     9
100
AcDbLine
 10
471.182307
 20
306.922337
 30
0.0
 11
456.182307
 21
306.922337
 31
0.0
  0
LINE
  5
1B0
330
1F
100
AcDbEntity
  8
002
  6
HIDDEN
 62
    40
370
     9
100
AcDbLine
 10
471.182307
 20
295.922337
 30
0.0
 11
456.182307
 21
295.922337
 31
0.0
  0
LINE
  5
1B1
330
1F
100
AcDbEntity
  8
002
  6
HIDDEN
 62
    40
370
     9
100
AcDbLine
 10
478.182307
 20
286.422337
 30
0.0
 11
478.182307
 21
271.422337
 31
0.0
  0
LINE
  5
1B2
330
1F
100
AcDbEntity
  8
002
  6
HIDDEN
 62
    40
370
     9
100
AcDbLine
 10
489.182307
 20
286.422337
 30
0.0
 11
489.182307
 21
271.422337
 31
0.0
  0
LINE
  5
1B3
330
1F
100
AcDbEntity
  8
002
  6
HIDDEN
 62
    40
370
     9
100
AcDbLine
 10
613.182307
 20
286.422337
 30
0.0
 11
613.182307
 21
271.422337
 31
0.0
  0
LINE
  5
1B4
330
1F
100
AcDbEntity
  8
002
  6
HIDDEN
 62
    40
370
     9
100
AcDbLine
 10
624.182307
 20
286.422337
 30
0.0
 11
624.182307
 21
271.422337
 31
0.0
  0
LINE
  5
1B5
330
1F
100
AcDbEntity
  8
002
 62
     3
370
    30
100
AcDbLine
 10
548.182307
 20
136.422337
 30
0.0
 11
548.182307
 21
120.022337
 31
0.0
  0
LINE
  5
1B6
330
1F
100
AcDbEntity
  8
002
 62
     3
370
    30
100
AcDbLine
 10
541.182307
 20
117.022337
 30
0.0
 11
541.182307
 21
116.422337
 31
0.0
  0
LINE
  5
1B7
330
1F
100
AcDbEntity
  8
002
 62
     3
370
    30
100
AcDbLine
 10
501.182307
 20
117.022337
 30
0.0
 11
501.182307
 21
116.422337
 31
0.0
  0
LINE
  5
1B8
330
1F
100
AcDbEntity
  8
002
 62
     3
370
    30
100
AcDbLine
 10
494.182307
 20
136.422337
 30
0.0
 11
494.182307
 21
120.022337
 31
0.0
  0
LINE
  5
1B9
330
1F
100
AcDbEntity
  8
002
 62
     3
370
    30
100
AcDbLine
 10
456.182307
 20
276.422337
 30
0.0
 11
456.182307
 21
401.422337
 31
0.0
  0
LINE
  5
1BA
330
1F
100
AcDbEntity
  8
002
  6
CENTER
 62
    40
370
     9
100
AcDbLine
 10
862.051337
 20
331.422337
 30
0.0
 11
705.440009
 21
331.422337
 31
0.0
  0
LINE
  5
1BB
330
1F
100
AcDbEntity
  8
001
 62
     3
370
    30
100
AcDbLine
 10
797.551337
 20
556.422337
 30
0.0
 11
757.551337
 21
556.422337
 31
0.0
  0
LINE
  5
1BC
330
1F
100
AcDbEntity
  8
001
 62
     3
370
    30
100
AcDbLine
 10
801.551337
 20
555.822337
 30
0.0
 11
757.551337
 21
555.822337
 31
0.0
  0
LINE
  5
1BD
330
1F
100
AcDbEntity
  8
001
 62
     3
370
    30
100
AcDbLine
 10
757.551337
 20
555.822337
 30
0.0
 11
753.551337
 21
555.822337
 31
0.0
  0
ARC
  5
1BE
330
1F
100
AcDbEntity
  8
001
 62
     3
370
    30
100
AcDbCircle
 10
801.551337
 20
552.822337
 30
0.0
 40
3.0
100
AcDbArc
 50
0.0
 51
90.0
  0
ARC
  5
1BF
330
1F
100
AcDbEntity
  8
001
 62
     3
370
    30
100
AcDbCircle
 10
753.551337
 20
552.822337
 30
0.0
 40
3.0
100
AcDbArc
 50
90.0
 51
180.0
  0
LINE
  5
1C0
330
1F
100
AcDbEntity
  8
001
 62
     3
370
    30
100
AcDbLine
 10
804.551337
 20
536.422337
 30
0.0
 11
801.551337
 21
536.422337
 31
0.0
  0
LINE
  5
1C1
330
1F
100
AcDbEntity
  8
001
 62
     3
370
    30
100
AcDbLine
 10
801.551337
 20
536.422337
 30
0.0
 11
750.551337
 21
536.422337
 31
0.0
  0
LINE
  5
1C2
330
1F
100
AcDbEntity
  8
002
 62
     3
370
    30
100
AcDbLine
 10
792.548433
 20
136.716542
 30
0.0
 11
762.548433
 21
136.716542
 31
0.0
  0
LINE
  5
1C3
330
1F
100
AcDbEntity
  8
002
 62
     3
370
    50
100
AcDbLine
 10
784.551337
 20
116.716542
 30
0.0
 11
770.551337
 21
116.716542
 31
0.0
  0
LINE
  5
1C4
330
1F
100
AcDbEntity
  8
002
 62
     3
370
    50
100
AcDbLine
 10
770.551337
 20
116.716542
 30
0.0
 11
770.551337
 21
134.716542
 31
0.0
  0
LINE
  5
1C5
330
1F
100
AcDbEntity
  8
002
 62
     3
370
    50
100
AcDbLine
 10
784.551337
 20
116.716542
 30
0.0
 11
784.551337
 21
134.716542
 31
0.0
  0
LINE
  5
1C6
330
1F
100
AcDbEntity
  8
002
 62
    40
370
     9
100
AcDbLine
 10
771.301337
 20
116.716542
 30
0.0
 11
771.301337
 21
134.716542
 31
0.0
  0
LINE
  5
1C7
330
1F
100
AcDbEntity
  8
002
 62
    40
370
     9
100
AcDbLine
 10
783.801337
 20
116.716542
 30
0.0
 11
783.801337
 21
134.716542
 31
0.0
  0
LINE
  5
1C8
330
1F
100
AcDbEntity
  8
002
 62
     3
370
    50
100
AcDbLine
 10
770.551337
 20
134.716542
 30
0.0
 11
784.551337
 21
134.716542
 31
0.0
  0
ARC
  5
1C9
330
1F
100
AcDbEntity
  8
002
 62
     3
370
    50
100
AcDbCircle
 10
770.551337
 20
135.716542
 30
0.0
 40
1.0
100
AcDbArc
 50
270.0
 51
0.0
  0
ARC
  5
1CA
330
1F
100
AcDbEntity
  8
002
 62
     3
370
    50
100
AcDbCircle
 10
770.551337
 20
135.716542
 30
0.0
 40
1.0
100
AcDbArc
 50
0.0
 51
90.0
  0
ARC
  5
1CB
330
1F
100
AcDbEntity
  8
002
 62
     3
370
    50
100
AcDbCircle
 10
784.551337
 20
135.716542
 30
0.0
 40
1.0
100
AcDbArc
 50
90.0
 51
180.0
  0
ARC
  5
1CC
330
1F
100
AcDbEntity
  8
002
 62
     3
370
    50
100
AcDbCircle
 10
784.551337
 20
135.716542
 30
0.0
 40
1.0
100
AcDbArc
 50
180.0
 51
270.0
  0
LINE
  5
1CD
330
1F
100
AcDbEntity
  8
002
  6
CENTER
 62
    40
370
     9
100
AcDbLine
 10
747.551337
 20
397.07502
 30
0.0
 11
747.551337
 21
426.231636
 31
0.0
  0
LINE
  5
1CE
330
1F
100
AcDbEntity
  8
002
  6
CENTER
 62
    40
370
     9
100
AcDbLine
 10
807.551337
 20
394.576241
 30
0.0
 11
807.551337
 21
426.231636
 31
0.0
  0
LINE
  5
1CF
330
1F
100
AcDbEntity
  8
002
 62
     3
370
    30
100
AcDbLine
 10
740.051337
 20
421.422337
 30
0.0
 11
740.051337
 21
401.422337
 31
0.0
  0
LINE
  5
1D0
330
1F
100
AcDbEntity
  8
002
 62
     3
370
    30
100
AcDbLine
 10
815.051337
 20
401.422337
 30
0.0
 11
815.051337
 21
421.422337
 31
0.0
  0
LINE
  5
1D1
330
1F
100
AcDbEntity
  8
002
 62
     3
370
    30
100
AcDbLine
 10
815.051337
 20
421.422337
 30
0.0
 11
801.551337
 21
421.422337
 31
0.0
  0
LINE
  5
1D2
330
1F
100
AcDbEntity
  8
002
 62
     3
370
    30
100
AcDbLine
 10
801.551337
 20
421.422337
 30
0.0
 11
740.051337
 21
421.422337
 31
0.0
  0
LINE
  5
1D3
330
1F
100
AcDbEntity
  8
002
 62
     3
370
    30
100
AcDbLine
 10
804.551337
 20
536.422337
 30
0.0
 11
804.551337
 21
552.822337
 31
0.0
  0
LINE
  5
1D4
330
1F
100
AcDbEntity
  8
002
 62
     3
370
    30
100
AcDbLine
 10
797.551337
 20
555.822337
 30
0.0
 11
797.551337
 21
556.422337
 31
0.0
  0
LINE
  5
1D5
330
1F
100
AcDbEntity
  8
002
 62
     3
370
    30
100
AcDbLine
 10
757.551337
 20
555.822337
 30
0.0
 11
757.551337
 21
556.422337
 31
0.0
  0
LINE
  5
1D6
330
1F
100
AcDbEntity
  8
002
 62
     3
370
    30
100
AcDbLine
 10
750.551337
 20
536.422337
 30
0.0
 11
750.551337
 21
552.822337
 31
0.0
  0
LINE
  5
1D7
330
1F
100
AcDbEntity
  8
002
 62
     3
370
    30
100
AcDbLine
 10
885.551337
 20
286.422337
 30
0.0
 11
885.551337
 21
271.422337
 31
0.0
  0
LINE
  5
1D8
330
1F
100
AcDbEntity
  8
002
 62
     3
370
    30
100
AcDbLine
 10
860.051337
 20
365.422337
 30
0.0
 11
860.051337
 21
291.422337
 31
0.0
  0
LINE
  5
1D9
330
1F
100
AcDbEntity
  8
002
 62
     3
370
    30
100
AcDbLine
 10
770.051337
 20
365.422337
 30
0.0
 11
770.051337
 21
285.422337
 31
0.0
  0
LINE
  5
1DA
330
1F
100
AcDbEntity
  8
002
 62
     3
370
    30
100
AcDbLine
 10
815.051337
 20
401.422337
 30
0.0
 11
815.051337
 21
381.422337
 31
0.0
  0
LINE
  5
1DB
330
1F
100
AcDbEntity
  8
002
 62
     3
370
    30
100
AcDbLine
 10
815.051337
 20
401.422337
 30
0.0
 11
712.551337
 21
401.422337
 31
0.0
  0
LINE
  5
1DC
330
1F
100
AcDbEntity
  8
002
 62
     3
370
    30
100
AcDbLine
 10
849.051337
 20
376.422337
 30
0.0
 11
745.051337
 21
376.422337
 31
0.0
  0
LINE
  5
1DD
330
1F
100
AcDbEntity
  8
002
 62
     3
370
    30
100
AcDbLine
 10
885.551337
 20
286.422337
 30
0.0
 11
865.051337
 21
286.422337
 31
0.0
  0
LINE
  5
1DE
330
1F
100
AcDbEntity
  8
002
 62
     3
370
    30
100
AcDbLine
 10
717.551337
 20
271.422337
 30
0.0
 11
885.551337
 21
271.422337
 31
0.0
  0
LINE
  5
1DF
330
1F
100
AcDbEntity
  8
002
 62
     3
370
    30
100
AcDbLine
 10
849.051337
 20
286.422337
 30
0.0
 11
781.051337
 21
286.422337
 31
0.0
  0
ARC
  5
1E0
330
1F
100
AcDbEntity
  8
002
 62
     3
370
    30
100
AcDbCircle
 10
849.051337
 20
297.422337
 30
0.0
 40
11.0
100
AcDbArc
 50
270.0
 51
0.0
  0
ARC
  5
1E1
330
1F
100
AcDbEntity
  8
002
 62
     3
370
    30
100
AcDbCircle
 10
849.051337
 20
365.422337
 30
0.0
 40
11.0
100
AcDbArc
 50
0.0
 51
90.0
  0
ARC
  5
1E2
330
1F
100
AcDbEntity
  8
002
 62
     3
370
    30
100
AcDbCircle
 10
781.051337
 20
365.422337
 30
0.0
 40
11.0
100
AcDbArc
 50
90.0
 51
180.0
  0
ARC
  5
1E3
330
1F
100
AcDbEntity
  8
002
 62
     3
370
    30
100
AcDbCircle
 10
781.051337
 20
297.422337
 30
0.0
 40
11.0
100
AcDbArc
 50
180.0
 51
270.0
  0
LINE
  5
1E4
330
1F
100
AcDbEntity
  8
002
 62
     3
370
    30
100
AcDbLine
 10
741.515804
 20
297.886803
 30
0.0
 11
750.086871
 21
306.457871
 31
0.0
  0
LINE
  5
1E5
330
1F
100
AcDbEntity
  8
002
 62
     3
370
    30
100
AcDbLine
 10
751.551337
 20
362.851269
 30
0.0
 11
751.551337
 21
309.993405
 31
0.0
  0
LINE
  5
1E6
330
1F
100
AcDbEntity
  8
002
 62
     3
370
    30
100
AcDbLine
 10
741.515804
 20
374.957871
 30
0.0
 11
750.086871
 21
366.386803
 31
0.0
  0
LINE
  5
1E7
330
1F
100
AcDbEntity
  8
002
 62
     3
370
    30
100
AcDbLine
 10
740.051337
 20
378.493405
 30
0.0
 11
740.051337
 21
401.422337
 31
0.0
  0
LINE
  5
1E8
330
1F
100
AcDbEntity
  8
002
 62
     3
370
    30
100
AcDbLine
 10
740.051337
 20
294.351269
 30
0.0
 11
740.051337
 21
286.422337
 31
0.0
  0
LINE
  5
1E9
330
1F
100
AcDbEntity
  8
002
 62
     3
370
    30
100
AcDbLine
 10
765.051337
 20
280.422337
 30
0.0
 11
724.551337
 21
280.422337
 31
0.0
  0
ARC
  5
1EA
330
1F
100
AcDbEntity
  8
002
 62
     3
370
    30
100
AcDbCircle
 10
765.051337
 20
285.422337
 30
0.0
 40
5.0
100
AcDbArc
 50
270.0
 51
0.0
  0
LINE
  5
1EB
330
1F
100
AcDbEntity
  8
002
 62
     3
370
    30
100
AcDbLine
 10
767.870727
 20
286.422337
 30
0.0
 11
728.051337
 21
286.422337
 31
0.0
  0
ARC
  5
1EC
330
1F
100
AcDbEntity
  8
002
 62
     3
370
    30
100
AcDbCircle
 10
820.051337
 20
381.422337
 30
0.0
 40
5.0
100
AcDbArc
 50
180.0
 51
270.0
  0
CIRCLE
  5
1ED
330
1F
100
AcDbEntity
  8
002
 62
     3
370
    30
100
AcDbCircle
 10
815.051337
 20
331.422337
 30
0.0
 40
22.0
  0
LINE
  5
1EE
330
1F
100
AcDbEntity
  8
002
 62
     3
370
    30
100
AcDbLine
 10
727.551337
 20
374.422337
 30
0.0
 11
721.551337
 21
370.958235
 31
0.0
  0
LINE
  5
1EF
330
1F
100
AcDbEntity
  8
002
 62
     3
370
    30
100
AcDbLine
 10
721.551337
 20
370.958235
 30
0.0
 11
721.551337
 21
316.886438
 31
0.0
  0
LINE
  5
1F0
330
1F
100
AcDbEntity
  8
002
 62
     3
370
    30
100
AcDbLine
 10
727.551337
 20
313.422337
 30
0.0
 11
721.551337
 21
316.886438
 31
0.0
  0
LINE
  5
1F1
330
1F
100
AcDbEntity
  8
002
 62
     3
370
    30
100
AcDbLine
 10
727.551337
 20
374.422337
 30
0.0
 11
727.551337
 21
401.422337
 31
0.0
  0
LINE
  5
1F2
330
1F
100
AcDbEntity
  8
002
 62
     3
370
    30
100
AcDbLine
 10
727.551337
 20
313.422337
 30
0.0
 11
727.551337
 21
289.422337
 31
0.0
  0
ARC
  5
1F3
330
1F
100
AcDbEntity
  8
002
 62
     3
370
    30
100
AcDbCircle
 10
724.551337
 20
283.422337
 30
0.0
 40
3.0
100
AcDbArc
 50
107.893993
 51
180.0
  0
ARC
  5
1F4
330
1F
100
AcDbEntity
  8
002
 62
     3
370
    30
100
AcDbCircle
 10
724.551337
 20
283.422337
 30
0.0
 40
3.0
100
AcDbArc
 50
180.0
 51
270.0
  0
ARC
  5
1F5
330
1F
100
AcDbEntity
  8
002
 62
     3
370
    30
100
AcDbCircle
 10
722.093283
 20
291.03535
 30
0.0
 40
5.0
100
AcDbArc
 50
287.893993
 51
315.0
  0
ARC
  5
1F6
330
1F
100
AcDbEntity
  8
002
 62
     3
370
    30
100
AcDbCircle
 10
745.051337
 20
381.422337
 30
0.0
 40
5.0
100
AcDbArc
 50
180.0
 51
270.0
  0
ARC
  5
1F7
330
1F
100
AcDbEntity
  8
002
 62
     3
370
    30
100
AcDbCircle
 10
865.051337
 20
291.422337
 30
0.0
 40
5.0
100
AcDbArc
 50
180.0
 51
270.0
  0
LINE
  5
1F8
330
1F
100
AcDbEntity
  8
002
 62
     3
370
    30
100
AcDbLine
 10
728.051337
 20
286.422337
 30
0.0
 11
728.051337
 21
280.422337
 31
0.0
  0
LINE
  5
1F9
330
1F
100
AcDbEntity
  8
002
 62
     3
370
    30
100
AcDbLine
 10
727.551337
 20
289.422337
 30
0.0
 11
725.628816
 21
287.499816
 31
0.0
  0
LINE
  5
1FA
330
1F
100
AcDbEntity
  8
002
 62
     3
370
    30
100
AcDbLine
 10
717.551337
 20
271.422337
 30
0.0
 11
712.551337
 21
276.422337
 31
0.0
  0
LINE
  5
1FB
330
1F
100
AcDbEntity
  8
002
 62
     3
370
    30
100
AcDbLine
 10
862.051337
 20
331.422337
 30
0.0
 11
865.051337
 21
331.422337
 31
0.0
  0
LINE
  5
1FC
330
1F
100
AcDbEntity
  8
002
 62
     3
370
    30
100
AcDbLine
 10
865.051337
 20
326.422337
 30
0.0
 11
862.051337
 21
326.422337
 31
0.0
  0
ARC
  5
1FD
330
1F
100
AcDbEntity
  8
002
 62
     3
370
    30
100
AcDbCircle
 10
862.426337
 20
328.922337
 30
0.0
 40
3.625
100
AcDbArc
 50
316.397181
 51
43.602819
  0
ARC
  5
1FE
330
1F
100
AcDbEntity
  8
002
 62
     3
370
    30
100
AcDbCircle
 10
864.676337
 20
328.922337
 30
0.0
 40
3.625
100
AcDbArc
 50
136.397181
 51
223.602819
  0
LINE
  5
1FF
330
1F
100
AcDbEntity
  8
002
 62
     3
370
    30
100
AcDbLine
 10
862.051337
 20
326.422337
 30
0.0
 11
861.051337
 21
327.422337
 31
0.0
  0
LINE
  5
200
330
1F
100
AcDbEntity
  8
002
 62
     3
370
    30
100
AcDbLine
 10
861.051337
 20
327.422337
 30
0.0
 11
861.051337
 21
335.422337
 31
0.0
  0
LINE
  5
201
330
1F
100
AcDbEntity
  8
002
 62
     3
370
    30
100
AcDbLine
 10
861.051337
 20
327.560837
 30
0.0
 11
860.051337
 21
327.560837
 31
0.0
  0
ARC
  5
202
330
1F
100
AcDbEntity
  8
002
 62
     3
370
    30
100
AcDbCircle
 10
864.676337
 20
333.922337
 30
0.0
 40
3.625
100
AcDbArc
 50
136.397181
 51
223.602819
  0
LINE
  5
203
330
1F
100
AcDbEntity
  8
002
 62
     3
370
    30
100
AcDbLine
 10
861.051337
 20
335.283837
 30
0.0
 11
860.051337
 21
335.283837
 31
0.0
  0
LINE
  5
204
330
1F
100
AcDbEntity
  8
002
 62
     3
370
    30
100
AcDbLine
 10
861.051337
 20
335.422337
 30
0.0
 11
862.051337
 21
336.422337
 31
0.0
  0
LINE
  5
205
330
1F
100
AcDbEntity
  8
002
 62
     3
370
    30
100
AcDbLine
 10
862.051337
 20
336.422337
 30
0.0
 11
865.051337
 21
336.422337
 31
0.0
  0
ARC
  5
206
330
1F
100
AcDbEntity
  8
002
 62
     3
370
    30
100
AcDbCircle
 10
862.426337
 20
333.922337
 30
0.0
 40
3.625
100
AcDbArc
 50
316.397181
 51
43.602819
  0
LINE
  5
207
330
1F
100
AcDbEntity
  8
002
 62
     3
370
    30
100
AcDbLine
 10
867.964737
 20
328.562337
 30
0.0
 11
865.051337
 21
326.422337
 31
0.0
  0
ARC
  5
208
330
1F
100
AcDbEntity
  8
002
 62
     3
370
    30
100
AcDbCircle
 10
868.671937
 20
327.855237
 30
0.0
 40
1.000061123131999
100
AcDbArc
 50
57.994617
 51
135.004051
  0
LINE
  5
209
330
1F
100
AcDbEntity
  8
002
 62
     3
370
    30
100
AcDbLine
 10
870.051337
 20
328.172337
 30
0.0
 11
869.201937
 21
328.703237
 31
0.0
  0
LINE
  5
20A
330
1F
100
AcDbEntity
  8
002
 62
     3
370
    30
100
AcDbLine
 10
873.051337
 20
328.922337
 30
0.0
 11
870.051337
 21
328.172337
 31
0.0
  0
LINE
  5
20B
330
1F
100
AcDbEntity
  8
002
 62
     3
370
    30
100
AcDbLine
 10
870.051337
 20
333.922337
 30
0.0
 11
870.051337
 21
328.922337
 31
0.0
  0
LINE
  5
20C
330
1F
100
AcDbEntity
  8
002
 62
     3
370
    30
100
AcDbLine
 10
868.527337
 20
329.124837
 30
0.0
 11
868.527337
 21
333.719837
 31
0.0
  0
LINE
  5
20D
330
1F
100
AcDbEntity
  8
002
 62
     3
370
    30
100
AcDbLine
 10
865.051337
 20
336.422337
 30
0.0
 11
867.964737
 21
334.282337
 31
0.0
  0
ARC
  5
20E
330
1F
100
AcDbEntity
  8
002
 62
     3
370
    30
100
AcDbCircle
 10
868.671937
 20
334.989437
 30
0.0
 40
1.000001999998045
100
AcDbArc
 50
224.995949
 51
302.005383
  0
LINE
  5
20F
330
1F
100
AcDbEntity
  8
002
 62
     3
370
    30
100
AcDbLine
 10
869.201937
 20
334.141437
 30
0.0
 11
870.051337
 21
334.672337
 31
0.0
  0
LINE
  5
210
330
1F
100
AcDbEntity
  8
002
 62
     3
370
    30
100
AcDbLine
 10
870.051337
 20
334.672337
 30
0.0
 11
873.051337
 21
333.922337
 31
0.0
  0
LINE
  5
211
330
1F
100
AcDbEntity
  8
002
 62
     3
370
    30
100
AcDbLine
 10
873.051337
 20
333.922337
 30
0.0
 11
873.051337
 21
328.922337
 31
0.0
  0
ARC
  5
212
330
1F
100
AcDbEntity
  8
002
 62
     3
370
    30
100
AcDbCircle
 10
872.389837
 20
331.422337
 30
0.0
 40
1.000041124154433
100
AcDbArc
 50
311.412294
 51
48.587706
  0
ARC
  5
213
330
1F
100
AcDbEntity
  8
002
 62
     3
370
    30
100
AcDbCircle
 10
815.051337
 20
331.422337
 30
0.0
 40
10.0
100
AcDbArc
 50
104.477512
 51
75.522488
  0
LINE
  5
214
330
1F
100
AcDbEntity
  8
002
 62
     3
370
    30
100
AcDbLine
 10
812.551337
 20
338.422337
 30
0.0
 11
817.551337
 21
338.422337
 31
0.0
  0
LINE
  5
215
330
1F
100
AcDbEntity
  8
002
 62
     3
370
    30
100
AcDbLine
 10
812.551337
 20
343.422337
 30
0.0
 11
817.551337
 21
343.422337
 31
0.0
  0
LINE
  5
216
330
1F
100
AcDbEntity
  8
002
 62
     3
370
    30
100
AcDbLine
 10
812.551337
 20
343.422337
 30
0.0
 11
812.551337
 21
338.422337
 31
0.0
  0
LINE
  5
217
330
1F
100
AcDbEntity
  8
002
 62
     3
370
    30
100
AcDbLine
 10
817.551337
 20
343.422337
 30
0.0
 11
817.551337
 21
338.422337
 31
0.0
  0
ARC
  5
218
330
1F
100
AcDbEntity
  8
002
 62
     3
370
    30
100
AcDbCircle
 10
745.051337
 20
378.493405
 30
0.0
 40
5.0
100
AcDbArc
 50
180.0
 51
225.0
  0
ARC
  5
219
330
1F
100
AcDbEntity
  8
002
 62
     3
370
    30
100
AcDbCircle
 10
746.551337
 20
362.851269
 30
0.0
 40
5.0
100
AcDbArc
 50
0.0
 51
45.0
  0
ARC
  5
21A
330
1F
100
AcDbEntity
  8
002
 62
     3
370
    30
100
AcDbCircle
 10
746.551337
 20
309.993405
 30
0.0
 40
5.0
100
AcDbArc
 50
315.0
 51
0.0
  0
ARC
  5
21B
330
1F
100
AcDbEntity
  8
002
 62
     3
370
    30
100
AcDbCircle
 10
745.051337
 20
294.351269
 30
0.0
 40
5.0
100
AcDbArc
 50
135.0
 51
180.0
  0
LINE
  5
21C
330
1F
100
AcDbEntity
  8
002
  6
CENTER
 62
    40
370
     9
100
AcDbLine
 10
729.198047
 20
386.422337
 30
0.0
 11
708.544967
 21
386.422337
 31
0.0
  0
LINE
  5
21D
330
1F
100
AcDbEntity
  8
002
  6
CENTER
 62
    40
370
     9
100
AcDbLine
 10
729.843288
 20
301.422337
 30
0.0
 11
709.549438
 21
301.422337
 31
0.0
  0
LINE
  5
21E
330
1F
100
AcDbEntity
  8
002
  6
CENTER
 62
    40
370
     9
100
AcDbLine
 10
740.051337
 20
285.981339
 30
0.0
 11
740.051337
 21
271.422337
 31
0.0
  0
LINE
  5
21F
330
1F
100
AcDbEntity
  8
002
  6
CENTER
 62
    40
370
     9
100
AcDbLine
 10
815.051337
 20
377.859085
 30
0.0
 11
815.051337
 21
285.422337
 31
0.0
  0
LINE
  5
220
330
1F
100
AcDbEntity
  8
002
  6
CENTER
 62
    40
370
     9
100
AcDbLine
 10
874.753192
 20
331.422337
 30
0.0
 11
865.051337
 21
331.422337
 31
0.0
  0
LINE
  5
221
330
1F
100
AcDbEntity
  8
002
  6
CENTER
 62
    40
370
     9
100
AcDbLine
 10
875.051337
 20
289.607109
 30
0.0
 11
875.051337
 21
267.877976
 31
0.0
  0
LINE
  5
222
330
1F
100
AcDbEntity
  8
002
  6
HIDDEN
 62
    40
370
     9
100
AcDbLine
 10
727.551337
 20
391.922337
 30
0.0
 11
712.551337
 21
391.922337
 31
0.0
  0
LINE
  5
223
330
1F
100
AcDbEntity
  8
002
  6
HIDDEN
 62
    40
370
     9
100
AcDbLine
 10
727.551337
 20
380.922337
 30
0.0
 11
712.551337
 21
380.922337
 31
0.0
  0
LINE
  5
224
330
1F
100
AcDbEntity
  8
002
  6
HIDDEN
 62
    40
370
     9
100
AcDbLine
 10
727.551337
 20
306.922337
 30
0.0
 11
712.551337
 21
306.922337
 31
0.0
  0
LINE
  5
225
330
1F
100
AcDbEntity
  8
002
  6
HIDDEN
 62
    40
370
     9
100
AcDbLine
 10
727.551337
 20
295.922337
 30
0.0
 11
712.551337
 21
295.922337
 31
0.0
  0
LINE
  5
226
330
1F
100
AcDbEntity
  8
002
  6
HIDDEN
 62
    40
370
     9
100
AcDbLine
 10
734.551337
 20
286.422337
 30
0.0
 11
734.551337
 21
271.422337
 31
0.0
  0
LINE
  5
227
330
1F
100
AcDbEntity
  8
002
  6
HIDDEN
 62
    40
370
     9
100
AcDbLine
 10
745.551337
 20
286.422337
 30
0.0
 11
745.551337
 21
271.422337
 31
0.0
  0
LINE
  5
228
330
1F
100
AcDbEntity
  8
002
  6
HIDDEN
 62
    40
370
     9
100
AcDbLine
 10
869.551337
 20
286.422337
 30
0.0
 11
869.551337
 21
271.422337
 31
0.0
  0
LINE
  5
229
330
1F
100
AcDbEntity
  8
002
  6
HIDDEN
 62
    40
370
     9
100
AcDbLine
 10
880.551337
 20
286.422337
 30
0.0
 11
880.551337
 21
271.422337
 31
0.0
  0
LINE
  5
22A
330
1F
100
AcDbEntity
  8
002
 62
     3
370
    30
100
AcDbLine
 10
712.551337
 20
276.422337
 30
0.0
 11
712.551337
 21
401.422337
 31
0.0
  0
CIRCLE
  5
22B
330
1F
100
AcDbEntity
  8
002
 62
     3
370
    30
100
AcDbCircle
 10
640.877769
 20
873.489429
 30
0.0
 40
13.0
  0
LINE
  5
22C
330
1F
100
AcDbEntity
  8
002
 62
     3
370
    30
100
AcDbLine
 10
626.877769
 20
708.489429
 30
0.0
 11
624.877769
 21
710.489429
 31
0.0
  0
LINE
  5
22D
330
1F
100
AcDbEntity
  8
002
 62
     3
370
    30
100
AcDbLine
 10
624.877769
 20
710.489429
 30
0.0
 11
624.877769
 21
765.489429
 31
0.0
  0
LINE
  5
22E
330
1F
100
AcDbEntity
  8
002
 62
     3
370
    30
100
AcDbLine
 10
624.877769
 20
765.489429
 30
0.0
 11
627.877769
 21
768.489429
 31
0.0
  0
LINE
  5
22F
330
1F
100
AcDbEntity
  8
002
 62
     3
370
    30
100
AcDbLine
 10
627.877769
 20
768.489429
 30
0.0
 11
653.877769
 21
768.489429
 31
0.0
  0
LINE
  5
230
330
1F
100
AcDbEntity
  8
002
 62
     3
370
    30
100
AcDbLine
 10
653.877769
 20
768.489429
 30
0.0
 11
656.877769
 21
765.489429
 31
0.0
  0
LINE
  5
231
330
1F
100
AcDbEntity
  8
002
 62
     3
370
    30
100
AcDbLine
 10
656.877769
 20
765.489429
 30
0.0
 11
656.877769
 21
710.489429
 31
0.0
  0
LINE
  5
232
330
1F
100
AcDbEntity
  8
002
 62
     3
370
    30
100
AcDbLine
 10
656.877769
 20
710.489429
 30
0.0
 11
654.877769
 21
708.489429
 31
0.0
  0
LINE
  5
233
330
1F
100
AcDbEntity
  8
002
 62
     3
370
    30
100
AcDbLine
 10
624.877769
 20
710.489429
 30
0.0
 11
656.877769
 21
710.489429
 31
0.0
  0
CIRCLE
  5
234
330
1F
100
AcDbEntity
  8
002
 62
     3
370
    30
100
AcDbCircle
 10
640.877769
 20
873.489429
 30
0.0
 40
16.0
  0
LINE
  5
235
330
1F
100
AcDbEntity
  8
002
  6
CENTER
 62
    40
370
     9
100
AcDbLine
 10
640.877769
 20
899.489429
 30
0.0
 11
640.877769
 21
847.489429
 31
0.0
  0
LINE
  5
236
330
1F
100
AcDbEntity
  8
002
  6
CENTER
 62
    40
370
     9
100
AcDbLine
 10
666.877769
 20
873.489429
 30
0.0
 11
614.877769
 21
873.489429
 31
0.0
  0
LINE
  5
237
330
1F
100
AcDbEntity
  8
002
  6
CENTER
 62
    40
370
     9
100
AcDbLine
 10
640.877769
 20
778.489429
 30
0.0
 11
640.877769
 21
684.177466
 31
0.0
  0
LINE
  5
238
330
1F
100
AcDbEntity
  8
002
  6
HIDDEN
 62
    40
370
     9
100
AcDbLine
 10
647.877769
 20
728.489429
 30
0.0
 11
647.877769
 21
708.489429
 31
0.0
  0
LINE
  5
239
330
1F
100
AcDbEntity
  8
002
  6
HIDDEN
 62
    40
370
     9
100
AcDbLine
 10
633.877769
 20
728.489429
 30
0.0
 11
647.877769
 21
728.489429
 31
0.0
  0
LINE
  5
23A
330
1F
100
AcDbEntity
  8
002
  6
HIDDEN
 62
    40
370
     9
100
AcDbLine
 10
633.877769
 20
728.489429
 30
0.0
 11
633.877769
 21
708.489429
 31
0.0
  0
LINE
  5
23B
330
1F
100
AcDbEntity
  8
002
  6
HIDDEN
 62
    40
370
     9
100
AcDbLine
 10
634.689769
 20
708.489429
 30
0.0
 11
634.689769
 21
728.489429
 31
0.0
  0
LINE
  5
23C
330
1F
100
AcDbEntity
  8
002
 62
     3
370
    30
100
AcDbLine
 10
459.107599
 20
708.489429
 30
0.0
 11
457.107599
 21
710.489429
 31
0.0
  0
LINE
  5
23D
330
1F
100
AcDbEntity
  8
002
 62
     3
370
    30
100
AcDbLine
 10
457.107599
 20
710.489429
 30
0.0
 11
457.107599
 21
765.489429
 31
0.0
  0
LINE
  5
23E
330
1F
100
AcDbEntity
  8
002
 62
     3
370
    30
100
AcDbLine
 10
457.107599
 20
765.489429
 30
0.0
 11
460.107599
 21
768.489429
 31
0.0
  0
LINE
  5
23F
330
1F
100
AcDbEntity
  8
002
 62
     3
370
    30
100
AcDbLine
 10
460.107599
 20
768.489429
 30
0.0
 11
486.107599
 21
768.489429
 31
0.0
  0
LINE
  5
240
330
1F
100
AcDbEntity
  8
002
 62
     3
370
    30
100
AcDbLine
 10
486.107599
 20
768.489429
 30
0.0
 11
489.107599
 21
765.489429
 31
0.0
  0
LINE
  5
241
330
1F
100
AcDbEntity
  8
002
 62
     3
370
    30
100
AcDbLine
 10
489.107599
 20
765.489429
 30
0.0
 11
489.107599
 21
710.489429
 31
0.0
  0
LINE
  5
242
330
1F
100
AcDbEntity
  8
002
 62
     3
370
    30
100
AcDbLine
 10
489.107599
 20
710.489429
 30
0.0
 11
487.107599
 21
708.489429
 31
0.0
  0
LINE
  5
243
330
1F
100
AcDbEntity
  8
002
 62
     3
370
    30
100
AcDbLine
 10
457.107599
 20
710.489429
 30
0.0
 11
489.107599
 21
710.489429
 31
0.0
  0
LINE
  5
244
330
1F
100
AcDbEntity
  8
002
 62
     3
370
    30
100
AcDbLine
 10
481.107599
 20
735.489429
 30
0.0
 11
465.107599
 21
735.489429
 31
0.0
  0
ARC
  5
245
330
1F
100
AcDbEntity
  8
002
 62
     3
370
    30
100
AcDbCircle
 10
466.114499
 20
740.386929
 30
0.0
 40
4.999945705705185
100
AcDbArc
 50
202.30297
 51
258.382178
  0
LINE
  5
246
330
1F
100
AcDbEntity
  8
002
 62
     3
370
    30
100
AcDbLine
 10
461.488599
 20
738.489429
 30
0.0
 11
461.488599
 21
765.489429
 31
0.0
  0
LINE
  5
247
330
1F
100
AcDbEntity
  8
002
 62
     3
370
    30
100
AcDbLine
 10
461.488599
 20
765.489429
 30
0.0
 11
465.361599
 21
768.489429
 31
0.0
  0
LINE
  5
248
330
1F
100
AcDbEntity
  8
002
 62
     3
370
    30
100
AcDbLine
 10
461.488599
 20
765.489429
 30
0.0
 11
457.107599
 21
765.489429
 31
0.0
  0
CIRCLE
  5
249
330
1F
100
AcDbEntity
  8
002
 62
     3
370
    30
100
AcDbCircle
 10
473.107599
 20
753.489429
 30
0.0
 40
7.5
  0
LINE
  5
24A
330
1F
100
AcDbEntity
  8
002
 62
     3
370
    30
100
AcDbLine
 10
461.488599
 20
738.489429
 30
0.0
 11
484.726499
 21
738.489429
 31
0.0
  0
ARC
  5
24B
330
1F
100
AcDbEntity
  8
002
 62
     3
370
    30
100
AcDbCircle
 10
480.100599
 20
740.386929
 30
0.0
 40
4.999955524802121
100
AcDbArc
 50
281.618944
 51
337.69703
  0
LINE
  5
24C
330
1F
100
AcDbEntity
  8
002
 62
     3
370
    30
100
AcDbLine
 10
484.726499
 20
738.489429
 30
0.0
 11
484.726499
 21
765.489429
 31
0.0
  0
LINE
  5
24D
330
1F
100
AcDbEntity
  8
002
 62
     3
370
    30
100
AcDbLine
 10
484.726499
 20
765.489429
 30
0.0
 11
489.107599
 21
765.489429
 31
0.0
  0
LINE
  5
24E
330
1F
100
AcDbEntity
  8
002
 62
     3
370
    30
100
AcDbLine
 10
484.726499
 20
765.489429
 30
0.0
 11
480.853499
 21
768.489429
 31
0.0
  0
LINE
  5
24F
330
1F
100
AcDbEntity
  8
002
  6
CENTER
 62
    40
370
     9
100
AcDbLine
 10
485.937199
 20
753.489429
 30
0.0
 11
460.791299
 21
753.489429
 31
0.0
  0
CIRCLE
  5
250
330
1F
100
AcDbEntity
  8
002
 62
     3
370
    30
100
AcDbCircle
 10
473.107599
 20
873.489429
 30
0.0
 40
16.0
  0
ARC
  5
251
330
1F
100
AcDbEntity
  8
002
 62
     3
370
    30
100
AcDbCircle
 10
473.107599
 20
873.489429
 30
0.0
 40
12.99999827846152
100
AcDbArc
 50
302.204215
 51
57.795785
  0
LINE
  5
252
330
1F
100
AcDbEntity
  8
002
 62
     3
370
    30
100
AcDbLine
 10
461.488599
 20
884.489429
 30
0.0
 11
484.726499
 21
884.489429
 31
0.0
  0
ARC
  5
253
330
1F
100
AcDbEntity
  8
002
 62
     3
370
    30
100
AcDbCircle
 10
473.107599
 20
873.489429
 30
0.0
 40
13.00005157259
100
AcDbArc
 50
122.204588
 51
237.795412
  0
LINE
  5
254
330
1F
100
AcDbEntity
  8
002
 62
     3
370
    30
100
AcDbLine
 10
484.726499
 20
862.489429
 30
0.0
 11
461.488599
 21
862.489429
 31
0.0
  0
LINE
  5
255
330
1F
100
AcDbEntity
  8
002
  6
HIDDEN
 62
    40
370
     9
100
AcDbLine
 10
480.607599
 20
884.489429
 30
0.0
 11
480.607599
 21
862.489429
 31
0.0
  0
LINE
  5
256
330
1F
100
AcDbEntity
  8
002
  6
HIDDEN
 62
    40
370
     9
100
AcDbLine
 10
465.607599
 20
884.489429
 30
0.0
 11
465.607599
 21
862.489429
 31
0.0
  0
LINE
  5
257
330
1F
100
AcDbEntity
  8
002
  6
HIDDEN
 62
    40
370
     9
100
AcDbLine
 10
647.065769
 20
728.489429
 30
0.0
 11
647.065769
 21
708.489429
 31
0.0
  0
LINE
  5
258
330
1F
100
AcDbEntity
  8
002
  6
CENTER
 62
    40
370
     9
100
AcDbLine
 10
473.107599
 20
899.489429
 30
0.0
 11
473.107599
 21
847.489429
 31
0.0
  0
LINE
  5
259
330
1F
100
AcDbEntity
  8
002
  6
CENTER
 62
    40
370
     9
100
AcDbLine
 10
499.107599
 20
873.489429
 30
0.0
 11
447.107599
 21
873.489429
 31
0.0
  0
LINE
  5
25A
330
1F
100
AcDbEntity
  8
002
 62
     3
370
    30
100
AcDbLine
 10
656.877769
 20
765.489429
 30
0.0
 11
624.877769
 21
765.489429
 31
0.0
  0
LINE
  5
25B
330
1F
100
AcDbEntity
  8
002
  6
CENTER
 62
    40
370
     9
100
AcDbLine
 10
786.509729
 20
743.183496
 30
0.0
 11
786.509729
 21
684.177466
 31
0.0
  0
CIRCLE
  5
25C
330
1F
100
AcDbEntity
  8
002
 62
     3
370
    30
100
AcDbCircle
 10
786.509729
 20
873.489429
 30
0.0
 40
50.0
  0
CIRCLE
  5
25D
330
1F
100
AcDbEntity
  8
002
 62
     3
370
    30
100
AcDbCircle
 10
786.509729
 20
840.989429
 30
0.0
 40
4.5
  0
CIRCLE
  5
25E
330
1F
100
AcDbEntity
  8
002
 62
     3
370
    30
100
AcDbCircle
 10
819.009729
 20
873.489429
 30
0.0
 40
4.5
  0
CIRCLE
  5
25F
330
1F
100
AcDbEntity
  8
002
 62
     3
370
    30
100
AcDbCircle
 10
786.509729
 20
873.489429
 30
0.0
 40
6.188
  0
CIRCLE
  5
260
330
1F
100
AcDbEntity
  8
002
 62
     3
370
    30
100
AcDbCircle
 10
754.009729
 20
873.489429
 30
0.0
 40
4.5
  0
CIRCLE
  5
261
330
1F
100
AcDbEntity
  8
002
 62
     3
370
    30
100
AcDbCircle
 10
786.509729
 20
905.989329
 30
0.0
 40
4.5
  0
CIRCLE
  5
262
330
1F
100
AcDbEntity
  8
002
 62
    40
370
     9
100
AcDbCircle
 10
786.509729
 20
873.489429
 30
0.0
 40
7.0
  0
CIRCLE
  5
263
330
1F
100
AcDbEntity
  8
002
  6
CENTER
 62
    40
370
     9
100
AcDbCircle
 10
786.509729
 20
873.489429
 30
0.0
 40
32.5
  0
LINE
  5
264
330
1F
100
AcDbEntity
  8
002
 62
     3
370
    30
100
AcDbLine
 10
770.509729
 20
722.183496
 30
0.0
 11
770.509729
 21
712.183496
 31
0.0
  0
LINE
  5
265
330
1F
100
AcDbEntity
  8
002
 62
     3
370
    30
100
AcDbLine
 10
770.509729
 20
712.183496
 30
0.0
 11
771.509729
 21
711.183496
 31
0.0
  0
ARC
  5
266
330
1F
100
AcDbEntity
  8
002
 62
     3
370
    30
100
AcDbCircle
 10
769.509729
 20
722.183496
 30
0.0
 40
1.0
100
AcDbArc
 50
0.0
 51
90.0
  0
LINE
  5
267
330
1F
100
AcDbEntity
  8
002
 62
     3
370
    30
100
AcDbLine
 10
771.509729
 20
711.183496
 30
0.0
 11
801.469429
 21
711.183496
 31
0.0
  0
LINE
  5
268
330
1F
100
AcDbEntity
  8
002
 62
     3
370
    30
100
AcDbLine
 10
736.509729
 20
732.183496
 30
0.0
 11
737.509729
 21
733.183496
 31
0.0
  0
LINE
  5
269
330
1F
100
AcDbEntity
  8
002
 62
     3
370
    30
100
AcDbLine
 10
737.509729
 20
723.183496
 30
0.0
 11
736.509729
 21
724.183496
 31
0.0
  0
LINE
  5
26A
330
1F
100
AcDbEntity
  8
002
 62
     3
370
    30
100
AcDbLine
 10
737.509729
 20
733.183496
 30
0.0
 11
835.509729
 21
733.183496
 31
0.0
  0
LINE
  5
26B
330
1F
100
AcDbEntity
  8
002
 62
     3
370
    30
100
AcDbLine
 10
835.509729
 20
723.183496
 30
0.0
 11
737.509729
 21
723.183496
 31
0.0
  0
LINE
  5
26C
330
1F
100
AcDbEntity
  8
002
 62
     3
370
    30
100
AcDbLine
 10
736.509729
 20
724.183496
 30
0.0
 11
736.509729
 21
732.183496
 31
0.0
  0
LINE
  5
26D
330
1F
100
AcDbEntity
  8
002
 62
     3
370
    30
100
AcDbLine
 10
801.509729
 20
711.183496
 30
0.0
 11
802.509729
 21
712.183496
 31
0.0
  0
LINE
  5
26E
330
1F
100
AcDbEntity
  8
002
 62
     3
370
    30
100
AcDbLine
 10
802.509729
 20
712.183496
 30
0.0
 11
802.509729
 21
722.183496
 31
0.0
  0
ARC
  5
26F
330
1F
100
AcDbEntity
  8
002
 62
     3
370
    30
100
AcDbCircle
 10
803.509729
 20
722.183496
 30
0.0
 40
1.0
100
AcDbArc
 50
90.0
 51
180.0
  0
LINE
  5
270
330
1F
100
AcDbEntity
  8
002
 62
     3
370
    30
100
AcDbLine
 10
835.509729
 20
733.183496
 30
0.0
 11
836.509729
 21
732.183496
 31
0.0
  0
LINE
  5
271
330
1F
100
AcDbEntity
  8
002
 62
     3
370
    30
100
AcDbLine
 10
836.509729
 20
732.183496
 30
0.0
 11
836.509729
 21
724.183496
 31
0.0
  0
LINE
  5
272
330
1F
100
AcDbEntity
  8
002
 62
     3
370
    30
100
AcDbLine
 10
836.509729
 20
724.183496
 30
0.0
 11
835.509729
 21
723.183496
 31
0.0
  0
LINE
  5
273
330
1F
100
AcDbEntity
  8
002
  6
CENTER
 62
    40
370
     9
100
AcDbLine
 10
754.009729
 20
738.183496
 30
0.0
 11
754.009729
 21
718.183496
 31
0.0
  0
LINE
  5
274
330
1F
100
AcDbEntity
  8
002
  6
CENTER
 62
    40
370
     9
100
AcDbLine
 10
819.009729
 20
718.183496
 30
0.0
 11
819.009729
 21
738.183496
 31
0.0
  0
LINE
  5
275
330
1F
100
AcDbEntity
  8
002
  6
CENTER
 62
    40
370
     9
100
AcDbLine
 10
731.509729
 20
873.489429
 30
0.0
 11
841.509729
 21
873.489429
 31
0.0
  0
LINE
  5
276
330
1F
100
AcDbEntity
  8
002
  6
CENTER
 62
    40
370
     9
100
AcDbLine
 10
786.509729
 20
818.489429
 30
0.0
 11
786.509729
 21
928.489429
 31
0.0
  0
LINE
  5
277
330
1F
100
AcDbEntity
  8
002
  6
CENTER
 62
    40
370
     9
100
AcDbLine
 10
473.107599
 20
778.489429
 30
0.0
 11
473.107599
 21
684.177466
 31
0.0
  0
LINE
  5
278
330
1F
100
AcDbEntity
  8
002
  6
HIDDEN
 62
    40
370
     9
100
AcDbLine
 10
480.107599
 20
728.489429
 30
0.0
 11
480.107599
 21
708.489429
 31
0.0
  0
LINE
  5
279
330
1F
100
AcDbEntity
  8
002
  6
HIDDEN
 62
    40
370
     9
100
AcDbLine
 10
466.107599
 20
728.489429
 30
0.0
 11
480.107599
 21
728.489429
 31
0.0
  0
LINE
  5
27A
330
1F
100
AcDbEntity
  8
002
  6
HIDDEN
 62
    40
370
     9
100
AcDbLine
 10
466.107599
 20
728.489429
 30
0.0
 11
466.107599
 21
708.489429
 31
0.0
  0
LINE
  5
27B
330
1F
100
AcDbEntity
  8
002
  6
HIDDEN
 62
    40
370
     9
100
AcDbLine
 10
466.919599
 20
708.489429
 30
0.0
 11
466.919599
 21
728.489429
 31
0.0
  0
LINE
  5
27C
330
1F
100
AcDbEntity
  8
002
  6
HIDDEN
 62
    40
370
     9
100
AcDbLine
 10
479.295599
 20
728.489429
 30
0.0
 11
479.295599
 21
708.489429
 31
0.0
  0
LINE
  5
27D
330
1F
100
AcDbEntity
  8
002
  6
HIDDEN
 62
    40
370
     9
100
AcDbLine
 10
793.509729
 20
731.183496
 30
0.0
 11
793.509729
 21
711.183496
 31
0.0
  0
LINE
  5
27E
330
1F
100
AcDbEntity
  8
002
  6
HIDDEN
 62
    40
370
     9
100
AcDbLine
 10
779.509729
 20
731.183496
 30
0.0
 11
793.509729
 21
731.183496
 31
0.0
  0
LINE
  5
27F
330
1F
100
AcDbEntity
  8
002
  6
HIDDEN
 62
    40
370
     9
100
AcDbLine
 10
779.509729
 20
731.183496
 30
0.0
 11
779.509729
 21
711.183496
 31
0.0
  0
LINE
  5
280
330
1F
100
AcDbEntity
  8
002
  6
HIDDEN
 62
    40
370
     9
100
AcDbLine
 10
780.321729
 20
711.183496
 30
0.0
 11
780.321729
 21
731.183496
 31
0.0
  0
LINE
  5
281
330
1F
100
AcDbEntity
  8
002
  6
HIDDEN
 62
    40
370
     9
100
AcDbLine
 10
792.697729
 20
731.183496
 30
0.0
 11
792.697729
 21
711.183496
 31
0.0
  0
LINE
  5
282
330
1F
100
AcDbEntity
  8
002
 62
     3
370
    30
100
AcDbLine
 10
488.107599
 20
708.489429
 30
0.0
 11
458.107599
 21
708.489429
 31
0.0
  0
LINE
  5
283
330
1F
100
AcDbEntity
  8
002
 62
     3
370
    30
100
AcDbLine
 10
458.107599
 20
708.489429
 30
0.0
 11
458.107599
 21
684.177466
 31
0.0
  0
LINE
  5
284
330
1F
100
AcDbEntity
  8
002
  6
CENTER
 62
    40
370
     9
100
AcDbLine
 10
485.107599
 20
710.505664
 30
0.0
 11
485.107599
 21
684.177466
 31
0.0
  0
LINE
  5
285
330
1F
100
AcDbEntity
  8
002
 62
    40
370
     9
100
AcDbLine
 10
482.107599
 20
708.489429
 30
0.0
 11
482.107599
 21
684.177466
 31
0.0
  0
LINE
  5
286
330
1F
100
AcDbEntity
  8
002
 62
     3
370
    30
100
AcDbLine
 10
488.107599
 20
708.489429
 30
0.0
 11
488.107599
 21
684.177466
 31
0.0
  0
LINE
  5
287
330
1F
100
AcDbEntity
  8
002
 62
     3
370
    30
100
AcDbLine
 10
625.877769
 20
708.489429
 30
0.0
 11
625.877769
 21
684.177466
 31
0.0
  0
LINE
  5
288
330
1F
100
AcDbEntity
  8
002
  6
CENTER
 62
    40
370
     9
100
AcDbLine
 10
652.877769
 20
710.505664
 30
0.0
 11
652.877769
 21
684.177466
 31
0.0
  0
LINE
  5
289
330
1F
100
AcDbEntity
  8
002
 62
    40
370
     9
100
AcDbLine
 10
649.877769
 20
708.489429
 30
0.0
 11
649.877769
 21
684.177466
 31
0.0
  0
LINE
  5
28A
330
1F
100
AcDbEntity
  8
002
 62
     3
370
    30
100
AcDbLine
 10
655.877769
 20
708.489429
 30
0.0
 11
655.877769
 21
684.177466
 31
0.0
  0
LINE
  5
28B
330
1F
100
AcDbEntity
  8
002
 62
     3
370
    30
100
AcDbLine
 10
771.509729
 20
711.183496
 30
0.0
 11
771.509729
 21
686.871533
 31
0.0
  0
LINE
  5
28C
330
1F
100
AcDbEntity
  8
002
  6
CENTER
 62
    40
370
     9
100
AcDbLine
 10
798.509729
 20
713.199732
 30
0.0
 11
798.509729
 21
686.871533
 31
0.0
  0
LINE
  5
28D
330
1F
100
AcDbEntity
  8
002
 62
    40
370
     9
100
AcDbLine
 10
795.509729
 20
711.183496
 30
0.0
 11
795.509729
 21
686.871533
 31
0.0
  0
LINE
  5
28E
330
1F
100
AcDbEntity
  8
002
 62
     3
370
    30
100
AcDbLine
 10
801.509729
 20
711.183496
 30
0.0
 11
801.509729
 21
686.871533
 31
0.0
  0
LINE
  5
28F
330
1F
100
AcDbEntity
  8
002
 62
     3
370
    30
100
AcDbLine
 10
655.877769
 20
708.489429
 30
0.0
 11
625.877769
 21
708.489429
 31
0.0
  0
LINE
  5
290
330
1F
100
AcDbEntity
  8
002
  6
CENTER
 62
    40
370
     9
100
AcDbLine
 10
1090.051337
 20
331.422337
 30
0.0
 11
933.440009
 21
331.422337
 31
0.0
  0
LINE
  5
291
330
1F
100
AcDbEntity
  8
001
 62
     3
370
    30
100
AcDbLine
 10
1025.551337
 20
556.422337
 30
0.0
 11
985.551337
 21
556.422337
 31
0.0
  0
LINE
  5
292
330
1F
100
AcDbEntity
  8
001
 62
     3
370
    30
100
AcDbLine
 10
1029.551337
 20
555.822337
 30
0.0
 11
985.551337
 21
555.822337
 31
0.0
  0
LINE
  5
293
330
1F
100
AcDbEntity
  8
001
 62
     3
370
    30
100
AcDbLine
 10
985.551337
 20
555.822337
 30
0.0
 11
981.551337
 21
555.822337
 31
0.0
  0
ARC
  5
294
330
1F
100
AcDbEntity
  8
001
 62
     3
370
    30
100
AcDbCircle
 10
1029.551337
 20
552.822337
 30
0.0
 40
3.0
100
AcDbArc
 50
0.0
 51
90.0
  0
ARC
  5
295
330
1F
100
AcDbEntity
  8
001
 62
     3
370
    30
100
AcDbCircle
 10
981.551337
 20
552.822337
 30
0.0
 40
3.0
100
AcDbArc
 50
90.0
 51
180.0
  0
LINE
  5
296
330
1F
100
AcDbEntity
  8
001
 62
     3
370
    30
100
AcDbLine
 10
1032.551337
 20
536.422337
 30
0.0
 11
1029.551337
 21
536.422337
 31
0.0
  0
LINE
  5
297
330
1F
100
AcDbEntity
  8
001
 62
     3
370
    30
100
AcDbLine
 10
1029.551337
 20
536.422337
 30
0.0
 11
978.551337
 21
536.422337
 31
0.0
  0
LINE
  5
298
330
1F
100
AcDbEntity
  8
002
  6
CENTER
 62
    40
370
     9
100
AcDbLine
 10
975.551337
 20
397.07502
 30
0.0
 11
975.551337
 21
426.231636
 31
0.0
  0
LINE
  5
299
330
1F
100
AcDbEntity
  8
002
  6
CENTER
 62
    40
370
     9
100
AcDbLine
 10
1035.551337
 20
394.576241
 30
0.0
 11
1035.551337
 21
426.231636
 31
0.0
  0
LINE
  5
29A
330
1F
100
AcDbEntity
  8
002
 62
     3
370
    30
100
AcDbLine
 10
968.051337
 20
421.422337
 30
0.0
 11
968.051337
 21
401.422337
 31
0.0
  0
LINE
  5
29B
330
1F
100
AcDbEntity
  8
002
 62
     3
370
    30
100
AcDbLine
 10
1043.051337
 20
401.422337
 30
0.0
 11
1043.051337
 21
421.422337
 31
0.0
  0
LINE
  5
29C
330
1F
100
AcDbEntity
  8
002
 62
     3
370
    30
100
AcDbLine
 10
1043.051337
 20
421.422337
 30
0.0
 11
1029.551337
 21
421.422337
 31
0.0
  0
LINE
  5
29D
330
1F
100
AcDbEntity
  8
002
 62
     3
370
    30
100
AcDbLine
 10
1029.551337
 20
421.422337
 30
0.0
 11
968.051337
 21
421.422337
 31
0.0
  0
LINE
  5
29E
330
1F
100
AcDbEntity
  8
002
 62
     3
370
    30
100
AcDbLine
 10
1032.551337
 20
536.422337
 30
0.0
 11
1032.551337
 21
552.822337
 31
0.0
  0
LINE
  5
29F
330
1F
100
AcDbEntity
  8
002
 62
     3
370
    30
100
AcDbLine
 10
1025.551337
 20
555.822337
 30
0.0
 11
1025.551337
 21
556.422337
 31
0.0
  0
LINE
  5
2A0
330
1F
100
AcDbEntity
  8
002
 62
     3
370
    30
100
AcDbLine
 10
985.551337
 20
555.822337
 30
0.0
 11
985.551337
 21
556.422337
 31
0.0
  0
LINE
  5
2A1
330
1F
100
AcDbEntity
  8
002
 62
     3
370
    30
100
AcDbLine
 10
978.551337
 20
536.422337
 30
0.0
 11
978.551337
 21
552.822337
 31
0.0
  0
LINE
  5
2A2
330
1F
100
AcDbEntity
  8
002
 62
     3
370
    30
100
AcDbLine
 10
1113.551337
 20
286.422337
 30
0.0
 11
1113.551337
 21
271.422337
 31
0.0
  0
LINE
  5
2A3
330
1F
100
AcDbEntity
  8
002
 62
     3
370
    30
100
AcDbLine
 10
1088.051337
 20
365.422337
 30
0.0
 11
1088.051337
 21
291.422337
 31
0.0
  0
LINE
  5
2A4
330
1F
100
AcDbEntity
  8
002
 62
     3
370
    30
100
AcDbLine
 10
998.051337
 20
365.422337
 30
0.0
 11
998.051337
 21
285.422337
 31
0.0
  0
LINE
  5
2A5
330
1F
100
AcDbEntity
  8
002
 62
     3
370
    30
100
AcDbLine
 10
1043.051337
 20
401.422337
 30
0.0
 11
1043.051337
 21
381.422337
 31
0.0
  0
LINE
  5
2A6
330
1F
100
AcDbEntity
  8
002
 62
     3
370
    30
100
AcDbLine
 10
1043.051337
 20
401.422337
 30
0.0
 11
940.551337
 21
401.422337
 31
0.0
  0
LINE
  5
2A7
330
1F
100
AcDbEntity
  8
002
 62
     3
370
    30
100
AcDbLine
 10
1077.051337
 20
376.422337
 30
0.0
 11
973.051337
 21
376.422337
 31
0.0
  0
LINE
  5
2A8
330
1F
100
AcDbEntity
  8
002
 62
     3
370
    30
100
AcDbLine
 10
1113.551337
 20
286.422337
 30
0.0
 11
1093.051337
 21
286.422337
 31
0.0
  0
LINE
  5
2A9
330
1F
100
AcDbEntity
  8
002
 62
     3
370
    30
100
AcDbLine
 10
945.551337
 20
271.422337
 30
0.0
 11
1113.551337
 21
271.422337
 31
0.0
  0
LINE
  5
2AA
330
1F
100
AcDbEntity
  8
002
 62
     3
370
    30
100
AcDbLine
 10
1077.051337
 20
286.422337
 30
0.0
 11
1009.051337
 21
286.422337
 31
0.0
  0
ARC
  5
2AB
330
1F
100
AcDbEntity
  8
002
 62
     3
370
    30
100
AcDbCircle
 10
1077.051337
 20
297.422337
 30
0.0
 40
11.0
100
AcDbArc
 50
270.0
 51
0.0
  0
ARC
  5
2AC
330
1F
100
AcDbEntity
  8
002
 62
     3
370
    30
100
AcDbCircle
 10
1077.051337
 20
365.422337
 30
0.0
 40
11.0
100
AcDbArc
 50
0.0
 51
90.0
  0
ARC
  5
2AD
330
1F
100
AcDbEntity
  8
002
 62
     3
370
    30
100
AcDbCircle
 10
1009.051337
 20
365.422337
 30
0.0
 40
11.0
100
AcDbArc
 50
90.0
 51
180.0
  0
ARC
  5
2AE
330
1F
100
AcDbEntity
  8
002
 62
     3
370
    30
100
AcDbCircle
 10
1009.051337
 20
297.422337
 30
0.0
 40
11.0
100
AcDbArc
 50
180.0
 51
270.0
  0
LINE
  5
2AF
330
1F
100
AcDbEntity
  8
002
 62
     3
370
    30
100
AcDbLine
 10
969.515804
 20
297.886803
 30
0.0
 11
978.086871
 21
306.457871
 31
0.0
  0
LINE
  5
2B0
330
1F
100
AcDbEntity
  8
002
 62
     3
370
    30
100
AcDbLine
 10
979.551337
 20
362.851269
 30
0.0
 11
979.551337
 21
309.993405
 31
0.0
  0
LINE
  5
2B1
330
1F
100
AcDbEntity
  8
002
 62
     3
370
    30
100
AcDbLine
 10
969.515804
 20
374.957871
 30
0.0
 11
978.086871
 21
366.386803
 31
0.0
  0
LINE
  5
2B2
330
1F
100
AcDbEntity
  8
002
 62
     3
370
    30
100
AcDbLine
 10
968.051337
 20
378.493405
 30
0.0
 11
968.051337
 21
401.422337
 31
0.0
  0
LINE
  5
2B3
330
1F
100
AcDbEntity
  8
002
 62
     3
370
    30
100
AcDbLine
 10
968.051337
 20
294.351269
 30
0.0
 11
968.051337
 21
286.422337
 31
0.0
  0
LINE
  5
2B4
330
1F
100
AcDbEntity
  8
002
 62
     3
370
    30
100
AcDbLine
 10
993.051337
 20
280.422337
 30
0.0
 11
952.551337
 21
280.422337
 31
0.0
  0
ARC
  5
2B5
330
1F
100
AcDbEntity
  8
002
 62
     3
370
    30
100
AcDbCircle
 10
993.051337
 20
285.422337
 30
0.0
 40
5.0
100
AcDbArc
 50
270.0
 51
0.0
  0
LINE
  5
2B6
330
1F
100
AcDbEntity
  8
002
 62
     3
370
    30
100
AcDbLine
 10
995.870727
 20
286.422337
 30
0.0
 11
956.051337
 21
286.422337
 31
0.0
  0
ARC
  5
2B7
330
1F
100
AcDbEntity
  8
002
 62
     3
370
    30
100
AcDbCircle
 10
1048.051337
 20
381.422337
 30
0.0
 40
5.0
100
AcDbArc
 50
180.0
 51
270.0
  0
CIRCLE
  5
2B8
330
1F
100
AcDbEntity
  8
002
 62
     3
370
    30
100
AcDbCircle
 10
1043.051337
 20
331.422337
 30
0.0
 40
22.0
  0
LINE
  5
2B9
330
1F
100
AcDbEntity
  8
002
 62
     3
370
    30
100
AcDbLine
 10
955.551337
 20
374.422337
 30
0.0
 11
949.551337
 21
370.958235
 31
0.0
  0
LINE
  5
2BA
330
1F
100
AcDbEntity
  8
002
 62
     3
370
    30
100
AcDbLine
 10
949.551337
 20
370.958235
 30
0.0
 11
949.551337
 21
316.886438
 31
0.0
  0
LINE
  5
2BB
330
1F
100
AcDbEntity
  8
002
 62
     3
370
    30
100
AcDbLine
 10
955.551337
 20
313.422337
 30
0.0
 11
949.551337
 21
316.886438
 31
0.0
  0
LINE
  5
2BC
330
1F
100
AcDbEntity
  8
002
 62
     3
370
    30
100
AcDbLine
 10
955.551337
 20
374.422337
 30
0.0
 11
955.551337
 21
401.422337
 31
0.0
  0
LINE
  5
2BD
330
1F
100
AcDbEntity
  8
002
 62
     3
370
    30
100
AcDbLine
 10
955.551337
 20
313.422337
 30
0.0
 11
955.551337
 21
289.422337
 31
0.0
  0
ARC
  5
2BE
330
1F
100
AcDbEntity
  8
002
 62
     3
370
    30
100
AcDbCircle
 10
952.551337
 20
283.422337
 30
0.0
 40
3.0
100
AcDbArc
 50
107.893993
 51
180.0
  0
ARC
  5
2BF
330
1F
100
AcDbEntity
  8
002
 62
     3
370
    30
100
AcDbCircle
 10
952.551337
 20
283.422337
 30
0.0
 40
3.0
100
AcDbArc
 50
180.0
 51
270.0
  0
ARC
  5
2C0
330
1F
100
AcDbEntity
  8
002
 62
     3
370
    30
100
AcDbCircle
 10
950.093283
 20
291.03535
 30
0.0
 40
5.0
100
AcDbArc
 50
287.893993
 51
315.0
  0
ARC
  5
2C1
330
1F
100
AcDbEntity
  8
002
 62
     3
370
    30
100
AcDbCircle
 10
973.051337
 20
381.422337
 30
0.0
 40
5.0
100
AcDbArc
 50
180.0
 51
270.0
  0
ARC
  5
2C2
330
1F
100
AcDbEntity
  8
002
 62
     3
370
    30
100
AcDbCircle
 10
1093.051337
 20
291.422337
 30
0.0
 40
5.0
100
AcDbArc
 50
180.0
 51
270.0
  0
LINE
  5
2C3
330
1F
100
AcDbEntity
  8
002
 62
     3
370
    30
100
AcDbLine
 10
956.051337
 20
286.422337
 30
0.0
 11
956.051337
 21
280.422337
 31
0.0
  0
LINE
  5
2C4
330
1F
100
AcDbEntity
  8
002
 62
     3
370
    30
100
AcDbLine
 10
955.551337
 20
289.422337
 30
0.0
 11
953.628816
 21
287.499816
 31
0.0
  0
LINE
  5
2C5
330
1F
100
AcDbEntity
  8
002
 62
     3
370
    30
100
AcDbLine
 10
945.551337
 20
271.422337
 30
0.0
 11
940.551337
 21
276.422337
 31
0.0
  0
LINE
  5
2C6
330
1F
100
AcDbEntity
  8
002
 62
     3
370
    30
100
AcDbLine
 10
1090.051337
 20
331.422337
 30
0.0
 11
1093.051337
 21
331.422337
 31
0.0
  0
LINE
  5
2C7
330
1F
100
AcDbEntity
  8
002
 62
     3
370
    30
100
AcDbLine
 10
1093.051337
 20
326.422337
 30
0.0
 11
1090.051337
 21
326.422337
 31
0.0
  0
ARC
  5
2C8
330
1F
100
AcDbEntity
  8
002
 62
     3
370
    30
100
AcDbCircle
 10
1090.426337
 20
328.922337
 30
0.0
 40
3.625
100
AcDbArc
 50
316.397181
 51
43.602819
  0
ARC
  5
2C9
330
1F
100
AcDbEntity
  8
002
 62
     3
370
    30
100
AcDbCircle
 10
1092.676337
 20
328.922337
 30
0.0
 40
3.625
100
AcDbArc
 50
136.397181
 51
223.602819
  0
LINE
  5
2CA
330
1F
100
AcDbEntity
  8
002
 62
     3
370
    30
100
AcDbLine
 10
1090.051337
 20
326.422337
 30
0.0
 11
1089.051337
 21
327.422337
 31
0.0
  0
LINE
  5
2CB
330
1F
100
AcDbEntity
  8
002
 62
     3
370
    30
100
AcDbLine
 10
1089.051337
 20
327.422337
 30
0.0
 11
1089.051337
 21
335.422337
 31
0.0
  0
LINE
  5
2CC
330
1F
100
AcDbEntity
  8
002
 62
     3
370
    30
100
AcDbLine
 10
1089.051337
 20
327.560837
 30
0.0
 11
1088.051337
 21
327.560837
 31
0.0
  0
ARC
  5
2CD
330
1F
100
AcDbEntity
  8
002
 62
     3
370
    30
100
AcDbCircle
 10
1092.676337
 20
333.922337
 30
0.0
 40
3.625
100
AcDbArc
 50
136.397181
 51
223.602819
  0
LINE
  5
2CE
330
1F
100
AcDbEntity
  8
002
 62
     3
370
    30
100
AcDbLine
 10
1089.051337
 20
335.283837
 30
0.0
 11
1088.051337
 21
335.283837
 31
0.0
  0
LINE
  5
2CF
330
1F
100
AcDbEntity
  8
002
 62
     3
370
    30
100
AcDbLine
 10
1089.051337
 20
335.422337
 30
0.0
 11
1090.051337
 21
336.422337
 31
0.0
  0
LINE
  5
2D0
330
1F
100
AcDbEntity
  8
002
 62
     3
370
    30
100
AcDbLine
 10
1090.051337
 20
336.422337
 30
0.0
 11
1093.051337
 21
336.422337
 31
0.0
  0
ARC
  5
2D1
330
1F
100
AcDbEntity
  8
002
 62
     3
370
    30
100
AcDbCircle
 10
1090.426337
 20
333.922337
 30
0.0
 40
3.625
100
AcDbArc
 50
316.397181
 51
43.602819
  0
LINE
  5
2D2
330
1F
100
AcDbEntity
  8
002
 62
     3
370
    30
100
AcDbLine
 10
1095.964737
 20
328.562337
 30
0.0
 11
1093.051337
 21
326.422337
 31
0.0
  0
ARC
  5
2D3
330
1F
100
AcDbEntity
  8
002
 62
     3
370
    30
100
AcDbCircle
 10
1096.671937
 20
327.855237
 30
0.0
 40
1.000061123131999
100
AcDbArc
 50
57.994617
 51
135.004051
  0
LINE
  5
2D4
330
1F
100
AcDbEntity
  8
002
 62
     3
370
    30
100
AcDbLine
 10
1098.051337
 20
328.172337
 30
0.0
 11
1097.201937
 21
328.703237
 31
0.0
  0
LINE
  5
2D5
330
1F
100
AcDbEntity
  8
002
 62
     3
370
    30
100
AcDbLine
 10
1101.051337
 20
328.922337
 30
0.0
 11
1098.051337
 21
328.172337
 31
0.0
  0
LINE
  5
2D6
330
1F
100
AcDbEntity
  8
002
 62
     3
370
    30
100
AcDbLine
 10
1098.051337
 20
333.922337
 30
0.0
 11
1098.051337
 21
328.922337
 31
0.0
  0
LINE
  5
2D7
330
1F
100
AcDbEntity
  8
002
 62
     3
370
    30
100
AcDbLine
 10
1096.527337
 20
329.124837
 30
0.0
 11
1096.527337
 21
333.719837
 31
0.0
  0
LINE
  5
2D8
330
1F
100
AcDbEntity
  8
002
 62
     3
370
    30
100
AcDbLine
 10
1093.051337
 20
336.422337
 30
0.0
 11
1095.964737
 21
334.282337
 31
0.0
  0
ARC
  5
2D9
330
1F
100
AcDbEntity
  8
002
 62
     3
370
    30
100
AcDbCircle
 10
1096.671937
 20
334.989437
 30
0.0
 40
1.000001999998045
100
AcDbArc
 50
224.995949
 51
302.005383
  0
LINE
  5
2DA
330
1F
100
AcDbEntity
  8
002
 62
     3
370
    30
100
AcDbLine
 10
1097.201937
 20
334.141437
 30
0.0
 11
1098.051337
 21
334.672337
 31
0.0
  0
LINE
  5
2DB
330
1F
100
AcDbEntity
  8
002
 62
     3
370
    30
100
AcDbLine
 10
1098.051337
 20
334.672337
 30
0.0
 11
1101.051337
 21
333.922337
 31
0.0
  0
LINE
  5
2DC
330
1F
100
AcDbEntity
  8
002
 62
     3
370
    30
100
AcDbLine
 10
1101.051337
 20
333.922337
 30
0.0
 11
1101.051337
 21
328.922337
 31
0.0
  0
ARC
  5
2DD
330
1F
100
AcDbEntity
  8
002
 62
     3
370
    30
100
AcDbCircle
 10
1100.389837
 20
331.422337
 30
0.0
 40
1.000041124154433
100
AcDbArc
 50
311.412294
 51
48.587706
  0
ARC
  5
2DE
330
1F
100
AcDbEntity
  8
002
 62
     3
370
    30
100
AcDbCircle
 10
1043.051337
 20
331.422337
 30
0.0
 40
10.0
100
AcDbArc
 50
104.477512
 51
75.522488
  0
LINE
  5
2DF
330
1F
100
AcDbEntity
  8
002
 62
     3
370
    30
100
AcDbLine
 10
1040.551337
 20
338.422337
 30
0.0
 11
1045.551337
 21
338.422337
 31
0.0
  0
LINE
  5
2E0
330
1F
100
AcDbEntity
  8
002
 62
     3
370
    30
100
AcDbLine
 10
1040.551337
 20
343.422337
 30
0.0
 11
1045.551337
 21
343.422337
 31
0.0
  0
LINE
  5
2E1
330
1F
100
AcDbEntity
  8
002
 62
     3
370
    30
100
AcDbLine
 10
1040.551337
 20
343.422337
 30
0.0
 11
1040.551337
 21
338.422337
 31
0.0
  0
LINE
  5
2E2
330
1F
100
AcDbEntity
  8
002
 62
     3
370
    30
100
AcDbLine
 10
1045.551337
 20
343.422337
 30
0.0
 11
1045.551337
 21
338.422337
 31
0.0
  0
ARC
  5
2E3
330
1F
100
AcDbEntity
  8
002
 62
     3
370
    30
100
AcDbCircle
 10
973.051337
 20
378.493405
 30
0.0
 40
5.0
100
AcDbArc
 50
180.0
 51
225.0
  0
ARC
  5
2E4
330
1F
100
AcDbEntity
  8
002
 62
     3
370
    30
100
AcDbCircle
 10
974.551337
 20
362.851269
 30
0.0
 40
5.0
100
AcDbArc
 50
0.0
 51
45.0
  0
ARC
  5
2E5
330
1F
100
AcDbEntity
  8
002
 62
     3
370
    30
100
AcDbCircle
 10
974.551337
 20
309.993405
 30
0.0
 40
5.0
100
AcDbArc
 50
315.0
 51
0.0
  0
ARC
  5
2E6
330
1F
100
AcDbEntity
  8
002
 62
     3
370
    30
100
AcDbCircle
 10
973.051337
 20
294.351269
 30
0.0
 40
5.0
100
AcDbArc
 50
135.0
 51
180.0
  0
LINE
  5
2E7
330
1F
100
AcDbEntity
  8
002
  6
CENTER
 62
    40
370
     9
100
AcDbLine
 10
957.198047
 20
386.422337
 30
0.0
 11
936.544967
 21
386.422337
 31
0.0
  0
LINE
  5
2E8
330
1F
100
AcDbEntity
  8
002
  6
CENTER
 62
    40
370
     9
100
AcDbLine
 10
957.843288
 20
301.422337
 30
0.0
 11
937.549438
 21
301.422337
 31
0.0
  0
LINE
  5
2E9
330
1F
100
AcDbEntity
  8
002
  6
CENTER
 62
    40
370
     9
100
AcDbLine
 10
968.051337
 20
285.981339
 30
0.0
 11
968.051337
 21
271.422337
 31
0.0
  0
LINE
  5
2EA
330
1F
100
AcDbEntity
  8
002
  6
CENTER
 62
    40
370
     9
100
AcDbLine
 10
1043.051337
 20
377.859085
 30
0.0
 11
1043.051337
 21
285.422337
 31
0.0
  0
LINE
  5
2EB
330
1F
100
AcDbEntity
  8
002
  6
CENTER
 62
    40
370
     9
100
AcDbLine
 10
1102.753192
 20
331.422337
 30
0.0
 11
1093.051337
 21
331.422337
 31
0.0
  0
LINE
  5
2EC
330
1F
100
AcDbEntity
  8
002
  6
CENTER
 62
    40
370
     9
100
AcDbLine
 10
1103.051337
 20
289.607109
 30
0.0
 11
1103.051337
 21
267.877976
 31
0.0
  0
LINE
  5
2ED
330
1F
100
AcDbEntity
  8
002
  6
HIDDEN
 62
    40
370
     9
100
AcDbLine
 10
955.551337
 20
391.922337
 30
0.0
 11
940.551337
 21
391.922337
 31
0.0
  0
LINE
  5
2EE
330
1F
100
AcDbEntity
  8
002
  6
HIDDEN
 62
    40
370
     9
100
AcDbLine
 10
955.551337
 20
380.922337
 30
0.0
 11
940.551337
 21
380.922337
 31
0.0
  0
LINE
  5
2EF
330
1F
100
AcDbEntity
  8
002
  6
HIDDEN
 62
    40
370
     9
100
AcDbLine
 10
955.551337
 20
306.922337
 30
0.0
 11
940.551337
 21
306.922337
 31
0.0
  0
LINE
  5
2F0
330
1F
100
AcDbEntity
  8
002
  6
HIDDEN
 62
    40
370
     9
100
AcDbLine
 10
955.551337
 20
295.922337
 30
0.0
 11
940.551337
 21
295.922337
 31
0.0
  0
LINE
  5
2F1
330
1F
100
AcDbEntity
  8
002
  6
HIDDEN
 62
    40
370
     9
100
AcDbLine
 10
962.551337
 20
286.422337
 30
0.0
 11
962.551337
 21
271.422337
 31
0.0
  0
LINE
  5
2F2
330
1F
100
AcDbEntity
  8
002
  6
HIDDEN
 62
    40
370
     9
100
AcDbLine
 10
973.551337
 20
286.422337
 30
0.0
 11
973.551337
 21
271.422337
 31
0.0
  0
LINE
  5
2F3
330
1F
100
AcDbEntity
  8
002
  6
HIDDEN
 62
    40
370
     9
100
AcDbLine
 10
1097.551337
 20
286.422337
 30
0.0
 11
1097.551337
 21
271.422337
 31
0.0
  0
LINE
  5
2F4
330
1F
100
AcDbEntity
  8
002
  6
HIDDEN
 62
    40
370
     9
100
AcDbLine
 10
1108.551337
 20
286.422337
 30
0.0
 11
1108.551337
 21
271.422337
 31
0.0
  0
LINE
  5
2F5
330
1F
100
AcDbEntity
  8
002
 62
     3
370
    30
100
AcDbLine
 10
940.551337
 20
276.422337
 30
0.0
 11
940.551337
 21
401.422337
 31
0.0
  0
LINE
  5
2F6
330
1F
100
AcDbEntity
  8
002
 62
     3
370
    30
100
AcDbLine
 10
558.682307
 20
401.422337
 30
0.0
 11
558.682307
 21
403.722337
 31
0.0
  0
LINE
  5
2F7
330
1F
100
AcDbEntity
  8
002
 62
     3
370
    30
100
AcDbLine
 10
558.682307
 20
403.722337
 30
0.0
 11
483.682307
 21
403.722337
 31
0.0
  0
LINE
  5
2F8
330
1F
100
AcDbEntity
  8
002
 62
     3
370
    30
100
AcDbLine
 10
483.682307
 20
403.722337
 30
0.0
 11
483.682307
 21
401.422337
 31
0.0
  0
LINE
  5
2F9
330
1F
100
AcDbEntity
  8
002
 62
     3
370
    30
100
AcDbLine
 10
486.932307
 20
403.722337
 30
0.0
 11
486.932307
 21
408.722337
 31
0.0
  0
LINE
  5
2FA
330
1F
100
AcDbEntity
  8
002
 62
     3
370
    30
100
AcDbLine
 10
486.932307
 20
408.722337
 30
0.0
 11
495.432307
 21
408.722337
 31
0.0
  0
LINE
  5
2FB
330
1F
100
AcDbEntity
  8
002
 62
     3
370
    30
100
AcDbLine
 10
494.682307
 20
408.722337
 30
0.0
 11
494.682307
 21
418.722337
 31
0.0
  0
LINE
  5
2FC
330
1F
100
AcDbEntity
  8
002
 62
     3
370
    30
100
AcDbLine
 10
494.682307
 20
418.722337
 30
0.0
 11
555.682307
 21
418.722337
 31
0.0
  0
LINE
  5
2FD
330
1F
100
AcDbEntity
  8
002
 62
     3
370
    30
100
AcDbLine
 10
556.828507
 20
422.727637
 30
0.0
 11
548.536107
 21
421.716937
 31
0.0
  0
ARC
  5
2FE
330
1F
100
AcDbEntity
  8
002
 62
     3
370
    30
100
AcDbCircle
 10
548.682307
 20
419.722337
 30
0.0
 40
2.0
100
AcDbArc
 50
94.192164
 51
180.0
  0
LINE
  5
2FF
330
1F
100
AcDbEntity
  8
002
 62
     3
370
    30
100
AcDbLine
 10
546.682307
 20
419.722337
 30
0.0
 11
546.682307
 21
418.722337
 31
0.0
  0
LINE
  5
300
330
1F
100
AcDbEntity
  8
002
 62
     3
370
    30
100
AcDbLine
 10
547.682307
 20
418.722337
 30
0.0
 11
547.682307
 21
408.722337
 31
0.0
  0
LINE
  5
301
330
1F
100
AcDbEntity
  8
002
 62
     3
370
    30
100
AcDbLine
 10
546.932307
 20
408.722337
 30
0.0
 11
555.432307
 21
408.722337
 31
0.0
  0
LINE
  5
302
330
1F
100
AcDbEntity
  8
002
 62
     3
370
    30
100
AcDbLine
 10
546.932307
 20
408.722337
 30
0.0
 11
546.932307
 21
403.722337
 31
0.0
  0
LINE
  5
303
330
1F
100
AcDbEntity
  8
002
 62
     3
370
    30
100
AcDbLine
 10
525.432307
 20
403.722337
 30
0.0
 11
525.432307
 21
408.722337
 31
0.0
  0
LINE
  5
304
330
1F
100
AcDbEntity
  8
002
 62
     3
370
    30
100
AcDbLine
 10
516.932307
 20
408.722337
 30
0.0
 11
525.432307
 21
408.722337
 31
0.0
  0
LINE
  5
305
330
1F
100
AcDbEntity
  8
002
 62
     3
370
    30
100
AcDbLine
 10
525.432307
 20
405.722337
 30
0.0
 11
546.932307
 21
405.722337
 31
0.0
  0
LINE
  5
306
330
1F
100
AcDbEntity
  8
002
 62
     3
370
    30
100
AcDbLine
 10
555.432307
 20
403.722337
 30
0.0
 11
555.432307
 21
408.722337
 31
0.0
  0
LINE
  5
307
330
1F
100
AcDbEntity
  8
002
 62
     3
370
    30
100
AcDbLine
 10
555.432307
 20
405.722337
 30
0.0
 11
555.682307
 21
405.722337
 31
0.0
  0
ARC
  5
308
330
1F
100
AcDbEntity
  8
002
 62
     3
370
    30
100
AcDbCircle
 10
555.682307
 20
408.722337
 30
0.0
 40
3.0
100
AcDbArc
 50
270.0
 51
0.0
  0
LINE
  5
309
330
1F
100
AcDbEntity
  8
002
 62
     3
370
    30
100
AcDbLine
 10
558.682307
 20
408.722337
 30
0.0
 11
558.682307
 21
415.722337
 31
0.0
  0
ARC
  5
30A
330
1F
100
AcDbEntity
  8
002
 62
     3
370
    30
100
AcDbCircle
 10
555.682307
 20
415.722337
 30
0.0
 40
3.0
100
AcDbArc
 50
0.0
 51
90.0
  0
ARC
  5
30B
330
1F
100
AcDbEntity
  8
002
 62
     3
370
    30
100
AcDbCircle
 10
556.682307
 20
424.722337
 30
0.0
 40
1.999950899397276
100
AcDbArc
 50
274.191954
 51
85.807836
  0
LINE
  5
30C
330
1F
100
AcDbEntity
  8
002
 62
     3
370
    30
100
AcDbLine
 10
556.828507
 20
426.716937
 30
0.0
 11
543.036107
 21
427.727637
 31
0.0
  0
ARC
  5
30D
330
1F
100
AcDbEntity
  8
002
 62
     3
370
    30
100
AcDbCircle
 10
543.182307
 20
429.722337
 30
0.0
 40
2.000050631859067
100
AcDbArc
 50
94.192164
 51
265.808046
  0
LINE
  5
30E
330
1F
100
AcDbEntity
  8
002
 62
     3
370
    30
100
AcDbLine
 10
543.036107
 20
431.716937
 30
0.0
 11
556.828507
 21
432.727637
 31
0.0
  0
ARC
  5
30F
330
1F
100
AcDbEntity
  8
002
 62
     3
370
    30
100
AcDbCircle
 10
556.682307
 20
434.722337
 30
0.0
 40
1.999950899397276
100
AcDbArc
 50
274.191954
 51
85.807836
  0
LINE
  5
310
330
1F
100
AcDbEntity
  8
002
 62
     3
370
    30
100
AcDbLine
 10
556.828507
 20
436.716937
 30
0.0
 11
543.036107
 21
437.727637
 31
0.0
  0
ARC
  5
311
330
1F
100
AcDbEntity
  8
002
 62
     3
370
    30
100
AcDbCircle
 10
543.182307
 20
439.722337
 30
0.0
 40
2.000050631859067
100
AcDbArc
 50
180.0
 51
265.808046
  0
LINE
  5
312
330
1F
100
AcDbEntity
  8
002
 62
     3
370
    30
100
AcDbLine
 10
539.182307
 20
439.722337
 30
0.0
 11
503.182307
 21
439.722337
 31
0.0
  0
ARC
  5
313
330
1F
100
AcDbEntity
  8
002
 62
     3
370
    30
100
AcDbCircle
 10
499.182307
 20
439.722337
 30
0.0
 40
2.0
100
AcDbArc
 50
274.191954
 51
0.0
  0
LINE
  5
314
330
1F
100
AcDbEntity
  8
002
 62
     3
370
    30
100
AcDbLine
 10
499.328507
 20
437.727637
 30
0.0
 11
485.536107
 21
436.716937
 31
0.0
  0
ARC
  5
315
330
1F
100
AcDbEntity
  8
002
 62
     3
370
    30
100
AcDbCircle
 10
485.682307
 20
434.722337
 30
0.0
 40
2.000050631859069
100
AcDbArc
 50
94.192164
 51
265.808046
  0
LINE
  5
316
330
1F
100
AcDbEntity
  8
002
 62
     3
370
    30
100
AcDbLine
 10
485.536107
 20
432.727637
 30
0.0
 11
499.328507
 21
431.716937
 31
0.0
  0
ARC
  5
317
330
1F
100
AcDbEntity
  8
002
 62
     3
370
    30
100
AcDbCircle
 10
499.182307
 20
429.722337
 30
0.0
 40
1.999950899397273
100
AcDbArc
 50
274.191954
 51
85.807836
  0
LINE
  5
318
330
1F
100
AcDbEntity
  8
002
 62
     3
370
    30
100
AcDbLine
 10
499.328507
 20
427.727637
 30
0.0
 11
485.536107
 21
426.716937
 31
0.0
  0
ARC
  5
319
330
1F
100
AcDbEntity
  8
002
 62
     3
370
    30
100
AcDbCircle
 10
485.682307
 20
424.722337
 30
0.0
 40
2.000050631859069
100
AcDbArc
 50
94.192164
 51
265.808046
  0
LINE
  5
31A
330
1F
100
AcDbEntity
  8
002
 62
     3
370
    30
100
AcDbLine
 10
485.536107
 20
422.727637
 30
0.0
 11
493.828507
 21
421.716937
 31
0.0
  0
ARC
  5
31B
330
1F
100
AcDbEntity
  8
002
 62
     3
370
    30
100
AcDbCircle
 10
493.682307
 20
419.722337
 30
0.0
 40
1.999950899397273
100
AcDbArc
 50
0.0
 51
85.807836
  0
LINE
  5
31C
330
1F
100
AcDbEntity
  8
002
 62
     3
370
    30
100
AcDbLine
 10
495.682307
 20
419.722337
 30
0.0
 11
495.682307
 21
418.722337
 31
0.0
  0
LINE
  5
31D
330
1F
100
AcDbEntity
  8
002
 62
     3
370
    30
100
AcDbLine
 10
539.182307
 20
429.722337
 30
0.0
 11
503.182307
 21
429.722337
 31
0.0
  0
LINE
  5
31E
330
1F
100
AcDbEntity
  8
002
 62
     3
370
    30
100
AcDbLine
 10
485.682307
 20
424.722337
 30
0.0
 11
556.682307
 21
424.722337
 31
0.0
  0
LINE
  5
31F
330
1F
100
AcDbEntity
  8
002
 62
     3
370
    30
100
AcDbLine
 10
556.682307
 20
434.722337
 30
0.0
 11
485.682307
 21
434.722337
 31
0.0
  0
LINE
  5
320
330
1F
100
AcDbEntity
  8
002
 62
     3
370
    30
100
AcDbLine
 10
495.432307
 20
408.722337
 30
0.0
 11
495.432307
 21
403.722337
 31
0.0
  0
LINE
  5
321
330
1F
100
AcDbEntity
  8
002
 62
     3
370
    30
100
AcDbLine
 10
516.932307
 20
403.722337
 30
0.0
 11
516.932307
 21
408.722337
 31
0.0
  0
LINE
  5
322
330
1F
100
AcDbEntity
  8
002
 62
     3
370
    30
100
AcDbLine
 10
516.932307
 20
405.722337
 30
0.0
 11
495.432307
 21
405.722337
 31
0.0
  0
CIRCLE
  5
323
330
1F
100
AcDbEntity
  8
002
 62
     3
370
    30
100
AcDbCircle
 10
553.182307
 20
412.222337
 30
0.0
 40
1.0
  0
LINE
  5
324
330
1F
100
AcDbEntity
  8
002
  6
CENTER
 62
    40
370
     9
100
AcDbLine
 10
551.182307
 20
390.178037
 30
0.0
 11
551.182307
 21
410.149937
 31
0.0
  0
LINE
  5
325
330
1F
100
AcDbEntity
  8
002
  6
CENTER
 62
    40
370
     9
100
AcDbLine
 10
553.182307
 20
410.122137
 30
0.0
 11
553.182307
 21
414.093237
 31
0.0
  0
LINE
  5
326
330
1F
100
AcDbEntity
  8
002
  6
CENTER
 62
    40
370
     9
100
AcDbLine
 10
550.926507
 20
412.222337
 30
0.0
 11
555.527207
 21
412.222337
 31
0.0
  0
LINE
  5
327
330
1F
100
AcDbEntity
  8
002
  6
CENTER
 62
    40
370
     9
100
AcDbLine
 10
491.182307
 20
410.149937
 30
0.0
 11
491.182307
 21
390.178037
 31
0.0
  0
LINE
  5
328
330
1F
100
AcDbEntity
  8
002
  6
PHANTOM
 62
    40
370
     9
100
AcDbLine
 10
501.182307
 20
526.128131
 30
0.0
 11
501.182307
 21
439.722337
 31
0.0
  0
LINE
  5
329
330
1F
100
AcDbEntity
  8
002
  6
PHANTOM
 62
    40
370
     9
100
AcDbLine
 10
483.682307
 20
434.722337
 30
0.0
 11
483.682307
 21
531.128131
 31
0.0
  0
LINE
  5
32A
330
1F
100
AcDbEntity
  8
002
  6
PHANTOM
 62
    40
370
     9
100
AcDbLine
 10
541.182307
 20
526.128131
 30
0.0
 11
541.182307
 21
439.722337
 31
0.0
  0
LINE
  5
32B
330
1F
100
AcDbEntity
  8
002
  6
PHANTOM
 62
    40
370
     9
100
AcDbLine
 10
558.682307
 20
434.722337
 30
0.0
 11
558.682307
 21
531.128131
 31
0.0
  0
LINE
  5
32C
330
1F
100
AcDbEntity
  8
002
 62
     3
370
    30
100
AcDbLine
 10
1020.548433
 20
111.716542
 30
0.0
 11
990.548433
 21
111.716542
 31
0.0
  0
LINE
  5
32D
330
1F
100
AcDbEntity
  8
002
 62
     3
370
    50
100
AcDbLine
 10
998.551337
 20
91.716542
 30
0.0
 11
998.551337
 21
109.716542
 31
0.0
  0
LINE
  5
32E
330
1F
100
AcDbEntity
  8
002
 62
     3
370
    50
100
AcDbLine
 10
1012.551337
 20
91.716542
 30
0.0
 11
1012.551337
 21
109.716542
 31
0.0
  0
LINE
  5
32F
330
1F
100
AcDbEntity
  8
002
 62
    40
370
     9
100
AcDbLine
 10
999.301337
 20
91.716542
 30
0.0
 11
999.301337
 21
109.716542
 31
0.0
  0
LINE
  5
330
330
1F
100
AcDbEntity
  8
002
 62
    40
370
     9
100
AcDbLine
 10
1011.801337
 20
91.716542
 30
0.0
 11
1011.801337
 21
109.716542
 31
0.0
  0
LINE
  5
331
330
1F
100
AcDbEntity
  8
002
 62
     3
370
    50
100
AcDbLine
 10
998.551337
 20
109.716542
 30
0.0
 11
1012.551337
 21
109.716542
 31
0.0
  0
ARC
  5
332
330
1F
100
AcDbEntity
  8
002
 62
     3
370
    50
100
AcDbCircle
 10
998.551337
 20
110.716542
 30
0.0
 40
1.0
100
AcDbArc
 50
270.0
 51
0.0
  0
ARC
  5
333
330
1F
100
AcDbEntity
  8
002
 62
     3
370
    50
100
AcDbCircle
 10
998.551337
 20
110.716542
 30
0.0
 40
1.0
100
AcDbArc
 50
0.0
 51
90.0
  0
ARC
  5
334
330
1F
100
AcDbEntity
  8
002
 62
     3
370
    50
100
AcDbCircle
 10
1012.551337
 20
110.716542
 30
0.0
 40
1.0
100
AcDbArc
 50
90.0
 51
180.0
  0
ARC
  5
335
330
1F
100
AcDbEntity
  8
002
 62
     3
370
    50
100
AcDbCircle
 10
1012.551337
 20
110.716542
 30
0.0
 40
1.0
100
AcDbArc
 50
180.0
 51
270.0
  0
LINE
  5
336
330
1F
100
AcDbEntity
  8
002
 62
     3
370
    30
100
AcDbLine
 10
1023.548433
 20
146.716542
 30
0.0
 11
987.548433
 21
146.716542
 31
0.0
  0
ARC
  5
337
330
1F
100
AcDbEntity
  8
002
 62
     3
370
    30
100
AcDbCircle
 10
983.548433
 20
146.716542
 30
0.0
 40
1.999943591704517
100
AcDbArc
 50
274.189307
 51
0.0
  0
LINE
  5
338
330
1F
100
AcDbEntity
  8
002
 62
     3
370
    30
100
AcDbLine
 10
983.694533
 20
144.721942
 30
0.0
 11
969.902233
 21
143.711242
 31
0.0
  0
LINE
  5
339
330
1F
100
AcDbEntity
  8
002
 62
     3
370
    30
100
AcDbLine
 10
970.048433
 20
141.716542
 30
0.0
 11
1041.048433
 21
141.716542
 31
0.0
  0
LINE
  5
33A
330
1F
100
AcDbEntity
  8
002
 62
     3
370
    30
100
AcDbLine
 10
1041.194533
 20
139.721942
 30
0.0
 11
1027.402233
 21
138.711242
 31
0.0
  0
ARC
  5
33B
330
1F
100
AcDbEntity
  8
002
 62
     3
370
    30
100
AcDbCircle
 10
1027.548433
 20
136.716542
 30
0.0
 40
2.000050631859185
100
AcDbArc
 50
94.191954
 51
265.807836
  0
LINE
  5
33C
330
1F
100
AcDbEntity
  8
002
 62
     3
370
    30
100
AcDbLine
 10
1027.402233
 20
134.721942
 30
0.0
 11
1041.194533
 21
133.711242
 31
0.0
  0
ARC
  5
33D
330
1F
100
AcDbEntity
  8
002
 62
     3
370
    30
100
AcDbCircle
 10
1041.048433
 20
131.716542
 30
0.0
 40
1.999943591704517
100
AcDbArc
 50
274.189307
 51
85.810903
  0
ARC
  5
33E
330
1F
100
AcDbEntity
  8
002
 62
     3
370
    30
100
AcDbCircle
 10
1022.548433
 20
126.716542
 30
0.0
 40
2.000050631859183
100
AcDbArc
 50
94.191954
 51
180.0
  0
LINE
  5
33F
330
1F
100
AcDbEntity
  8
002
 62
     3
370
    30
100
AcDbLine
 10
1020.548433
 20
126.716542
 30
0.0
 11
1020.548433
 21
125.716542
 31
0.0
  0
LINE
  5
340
330
1F
100
AcDbEntity
  8
002
 62
     3
370
    30
100
AcDbLine
 10
1021.548433
 20
125.716542
 30
0.0
 11
1021.548433
 21
112.716542
 31
0.0
  0
LINE
  5
341
330
1F
100
AcDbEntity
  8
002
 62
     3
370
    30
100
AcDbLine
 10
1020.548433
 20
112.716542
 30
0.0
 11
1020.548433
 21
111.716542
 31
0.0
  0
LINE
  5
342
330
1F
100
AcDbEntity
  8
002
 62
     3
370
    30
100
AcDbLine
 10
990.548433
 20
111.716542
 30
0.0
 11
990.548433
 21
112.716542
 31
0.0
  0
LINE
  5
343
330
1F
100
AcDbEntity
  8
002
 62
     3
370
    30
100
AcDbLine
 10
989.548433
 20
112.716542
 30
0.0
 11
1029.548433
 21
112.716542
 31
0.0
  0
LINE
  5
344
330
1F
100
AcDbEntity
  8
002
 62
     3
370
    30
100
AcDbLine
 10
1032.548433
 20
115.716542
 30
0.0
 11
1032.548433
 21
122.716542
 31
0.0
  0
LINE
  5
345
330
1F
100
AcDbEntity
  8
002
 62
     3
370
    30
100
AcDbLine
 10
1029.548433
 20
125.716542
 30
0.0
 11
989.548433
 21
125.716542
 31
0.0
  0
LINE
  5
346
330
1F
100
AcDbEntity
  8
002
 62
     3
370
    30
100
AcDbLine
 10
989.548433
 20
125.716542
 30
0.0
 11
989.548433
 21
112.716542
 31
0.0
  0
CIRCLE
  5
347
330
1F
100
AcDbEntity
  8
002
 62
     3
370
    30
100
AcDbCircle
 10
1027.048433
 20
119.216542
 30
0.0
 40
1.0
  0
ARC
  5
348
330
1F
100
AcDbEntity
  8
002
 62
     3
370
    30
100
AcDbCircle
 10
1029.548433
 20
115.716542
 30
0.0
 40
3.0
100
AcDbArc
 50
270.0
 51
0.0
  0
ARC
  5
349
330
1F
100
AcDbEntity
  8
002
 62
     3
370
    30
100
AcDbCircle
 10
1029.548433
 20
122.716542
 30
0.0
 40
3.0
100
AcDbArc
 50
0.0
 51
90.0
  0
LINE
  5
34A
330
1F
100
AcDbEntity
  8
002
 62
     3
370
    30
100
AcDbLine
 10
1041.048433
 20
131.716542
 30
0.0
 11
970.048433
 21
131.716542
 31
0.0
  0
LINE
  5
34B
330
1F
100
AcDbEntity
  8
002
 62
     3
370
    30
100
AcDbLine
 10
969.902233
 20
133.711242
 30
0.0
 11
983.694533
 21
134.721942
 31
0.0
  0
LINE
  5
34C
330
1F
100
AcDbEntity
  8
002
 62
     3
370
    30
100
AcDbLine
 10
983.694533
 20
138.711242
 30
0.0
 11
969.902233
 21
139.721942
 31
0.0
  0
ARC
  5
34D
330
1F
100
AcDbEntity
  8
002
 62
     3
370
    30
100
AcDbCircle
 10
970.048433
 20
141.716542
 30
0.0
 40
2.000050631859183
100
AcDbArc
 50
94.191954
 51
265.807836
  0
ARC
  5
34E
330
1F
100
AcDbEntity
  8
002
 62
     3
370
    30
100
AcDbCircle
 10
970.048433
 20
131.716542
 30
0.0
 40
2.000050631859183
100
AcDbArc
 50
94.191954
 51
265.807836
  0
ARC
  5
34F
330
1F
100
AcDbEntity
  8
002
 62
     3
370
    30
100
AcDbCircle
 10
988.548433
 20
126.716542
 30
0.0
 40
2.0
100
AcDbArc
 50
0.0
 51
85.810903
  0
LINE
  5
350
330
1F
100
AcDbEntity
  8
002
 62
     3
370
    30
100
AcDbLine
 10
990.548433
 20
126.716542
 30
0.0
 11
990.548433
 21
125.716542
 31
0.0
  0
LINE
  5
351
330
1F
100
AcDbEntity
  8
002
 62
     3
370
    30
100
AcDbLine
 10
987.548433
 20
136.716542
 30
0.0
 11
1023.548433
 21
136.716542
 31
0.0
  0
LINE
  5
352
330
1F
100
AcDbEntity
  8
002
 62
     3
370
    30
100
AcDbLine
 10
1027.402233
 20
144.721942
 30
0.0
 11
1041.194533
 21
143.711242
 31
0.0
  0
ARC
  5
353
330
1F
100
AcDbEntity
  8
002
 62
     3
370
    30
100
AcDbCircle
 10
1041.048433
 20
141.716542
 30
0.0
 40
1.999943591704517
100
AcDbArc
 50
274.189307
 51
85.810903
  0
ARC
  5
354
330
1F
100
AcDbEntity
  8
002
 62
     3
370
    30
100
AcDbCircle
 10
1027.548433
 20
146.716542
 30
0.0
 40
2.0
100
AcDbArc
 50
180.0
 51
265.807836
  0
ARC
  5
355
330
1F
100
AcDbEntity
  8
002
 62
     3
370
    30
100
AcDbCircle
 10
983.548433
 20
136.716542
 30
0.0
 40
1.999943591704517
100
AcDbArc
 50
274.189307
 51
85.810903
  0
LINE
  5
356
330
1F
100
AcDbEntity
  8
002
  6
CENTER
 62
    40
370
     9
100
AcDbLine
 10
1027.048433
 20
117.345642
 30
0.0
 11
1027.048433
 21
121.316742
 31
0.0
  0
LINE
  5
357
330
1F
100
AcDbEntity
  8
002
  6
CENTER
 62
    40
370
     9
100
AcDbLine
 10
1024.792633
 20
119.216542
 30
0.0
 11
1029.393233
 21
119.216542
 31
0.0
  0
LINE
  5
358
330
1F
100
AcDbEntity
  8
002
 62
     3
370
    30
100
AcDbLine
 10
1022.402233
 20
128.711242
 30
0.0
 11
1041.194533
 21
129.721942
 31
0.0
  0
LINE
  5
359
330
1F
100
AcDbEntity
  8
002
 62
     3
370
    30
100
AcDbLine
 10
988.694529
 20
128.711199
 30
0.0
 11
969.902225
 21
129.721843
 31
0.0
  0
LINE
  5
35A
330
1F
100
AcDbEntity
  8
002
 62
     3
370
    50
100
AcDbLine
 10
1012.551337
 20
91.716542
 30
0.0
 11
998.551337
 21
91.716542
 31
0.0
  0
LINE
  5
35B
330
1F
100
AcDbEntity
  8
002
 62
     3
370
    30
100
AcDbLine
 10
1043.051337
 20
271.422337
 30
0.0
 11
1043.051337
 21
269.122337
 31
0.0
  0
LINE
  5
35C
330
1F
100
AcDbEntity
  8
002
 62
     3
370
    30
100
AcDbLine
 10
1043.051337
 20
269.122337
 30
0.0
 11
968.051337
 21
269.122337
 31
0.0
  0
LINE
  5
35D
330
1F
100
AcDbEntity
  8
002
 62
     3
370
    30
100
AcDbLine
 10
968.051337
 20
269.122337
 30
0.0
 11
968.051337
 21
271.422337
 31
0.0
  0
LINE
  5
35E
330
1F
100
AcDbEntity
  8
002
 62
     3
370
    30
100
AcDbLine
 10
971.301337
 20
269.122337
 30
0.0
 11
971.301337
 21
264.122337
 31
0.0
  0
LINE
  5
35F
330
1F
100
AcDbEntity
  8
002
 62
     3
370
    30
100
AcDbLine
 10
971.301337
 20
264.122337
 30
0.0
 11
979.801337
 21
264.122337
 31
0.0
  0
LINE
  5
360
330
1F
100
AcDbEntity
  8
002
 62
     3
370
    30
100
AcDbLine
 10
979.051337
 20
264.122337
 30
0.0
 11
979.051337
 21
254.122337
 31
0.0
  0
LINE
  5
361
330
1F
100
AcDbEntity
  8
002
 62
     3
370
    30
100
AcDbLine
 10
979.051337
 20
254.122337
 30
0.0
 11
1040.051337
 21
254.122337
 31
0.0
  0
LINE
  5
362
330
1F
100
AcDbEntity
  8
002
 62
     3
370
    30
100
AcDbLine
 10
1041.197537
 20
250.117037
 30
0.0
 11
1032.905137
 21
251.127737
 31
0.0
  0
ARC
  5
363
330
1F
100
AcDbEntity
  8
002
 62
     3
370
    30
100
AcDbCircle
 10
1033.051337
 20
253.122337
 30
0.0
 40
2.0
100
AcDbArc
 50
180.0
 51
265.807836
  0
LINE
  5
364
330
1F
100
AcDbEntity
  8
002
 62
     3
370
    30
100
AcDbLine
 10
1031.051337
 20
253.122337
 30
0.0
 11
1031.051337
 21
254.122337
 31
0.0
  0
LINE
  5
365
330
1F
100
AcDbEntity
  8
002
 62
     3
370
    30
100
AcDbLine
 10
1032.051337
 20
254.122337
 30
0.0
 11
1032.051337
 21
264.122337
 31
0.0
  0
LINE
  5
366
330
1F
100
AcDbEntity
  8
002
 62
     3
370
    30
100
AcDbLine
 10
1031.301337
 20
264.122337
 30
0.0
 11
1039.801337
 21
264.122337
 31
0.0
  0
LINE
  5
367
330
1F
100
AcDbEntity
  8
002
 62
     3
370
    30
100
AcDbLine
 10
1031.301337
 20
264.122337
 30
0.0
 11
1031.301337
 21
269.122337
 31
0.0
  0
LINE
  5
368
330
1F
100
AcDbEntity
  8
002
 62
     3
370
    30
100
AcDbLine
 10
1009.801337
 20
269.122337
 30
0.0
 11
1009.801337
 21
264.122337
 31
0.0
  0
LINE
  5
369
330
1F
100
AcDbEntity
  8
002
 62
     3
370
    30
100
AcDbLine
 10
1001.301337
 20
264.122337
 30
0.0
 11
1009.801337
 21
264.122337
 31
0.0
  0
LINE
  5
36A
330
1F
100
AcDbEntity
  8
002
 62
     3
370
    30
100
AcDbLine
 10
1009.801337
 20
267.122337
 30
0.0
 11
1031.301337
 21
267.122337
 31
0.0
  0
LINE
  5
36B
330
1F
100
AcDbEntity
  8
002
 62
     3
370
    30
100
AcDbLine
 10
1039.801337
 20
269.122337
 30
0.0
 11
1039.801337
 21
264.122337
 31
0.0
  0
LINE
  5
36C
330
1F
100
AcDbEntity
  8
002
 62
     3
370
    30
100
AcDbLine
 10
1039.801337
 20
267.122337
 30
0.0
 11
1040.051337
 21
267.122337
 31
0.0
  0
ARC
  5
36D
330
1F
100
AcDbEntity
  8
002
 62
     3
370
    30
100
AcDbCircle
 10
1040.051337
 20
264.122337
 30
0.0
 40
3.0
100
AcDbArc
 50
0.0
 51
90.0
  0
LINE
  5
36E
330
1F
100
AcDbEntity
  8
002
 62
     3
370
    30
100
AcDbLine
 10
1043.051337
 20
264.122337
 30
0.0
 11
1043.051337
 21
257.122337
 31
0.0
  0
ARC
  5
36F
330
1F
100
AcDbEntity
  8
002
 62
     3
370
    30
100
AcDbCircle
 10
1040.051337
 20
257.122337
 30
0.0
 40
3.0
100
AcDbArc
 50
270.0
 51
0.0
  0
ARC
  5
370
330
1F
100
AcDbEntity
  8
002
 62
     3
370
    30
100
AcDbCircle
 10
1041.051337
 20
248.122337
 30
0.0
 40
1.999950899397276
100
AcDbArc
 50
274.192164
 51
85.808046
  0
LINE
  5
371
330
1F
100
AcDbEntity
  8
002
 62
     3
370
    30
100
AcDbLine
 10
1041.197537
 20
246.127737
 30
0.0
 11
1027.405137
 21
245.117037
 31
0.0
  0
ARC
  5
372
330
1F
100
AcDbEntity
  8
002
 62
     3
370
    30
100
AcDbCircle
 10
1027.551337
 20
243.122337
 30
0.0
 40
2.000050631859067
100
AcDbArc
 50
94.191954
 51
265.807836
  0
LINE
  5
373
330
1F
100
AcDbEntity
  8
002
 62
     3
370
    30
100
AcDbLine
 10
1027.405137
 20
241.127737
 30
0.0
 11
1041.197537
 21
240.117037
 31
0.0
  0
ARC
  5
374
330
1F
100
AcDbEntity
  8
002
 62
     3
370
    30
100
AcDbCircle
 10
1041.051337
 20
238.122337
 30
0.0
 40
1.999950899397276
100
AcDbArc
 50
274.192164
 51
85.808046
  0
LINE
  5
375
330
1F
100
AcDbEntity
  8
002
 62
     3
370
    30
100
AcDbLine
 10
1041.197537
 20
236.127737
 30
0.0
 11
1027.405137
 21
235.117037
 31
0.0
  0
ARC
  5
376
330
1F
100
AcDbEntity
  8
002
 62
     3
370
    30
100
AcDbCircle
 10
1027.551337
 20
233.122337
 30
0.0
 40
2.000050631859067
100
AcDbArc
 50
94.191954
 51
180.0
  0
LINE
  5
377
330
1F
100
AcDbEntity
  8
002
 62
     3
370
    30
100
AcDbLine
 10
1023.551337
 20
233.122337
 30
0.0
 11
987.551337
 21
233.122337
 31
0.0
  0
ARC
  5
378
330
1F
100
AcDbEntity
  8
002
 62
     3
370
    30
100
AcDbCircle
 10
983.551337
 20
233.122337
 30
0.0
 40
2.0
100
AcDbArc
 50
0.0
 51
85.808046
  0
LINE
  5
379
330
1F
100
AcDbEntity
  8
002
 62
     3
370
    30
100
AcDbLine
 10
983.697537
 20
235.117037
 30
0.0
 11
969.905137
 21
236.127737
 31
0.0
  0
ARC
  5
37A
330
1F
100
AcDbEntity
  8
002
 62
     3
370
    30
100
AcDbCircle
 10
970.051337
 20
238.122337
 30
0.0
 40
2.000050631859069
100
AcDbArc
 50
94.191954
 51
265.807836
  0
LINE
  5
37B
330
1F
100
AcDbEntity
  8
002
 62
     3
370
    30
100
AcDbLine
 10
969.905137
 20
240.117037
 30
0.0
 11
983.697537
 21
241.127737
 31
0.0
  0
ARC
  5
37C
330
1F
100
AcDbEntity
  8
002
 62
     3
370
    30
100
AcDbCircle
 10
983.551337
 20
243.122337
 30
0.0
 40
1.999950899397273
100
AcDbArc
 50
274.192164
 51
85.808046
  0
LINE
  5
37D
330
1F
100
AcDbEntity
  8
002
 62
     3
370
    30
100
AcDbLine
 10
983.697537
 20
245.117037
 30
0.0
 11
969.905137
 21
246.127737
 31
0.0
  0
ARC
  5
37E
330
1F
100
AcDbEntity
  8
002
 62
     3
370
    30
100
AcDbCircle
 10
970.051337
 20
248.122337
 30
0.0
 40
2.000050631859069
100
AcDbArc
 50
94.191954
 51
265.807836
  0
LINE
  5
37F
330
1F
100
AcDbEntity
  8
002
 62
     3
370
    30
100
AcDbLine
 10
969.905137
 20
250.117037
 30
0.0
 11
978.197537
 21
251.127737
 31
0.0
  0
ARC
  5
380
330
1F
100
AcDbEntity
  8
002
 62
     3
370
    30
100
AcDbCircle
 10
978.051337
 20
253.122337
 30
0.0
 40
1.999950899397273
100
AcDbArc
 50
274.192164
 51
0.0
  0
LINE
  5
381
330
1F
100
AcDbEntity
  8
002
 62
     3
370
    30
100
AcDbLine
 10
980.051337
 20
253.122337
 30
0.0
 11
980.051337
 21
254.122337
 31
0.0
  0
LINE
  5
382
330
1F
100
AcDbEntity
  8
002
 62
     3
370
    30
100
AcDbLine
 10
1023.551337
 20
243.122337
 30
0.0
 11
987.551337
 21
243.122337
 31
0.0
  0
LINE
  5
383
330
1F
100
AcDbEntity
  8
002
 62
     3
370
    30
100
AcDbLine
 10
970.051337
 20
248.122337
 30
0.0
 11
1041.051337
 21
248.122337
 31
0.0
  0
LINE
  5
384
330
1F
100
AcDbEntity
  8
002
 62
     3
370
    30
100
AcDbLine
 10
1041.051337
 20
238.122337
 30
0.0
 11
970.051337
 21
238.122337
 31
0.0
  0
LINE
  5
385
330
1F
100
AcDbEntity
  8
002
 62
     3
370
    30
100
AcDbLine
 10
979.801337
 20
264.122337
 30
0.0
 11
979.801337
 21
269.122337
 31
0.0
  0
LINE
  5
386
330
1F
100
AcDbEntity
  8
002
 62
     3
370
    30
100
AcDbLine
 10
1001.301337
 20
269.122337
 30
0.0
 11
1001.301337
 21
264.122337
 31
0.0
  0
LINE
  5
387
330
1F
100
AcDbEntity
  8
002
 62
     3
370
    30
100
AcDbLine
 10
1001.301337
 20
267.122337
 30
0.0
 11
979.801337
 21
267.122337
 31
0.0
  0
CIRCLE
  5
388
330
1F
100
AcDbEntity
  8
002
 62
     3
370
    30
100
AcDbCircle
 10
1037.551337
 20
260.622337
 30
0.0
 40
1.0
  0
LINE
  5
389
330
1F
100
AcDbEntity
  8
002
  6
CENTER
 62
    40
370
     9
100
AcDbLine
 10
1035.551337
 20
282.666637
 30
0.0
 11
1035.551337
 21
262.694737
 31
0.0
  0
LINE
  5
38A
330
1F
100
AcDbEntity
  8
002
  6
CENTER
 62
    40
370
     9
100
AcDbLine
 10
1037.551337
 20
262.722537
 30
0.0
 11
1037.551337
 21
258.751437
 31
0.0
  0
LINE
  5
38B
330
1F
100
AcDbEntity
  8
002
  6
CENTER
 62
    40
370
     9
100
AcDbLine
 10
1035.295537
 20
260.622337
 30
0.0
 11
1039.896237
 21
260.622337
 31
0.0
  0
LINE
  5
38C
330
1F
100
AcDbEntity
  8
002
  6
CENTER
 62
    40
370
     9
100
AcDbLine
 10
975.551337
 20
262.694737
 30
0.0
 11
975.551337
 21
282.666637
 31
0.0
  0
LINE
  5
38D
330
1F
100
AcDbEntity
  8
002
  6
PHANTOM
 62
    40
370
     9
100
AcDbLine
 10
985.551337
 20
146.716542
 30
0.0
 11
985.551337
 21
233.122337
 31
0.0
  0
LINE
  5
38E
330
1F
100
AcDbEntity
  8
002
  6
PHANTOM
 62
    40
370
     9
100
AcDbLine
 10
968.051337
 20
238.122337
 30
0.0
 11
968.051337
 21
141.716542
 31
0.0
  0
LINE
  5
38F
330
1F
100
AcDbEntity
  8
002
  6
PHANTOM
 62
    40
370
     9
100
AcDbLine
 10
1025.551337
 20
146.716542
 30
0.0
 11
1025.551337
 21
233.122337
 31
0.0
  0
LINE
  5
390
330
1F
100
AcDbEntity
  8
002
  6
PHANTOM
 62
    40
370
     9
100
AcDbLine
 10
1043.051337
 20
238.122337
 30
0.0
 11
1043.051337
 21
141.716542
 31
0.0
  0
POLYLINE
  5
391
330
1F
100
AcDbEntity
  8
002
 62
     3
370
     9
100
AcDb2dPolyline
 66
     1
 10
0.0
 20
0.0
 30
0.0
  0
VERTEX
  5
393
330
391
100
AcDbEntity
  8
002
 62
     3
370
     9
100
AcDbVertex
100
AcDb2dVertex
 10
143.950993
 20
187.922337
 30
0.0
  0
VERTEX
  5
394
330
391
100
AcDbEntity
  8
002
 62
     3
370
     9
100
AcDbVertex
100
AcDb2dVertex
 10
146.350993
 20
186.146337
 30
0.0
  0
VERTEX
  5
395
330
391
100
AcDbEntity
  8
002
 62
     3
370
     9
100
AcDbVertex
100
AcDb2dVertex
 10
148.750993
 20
184.514337
 30
0.0
  0
VERTEX
  5
396
330
391
100
AcDbEntity
  8
002
 62
     3
370
     9
100
AcDbVertex
100
AcDb2dVertex
 10
151.150993
 20
183.170337
 30
0.0
  0
VERTEX
  5
397
330
391
100
AcDbEntity
  8
002
 62
     3
370
     9
100
AcDbVertex
100
AcDb2dVertex
 10
153.550993
 20
182.258337
 30
0.0
  0
VERTEX
  5
398
330
391
100
AcDbEntity
  8
002
 62
     3
370
     9
100
AcDbVertex
100
AcDb2dVertex
 10
155.950993
 20
181.922337
 30
0.0
  0
VERTEX
  5
399
330
391
100
AcDbEntity
  8
002
 62
     3
370
     9
100
AcDbVertex
100
AcDb2dVertex
 10
158.350993
 20
182.258337
 30
0.0
  0
VERTEX
  5
39A
330
391
100
AcDbEntity
  8
002
 62
     3
370
     9
100
AcDbVertex
100
AcDb2dVertex
 10
160.750993
 20
183.170337
 30
0.0
  0
VERTEX
  5
39B
330
391
100
AcDbEntity
  8
002
 62
     3
370
     9
100
AcDbVertex
100
AcDb2dVertex
 10
163.150993
 20
184.514337
 30
0.0
  0
VERTEX
  5
39C
330
391
100
AcDbEntity
  8
002
 62
     3
370
     9
100
AcDbVertex
100
AcDb2dVertex
 10
165.550993
 20
186.146337
 30
0.0
  0
VERTEX
  5
39D
330
391
100
AcDbEntity
  8
002
 62
     3
370
     9
100
AcDbVertex
100
AcDb2dVertex
 10
167.950993
 20
187.922337
 30
0.0
  0
VERTEX
  5
39E
330
391
100
AcDbEntity
  8
002
 62
     3
370
     9
100
AcDbVertex
100
AcDb2dVertex
 10
170.350993
 20
189.698337
 30
0.0
  0
VERTEX
  5
39F
330
391
100
AcDbEntity
  8
002
 62
     3
370
     9
100
AcDbVertex
100
AcDb2dVertex
 10
172.750993
 20
191.330337
 30
0.0
  0
VERTEX
  5
3A0
330
391
100
AcDbEntity
  8
002
 62
     3
370
     9
100
AcDbVertex
100
AcDb2dVertex
 10
175.150993
 20
192.674337
 30
0.0
  0
VERTEX
  5
3A1
330
391
100
AcDbEntity
  8
002
 62
     3
370
     9
100
AcDbVertex
100
AcDb2dVertex
 10
177.550993
 20
193.586337
 30
0.0
  0
VERTEX
  5
3A2
330
391
100
AcDbEntity
  8
002
 62
     3
370
     9
100
AcDbVertex
100
AcDb2dVertex
 10
179.950993
 20
193.922337
 30
0.0
  0
VERTEX
  5
3A3
330
391
100
AcDbEntity
  8
002
 62
     3
370
     9
100
AcDbVertex
100
AcDb2dVertex
 10
182.350993
 20
193.586337
 30
0.0
  0
VERTEX
  5
3A4
330
391
100
AcDbEntity
  8
002
 62
     3
370
     9
100
AcDbVertex
100
AcDb2dVertex
 10
184.750993
 20
192.674337
 30
0.0
  0
VERTEX
  5
3A5
330
391
100
AcDbEntity
  8
002
 62
     3
370
     9
100
AcDbVertex
100
AcDb2dVertex
 10
187.150993
 20
191.330337
 30
0.0
  0
VERTEX
  5
3A6
330
391
100
AcDbEntity
  8
002
 62
     3
370
     9
100
AcDbVertex
100
AcDb2dVertex
 10
189.550993
 20
189.698337
 30
0.0
  0
VERTEX
  5
3A7
330
391
100
AcDbEntity
  8
002
 62
     3
370
     9
100
AcDbVertex
100
AcDb2dVertex
 10
191.950993
 20
187.922337
 30
0.0
  0
SEQEND
  5
392
330
391
100
AcDbEntity
  8
002
370
     9
  0
POLYLINE
  5
3A8
330
1F
100
AcDbEntity
  8
002
 62
     3
370
     9
100
AcDb2dPolyline
 66
     1
 10
0.0
 20
0.0
 30
0.0
  0
VERTEX
  5
3AA
330
3A8
100
AcDbEntity
  8
002
 62
     3
370
     9
100
AcDbVertex
100
AcDb2dVertex
 10
143.950993
 20
199.922337
 30
0.0
  0
VERTEX
  5
3AB
330
3A8
100
AcDbEntity
  8
002
 62
     3
370
     9
100
AcDbVertex
100
AcDb2dVertex
 10
146.350993
 20
198.146337
 30
0.0
  0
VERTEX
  5
3AC
330
3A8
100
AcDbEntity
  8
002
 62
     3
370
     9
100
AcDbVertex
100
AcDb2dVertex
 10
148.750993
 20
196.514337
 30
0.0
  0
VERTEX
  5
3AD
330
3A8
100
AcDbEntity
  8
002
 62
     3
370
     9
100
AcDbVertex
100
AcDb2dVertex
 10
151.150993
 20
195.170337
 30
0.0
  0
VERTEX
  5
3AE
330
3A8
100
AcDbEntity
  8
002
 62
     3
370
     9
100
AcDbVertex
100
AcDb2dVertex
 10
153.550993
 20
194.258337
 30
0.0
  0
VERTEX
  5
3AF
330
3A8
100
AcDbEntity
  8
002
 62
     3
370
     9
100
AcDbVertex
100
AcDb2dVertex
 10
155.950993
 20
193.922337
 30
0.0
  0
VERTEX
  5
3B0
330
3A8
100
AcDbEntity
  8
002
 62
     3
370
     9
100
AcDbVertex
100
AcDb2dVertex
 10
158.350993
 20
194.258337
 30
0.0
  0
VERTEX
  5
3B1
330
3A8
100
AcDbEntity
  8
002
 62
     3
370
     9
100
AcDbVertex
100
AcDb2dVertex
 10
160.750993
 20
195.170337
 30
0.0
  0
VERTEX
  5
3B2
330
3A8
100
AcDbEntity
  8
002
 62
     3
370
     9
100
AcDbVertex
100
AcDb2dVertex
 10
163.150993
 20
196.514337
 30
0.0
  0
VERTEX
  5
3B3
330
3A8
100
AcDbEntity
  8
002
 62
     3
370
     9
100
AcDbVertex
100
AcDb2dVertex
 10
165.550993
 20
198.146337
 30
0.0
  0
VERTEX
  5
3B4
330
3A8
100
AcDbEntity
  8
002
 62
     3
370
     9
100
AcDbVertex
100
AcDb2dVertex
 10
167.950993
 20
199.922337
 30
0.0
  0
VERTEX
  5
3B5
330
3A8
100
AcDbEntity
  8
002
 62
     3
370
     9
100
AcDbVertex
100
AcDb2dVertex
 10
170.350993
 20
201.698337
 30
0.0
  0
VERTEX
  5
3B6
330
3A8
100
AcDbEntity
  8
002
 62
     3
370
     9
100
AcDbVertex
100
AcDb2dVertex
 10
172.750993
 20
203.330337
 30
0.0
  0
VERTEX
  5
3B7
330
3A8
100
AcDbEntity
  8
002
 62
     3
370
     9
100
AcDbVertex
100
AcDb2dVertex
 10
175.150993
 20
204.674337
 30
0.0
  0
VERTEX
  5
3B8
330
3A8
100
AcDbEntity
  8
002
 62
     3
370
     9
100
AcDbVertex
100
AcDb2dVertex
 10
177.550993
 20
205.586337
 30
0.0
  0
VERTEX
  5
3B9
330
3A8
100
AcDbEntity
  8
002
 62
     3
370
     9
100
AcDbVertex
100
AcDb2dVertex
 10
179.950993
 20
205.922337
 30
0.0
  0
VERTEX
  5
3BA
330
3A8
100
AcDbEntity
  8
002
 62
     3
370
     9
100
AcDbVertex
100
AcDb2dVertex
 10
182.350993
 20
205.586337
 30
0.0
  0
VERTEX
  5
3BB
330
3A8
100
AcDbEntity
  8
002
 62
     3
370
     9
100
AcDbVertex
100
AcDb2dVertex
 10
184.750993
 20
204.674337
 30
0.0
  0
VERTEX
  5
3BC
330
3A8
100
AcDbEntity
  8
002
 62
     3
370
     9
100
AcDbVertex
100
AcDb2dVertex
 10
187.150993
 20
203.330337
 30
0.0
  0
VERTEX
  5
3BD
330
3A8
100
AcDbEntity
  8
002
 62
     3
370
     9
100
AcDbVertex
100
AcDb2dVertex
 10
189.550993
 20
201.698337
 30
0.0
  0
VERTEX
  5
3BE
330
3A8
100
AcDbEntity
  8
002
 62
     3
370
     9
100
AcDbVertex
100
AcDb2dVertex
 10
191.950993
 20
199.922337
 30
0.0
  0
SEQEND
  5
3A9
330
3A8
100
AcDbEntity
  8
002
370
     9
  0
LINE
  5
3BF
330
1F
100
AcDbEntity
  8
002
 62
     3
370
    30
100
AcDbLine
 10
191.950993
 20
251.422337
 30
0.0
 11
191.950993
 21
199.922337
 31
0.0
  0
LINE
  5
3C0
330
1F
100
AcDbEntity
  8
002
 62
     3
370
    30
100
AcDbLine
 10
191.950993
 20
187.922337
 30
0.0
 11
191.950993
 21
136.422337
 31
0.0
  0
LINE
  5
3C1
330
1F
100
AcDbEntity
  8
002
 62
     3
370
    30
100
AcDbLine
 10
143.950993
 20
251.422337
 30
0.0
 11
143.950993
 21
199.922337
 31
0.0
  0
LINE
  5
3C2
330
1F
100
AcDbEntity
  8
002
 62
     3
370
    30
100
AcDbLine
 10
143.950993
 20
187.922337
 30
0.0
 11
143.950993
 21
136.422337
 31
0.0
  0
POLYLINE
  5
3C3
330
1F
100
AcDbEntity
  8
002
 62
     3
370
     9
100
AcDb2dPolyline
 66
     1
 10
0.0
 20
0.0
 30
0.0
  0
VERTEX
  5
3C5
330
3C3
100
AcDbEntity
  8
002
 62
     3
370
     9
100
AcDbVertex
100
AcDb2dVertex
 10
152.950993
 20
475.275234
 30
0.0
  0
VERTEX
  5
3C6
330
3C3
100
AcDbEntity
  8
002
 62
     3
370
     9
100
AcDbVertex
100
AcDb2dVertex
 10
154.825993
 20
473.072109
 30
0.0
  0
VERTEX
  5
3C7
330
3C3
100
AcDbEntity
  8
002
 62
     3
370
     9
100
AcDbVertex
100
AcDb2dVertex
 10
156.700993
 20
471.150234
 30
0.0
  0
VERTEX
  5
3C8
330
3C3
100
AcDbEntity
  8
002
 62
     3
370
     9
100
AcDbVertex
100
AcDb2dVertex
 10
158.575993
 20
469.790859
 30
0.0
  0
VERTEX
  5
3C9
330
3C3
100
AcDbEntity
  8
002
 62
     3
370
     9
100
AcDbVertex
100
AcDb2dVertex
 10
160.450993
 20
469.275234
 30
0.0
  0
VERTEX
  5
3CA
330
3C3
100
AcDbEntity
  8
002
 62
     3
370
     9
100
AcDbVertex
100
AcDb2dVertex
 10
162.325993
 20
469.790859
 30
0.0
  0
VERTEX
  5
3CB
330
3C3
100
AcDbEntity
  8
002
 62
     3
370
     9
100
AcDbVertex
100
AcDb2dVertex
 10
164.200993
 20
471.150234
 30
0.0
  0
VERTEX
  5
3CC
330
3C3
100
AcDbEntity
  8
002
 62
     3
370
     9
100
AcDbVertex
100
AcDb2dVertex
 10
166.075993
 20
473.072109
 30
0.0
  0
VERTEX
  5
3CD
330
3C3
100
AcDbEntity
  8
002
 62
     3
370
     9
100
AcDbVertex
100
AcDb2dVertex
 10
167.950993
 20
475.275234
 30
0.0
  0
VERTEX
  5
3CE
330
3C3
100
AcDbEntity
  8
002
 62
     3
370
     9
100
AcDbVertex
100
AcDb2dVertex
 10
169.825993
 20
477.478359
 30
0.0
  0
VERTEX
  5
3CF
330
3C3
100
AcDbEntity
  8
002
 62
     3
370
     9
100
AcDbVertex
100
AcDb2dVertex
 10
171.700993
 20
479.400234
 30
0.0
  0
VERTEX
  5
3D0
330
3C3
100
AcDbEntity
  8
002
 62
     3
370
     9
100
AcDbVertex
100
AcDb2dVertex
 10
173.575993
 20
480.759609
 30
0.0
  0
VERTEX
  5
3D1
330
3C3
100
AcDbEntity
  8
002
 62
     3
370
     9
100
AcDbVertex
100
AcDb2dVertex
 10
175.450993
 20
481.275234
 30
0.0
  0
VERTEX
  5
3D2
330
3C3
100
AcDbEntity
  8
002
 62
     3
370
     9
100
AcDbVertex
100
AcDb2dVertex
 10
177.325993
 20
480.759609
 30
0.0
  0
VERTEX
  5
3D3
330
3C3
100
AcDbEntity
  8
002
 62
     3
370
     9
100
AcDbVertex
100
AcDb2dVertex
 10
179.200993
 20
479.400234
 30
0.0
  0
VERTEX
  5
3D4
330
3C3
100
AcDbEntity
  8
002
 62
     3
370
     9
100
AcDbVertex
100
AcDb2dVertex
 10
181.075993
 20
477.478359
 30
0.0
  0
VERTEX
  5
3D5
330
3C3
100
AcDbEntity
  8
002
 62
     3
370
     9
100
AcDbVertex
100
AcDb2dVertex
 10
182.950993
 20
475.275234
 30
0.0
  0
SEQEND
  5
3C4
330
3C3
100
AcDbEntity
  8
002
370
     9
  0
POLYLINE
  5
3D6
330
1F
100
AcDbEntity
  8
002
 62
     3
370
     9
100
AcDb2dPolyline
 66
     1
 10
0.0
 20
0.0
 30
0.0
  0
VERTEX
  5
3D8
330
3D6
100
AcDbEntity
  8
002
 62
     3
370
     9
100
AcDbVertex
100
AcDb2dVertex
 10
152.950993
 20
487.275234
 30
0.0
  0
VERTEX
  5
3D9
330
3D6
100
AcDbEntity
  8
002
 62
     3
370
     9
100
AcDbVertex
100
AcDb2dVertex
 10
154.825993
 20
485.072109
 30
0.0
  0
VERTEX
  5
3DA
330
3D6
100
AcDbEntity
  8
002
 62
     3
370
     9
100
AcDbVertex
100
AcDb2dVertex
 10
156.700993
 20
483.150234
 30
0.0
  0
VERTEX
  5
3DB
330
3D6
100
AcDbEntity
  8
002
 62
     3
370
     9
100
AcDbVertex
100
AcDb2dVertex
 10
158.575993
 20
481.790859
 30
0.0
  0
VERTEX
  5
3DC
330
3D6
100
AcDbEntity
  8
002
 62
     3
370
     9
100
AcDbVertex
100
AcDb2dVertex
 10
160.450993
 20
481.275234
 30
0.0
  0
VERTEX
  5
3DD
330
3D6
100
AcDbEntity
  8
002
 62
     3
370
     9
100
AcDbVertex
100
AcDb2dVertex
 10
162.325993
 20
481.790859
 30
0.0
  0
VERTEX
  5
3DE
330
3D6
100
AcDbEntity
  8
002
 62
     3
370
     9
100
AcDbVertex
100
AcDb2dVertex
 10
164.200993
 20
483.150234
 30
0.0
  0
VERTEX
  5
3DF
330
3D6
100
AcDbEntity
  8
002
 62
     3
370
     9
100
AcDbVertex
100
AcDb2dVertex
 10
166.075993
 20
485.072109
 30
0.0
  0
VERTEX
  5
3E0
330
3D6
100
AcDbEntity
  8
002
 62
     3
370
     9
100
AcDbVertex
100
AcDb2dVertex
 10
167.950993
 20
487.275234
 30
0.0
  0
VERTEX
  5
3E1
330
3D6
100
AcDbEntity
  8
002
 62
     3
370
     9
100
AcDbVertex
100
AcDb2dVertex
 10
169.825993
 20
489.478359
 30
0.0
  0
VERTEX
  5
3E2
330
3D6
100
AcDbEntity
  8
002
 62
     3
370
     9
100
AcDbVertex
100
AcDb2dVertex
 10
171.700993
 20
491.400234
 30
0.0
  0
VERTEX
  5
3E3
330
3D6
100
AcDbEntity
  8
002
 62
     3
370
     9
100
AcDbVertex
100
AcDb2dVertex
 10
173.575993
 20
492.759609
 30
0.0
  0
VERTEX
  5
3E4
330
3D6
100
AcDbEntity
  8
002
 62
     3
370
     9
100
AcDbVertex
100
AcDb2dVertex
 10
175.450993
 20
493.275234
 30
0.0
  0
VERTEX
  5
3E5
330
3D6
100
AcDbEntity
  8
002
 62
     3
370
     9
100
AcDbVertex
100
AcDb2dVertex
 10
177.325993
 20
492.759609
 30
0.0
  0
VERTEX
  5
3E6
330
3D6
100
AcDbEntity
  8
002
 62
     3
370
     9
100
AcDbVertex
100
AcDb2dVertex
 10
179.200993
 20
491.400234
 30
0.0
  0
VERTEX
  5
3E7
330
3D6
100
AcDbEntity
  8
002
 62
     3
370
     9
100
AcDbVertex
100
AcDb2dVertex
 10
181.075993
 20
489.478359
 30
0.0
  0
VERTEX
  5
3E8
330
3D6
100
AcDbEntity
  8
002
 62
     3
370
     9
100
AcDbVertex
100
AcDb2dVertex
 10
182.950993
 20
487.275234
 30
0.0
  0
SEQEND
  5
3D7
330
3D6
100
AcDbEntity
  8
002
370
     9
  0
LINE
  5
3E9
330
1F
100
AcDbEntity
  8
002
  6
CENTER
 62
    40
370
     9
100
AcDbLine
 10
179.950993
 20
563.144366
 30
0.0
 11
179.950993
 21
490.683234
 31
0.0
  0
LINE
  5
3EA
330
1F
100
AcDbEntity
  8
002
  6
CENTER
 62
    40
370
     9
100
AcDbLine
 10
179.950993
 20
478.683234
 30
0.0
 11
179.950993
 21
401.422337
 31
0.0
  0
LINE
  5
3EB
330
1F
100
AcDbEntity
  8
002
 62
    40
370
     9
100
AcDbLine
 10
176.950993
 20
561.128131
 30
0.0
 11
176.950993
 21
492.939234
 31
0.0
  0
LINE
  5
3EC
330
1F
100
AcDbEntity
  8
002
 62
    40
370
     9
100
AcDbLine
 10
176.950993
 20
480.939234
 30
0.0
 11
176.950993
 21
401.422337
 31
0.0
  0
LINE
  5
3ED
330
1F
100
AcDbEntity
  8
002
 62
     3
370
    30
100
AcDbLine
 10
182.950993
 20
561.128131
 30
0.0
 11
182.950993
 21
487.275234
 31
0.0
  0
LINE
  5
3EE
330
1F
100
AcDbEntity
  8
002
 62
     3
370
    30
100
AcDbLine
 10
182.950993
 20
475.275234
 30
0.0
 11
182.950993
 21
401.422337
 31
0.0
  0
LINE
  5
3EF
330
1F
100
AcDbEntity
  8
002
 62
     3
370
    30
100
AcDbLine
 10
152.950993
 20
561.128131
 30
0.0
 11
152.950993
 21
487.275234
 31
0.0
  0
LINE
  5
3F0
330
1F
100
AcDbEntity
  8
002
 62
     3
370
    30
100
AcDbLine
 10
152.950993
 20
475.275234
 30
0.0
 11
152.950993
 21
401.422337
 31
0.0
  0
POLYLINE
  5
3F1
330
1F
100
AcDbEntity
  8
002
 62
     3
370
     9
100
AcDb2dPolyline
 66
     1
 10
0.0
 20
0.0
 30
0.0
  0
VERTEX
  5
3F3
330
3F1
100
AcDbEntity
  8
002
 62
     3
370
     9
100
AcDbVertex
100
AcDb2dVertex
 10
497.182307
 20
187.922337
 30
0.0
  0
VERTEX
  5
3F4
330
3F1
100
AcDbEntity
  8
002
 62
     3
370
     9
100
AcDbVertex
100
AcDb2dVertex
 10
499.582307
 20
186.146337
 30
0.0
  0
VERTEX
  5
3F5
330
3F1
100
AcDbEntity
  8
002
 62
     3
370
     9
100
AcDbVertex
100
AcDb2dVertex
 10
501.982307
 20
184.514337
 30
0.0
  0
VERTEX
  5
3F6
330
3F1
100
AcDbEntity
  8
002
 62
     3
370
     9
100
AcDbVertex
100
AcDb2dVertex
 10
504.382307
 20
183.170337
 30
0.0
  0
VERTEX
  5
3F7
330
3F1
100
AcDbEntity
  8
002
 62
     3
370
     9
100
AcDbVertex
100
AcDb2dVertex
 10
506.782307
 20
182.258337
 30
0.0
  0
VERTEX
  5
3F8
330
3F1
100
AcDbEntity
  8
002
 62
     3
370
     9
100
AcDbVertex
100
AcDb2dVertex
 10
509.182307
 20
181.922337
 30
0.0
  0
VERTEX
  5
3F9
330
3F1
100
AcDbEntity
  8
002
 62
     3
370
     9
100
AcDbVertex
100
AcDb2dVertex
 10
511.582307
 20
182.258337
 30
0.0
  0
VERTEX
  5
3FA
330
3F1
100
AcDbEntity
  8
002
 62
     3
370
     9
100
AcDbVertex
100
AcDb2dVertex
 10
513.982307
 20
183.170337
 30
0.0
  0
VERTEX
  5
3FB
330
3F1
100
AcDbEntity
  8
002
 62
     3
370
     9
100
AcDbVertex
100
AcDb2dVertex
 10
516.382307
 20
184.514337
 30
0.0
  0
VERTEX
  5
3FC
330
3F1
100
AcDbEntity
  8
002
 62
     3
370
     9
100
AcDbVertex
100
AcDb2dVertex
 10
518.782307
 20
186.146337
 30
0.0
  0
VERTEX
  5
3FD
330
3F1
100
AcDbEntity
  8
002
 62
     3
370
     9
100
AcDbVertex
100
AcDb2dVertex
 10
521.182307
 20
187.922337
 30
0.0
  0
VERTEX
  5
3FE
330
3F1
100
AcDbEntity
  8
002
 62
     3
370
     9
100
AcDbVertex
100
AcDb2dVertex
 10
523.582307
 20
189.698337
 30
0.0
  0
VERTEX
  5
3FF
330
3F1
100
AcDbEntity
  8
002
 62
     3
370
     9
100
AcDbVertex
100
AcDb2dVertex
 10
525.982307
 20
191.330337
 30
0.0
  0
VERTEX
  5
400
330
3F1
100
AcDbEntity
  8
002
 62
     3
370
     9
100
AcDbVertex
100
AcDb2dVertex
 10
528.382307
 20
192.674337
 30
0.0
  0
VERTEX
  5
401
330
3F1
100
AcDbEntity
  8
002
 62
     3
370
     9
100
AcDbVertex
100
AcDb2dVertex
 10
530.782307
 20
193.586337
 30
0.0
  0
VERTEX
  5
402
330
3F1
100
AcDbEntity
  8
002
 62
     3
370
     9
100
AcDbVertex
100
AcDb2dVertex
 10
533.182307
 20
193.922337
 30
0.0
  0
VERTEX
  5
403
330
3F1
100
AcDbEntity
  8
002
 62
     3
370
     9
100
AcDbVertex
100
AcDb2dVertex
 10
535.582307
 20
193.586337
 30
0.0
  0
VERTEX
  5
404
330
3F1
100
AcDbEntity
  8
002
 62
     3
370
     9
100
AcDbVertex
100
AcDb2dVertex
 10
537.982307
 20
192.674337
 30
0.0
  0
VERTEX
  5
405
330
3F1
100
AcDbEntity
  8
002
 62
     3
370
     9
100
AcDbVertex
100
AcDb2dVertex
 10
540.382307
 20
191.330337
 30
0.0
  0
VERTEX
  5
406
330
3F1
100
AcDbEntity
  8
002
 62
     3
370
     9
100
AcDbVertex
100
AcDb2dVertex
 10
542.782307
 20
189.698337
 30
0.0
  0
VERTEX
  5
407
330
3F1
100
AcDbEntity
  8
002
 62
     3
370
     9
100
AcDbVertex
100
AcDb2dVertex
 10
545.182307
 20
187.922337
 30
0.0
  0
SEQEND
  5
3F2
330
3F1
100
AcDbEntity
  8
002
370
     9
  0
POLYLINE
  5
408
330
1F
100
AcDbEntity
  8
002
 62
     3
370
     9
100
AcDb2dPolyline
 66
     1
 10
0.0
 20
0.0
 30
0.0
  0
VERTEX
  5
40A
330
408
100
AcDbEntity
  8
002
 62
     3
370
     9
100
AcDbVertex
100
AcDb2dVertex
 10
497.182307
 20
199.922337
 30
0.0
  0
VERTEX
  5
40B
330
408
100
AcDbEntity
  8
002
 62
     3
370
     9
100
AcDbVertex
100
AcDb2dVertex
 10
499.582307
 20
198.146337
 30
0.0
  0
VERTEX
  5
40C
330
408
100
AcDbEntity
  8
002
 62
     3
370
     9
100
AcDbVertex
100
AcDb2dVertex
 10
501.982307
 20
196.514337
 30
0.0
  0
VERTEX
  5
40D
330
408
100
AcDbEntity
  8
002
 62
     3
370
     9
100
AcDbVertex
100
AcDb2dVertex
 10
504.382307
 20
195.170337
 30
0.0
  0
VERTEX
  5
40E
330
408
100
AcDbEntity
  8
002
 62
     3
370
     9
100
AcDbVertex
100
AcDb2dVertex
 10
506.782307
 20
194.258337
 30
0.0
  0
VERTEX
  5
40F
330
408
100
AcDbEntity
  8
002
 62
     3
370
     9
100
AcDbVertex
100
AcDb2dVertex
 10
509.182307
 20
193.922337
 30
0.0
  0
VERTEX
  5
410
330
408
100
AcDbEntity
  8
002
 62
     3
370
     9
100
AcDbVertex
100
AcDb2dVertex
 10
511.582307
 20
194.258337
 30
0.0
  0
VERTEX
  5
411
330
408
100
AcDbEntity
  8
002
 62
     3
370
     9
100
AcDbVertex
100
AcDb2dVertex
 10
513.982307
 20
195.170337
 30
0.0
  0
VERTEX
  5
412
330
408
100
AcDbEntity
  8
002
 62
     3
370
     9
100
AcDbVertex
100
AcDb2dVertex
 10
516.382307
 20
196.514337
 30
0.0
  0
VERTEX
  5
413
330
408
100
AcDbEntity
  8
002
 62
     3
370
     9
100
AcDbVertex
100
AcDb2dVertex
 10
518.782307
 20
198.146337
 30
0.0
  0
VERTEX
  5
414
330
408
100
AcDbEntity
  8
002
 62
     3
370
     9
100
AcDbVertex
100
AcDb2dVertex
 10
521.182307
 20
199.922337
 30
0.0
  0
VERTEX
  5
415
330
408
100
AcDbEntity
  8
002
 62
     3
370
     9
100
AcDbVertex
100
AcDb2dVertex
 10
523.582307
 20
201.698337
 30
0.0
  0
VERTEX
  5
416
330
408
100
AcDbEntity
  8
002
 62
     3
370
     9
100
AcDbVertex
100
AcDb2dVertex
 10
525.982307
 20
203.330337
 30
0.0
  0
VERTEX
  5
417
330
408
100
AcDbEntity
  8
002
 62
     3
370
     9
100
AcDbVertex
100
AcDb2dVertex
 10
528.382307
 20
204.674337
 30
0.0
  0
VERTEX
  5
418
330
408
100
AcDbEntity
  8
002
 62
     3
370
     9
100
AcDbVertex
100
AcDb2dVertex
 10
530.782307
 20
205.586337
 30
0.0
  0
VERTEX
  5
419
330
408
100
AcDbEntity
  8
002
 62
     3
370
     9
100
AcDbVertex
100
AcDb2dVertex
 10
533.182307
 20
205.922337
 30
0.0
  0
VERTEX
  5
41A
330
408
100
AcDbEntity
  8
002
 62
     3
370
     9
100
AcDbVertex
100
AcDb2dVertex
 10
535.582307
 20
205.586337
 30
0.0
  0
VERTEX
  5
41B
330
408
100
AcDbEntity
  8
002
 62
     3
370
     9
100
AcDbVertex
100
AcDb2dVertex
 10
537.982307
 20
204.674337
 30
0.0
  0
VERTEX
  5
41C
330
408
100
AcDbEntity
  8
002
 62
     3
370
     9
100
AcDbVertex
100
AcDb2dVertex
 10
540.382307
 20
203.330337
 30
0.0
  0
VERTEX
  5
41D
330
408
100
AcDbEntity
  8
002
 62
     3
370
     9
100
AcDbVertex
100
AcDb2dVertex
 10
542.782307
 20
201.698337
 30
0.0
  0
VERTEX
  5
41E
330
408
100
AcDbEntity
  8
002
 62
     3
370
     9
100
AcDbVertex
100
AcDb2dVertex
 10
545.182307
 20
199.922337
 30
0.0
  0
SEQEND
  5
409
330
408
100
AcDbEntity
  8
002
370
     9
  0
LINE
  5
41F
330
1F
100
AcDbEntity
  8
002
 62
     3
370
    30
100
AcDbLine
 10
545.182307
 20
251.422337
 30
0.0
 11
545.182307
 21
199.922337
 31
0.0
  0
LINE
  5
420
330
1F
100
AcDbEntity
  8
002
 62
     3
370
    30
100
AcDbLine
 10
545.182307
 20
187.922337
 30
0.0
 11
545.182307
 21
136.422337
 31
0.0
  0
LINE
  5
421
330
1F
100
AcDbEntity
  8
002
 62
     3
370
    30
100
AcDbLine
 10
497.182307
 20
251.422337
 30
0.0
 11
497.182307
 21
199.922337
 31
0.0
  0
LINE
  5
422
330
1F
100
AcDbEntity
  8
002
 62
     3
370
    30
100
AcDbLine
 10
497.182307
 20
187.922337
 30
0.0
 11
497.182307
 21
136.422337
 31
0.0
  0
POLYLINE
  5
423
330
1F
100
AcDbEntity
  8
002
 62
     3
370
     9
100
AcDb2dPolyline
 66
     1
 10
0.0
 20
0.0
 30
0.0
  0
VERTEX
  5
425
330
423
100
AcDbEntity
  8
002
 62
     3
370
     9
100
AcDbVertex
100
AcDb2dVertex
 10
762.551337
 20
198.06944
 30
0.0
  0
VERTEX
  5
426
330
423
100
AcDbEntity
  8
002
 62
     3
370
     9
100
AcDbVertex
100
AcDb2dVertex
 10
764.426337
 20
195.866315
 30
0.0
  0
VERTEX
  5
427
330
423
100
AcDbEntity
  8
002
 62
     3
370
     9
100
AcDbVertex
100
AcDb2dVertex
 10
766.301337
 20
193.94444
 30
0.0
  0
VERTEX
  5
428
330
423
100
AcDbEntity
  8
002
 62
     3
370
     9
100
AcDbVertex
100
AcDb2dVertex
 10
768.176337
 20
192.585065
 30
0.0
  0
VERTEX
  5
429
330
423
100
AcDbEntity
  8
002
 62
     3
370
     9
100
AcDbVertex
100
AcDb2dVertex
 10
770.051337
 20
192.06944
 30
0.0
  0
VERTEX
  5
42A
330
423
100
AcDbEntity
  8
002
 62
     3
370
     9
100
AcDbVertex
100
AcDb2dVertex
 10
771.926337
 20
192.585065
 30
0.0
  0
VERTEX
  5
42B
330
423
100
AcDbEntity
  8
002
 62
     3
370
     9
100
AcDbVertex
100
AcDb2dVertex
 10
773.801337
 20
193.94444
 30
0.0
  0
VERTEX
  5
42C
330
423
100
AcDbEntity
  8
002
 62
     3
370
     9
100
AcDbVertex
100
AcDb2dVertex
 10
775.676337
 20
195.866315
 30
0.0
  0
VERTEX
  5
42D
330
423
100
AcDbEntity
  8
002
 62
     3
370
     9
100
AcDbVertex
100
AcDb2dVertex
 10
777.551337
 20
198.06944
 30
0.0
  0
VERTEX
  5
42E
330
423
100
AcDbEntity
  8
002
 62
     3
370
     9
100
AcDbVertex
100
AcDb2dVertex
 10
779.426337
 20
200.272565
 30
0.0
  0
VERTEX
  5
42F
330
423
100
AcDbEntity
  8
002
 62
     3
370
     9
100
AcDbVertex
100
AcDb2dVertex
 10
781.301337
 20
202.19444
 30
0.0
  0
VERTEX
  5
430
330
423
100
AcDbEntity
  8
002
 62
     3
370
     9
100
AcDbVertex
100
AcDb2dVertex
 10
783.176337
 20
203.553815
 30
0.0
  0
VERTEX
  5
431
330
423
100
AcDbEntity
  8
002
 62
     3
370
     9
100
AcDbVertex
100
AcDb2dVertex
 10
785.051337
 20
204.06944
 30
0.0
  0
VERTEX
  5
432
330
423
100
AcDbEntity
  8
002
 62
     3
370
     9
100
AcDbVertex
100
AcDb2dVertex
 10
786.926337
 20
203.553815
 30
0.0
  0
VERTEX
  5
433
330
423
100
AcDbEntity
  8
002
 62
     3
370
     9
100
AcDbVertex
100
AcDb2dVertex
 10
788.801337
 20
202.19444
 30
0.0
  0
VERTEX
  5
434
330
423
100
AcDbEntity
  8
002
 62
     3
370
     9
100
AcDbVertex
100
AcDb2dVertex
 10
790.676337
 20
200.272565
 30
0.0
  0
VERTEX
  5
435
330
423
100
AcDbEntity
  8
002
 62
     3
370
     9
100
AcDbVertex
100
AcDb2dVertex
 10
792.551337
 20
198.06944
 30
0.0
  0
SEQEND
  5
424
330
423
100
AcDbEntity
  8
002
370
     9
  0
POLYLINE
  5
436
330
1F
100
AcDbEntity
  8
002
 62
     3
370
     9
100
AcDb2dPolyline
 66
     1
 10
0.0
 20
0.0
 30
0.0
  0
VERTEX
  5
438
330
436
100
AcDbEntity
  8
002
 62
     3
370
     9
100
AcDbVertex
100
AcDb2dVertex
 10
762.551337
 20
210.06944
 30
0.0
  0
VERTEX
  5
439
330
436
100
AcDbEntity
  8
002
 62
     3
370
     9
100
AcDbVertex
100
AcDb2dVertex
 10
764.426337
 20
207.866315
 30
0.0
  0
VERTEX
  5
43A
330
436
100
AcDbEntity
  8
002
 62
     3
370
     9
100
AcDbVertex
100
AcDb2dVertex
 10
766.301337
 20
205.94444
 30
0.0
  0
VERTEX
  5
43B
330
436
100
AcDbEntity
  8
002
 62
     3
370
     9
100
AcDbVertex
100
AcDb2dVertex
 10
768.176337
 20
204.585065
 30
0.0
  0
VERTEX
  5
43C
330
436
100
AcDbEntity
  8
002
 62
     3
370
     9
100
AcDbVertex
100
AcDb2dVertex
 10
770.051337
 20
204.06944
 30
0.0
  0
VERTEX
  5
43D
330
436
100
AcDbEntity
  8
002
 62
     3
370
     9
100
AcDbVertex
100
AcDb2dVertex
 10
771.926337
 20
204.585065
 30
0.0
  0
VERTEX
  5
43E
330
436
100
AcDbEntity
  8
002
 62
     3
370
     9
100
AcDbVertex
100
AcDb2dVertex
 10
773.801337
 20
205.94444
 30
0.0
  0
VERTEX
  5
43F
330
436
100
AcDbEntity
  8
002
 62
     3
370
     9
100
AcDbVertex
100
AcDb2dVertex
 10
775.676337
 20
207.866315
 30
0.0
  0
VERTEX
  5
440
330
436
100
AcDbEntity
  8
002
 62
     3
370
     9
100
AcDbVertex
100
AcDb2dVertex
 10
777.551337
 20
210.06944
 30
0.0
  0
VERTEX
  5
441
330
436
100
AcDbEntity
  8
002
 62
     3
370
     9
100
AcDbVertex
100
AcDb2dVertex
 10
779.426337
 20
212.272565
 30
0.0
  0
VERTEX
  5
442
330
436
100
AcDbEntity
  8
002
 62
     3
370
     9
100
AcDbVertex
100
AcDb2dVertex
 10
781.301337
 20
214.19444
 30
0.0
  0
VERTEX
  5
443
330
436
100
AcDbEntity
  8
002
 62
     3
370
     9
100
AcDbVertex
100
AcDb2dVertex
 10
783.176337
 20
215.553815
 30
0.0
  0
VERTEX
  5
444
330
436
100
AcDbEntity
  8
002
 62
     3
370
     9
100
AcDbVertex
100
AcDb2dVertex
 10
785.051337
 20
216.06944
 30
0.0
  0
VERTEX
  5
445
330
436
100
AcDbEntity
  8
002
 62
     3
370
     9
100
AcDbVertex
100
AcDb2dVertex
 10
786.926337
 20
215.553815
 30
0.0
  0
VERTEX
  5
446
330
436
100
AcDbEntity
  8
002
 62
     3
370
     9
100
AcDbVertex
100
AcDb2dVertex
 10
788.801337
 20
214.19444
 30
0.0
  0
VERTEX
  5
447
330
436
100
AcDbEntity
  8
002
 62
     3
370
     9
100
AcDbVertex
100
AcDb2dVertex
 10
790.676337
 20
212.272565
 30
0.0
  0
VERTEX
  5
448
330
436
100
AcDbEntity
  8
002
 62
     3
370
     9
100
AcDbVertex
100
AcDb2dVertex
 10
792.551337
 20
210.06944
 30
0.0
  0
SEQEND
  5
437
330
436
100
AcDbEntity
  8
002
370
     9
  0
LINE
  5
449
330
1F
100
AcDbEntity
  8
002
  6
CENTER
 62
    40
370
     9
100
AcDbLine
 10
789.551337
 20
134.700307
 30
0.0
 11
789.551337
 21
201.47744
 31
0.0
  0
LINE
  5
44A
330
1F
100
AcDbEntity
  8
002
  6
CENTER
 62
    40
370
     9
100
AcDbLine
 10
789.551337
 20
213.47744
 30
0.0
 11
789.551337
 21
271.422337
 31
0.0
  0
LINE
  5
44B
330
1F
100
AcDbEntity
  8
002
 62
    40
370
     9
100
AcDbLine
 10
786.551337
 20
136.716542
 30
0.0
 11
786.551337
 21
203.73344
 31
0.0
  0
LINE
  5
44C
330
1F
100
AcDbEntity
  8
002
 62
    40
370
     9
100
AcDbLine
 10
786.551337
 20
215.73344
 30
0.0
 11
786.551337
 21
271.422337
 31
0.0
  0
LINE
  5
44D
330
1F
100
AcDbEntity
  8
002
 62
     3
370
    30
100
AcDbLine
 10
792.551337
 20
136.716542
 30
0.0
 11
792.551337
 21
198.06944
 31
0.0
  0
LINE
  5
44E
330
1F
100
AcDbEntity
  8
002
 62
     3
370
    30
100
AcDbLine
 10
792.551337
 20
210.06944
 30
0.0
 11
792.551337
 21
271.422337
 31
0.0
  0
LINE
  5
44F
330
1F
100
AcDbEntity
  8
002
 62
     3
370
    30
100
AcDbLine
 10
762.551337
 20
136.716542
 30
0.0
 11
762.551337
 21
198.06944
 31
0.0
  0
LINE
  5
450
330
1F
100
AcDbEntity
  8
002
 62
     3
370
    30
100
AcDbLine
 10
762.551337
 20
210.06944
 30
0.0
 11
762.551337
 21
271.422337
 31
0.0
  0
POLYLINE
  5
451
330
1F
100
AcDbEntity
  8
002
 62
     3
370
     9
100
AcDb2dPolyline
 66
     1
 10
0.0
 20
0.0
 30
0.0
  0
VERTEX
  5
453
330
451
100
AcDbEntity
  8
002
 62
     3
370
     9
100
AcDbVertex
100
AcDb2dVertex
 10
753.551337
 20
472.922337
 30
0.0
  0
VERTEX
  5
454
330
451
100
AcDbEntity
  8
002
 62
     3
370
     9
100
AcDbVertex
100
AcDb2dVertex
 10
755.951337
 20
471.146337
 30
0.0
  0
VERTEX
  5
455
330
451
100
AcDbEntity
  8
002
 62
     3
370
     9
100
AcDbVertex
100
AcDb2dVertex
 10
758.351337
 20
469.514337
 30
0.0
  0
VERTEX
  5
456
330
451
100
AcDbEntity
  8
002
 62
     3
370
     9
100
AcDbVertex
100
AcDb2dVertex
 10
760.751337
 20
468.170337
 30
0.0
  0
VERTEX
  5
457
330
451
100
AcDbEntity
  8
002
 62
     3
370
     9
100
AcDbVertex
100
AcDb2dVertex
 10
763.151337
 20
467.258337
 30
0.0
  0
VERTEX
  5
458
330
451
100
AcDbEntity
  8
002
 62
     3
370
     9
100
AcDbVertex
100
AcDb2dVertex
 10
765.551337
 20
466.922337
 30
0.0
  0
VERTEX
  5
459
330
451
100
AcDbEntity
  8
002
 62
     3
370
     9
100
AcDbVertex
100
AcDb2dVertex
 10
767.951337
 20
467.258337
 30
0.0
  0
VERTEX
  5
45A
330
451
100
AcDbEntity
  8
002
 62
     3
370
     9
100
AcDbVertex
100
AcDb2dVertex
 10
770.351337
 20
468.170337
 30
0.0
  0
VERTEX
  5
45B
330
451
100
AcDbEntity
  8
002
 62
     3
370
     9
100
AcDbVertex
100
AcDb2dVertex
 10
772.751337
 20
469.514337
 30
0.0
  0
VERTEX
  5
45C
330
451
100
AcDbEntity
  8
002
 62
     3
370
     9
100
AcDbVertex
100
AcDb2dVertex
 10
775.151337
 20
471.146337
 30
0.0
  0
VERTEX
  5
45D
330
451
100
AcDbEntity
  8
002
 62
     3
370
     9
100
AcDbVertex
100
AcDb2dVertex
 10
777.551337
 20
472.922337
 30
0.0
  0
VERTEX
  5
45E
330
451
100
AcDbEntity
  8
002
 62
     3
370
     9
100
AcDbVertex
100
AcDb2dVertex
 10
779.951337
 20
474.698337
 30
0.0
  0
VERTEX
  5
45F
330
451
100
AcDbEntity
  8
002
 62
     3
370
     9
100
AcDbVertex
100
AcDb2dVertex
 10
782.351337
 20
476.330337
 30
0.0
  0
VERTEX
  5
460
330
451
100
AcDbEntity
  8
002
 62
     3
370
     9
100
AcDbVertex
100
AcDb2dVertex
 10
784.751337
 20
477.674337
 30
0.0
  0
VERTEX
  5
461
330
451
100
AcDbEntity
  8
002
 62
     3
370
     9
100
AcDbVertex
100
AcDb2dVertex
 10
787.151337
 20
478.586337
 30
0.0
  0
VERTEX
  5
462
330
451
100
AcDbEntity
  8
002
 62
     3
370
     9
100
AcDbVertex
100
AcDb2dVertex
 10
789.551337
 20
478.922337
 30
0.0
  0
VERTEX
  5
463
330
451
100
AcDbEntity
  8
002
 62
     3
370
     9
100
AcDbVertex
100
AcDb2dVertex
 10
791.951337
 20
478.586337
 30
0.0
  0
VERTEX
  5
464
330
451
100
AcDbEntity
  8
002
 62
     3
370
     9
100
AcDbVertex
100
AcDb2dVertex
 10
794.351337
 20
477.674337
 30
0.0
  0
VERTEX
  5
465
330
451
100
AcDbEntity
  8
002
 62
     3
370
     9
100
AcDbVertex
100
AcDb2dVertex
 10
796.751337
 20
476.330337
 30
0.0
  0
VERTEX
  5
466
330
451
100
AcDbEntity
  8
002
 62
     3
370
     9
100
AcDbVertex
100
AcDb2dVertex
 10
799.151337
 20
474.698337
 30
0.0
  0
VERTEX
  5
467
330
451
100
AcDbEntity
  8
002
 62
     3
370
     9
100
AcDbVertex
100
AcDb2dVertex
 10
801.551337
 20
472.922337
 30
0.0
  0
SEQEND
  5
452
330
451
100
AcDbEntity
  8
002
370
     9
  0
POLYLINE
  5
468
330
1F
100
AcDbEntity
  8
002
 62
     3
370
     9
100
AcDb2dPolyline
 66
     1
 10
0.0
 20
0.0
 30
0.0
  0
VERTEX
  5
46A
330
468
100
AcDbEntity
  8
002
 62
     3
370
     9
100
AcDbVertex
100
AcDb2dVertex
 10
753.551337
 20
484.922337
 30
0.0
  0
VERTEX
  5
46B
330
468
100
AcDbEntity
  8
002
 62
     3
370
     9
100
AcDbVertex
100
AcDb2dVertex
 10
755.951337
 20
483.146337
 30
0.0
  0
VERTEX
  5
46C
330
468
100
AcDbEntity
  8
002
 62
     3
370
     9
100
AcDbVertex
100
AcDb2dVertex
 10
758.351337
 20
481.514337
 30
0.0
  0
VERTEX
  5
46D
330
468
100
AcDbEntity
  8
002
 62
     3
370
     9
100
AcDbVertex
100
AcDb2dVertex
 10
760.751337
 20
480.170337
 30
0.0
  0
VERTEX
  5
46E
330
468
100
AcDbEntity
  8
002
 62
     3
370
     9
100
AcDbVertex
100
AcDb2dVertex
 10
763.151337
 20
479.258337
 30
0.0
  0
VERTEX
  5
46F
330
468
100
AcDbEntity
  8
002
 62
     3
370
     9
100
AcDbVertex
100
AcDb2dVertex
 10
765.551337
 20
478.922337
 30
0.0
  0
VERTEX
  5
470
330
468
100
AcDbEntity
  8
002
 62
     3
370
     9
100
AcDbVertex
100
AcDb2dVertex
 10
767.951337
 20
479.258337
 30
0.0
  0
VERTEX
  5
471
330
468
100
AcDbEntity
  8
002
 62
     3
370
     9
100
AcDbVertex
100
AcDb2dVertex
 10
770.351337
 20
480.170337
 30
0.0
  0
VERTEX
  5
472
330
468
100
AcDbEntity
  8
002
 62
     3
370
     9
100
AcDbVertex
100
AcDb2dVertex
 10
772.751337
 20
481.514337
 30
0.0
  0
VERTEX
  5
473
330
468
100
AcDbEntity
  8
002
 62
     3
370
     9
100
AcDbVertex
100
AcDb2dVertex
 10
775.151337
 20
483.146337
 30
0.0
  0
VERTEX
  5
474
330
468
100
AcDbEntity
  8
002
 62
     3
370
     9
100
AcDbVertex
100
AcDb2dVertex
 10
777.551337
 20
484.922337
 30
0.0
  0
VERTEX
  5
475
330
468
100
AcDbEntity
  8
002
 62
     3
370
     9
100
AcDbVertex
100
AcDb2dVertex
 10
779.951337
 20
486.698337
 30
0.0
  0
VERTEX
  5
476
330
468
100
AcDbEntity
  8
002
 62
     3
370
     9
100
AcDbVertex
100
AcDb2dVertex
 10
782.351337
 20
488.330337
 30
0.0
  0
VERTEX
  5
477
330
468
100
AcDbEntity
  8
002
 62
     3
370
     9
100
AcDbVertex
100
AcDb2dVertex
 10
784.751337
 20
489.674337
 30
0.0
  0
VERTEX
  5
478
330
468
100
AcDbEntity
  8
002
 62
     3
370
     9
100
AcDbVertex
100
AcDb2dVertex
 10
787.151337
 20
490.586337
 30
0.0
  0
VERTEX
  5
479
330
468
100
AcDbEntity
  8
002
 62
     3
370
     9
100
AcDbVertex
100
AcDb2dVertex
 10
789.551337
 20
490.922337
 30
0.0
  0
VERTEX
  5
47A
330
468
100
AcDbEntity
  8
002
 62
     3
370
     9
100
AcDbVertex
100
AcDb2dVertex
 10
791.951337
 20
490.586337
 30
0.0
  0
VERTEX
  5
47B
330
468
100
AcDbEntity
  8
002
 62
     3
370
     9
100
AcDbVertex
100
AcDb2dVertex
 10
794.351337
 20
489.674337
 30
0.0
  0
VERTEX
  5
47C
330
468
100
AcDbEntity
  8
002
 62
     3
370
     9
100
AcDbVertex
100
AcDb2dVertex
 10
796.751337
 20
488.330337
 30
0.0
  0
VERTEX
  5
47D
330
468
100
AcDbEntity
  8
002
 62
     3
370
     9
100
AcDbVertex
100
AcDb2dVertex
 10
799.151337
 20
486.698337
 30
0.0
  0
VERTEX
  5
47E
330
468
100
AcDbEntity
  8
002
 62
     3
370
     9
100
AcDbVertex
100
AcDb2dVertex
 10
801.551337
 20
484.922337
 30
0.0
  0
SEQEND
  5
469
330
468
100
AcDbEntity
  8
002
370
     9
  0
LINE
  5
47F
330
1F
100
AcDbEntity
  8
002
 62
     3
370
    30
100
AcDbLine
 10
801.551337
 20
421.422337
 30
0.0
 11
801.551337
 21
472.922337
 31
0.0
  0
LINE
  5
480
330
1F
100
AcDbEntity
  8
002
 62
     3
370
    30
100
AcDbLine
 10
801.551337
 20
484.922337
 30
0.0
 11
801.551337
 21
536.422337
 31
0.0
  0
LINE
  5
481
330
1F
100
AcDbEntity
  8
002
 62
     3
370
    30
100
AcDbLine
 10
753.551337
 20
421.422337
 30
0.0
 11
753.551337
 21
472.922337
 31
0.0
  0
LINE
  5
482
330
1F
100
AcDbEntity
  8
002
 62
     3
370
    30
100
AcDbLine
 10
753.551337
 20
484.922337
 30
0.0
 11
753.551337
 21
536.422337
 31
0.0
  0
POLYLINE
  5
483
330
1F
100
AcDbEntity
  8
002
 62
     3
370
     9
100
AcDb2dPolyline
 66
     1
 10
0.0
 20
0.0
 30
0.0
  0
VERTEX
  5
485
330
483
100
AcDbEntity
  8
002
 62
     3
370
     9
100
AcDbVertex
100
AcDb2dVertex
 10
981.551337
 20
472.922337
 30
0.0
  0
VERTEX
  5
486
330
483
100
AcDbEntity
  8
002
 62
     3
370
     9
100
AcDbVertex
100
AcDb2dVertex
 10
983.951337
 20
471.146337
 30
0.0
  0
VERTEX
  5
487
330
483
100
AcDbEntity
  8
002
 62
     3
370
     9
100
AcDbVertex
100
AcDb2dVertex
 10
986.351337
 20
469.514337
 30
0.0
  0
VERTEX
  5
488
330
483
100
AcDbEntity
  8
002
 62
     3
370
     9
100
AcDbVertex
100
AcDb2dVertex
 10
988.751337
 20
468.170337
 30
0.0
  0
VERTEX
  5
489
330
483
100
AcDbEntity
  8
002
 62
     3
370
     9
100
AcDbVertex
100
AcDb2dVertex
 10
991.151337
 20
467.258337
 30
0.0
  0
VERTEX
  5
48A
330
483
100
AcDbEntity
  8
002
 62
     3
370
     9
100
AcDbVertex
100
AcDb2dVertex
 10
993.551337
 20
466.922337
 30
0.0
  0
VERTEX
  5
48B
330
483
100
AcDbEntity
  8
002
 62
     3
370
     9
100
AcDbVertex
100
AcDb2dVertex
 10
995.951337
 20
467.258337
 30
0.0
  0
VERTEX
  5
48C
330
483
100
AcDbEntity
  8
002
 62
     3
370
     9
100
AcDbVertex
100
AcDb2dVertex
 10
998.351337
 20
468.170337
 30
0.0
  0
VERTEX
  5
48D
330
483
100
AcDbEntity
  8
002
 62
     3
370
     9
100
AcDbVertex
100
AcDb2dVertex
 10
1000.751337
 20
469.514337
 30
0.0
  0
VERTEX
  5
48E
330
483
100
AcDbEntity
  8
002
 62
     3
370
     9
100
AcDbVertex
100
AcDb2dVertex
 10
1003.151337
 20
471.146337
 30
0.0
  0
VERTEX
  5
48F
330
483
100
AcDbEntity
  8
002
 62
     3
370
     9
100
AcDbVertex
100
AcDb2dVertex
 10
1005.551337
 20
472.922337
 30
0.0
  0
VERTEX
  5
490
330
483
100
AcDbEntity
  8
002
 62
     3
370
     9
100
AcDbVertex
100
AcDb2dVertex
 10
1007.951337
 20
474.698337
 30
0.0
  0
VERTEX
  5
491
330
483
100
AcDbEntity
  8
002
 62
     3
370
     9
100
AcDbVertex
100
AcDb2dVertex
 10
1010.351337
 20
476.330337
 30
0.0
  0
VERTEX
  5
492
330
483
100
AcDbEntity
  8
002
 62
     3
370
     9
100
AcDbVertex
100
AcDb2dVertex
 10
1012.751337
 20
477.674337
 30
0.0
  0
VERTEX
  5
493
330
483
100
AcDbEntity
  8
002
 62
     3
370
     9
100
AcDbVertex
100
AcDb2dVertex
 10
1015.151337
 20
478.586337
 30
0.0
  0
VERTEX
  5
494
330
483
100
AcDbEntity
  8
002
 62
     3
370
     9
100
AcDbVertex
100
AcDb2dVertex
 10
1017.551337
 20
478.922337
 30
0.0
  0
VERTEX
  5
495
330
483
100
AcDbEntity
  8
002
 62
     3
370
     9
100
AcDbVertex
100
AcDb2dVertex
 10
1019.951337
 20
478.586337
 30
0.0
  0
VERTEX
  5
496
330
483
100
AcDbEntity
  8
002
 62
     3
370
     9
100
AcDbVertex
100
AcDb2dVertex
 10
1022.351337
 20
477.674337
 30
0.0
  0
VERTEX
  5
497
330
483
100
AcDbEntity
  8
002
 62
     3
370
     9
100
AcDbVertex
100
AcDb2dVertex
 10
1024.751337
 20
476.330337
 30
0.0
  0
VERTEX
  5
498
330
483
100
AcDbEntity
  8
002
 62
     3
370
     9
100
AcDbVertex
100
AcDb2dVertex
 10
1027.151337
 20
474.698337
 30
0.0
  0
VERTEX
  5
499
330
483
100
AcDbEntity
  8
002
 62
     3
370
     9
100
AcDbVertex
100
AcDb2dVertex
 10
1029.551337
 20
472.922337
 30
0.0
  0
SEQEND
  5
484
330
483
100
AcDbEntity
  8
002
370
     9
  0
POLYLINE
  5
49A
330
1F
100
AcDbEntity
  8
002
 62
     3
370
     9
100
AcDb2dPolyline
 66
     1
 10
0.0
 20
0.0
 30
0.0
  0
VERTEX
  5
49C
330
49A
100
AcDbEntity
  8
002
 62
     3
370
     9
100
AcDbVertex
100
AcDb2dVertex
 10
981.551337
 20
484.922337
 30
0.0
  0
VERTEX
  5
49D
330
49A
100
AcDbEntity
  8
002
 62
     3
370
     9
100
AcDbVertex
100
AcDb2dVertex
 10
983.951337
 20
483.146337
 30
0.0
  0
VERTEX
  5
49E
330
49A
100
AcDbEntity
  8
002
 62
     3
370
     9
100
AcDbVertex
100
AcDb2dVertex
 10
986.351337
 20
481.514337
 30
0.0
  0
VERTEX
  5
49F
330
49A
100
AcDbEntity
  8
002
 62
     3
370
     9
100
AcDbVertex
100
AcDb2dVertex
 10
988.751337
 20
480.170337
 30
0.0
  0
VERTEX
  5
4A0
330
49A
100
AcDbEntity
  8
002
 62
     3
370
     9
100
AcDbVertex
100
AcDb2dVertex
 10
991.151337
 20
479.258337
 30
0.0
  0
VERTEX
  5
4A1
330
49A
100
AcDbEntity
  8
002
 62
     3
370
     9
100
AcDbVertex
100
AcDb2dVertex
 10
993.551337
 20
478.922337
 30
0.0
  0
VERTEX
  5
4A2
330
49A
100
AcDbEntity
  8
002
 62
     3
370
     9
100
AcDbVertex
100
AcDb2dVertex
 10
995.951337
 20
479.258337
 30
0.0
  0
VERTEX
  5
4A3
330
49A
100
AcDbEntity
  8
002
 62
     3
370
     9
100
AcDbVertex
100
AcDb2dVertex
 10
998.351337
 20
480.170337
 30
0.0
  0
VERTEX
  5
4A4
330
49A
100
AcDbEntity
  8
002
 62
     3
370
     9
100
AcDbVertex
100
AcDb2dVertex
 10
1000.751337
 20
481.514337
 30
0.0
  0
VERTEX
  5
4A5
330
49A
100
AcDbEntity
  8
002
 62
     3
370
     9
100
AcDbVertex
100
AcDb2dVertex
 10
1003.151337
 20
483.146337
 30
0.0
  0
VERTEX
  5
4A6
330
49A
100
AcDbEntity
  8
002
 62
     3
370
     9
100
AcDbVertex
100
AcDb2dVertex
 10
1005.551337
 20
484.922337
 30
0.0
  0
VERTEX
  5
4A7
330
49A
100
AcDbEntity
  8
002
 62
     3
370
     9
100
AcDbVertex
100
AcDb2dVertex
 10
1007.951337
 20
486.698337
 30
0.0
  0
VERTEX
  5
4A8
330
49A
100
AcDbEntity
  8
002
 62
     3
370
     9
100
AcDbVertex
100
AcDb2dVertex
 10
1010.351337
 20
488.330337
 30
0.0
  0
VERTEX
  5
4A9
330
49A
100
AcDbEntity
  8
002
 62
     3
370
     9
100
AcDbVertex
100
AcDb2dVertex
 10
1012.751337
 20
489.674337
 30
0.0
  0
VERTEX
  5
4AA
330
49A
100
AcDbEntity
  8
002
 62
     3
370
     9
100
AcDbVertex
100
AcDb2dVertex
 10
1015.151337
 20
490.586337
 30
0.0
  0
VERTEX
  5
4AB
330
49A
100
AcDbEntity
  8
002
 62
     3
370
     9
100
AcDbVertex
100
AcDb2dVertex
 10
1017.551337
 20
490.922337
 30
0.0
  0
VERTEX
  5
4AC
330
49A
100
AcDbEntity
  8
002
 62
     3
370
     9
100
AcDbVertex
100
AcDb2dVertex
 10
1019.951337
 20
490.586337
 30
0.0
  0
VERTEX
  5
4AD
330
49A
100
AcDbEntity
  8
002
 62
     3
370
     9
100
AcDbVertex
100
AcDb2dVertex
 10
1022.351337
 20
489.674337
 30
0.0
  0
VERTEX
  5
4AE
330
49A
100
AcDbEntity
  8
002
 62
     3
370
     9
100
AcDbVertex
100
AcDb2dVertex
 10
1024.751337
 20
488.330337
 30
0.0
  0
VERTEX
  5
4AF
330
49A
100
AcDbEntity
  8
002
 62
     3
370
     9
100
AcDbVertex
100
AcDb2dVertex
 10
1027.151337
 20
486.698337
 30
0.0
  0
VERTEX
  5
4B0
330
49A
100
AcDbEntity
  8
002
 62
     3
370
     9
100
AcDbVertex
100
AcDb2dVertex
 10
1029.551337
 20
484.922337
 30
0.0
  0
SEQEND
  5
49B
330
49A
100
AcDbEntity
  8
002
370
     9
  0
LINE
  5
4B1
330
1F
100
AcDbEntity
  8
002
 62
     3
370
    30
100
AcDbLine
 10
1029.551337
 20
421.422337
 30
0.0
 11
1029.551337
 21
472.922337
 31
0.0
  0
LINE
  5
4B2
330
1F
100
AcDbEntity
  8
002
 62
     3
370
    30
100
AcDbLine
 10
1029.551337
 20
484.922337
 30
0.0
 11
1029.551337
 21
536.422337
 31
0.0
  0
LINE
  5
4B3
330
1F
100
AcDbEntity
  8
002
 62
     3
370
    30
100
AcDbLine
 10
981.551337
 20
421.422337
 30
0.0
 11
981.551337
 21
472.922337
 31
0.0
  0
LINE
  5
4B4
330
1F
100
AcDbEntity
  8
002
 62
     3
370
    30
100
AcDbLine
 10
981.551337
 20
484.922337
 30
0.0
 11
981.551337
 21
536.422337
 31
0.0
  0
LINE
  5
4B5
330
1F
100
AcDbEntity
  8
002
  6
CENTER
 62
    40
370
     9
100
AcDbLine
 10
167.950993
 20
596.128131
 30
0.0
 11
167.950993
 21
101.422337
 31
0.0
  0
LINE
  5
4B6
330
1F
100
AcDbEntity
  8
002
  6
CENTER
 62
    40
370
     9
100
AcDbLine
 10
521.182307
 20
587.829474
 30
0.0
 11
521.182307
 21
101.422337
 31
0.0
  0
LINE
  5
4B7
330
1F
100
AcDbEntity
  8
002
  6
CENTER
 62
    40
370
     9
100
AcDbLine
 10
777.551337
 20
567.702688
 30
0.0
 11
777.551337
 21
113.137419
 31
0.0
  0
LINE
  5
4B8
330
1F
100
AcDbEntity
  8
002
  6
CENTER
 62
    40
370
     9
100
AcDbLine
 10
1005.551337
 20
567.702688
 30
0.0
 11
1005.551337
 21
64.356665
 31
0.0
  0
ENDSEC
  0
SECTION
  2
OBJECTS
  0
DICTIONARY
  5
C
330
0
100
AcDbDictionary
281
     1
  3
ACAD_GROUP
350
D
  3
ACAD_LAYOUT
350
1A
  3
ACAD_MLEADERSTYLE
350
4BB
  3
ACAD_MLINESTYLE
350
17
  3
ACAD_PLOTSETTINGS
350
19
  3
ACAD_PLOTSTYLENAME
350
E
  3
ACAD_VISUALSTYLE
350
2A
  3
AcDbVariableDictionary
350
4B9
  0
DICTIONARY
  5
D
102
{ACAD_REACTORS
330
C
102
}
330
C
100
AcDbDictionary
281
     1
  0
DICTIONARY
  5
1A
102
{ACAD_REACTORS
330
C
102
}
330
C
100
AcDbDictionary
281
     1
  3
Layout1
350
1E
  3
Layout2
350
26
  3
Model
350
22
  0
DICTIONARY
  5
4BB
102
{ACAD_REACTORS
330
C
102
}
330
C
100
AcDbDictionary
281
     1
  0
DICTIONARY
  5
17
102
{ACAD_REACTORS
330
C
102
}
330
C
100
AcDbDictionary
281
     1
  3
Standard
350
18
  0
DICTIONARY
  5
19
102
{ACAD_REACTORS
330
C
102
}
330
C
100
AcDbDictionary
281
     1
  0
ACDBDICTIONARYWDFLT
  5
E
102
{ACAD_REACTORS
330
C
102
}
330
C
100
AcDbDictionary
281
     1
  3
Normal
350
F
100
AcDbDictionaryWithDefault
340
F
  0
DICTIONARY
  5
2A
102
{ACAD_REACTORS
330
C
102
}
330
C
100
AcDbDictionary
281
     1
  3
2dWireframe
350
2F
  3
3D Hidden
350
31
  3
3dWireframe
350
30
  3
Basic
350
32
  3
Brighten
350
36
  3
ColorChange
350
3A
  3
Conceptual
350
34
  3
Dim
350
35
  3
Facepattern
350
39
  3
Flat
350
2B
  3
FlatWithEdges
350
2C
  3
Gouraud
350
2D
  3
GouraudWithEdges
350
2E
  3
Linepattern
350
38
  3
Realistic
350
33
  3
Thicken
350
37
  0
DICTIONARY
  5
4B9
102
{ACAD_REACTORS
330
C
102
}
330
C
100
AcDbDictionary
281
     1
  3
PSOLHEIGHT
350
4BD
  3
PSOLWIDTH
350
4BC
  0
LAYOUT
  5
1E
102
{ACAD_REACTORS
330
1A
102
}
330
1A
100
AcDbPlotSettings
  1

  2
none_device
  4

  6

 40
0.0
 41
0.0
 42
0.0
 43
0.0
 44
0.0
 45
0.0
 46
0.0
 47
0.0
 48
0.0
 49
0.0
140
0.0
141
0.0
142
1.0
143
1.0
 70
   688
 72
     0
 73
     0
 74
     5
  7

 75
    16
147
1.0
148
0.0
149
0.0
100
AcDbLayout
  1
Layout1
 70
     1
 71
     1
 10
0.0
 20
0.0
 11
12.0
 21
9.0
 12
0.0
 22
0.0
 32
0.0
 14
1.000000E+20
 24
1.000000E+20
 34
0.0
 15
-1.000000E+20
 25
-1.000000E+20
 35
0.0
146
0.0
 13
0.0
 23
0.0
 33
0.0
 16
1.0
 26
0.0
 36
0.0
 17
0.0
 27
1.0
 37
0.0
 76
     0
330
1B
  0
LAYOUT
  5
26
102
{ACAD_REACTORS
330
1A
102
}
330
1A
100
AcDbPlotSettings
  1

  2
none_device
  4

  6

 40
0.0
 41
0.0
 42
0.0
 43
0.0
 44
0.0
 45
0.0
 46
0.0
 47
0.0
 48
0.0
 49
0.0
140
0.0
141
0.0
142
1.0
143
1.0
 70
   688
 72
     0
 73
     0
 74
     5
  7

 75
    16
147
1.0
148
0.0
149
0.0
100
AcDbLayout
  1
Layout2
 70
     1
 71
     2
 10
0.0
 20
0.0
 11
0.0
 21
0.0
 12
0.0
 22
0.0
 32
0.0
 14
0.0
 24
0.0
 34
0.0
 15
0.0
 25
0.0
 35
0.0
146
0.0
 13
0.0
 23
0.0
 33
0.0
 16
1.0
 26
0.0
 36
0.0
 17
0.0
 27
1.0
 37
0.0
 76
     0
330
23
  0
LAYOUT
  5
22
102
{ACAD_REACTORS
330
1A
102
}
330
1A
100
AcDbPlotSettings
  1

  2
none_device
  4

  6

 40
0.0
 41
0.0
 42
0.0
 43
0.0
 44
0.0
 45
0.0
 46
0.0
 47
0.0
 48
0.0
 49
0.0
140
0.0
141
0.0
142
1.0
143
1.0
 70
  1712
 72
     0
 73
     0
 74
     0
  7

 75
     0
147
1.0
148
0.0
149
0.0
100
AcDbLayout
  1
Model
 70
     1
 71
     0
 10
0.0
 20
0.0
 11
12.0
 21
9.0
 12
0.0
 22
0.0
 32
0.0
 14
95.839691
 24
64.356689
 34
0.0
 15
1113.551392
 25
1106.012085
 35
0.0
146
0.0
 13
0.0
 23
0.0
 33
0.0
 16
1.0
 26
0.0
 36
0.0
 17
0.0
 27
1.0
 37
0.0
 76
     0
330
1F
331
29
  0
MLINESTYLE
  5
18
102
{ACAD_REACTORS
330
17
102
}
330
17
100
AcDbMlineStyle
  2
Standard
 70
     0
  3

 62
   256
 51
90.0
 52
90.0
 71
     2
 49
0.5
 62
   256
  6
BYLAYER
 49
-0.5
 62
   256
  6
BYLAYER
  0
ACDBPLACEHOLDER
  5
F
102
{ACAD_REACTORS
330
E
102
}
330
E
  0
VISUALSTYLE
  5
2F
102
{ACAD_REACTORS
330
2A
102
}
330
2A
100
AcDbVisualStyle
  2
2dWireframe
 70
     4
 71
     0
 72
     2
 73
     0
 90
        0
 40
-0.6
 41
-30.0
 62
     5
 63
     7
 74
     1
 91
        4
 64
     7
 65
   257
 75
     1
175
     1
 42
1.0
 92
        0
 66
   257
 43
1.0
 76
     1
 77
     6
 78
     2
 67
     7
 79
     5
170
     0
171
     0
290
     0
174
     0
 93
        1
 44
0.0
173
     0
291
     0
 45
0.0
1001
ACAD
1000
AcDbSavedByObjectVersion
1070
     0
  0
VISUALSTYLE
  5
31
102
{ACAD_REACTORS
330
2A
102
}
330
2A
100
AcDbVisualStyle
  2
3D Hidden
 70
     6
 71
     1
 72
     2
 73
     2
 90
        0
 40
-0.6
 41
-30.0
 62
     5
 63
     7
 74
     2
 91
        2
 64
     7
 65
   257
 75
     2
175
     1
 42
40.0
 92
        0
 66
   257
 43
1.0
 76
     1
 77
     6
 78
     2
 67
     7
 79
     3
170
     0
171
     0
290
     0
174
     0
 93
        1
 44
0.0
173
     0
291
     0
 45
0.0
1001
ACAD
1000
AcDbSavedByObjectVersion
1070
     0
  0
VISUALSTYLE
  5
30
102
{ACAD_REACTORS
330
2A
102
}
330
2A
100
AcDbVisualStyle
  2
3dWireframe
 70
     5
 71
     0
 72
     2
 73
     0
 90
        0
 40
-0.6
 41
-30.0
 62
     5
 63
     7
 74
     1
 91
        4
 64
     7
 65
   257
 75
     1
175
     1
 42
1.0
 92
        0
 66
   257
 43
1.0
 76
     1
 77
     6
 78
     2
 67
     7
 79
     5
170
     0
171
     0
290
     0
174
     0
 93
        1
 44
0.0
173
     0
291
     0
 45
0.0
1001
ACAD
1000
AcDbSavedByObjectVersion
1070
     0
  0
VISUALSTYLE
  5
32
102
{ACAD_REACTORS
330
2A
102
}
330
2A
100
AcDbVisualStyle
  2
Basic
 70
     7
 71
     1
 72
     0
 73
     1
 90
        0
 40
-0.6
 41
-30.0
 62
     5
 63
     7
 74
     0
 91
        4
 64
     7
 65
   257
 75
     1
175
     1
 42
1.0
 92
        8
 66
     7
 43
1.0
 76
     1
 77
     6
 78
     2
 67
     7
 79
     5
170
     0
171
     0
290
     0
174
     0
 93
        1
 44
0.0
173
     0
291
     1
 45
0.0
1001
ACAD
1000
AcDbSavedByObjectVersion
1070
     0
  0
VISUALSTYLE
  5
36
102
{ACAD_REACTORS
330
2A
102
}
330
2A
100
AcDbVisualStyle
  2
Brighten
 70
    12
 71
     2
 72
     2
 73
     0
 90
        0
 40
-0.6
 41
-30.0
 62
     5
 63
     7
 74
     1
 91
        4
 64
     7
 65
   257
 75
     1
175
     1
 42
1.0
 92
        8
 66
     7
 43
1.0
 76
     1
 77
     6
 78
     2
 67
     7
 79
     5
170
     0
171
     0
290
     0
174
     0
 93
        1
 44
50.0
173
     0
291
     1
 45
0.0
1001
ACAD
1000
AcDbSavedByObjectVersion
1070
     0
  0
VISUALSTYLE
  5
3A
102
{ACAD_REACTORS
330
2A
102
}
330
2A
100
AcDbVisualStyle
  2
ColorChange
 70
    16
 71
     2
 72
     2
 73
     3
 90
        0
 40
-0.6
 41
-30.0
 62
     5
 63
     8
 74
     1
 91
        4
 64
     7
 65
   257
 75
     1
175
     1
 42
1.0
 92
        8
 66
     8
 43
1.0
 76
     1
 77
     6
 78
     2
 67
     7
 79
     5
170
     0
171
     0
290
     0
174
     0
 93
        1
 44
0.0
173
     0
291
     1
 45
0.0
1001
ACAD
1000
AcDbSavedByObjectVersion
1070
     0
  0
VISUALSTYLE
  5
34
102
{ACAD_REACTORS
330
2A
102
}
330
2A
100
AcDbVisualStyle
  2
Conceptual
 70
     9
 71
     3
 72
     2
 73
     0
 90
        0
 40
-0.6
 41
-30.0
 62
     5
 63
     7
 74
     2
 91
        2
 64
     7
 65
   257
 75
     1
175
     1
 42
40.0
 92
        8
 66
     7
 43
1.0
 76
     1
 77
     6
 78
     2
 67
     7
 79
     3
170
     0
171
     0
290
     0
174
     0
 93
        1
 44
0.0
173
     0
291
     0
 45
0.0
1001
ACAD
1000
AcDbSavedByObjectVersion
1070
     0
  0
VISUALSTYLE
  5
35
102
{ACAD_REACTORS
330
2A
102
}
330
2A
100
AcDbVisualStyle
  2
Dim
 70
    11
 71
     2
 72
     2
 73
     0
 90
        0
 40
-0.6
 41
-30.0
 62
     5
 63
     7
 74
     1
 91
        4
 64
     7
 65
   257
 75
     1
175
     1
 42
1.0
 92
        8
 66
     7
 43
1.0
 76
     1
 77
     6
 78
     2
 67
     7
 79
     5
170
     0
171
     0
290
     0
174
     0
 93
        1
 44
-50.0
173
     0
291
     1
 45
0.0
1001
ACAD
1000
AcDbSavedByObjectVersion
1070
     0
  0
VISUALSTYLE
  5
39
102
{ACAD_REACTORS
330
2A
102
}
330
2A
100
AcDbVisualStyle
  2
Facepattern
 70
    15
 71
     2
 72
     2
 73
     0
 90
        0
 40
-0.6
 41
-30.0
 62
     5
 63
     7
 74
     1
 91
        4
 64
     7
 65
   257
 75
     1
175
     1
 42
1.0
 92
        8
 66
     7
 43
1.0
 76
     1
 77
     6
 78
     2
 67
     7
 79
     5
170
     0
171
     0
290
     0
174
     0
 93
        1
 44
0.0
173
     0
291
     1
 45
0.0
1001
ACAD
1000
AcDbSavedByObjectVersion
1070
     0
  0
VISUALSTYLE
  5
2B
102
{ACAD_REACTORS
330
2A
102
}
330
2A
100
AcDbVisualStyle
  2
Flat
 70
     0
 71
     2
 72
     1
 73
     1
 90
        2
 40
-0.6
 41
30.0
 62
     5
 63
     7
 74
     0
 91
        4
 64
     7
 65
   257
 75
     1
175
     1
 42
1.0
 92
        8
 66
     7
 43
1.0
 76
     1
 77
     6
 78
     2
 67
     7
 79
     5
170
     0
171
     0
290
     0
174
     0
 93
       13
 44
0.0
173
     0
291
     1
 45
0.0
1001
ACAD
1000
AcDbSavedByObjectVersion
1070
     0
  0
VISUALSTYLE
  5
2C
102
{ACAD_REACTORS
330
2A
102
}
330
2A
100
AcDbVisualStyle
  2
FlatWithEdges
 70
     1
 71
     2
 72
     1
 73
     1
 90
        2
 40
-0.6
 41
30.0
 62
     5
 63
     7
 74
     1
 91
        4
 64
     7
 65
   257
 75
     1
175
     1
 42
1.0
 92
        0
 66
   257
 43
1.0
 76
     1
 77
     6
 78
     2
 67
     7
 79
     5
170
     0
171
     0
290
     0
174
     0
 93
       13
 44
0.0
173
     0
291
     1
 45
0.0
1001
ACAD
1000
AcDbSavedByObjectVersion
1070
     0
  0
VISUALSTYLE
  5
2D
102
{ACAD_REACTORS
330
2A
102
}
330
2A
100
AcDbVisualStyle
  2
Gouraud
 70
     2
 71
     2
 72
     2
 73
     1
 90
        2
 40
-0.6
 41
30.0
 62
     5
 63
     7
 74
     0
 91
        4
 64
     7
 65
   257
 75
     1
175
     1
 42
1.0
 92
        0
 66
     7
 43
1.0
 76
     1
 77
     6
 78
     2
 67
     7
 79
     5
170
     0
171
     0
290
     0
174
     0
 93
       13
 44
0.0
173
     0
291
     1
 45
0.0
1001
ACAD
1000
AcDbSavedByObjectVersion
1070
     0
  0
VISUALSTYLE
  5
2E
102
{ACAD_REACTORS
330
2A
102
}
330
2A
100
AcDbVisualStyle
  2
GouraudWithEdges
 70
     3
 71
     2
 72
     2
 73
     1
 90
        2
 40
-0.6
 41
30.0
 62
     5
 63
     7
 74
     1
 91
        4
 64
     7
 65
   257
 75
     1
175
     1
 42
1.0
 92
        0
 66
   257
 43
1.0
 76
     1
 77
     6
 78
     2
 67
     7
 79
     5
170
     0
171
     0
290
     0
174
     0
 93
       13
 44
0.0
173
     0
291
     1
 45
0.0
1001
ACAD
1000
AcDbSavedByObjectVersion
1070
     0
  0
VISUALSTYLE
  5
38
102
{ACAD_REACTORS
330
2A
102
}
330
2A
100
AcDbVisualStyle
  2
Linepattern
 70
    14
 71
     2
 72
     2
 73
     0
 90
        0
 40
-0.6
 41
-30.0
 62
     5
 63
     7
 74
     1
 91
        4
 64
     7
 65
   257
 75
     7
175
     7
 42
1.0
 92
        8
 66
     7
 43
1.0
 76
     1
 77
     6
 78
     2
 67
     7
 79
     5
170
     0
171
     0
290
     0
174
     0
 93
        1
 44
0.0
173
     0
291
     1
 45
0.0
1001
ACAD
1000
AcDbSavedByObjectVersion
1070
     0
  0
VISUALSTYLE
  5
33
102
{ACAD_REACTORS
330
2A
102
}
330
2A
100
AcDbVisualStyle
  2
Realistic
 70
     8
 71
     2
 72
     2
 73
     0
 90
        0
 40
-0.6
 41
-30.0
 62
     5
 63
     7
 74
     1
 91
        0
 64
     7
 65
   257
 75
     1
175
     1
 42
1.0
 92
        8
 66
     8
 43
1.0
 76
     1
 77
     6
 78
     2
 67
     7
 79
     5
170
     0
171
     0
290
     0
174
     0
 93
       13
 44
0.0
173
     0
291
     0
 45
0.0
1001
ACAD
1000
AcDbSavedByObjectVersion
1070
     0
  0
VISUALSTYLE
  5
37
102
{ACAD_REACTORS
330
2A
102
}
330
2A
100
AcDbVisualStyle
  2
Thicken
 70
    13
 71
     2
 72
     2
 73
     0
 90
        0
 40
-0.6
 41
-30.0
 62
     5
 63
     7
 74
     1
 91
        4
 64
     7
 65
   257
 75
     1
175
     1
 42
1.0
 92
       12
 66
     7
 43
1.0
 76
     1
 77
     6
 78
     2
 67
     7
 79
     5
170
     0
171
     0
290
     0
174
     0
 93
        1
 44
0.0
173
     0
291
     1
 45
0.0
1001
ACAD
1000
AcDbSavedByObjectVersion
1070
     0
  0
DICTIONARYVAR
  5
4BD
102
{ACAD_REACTORS
330
4B9
102
}
330
4B9
100
DictionaryVariables
280
     0
  1
80.000000
  0
DICTIONARYVAR
  5
4BC
102
{ACAD_REACTORS
330
4B9
102
}
330
4B9
100
DictionaryVariables
280
     0
  1
5.000000
  0
ENDSEC
  0
EOF
