  0
SECTION
  2
HEADER
  9
$ACADVER
  1
AC1015
  9
$ACADMAINTVER
 70
     6
  9
$DWGCODEPAGE
  3
ANSI_932
  9
$INSBASE
 10
0.0
 20
0.0
 30
0.0
  9
$EXTMIN
 10
272.903748
 20
120.990234
 30
0.0
  9
$EXTMAX
 10
2075.207031
 20
2551.738037
 30
0.0
  9
$LIMMIN
 10
0.0
 20
0.0
  9
$LIMMAX
 10
12.0
 20
9.0
  9
$ORTHOMODE
 70
     0
  9
$REGENMODE
 70
     1
  9
$FILLMODE
 70
     1
  9
$QTEXTMODE
 70
     0
  9
$MIRRTEXT
 70
     1
  9
$LTSCALE
 40
30.260258
  9
$ATTMODE
 70
     1
  9
$TEXTSIZE
 40
3.2
  9
$TRACEWID
 40
1.0
  9
$TEXTSTYLE
  7
Standard
  9
$CLAYER
  8
0
  9
$CELTYPE
  6
ByLayer
  9
$CECOLOR
 62
   256
  9
$CELTSCALE
 40
1.0
  9
$DISPSILH
 70
     0
  9
$DIMSCALE
 40
1.0
  9
$DIMASZ
 40
2.5
  9
$DIMEXO
 40
0.625
  9
$DIMDLI
 40
3.75
  9
$DIMRND
 40
0.0
  9
$DIMDLE
 40
0.0
  9
$DIMEXE
 40
1.25
  9
$DIMTP
 40
0.0
  9
$DIMTM
 40
0.0
  9
$DIMTXT
 40
2.5
  9
$DIMCEN
 40
0.09
  9
$DIMTSZ
 40
0.0
  9
$DIMTOL
 70
     0
  9
$DIMLIM
 70
     0
  9
$DIMTIH
 70
     0
  9
$DIMTOH
 70
     0
  9
$DIMSE1
 70
     0
  9
$DIMSE2
 70
     0
  9
$DIMTAD
 70
     0
  9
$DIMZIN
 70
     8
  9
$DIMBLK
  1

  9
$DIMASO
 70
     1
  9
$DIMSHO
 70
     0
  9
$DIMPOST
  1

  9
$DIMAPOST
  1

  9
$DIMALT
 70
     0
  9
$DIMALTD
 70
     3
  9
$DIMALTF
 40
0.03937
  9
$DIMLFAC
 40
1.0
  9
$DIMTOFL
 70
     1
  9
$DIMTVP
 40
0.0
  9
$DIMTIX
 70
     0
  9
$DIMSOXD
 70
     0
  9
$DIMSAH
 70
     0
  9
$DIMBLK1
  1

  9
$DIMBLK2
  1

  9
$DIMSTYLE
  2
ISO-25
  9
$DIMCLRD
 70
     0
  9
$DIMCLRE
 70
     0
  9
$DIMCLRT
 70
     0
  9
$DIMTFAC
 40
1.0
  9
$DIMGAP
 40
0.625
  9
$DIMJUST
 70
     0
  9
$DIMSD1
 70
     0
  9
$DIMSD2
 70
     0
  9
$DIMTOLJ
 70
     0
  9
$DIMTZIN
 70
     8
  9
$DIMALTZ
 70
     0
  9
$DIMALTTZ
 70
     0
  9
$DIMUPT
 70
     0
  9
$DIMDEC
 70
     2
  9
$DIMTDEC
 70
     2
  9
$DIMALTU
 70
     2
  9
$DIMALTTD
 70
     3
  9
$DIMTXSTY
  7
Standard
  9
$DIMAUNIT
 70
     0
  9
$DIMADEC
 70
     0
  9
$DIMALTRND
 40
0.0
  9
$DIMAZIN
 70
     0
  9
$DIMDSEP
 70
    44
  9
$DIMATFIT
 70
     3
  9
$DIMFRAC
 70
     0
  9
$DIMLDRBLK
  1

  9
$DIMLUNIT
 70
     2
  9
$DIMLWD
 70
    -2
  9
$DIMLWE
 70
    -2
  9
$DIMTMOVE
 70
     0
  9
$LUNITS
 70
     2
  9
$LUPREC
 70
     4
  9
$SKETCHINC
 40
1.0
  9
$FILLETRAD
 40
0.0
  9
$AUNITS
 70
     0
  9
$AUPREC
 70
     0
  9
$MENU
  1
.
  9
$ELEVATION
 40
0.0
  9
$PELEVATION
 40
0.0
  9
$THICKNESS
 40
0.0
  9
$LIMCHECK
 70
     0
  9
$CHAMFERA
 40
10.0
  9
$CHAMFERB
 40
10.0
  9
$CHAMFERC
 40
20.0
  9
$CHAMFERD
 40
0.0
  9
$SKPOLY
 70
     0
  9
$TDCREATE
 40
2455649.653283773
  9
$TDUCREATE
 40
2455649.278283773
  9
$TDUPDATE
 40
2455649.653283785
  9
$TDUUPDATE
 40
2455649.278283785
  9
$TDINDWG
 40
0.0000000116
  9
$TDUSRTIMER
 40
0.0000000116
  9
$USRTIMER
 70
     1
  9
$ANGBASE
 50
0.0
  9
$ANGDIR
 70
     0
  9
$PDMODE
 70
     0
  9
$PDSIZE
 40
0.0
  9
$PLINEWID
 40
0.0
  9
$SPLFRAME
 70
     0
  9
$SPLINETYPE
 70
     6
  9
$SPLINESEGS
 70
     8
  9
$HANDSEED
  5
6A6
  9
$SURFTAB1
 70
     6
  9
$SURFTAB2
 70
     6
  9
$SURFTYPE
 70
     6
  9
$SURFU
 70
     6
  9
$SURFV
 70
     6
  9
$UCSBASE
  2

  9
$UCSNAME
  2

  9
$UCSORG
 10
0.0
 20
0.0
 30
0.0
  9
$UCSXDIR
 10
1.0
 20
0.0
 30
0.0
  9
$UCSYDIR
 10
0.0
 20
1.0
 30
0.0
  9
$UCSORTHOREF
  2

  9
$UCSORTHOVIEW
 70
     0
  9
$UCSORGTOP
 10
0.0
 20
0.0
 30
0.0
  9
$UCSORGBOTTOM
 10
0.0
 20
0.0
 30
0.0
  9
$UCSORGLEFT
 10
0.0
 20
0.0
 30
0.0
  9
$UCSORGRIGHT
 10
0.0
 20
0.0
 30
0.0
  9
$UCSORGFRONT
 10
0.0
 20
0.0
 30
0.0
  9
$UCSORGBACK
 10
0.0
 20
0.0
 30
0.0
  9
$PUCSBASE
  2

  9
$PUCSNAME
  2

  9
$PUCSORG
 10
0.0
 20
0.0
 30
0.0
  9
$PUCSXDIR
 10
1.0
 20
0.0
 30
0.0
  9
$PUCSYDIR
 10
0.0
 20
1.0
 30
0.0
  9
$PUCSORTHOREF
  2

  9
$PUCSORTHOVIEW
 70
     0
  9
$PUCSORGTOP
 10
0.0
 20
0.0
 30
0.0
  9
$PUCSORGBOTTOM
 10
0.0
 20
0.0
 30
0.0
  9
$PUCSORGLEFT
 10
0.0
 20
0.0
 30
0.0
  9
$PUCSORGRIGHT
 10
0.0
 20
0.0
 30
0.0
  9
$PUCSORGFRONT
 10
0.0
 20
0.0
 30
0.0
  9
$PUCSORGBACK
 10
0.0
 20
0.0
 30
0.0
  9
$USERI1
 70
     0
  9
$USERI2
 70
     0
  9
$USERI3
 70
     0
  9
$USERI4
 70
     0
  9
$USERI5
 70
     0
  9
$USERR1
 40
0.0
  9
$USERR2
 40
0.0
  9
$USERR3
 40
0.0
  9
$USERR4
 40
0.0
  9
$USERR5
 40
0.0
  9
$WORLDVIEW
 70
     1
  9
$SHADEDGE
 70
     3
  9
$SHADEDIF
 70
    70
  9
$TILEMODE
 70
     1
  9
$MAXACTVP
 70
    64
  9
$PINSBASE
 10
0.0
 20
0.0
 30
0.0
  9
$PLIMCHECK
 70
     0
  9
$PEXTMIN
 10
1.000000E+20
 20
1.000000E+20
 30
0.0
  9
$PEXTMAX
 10
-1.000000E+20
 20
-1.000000E+20
 30
0.0
  9
$PLIMMIN
 10
0.0
 20
0.0
  9
$PLIMMAX
 10
12.0
 20
9.0
  9
$UNITMODE
 70
     0
  9
$VISRETAIN
 70
     1
  9
$PLINEGEN
 70
     0
  9
$PSLTSCALE
 70
     1
  9
$TREEDEPTH
 70
  3020
  9
$CMLSTYLE
  2
Standard
  9
$CMLJUST
 70
     0
  9
$CMLSCALE
 40
20.0
  9
$PROXYGRAPHICS
 70
     1
  9
$MEASUREMENT
 70
     1
  9
$CELWEIGHT
370
    -1
  9
$ENDCAPS
280
     0
  9
$JOINSTYLE
280
     0
  9
$LWDISPLAY
290
     0
  9
$INSUNITS
 70
     4
  9
$HYPERLINKBASE
  1

  9
$STYLESHEET
  1

  9
$XEDIT
290
     1
  9
$CEPSNTYPE
380
     0
  9
$PSTYLEMODE
290
     1
  9
$FINGERPRINTGUID
  2
{A0BFBD12-616A-4677-A448-1D11B7A372F5}
  9
$VERSIONGUID
  2
{FAEB1C32-E019-11D5-929B-00C0DF256EC4}
  9
$EXTNAMES
290
     1
  9
$PSVPSCALE
 40
0.0
  9
$OLESTARTUP
290
     0
  0
ENDSEC
  0
SECTION
  2
CLASSES
  0
CLASS
  1
ACDBDICTIONARYWDFLT
  2
AcDbDictionaryWithDefault
  3
ObjectDBX Classes
 90
        0
280
     0
281
     0
  0
CLASS
  1
VISUALSTYLE
  2
AcDbVisualStyle
  3
ObjectDBX Classes
 90
     4095
280
     0
281
     0
  0
CLASS
  1
DICTIONARYVAR
  2
AcDbDictionaryVar
  3
ObjectDBX Classes
 90
        0
280
     0
281
     0
  0
CLASS
  1
ACDBPLACEHOLDER
  2
AcDbPlaceHolder
  3
ObjectDBX Classes
 90
        0
280
     0
281
     0
  0
CLASS
  1
LAYOUT
  2
AcDbLayout
  3
ObjectDBX Classes
 90
        0
280
     0
281
     0
  0
ENDSEC
  0
SECTION
  2
TABLES
  0
TABLE
  2
VPORT
  5
8
330
0
100
AcDbSymbolTable
 70
     1
  0
VPORT
  5
29
330
8
100
AcDbSymbolTableRecord
100
AcDbViewportTableRecord
  2
*Active
 70
     0
 10
0.0
 20
0.0
 11
1.0
 21
1.0
 12
1174.055389
 22
1336.364136
 13
0.0
 23
0.0
 14
1.0
 24
1.0
 15
0.0
 25
0.0
 16
0.0
 26
0.0
 36
1.0
 17
0.0
 27
0.0
 37
0.0
 40
2455.055281
 41
1.691288
 42
50.0
 43
0.0
 44
0.0
 50
0.0
 51
0.0
 71
     0
 72
   100
 73
     1
 74
     3
 75
     0
 76
     0
 77
     0
 78
     0
281
     0
 65
     1
110
0.0
120
0.0
130
0.0
111
1.0
121
0.0
131
0.0
112
0.0
122
1.0
132
0.0
 79
     0
146
0.0
  0
ENDTAB
  0
TABLE
  2
LTYPE
  5
5
330
0
100
AcDbSymbolTable
 70
     5
  0
LTYPE
  5
14
330
5
100
AcDbSymbolTableRecord
100
AcDbLinetypeTableRecord
  2
ByBlock
 70
     0
  3

 72
    65
 73
     0
 40
0.0
  0
LTYPE
  5
15
330
5
100
AcDbSymbolTableRecord
100
AcDbLinetypeTableRecord
  2
ByLayer
 70
     0
  3

 72
    65
 73
     0
 40
0.0
  0
LTYPE
  5
16
330
5
100
AcDbSymbolTableRecord
100
AcDbLinetypeTableRecord
  2
Continuous
 70
     0
  3
Solid line
 72
    65
 73
     0
 40
0.0
  0
LTYPE
  5
3B
330
5
100
AcDbSymbolTableRecord
100
AcDbLinetypeTableRecord
  2
DASHED
 70
     0
  3
DASHED
 72
    83
 73
     2
 40
0.75
 49
0.5
 74
     0
 49
-0.25
 74
     0
  0
LTYPE
  5
3C
330
5
100
AcDbSymbolTableRecord
100
AcDbLinetypeTableRecord
  2
HIDDEN
 70
     0
  3
HIDDEN
 72
    83
 73
     2
 40
0.375
 49
0.25
 74
     0
 49
-0.125
 74
     0
  0
LTYPE
  5
3D
330
5
100
AcDbSymbolTableRecord
100
AcDbLinetypeTableRecord
  2
CENTER
 70
     0
  3
CENTER
 72
    83
 73
     4
 40
2.0
 49
1.25
 74
     0
 49
-0.25
 74
     0
 49
0.25
 74
     0
 49
-0.25
 74
     0
  0
LTYPE
  5
3E
330
5
100
AcDbSymbolTableRecord
100
AcDbLinetypeTableRecord
  2
PHANTOM
 70
     0
  3
PHANTOM
 72
    83
 73
     6
 40
2.5
 49
1.25
 74
     0
 49
-0.25
 74
     0
 49
0.25
 74
     0
 49
-0.25
 74
     0
 49
0.25
 74
     0
 49
-0.25
 74
     0
  0
ENDTAB
  0
TABLE
  2
LAYER
  5
2
330
0
100
AcDbSymbolTable
 70
     3
  0
LAYER
  5
10
330
2
100
AcDbSymbolTableRecord
100
AcDbLayerTableRecord
  2
0
 70
     0
 62
     7
  6
Continuous
370
    -3
390
F
  0
LAYER
  5
3F
330
2
100
AcDbSymbolTableRecord
100
AcDbLayerTableRecord
  2
002
 70
     0
 62
     7
  6
Continuous
370
    -3
390
F
  0
LAYER
  5
40
330
2
100
AcDbSymbolTableRecord
100
AcDbLayerTableRecord
  2
003
 70
     0
 62
     7
  6
Continuous
370
    -3
390
F
  0
ENDTAB
  0
TABLE
  2
STYLE
  5
3
330
0
100
AcDbSymbolTable
 70
     2
  0
STYLE
  5
11
330
3
100
AcDbSymbolTableRecord
100
AcDbTextStyleTableRecord
  2
Standard
 70
     0
 40
0.0
 41
1.0
 50
0.0
 71
     0
 42
0.2
  3
TXT
  4
BIGFONT
  0
STYLE
  5
41
330
3
100
AcDbSymbolTableRecord
100
AcDbTextStyleTableRecord
  2
TATEGAKI
 70
     4
 40
1.0
 41
1.0
 50
0.0
 71
     0
 42
0.2
  3
TXT
  4
BIGFONT
  0
ENDTAB
  0
TABLE
  2
VIEW
  5
6
330
0
100
AcDbSymbolTable
 70
     0
  0
ENDTAB
  0
TABLE
  2
UCS
  5
7
330
0
100
AcDbSymbolTable
 70
     0
  0
ENDTAB
  0
TABLE
  2
APPID
  5
9
330
0
100
AcDbSymbolTable
 70
     1
  0
APPID
  5
12
330
9
100
AcDbSymbolTableRecord
100
AcDbRegAppTableRecord
  2
ACAD
 70
     0
  0
ENDTAB
  0
TABLE
  2
DIMSTYLE
  5
A
330
0
100
AcDbSymbolTable
 70
     2
100
AcDbDimStyleTable
  0
DIMSTYLE
105
27
330
A
100
AcDbSymbolTableRecord
100
AcDbDimStyleTableRecord
  2
ISO-25
 70
     0
 41
2.5
 42
0.625
 43
3.75
 44
1.25
 73
     0
 74
     0
 77
     1
 78
     8
140
2.5
141
2.5
143
0.03937
147
0.625
171
     3
172
     1
271
     2
272
     2
274
     3
278
    44
283
     0
284
     8
340
11
  0
DIMSTYLE
105
42
330
A
100
AcDbSymbolTableRecord
100
AcDbDimStyleTableRecord
  2
Standard
 70
     0
 41
3.0
 42
0.5
 44
0.7
 73
     0
 74
     0
 77
     1
 78
     8
 79
     2
140
4.0
146
0.65
147
1.0
172
     1
179
     3
271
     3
283
     2
340
11
  0
ENDTAB
  0
TABLE
  2
BLOCK_RECORD
  5
1
330
0
100
AcDbSymbolTable
 70
    35
  0
BLOCK_RECORD
  5
1F
330
1
100
AcDbSymbolTableRecord
100
AcDbBlockTableRecord
  2
*Model_Space
340
22
  0
BLOCK_RECORD
  5
1B
330
1
100
AcDbSymbolTableRecord
100
AcDbBlockTableRecord
  2
*Paper_Space
340
1E
  0
BLOCK_RECORD
  5
23
330
1
100
AcDbSymbolTableRecord
100
AcDbBlockTableRecord
  2
*Paper_Space0
340
26
  0
BLOCK_RECORD
  5
43
330
1
100
AcDbSymbolTableRecord
100
AcDbBlockTableRecord
  2
JZB-1
340
0
102
{BLKREFS
331
1C1
102
}
  0
BLOCK_RECORD
  5
54
330
1
100
AcDbSymbolTableRecord
100
AcDbBlockTableRecord
  2
JZB-2
340
0
102
{BLKREFS
331
1C2
102
}
  0
BLOCK_RECORD
  5
65
330
1
100
AcDbSymbolTableRecord
100
AcDbBlockTableRecord
  2
JZB-3
340
0
102
{BLKREFS
331
1C3
102
}
  0
BLOCK_RECORD
  5
76
330
1
100
AcDbSymbolTableRecord
100
AcDbBlockTableRecord
  2
JZB-4
340
0
102
{BLKREFS
331
1C4
102
}
  0
BLOCK_RECORD
  5
87
330
1
100
AcDbSymbolTableRecord
100
AcDbBlockTableRecord
  2
JZB-5
340
0
102
{BLKREFS
331
1C5
102
}
  0
BLOCK_RECORD
  5
98
330
1
100
AcDbSymbolTableRecord
100
AcDbBlockTableRecord
  2
JZB-6
340
0
102
{BLKREFS
331
1C6
102
}
  0
BLOCK_RECORD
  5
A9
330
1
100
AcDbSymbolTableRecord
100
AcDbBlockTableRecord
  2
JZB-7
340
0
102
{BLKREFS
331
1C7
102
}
  0
BLOCK_RECORD
  5
B3
330
1
100
AcDbSymbolTableRecord
100
AcDbBlockTableRecord
  2
JZB-8
340
0
102
{BLKREFS
331
1C8
102
}
  0
BLOCK_RECORD
  5
BD
330
1
100
AcDbSymbolTableRecord
100
AcDbBlockTableRecord
  2
JZB-9
340
0
102
{BLKREFS
331
1C9
102
}
  0
BLOCK_RECORD
  5
C7
330
1
100
AcDbSymbolTableRecord
100
AcDbBlockTableRecord
  2
JZB-10
340
0
102
{BLKREFS
331
1CA
102
}
  0
BLOCK_RECORD
  5
D1
330
1
100
AcDbSymbolTableRecord
100
AcDbBlockTableRecord
  2
JZB-11
340
0
102
{BLKREFS
331
1CB
102
}
  0
BLOCK_RECORD
  5
DB
330
1
100
AcDbSymbolTableRecord
100
AcDbBlockTableRecord
  2
JZB-12
340
0
102
{BLKREFS
331
1CC
102
}
  0
BLOCK_RECORD
  5
E5
330
1
100
AcDbSymbolTableRecord
100
AcDbBlockTableRecord
  2
JZB-13
340
0
102
{BLKREFS
331
1CD
102
}
  0
BLOCK_RECORD
  5
EF
330
1
100
AcDbSymbolTableRecord
100
AcDbBlockTableRecord
  2
JZB-14
340
0
102
{BLKREFS
331
1CE
102
}
  0
BLOCK_RECORD
  5
F9
330
1
100
AcDbSymbolTableRecord
100
AcDbBlockTableRecord
  2
JZB-15
340
0
102
{BLKREFS
331
1CF
102
}
  0
BLOCK_RECORD
  5
103
330
1
100
AcDbSymbolTableRecord
100
AcDbBlockTableRecord
  2
JZB-16
340
0
102
{BLKREFS
331
1D0
102
}
  0
BLOCK_RECORD
  5
10D
330
1
100
AcDbSymbolTableRecord
100
AcDbBlockTableRecord
  2
JZB-17
340
0
102
{BLKREFS
331
1D1
102
}
  0
BLOCK_RECORD
  5
117
330
1
100
AcDbSymbolTableRecord
100
AcDbBlockTableRecord
  2
JZB-18
340
0
102
{BLKREFS
331
1D2
102
}
  0
BLOCK_RECORD
  5
121
330
1
100
AcDbSymbolTableRecord
100
AcDbBlockTableRecord
  2
JZB-19
340
0
102
{BLKREFS
331
1D3
102
}
  0
BLOCK_RECORD
  5
12B
330
1
100
AcDbSymbolTableRecord
100
AcDbBlockTableRecord
  2
JZB-20
340
0
102
{BLKREFS
331
1D4
102
}
  0
BLOCK_RECORD
  5
135
330
1
100
AcDbSymbolTableRecord
100
AcDbBlockTableRecord
  2
JZB-21
340
0
102
{BLKREFS
331
1D5
102
}
  0
BLOCK_RECORD
  5
13F
330
1
100
AcDbSymbolTableRecord
100
AcDbBlockTableRecord
  2
JZB-22
340
0
102
{BLKREFS
331
1D6
102
}
  0
BLOCK_RECORD
  5
149
330
1
100
AcDbSymbolTableRecord
100
AcDbBlockTableRecord
  2
JZB-23
340
0
102
{BLKREFS
331
1D7
102
}
  0
BLOCK_RECORD
  5
153
330
1
100
AcDbSymbolTableRecord
100
AcDbBlockTableRecord
  2
JZB-24
340
0
102
{BLKREFS
331
1D8
102
}
  0
BLOCK_RECORD
  5
15D
330
1
100
AcDbSymbolTableRecord
100
AcDbBlockTableRecord
  2
JZB-25
340
0
102
{BLKREFS
331
1D9
102
}
  0
BLOCK_RECORD
  5
167
330
1
100
AcDbSymbolTableRecord
100
AcDbBlockTableRecord
  2
JZB-26
340
0
102
{BLKREFS
331
1DA
102
}
  0
BLOCK_RECORD
  5
171
330
1
100
AcDbSymbolTableRecord
100
AcDbBlockTableRecord
  2
JZB-27
340
0
102
{BLKREFS
331
1DB
102
}
  0
BLOCK_RECORD
  5
17B
330
1
100
AcDbSymbolTableRecord
100
AcDbBlockTableRecord
  2
JZB-28
340
0
102
{BLKREFS
331
1DC
102
}
  0
BLOCK_RECORD
  5
185
330
1
100
AcDbSymbolTableRecord
100
AcDbBlockTableRecord
  2
JZB-29
340
0
102
{BLKREFS
331
1DD
102
}
  0
BLOCK_RECORD
  5
18F
330
1
100
AcDbSymbolTableRecord
100
AcDbBlockTableRecord
  2
JZB-30
340
0
102
{BLKREFS
331
1DE
102
}
  0
BLOCK_RECORD
  5
199
330
1
100
AcDbSymbolTableRecord
100
AcDbBlockTableRecord
  2
JZB-31
340
0
102
{BLKREFS
331
1DF
102
}
  0
BLOCK_RECORD
  5
1A3
330
1
100
AcDbSymbolTableRecord
100
AcDbBlockTableRecord
  2
JZB-32
340
0
102
{BLKREFS
331
1E0
102
}
  0
BLOCK_RECORD
  5
1AD
330
1
100
AcDbSymbolTableRecord
100
AcDbBlockTableRecord
  2
JZB-33
340
0
102
{BLKREFS
331
1E1
102
}
  0
BLOCK_RECORD
  5
1B7
330
1
100
AcDbSymbolTableRecord
100
AcDbBlockTableRecord
  2
JZB-34
340
0
102
{BLKREFS
331
1E2
102
}
  0
ENDTAB
  0
ENDSEC
  0
SECTION
  2
BLOCKS
  0
BLOCK
  5
20
330
1F
100
AcDbEntity
  8
0
100
AcDbBlockBegin
  2
*Model_Space
 70
     0
 10
0.0
 20
0.0
 30
0.0
  3
*Model_Space
  1

  0
ENDBLK
  5
21
330
1F
100
AcDbEntity
  8
0
100
AcDbBlockEnd
  0
BLOCK
  5
1C
330
1B
100
AcDbEntity
 67
     1
  8
0
100
AcDbBlockBegin
  2
*Paper_Space
 70
     0
 10
0.0
 20
0.0
 30
0.0
  3
*Paper_Space
  1

  0
ENDBLK
  5
1D
330
1B
100
AcDbEntity
 67
     1
  8
0
100
AcDbBlockEnd
  0
BLOCK
  5
24
330
23
100
AcDbEntity
  8
0
100
AcDbBlockBegin
  2
*Paper_Space0
 70
     0
 10
0.0
 20
0.0
 30
0.0
  3
*Paper_Space0
  1

  0
ENDBLK
  5
25
330
23
100
AcDbEntity
  8
0
100
AcDbBlockEnd
  0
BLOCK
  5
44
330
43
100
AcDbEntity
  8
0
100
AcDbBlockBegin
  2
JZB-1
 70
     0
 10
0.0
 20
0.0
 30
0.0
  3
JZB-1
  1

  0
LINE
  5
46
330
43
100
AcDbEntity
  8
003
 62
     3
370
    30
100
AcDbLine
 10
540.50172
 20
2485.359035
 30
0.0
 11
540.50172
 21
2480.551866
 31
0.0
  0
LINE
  5
47
330
43
100
AcDbEntity
  8
003
 62
     3
370
    30
100
AcDbLine
 10
539.30172
 20
2486.051855
 30
0.0
 11
526.70172
 21
2486.051855
 31
0.0
  0
LINE
  5
48
330
43
100
AcDbEntity
  8
003
 62
     3
370
    30
100
AcDbLine
 10
540.50172
 20
2480.551866
 30
0.0
 11
525.50172
 21
2480.551866
 31
0.0
  0
LINE
  5
49
330
43
100
AcDbEntity
  8
003
 62
     3
370
    30
100
AcDbLine
 10
539.30172
 20
2486.051855
 30
0.0
 11
540.50172
 21
2485.359035
 31
0.0
  0
LINE
  5
4A
330
43
100
AcDbEntity
  8
003
 62
     3
370
    30
100
AcDbLine
 10
526.70172
 20
2486.051855
 30
0.0
 11
525.50172
 21
2485.359035
 31
0.0
  0
LINE
  5
4B
330
43
100
AcDbEntity
  8
003
 62
     3
370
    30
100
AcDbLine
 10
525.50172
 20
2485.359035
 30
0.0
 11
525.50172
 21
2480.551866
 31
0.0
  0
LINE
  5
4C
330
43
100
AcDbEntity
  8
003
 62
     3
370
    30
100
AcDbLine
 10
536.75172
 20
2480.551866
 30
0.0
 11
536.75172
 21
2485.359035
 31
0.0
  0
LINE
  5
4D
330
43
100
AcDbEntity
  8
003
 62
     3
370
    30
100
AcDbLine
 10
529.25172
 20
2480.551866
 30
0.0
 11
529.25172
 21
2485.359035
 31
0.0
  0
ARC
  5
4E
330
43
100
AcDbEntity
  8
003
 62
     3
370
    30
100
AcDbCircle
 10
527.37672
 20
2483.168261
 30
0.0
 40
2.883593961663502
100
AcDbArc
 50
49.441037
 51
90.0
  0
ARC
  5
4F
330
43
100
AcDbEntity
  8
003
 62
     3
370
    30
100
AcDbCircle
 10
538.62672
 20
2483.168261
 30
0.0
 40
2.883593961663502
100
AcDbArc
 50
90.0
 51
130.558963
  0
ARC
  5
50
330
43
100
AcDbEntity
  8
003
 62
     3
370
    30
100
AcDbCircle
 10
533.00172
 20
2475.55671
 30
0.0
 40
10.4951453621126
100
AcDbArc
 50
69.065034
 51
110.934966
  0
LINE
  5
51
330
43
100
AcDbEntity
  8
003
 62
     3
370
    30
100
AcDbLine
 10
533.001715
 20
2480.551855
 30
0.0
 11
533.001715
 21
2480.551866
 31
0.0
  0
LINE
  5
52
330
43
100
AcDbEntity
  8
003
 62
     3
370
    30
100
AcDbLine
 10
533.001715
 20
2480.551855
 30
0.0
 11
533.001726
 21
2480.551855
 31
0.0
  0
LINE
  5
53
330
43
100
AcDbEntity
  8
003
 62
     3
370
    30
100
AcDbLine
 10
533.001726
 20
2480.551855
 30
0.0
 11
533.001726
 21
2480.551866
 31
0.0
  0
ENDBLK
  5
45
330
43
100
AcDbEntity
  8
0
100
AcDbBlockEnd
  0
BLOCK
  5
55
330
54
100
AcDbEntity
  8
0
100
AcDbBlockBegin
  2
JZB-2
 70
     0
 10
0.0
 20
0.0
 30
0.0
  3
JZB-2
  1

  0
LINE
  5
57
330
54
100
AcDbEntity
  8
003
 62
     3
370
    30
100
AcDbLine
 10
577.978641
 20
2485.359035
 30
0.0
 11
577.978641
 21
2480.551866
 31
0.0
  0
LINE
  5
58
330
54
100
AcDbEntity
  8
003
 62
     3
370
    30
100
AcDbLine
 10
576.778641
 20
2486.051855
 30
0.0
 11
564.178641
 21
2486.051855
 31
0.0
  0
LINE
  5
59
330
54
100
AcDbEntity
  8
003
 62
     3
370
    30
100
AcDbLine
 10
577.978641
 20
2480.551866
 30
0.0
 11
562.978641
 21
2480.551866
 31
0.0
  0
LINE
  5
5A
330
54
100
AcDbEntity
  8
003
 62
     3
370
    30
100
AcDbLine
 10
576.778641
 20
2486.051855
 30
0.0
 11
577.978641
 21
2485.359035
 31
0.0
  0
LINE
  5
5B
330
54
100
AcDbEntity
  8
003
 62
     3
370
    30
100
AcDbLine
 10
564.178641
 20
2486.051855
 30
0.0
 11
562.978641
 21
2485.359035
 31
0.0
  0
LINE
  5
5C
330
54
100
AcDbEntity
  8
003
 62
     3
370
    30
100
AcDbLine
 10
562.978641
 20
2485.359035
 30
0.0
 11
562.978641
 21
2480.551866
 31
0.0
  0
LINE
  5
5D
330
54
100
AcDbEntity
  8
003
 62
     3
370
    30
100
AcDbLine
 10
574.228641
 20
2480.551866
 30
0.0
 11
574.228641
 21
2485.359035
 31
0.0
  0
LINE
  5
5E
330
54
100
AcDbEntity
  8
003
 62
     3
370
    30
100
AcDbLine
 10
566.728641
 20
2480.551866
 30
0.0
 11
566.728641
 21
2485.359035
 31
0.0
  0
ARC
  5
5F
330
54
100
AcDbEntity
  8
003
 62
     3
370
    30
100
AcDbCircle
 10
564.853641
 20
2483.168261
 30
0.0
 40
2.883593961663502
100
AcDbArc
 50
49.441037
 51
90.0
  0
ARC
  5
60
330
54
100
AcDbEntity
  8
003
 62
     3
370
    30
100
AcDbCircle
 10
576.103641
 20
2483.168261
 30
0.0
 40
2.883593961663502
100
AcDbArc
 50
90.0
 51
130.558963
  0
ARC
  5
61
330
54
100
AcDbEntity
  8
003
 62
     3
370
    30
100
AcDbCircle
 10
570.478641
 20
2475.55671
 30
0.0
 40
10.4951453621126
100
AcDbArc
 50
69.065034
 51
110.934966
  0
LINE
  5
62
330
54
100
AcDbEntity
  8
003
 62
     3
370
    30
100
AcDbLine
 10
570.478636
 20
2480.551855
 30
0.0
 11
570.478636
 21
2480.551866
 31
0.0
  0
LINE
  5
63
330
54
100
AcDbEntity
  8
003
 62
     3
370
    30
100
AcDbLine
 10
570.478636
 20
2480.551855
 30
0.0
 11
570.478647
 21
2480.551855
 31
0.0
  0
LINE
  5
64
330
54
100
AcDbEntity
  8
003
 62
     3
370
    30
100
AcDbLine
 10
570.478647
 20
2480.551855
 30
0.0
 11
570.478647
 21
2480.551866
 31
0.0
  0
ENDBLK
  5
56
330
54
100
AcDbEntity
  8
0
100
AcDbBlockEnd
  0
BLOCK
  5
66
330
65
100
AcDbEntity
  8
0
100
AcDbBlockBegin
  2
JZB-3
 70
     0
 10
0.0
 20
0.0
 30
0.0
  3
JZB-3
  1

  0
LINE
  5
68
330
65
100
AcDbEntity
  8
003
 62
     3
370
    30
100
AcDbLine
 10
503.024799
 20
2485.359035
 30
0.0
 11
503.024799
 21
2480.551866
 31
0.0
  0
LINE
  5
69
330
65
100
AcDbEntity
  8
003
 62
     3
370
    30
100
AcDbLine
 10
501.824799
 20
2486.051855
 30
0.0
 11
489.224799
 21
2486.051855
 31
0.0
  0
LINE
  5
6A
330
65
100
AcDbEntity
  8
003
 62
     3
370
    30
100
AcDbLine
 10
501.824799
 20
2486.051855
 30
0.0
 11
503.024799
 21
2485.359035
 31
0.0
  0
LINE
  5
6B
330
65
100
AcDbEntity
  8
003
 62
     3
370
    30
100
AcDbLine
 10
489.224799
 20
2486.051855
 30
0.0
 11
488.024799
 21
2485.359035
 31
0.0
  0
LINE
  5
6C
330
65
100
AcDbEntity
  8
003
 62
     3
370
    30
100
AcDbLine
 10
499.274799
 20
2480.551866
 30
0.0
 11
499.274799
 21
2485.359035
 31
0.0
  0
ARC
  5
6D
330
65
100
AcDbEntity
  8
003
 62
     3
370
    30
100
AcDbCircle
 10
489.899799
 20
2483.168261
 30
0.0
 40
2.883593961663502
100
AcDbArc
 50
49.441037
 51
90.0
  0
ARC
  5
6E
330
65
100
AcDbEntity
  8
003
 62
     3
370
    30
100
AcDbCircle
 10
501.149799
 20
2483.168261
 30
0.0
 40
2.883593961663502
100
AcDbArc
 50
90.0
 51
130.558963
  0
ARC
  5
6F
330
65
100
AcDbEntity
  8
003
 62
     3
370
    30
100
AcDbCircle
 10
495.524799
 20
2475.55671
 30
0.0
 40
10.4951453621126
100
AcDbArc
 50
69.065034
 51
110.934966
  0
LINE
  5
70
330
65
100
AcDbEntity
  8
003
 62
     3
370
    30
100
AcDbLine
 10
495.524794
 20
2480.551855
 30
0.0
 11
495.524794
 21
2480.551866
 31
0.0
  0
LINE
  5
71
330
65
100
AcDbEntity
  8
003
 62
     3
370
    30
100
AcDbLine
 10
495.524794
 20
2480.551855
 30
0.0
 11
495.524805
 21
2480.551855
 31
0.0
  0
LINE
  5
72
330
65
100
AcDbEntity
  8
003
 62
     3
370
    30
100
AcDbLine
 10
495.524805
 20
2480.551855
 30
0.0
 11
495.524805
 21
2480.551866
 31
0.0
  0
LINE
  5
73
330
65
100
AcDbEntity
  8
003
 62
     3
370
    30
100
AcDbLine
 10
491.774799
 20
2481.289209
 30
0.0
 11
491.774799
 21
2485.359035
 31
0.0
  0
LINE
  5
74
330
65
100
AcDbEntity
  8
003
 62
     3
370
    30
100
AcDbLine
 10
488.024799
 20
2485.359035
 30
0.0
 11
488.024799
 21
2482.864742
 31
0.0
  0
LINE
  5
75
330
65
100
AcDbEntity
  8
003
 62
     3
370
    30
100
AcDbLine
 10
503.024799
 20
2480.551866
 30
0.0
 11
493.427341
 21
2480.551866
 31
0.0
  0
ENDBLK
  5
67
330
65
100
AcDbEntity
  8
0
100
AcDbBlockEnd
  0
BLOCK
  5
77
330
76
100
AcDbEntity
  8
0
100
AcDbBlockBegin
  2
JZB-4
 70
     0
 10
0.0
 20
0.0
 30
0.0
  3
JZB-4
  1

  0
LINE
  5
79
330
76
100
AcDbEntity
  8
003
 62
     3
370
    30
100
AcDbLine
 10
540.50172
 20
2231.744698
 30
0.0
 11
540.50172
 21
2236.551866
 31
0.0
  0
LINE
  5
7A
330
76
100
AcDbEntity
  8
003
 62
     3
370
    30
100
AcDbLine
 10
539.30172
 20
2231.051877
 30
0.0
 11
526.70172
 21
2231.051877
 31
0.0
  0
LINE
  5
7B
330
76
100
AcDbEntity
  8
003
 62
     3
370
    30
100
AcDbLine
 10
540.50172
 20
2236.551866
 30
0.0
 11
525.50172
 21
2236.551866
 31
0.0
  0
LINE
  5
7C
330
76
100
AcDbEntity
  8
003
 62
     3
370
    30
100
AcDbLine
 10
539.30172
 20
2231.051877
 30
0.0
 11
540.50172
 21
2231.744698
 31
0.0
  0
LINE
  5
7D
330
76
100
AcDbEntity
  8
003
 62
     3
370
    30
100
AcDbLine
 10
526.70172
 20
2231.051877
 30
0.0
 11
525.50172
 21
2231.744698
 31
0.0
  0
LINE
  5
7E
330
76
100
AcDbEntity
  8
003
 62
     3
370
    30
100
AcDbLine
 10
525.50172
 20
2231.744698
 30
0.0
 11
525.50172
 21
2236.551866
 31
0.0
  0
LINE
  5
7F
330
76
100
AcDbEntity
  8
003
 62
     3
370
    30
100
AcDbLine
 10
536.75172
 20
2236.551866
 30
0.0
 11
536.75172
 21
2231.744698
 31
0.0
  0
LINE
  5
80
330
76
100
AcDbEntity
  8
003
 62
     3
370
    30
100
AcDbLine
 10
529.25172
 20
2236.551866
 30
0.0
 11
529.25172
 21
2231.744698
 31
0.0
  0
ARC
  5
81
330
76
100
AcDbEntity
  8
003
 62
     3
370
    30
100
AcDbCircle
 10
527.37672
 20
2233.935471
 30
0.0
 40
2.883593961663502
100
AcDbArc
 50
270.0
 51
310.558963
  0
ARC
  5
82
330
76
100
AcDbEntity
  8
003
 62
     3
370
    30
100
AcDbCircle
 10
538.62672
 20
2233.935471
 30
0.0
 40
2.883593961663502
100
AcDbArc
 50
229.441037
 51
270.0
  0
ARC
  5
83
330
76
100
AcDbEntity
  8
003
 62
     3
370
    30
100
AcDbCircle
 10
533.00172
 20
2241.547023
 30
0.0
 40
10.4951453621126
100
AcDbArc
 50
249.065034
 51
290.934966
  0
LINE
  5
84
330
76
100
AcDbEntity
  8
003
 62
     3
370
    30
100
AcDbLine
 10
533.001715
 20
2236.551877
 30
0.0
 11
533.001715
 21
2236.551866
 31
0.0
  0
LINE
  5
85
330
76
100
AcDbEntity
  8
003
 62
     3
370
    30
100
AcDbLine
 10
533.001715
 20
2236.551877
 30
0.0
 11
533.001726
 21
2236.551877
 31
0.0
  0
LINE
  5
86
330
76
100
AcDbEntity
  8
003
 62
     3
370
    30
100
AcDbLine
 10
533.001726
 20
2236.551877
 30
0.0
 11
533.001726
 21
2236.551866
 31
0.0
  0
ENDBLK
  5
78
330
76
100
AcDbEntity
  8
0
100
AcDbBlockEnd
  0
BLOCK
  5
88
330
87
100
AcDbEntity
  8
0
100
AcDbBlockBegin
  2
JZB-5
 70
     0
 10
0.0
 20
0.0
 30
0.0
  3
JZB-5
  1

  0
LINE
  5
8A
330
87
100
AcDbEntity
  8
003
 62
     3
370
    30
100
AcDbLine
 10
577.978641
 20
2231.744698
 30
0.0
 11
577.978641
 21
2236.551866
 31
0.0
  0
LINE
  5
8B
330
87
100
AcDbEntity
  8
003
 62
     3
370
    30
100
AcDbLine
 10
576.778641
 20
2231.051877
 30
0.0
 11
564.178641
 21
2231.051877
 31
0.0
  0
LINE
  5
8C
330
87
100
AcDbEntity
  8
003
 62
     3
370
    30
100
AcDbLine
 10
577.978641
 20
2236.551866
 30
0.0
 11
562.978641
 21
2236.551866
 31
0.0
  0
LINE
  5
8D
330
87
100
AcDbEntity
  8
003
 62
     3
370
    30
100
AcDbLine
 10
576.778641
 20
2231.051877
 30
0.0
 11
577.978641
 21
2231.744698
 31
0.0
  0
LINE
  5
8E
330
87
100
AcDbEntity
  8
003
 62
     3
370
    30
100
AcDbLine
 10
564.178641
 20
2231.051877
 30
0.0
 11
562.978641
 21
2231.744698
 31
0.0
  0
LINE
  5
8F
330
87
100
AcDbEntity
  8
003
 62
     3
370
    30
100
AcDbLine
 10
562.978641
 20
2231.744698
 30
0.0
 11
562.978641
 21
2236.551866
 31
0.0
  0
LINE
  5
90
330
87
100
AcDbEntity
  8
003
 62
     3
370
    30
100
AcDbLine
 10
574.228641
 20
2236.551866
 30
0.0
 11
574.228641
 21
2231.744698
 31
0.0
  0
LINE
  5
91
330
87
100
AcDbEntity
  8
003
 62
     3
370
    30
100
AcDbLine
 10
566.728641
 20
2236.551866
 30
0.0
 11
566.728641
 21
2231.744698
 31
0.0
  0
ARC
  5
92
330
87
100
AcDbEntity
  8
003
 62
     3
370
    30
100
AcDbCircle
 10
564.853641
 20
2233.935471
 30
0.0
 40
2.883593961663502
100
AcDbArc
 50
270.0
 51
310.558963
  0
ARC
  5
93
330
87
100
AcDbEntity
  8
003
 62
     3
370
    30
100
AcDbCircle
 10
576.103641
 20
2233.935471
 30
0.0
 40
2.883593961663502
100
AcDbArc
 50
229.441037
 51
270.0
  0
ARC
  5
94
330
87
100
AcDbEntity
  8
003
 62
     3
370
    30
100
AcDbCircle
 10
570.478641
 20
2241.547023
 30
0.0
 40
10.4951453621126
100
AcDbArc
 50
249.065034
 51
290.934966
  0
LINE
  5
95
330
87
100
AcDbEntity
  8
003
 62
     3
370
    30
100
AcDbLine
 10
570.478636
 20
2236.551877
 30
0.0
 11
570.478636
 21
2236.551866
 31
0.0
  0
LINE
  5
96
330
87
100
AcDbEntity
  8
003
 62
     3
370
    30
100
AcDbLine
 10
570.478636
 20
2236.551877
 30
0.0
 11
570.478647
 21
2236.551877
 31
0.0
  0
LINE
  5
97
330
87
100
AcDbEntity
  8
003
 62
     3
370
    30
100
AcDbLine
 10
570.478647
 20
2236.551877
 30
0.0
 11
570.478647
 21
2236.551866
 31
0.0
  0
ENDBLK
  5
89
330
87
100
AcDbEntity
  8
0
100
AcDbBlockEnd
  0
BLOCK
  5
99
330
98
100
AcDbEntity
  8
0
100
AcDbBlockBegin
  2
JZB-6
 70
     0
 10
0.0
 20
0.0
 30
0.0
  3
JZB-6
  1

  0
LINE
  5
9B
330
98
100
AcDbEntity
  8
003
 62
     3
370
    30
100
AcDbLine
 10
503.024799
 20
2231.744698
 30
0.0
 11
503.024799
 21
2236.551866
 31
0.0
  0
LINE
  5
9C
330
98
100
AcDbEntity
  8
003
 62
     3
370
    30
100
AcDbLine
 10
501.824799
 20
2231.051877
 30
0.0
 11
489.224799
 21
2231.051877
 31
0.0
  0
LINE
  5
9D
330
98
100
AcDbEntity
  8
003
 62
     3
370
    30
100
AcDbLine
 10
501.824799
 20
2231.051877
 30
0.0
 11
503.024799
 21
2231.744698
 31
0.0
  0
LINE
  5
9E
330
98
100
AcDbEntity
  8
003
 62
     3
370
    30
100
AcDbLine
 10
489.224799
 20
2231.051877
 30
0.0
 11
488.024799
 21
2231.744698
 31
0.0
  0
LINE
  5
9F
330
98
100
AcDbEntity
  8
003
 62
     3
370
    30
100
AcDbLine
 10
499.274799
 20
2236.551866
 30
0.0
 11
499.274799
 21
2231.744698
 31
0.0
  0
ARC
  5
A0
330
98
100
AcDbEntity
  8
003
 62
     3
370
    30
100
AcDbCircle
 10
489.899799
 20
2233.935471
 30
0.0
 40
2.883593961663502
100
AcDbArc
 50
270.0
 51
310.558963
  0
ARC
  5
A1
330
98
100
AcDbEntity
  8
003
 62
     3
370
    30
100
AcDbCircle
 10
501.149799
 20
2233.935471
 30
0.0
 40
2.883593961663502
100
AcDbArc
 50
229.441037
 51
270.0
  0
ARC
  5
A2
330
98
100
AcDbEntity
  8
003
 62
     3
370
    30
100
AcDbCircle
 10
495.524799
 20
2241.547023
 30
0.0
 40
10.4951453621126
100
AcDbArc
 50
249.065034
 51
290.934966
  0
LINE
  5
A3
330
98
100
AcDbEntity
  8
003
 62
     3
370
    30
100
AcDbLine
 10
495.524794
 20
2236.551877
 30
0.0
 11
495.524794
 21
2236.551866
 31
0.0
  0
LINE
  5
A4
330
98
100
AcDbEntity
  8
003
 62
     3
370
    30
100
AcDbLine
 10
495.524794
 20
2236.551877
 30
0.0
 11
495.524805
 21
2236.551877
 31
0.0
  0
LINE
  5
A5
330
98
100
AcDbEntity
  8
003
 62
     3
370
    30
100
AcDbLine
 10
495.524805
 20
2236.551877
 30
0.0
 11
495.524805
 21
2236.551866
 31
0.0
  0
LINE
  5
A6
330
98
100
AcDbEntity
  8
003
 62
     3
370
    30
100
AcDbLine
 10
491.774799
 20
2235.814523
 30
0.0
 11
491.774799
 21
2231.744698
 31
0.0
  0
LINE
  5
A7
330
98
100
AcDbEntity
  8
003
 62
     3
370
    30
100
AcDbLine
 10
488.024799
 20
2231.744698
 30
0.0
 11
488.024799
 21
2234.238991
 31
0.0
  0
LINE
  5
A8
330
98
100
AcDbEntity
  8
003
 62
     3
370
    30
100
AcDbLine
 10
503.024799
 20
2236.551866
 30
0.0
 11
493.427341
 21
2236.551866
 31
0.0
  0
ENDBLK
  5
9A
330
98
100
AcDbEntity
  8
0
100
AcDbBlockEnd
  0
BLOCK
  5
AA
330
A9
100
AcDbEntity
  8
0
100
AcDbBlockBegin
  2
JZB-7
 70
     0
 10
0.0
 20
0.0
 30
0.0
  3
JZB-7
  1

  0
LINE
  5
AC
330
A9
100
AcDbEntity
  8
002
 62
     3
370
    30
100
AcDbLine
 10
526.501934
 20
355.511944
 30
0.0
 11
526.502235
 21
363.017498
 31
0.0
  0
LINE
  5
AD
330
A9
100
AcDbEntity
  8
002
 62
     3
370
    30
100
AcDbLine
 10
539.501934
 20
355.511422
 30
0.0
 11
539.502235
 21
363.016976
 31
0.0
  0
LINE
  5
AE
330
A9
100
AcDbEntity
  8
002
 62
     3
370
    30
100
AcDbLine
 10
533.001783
 20
351.758907
 30
0.0
 11
539.501934
 21
355.511422
 31
0.0
  0
LINE
  5
AF
330
A9
100
AcDbEntity
  8
002
 62
     3
370
    30
100
AcDbLine
 10
533.002386
 20
366.770014
 30
0.0
 11
526.502235
 21
363.017498
 31
0.0
  0
LINE
  5
B0
330
A9
100
AcDbEntity
  8
002
 62
     3
370
    30
100
AcDbLine
 10
539.502235
 20
363.016976
 30
0.0
 11
533.002386
 21
366.770014
 31
0.0
  0
LINE
  5
B1
330
A9
100
AcDbEntity
  8
002
 62
     3
370
    30
100
AcDbLine
 10
526.501934
 20
355.511944
 30
0.0
 11
533.001783
 21
351.758907
 31
0.0
  0
CIRCLE
  5
B2
330
A9
100
AcDbEntity
  8
002
 62
     3
370
    30
100
AcDbCircle
 10
533.002084
 20
359.26446
 30
0.0
 40
6.5
  0
ENDBLK
  5
AB
330
A9
100
AcDbEntity
  8
0
100
AcDbBlockEnd
  0
BLOCK
  5
B4
330
B3
100
AcDbEntity
  8
0
100
AcDbBlockBegin
  2
JZB-8
 70
     0
 10
0.0
 20
0.0
 30
0.0
  3
JZB-8
  1

  0
LINE
  5
B6
330
B3
100
AcDbEntity
  8
002
 62
     3
370
    30
100
AcDbLine
 10
493.582445
 20
336.491651
 30
0.0
 11
488.275431
 21
341.799092
 31
0.0
  0
LINE
  5
B7
330
B3
100
AcDbEntity
  8
002
 62
     3
370
    30
100
AcDbLine
 10
502.775203
 20
345.68367
 30
0.0
 11
497.468188
 21
350.991111
 31
0.0
  0
LINE
  5
B8
330
B3
100
AcDbEntity
  8
002
 62
     3
370
    30
100
AcDbLine
 10
500.832331
 20
338.43394
 30
0.0
 11
502.775203
 21
345.68367
 31
0.0
  0
LINE
  5
B9
330
B3
100
AcDbEntity
  8
002
 62
     3
370
    30
100
AcDbLine
 10
490.218302
 20
349.048822
 30
0.0
 11
488.275431
 21
341.799092
 31
0.0
  0
LINE
  5
BA
330
B3
100
AcDbEntity
  8
002
 62
     3
370
    30
100
AcDbLine
 10
497.468188
 20
350.991111
 30
0.0
 11
490.218302
 21
349.048822
 31
0.0
  0
LINE
  5
BB
330
B3
100
AcDbEntity
  8
002
 62
     3
370
    30
100
AcDbLine
 10
493.582445
 20
336.491651
 30
0.0
 11
500.832331
 21
338.43394
 31
0.0
  0
CIRCLE
  5
BC
330
B3
100
AcDbEntity
  8
002
 62
     3
370
    30
100
AcDbCircle
 10
495.525317
 20
343.741381
 30
0.0
 40
6.5
  0
ENDBLK
  5
B5
330
B3
100
AcDbEntity
  8
0
100
AcDbBlockEnd
  0
BLOCK
  5
BE
330
BD
100
AcDbEntity
  8
0
100
AcDbBlockBegin
  2
JZB-9
 70
     0
 10
0.0
 20
0.0
 30
0.0
  3
JZB-9
  1

  0
LINE
  5
C0
330
BD
100
AcDbEntity
  8
002
 62
     3
370
    30
100
AcDbLine
 10
483.75423
 20
299.764679
 30
0.0
 11
476.248677
 21
299.764981
 31
0.0
  0
LINE
  5
C1
330
BD
100
AcDbEntity
  8
002
 62
     3
370
    30
100
AcDbLine
 10
483.754752
 20
312.764679
 30
0.0
 11
476.249199
 21
312.76498
 31
0.0
  0
LINE
  5
C2
330
BD
100
AcDbEntity
  8
002
 62
     3
370
    30
100
AcDbLine
 10
487.507268
 20
306.264528
 30
0.0
 11
483.754752
 21
312.764679
 31
0.0
  0
LINE
  5
C3
330
BD
100
AcDbEntity
  8
002
 62
     3
370
    30
100
AcDbLine
 10
472.496161
 20
306.265131
 30
0.0
 11
476.248677
 21
299.764981
 31
0.0
  0
LINE
  5
C4
330
BD
100
AcDbEntity
  8
002
 62
     3
370
    30
100
AcDbLine
 10
476.249199
 20
312.76498
 30
0.0
 11
472.496161
 21
306.265131
 31
0.0
  0
LINE
  5
C5
330
BD
100
AcDbEntity
  8
002
 62
     3
370
    30
100
AcDbLine
 10
483.75423
 20
299.764679
 30
0.0
 11
487.507268
 21
306.264528
 31
0.0
  0
CIRCLE
  5
C6
330
BD
100
AcDbEntity
  8
002
 62
     3
370
    30
100
AcDbCircle
 10
480.001715
 20
306.26483
 30
0.0
 40
6.5
  0
ENDBLK
  5
BF
330
BD
100
AcDbEntity
  8
0
100
AcDbBlockEnd
  0
BLOCK
  5
C8
330
C7
100
AcDbEntity
  8
0
100
AcDbBlockBegin
  2
JZB-10
 70
     0
 10
0.0
 20
0.0
 30
0.0
  3
JZB-10
  1

  0
LINE
  5
CA
330
C7
100
AcDbEntity
  8
002
 62
     3
370
    30
100
AcDbLine
 10
502.774524
 20
266.845191
 30
0.0
 11
497.467083
 21
261.538176
 31
0.0
  0
LINE
  5
CB
330
C7
100
AcDbEntity
  8
002
 62
     3
370
    30
100
AcDbLine
 10
493.582505
 20
276.037948
 30
0.0
 11
488.275064
 21
270.730933
 31
0.0
  0
LINE
  5
CC
330
C7
100
AcDbEntity
  8
002
 62
     3
370
    30
100
AcDbLine
 10
500.832235
 20
274.095077
 30
0.0
 11
493.582505
 21
276.037948
 31
0.0
  0
LINE
  5
CD
330
C7
100
AcDbEntity
  8
002
 62
     3
370
    30
100
AcDbLine
 10
490.217353
 20
263.481047
 30
0.0
 11
497.467083
 21
261.538176
 31
0.0
  0
LINE
  5
CE
330
C7
100
AcDbEntity
  8
002
 62
     3
370
    30
100
AcDbLine
 10
488.275064
 20
270.730933
 30
0.0
 11
490.217353
 21
263.481047
 31
0.0
  0
LINE
  5
CF
330
C7
100
AcDbEntity
  8
002
 62
     3
370
    30
100
AcDbLine
 10
502.774524
 20
266.845191
 30
0.0
 11
500.832235
 21
274.095077
 31
0.0
  0
CIRCLE
  5
D0
330
C7
100
AcDbEntity
  8
002
 62
     3
370
    30
100
AcDbCircle
 10
495.524794
 20
268.788062
 30
0.0
 40
6.5
  0
ENDBLK
  5
C9
330
C7
100
AcDbEntity
  8
0
100
AcDbBlockEnd
  0
BLOCK
  5
D2
330
D1
100
AcDbEntity
  8
0
100
AcDbBlockBegin
  2
JZB-11
 70
     0
 10
0.0
 20
0.0
 30
0.0
  3
JZB-11
  1

  0
LINE
  5
D4
330
D1
100
AcDbEntity
  8
002
 62
     3
370
    30
100
AcDbLine
 10
539.501496
 20
257.016976
 30
0.0
 11
539.501194
 21
249.511422
 31
0.0
  0
LINE
  5
D5
330
D1
100
AcDbEntity
  8
002
 62
     3
370
    30
100
AcDbLine
 10
526.501496
 20
257.017498
 30
0.0
 11
526.501194
 21
249.511944
 31
0.0
  0
LINE
  5
D6
330
D1
100
AcDbEntity
  8
002
 62
     3
370
    30
100
AcDbLine
 10
533.001646
 20
260.770014
 30
0.0
 11
526.501496
 21
257.017498
 31
0.0
  0
LINE
  5
D7
330
D1
100
AcDbEntity
  8
002
 62
     3
370
    30
100
AcDbLine
 10
533.001044
 20
245.758907
 30
0.0
 11
539.501194
 21
249.511422
 31
0.0
  0
LINE
  5
D8
330
D1
100
AcDbEntity
  8
002
 62
     3
370
    30
100
AcDbLine
 10
526.501194
 20
249.511944
 30
0.0
 11
533.001044
 21
245.758907
 31
0.0
  0
LINE
  5
D9
330
D1
100
AcDbEntity
  8
002
 62
     3
370
    30
100
AcDbLine
 10
539.501496
 20
257.016976
 30
0.0
 11
533.001646
 21
260.770014
 31
0.0
  0
CIRCLE
  5
DA
330
D1
100
AcDbEntity
  8
002
 62
     3
370
    30
100
AcDbCircle
 10
533.001345
 20
253.26446
 30
0.0
 40
6.5
  0
ENDBLK
  5
D3
330
D1
100
AcDbEntity
  8
0
100
AcDbBlockEnd
  0
BLOCK
  5
DC
330
DB
100
AcDbEntity
  8
0
100
AcDbBlockBegin
  2
JZB-12
 70
     0
 10
0.0
 20
0.0
 30
0.0
  3
JZB-12
  1

  0
LINE
  5
DE
330
DB
100
AcDbEntity
  8
002
 62
     3
370
    30
100
AcDbLine
 10
572.420984
 20
276.037269
 30
0.0
 11
577.727999
 21
270.729828
 31
0.0
  0
LINE
  5
DF
330
DB
100
AcDbEntity
  8
002
 62
     3
370
    30
100
AcDbLine
 10
563.228227
 20
266.84525
 30
0.0
 11
568.535241
 21
261.537809
 31
0.0
  0
LINE
  5
E0
330
DB
100
AcDbEntity
  8
002
 62
     3
370
    30
100
AcDbLine
 10
565.171098
 20
274.09498
 30
0.0
 11
563.228227
 21
266.84525
 31
0.0
  0
LINE
  5
E1
330
DB
100
AcDbEntity
  8
002
 62
     3
370
    30
100
AcDbLine
 10
575.785127
 20
263.480098
 30
0.0
 11
577.727999
 21
270.729828
 31
0.0
  0
LINE
  5
E2
330
DB
100
AcDbEntity
  8
002
 62
     3
370
    30
100
AcDbLine
 10
568.535241
 20
261.537809
 30
0.0
 11
575.785127
 21
263.480098
 31
0.0
  0
LINE
  5
E3
330
DB
100
AcDbEntity
  8
002
 62
     3
370
    30
100
AcDbLine
 10
572.420984
 20
276.037269
 30
0.0
 11
565.171098
 21
274.09498
 31
0.0
  0
CIRCLE
  5
E4
330
DB
100
AcDbEntity
  8
002
 62
     3
370
    30
100
AcDbCircle
 10
570.478113
 20
268.787539
 30
0.0
 40
6.5
  0
ENDBLK
  5
DD
330
DB
100
AcDbEntity
  8
0
100
AcDbBlockEnd
  0
BLOCK
  5
E6
330
E5
100
AcDbEntity
  8
0
100
AcDbBlockBegin
  2
JZB-13
 70
     0
 10
0.0
 20
0.0
 30
0.0
  3
JZB-13
  1

  0
LINE
  5
E8
330
E5
100
AcDbEntity
  8
002
 62
     3
370
    30
100
AcDbLine
 10
563.228906
 20
345.683729
 30
0.0
 11
568.536346
 21
350.990744
 31
0.0
  0
LINE
  5
E9
330
E5
100
AcDbEntity
  8
002
 62
     3
370
    30
100
AcDbLine
 10
572.420925
 20
336.490972
 30
0.0
 11
577.728365
 21
341.797987
 31
0.0
  0
LINE
  5
EA
330
E5
100
AcDbEntity
  8
002
 62
     3
370
    30
100
AcDbLine
 10
565.171195
 20
338.433843
 30
0.0
 11
572.420925
 21
336.490972
 31
0.0
  0
LINE
  5
EB
330
E5
100
AcDbEntity
  8
002
 62
     3
370
    30
100
AcDbLine
 10
575.786076
 20
349.047873
 30
0.0
 11
568.536346
 21
350.990744
 31
0.0
  0
LINE
  5
EC
330
E5
100
AcDbEntity
  8
002
 62
     3
370
    30
100
AcDbLine
 10
577.728365
 20
341.797987
 30
0.0
 11
575.786076
 21
349.047873
 31
0.0
  0
LINE
  5
ED
330
E5
100
AcDbEntity
  8
002
 62
     3
370
    30
100
AcDbLine
 10
563.228906
 20
345.683729
 30
0.0
 11
565.171195
 21
338.433843
 31
0.0
  0
CIRCLE
  5
EE
330
E5
100
AcDbEntity
  8
002
 62
     3
370
    30
100
AcDbCircle
 10
570.478636
 20
343.740858
 30
0.0
 40
6.5
  0
ENDBLK
  5
E7
330
E5
100
AcDbEntity
  8
0
100
AcDbBlockEnd
  0
BLOCK
  5
F0
330
EF
100
AcDbEntity
  8
0
100
AcDbBlockBegin
  2
JZB-14
 70
     0
 10
0.0
 20
0.0
 30
0.0
  3
JZB-14
  1

  0
LINE
  5
F2
330
EF
100
AcDbEntity
  8
002
 62
     3
370
    30
100
AcDbLine
 10
976.501934
 20
355.511944
 30
0.0
 11
976.502235
 21
363.017498
 31
0.0
  0
LINE
  5
F3
330
EF
100
AcDbEntity
  8
002
 62
     3
370
    30
100
AcDbLine
 10
989.501934
 20
355.511422
 30
0.0
 11
989.502235
 21
363.016976
 31
0.0
  0
LINE
  5
F4
330
EF
100
AcDbEntity
  8
002
 62
     3
370
    30
100
AcDbLine
 10
983.001783
 20
351.758907
 30
0.0
 11
989.501934
 21
355.511422
 31
0.0
  0
LINE
  5
F5
330
EF
100
AcDbEntity
  8
002
 62
     3
370
    30
100
AcDbLine
 10
983.002386
 20
366.770014
 30
0.0
 11
976.502235
 21
363.017498
 31
0.0
  0
LINE
  5
F6
330
EF
100
AcDbEntity
  8
002
 62
     3
370
    30
100
AcDbLine
 10
989.502235
 20
363.016976
 30
0.0
 11
983.002386
 21
366.770014
 31
0.0
  0
LINE
  5
F7
330
EF
100
AcDbEntity
  8
002
 62
     3
370
    30
100
AcDbLine
 10
976.501934
 20
355.511944
 30
0.0
 11
983.001783
 21
351.758907
 31
0.0
  0
CIRCLE
  5
F8
330
EF
100
AcDbEntity
  8
002
 62
     3
370
    30
100
AcDbCircle
 10
983.002084
 20
359.26446
 30
0.0
 40
6.5
  0
ENDBLK
  5
F1
330
EF
100
AcDbEntity
  8
0
100
AcDbBlockEnd
  0
BLOCK
  5
FA
330
F9
100
AcDbEntity
  8
0
100
AcDbBlockBegin
  2
JZB-15
 70
     0
 10
0.0
 20
0.0
 30
0.0
  3
JZB-15
  1

  0
LINE
  5
FC
330
F9
100
AcDbEntity
  8
002
 62
     3
370
    30
100
AcDbLine
 10
943.582445
 20
336.491651
 30
0.0
 11
938.275431
 21
341.799092
 31
0.0
  0
LINE
  5
FD
330
F9
100
AcDbEntity
  8
002
 62
     3
370
    30
100
AcDbLine
 10
952.775203
 20
345.68367
 30
0.0
 11
947.468188
 21
350.991111
 31
0.0
  0
LINE
  5
FE
330
F9
100
AcDbEntity
  8
002
 62
     3
370
    30
100
AcDbLine
 10
950.832331
 20
338.43394
 30
0.0
 11
952.775203
 21
345.68367
 31
0.0
  0
LINE
  5
FF
330
F9
100
AcDbEntity
  8
002
 62
     3
370
    30
100
AcDbLine
 10
940.218302
 20
349.048822
 30
0.0
 11
938.275431
 21
341.799092
 31
0.0
  0
LINE
  5
100
330
F9
100
AcDbEntity
  8
002
 62
     3
370
    30
100
AcDbLine
 10
947.468188
 20
350.991111
 30
0.0
 11
940.218302
 21
349.048822
 31
0.0
  0
LINE
  5
101
330
F9
100
AcDbEntity
  8
002
 62
     3
370
    30
100
AcDbLine
 10
943.582445
 20
336.491651
 30
0.0
 11
950.832331
 21
338.43394
 31
0.0
  0
CIRCLE
  5
102
330
F9
100
AcDbEntity
  8
002
 62
     3
370
    30
100
AcDbCircle
 10
945.525317
 20
343.741381
 30
0.0
 40
6.5
  0
ENDBLK
  5
FB
330
F9
100
AcDbEntity
  8
0
100
AcDbBlockEnd
  0
BLOCK
  5
104
330
103
100
AcDbEntity
  8
0
100
AcDbBlockBegin
  2
JZB-16
 70
     0
 10
0.0
 20
0.0
 30
0.0
  3
JZB-16
  1

  0
LINE
  5
106
330
103
100
AcDbEntity
  8
002
 62
     3
370
    30
100
AcDbLine
 10
933.75423
 20
299.764679
 30
0.0
 11
926.248677
 21
299.764981
 31
0.0
  0
LINE
  5
107
330
103
100
AcDbEntity
  8
002
 62
     3
370
    30
100
AcDbLine
 10
933.754752
 20
312.764679
 30
0.0
 11
926.249199
 21
312.76498
 31
0.0
  0
LINE
  5
108
330
103
100
AcDbEntity
  8
002
 62
     3
370
    30
100
AcDbLine
 10
937.507268
 20
306.264528
 30
0.0
 11
933.754752
 21
312.764679
 31
0.0
  0
LINE
  5
109
330
103
100
AcDbEntity
  8
002
 62
     3
370
    30
100
AcDbLine
 10
922.496161
 20
306.265131
 30
0.0
 11
926.248677
 21
299.764981
 31
0.0
  0
LINE
  5
10A
330
103
100
AcDbEntity
  8
002
 62
     3
370
    30
100
AcDbLine
 10
926.249199
 20
312.76498
 30
0.0
 11
922.496161
 21
306.265131
 31
0.0
  0
LINE
  5
10B
330
103
100
AcDbEntity
  8
002
 62
     3
370
    30
100
AcDbLine
 10
933.75423
 20
299.764679
 30
0.0
 11
937.507268
 21
306.264528
 31
0.0
  0
CIRCLE
  5
10C
330
103
100
AcDbEntity
  8
002
 62
     3
370
    30
100
AcDbCircle
 10
930.001715
 20
306.26483
 30
0.0
 40
6.5
  0
ENDBLK
  5
105
330
103
100
AcDbEntity
  8
0
100
AcDbBlockEnd
  0
BLOCK
  5
10E
330
10D
100
AcDbEntity
  8
0
100
AcDbBlockBegin
  2
JZB-17
 70
     0
 10
0.0
 20
0.0
 30
0.0
  3
JZB-17
  1

  0
LINE
  5
110
330
10D
100
AcDbEntity
  8
002
 62
     3
370
    30
100
AcDbLine
 10
952.774524
 20
266.845191
 30
0.0
 11
947.467083
 21
261.538176
 31
0.0
  0
LINE
  5
111
330
10D
100
AcDbEntity
  8
002
 62
     3
370
    30
100
AcDbLine
 10
943.582505
 20
276.037948
 30
0.0
 11
938.275064
 21
270.730933
 31
0.0
  0
LINE
  5
112
330
10D
100
AcDbEntity
  8
002
 62
     3
370
    30
100
AcDbLine
 10
950.832235
 20
274.095077
 30
0.0
 11
943.582505
 21
276.037948
 31
0.0
  0
LINE
  5
113
330
10D
100
AcDbEntity
  8
002
 62
     3
370
    30
100
AcDbLine
 10
940.217353
 20
263.481047
 30
0.0
 11
947.467083
 21
261.538176
 31
0.0
  0
LINE
  5
114
330
10D
100
AcDbEntity
  8
002
 62
     3
370
    30
100
AcDbLine
 10
938.275064
 20
270.730933
 30
0.0
 11
940.217353
 21
263.481047
 31
0.0
  0
LINE
  5
115
330
10D
100
AcDbEntity
  8
002
 62
     3
370
    30
100
AcDbLine
 10
952.774524
 20
266.845191
 30
0.0
 11
950.832235
 21
274.095077
 31
0.0
  0
CIRCLE
  5
116
330
10D
100
AcDbEntity
  8
002
 62
     3
370
    30
100
AcDbCircle
 10
945.524794
 20
268.788062
 30
0.0
 40
6.5
  0
ENDBLK
  5
10F
330
10D
100
AcDbEntity
  8
0
100
AcDbBlockEnd
  0
BLOCK
  5
118
330
117
100
AcDbEntity
  8
0
100
AcDbBlockBegin
  2
JZB-18
 70
     0
 10
0.0
 20
0.0
 30
0.0
  3
JZB-18
  1

  0
LINE
  5
11A
330
117
100
AcDbEntity
  8
002
 62
     3
370
    30
100
AcDbLine
 10
989.501496
 20
257.016976
 30
0.0
 11
989.501194
 21
249.511422
 31
0.0
  0
LINE
  5
11B
330
117
100
AcDbEntity
  8
002
 62
     3
370
    30
100
AcDbLine
 10
976.501496
 20
257.017498
 30
0.0
 11
976.501194
 21
249.511944
 31
0.0
  0
LINE
  5
11C
330
117
100
AcDbEntity
  8
002
 62
     3
370
    30
100
AcDbLine
 10
983.001646
 20
260.770014
 30
0.0
 11
976.501496
 21
257.017498
 31
0.0
  0
LINE
  5
11D
330
117
100
AcDbEntity
  8
002
 62
     3
370
    30
100
AcDbLine
 10
983.001044
 20
245.758907
 30
0.0
 11
989.501194
 21
249.511422
 31
0.0
  0
LINE
  5
11E
330
117
100
AcDbEntity
  8
002
 62
     3
370
    30
100
AcDbLine
 10
976.501194
 20
249.511944
 30
0.0
 11
983.001044
 21
245.758907
 31
0.0
  0
LINE
  5
11F
330
117
100
AcDbEntity
  8
002
 62
     3
370
    30
100
AcDbLine
 10
989.501496
 20
257.016976
 30
0.0
 11
983.001646
 21
260.770014
 31
0.0
  0
CIRCLE
  5
120
330
117
100
AcDbEntity
  8
002
 62
     3
370
    30
100
AcDbCircle
 10
983.001345
 20
253.26446
 30
0.0
 40
6.5
  0
ENDBLK
  5
119
330
117
100
AcDbEntity
  8
0
100
AcDbBlockEnd
  0
BLOCK
  5
122
330
121
100
AcDbEntity
  8
0
100
AcDbBlockBegin
  2
JZB-19
 70
     0
 10
0.0
 20
0.0
 30
0.0
  3
JZB-19
  1

  0
LINE
  5
124
330
121
100
AcDbEntity
  8
002
 62
     3
370
    30
100
AcDbLine
 10
1022.420984
 20
276.037269
 30
0.0
 11
1027.727999
 21
270.729828
 31
0.0
  0
LINE
  5
125
330
121
100
AcDbEntity
  8
002
 62
     3
370
    30
100
AcDbLine
 10
1013.228227
 20
266.84525
 30
0.0
 11
1018.535241
 21
261.537809
 31
0.0
  0
LINE
  5
126
330
121
100
AcDbEntity
  8
002
 62
     3
370
    30
100
AcDbLine
 10
1015.171098
 20
274.09498
 30
0.0
 11
1013.228227
 21
266.84525
 31
0.0
  0
LINE
  5
127
330
121
100
AcDbEntity
  8
002
 62
     3
370
    30
100
AcDbLine
 10
1025.785127
 20
263.480098
 30
0.0
 11
1027.727999
 21
270.729828
 31
0.0
  0
LINE
  5
128
330
121
100
AcDbEntity
  8
002
 62
     3
370
    30
100
AcDbLine
 10
1018.535241
 20
261.537809
 30
0.0
 11
1025.785127
 21
263.480098
 31
0.0
  0
LINE
  5
129
330
121
100
AcDbEntity
  8
002
 62
     3
370
    30
100
AcDbLine
 10
1022.420984
 20
276.037269
 30
0.0
 11
1015.171098
 21
274.09498
 31
0.0
  0
CIRCLE
  5
12A
330
121
100
AcDbEntity
  8
002
 62
     3
370
    30
100
AcDbCircle
 10
1020.478113
 20
268.787539
 30
0.0
 40
6.5
  0
ENDBLK
  5
123
330
121
100
AcDbEntity
  8
0
100
AcDbBlockEnd
  0
BLOCK
  5
12C
330
12B
100
AcDbEntity
  8
0
100
AcDbBlockBegin
  2
JZB-20
 70
     0
 10
0.0
 20
0.0
 30
0.0
  3
JZB-20
  1

  0
LINE
  5
12E
330
12B
100
AcDbEntity
  8
002
 62
     3
370
    30
100
AcDbLine
 10
1013.228906
 20
345.683729
 30
0.0
 11
1018.536346
 21
350.990744
 31
0.0
  0
LINE
  5
12F
330
12B
100
AcDbEntity
  8
002
 62
     3
370
    30
100
AcDbLine
 10
1022.420925
 20
336.490972
 30
0.0
 11
1027.728365
 21
341.797987
 31
0.0
  0
LINE
  5
130
330
12B
100
AcDbEntity
  8
002
 62
     3
370
    30
100
AcDbLine
 10
1015.171195
 20
338.433843
 30
0.0
 11
1022.420925
 21
336.490972
 31
0.0
  0
LINE
  5
131
330
12B
100
AcDbEntity
  8
002
 62
     3
370
    30
100
AcDbLine
 10
1025.786076
 20
349.047873
 30
0.0
 11
1018.536346
 21
350.990744
 31
0.0
  0
LINE
  5
132
330
12B
100
AcDbEntity
  8
002
 62
     3
370
    30
100
AcDbLine
 10
1027.728365
 20
341.797987
 30
0.0
 11
1025.786076
 21
349.047873
 31
0.0
  0
LINE
  5
133
330
12B
100
AcDbEntity
  8
002
 62
     3
370
    30
100
AcDbLine
 10
1013.228906
 20
345.683729
 30
0.0
 11
1015.171195
 21
338.433843
 31
0.0
  0
CIRCLE
  5
134
330
12B
100
AcDbEntity
  8
002
 62
     3
370
    30
100
AcDbCircle
 10
1020.478636
 20
343.740858
 30
0.0
 40
6.5
  0
ENDBLK
  5
12D
330
12B
100
AcDbEntity
  8
0
100
AcDbBlockEnd
  0
BLOCK
  5
136
330
135
100
AcDbEntity
  8
0
100
AcDbBlockBegin
  2
JZB-21
 70
     0
 10
0.0
 20
0.0
 30
0.0
  3
JZB-21
  1

  0
LINE
  5
138
330
135
100
AcDbEntity
  8
002
 62
     3
370
    30
100
AcDbLine
 10
1493.707272
 20
993.254524
 30
0.0
 11
1493.707573
 21
1000.760077
 31
0.0
  0
LINE
  5
139
330
135
100
AcDbEntity
  8
002
 62
     3
370
    30
100
AcDbLine
 10
1506.707272
 20
993.254002
 30
0.0
 11
1506.707573
 21
1000.759555
 31
0.0
  0
LINE
  5
13A
330
135
100
AcDbEntity
  8
002
 62
     3
370
    30
100
AcDbLine
 10
1500.207121
 20
989.501486
 30
0.0
 11
1506.707272
 21
993.254002
 31
0.0
  0
LINE
  5
13B
330
135
100
AcDbEntity
  8
002
 62
     3
370
    30
100
AcDbLine
 10
1500.207724
 20
1004.512593
 30
0.0
 11
1493.707573
 21
1000.760077
 31
0.0
  0
LINE
  5
13C
330
135
100
AcDbEntity
  8
002
 62
     3
370
    30
100
AcDbLine
 10
1506.707573
 20
1000.759555
 30
0.0
 11
1500.207724
 21
1004.512593
 31
0.0
  0
LINE
  5
13D
330
135
100
AcDbEntity
  8
002
 62
     3
370
    30
100
AcDbLine
 10
1493.707272
 20
993.254524
 30
0.0
 11
1500.207121
 21
989.501486
 31
0.0
  0
CIRCLE
  5
13E
330
135
100
AcDbEntity
  8
002
 62
     3
370
    30
100
AcDbCircle
 10
1500.207422
 20
997.007039
 30
0.0
 40
6.5
  0
ENDBLK
  5
137
330
135
100
AcDbEntity
  8
0
100
AcDbBlockEnd
  0
BLOCK
  5
140
330
13F
100
AcDbEntity
  8
0
100
AcDbBlockBegin
  2
JZB-22
 70
     0
 10
0.0
 20
0.0
 30
0.0
  3
JZB-22
  1

  0
LINE
  5
142
330
13F
100
AcDbEntity
  8
002
 62
     3
370
    30
100
AcDbLine
 10
1460.787783
 20
974.23423
 30
0.0
 11
1455.480769
 21
979.541671
 31
0.0
  0
LINE
  5
143
330
13F
100
AcDbEntity
  8
002
 62
     3
370
    30
100
AcDbLine
 10
1469.980541
 20
983.426249
 30
0.0
 11
1464.673526
 21
988.73369
 31
0.0
  0
LINE
  5
144
330
13F
100
AcDbEntity
  8
002
 62
     3
370
    30
100
AcDbLine
 10
1468.037669
 20
976.176519
 30
0.0
 11
1469.980541
 21
983.426249
 31
0.0
  0
LINE
  5
145
330
13F
100
AcDbEntity
  8
002
 62
     3
370
    30
100
AcDbLine
 10
1457.42364
 20
986.791401
 30
0.0
 11
1455.480769
 21
979.541671
 31
0.0
  0
LINE
  5
146
330
13F
100
AcDbEntity
  8
002
 62
     3
370
    30
100
AcDbLine
 10
1464.673526
 20
988.73369
 30
0.0
 11
1457.42364
 21
986.791401
 31
0.0
  0
LINE
  5
147
330
13F
100
AcDbEntity
  8
002
 62
     3
370
    30
100
AcDbLine
 10
1460.787783
 20
974.23423
 30
0.0
 11
1468.037669
 21
976.176519
 31
0.0
  0
CIRCLE
  5
148
330
13F
100
AcDbEntity
  8
002
 62
     3
370
    30
100
AcDbCircle
 10
1462.730655
 20
981.48396
 30
0.0
 40
6.5
  0
ENDBLK
  5
141
330
13F
100
AcDbEntity
  8
0
100
AcDbBlockEnd
  0
BLOCK
  5
14A
330
149
100
AcDbEntity
  8
0
100
AcDbBlockBegin
  2
JZB-23
 70
     0
 10
0.0
 20
0.0
 30
0.0
  3
JZB-23
  1

  0
LINE
  5
14C
330
149
100
AcDbEntity
  8
002
 62
     3
370
    30
100
AcDbLine
 10
1450.959569
 20
937.507258
 30
0.0
 11
1443.454015
 21
937.50756
 31
0.0
  0
LINE
  5
14D
330
149
100
AcDbEntity
  8
002
 62
     3
370
    30
100
AcDbLine
 10
1450.960091
 20
950.507258
 30
0.0
 11
1443.454537
 21
950.50756
 31
0.0
  0
LINE
  5
14E
330
149
100
AcDbEntity
  8
002
 62
     3
370
    30
100
AcDbLine
 10
1454.712606
 20
944.007108
 30
0.0
 11
1450.960091
 21
950.507258
 31
0.0
  0
LINE
  5
14F
330
149
100
AcDbEntity
  8
002
 62
     3
370
    30
100
AcDbLine
 10
1439.701499
 20
944.007711
 30
0.0
 11
1443.454015
 21
937.50756
 31
0.0
  0
LINE
  5
150
330
149
100
AcDbEntity
  8
002
 62
     3
370
    30
100
AcDbLine
 10
1443.454537
 20
950.50756
 30
0.0
 11
1439.701499
 21
944.007711
 31
0.0
  0
LINE
  5
151
330
149
100
AcDbEntity
  8
002
 62
     3
370
    30
100
AcDbLine
 10
1450.959569
 20
937.507258
 30
0.0
 11
1454.712606
 21
944.007108
 31
0.0
  0
CIRCLE
  5
152
330
149
100
AcDbEntity
  8
002
 62
     3
370
    30
100
AcDbCircle
 10
1447.207053
 20
944.007409
 30
0.0
 40
6.5
  0
ENDBLK
  5
14B
330
149
100
AcDbEntity
  8
0
100
AcDbBlockEnd
  0
BLOCK
  5
154
330
153
100
AcDbEntity
  8
0
100
AcDbBlockBegin
  2
JZB-24
 70
     0
 10
0.0
 20
0.0
 30
0.0
  3
JZB-24
  1

  0
LINE
  5
156
330
153
100
AcDbEntity
  8
002
 62
     3
370
    30
100
AcDbLine
 10
1469.979862
 20
904.58777
 30
0.0
 11
1464.672421
 21
899.280756
 31
0.0
  0
LINE
  5
157
330
153
100
AcDbEntity
  8
002
 62
     3
370
    30
100
AcDbLine
 10
1460.787843
 20
913.780527
 30
0.0
 11
1455.480402
 21
908.473513
 31
0.0
  0
LINE
  5
158
330
153
100
AcDbEntity
  8
002
 62
     3
370
    30
100
AcDbLine
 10
1468.037573
 20
911.837656
 30
0.0
 11
1460.787843
 21
913.780527
 31
0.0
  0
LINE
  5
159
330
153
100
AcDbEntity
  8
002
 62
     3
370
    30
100
AcDbLine
 10
1457.422691
 20
901.223627
 30
0.0
 11
1464.672421
 21
899.280756
 31
0.0
  0
LINE
  5
15A
330
153
100
AcDbEntity
  8
002
 62
     3
370
    30
100
AcDbLine
 10
1455.480402
 20
908.473513
 30
0.0
 11
1457.422691
 21
901.223627
 31
0.0
  0
LINE
  5
15B
330
153
100
AcDbEntity
  8
002
 62
     3
370
    30
100
AcDbLine
 10
1469.979862
 20
904.58777
 30
0.0
 11
1468.037573
 21
911.837656
 31
0.0
  0
CIRCLE
  5
15C
330
153
100
AcDbEntity
  8
002
 62
     3
370
    30
100
AcDbCircle
 10
1462.730132
 20
906.530641
 30
0.0
 40
6.5
  0
ENDBLK
  5
155
330
153
100
AcDbEntity
  8
0
100
AcDbBlockEnd
  0
BLOCK
  5
15E
330
15D
100
AcDbEntity
  8
0
100
AcDbBlockBegin
  2
JZB-25
 70
     0
 10
0.0
 20
0.0
 30
0.0
  3
JZB-25
  1

  0
LINE
  5
160
330
15D
100
AcDbEntity
  8
002
 62
     3
370
    30
100
AcDbLine
 10
1506.706834
 20
894.759555
 30
0.0
 11
1506.706532
 21
887.254002
 31
0.0
  0
LINE
  5
161
330
15D
100
AcDbEntity
  8
002
 62
     3
370
    30
100
AcDbLine
 10
1493.706834
 20
894.760077
 30
0.0
 11
1493.706532
 21
887.254524
 31
0.0
  0
LINE
  5
162
330
15D
100
AcDbEntity
  8
002
 62
     3
370
    30
100
AcDbLine
 10
1500.206984
 20
898.512593
 30
0.0
 11
1493.706834
 21
894.760077
 31
0.0
  0
LINE
  5
163
330
15D
100
AcDbEntity
  8
002
 62
     3
370
    30
100
AcDbLine
 10
1500.206382
 20
883.501486
 30
0.0
 11
1506.706532
 21
887.254002
 31
0.0
  0
LINE
  5
164
330
15D
100
AcDbEntity
  8
002
 62
     3
370
    30
100
AcDbLine
 10
1493.706532
 20
887.254524
 30
0.0
 11
1500.206382
 21
883.501486
 31
0.0
  0
LINE
  5
165
330
15D
100
AcDbEntity
  8
002
 62
     3
370
    30
100
AcDbLine
 10
1506.706834
 20
894.759555
 30
0.0
 11
1500.206984
 21
898.512593
 31
0.0
  0
CIRCLE
  5
166
330
15D
100
AcDbEntity
  8
002
 62
     3
370
    30
100
AcDbCircle
 10
1500.206683
 20
891.007039
 30
0.0
 40
6.5
  0
ENDBLK
  5
15F
330
15D
100
AcDbEntity
  8
0
100
AcDbBlockEnd
  0
BLOCK
  5
168
330
167
100
AcDbEntity
  8
0
100
AcDbBlockBegin
  2
JZB-26
 70
     0
 10
0.0
 20
0.0
 30
0.0
  3
JZB-26
  1

  0
LINE
  5
16A
330
167
100
AcDbEntity
  8
002
 62
     3
370
    30
100
AcDbLine
 10
1539.626322
 20
913.779849
 30
0.0
 11
1544.933337
 21
908.472408
 31
0.0
  0
LINE
  5
16B
330
167
100
AcDbEntity
  8
002
 62
     3
370
    30
100
AcDbLine
 10
1530.433565
 20
904.58783
 30
0.0
 11
1535.740579
 21
899.280389
 31
0.0
  0
LINE
  5
16C
330
167
100
AcDbEntity
  8
002
 62
     3
370
    30
100
AcDbLine
 10
1532.376436
 20
911.83756
 30
0.0
 11
1530.433565
 21
904.58783
 31
0.0
  0
LINE
  5
16D
330
167
100
AcDbEntity
  8
002
 62
     3
370
    30
100
AcDbLine
 10
1542.990465
 20
901.222678
 30
0.0
 11
1544.933337
 21
908.472408
 31
0.0
  0
LINE
  5
16E
330
167
100
AcDbEntity
  8
002
 62
     3
370
    30
100
AcDbLine
 10
1535.740579
 20
899.280389
 30
0.0
 11
1542.990465
 21
901.222678
 31
0.0
  0
LINE
  5
16F
330
167
100
AcDbEntity
  8
002
 62
     3
370
    30
100
AcDbLine
 10
1539.626322
 20
913.779849
 30
0.0
 11
1532.376436
 21
911.83756
 31
0.0
  0
CIRCLE
  5
170
330
167
100
AcDbEntity
  8
002
 62
     3
370
    30
100
AcDbCircle
 10
1537.683451
 20
906.530119
 30
0.0
 40
6.5
  0
ENDBLK
  5
169
330
167
100
AcDbEntity
  8
0
100
AcDbBlockEnd
  0
BLOCK
  5
172
330
171
100
AcDbEntity
  8
0
100
AcDbBlockBegin
  2
JZB-27
 70
     0
 10
0.0
 20
0.0
 30
0.0
  3
JZB-27
  1

  0
LINE
  5
174
330
171
100
AcDbEntity
  8
002
 62
     3
370
    30
100
AcDbLine
 10
1530.434244
 20
983.426309
 30
0.0
 11
1535.741685
 21
988.733323
 31
0.0
  0
LINE
  5
175
330
171
100
AcDbEntity
  8
002
 62
     3
370
    30
100
AcDbLine
 10
1539.626263
 20
974.233551
 30
0.0
 11
1544.933704
 21
979.540566
 31
0.0
  0
LINE
  5
176
330
171
100
AcDbEntity
  8
002
 62
     3
370
    30
100
AcDbLine
 10
1532.376533
 20
976.176423
 30
0.0
 11
1539.626263
 21
974.233551
 31
0.0
  0
LINE
  5
177
330
171
100
AcDbEntity
  8
002
 62
     3
370
    30
100
AcDbLine
 10
1542.991415
 20
986.790452
 30
0.0
 11
1535.741685
 21
988.733323
 31
0.0
  0
LINE
  5
178
330
171
100
AcDbEntity
  8
002
 62
     3
370
    30
100
AcDbLine
 10
1544.933704
 20
979.540566
 30
0.0
 11
1542.991415
 21
986.790452
 31
0.0
  0
LINE
  5
179
330
171
100
AcDbEntity
  8
002
 62
     3
370
    30
100
AcDbLine
 10
1530.434244
 20
983.426309
 30
0.0
 11
1532.376533
 21
976.176423
 31
0.0
  0
CIRCLE
  5
17A
330
171
100
AcDbEntity
  8
002
 62
     3
370
    30
100
AcDbCircle
 10
1537.683974
 20
981.483437
 30
0.0
 40
6.5
  0
ENDBLK
  5
173
330
171
100
AcDbEntity
  8
0
100
AcDbBlockEnd
  0
BLOCK
  5
17C
330
17B
100
AcDbEntity
  8
0
100
AcDbBlockBegin
  2
JZB-28
 70
     0
 10
0.0
 20
0.0
 30
0.0
  3
JZB-28
  1

  0
LINE
  5
17E
330
17B
100
AcDbEntity
  8
002
 62
     3
370
    30
100
AcDbLine
 10
1943.707272
 20
993.254524
 30
0.0
 11
1943.707573
 21
1000.760077
 31
0.0
  0
LINE
  5
17F
330
17B
100
AcDbEntity
  8
002
 62
     3
370
    30
100
AcDbLine
 10
1956.707272
 20
993.254002
 30
0.0
 11
1956.707573
 21
1000.759555
 31
0.0
  0
LINE
  5
180
330
17B
100
AcDbEntity
  8
002
 62
     3
370
    30
100
AcDbLine
 10
1950.207121
 20
989.501486
 30
0.0
 11
1956.707272
 21
993.254002
 31
0.0
  0
LINE
  5
181
330
17B
100
AcDbEntity
  8
002
 62
     3
370
    30
100
AcDbLine
 10
1950.207724
 20
1004.512593
 30
0.0
 11
1943.707573
 21
1000.760077
 31
0.0
  0
LINE
  5
182
330
17B
100
AcDbEntity
  8
002
 62
     3
370
    30
100
AcDbLine
 10
1956.707573
 20
1000.759555
 30
0.0
 11
1950.207724
 21
1004.512593
 31
0.0
  0
LINE
  5
183
330
17B
100
AcDbEntity
  8
002
 62
     3
370
    30
100
AcDbLine
 10
1943.707272
 20
993.254524
 30
0.0
 11
1950.207121
 21
989.501486
 31
0.0
  0
CIRCLE
  5
184
330
17B
100
AcDbEntity
  8
002
 62
     3
370
    30
100
AcDbCircle
 10
1950.207422
 20
997.007039
 30
0.0
 40
6.5
  0
ENDBLK
  5
17D
330
17B
100
AcDbEntity
  8
0
100
AcDbBlockEnd
  0
BLOCK
  5
186
330
185
100
AcDbEntity
  8
0
100
AcDbBlockBegin
  2
JZB-29
 70
     0
 10
0.0
 20
0.0
 30
0.0
  3
JZB-29
  1

  0
LINE
  5
188
330
185
100
AcDbEntity
  8
002
 62
     3
370
    30
100
AcDbLine
 10
1910.787783
 20
974.23423
 30
0.0
 11
1905.480769
 21
979.541671
 31
0.0
  0
LINE
  5
189
330
185
100
AcDbEntity
  8
002
 62
     3
370
    30
100
AcDbLine
 10
1919.980541
 20
983.426249
 30
0.0
 11
1914.673526
 21
988.73369
 31
0.0
  0
LINE
  5
18A
330
185
100
AcDbEntity
  8
002
 62
     3
370
    30
100
AcDbLine
 10
1918.037669
 20
976.176519
 30
0.0
 11
1919.980541
 21
983.426249
 31
0.0
  0
LINE
  5
18B
330
185
100
AcDbEntity
  8
002
 62
     3
370
    30
100
AcDbLine
 10
1907.42364
 20
986.791401
 30
0.0
 11
1905.480769
 21
979.541671
 31
0.0
  0
LINE
  5
18C
330
185
100
AcDbEntity
  8
002
 62
     3
370
    30
100
AcDbLine
 10
1914.673526
 20
988.73369
 30
0.0
 11
1907.42364
 21
986.791401
 31
0.0
  0
LINE
  5
18D
330
185
100
AcDbEntity
  8
002
 62
     3
370
    30
100
AcDbLine
 10
1910.787783
 20
974.23423
 30
0.0
 11
1918.037669
 21
976.176519
 31
0.0
  0
CIRCLE
  5
18E
330
185
100
AcDbEntity
  8
002
 62
     3
370
    30
100
AcDbCircle
 10
1912.730655
 20
981.48396
 30
0.0
 40
6.5
  0
ENDBLK
  5
187
330
185
100
AcDbEntity
  8
0
100
AcDbBlockEnd
  0
BLOCK
  5
190
330
18F
100
AcDbEntity
  8
0
100
AcDbBlockBegin
  2
JZB-30
 70
     0
 10
0.0
 20
0.0
 30
0.0
  3
JZB-30
  1

  0
LINE
  5
192
330
18F
100
AcDbEntity
  8
002
 62
     3
370
    30
100
AcDbLine
 10
1900.959569
 20
937.507258
 30
0.0
 11
1893.454015
 21
937.50756
 31
0.0
  0
LINE
  5
193
330
18F
100
AcDbEntity
  8
002
 62
     3
370
    30
100
AcDbLine
 10
1900.960091
 20
950.507258
 30
0.0
 11
1893.454537
 21
950.50756
 31
0.0
  0
LINE
  5
194
330
18F
100
AcDbEntity
  8
002
 62
     3
370
    30
100
AcDbLine
 10
1904.712606
 20
944.007108
 30
0.0
 11
1900.960091
 21
950.507258
 31
0.0
  0
LINE
  5
195
330
18F
100
AcDbEntity
  8
002
 62
     3
370
    30
100
AcDbLine
 10
1889.701499
 20
944.007711
 30
0.0
 11
1893.454015
 21
937.50756
 31
0.0
  0
LINE
  5
196
330
18F
100
AcDbEntity
  8
002
 62
     3
370
    30
100
AcDbLine
 10
1893.454537
 20
950.50756
 30
0.0
 11
1889.701499
 21
944.007711
 31
0.0
  0
LINE
  5
197
330
18F
100
AcDbEntity
  8
002
 62
     3
370
    30
100
AcDbLine
 10
1900.959569
 20
937.507258
 30
0.0
 11
1904.712606
 21
944.007108
 31
0.0
  0
CIRCLE
  5
198
330
18F
100
AcDbEntity
  8
002
 62
     3
370
    30
100
AcDbCircle
 10
1897.207053
 20
944.007409
 30
0.0
 40
6.5
  0
ENDBLK
  5
191
330
18F
100
AcDbEntity
  8
0
100
AcDbBlockEnd
  0
BLOCK
  5
19A
330
199
100
AcDbEntity
  8
0
100
AcDbBlockBegin
  2
JZB-31
 70
     0
 10
0.0
 20
0.0
 30
0.0
  3
JZB-31
  1

  0
LINE
  5
19C
330
199
100
AcDbEntity
  8
002
 62
     3
370
    30
100
AcDbLine
 10
1919.979862
 20
904.58777
 30
0.0
 11
1914.672421
 21
899.280756
 31
0.0
  0
LINE
  5
19D
330
199
100
AcDbEntity
  8
002
 62
     3
370
    30
100
AcDbLine
 10
1910.787843
 20
913.780527
 30
0.0
 11
1905.480402
 21
908.473513
 31
0.0
  0
LINE
  5
19E
330
199
100
AcDbEntity
  8
002
 62
     3
370
    30
100
AcDbLine
 10
1918.037573
 20
911.837656
 30
0.0
 11
1910.787843
 21
913.780527
 31
0.0
  0
LINE
  5
19F
330
199
100
AcDbEntity
  8
002
 62
     3
370
    30
100
AcDbLine
 10
1907.422691
 20
901.223627
 30
0.0
 11
1914.672421
 21
899.280756
 31
0.0
  0
LINE
  5
1A0
330
199
100
AcDbEntity
  8
002
 62
     3
370
    30
100
AcDbLine
 10
1905.480402
 20
908.473513
 30
0.0
 11
1907.422691
 21
901.223627
 31
0.0
  0
LINE
  5
1A1
330
199
100
AcDbEntity
  8
002
 62
     3
370
    30
100
AcDbLine
 10
1919.979862
 20
904.58777
 30
0.0
 11
1918.037573
 21
911.837656
 31
0.0
  0
CIRCLE
  5
1A2
330
199
100
AcDbEntity
  8
002
 62
     3
370
    30
100
AcDbCircle
 10
1912.730132
 20
906.530641
 30
0.0
 40
6.5
  0
ENDBLK
  5
19B
330
199
100
AcDbEntity
  8
0
100
AcDbBlockEnd
  0
BLOCK
  5
1A4
330
1A3
100
AcDbEntity
  8
0
100
AcDbBlockBegin
  2
JZB-32
 70
     0
 10
0.0
 20
0.0
 30
0.0
  3
JZB-32
  1

  0
LINE
  5
1A6
330
1A3
100
AcDbEntity
  8
002
 62
     3
370
    30
100
AcDbLine
 10
1956.706834
 20
894.759555
 30
0.0
 11
1956.706532
 21
887.254002
 31
0.0
  0
LINE
  5
1A7
330
1A3
100
AcDbEntity
  8
002
 62
     3
370
    30
100
AcDbLine
 10
1943.706834
 20
894.760077
 30
0.0
 11
1943.706532
 21
887.254524
 31
0.0
  0
LINE
  5
1A8
330
1A3
100
AcDbEntity
  8
002
 62
     3
370
    30
100
AcDbLine
 10
1950.206984
 20
898.512593
 30
0.0
 11
1943.706834
 21
894.760077
 31
0.0
  0
LINE
  5
1A9
330
1A3
100
AcDbEntity
  8
002
 62
     3
370
    30
100
AcDbLine
 10
1950.206382
 20
883.501486
 30
0.0
 11
1956.706532
 21
887.254002
 31
0.0
  0
LINE
  5
1AA
330
1A3
100
AcDbEntity
  8
002
 62
     3
370
    30
100
AcDbLine
 10
1943.706532
 20
887.254524
 30
0.0
 11
1950.206382
 21
883.501486
 31
0.0
  0
LINE
  5
1AB
330
1A3
100
AcDbEntity
  8
002
 62
     3
370
    30
100
AcDbLine
 10
1956.706834
 20
894.759555
 30
0.0
 11
1950.206984
 21
898.512593
 31
0.0
  0
CIRCLE
  5
1AC
330
1A3
100
AcDbEntity
  8
002
 62
     3
370
    30
100
AcDbCircle
 10
1950.206683
 20
891.007039
 30
0.0
 40
6.5
  0
ENDBLK
  5
1A5
330
1A3
100
AcDbEntity
  8
0
100
AcDbBlockEnd
  0
BLOCK
  5
1AE
330
1AD
100
AcDbEntity
  8
0
100
AcDbBlockBegin
  2
JZB-33
 70
     0
 10
0.0
 20
0.0
 30
0.0
  3
JZB-33
  1

  0
LINE
  5
1B0
330
1AD
100
AcDbEntity
  8
002
 62
     3
370
    30
100
AcDbLine
 10
1989.626322
 20
913.779849
 30
0.0
 11
1994.933337
 21
908.472408
 31
0.0
  0
LINE
  5
1B1
330
1AD
100
AcDbEntity
  8
002
 62
     3
370
    30
100
AcDbLine
 10
1980.433565
 20
904.58783
 30
0.0
 11
1985.740579
 21
899.280389
 31
0.0
  0
LINE
  5
1B2
330
1AD
100
AcDbEntity
  8
002
 62
     3
370
    30
100
AcDbLine
 10
1982.376436
 20
911.83756
 30
0.0
 11
1980.433565
 21
904.58783
 31
0.0
  0
LINE
  5
1B3
330
1AD
100
AcDbEntity
  8
002
 62
     3
370
    30
100
AcDbLine
 10
1992.990465
 20
901.222678
 30
0.0
 11
1994.933337
 21
908.472408
 31
0.0
  0
LINE
  5
1B4
330
1AD
100
AcDbEntity
  8
002
 62
     3
370
    30
100
AcDbLine
 10
1985.740579
 20
899.280389
 30
0.0
 11
1992.990465
 21
901.222678
 31
0.0
  0
LINE
  5
1B5
330
1AD
100
AcDbEntity
  8
002
 62
     3
370
    30
100
AcDbLine
 10
1989.626322
 20
913.779849
 30
0.0
 11
1982.376436
 21
911.83756
 31
0.0
  0
CIRCLE
  5
1B6
330
1AD
100
AcDbEntity
  8
002
 62
     3
370
    30
100
AcDbCircle
 10
1987.683451
 20
906.530119
 30
0.0
 40
6.5
  0
ENDBLK
  5
1AF
330
1AD
100
AcDbEntity
  8
0
100
AcDbBlockEnd
  0
BLOCK
  5
1B8
330
1B7
100
AcDbEntity
  8
0
100
AcDbBlockBegin
  2
JZB-34
 70
     0
 10
0.0
 20
0.0
 30
0.0
  3
JZB-34
  1

  0
LINE
  5
1BA
330
1B7
100
AcDbEntity
  8
002
 62
     3
370
    30
100
AcDbLine
 10
1980.434244
 20
983.426309
 30
0.0
 11
1985.741685
 21
988.733323
 31
0.0
  0
LINE
  5
1BB
330
1B7
100
AcDbEntity
  8
002
 62
     3
370
    30
100
AcDbLine
 10
1989.626263
 20
974.233551
 30
0.0
 11
1994.933704
 21
979.540566
 31
0.0
  0
LINE
  5
1BC
330
1B7
100
AcDbEntity
  8
002
 62
     3
370
    30
100
AcDbLine
 10
1982.376533
 20
976.176423
 30
0.0
 11
1989.626263
 21
974.233551
 31
0.0
  0
LINE
  5
1BD
330
1B7
100
AcDbEntity
  8
002
 62
     3
370
    30
100
AcDbLine
 10
1992.991415
 20
986.790452
 30
0.0
 11
1985.741685
 21
988.733323
 31
0.0
  0
LINE
  5
1BE
330
1B7
100
AcDbEntity
  8
002
 62
     3
370
    30
100
AcDbLine
 10
1994.933704
 20
979.540566
 30
0.0
 11
1992.991415
 21
986.790452
 31
0.0
  0
LINE
  5
1BF
330
1B7
100
AcDbEntity
  8
002
 62
     3
370
    30
100
AcDbLine
 10
1980.434244
 20
983.426309
 30
0.0
 11
1982.376533
 21
976.176423
 31
0.0
  0
CIRCLE
  5
1C0
330
1B7
100
AcDbEntity
  8
002
 62
     3
370
    30
100
AcDbCircle
 10
1987.683974
 20
981.483437
 30
0.0
 40
6.5
  0
ENDBLK
  5
1B9
330
1B7
100
AcDbEntity
  8
0
100
AcDbBlockEnd
  0
ENDSEC
  0
SECTION
  2
ENTITIES
  0
INSERT
  5
1C1
330
1F
100
AcDbEntity
  8
003
  6
ByBlock
 62
     0
370
    -2
100
AcDbBlockReference
  2
JZB-1
 10
0.0
 20
0.0
 30
0.0
  0
INSERT
  5
1C2
330
1F
100
AcDbEntity
  8
003
  6
ByBlock
 62
     0
370
    -2
100
AcDbBlockReference
  2
JZB-2
 10
0.0
 20
0.0
 30
0.0
  0
INSERT
  5
1C3
330
1F
100
AcDbEntity
  8
003
  6
ByBlock
 62
     0
370
    -2
100
AcDbBlockReference
  2
JZB-3
 10
0.0
 20
0.0
 30
0.0
  0
INSERT
  5
1C4
330
1F
100
AcDbEntity
  8
003
  6
ByBlock
 62
     0
370
    -2
100
AcDbBlockReference
  2
JZB-4
 10
0.0
 20
0.0
 30
0.0
  0
INSERT
  5
1C5
330
1F
100
AcDbEntity
  8
003
  6
ByBlock
 62
     0
370
    -2
100
AcDbBlockReference
  2
JZB-5
 10
0.0
 20
0.0
 30
0.0
  0
INSERT
  5
1C6
330
1F
100
AcDbEntity
  8
003
  6
ByBlock
 62
     0
370
    -2
100
AcDbBlockReference
  2
JZB-6
 10
0.0
 20
0.0
 30
0.0
  0
INSERT
  5
1C7
330
1F
100
AcDbEntity
  8
002
  6
ByBlock
 62
     0
370
    -2
100
AcDbBlockReference
  2
JZB-7
 10
0.0
 20
0.0
 30
0.0
  0
INSERT
  5
1C8
330
1F
100
AcDbEntity
  8
002
  6
ByBlock
 62
     0
370
    -2
100
AcDbBlockReference
  2
JZB-8
 10
0.0
 20
0.0
 30
0.0
  0
INSERT
  5
1C9
330
1F
100
AcDbEntity
  8
002
  6
ByBlock
 62
     0
370
    -2
100
AcDbBlockReference
  2
JZB-9
 10
0.0
 20
0.0
 30
0.0
  0
INSERT
  5
1CA
330
1F
100
AcDbEntity
  8
002
  6
ByBlock
 62
     0
370
    -2
100
AcDbBlockReference
  2
JZB-10
 10
0.0
 20
0.0
 30
0.0
  0
INSERT
  5
1CB
330
1F
100
AcDbEntity
  8
002
  6
ByBlock
 62
     0
370
    -2
100
AcDbBlockReference
  2
JZB-11
 10
0.0
 20
0.0
 30
0.0
  0
INSERT
  5
1CC
330
1F
100
AcDbEntity
  8
002
  6
ByBlock
 62
     0
370
    -2
100
AcDbBlockReference
  2
JZB-12
 10
0.0
 20
0.0
 30
0.0
  0
INSERT
  5
1CD
330
1F
100
AcDbEntity
  8
002
  6
ByBlock
 62
     0
370
    -2
100
AcDbBlockReference
  2
JZB-13
 10
0.0
 20
0.0
 30
0.0
  0
INSERT
  5
1CE
330
1F
100
AcDbEntity
  8
002
  6
ByBlock
 62
     0
370
    -2
100
AcDbBlockReference
  2
JZB-14
 10
0.0
 20
0.0
 30
0.0
  0
INSERT
  5
1CF
330
1F
100
AcDbEntity
  8
002
  6
ByBlock
 62
     0
370
    -2
100
AcDbBlockReference
  2
JZB-15
 10
0.0
 20
0.0
 30
0.0
  0
INSERT
  5
1D0
330
1F
100
AcDbEntity
  8
002
  6
ByBlock
 62
     0
370
    -2
100
AcDbBlockReference
  2
JZB-16
 10
0.0
 20
0.0
 30
0.0
  0
INSERT
  5
1D1
330
1F
100
AcDbEntity
  8
002
  6
ByBlock
 62
     0
370
    -2
100
AcDbBlockReference
  2
JZB-17
 10
0.0
 20
0.0
 30
0.0
  0
INSERT
  5
1D2
330
1F
100
AcDbEntity
  8
002
  6
ByBlock
 62
     0
370
    -2
100
AcDbBlockReference
  2
JZB-18
 10
0.0
 20
0.0
 30
0.0
  0
INSERT
  5
1D3
330
1F
100
AcDbEntity
  8
002
  6
ByBlock
 62
     0
370
    -2
100
AcDbBlockReference
  2
JZB-19
 10
0.0
 20
0.0
 30
0.0
  0
INSERT
  5
1D4
330
1F
100
AcDbEntity
  8
002
  6
ByBlock
 62
     0
370
    -2
100
AcDbBlockReference
  2
JZB-20
 10
0.0
 20
0.0
 30
0.0
  0
INSERT
  5
1D5
330
1F
100
AcDbEntity
  8
002
  6
ByBlock
 62
     0
370
    -2
100
AcDbBlockReference
  2
JZB-21
 10
0.0
 20
0.0
 30
0.0
  0
INSERT
  5
1D6
330
1F
100
AcDbEntity
  8
002
  6
ByBlock
 62
     0
370
    -2
100
AcDbBlockReference
  2
JZB-22
 10
0.0
 20
0.0
 30
0.0
  0
INSERT
  5
1D7
330
1F
100
AcDbEntity
  8
002
  6
ByBlock
 62
     0
370
    -2
100
AcDbBlockReference
  2
JZB-23
 10
0.0
 20
0.0
 30
0.0
  0
INSERT
  5
1D8
330
1F
100
AcDbEntity
  8
002
  6
ByBlock
 62
     0
370
    -2
100
AcDbBlockReference
  2
JZB-24
 10
0.0
 20
0.0
 30
0.0
  0
INSERT
  5
1D9
330
1F
100
AcDbEntity
  8
002
  6
ByBlock
 62
     0
370
    -2
100
AcDbBlockReference
  2
JZB-25
 10
0.0
 20
0.0
 30
0.0
  0
INSERT
  5
1DA
330
1F
100
AcDbEntity
  8
002
  6
ByBlock
 62
     0
370
    -2
100
AcDbBlockReference
  2
JZB-26
 10
0.0
 20
0.0
 30
0.0
  0
INSERT
  5
1DB
330
1F
100
AcDbEntity
  8
002
  6
ByBlock
 62
     0
370
    -2
100
AcDbBlockReference
  2
JZB-27
 10
0.0
 20
0.0
 30
0.0
  0
INSERT
  5
1DC
330
1F
100
AcDbEntity
  8
002
  6
ByBlock
 62
     0
370
    -2
100
AcDbBlockReference
  2
JZB-28
 10
0.0
 20
0.0
 30
0.0
  0
INSERT
  5
1DD
330
1F
100
AcDbEntity
  8
002
  6
ByBlock
 62
     0
370
    -2
100
AcDbBlockReference
  2
JZB-29
 10
0.0
 20
0.0
 30
0.0
  0
INSERT
  5
1DE
330
1F
100
AcDbEntity
  8
002
  6
ByBlock
 62
     0
370
    -2
100
AcDbBlockReference
  2
JZB-30
 10
0.0
 20
0.0
 30
0.0
  0
INSERT
  5
1DF
330
1F
100
AcDbEntity
  8
002
  6
ByBlock
 62
     0
370
    -2
100
AcDbBlockReference
  2
JZB-31
 10
0.0
 20
0.0
 30
0.0
  0
INSERT
  5
1E0
330
1F
100
AcDbEntity
  8
002
  6
ByBlock
 62
     0
370
    -2
100
AcDbBlockReference
  2
JZB-32
 10
0.0
 20
0.0
 30
0.0
  0
INSERT
  5
1E1
330
1F
100
AcDbEntity
  8
002
  6
ByBlock
 62
     0
370
    -2
100
AcDbBlockReference
  2
JZB-33
 10
0.0
 20
0.0
 30
0.0
  0
INSERT
  5
1E2
330
1F
100
AcDbEntity
  8
002
  6
ByBlock
 62
     0
370
    -2
100
AcDbBlockReference
  2
JZB-34
 10
0.0
 20
0.0
 30
0.0
  0
LINE
  5
1E3
330
1F
100
AcDbEntity
  8
002
 62
     3
370
    30
100
AcDbLine
 10
528.001715
 20
1807.708866
 30
0.0
 11
528.001715
 21
1815.708866
 31
0.0
  0
LINE
  5
1E4
330
1F
100
AcDbEntity
  8
002
 62
     3
370
    30
100
AcDbLine
 10
528.001715
 20
1815.708866
 30
0.0
 11
538.001715
 21
1815.708866
 31
0.0
  0
LINE
  5
1E5
330
1F
100
AcDbEntity
  8
002
 62
     3
370
    30
100
AcDbLine
 10
538.001715
 20
1815.708866
 30
0.0
 11
538.001715
 21
1807.708866
 31
0.0
  0
LINE
  5
1E6
330
1F
100
AcDbEntity
  8
002
 62
     3
370
    30
100
AcDbLine
 10
538.001715
 20
1807.708866
 30
0.0
 11
528.001715
 21
1807.708866
 31
0.0
  0
LINE
  5
1E7
330
1F
100
AcDbEntity
  8
002
 62
     3
370
    30
100
AcDbLine
 10
528.001715
 20
2538.551866
 30
0.0
 11
528.001715
 21
2494.551866
 31
0.0
  0
LINE
  5
1E8
330
1F
100
AcDbEntity
  8
002
 62
     3
370
    30
100
AcDbLine
 10
528.001715
 20
2494.551866
 30
0.0
 11
538.001715
 21
2494.551866
 31
0.0
  0
LINE
  5
1E9
330
1F
100
AcDbEntity
  8
002
 62
     3
370
    30
100
AcDbLine
 10
538.001715
 20
2494.551866
 30
0.0
 11
538.001715
 21
2538.551866
 31
0.0
  0
LINE
  5
1EA
330
1F
100
AcDbEntity
  8
002
 62
     3
370
    30
100
AcDbLine
 10
550.501715
 20
2538.551866
 30
0.0
 11
550.501715
 21
2488.551866
 31
0.0
  0
LINE
  5
1EB
330
1F
100
AcDbEntity
  8
002
 62
     3
370
    30
100
AcDbLine
 10
552.001715
 20
2488.551866
 30
0.0
 11
552.001715
 21
2480.551866
 31
0.0
  0
LINE
  5
1EC
330
1F
100
AcDbEntity
  8
002
 62
     3
370
    30
100
AcDbLine
 10
515.501715
 20
2488.551866
 30
0.0
 11
515.501715
 21
2538.551866
 31
0.0
  0
LINE
  5
1ED
330
1F
100
AcDbEntity
  8
002
 62
     3
370
    30
100
AcDbLine
 10
515.501715
 20
2538.551866
 30
0.0
 11
550.501715
 21
2538.551866
 31
0.0
  0
ARC
  5
1EE
330
1F
100
AcDbEntity
  8
002
 62
     3
370
    30
100
AcDbCircle
 10
533.001715
 20
2494.551866
 30
0.0
 40
5.0
100
AcDbArc
 50
180.0
 51
0.0
  0
LINE
  5
1EF
330
1F
100
AcDbEntity
  8
002
 62
     3
370
    30
100
AcDbLine
 10
514.001715
 20
2488.551866
 30
0.0
 11
514.001715
 21
2480.551866
 31
0.0
  0
LINE
  5
1F0
330
1F
100
AcDbEntity
  8
002
 62
     3
370
    30
100
AcDbLine
 10
508.428715
 20
2472.551866
 30
0.0
 11
587.001715
 21
2472.551866
 31
0.0
  0
LINE
  5
1F1
330
1F
100
AcDbEntity
  8
002
 62
     3
370
    30
100
AcDbLine
 10
587.001715
 20
2480.551866
 30
0.0
 11
493.427715
 21
2480.551866
 31
0.0
  0
CIRCLE
  5
1F2
330
1F
100
AcDbEntity
  8
002
 62
     3
370
    30
100
AcDbCircle
 10
497.001715
 20
2460.742866
 30
0.0
 40
10.5
  0
LINE
  5
1F3
330
1F
100
AcDbEntity
  8
002
 62
     3
370
    30
100
AcDbLine
 10
493.537715
 20
2466.742866
 30
0.0
 11
490.073715
 21
2460.742866
 31
0.0
  0
LINE
  5
1F4
330
1F
100
AcDbEntity
  8
002
 62
     3
370
    30
100
AcDbLine
 10
490.073715
 20
2460.742866
 30
0.0
 11
493.537715
 21
2454.742866
 31
0.0
  0
LINE
  5
1F5
330
1F
100
AcDbEntity
  8
002
 62
     3
370
    30
100
AcDbLine
 10
493.537715
 20
2454.742866
 30
0.0
 11
500.465715
 21
2454.742866
 31
0.0
  0
LINE
  5
1F6
330
1F
100
AcDbEntity
  8
002
 62
     3
370
    30
100
AcDbLine
 10
500.465715
 20
2454.742866
 30
0.0
 11
503.929715
 21
2460.742866
 31
0.0
  0
LINE
  5
1F7
330
1F
100
AcDbEntity
  8
002
 62
     3
370
    30
100
AcDbLine
 10
503.929715
 20
2460.742866
 30
0.0
 11
500.465715
 21
2466.742866
 31
0.0
  0
LINE
  5
1F8
330
1F
100
AcDbEntity
  8
002
 62
     3
370
    30
100
AcDbLine
 10
500.465715
 20
2466.742866
 30
0.0
 11
493.537715
 21
2466.742866
 31
0.0
  0
LINE
  5
1F9
330
1F
100
AcDbEntity
  8
002
 62
     3
370
    30
100
AcDbLine
 10
470.497715
 20
2488.551866
 30
0.0
 11
623.001715
 21
2488.551866
 31
0.0
  0
CIRCLE
  5
1FA
330
1F
100
AcDbEntity
  8
002
 62
     3
370
    30
100
AcDbCircle
 10
623.001715
 20
2453.551866
 30
0.0
 40
32.5
  0
CIRCLE
  5
1FB
330
1F
100
AcDbEntity
  8
002
 62
     3
370
    30
100
AcDbCircle
 10
623.001715
 20
2453.551866
 30
0.0
 40
16.5
  0
LINE
  5
1FC
330
1F
100
AcDbEntity
  8
002
 62
     3
370
    30
100
AcDbLine
 10
587.001715
 20
2480.551866
 30
0.0
 11
587.001715
 21
2453.551866
 31
0.0
  0
ARC
  5
1FD
330
1F
100
AcDbEntity
  8
002
 62
     3
370
    30
100
AcDbCircle
 10
623.001715
 20
2453.551866
 30
0.0
 40
36.00013888862104
100
AcDbArc
 50
180.0
 51
223.761974
  0
LINE
  5
1FE
330
1F
100
AcDbEntity
  8
002
 62
     3
370
    30
100
AcDbLine
 10
597.001715
 20
2428.651866
 30
0.0
 11
597.001715
 21
2424.638866
 31
0.0
  0
ARC
  5
1FF
330
1F
100
AcDbEntity
  8
002
 62
     3
370
    30
100
AcDbCircle
 10
602.001715
 20
2424.638866
 30
0.0
 40
4.999919999359997
100
AcDbArc
 50
180.0
 51
260.002641
  0
LINE
  5
200
330
1F
100
AcDbEntity
  8
002
 62
     3
370
    30
100
AcDbLine
 10
601.133715
 20
2419.714866
 30
0.0
 11
650.526715
 21
2411.004866
 31
0.0
  0
LINE
  5
201
330
1F
100
AcDbEntity
  8
002
 62
     3
370
    30
100
AcDbLine
 10
650.001715
 20
2411.051866
 30
0.0
 11
590.040715
 21
2411.051866
 31
0.0
  0
LINE
  5
202
330
1F
100
AcDbEntity
  8
002
 62
     3
370
    30
100
AcDbLine
 10
589.410715
 20
2413.286866
 30
0.0
 11
597.001715
 21
2420.442866
 31
0.0
  0
ARC
  5
203
330
1F
100
AcDbEntity
  8
002
 62
     3
370
    30
100
AcDbCircle
 10
593.565715
 20
2408.051866
 30
0.0
 40
3.0
100
AcDbArc
 50
90.0
 51
180.0
  0
LINE
  5
204
330
1F
100
AcDbEntity
  8
002
 62
     3
370
    30
100
AcDbLine
 10
590.565715
 20
2408.051866
 30
0.0
 11
590.565715
 21
2309.051866
 31
0.0
  0
ARC
  5
205
330
1F
100
AcDbEntity
  8
002
 62
     3
370
    30
100
AcDbCircle
 10
593.565715
 20
2309.051866
 30
0.0
 40
3.0
100
AcDbArc
 50
180.0
 51
270.0
  0
LINE
  5
206
330
1F
100
AcDbEntity
  8
002
 62
     3
370
    30
100
AcDbLine
 10
590.040715
 20
2306.051866
 30
0.0
 11
650.001715
 21
2306.051866
 31
0.0
  0
ARC
  5
207
330
1F
100
AcDbEntity
  8
002
 62
     3
370
    30
100
AcDbCircle
 10
650.001715
 20
2309.051866
 30
0.0
 40
3.0
100
AcDbArc
 50
270.0
 51
0.0
  0
LINE
  5
208
330
1F
100
AcDbEntity
  8
002
 62
     3
370
    30
100
AcDbLine
 10
653.001715
 20
2309.051866
 30
0.0
 11
653.001715
 21
2408.051866
 31
0.0
  0
ARC
  5
209
330
1F
100
AcDbEntity
  8
002
 62
     3
370
    30
100
AcDbCircle
 10
650.001715
 20
2408.051866
 30
0.0
 40
3.0
100
AcDbArc
 50
0.0
 51
90.0
  0
ARC
  5
20A
330
1F
100
AcDbEntity
  8
002
 62
     3
370
    30
100
AcDbCircle
 10
623.001715
 20
2453.551866
 30
0.0
 40
35.0
100
AcDbArc
 50
0.0
 51
90.0
  0
LINE
  5
20B
330
1F
100
AcDbEntity
  8
002
 62
     3
370
    30
100
AcDbLine
 10
658.001715
 20
2453.551866
 30
0.0
 11
658.001715
 21
2263.551866
 31
0.0
  0
CIRCLE
  5
20C
330
1F
100
AcDbEntity
  8
002
 62
     3
370
    30
100
AcDbCircle
 10
623.001715
 20
2263.551866
 30
0.0
 40
16.5
  0
CIRCLE
  5
20D
330
1F
100
AcDbEntity
  8
002
 62
     3
370
    30
100
AcDbCircle
 10
623.001715
 20
2263.551866
 30
0.0
 40
32.5
  0
LINE
  5
20E
330
1F
100
AcDbEntity
  8
002
 62
     3
370
    30
100
AcDbLine
 10
601.133715
 20
2297.388866
 30
0.0
 11
650.526715
 21
2306.097866
 31
0.0
  0
ARC
  5
20F
330
1F
100
AcDbEntity
  8
002
 62
     3
370
    30
100
AcDbCircle
 10
602.001715
 20
2292.464866
 30
0.0
 40
5.0
100
AcDbArc
 50
99.997359
 51
180.0
  0
LINE
  5
210
330
1F
100
AcDbEntity
  8
002
 62
     3
370
    30
100
AcDbLine
 10
597.001715
 20
2292.464866
 30
0.0
 11
597.001715
 21
2288.450866
 31
0.0
  0
ARC
  5
211
330
1F
100
AcDbEntity
  8
002
 62
     3
370
    30
100
AcDbCircle
 10
623.001715
 20
2263.551866
 30
0.0
 40
36.0
100
AcDbArc
 50
136.239176
 51
180.0
  0
LINE
  5
212
330
1F
100
AcDbEntity
  8
002
 62
     3
370
    30
100
AcDbLine
 10
587.001715
 20
2263.551866
 30
0.0
 11
587.001715
 21
2236.551866
 31
0.0
  0
LINE
  5
213
330
1F
100
AcDbEntity
  8
002
 62
     3
370
    30
100
AcDbLine
 10
587.001715
 20
2236.551866
 30
0.0
 11
493.427715
 21
2236.551866
 31
0.0
  0
LINE
  5
214
330
1F
100
AcDbEntity
  8
002
 62
     3
370
    30
100
AcDbLine
 10
493.537715
 20
2250.360866
 30
0.0
 11
500.465715
 21
2250.360866
 31
0.0
  0
LINE
  5
215
330
1F
100
AcDbEntity
  8
002
 62
     3
370
    30
100
AcDbLine
 10
500.465715
 20
2250.360866
 30
0.0
 11
503.929715
 21
2256.360866
 31
0.0
  0
LINE
  5
216
330
1F
100
AcDbEntity
  8
002
 62
     3
370
    30
100
AcDbLine
 10
503.929715
 20
2256.360866
 30
0.0
 11
500.465715
 21
2262.360866
 31
0.0
  0
LINE
  5
217
330
1F
100
AcDbEntity
  8
002
 62
     3
370
    30
100
AcDbLine
 10
500.465715
 20
2262.360866
 30
0.0
 11
493.537715
 21
2262.360866
 31
0.0
  0
LINE
  5
218
330
1F
100
AcDbEntity
  8
002
 62
     3
370
    30
100
AcDbLine
 10
493.537715
 20
2262.360866
 30
0.0
 11
490.073715
 21
2256.360866
 31
0.0
  0
LINE
  5
219
330
1F
100
AcDbEntity
  8
002
 62
     3
370
    30
100
AcDbLine
 10
490.073715
 20
2256.360866
 30
0.0
 11
493.537715
 21
2250.360866
 31
0.0
  0
CIRCLE
  5
21A
330
1F
100
AcDbEntity
  8
002
 62
     3
370
    30
100
AcDbCircle
 10
497.001715
 20
2256.360866
 30
0.0
 40
10.5
  0
LINE
  5
21B
330
1F
100
AcDbEntity
  8
002
 62
     3
370
    30
100
AcDbLine
 10
508.428715
 20
2244.551866
 30
0.0
 11
587.001715
 21
2244.551866
 31
0.0
  0
LINE
  5
21C
330
1F
100
AcDbEntity
  8
002
 62
     3
370
    30
100
AcDbLine
 10
552.001715
 20
2236.551866
 30
0.0
 11
552.001715
 21
2228.551866
 31
0.0
  0
LINE
  5
21D
330
1F
100
AcDbEntity
  8
002
 62
     3
370
    30
100
AcDbLine
 10
550.501715
 20
2228.551866
 30
0.0
 11
550.501715
 21
2178.551866
 31
0.0
  0
LINE
  5
21E
330
1F
100
AcDbEntity
  8
002
 62
     3
370
    30
100
AcDbLine
 10
550.501715
 20
2178.551866
 30
0.0
 11
515.501715
 21
2178.551866
 31
0.0
  0
LINE
  5
21F
330
1F
100
AcDbEntity
  8
002
 62
     3
370
    30
100
AcDbLine
 10
515.501715
 20
2178.551866
 30
0.0
 11
515.501715
 21
2228.551866
 31
0.0
  0
LINE
  5
220
330
1F
100
AcDbEntity
  8
002
 62
     3
370
    30
100
AcDbLine
 10
538.001715
 20
2222.551866
 30
0.0
 11
528.001715
 21
2222.551866
 31
0.0
  0
LINE
  5
221
330
1F
100
AcDbEntity
  8
002
 62
     3
370
    30
100
AcDbLine
 10
528.001715
 20
2222.551866
 30
0.0
 11
528.001715
 21
2178.551866
 31
0.0
  0
LINE
  5
222
330
1F
100
AcDbEntity
  8
002
 62
     3
370
    30
100
AcDbLine
 10
538.001715
 20
2178.551866
 30
0.0
 11
538.001715
 21
2222.551866
 31
0.0
  0
ARC
  5
223
330
1F
100
AcDbEntity
  8
002
 62
     3
370
    30
100
AcDbCircle
 10
533.001715
 20
2222.551866
 30
0.0
 40
5.0
100
AcDbArc
 50
0.0
 51
180.0
  0
LINE
  5
224
330
1F
100
AcDbEntity
  8
002
 62
     3
370
    30
100
AcDbLine
 10
514.001715
 20
2228.551866
 30
0.0
 11
514.001715
 21
2236.551866
 31
0.0
  0
LINE
  5
225
330
1F
100
AcDbEntity
  8
002
 62
     3
370
    30
100
AcDbLine
 10
470.497715
 20
2228.551866
 30
0.0
 11
623.001715
 21
2228.551866
 31
0.0
  0
ARC
  5
226
330
1F
100
AcDbEntity
  8
002
 62
     3
370
    30
100
AcDbCircle
 10
623.001715
 20
2263.551866
 30
0.0
 40
35.0
100
AcDbArc
 50
270.0
 51
0.0
  0
LINE
  5
227
330
1F
100
AcDbEntity
  8
002
 62
     3
370
    30
100
AcDbLine
 10
597.001715
 20
2296.659866
 30
0.0
 11
589.410715
 21
2303.816866
 31
0.0
  0
ARC
  5
228
330
1F
100
AcDbEntity
  8
002
 62
     3
370
    30
100
AcDbCircle
 10
590.040715
 20
2303.051866
 30
0.0
 40
3.0
100
AcDbArc
 50
90.0
 51
180.0
  0
LINE
  5
229
330
1F
100
AcDbEntity
  8
002
 62
     3
370
    30
100
AcDbLine
 10
587.040715
 20
2306.051866
 30
0.0
 11
587.040715
 21
2411.051866
 31
0.0
  0
ARC
  5
22A
330
1F
100
AcDbEntity
  8
002
 62
     3
370
    30
100
AcDbCircle
 10
590.040715
 20
2414.051866
 30
0.0
 40
3.0
100
AcDbArc
 50
180.0
 51
270.0
  0
LINE
  5
22B
330
1F
100
AcDbEntity
  8
002
 62
     3
370
    30
100
AcDbLine
 10
546.192715
 20
2414.087866
 30
0.0
 11
546.192715
 21
2421.015866
 31
0.0
  0
LINE
  5
22C
330
1F
100
AcDbEntity
  8
002
 62
     3
370
    30
100
AcDbLine
 10
546.192715
 20
2421.015866
 30
0.0
 11
540.192715
 21
2424.479866
 31
0.0
  0
LINE
  5
22D
330
1F
100
AcDbEntity
  8
002
 62
     3
370
    30
100
AcDbLine
 10
540.192715
 20
2424.479866
 30
0.0
 11
534.192715
 21
2421.015866
 31
0.0
  0
LINE
  5
22E
330
1F
100
AcDbEntity
  8
002
 62
     3
370
    30
100
AcDbLine
 10
534.192715
 20
2421.015866
 30
0.0
 11
534.192715
 21
2414.087866
 31
0.0
  0
LINE
  5
22F
330
1F
100
AcDbEntity
  8
002
 62
     3
370
    30
100
AcDbLine
 10
534.192715
 20
2414.087866
 30
0.0
 11
540.192715
 21
2410.622866
 31
0.0
  0
LINE
  5
230
330
1F
100
AcDbEntity
  8
002
 62
     3
370
    30
100
AcDbLine
 10
540.192715
 20
2410.622866
 30
0.0
 11
546.192715
 21
2414.087866
 31
0.0
  0
CIRCLE
  5
231
330
1F
100
AcDbEntity
  8
002
 62
     3
370
    30
100
AcDbCircle
 10
540.192715
 20
2417.551866
 30
0.0
 40
10.5
  0
CIRCLE
  5
232
330
1F
100
AcDbEntity
  8
002
 62
     3
370
    30
100
AcDbCircle
 10
556.001715
 20
2358.551866
 30
0.0
 40
10.5
  0
LINE
  5
233
330
1F
100
AcDbEntity
  8
002
 62
     3
370
    30
100
AcDbLine
 10
552.537715
 20
2364.551866
 30
0.0
 11
549.073715
 21
2358.551866
 31
0.0
  0
LINE
  5
234
330
1F
100
AcDbEntity
  8
002
 62
     3
370
    30
100
AcDbLine
 10
549.073715
 20
2358.551866
 30
0.0
 11
552.537715
 21
2352.551866
 31
0.0
  0
LINE
  5
235
330
1F
100
AcDbEntity
  8
002
 62
     3
370
    30
100
AcDbLine
 10
552.537715
 20
2352.551866
 30
0.0
 11
559.465715
 21
2352.551866
 31
0.0
  0
LINE
  5
236
330
1F
100
AcDbEntity
  8
002
 62
     3
370
    30
100
AcDbLine
 10
559.465715
 20
2352.551866
 30
0.0
 11
562.929715
 21
2358.551866
 31
0.0
  0
LINE
  5
237
330
1F
100
AcDbEntity
  8
002
 62
     3
370
    30
100
AcDbLine
 10
562.929715
 20
2358.551866
 30
0.0
 11
559.465715
 21
2364.551866
 31
0.0
  0
LINE
  5
238
330
1F
100
AcDbEntity
  8
002
 62
     3
370
    30
100
AcDbLine
 10
559.465715
 20
2364.551866
 30
0.0
 11
552.537715
 21
2364.551866
 31
0.0
  0
CIRCLE
  5
239
330
1F
100
AcDbEntity
  8
002
 62
     3
370
    30
100
AcDbCircle
 10
540.192715
 20
2299.551866
 30
0.0
 40
10.5
  0
LINE
  5
23A
330
1F
100
AcDbEntity
  8
002
 62
     3
370
    30
100
AcDbLine
 10
540.192715
 20
2306.479866
 30
0.0
 11
534.192715
 21
2303.015866
 31
0.0
  0
LINE
  5
23B
330
1F
100
AcDbEntity
  8
002
 62
     3
370
    30
100
AcDbLine
 10
534.192715
 20
2303.015866
 30
0.0
 11
534.192715
 21
2296.087866
 31
0.0
  0
LINE
  5
23C
330
1F
100
AcDbEntity
  8
002
 62
     3
370
    30
100
AcDbLine
 10
534.192715
 20
2296.087866
 30
0.0
 11
540.192715
 21
2292.622866
 31
0.0
  0
LINE
  5
23D
330
1F
100
AcDbEntity
  8
002
 62
     3
370
    30
100
AcDbLine
 10
540.192715
 20
2292.622866
 30
0.0
 11
546.192715
 21
2296.087866
 31
0.0
  0
LINE
  5
23E
330
1F
100
AcDbEntity
  8
002
 62
     3
370
    30
100
AcDbLine
 10
546.192715
 20
2296.087866
 30
0.0
 11
546.192715
 21
2303.015866
 31
0.0
  0
LINE
  5
23F
330
1F
100
AcDbEntity
  8
002
 62
     3
370
    30
100
AcDbLine
 10
546.192715
 20
2303.015866
 30
0.0
 11
540.192715
 21
2306.479866
 31
0.0
  0
CIRCLE
  5
240
330
1F
100
AcDbEntity
  8
002
 62
     3
370
    30
100
AcDbCircle
 10
438.001715
 20
2240.551866
 30
0.0
 40
10.5
  0
LINE
  5
241
330
1F
100
AcDbEntity
  8
002
 62
     3
370
    30
100
AcDbLine
 10
438.001715
 20
2247.479866
 30
0.0
 11
444.001715
 21
2244.015866
 31
0.0
  0
LINE
  5
242
330
1F
100
AcDbEntity
  8
002
 62
     3
370
    30
100
AcDbLine
 10
444.001715
 20
2244.015866
 30
0.0
 11
444.001715
 21
2237.087866
 31
0.0
  0
LINE
  5
243
330
1F
100
AcDbEntity
  8
002
 62
     3
370
    30
100
AcDbLine
 10
444.001715
 20
2237.087866
 30
0.0
 11
438.001715
 21
2233.622866
 31
0.0
  0
LINE
  5
244
330
1F
100
AcDbEntity
  8
002
 62
     3
370
    30
100
AcDbLine
 10
438.001715
 20
2233.622866
 30
0.0
 11
432.001715
 21
2237.087866
 31
0.0
  0
LINE
  5
245
330
1F
100
AcDbEntity
  8
002
 62
     3
370
    30
100
AcDbLine
 10
432.001715
 20
2237.087866
 30
0.0
 11
432.001715
 21
2244.015866
 31
0.0
  0
LINE
  5
246
330
1F
100
AcDbEntity
  8
002
 62
     3
370
    30
100
AcDbLine
 10
432.001715
 20
2244.015866
 30
0.0
 11
438.001715
 21
2247.479866
 31
0.0
  0
LINE
  5
247
330
1F
100
AcDbEntity
  8
002
 62
     3
370
    30
100
AcDbLine
 10
405.505715
 20
2228.551866
 30
0.0
 11
343.001715
 21
2228.551866
 31
0.0
  0
LINE
  5
248
330
1F
100
AcDbEntity
  8
002
 62
     3
370
    30
100
AcDbLine
 10
375.537715
 20
2250.360866
 30
0.0
 11
382.465715
 21
2250.360866
 31
0.0
  0
LINE
  5
249
330
1F
100
AcDbEntity
  8
002
 62
     3
370
    30
100
AcDbLine
 10
382.465715
 20
2250.360866
 30
0.0
 11
385.929715
 21
2256.360866
 31
0.0
  0
LINE
  5
24A
330
1F
100
AcDbEntity
  8
002
 62
     3
370
    30
100
AcDbLine
 10
385.929715
 20
2256.360866
 30
0.0
 11
382.465715
 21
2262.360866
 31
0.0
  0
LINE
  5
24B
330
1F
100
AcDbEntity
  8
002
 62
     3
370
    30
100
AcDbLine
 10
382.465715
 20
2262.360866
 30
0.0
 11
375.537715
 21
2262.360866
 31
0.0
  0
LINE
  5
24C
330
1F
100
AcDbEntity
  8
002
 62
     3
370
    30
100
AcDbLine
 10
375.537715
 20
2262.360866
 30
0.0
 11
372.073715
 21
2256.360866
 31
0.0
  0
LINE
  5
24D
330
1F
100
AcDbEntity
  8
002
 62
     3
370
    30
100
AcDbLine
 10
372.073715
 20
2256.360866
 30
0.0
 11
375.537715
 21
2250.360866
 31
0.0
  0
CIRCLE
  5
24E
330
1F
100
AcDbEntity
  8
002
 62
     3
370
    30
100
AcDbCircle
 10
379.001715
 20
2256.360866
 30
0.0
 40
10.5
  0
LINE
  5
24F
330
1F
100
AcDbEntity
  8
002
 62
     3
370
    30
100
AcDbLine
 10
341.810715
 20
2296.087866
 30
0.0
 11
335.810715
 21
2292.622866
 31
0.0
  0
LINE
  5
250
330
1F
100
AcDbEntity
  8
002
 62
     3
370
    30
100
AcDbLine
 10
335.810715
 20
2292.622866
 30
0.0
 11
329.810715
 21
2296.087866
 31
0.0
  0
LINE
  5
251
330
1F
100
AcDbEntity
  8
002
 62
     3
370
    30
100
AcDbLine
 10
329.810715
 20
2296.087866
 30
0.0
 11
329.810715
 21
2303.015866
 31
0.0
  0
LINE
  5
252
330
1F
100
AcDbEntity
  8
002
 62
     3
370
    30
100
AcDbLine
 10
329.810715
 20
2303.015866
 30
0.0
 11
335.810715
 21
2306.479866
 31
0.0
  0
LINE
  5
253
330
1F
100
AcDbEntity
  8
002
 62
     3
370
    30
100
AcDbLine
 10
335.810715
 20
2306.479866
 30
0.0
 11
341.810715
 21
2303.015866
 31
0.0
  0
LINE
  5
254
330
1F
100
AcDbEntity
  8
002
 62
     3
370
    30
100
AcDbLine
 10
341.810715
 20
2303.015866
 30
0.0
 11
341.810715
 21
2296.087866
 31
0.0
  0
CIRCLE
  5
255
330
1F
100
AcDbEntity
  8
002
 62
     3
370
    30
100
AcDbCircle
 10
335.810715
 20
2299.551866
 30
0.0
 40
10.5
  0
ARC
  5
256
330
1F
100
AcDbEntity
  8
002
 62
     3
370
    30
100
AcDbCircle
 10
343.001715
 20
2263.551866
 30
0.0
 40
32.50035969031735
100
AcDbArc
 50
127.432294
 51
322.568777
  0
ARC
  5
257
330
1F
100
AcDbEntity
  8
002
 62
     3
370
    30
100
AcDbCircle
 10
343.001715
 20
2263.551866
 30
0.0
 40
16.50012657527214
100
AcDbArc
 50
130.260421
 51
319.73693
  0
ARC
  5
258
330
1F
100
AcDbEntity
  8
002
 62
     3
370
    30
100
AcDbCircle
 10
343.001715
 20
2263.551866
 30
0.0
 40
35.00000000000023
100
AcDbArc
 50
180.0
 51
270.0
  0
LINE
  5
259
330
1F
100
AcDbEntity
  8
002
 62
     3
370
    30
100
AcDbLine
 10
308.001715
 20
2263.551866
 30
0.0
 11
308.001715
 21
2326.055866
 31
0.0
  0
LINE
  5
25A
330
1F
100
AcDbEntity
  8
002
 62
     3
370
    30
100
AcDbLine
 10
304.336715
 20
2349.078866
 30
0.0
 11
293.001715
 21
2349.551866
 31
0.0
  0
LINE
  5
25B
330
1F
100
AcDbEntity
  8
002
 62
     3
370
    30
100
AcDbLine
 10
293.001715
 20
2349.551866
 30
0.0
 11
293.001715
 21
2367.551866
 31
0.0
  0
LINE
  5
25C
330
1F
100
AcDbEntity
  8
002
 62
     3
370
    30
100
AcDbLine
 10
293.001715
 20
2367.551866
 30
0.0
 11
304.336715
 21
2368.023866
 31
0.0
  0
LINE
  5
25D
330
1F
100
AcDbEntity
  8
002
 62
     3
370
    30
100
AcDbLine
 10
316.537715
 20
2364.551866
 30
0.0
 11
313.073715
 21
2358.551866
 31
0.0
  0
LINE
  5
25E
330
1F
100
AcDbEntity
  8
002
 62
     3
370
    30
100
AcDbLine
 10
313.073715
 20
2358.551866
 30
0.0
 11
316.537715
 21
2352.551866
 31
0.0
  0
LINE
  5
25F
330
1F
100
AcDbEntity
  8
002
 62
     3
370
    30
100
AcDbLine
 10
316.537715
 20
2352.551866
 30
0.0
 11
323.465715
 21
2352.551866
 31
0.0
  0
LINE
  5
260
330
1F
100
AcDbEntity
  8
002
 62
     3
370
    30
100
AcDbLine
 10
323.465715
 20
2352.551866
 30
0.0
 11
326.929715
 21
2358.551866
 31
0.0
  0
LINE
  5
261
330
1F
100
AcDbEntity
  8
002
 62
     3
370
    30
100
AcDbLine
 10
326.929715
 20
2358.551866
 30
0.0
 11
323.465715
 21
2364.551866
 31
0.0
  0
LINE
  5
262
330
1F
100
AcDbEntity
  8
002
 62
     3
370
    30
100
AcDbLine
 10
323.465715
 20
2364.551866
 30
0.0
 11
316.537715
 21
2364.551866
 31
0.0
  0
CIRCLE
  5
263
330
1F
100
AcDbEntity
  8
002
 62
     3
370
    30
100
AcDbCircle
 10
320.001715
 20
2358.551866
 30
0.0
 40
10.5
  0
LINE
  5
264
330
1F
100
AcDbEntity
  8
002
 62
     3
370
    30
100
AcDbLine
 10
308.001715
 20
2391.047866
 30
0.0
 11
308.001715
 21
2453.551866
 31
0.0
  0
CIRCLE
  5
265
330
1F
100
AcDbEntity
  8
002
 62
     3
370
    30
100
AcDbCircle
 10
335.810715
 20
2417.551866
 30
0.0
 40
10.5
  0
LINE
  5
266
330
1F
100
AcDbEntity
  8
002
 62
     3
370
    30
100
AcDbLine
 10
335.810715
 20
2424.479866
 30
0.0
 11
329.810715
 21
2421.015866
 31
0.0
  0
LINE
  5
267
330
1F
100
AcDbEntity
  8
002
 62
     3
370
    30
100
AcDbLine
 10
329.810715
 20
2421.015866
 30
0.0
 11
329.810715
 21
2414.087866
 31
0.0
  0
LINE
  5
268
330
1F
100
AcDbEntity
  8
002
 62
     3
370
    30
100
AcDbLine
 10
329.810715
 20
2414.087866
 30
0.0
 11
335.810715
 21
2410.622866
 31
0.0
  0
LINE
  5
269
330
1F
100
AcDbEntity
  8
002
 62
     3
370
    30
100
AcDbLine
 10
335.810715
 20
2410.622866
 30
0.0
 11
341.810715
 21
2414.087866
 31
0.0
  0
LINE
  5
26A
330
1F
100
AcDbEntity
  8
002
 62
     3
370
    30
100
AcDbLine
 10
341.810715
 20
2414.087866
 30
0.0
 11
341.810715
 21
2421.015866
 31
0.0
  0
LINE
  5
26B
330
1F
100
AcDbEntity
  8
002
 62
     3
370
    30
100
AcDbLine
 10
341.810715
 20
2421.015866
 30
0.0
 11
335.810715
 21
2424.479866
 31
0.0
  0
ARC
  5
26C
330
1F
100
AcDbEntity
  8
002
 62
     3
370
    30
100
AcDbCircle
 10
343.001715
 20
2453.551866
 30
0.0
 40
16.50024342244692
100
AcDbArc
 50
40.260421
 51
229.741824
  0
LINE
  5
26D
330
1F
100
AcDbEntity
  8
002
 62
     3
370
    30
100
AcDbLine
 10
372.073715
 20
2460.742866
 30
0.0
 11
375.537715
 21
2466.742866
 31
0.0
  0
LINE
  5
26E
330
1F
100
AcDbEntity
  8
002
 62
     3
370
    30
100
AcDbLine
 10
375.537715
 20
2466.742866
 30
0.0
 11
382.465715
 21
2466.742866
 31
0.0
  0
LINE
  5
26F
330
1F
100
AcDbEntity
  8
002
 62
     3
370
    30
100
AcDbLine
 10
382.465715
 20
2466.742866
 30
0.0
 11
385.929715
 21
2460.742866
 31
0.0
  0
LINE
  5
270
330
1F
100
AcDbEntity
  8
002
 62
     3
370
    30
100
AcDbLine
 10
385.929715
 20
2460.742866
 30
0.0
 11
382.465715
 21
2454.742866
 31
0.0
  0
LINE
  5
271
330
1F
100
AcDbEntity
  8
002
 62
     3
370
    30
100
AcDbLine
 10
382.465715
 20
2454.742866
 30
0.0
 11
375.537715
 21
2454.742866
 31
0.0
  0
LINE
  5
272
330
1F
100
AcDbEntity
  8
002
 62
     3
370
    30
100
AcDbLine
 10
375.537715
 20
2454.742866
 30
0.0
 11
372.073715
 21
2460.742866
 31
0.0
  0
CIRCLE
  5
273
330
1F
100
AcDbEntity
  8
002
 62
     3
370
    30
100
AcDbCircle
 10
379.001715
 20
2460.742866
 30
0.0
 40
10.5
  0
ARC
  5
274
330
1F
100
AcDbEntity
  8
002
 62
     3
370
    30
100
AcDbCircle
 10
343.001715
 20
2453.551866
 30
0.0
 40
32.50035969031721
100
AcDbArc
 50
37.429823
 51
232.568777
  0
LINE
  5
275
330
1F
100
AcDbEntity
  8
002
 62
     3
370
    30
100
AcDbLine
 10
343.001715
 20
2488.551866
 30
0.0
 11
405.505715
 21
2488.551866
 31
0.0
  0
LINE
  5
276
330
1F
100
AcDbEntity
  8
002
 62
     3
370
    30
100
AcDbLine
 10
432.001715
 20
2480.015866
 30
0.0
 11
432.001715
 21
2473.087866
 31
0.0
  0
LINE
  5
277
330
1F
100
AcDbEntity
  8
002
 62
     3
370
    30
100
AcDbLine
 10
432.001715
 20
2473.087866
 30
0.0
 11
438.001715
 21
2469.622866
 31
0.0
  0
LINE
  5
278
330
1F
100
AcDbEntity
  8
002
 62
     3
370
    30
100
AcDbLine
 10
438.001715
 20
2469.622866
 30
0.0
 11
444.001715
 21
2473.087866
 31
0.0
  0
LINE
  5
279
330
1F
100
AcDbEntity
  8
002
 62
     3
370
    30
100
AcDbLine
 10
444.001715
 20
2473.087866
 30
0.0
 11
444.001715
 21
2480.015866
 31
0.0
  0
LINE
  5
27A
330
1F
100
AcDbEntity
  8
002
 62
     3
370
    30
100
AcDbLine
 10
444.001715
 20
2480.015866
 30
0.0
 11
438.001715
 21
2483.479866
 31
0.0
  0
LINE
  5
27B
330
1F
100
AcDbEntity
  8
002
 62
     3
370
    30
100
AcDbLine
 10
438.001715
 20
2483.479866
 30
0.0
 11
432.001715
 21
2480.015866
 31
0.0
  0
CIRCLE
  5
27C
330
1F
100
AcDbEntity
  8
002
 62
     3
370
    30
100
AcDbCircle
 10
438.001715
 20
2476.551866
 30
0.0
 40
10.5
  0
CIRCLE
  5
27D
330
1F
100
AcDbEntity
  8
002
 62
     3
370
    30
100
AcDbCircle
 10
438.001715
 20
2358.551866
 30
0.0
 40
134.0
  0
CIRCLE
  5
27E
330
1F
100
AcDbEntity
  8
002
 62
     3
370
    30
100
AcDbCircle
 10
438.001715
 20
2358.551866
 30
0.0
 40
100.0
  0
CIRCLE
  5
27F
330
1F
100
AcDbEntity
  8
002
 62
     3
370
    30
100
AcDbCircle
 10
438.001715
 20
2358.551866
 30
0.0
 40
90.0
  0
ARC
  5
280
330
1F
100
AcDbEntity
  8
002
 62
     3
370
    30
100
AcDbCircle
 10
343.001715
 20
2453.551866
 30
0.0
 40
35.0
100
AcDbArc
 50
90.0
 51
180.0
  0
CIRCLE
  5
281
330
1F
100
AcDbEntity
  8
002
 62
     3
370
    30
100
AcDbCircle
 10
438.001715
 20
2358.551866
 30
0.0
 40
42.5
  0
CIRCLE
  5
282
330
1F
100
AcDbEntity
  8
002
 62
     3
370
    30
100
AcDbCircle
 10
438.001715
 20
2358.551866
 30
0.0
 40
30.0
  0
LINE
  5
283
330
1F
100
AcDbEntity
  8
002
  6
CENTER
 62
    40
370
     9
100
AcDbLine
 10
685.168715
 20
2358.551866
 30
0.0
 11
272.903715
 21
2358.551866
 31
0.0
  0
LINE
  5
284
330
1F
100
AcDbEntity
  8
002
  6
CENTER
 62
    40
370
     9
100
AcDbLine
 10
623.001715
 20
2406.618866
 30
0.0
 11
623.001715
 21
2498.519866
 31
0.0
  0
LINE
  5
285
330
1F
100
AcDbEntity
  8
002
  6
CENTER
 62
    40
370
     9
100
AcDbLine
 10
667.417715
 20
2453.551866
 30
0.0
 11
575.230715
 21
2453.551866
 31
0.0
  0
LINE
  5
286
330
1F
100
AcDbEntity
  8
002
  6
CENTER
 62
    40
370
     9
100
AcDbLine
 10
623.001715
 20
2218.582866
 30
0.0
 11
623.001715
 21
2310.483866
 31
0.0
  0
LINE
  5
287
330
1F
100
AcDbEntity
  8
002
  6
CENTER
 62
    40
370
     9
100
AcDbLine
 10
575.230715
 20
2263.551866
 30
0.0
 11
667.417715
 21
2263.551866
 31
0.0
  0
LINE
  5
288
330
1F
100
AcDbEntity
  8
002
  6
CENTER
 62
    40
370
     9
100
AcDbLine
 10
533.001715
 20
2551.738085
 30
0.0
 11
533.001715
 21
2164.086244
 31
0.0
  0
CIRCLE
  5
289
330
1F
100
AcDbEntity
  8
002
  6
CENTER
 62
    40
370
     9
100
AcDbCircle
 10
438.001715
 20
2358.551866
 30
0.0
 40
118.0
  0
LINE
  5
28A
330
1F
100
AcDbEntity
  8
002
  6
CENTER
 62
    40
370
     9
100
AcDbLine
 10
551.793715
 20
2424.249866
 30
0.0
 11
528.537715
 21
2410.822866
 31
0.0
  0
LINE
  5
28B
330
1F
100
AcDbEntity
  8
002
  6
CENTER
 62
    40
370
     9
100
AcDbLine
 10
490.272715
 20
2449.086866
 30
0.0
 11
503.699715
 21
2472.343866
 31
0.0
  0
LINE
  5
28C
330
1F
100
AcDbEntity
  8
002
  6
CENTER
 62
    40
370
     9
100
AcDbLine
 10
438.001715
 20
2510.543866
 30
0.0
 11
438.001715
 21
2207.071866
 31
0.0
  0
LINE
  5
28D
330
1F
100
AcDbEntity
  8
002
  6
CENTER
 62
    40
370
     9
100
AcDbLine
 10
528.537715
 20
2306.280866
 30
0.0
 11
551.793715
 21
2292.853866
 31
0.0
  0
LINE
  5
28E
330
1F
100
AcDbEntity
  8
002
  6
CENTER
 62
    40
370
     9
100
AcDbLine
 10
503.699715
 20
2244.759866
 30
0.0
 11
490.272715
 21
2268.015866
 31
0.0
  0
CIRCLE
  5
28F
330
1F
100
AcDbEntity
  8
002
 62
    40
370
     9
100
AcDbCircle
 10
438.001715
 20
2358.551866
 30
0.0
 40
29.0
  0
LINE
  5
290
330
1F
100
AcDbEntity
  8
002
  6
CENTER
 62
    40
370
     9
100
AcDbLine
 10
372.303715
 20
2244.759866
 30
0.0
 11
385.730715
 21
2268.015866
 31
0.0
  0
LINE
  5
291
330
1F
100
AcDbEntity
  8
002
  6
CENTER
 62
    40
370
     9
100
AcDbLine
 10
324.209715
 20
2292.853866
 30
0.0
 11
347.465715
 21
2306.280866
 31
0.0
  0
LINE
  5
292
330
1F
100
AcDbEntity
  8
002
  6
CENTER
 62
    40
370
     9
100
AcDbLine
 10
343.001715
 20
2280.623866
 30
0.0
 11
343.001715
 21
2218.582866
 31
0.0
  0
LINE
  5
293
330
1F
100
AcDbEntity
  8
002
  6
CENTER
 62
    40
370
     9
100
AcDbLine
 10
361.941715
 20
2263.551866
 30
0.0
 11
295.230715
 21
2263.551866
 31
0.0
  0
LINE
  5
294
330
1F
100
AcDbEntity
  8
002
 62
    40
370
     9
100
AcDbLine
 10
293.001715
 20
2367.551866
 30
0.0
 11
304.262715
 21
2350.190866
 31
0.0
  0
LINE
  5
295
330
1F
100
AcDbEntity
  8
002
 62
    40
370
     9
100
AcDbLine
 10
293.001715
 20
2349.551866
 30
0.0
 11
304.262715
 21
2366.912866
 31
0.0
  0
LINE
  5
296
330
1F
100
AcDbEntity
  8
002
  6
CENTER
 62
    40
370
     9
100
AcDbLine
 10
324.209715
 20
2424.249866
 30
0.0
 11
347.465715
 21
2410.822866
 31
0.0
  0
LINE
  5
297
330
1F
100
AcDbEntity
  8
002
  6
CENTER
 62
    40
370
     9
100
AcDbLine
 10
372.303715
 20
2472.343866
 30
0.0
 11
385.730715
 21
2449.086866
 31
0.0
  0
LINE
  5
298
330
1F
100
AcDbEntity
  8
002
  6
CENTER
 62
    40
370
     9
100
AcDbLine
 10
343.001715
 20
2436.478866
 30
0.0
 11
343.001715
 21
2498.519866
 31
0.0
  0
LINE
  5
299
330
1F
100
AcDbEntity
  8
002
  6
CENTER
 62
    40
370
     9
100
AcDbLine
 10
361.941715
 20
2453.551866
 30
0.0
 11
295.230715
 21
2453.551866
 31
0.0
  0
LINE
  5
29A
330
1F
100
AcDbEntity
  8
002
  6
CENTER
 62
    40
370
     9
100
AcDbLine
 10
533.001715
 20
1771.896866
 30
0.0
 11
533.001715
 21
1822.168866
 31
0.0
  0
LINE
  5
29B
330
1F
100
AcDbEntity
  8
002
  6
CENTER
 62
    40
370
     9
100
AcDbLine
 10
508.273715
 20
1795.208866
 30
0.0
 11
558.816715
 21
1795.208866
 31
0.0
  0
ARC
  5
29C
330
1F
100
AcDbEntity
  8
002
 62
     3
370
    30
100
AcDbCircle
 10
533.001715
 20
1795.208866
 30
0.0
 40
17.49951142175116
100
AcDbArc
 50
106.602027
 51
73.397973
  0
CIRCLE
  5
29D
330
1F
100
AcDbEntity
  8
002
 62
     3
370
    30
100
AcDbCircle
 10
367.291015
 20
1392.018866
 30
0.0
 40
13.0
  0
CIRCLE
  5
29E
330
1F
100
AcDbEntity
  8
002
 62
     3
370
    30
100
AcDbCircle
 10
438.001715
 20
1462.729866
 30
0.0
 40
42.5
  0
CIRCLE
  5
29F
330
1F
100
AcDbEntity
  8
002
 62
     3
370
    30
100
AcDbCircle
 10
508.712415
 20
1533.439866
 30
0.0
 40
13.0
  0
CIRCLE
  5
2A0
330
1F
100
AcDbEntity
  8
002
 62
     3
370
    30
100
AcDbCircle
 10
438.001715
 20
1462.729866
 30
0.0
 40
125.0
  0
CIRCLE
  5
2A1
330
1F
100
AcDbEntity
  8
002
 62
     3
370
    30
100
AcDbCircle
 10
508.712415
 20
1392.018866
 30
0.0
 40
13.0
  0
CIRCLE
  5
2A2
330
1F
100
AcDbEntity
  8
002
 62
     3
370
    30
100
AcDbCircle
 10
367.291015
 20
1533.439866
 30
0.0
 40
13.0
  0
LINE
  5
2A3
330
1F
100
AcDbEntity
  8
002
 62
     3
370
    30
100
AcDbLine
 10
658.001715
 20
206.26446
 30
0.0
 11
658.001715
 21
230.26446
 31
0.0
  0
ARC
  5
2A4
330
1F
100
AcDbEntity
  8
002
 62
     3
370
    30
100
AcDbCircle
 10
656.001715
 20
230.26446
 30
0.0
 40
2.0
100
AcDbArc
 50
0.0
 51
90.0
  0
LINE
  5
2A5
330
1F
100
AcDbEntity
  8
002
 62
     3
370
    30
100
AcDbLine
 10
656.001715
 20
232.26446
 30
0.0
 11
310.001715
 21
232.26446
 31
0.0
  0
ARC
  5
2A6
330
1F
100
AcDbEntity
  8
002
 62
     3
370
    30
100
AcDbCircle
 10
310.001715
 20
230.26446
 30
0.0
 40
2.0
100
AcDbArc
 50
90.0
 51
180.0
  0
LINE
  5
2A7
330
1F
100
AcDbEntity
  8
002
 62
     3
370
    30
100
AcDbLine
 10
308.001715
 20
230.26446
 30
0.0
 11
308.001715
 21
206.26446
 31
0.0
  0
LINE
  5
2A8
330
1F
100
AcDbEntity
  8
002
 62
     3
370
    30
100
AcDbLine
 10
308.001715
 20
206.26446
 30
0.0
 11
658.001715
 21
206.26446
 31
0.0
  0
LINE
  5
2A9
330
1F
100
AcDbEntity
  8
002
 62
     3
370
    30
100
AcDbLine
 10
651.558715
 20
234.76706
 30
0.0
 11
590.565715
 21
340.55456
 31
0.0
  0
LINE
  5
2AA
330
1F
100
AcDbEntity
  8
002
 62
     3
370
    30
100
AcDbLine
 10
590.565715
 20
340.55456
 30
0.0
 11
588.665715
 21
340.55456
 31
0.0
  0
ARC
  5
2AB
330
1F
100
AcDbEntity
  8
002
 62
     3
370
    30
100
AcDbCircle
 10
588.665715
 20
343.55456
 30
0.0
 40
3.0
100
AcDbArc
 50
213.823037
 51
270.0
  0
LINE
  5
2AC
330
1F
100
AcDbEntity
  8
002
 62
     3
370
    30
100
AcDbLine
 10
587.001715
 20
338.20196
 30
0.0
 11
587.001715
 21
232.26446
 31
0.0
  0
LINE
  5
2AD
330
1F
100
AcDbEntity
  8
002
 62
     3
370
    30
100
AcDbLine
 10
597.001715
 20
232.26446
 30
0.0
 11
597.001715
 21
306.26446
 31
0.0
  0
ARC
  5
2AE
330
1F
100
AcDbEntity
  8
002
 62
     3
370
    30
100
AcDbCircle
 10
533.001715
 20
306.26446
 30
0.0
 40
64.00045221723039
100
AcDbArc
 50
0.0
 51
325.22837
  0
ARC
  5
2AF
330
1F
100
AcDbEntity
  8
002
 62
     3
370
    30
100
AcDbCircle
 10
579.001715
 20
274.32706
 30
0.0
 40
8.0
100
AcDbArc
 50
325.230338
 51
0.0
  0
LINE
  5
2B0
330
1F
100
AcDbEntity
  8
002
 62
     3
370
    30
100
AcDbLine
 10
469.001715
 20
306.26446
 30
0.0
 11
469.001715
 21
237.26446
 31
0.0
  0
ARC
  5
2B1
330
1F
100
AcDbEntity
  8
002
 62
     3
370
    30
100
AcDbCircle
 10
464.001715
 20
237.26446
 30
0.0
 40
5.0
100
AcDbArc
 50
270.0
 51
0.0
  0
LINE
  5
2B2
330
1F
100
AcDbEntity
  8
002
 62
     3
370
    30
100
AcDbLine
 10
446.001715
 20
200.26446
 30
0.0
 11
446.001715
 21
190.26446
 31
0.0
  0
LINE
  5
2B3
330
1F
100
AcDbEntity
  8
002
 62
     3
370
    30
100
AcDbLine
 10
430.001715
 20
190.26446
 30
0.0
 11
446.001715
 21
190.26446
 31
0.0
  0
LINE
  5
2B4
330
1F
100
AcDbEntity
  8
002
 62
     3
370
    30
100
AcDbLine
 10
430.001715
 20
190.26446
 30
0.0
 11
430.001715
 21
200.26446
 31
0.0
  0
LINE
  5
2B5
330
1F
100
AcDbEntity
  8
002
 62
     3
370
    30
100
AcDbLine
 10
380.851715
 20
200.26446
 30
0.0
 11
380.851715
 21
131.26446
 31
0.0
  0
LINE
  5
2B6
330
1F
100
AcDbEntity
  8
002
 62
     3
370
    30
100
AcDbLine
 10
380.851715
 20
131.26446
 30
0.0
 11
495.151715
 21
131.26446
 31
0.0
  0
LINE
  5
2B7
330
1F
100
AcDbEntity
  8
002
 62
     3
370
    30
100
AcDbLine
 10
495.151715
 20
131.26446
 30
0.0
 11
495.151715
 21
200.26446
 31
0.0
  0
LINE
  5
2B8
330
1F
100
AcDbEntity
  8
002
 62
     3
370
    30
100
AcDbLine
 10
507.501715
 20
200.26446
 30
0.0
 11
507.501715
 21
190.26446
 31
0.0
  0
LINE
  5
2B9
330
1F
100
AcDbEntity
  8
002
 62
     3
370
    30
100
AcDbLine
 10
523.501715
 20
190.26446
 30
0.0
 11
507.501715
 21
190.26446
 31
0.0
  0
LINE
  5
2BA
330
1F
100
AcDbEntity
  8
002
 62
     3
370
    30
100
AcDbLine
 10
523.501715
 20
190.26446
 30
0.0
 11
523.501715
 21
200.26446
 31
0.0
  0
LINE
  5
2BB
330
1F
100
AcDbEntity
  8
002
 62
     3
370
    30
100
AcDbLine
 10
525.501715
 20
200.26446
 30
0.0
 11
525.501715
 21
206.26446
 31
0.0
  0
LINE
  5
2BC
330
1F
100
AcDbEntity
  8
002
 62
     3
370
    30
100
AcDbLine
 10
525.501715
 20
200.26446
 30
0.0
 11
350.501715
 21
200.26446
 31
0.0
  0
LINE
  5
2BD
330
1F
100
AcDbEntity
  8
002
 62
     3
370
    30
100
AcDbLine
 10
350.501715
 20
200.26446
 30
0.0
 11
350.501715
 21
206.26446
 31
0.0
  0
LINE
  5
2BE
330
1F
100
AcDbEntity
  8
002
 62
     3
370
    30
100
AcDbLine
 10
352.501715
 20
200.26446
 30
0.0
 11
352.501715
 21
190.26446
 31
0.0
  0
LINE
  5
2BF
330
1F
100
AcDbEntity
  8
002
 62
     3
370
    30
100
AcDbLine
 10
368.501715
 20
190.26446
 30
0.0
 11
352.501715
 21
190.26446
 31
0.0
  0
LINE
  5
2C0
330
1F
100
AcDbEntity
  8
002
 62
     3
370
    30
100
AcDbLine
 10
368.501715
 20
190.26446
 30
0.0
 11
368.501715
 21
200.26446
 31
0.0
  0
ARC
  5
2C1
330
1F
100
AcDbEntity
  8
002
 62
     3
370
    30
100
AcDbCircle
 10
372.999715
 20
237.26446
 30
0.0
 40
5.0
100
AcDbArc
 50
270.0
 51
0.0
  0
LINE
  5
2C2
330
1F
100
AcDbEntity
  8
002
 62
     3
370
    30
100
AcDbLine
 10
377.999715
 20
237.26446
 30
0.0
 11
377.999715
 21
348.26446
 31
0.0
  0
ARC
  5
2C3
330
1F
100
AcDbEntity
  8
002
 62
     3
370
    30
100
AcDbCircle
 10
372.999715
 20
348.26446
 30
0.0
 40
5.0
100
AcDbArc
 50
0.0
 51
90.0
  0
LINE
  5
2C4
330
1F
100
AcDbEntity
  8
002
 62
     3
370
    30
100
AcDbLine
 10
372.999715
 20
353.26446
 30
0.0
 11
348.430715
 21
353.26446
 31
0.0
  0
ARC
  5
2C5
330
1F
100
AcDbEntity
  8
002
 62
     3
370
    30
100
AcDbCircle
 10
348.430715
 20
348.26446
 30
0.0
 40
5.0
100
AcDbArc
 50
90.0
 51
180.0
  0
LINE
  5
2C6
330
1F
100
AcDbEntity
  8
002
 62
     3
370
    30
100
AcDbLine
 10
343.430715
 20
348.26446
 30
0.0
 11
343.430715
 21
237.26446
 31
0.0
  0
ARC
  5
2C7
330
1F
100
AcDbEntity
  8
002
 62
     3
370
    30
100
AcDbCircle
 10
338.430715
 20
237.26446
 30
0.0
 40
5.0
100
AcDbArc
 50
270.0
 51
0.0
  0
LINE
  5
2C8
330
1F
100
AcDbEntity
  8
002
 62
     3
370
    30
100
AcDbLine
 10
326.001715
 20
237.26446
 30
0.0
 11
326.001715
 21
259.86336
 31
0.0
  0
ARC
  5
2C9
330
1F
100
AcDbEntity
  8
002
 62
     3
370
    30
100
AcDbCircle
 10
316.001715
 20
259.86336
 30
0.0
 40
10.00006824976707
100
AcDbArc
 50
0.0
 51
65.908363
  0
LINE
  5
2CA
330
1F
100
AcDbEntity
  8
002
 62
     3
370
    30
100
AcDbLine
 10
320.083715
 20
268.99236
 30
0.0
 11
315.001715
 21
271.26446
 31
0.0
  0
LINE
  5
2CB
330
1F
100
AcDbEntity
  8
002
 62
     3
370
    30
100
AcDbLine
 10
315.001715
 20
271.26446
 30
0.0
 11
315.001715
 21
346.26446
 31
0.0
  0
ARC
  5
2CC
330
1F
100
AcDbEntity
  8
002
 62
     3
370
    30
100
AcDbCircle
 10
305.001715
 20
346.26446
 30
0.0
 40
10.0
100
AcDbArc
 50
0.0
 51
90.0
  0
LINE
  5
2CD
330
1F
100
AcDbEntity
  8
002
 62
     3
370
    30
100
AcDbLine
 10
304.001715
 20
356.26446
 30
0.0
 11
304.001715
 21
400.26446
 31
0.0
  0
LINE
  5
2CE
330
1F
100
AcDbEntity
  8
002
 62
     3
370
    30
100
AcDbLine
 10
304.001715
 20
400.26446
 30
0.0
 11
572.001715
 21
400.26446
 31
0.0
  0
LINE
  5
2CF
330
1F
100
AcDbEntity
  8
002
 62
     3
370
    30
100
AcDbLine
 10
572.001715
 20
400.26446
 30
0.0
 11
572.001715
 21
356.26446
 31
0.0
  0
ARC
  5
2D0
330
1F
100
AcDbEntity
  8
002
 62
     3
370
    30
100
AcDbCircle
 10
579.001715
 20
338.20196
 30
0.0
 40
8.00041734911359
100
AcDbArc
 50
0.0
 51
34.769073
  0
LINE
  5
2D1
330
1F
100
AcDbEntity
  8
002
 62
     3
370
    30
100
AcDbLine
 10
572.001715
 20
386.26446
 30
0.0
 11
304.001715
 21
386.26446
 31
0.0
  0
LINE
  5
2D2
330
1F
100
AcDbEntity
  8
002
 62
     3
370
    30
100
AcDbLine
 10
309.501715
 20
400.26446
 30
0.0
 11
309.501715
 21
414.26446
 31
0.0
  0
LINE
  5
2D3
330
1F
100
AcDbEntity
  8
002
 62
     3
370
    30
100
AcDbLine
 10
346.310715
 20
414.26446
 30
0.0
 11
346.310715
 21
400.26446
 31
0.0
  0
LINE
  5
2D4
330
1F
100
AcDbEntity
  8
002
 62
     3
370
    30
100
AcDbLine
 10
346.310715
 20
401.26446
 30
0.0
 11
368.501715
 21
401.26446
 31
0.0
  0
LINE
  5
2D5
330
1F
100
AcDbEntity
  8
002
 62
     3
370
    30
100
AcDbLine
 10
368.501715
 20
400.26446
 30
0.0
 11
368.501715
 21
414.26446
 31
0.0
  0
LINE
  5
2D6
330
1F
100
AcDbEntity
  8
002
 62
     3
370
    30
100
AcDbLine
 10
368.501715
 20
414.26446
 30
0.0
 11
389.501715
 21
414.26446
 31
0.0
  0
LINE
  5
2D7
330
1F
100
AcDbEntity
  8
002
 62
     3
370
    30
100
AcDbLine
 10
389.501715
 20
414.26446
 30
0.0
 11
389.501715
 21
400.26446
 31
0.0
  0
LINE
  5
2D8
330
1F
100
AcDbEntity
  8
002
 62
     3
370
    30
100
AcDbLine
 10
389.501715
 20
401.26446
 30
0.0
 11
427.501715
 21
401.26446
 31
0.0
  0
LINE
  5
2D9
330
1F
100
AcDbEntity
  8
002
 62
     3
370
    30
100
AcDbLine
 10
427.501715
 20
400.26446
 30
0.0
 11
427.501715
 21
414.26446
 31
0.0
  0
LINE
  5
2DA
330
1F
100
AcDbEntity
  8
002
 62
     3
370
    30
100
AcDbLine
 10
427.501715
 20
414.26446
 30
0.0
 11
448.501715
 21
414.26446
 31
0.0
  0
LINE
  5
2DB
330
1F
100
AcDbEntity
  8
002
 62
     3
370
    30
100
AcDbLine
 10
448.501715
 20
414.26446
 30
0.0
 11
448.501715
 21
400.26446
 31
0.0
  0
LINE
  5
2DC
330
1F
100
AcDbEntity
  8
002
 62
     3
370
    30
100
AcDbLine
 10
448.501715
 20
401.26446
 30
0.0
 11
486.501715
 21
401.26446
 31
0.0
  0
LINE
  5
2DD
330
1F
100
AcDbEntity
  8
002
 62
     3
370
    30
100
AcDbLine
 10
486.501715
 20
400.26446
 30
0.0
 11
486.501715
 21
414.26446
 31
0.0
  0
LINE
  5
2DE
330
1F
100
AcDbEntity
  8
002
 62
     3
370
    30
100
AcDbLine
 10
486.501715
 20
414.26446
 30
0.0
 11
507.501715
 21
414.26446
 31
0.0
  0
LINE
  5
2DF
330
1F
100
AcDbEntity
  8
002
 62
     3
370
    30
100
AcDbLine
 10
507.501715
 20
414.26446
 30
0.0
 11
507.501715
 21
400.26446
 31
0.0
  0
LINE
  5
2E0
330
1F
100
AcDbEntity
  8
002
 62
     3
370
    30
100
AcDbLine
 10
507.501715
 20
401.26446
 30
0.0
 11
529.692715
 21
401.26446
 31
0.0
  0
LINE
  5
2E1
330
1F
100
AcDbEntity
  8
002
 62
     3
370
    30
100
AcDbLine
 10
529.692715
 20
400.26446
 30
0.0
 11
529.692715
 21
414.26446
 31
0.0
  0
LINE
  5
2E2
330
1F
100
AcDbEntity
  8
002
 62
     3
370
    30
100
AcDbLine
 10
529.692715
 20
414.26446
 30
0.0
 11
566.501715
 21
414.26446
 31
0.0
  0
LINE
  5
2E3
330
1F
100
AcDbEntity
  8
002
 62
     3
370
    30
100
AcDbLine
 10
528.001715
 20
416.26446
 30
0.0
 11
348.001715
 21
416.26446
 31
0.0
  0
LINE
  5
2E4
330
1F
100
AcDbEntity
  8
002
 62
     3
370
    30
100
AcDbLine
 10
348.001715
 20
416.26446
 30
0.0
 11
347.488715
 21
410.39296
 31
0.0
  0
LINE
  5
2E5
330
1F
100
AcDbEntity
  8
002
 62
     3
370
    30
100
AcDbLine
 10
346.310715
 20
414.26446
 30
0.0
 11
309.501715
 21
414.26446
 31
0.0
  0
LINE
  5
2E6
330
1F
100
AcDbEntity
  8
002
 62
     3
370
    30
100
AcDbLine
 10
325.310715
 20
414.26446
 30
0.0
 11
325.310715
 21
400.26446
 31
0.0
  0
ARC
  5
2E7
330
1F
100
AcDbEntity
  8
002
 62
     3
370
    30
100
AcDbCircle
 10
337.526715
 20
411.26446
 30
0.0
 40
10.00004781238592
100
AcDbArc
 50
331.455802
 51
355.000354
  0
LINE
  5
2E8
330
1F
100
AcDbEntity
  8
002
 62
     3
370
    30
100
AcDbLine
 10
388.001715
 20
416.26446
 30
0.0
 11
388.001715
 21
426.26446
 31
0.0
  0
LINE
  5
2E9
330
1F
100
AcDbEntity
  8
002
 62
     3
370
    30
100
AcDbLine
 10
388.001715
 20
426.26446
 30
0.0
 11
488.001715
 21
426.26446
 31
0.0
  0
LINE
  5
2EA
330
1F
100
AcDbEntity
  8
002
 62
     3
370
    30
100
AcDbLine
 10
488.001715
 20
426.26446
 30
0.0
 11
488.001715
 21
416.26446
 31
0.0
  0
LINE
  5
2EB
330
1F
100
AcDbEntity
  8
002
 62
     3
370
    30
100
AcDbLine
 10
528.001715
 20
416.26446
 30
0.0
 11
528.515715
 21
410.39296
 31
0.0
  0
ARC
  5
2EC
330
1F
100
AcDbEntity
  8
002
 62
     3
370
    30
100
AcDbCircle
 10
538.477715
 20
411.26446
 30
0.0
 40
10.0003232252762
100
AcDbArc
 50
184.999646
 51
208.54146
  0
LINE
  5
2ED
330
1F
100
AcDbEntity
  8
002
 62
     3
370
    30
100
AcDbLine
 10
550.692715
 20
414.26446
 30
0.0
 11
550.692715
 21
400.26446
 31
0.0
  0
LINE
  5
2EE
330
1F
100
AcDbEntity
  8
002
 62
     3
370
    30
100
AcDbLine
 10
566.501715
 20
400.26446
 30
0.0
 11
566.501715
 21
414.26446
 31
0.0
  0
LINE
  5
2EF
330
1F
100
AcDbEntity
  8
002
 62
     3
370
    30
100
AcDbLine
 10
508.429715
 20
365.35916
 30
0.0
 11
508.429715
 21
368.59566
 31
0.0
  0
ARC
  5
2F0
330
1F
100
AcDbEntity
  8
002
 62
     3
370
    30
100
AcDbCircle
 10
533.001715
 20
306.26446
 30
0.0
 40
66.99986271627724
100
AcDbArc
 50
111.515187
 51
131.731685
  0
LINE
  5
2F1
330
1F
100
AcDbEntity
  8
002
 62
     3
370
    30
100
AcDbLine
 10
488.403715
 20
356.26446
 30
0.0
 11
304.001715
 21
356.26446
 31
0.0
  0
LINE
  5
2F2
330
1F
100
AcDbEntity
  8
002
 62
     3
370
    30
100
AcDbLine
 10
333.356715
 20
346.26446
 30
0.0
 11
333.356715
 21
306.26446
 31
0.0
  0
LINE
  5
2F3
330
1F
100
AcDbEntity
  8
002
 62
     3
370
    30
100
AcDbLine
 10
315.001715
 20
322.87006
 30
0.0
 11
305.001715
 21
323.18256
 31
0.0
  0
LINE
  5
2F4
330
1F
100
AcDbEntity
  8
002
 62
     3
370
    30
100
AcDbLine
 10
305.001715
 20
323.18256
 30
0.0
 11
305.001715
 21
289.34646
 31
0.0
  0
LINE
  5
2F5
330
1F
100
AcDbEntity
  8
002
 62
     3
370
    30
100
AcDbLine
 10
305.001715
 20
289.34646
 30
0.0
 11
315.001715
 21
289.65896
 31
0.0
  0
LINE
  5
2F6
330
1F
100
AcDbEntity
  8
002
 62
     3
370
    30
100
AcDbLine
 10
305.001715
 20
296.76446
 30
0.0
 11
293.001715
 21
297.26446
 31
0.0
  0
LINE
  5
2F7
330
1F
100
AcDbEntity
  8
002
 62
     3
370
    30
100
AcDbLine
 10
293.001715
 20
297.26446
 30
0.0
 11
293.001715
 21
315.26446
 31
0.0
  0
LINE
  5
2F8
330
1F
100
AcDbEntity
  8
002
 62
     3
370
    30
100
AcDbLine
 10
293.001715
 20
315.26446
 30
0.0
 11
305.001715
 21
315.76446
 31
0.0
  0
ARC
  5
2F9
330
1F
100
AcDbEntity
  8
002
 62
     3
370
    30
100
AcDbCircle
 10
323.356715
 20
346.26446
 30
0.0
 40
10.00040819166902
100
AcDbArc
 50
0.0
 51
44.424712
  0
LINE
  5
2FA
330
1F
100
AcDbEntity
  8
002
 62
     3
370
    30
100
AcDbLine
 10
345.999715
 20
345.59196
 30
0.0
 11
375.999715
 21
345.59196
 31
0.0
  0
LINE
  5
2FB
330
1F
100
AcDbEntity
  8
002
 62
     3
370
    30
100
AcDbLine
 10
435.115715
 20
311.26446
 30
0.0
 11
440.888715
 21
311.26446
 31
0.0
  0
LINE
  5
2FC
330
1F
100
AcDbEntity
  8
002
 62
     3
370
    30
100
AcDbLine
 10
440.888715
 20
311.26446
 30
0.0
 11
443.775715
 21
306.26446
 31
0.0
  0
LINE
  5
2FD
330
1F
100
AcDbEntity
  8
002
 62
     3
370
    30
100
AcDbLine
 10
443.775715
 20
306.26446
 30
0.0
 11
440.888715
 21
301.26446
 31
0.0
  0
LINE
  5
2FE
330
1F
100
AcDbEntity
  8
002
 62
     3
370
    30
100
AcDbLine
 10
440.888715
 20
301.26446
 30
0.0
 11
435.115715
 21
301.26446
 31
0.0
  0
LINE
  5
2FF
330
1F
100
AcDbEntity
  8
002
 62
     3
370
    30
100
AcDbLine
 10
435.115715
 20
301.26446
 30
0.0
 11
432.228715
 21
306.26446
 31
0.0
  0
LINE
  5
300
330
1F
100
AcDbEntity
  8
002
 62
     3
370
    30
100
AcDbLine
 10
432.228715
 20
306.26446
 30
0.0
 11
435.115715
 21
311.26446
 31
0.0
  0
CIRCLE
  5
301
330
1F
100
AcDbEntity
  8
002
 62
     3
370
    30
100
AcDbCircle
 10
438.001715
 20
306.26446
 30
0.0
 40
0.75
  0
CIRCLE
  5
302
330
1F
100
AcDbEntity
  8
002
 62
     3
370
    30
100
AcDbCircle
 10
438.001715
 20
306.26446
 30
0.0
 40
2.5
  0
CIRCLE
  5
303
330
1F
100
AcDbEntity
  8
002
 62
     3
370
    30
100
AcDbCircle
 10
438.001715
 20
306.26446
 30
0.0
 40
3.25
  0
CIRCLE
  5
304
330
1F
100
AcDbEntity
  8
002
 62
     3
370
    30
100
AcDbCircle
 10
438.001715
 20
306.26446
 30
0.0
 40
5.0
  0
CIRCLE
  5
305
330
1F
100
AcDbEntity
  8
002
 62
     3
370
    30
100
AcDbCircle
 10
438.001715
 20
306.26446
 30
0.0
 40
15.0
  0
ARC
  5
306
330
1F
100
AcDbEntity
  8
002
 62
     3
370
    30
100
AcDbCircle
 10
655.890715
 20
237.26446
 30
0.0
 40
5.0
100
AcDbArc
 50
209.963469
 51
270.0
  0
LINE
  5
307
330
1F
100
AcDbEntity
  8
002
 62
     3
370
    30
100
AcDbLine
 10
500.501715
 20
885.26366
 30
0.0
 11
375.501715
 21
885.26366
 31
0.0
  0
LINE
  5
308
330
1F
100
AcDbEntity
  8
002
 62
     3
370
    30
100
AcDbLine
 10
375.501715
 20
885.26366
 30
0.0
 11
375.501715
 21
795.26406
 31
0.0
  0
LINE
  5
309
330
1F
100
AcDbEntity
  8
002
 62
     3
370
    30
100
AcDbLine
 10
373.501715
 20
833.49006
 30
0.0
 11
370.501715
 21
833.49006
 31
0.0
  0
LINE
  5
30A
330
1F
100
AcDbEntity
  8
002
 62
     3
370
    30
100
AcDbLine
 10
370.501715
 20
833.49006
 30
0.0
 11
367.588715
 21
836.40406
 31
0.0
  0
LINE
  5
30B
330
1F
100
AcDbEntity
  8
002
 62
     3
370
    30
100
AcDbLine
 10
367.025715
 20
836.96606
 30
0.0
 11
367.025715
 21
841.56106
 31
0.0
  0
ARC
  5
30C
330
1F
100
AcDbEntity
  8
002
 62
     3
370
    30
100
AcDbCircle
 10
366.881715
 20
842.83106
 30
0.0
 40
1.000001999998141
100
AcDbArc
 50
237.994617
 51
315.0
  0
LINE
  5
30D
330
1F
100
AcDbEntity
  8
002
 62
     3
370
    30
100
AcDbLine
 10
366.351715
 20
841.98306
 30
0.0
 11
365.501715
 21
842.51406
 31
0.0
  0
LINE
  5
30E
330
1F
100
AcDbEntity
  8
002
 62
     3
370
    30
100
AcDbLine
 10
365.501715
 20
842.51406
 30
0.0
 11
362.501715
 21
841.76406
 31
0.0
  0
LINE
  5
30F
330
1F
100
AcDbEntity
  8
002
 62
     3
370
    30
100
AcDbLine
 10
362.501715
 20
841.76406
 30
0.0
 11
362.501715
 21
836.76406
 31
0.0
  0
LINE
  5
310
330
1F
100
AcDbEntity
  8
002
 62
     3
370
    30
100
AcDbLine
 10
362.501715
 20
836.76406
 30
0.0
 11
365.501715
 21
836.01406
 31
0.0
  0
LINE
  5
311
330
1F
100
AcDbEntity
  8
002
 62
     3
370
    30
100
AcDbLine
 10
365.501715
 20
836.01406
 30
0.0
 11
366.351715
 21
836.54406
 31
0.0
  0
ARC
  5
312
330
1F
100
AcDbEntity
  8
002
 62
     3
370
    30
100
AcDbCircle
 10
366.881715
 20
835.69606
 30
0.0
 40
1.000556345239961
100
AcDbArc
 50
45.040492
 51
122.005383
  0
LINE
  5
313
330
1F
100
AcDbEntity
  8
002
 62
     3
370
    30
100
AcDbLine
 10
365.501715
 20
836.76406
 30
0.0
 11
365.501715
 21
841.76406
 31
0.0
  0
LINE
  5
314
330
1F
100
AcDbEntity
  8
002
 62
     3
370
    30
100
AcDbLine
 10
367.588715
 20
842.12406
 30
0.0
 11
370.501715
 21
845.03706
 31
0.0
  0
LINE
  5
315
330
1F
100
AcDbEntity
  8
002
 62
     3
370
    30
100
AcDbLine
 10
370.501715
 20
845.03706
 30
0.0
 11
373.501715
 21
845.03706
 31
0.0
  0
LINE
  5
316
330
1F
100
AcDbEntity
  8
002
 62
     3
370
    30
100
AcDbLine
 10
373.501715
 20
845.03706
 30
0.0
 11
374.404715
 21
844.13406
 31
0.0
  0
ARC
  5
317
330
1F
100
AcDbEntity
  8
002
 62
     3
370
    30
100
AcDbCircle
 10
372.961715
 20
843.59406
 30
0.0
 40
1.54166663063058
100
AcDbArc
 50
290.503847
 51
20.516873
  0
LINE
  5
318
330
1F
100
AcDbEntity
  8
002
 62
     3
370
    30
100
AcDbLine
 10
373.501715
 20
842.15006
 30
0.0
 11
370.501715
 21
842.15006
 31
0.0
  0
ARC
  5
319
330
1F
100
AcDbEntity
  8
002
 62
     3
370
    30
100
AcDbCircle
 10
371.042715
 20
843.59406
 30
0.0
 40
1.540730021775364
100
AcDbArc
 50
159.483127
 51
249.46135
  0
ARC
  5
31A
330
1F
100
AcDbEntity
  8
002
 62
     3
370
    30
100
AcDbCircle
 10
369.835715
 20
839.26406
 30
0.0
 40
4.666296711526233
100
AcDbArc
 50
321.779327
 51
38.211025
  0
LINE
  5
31B
330
1F
100
AcDbEntity
  8
002
 62
     3
370
    30
100
AcDbLine
 10
373.501715
 20
836.37706
 30
0.0
 11
370.501715
 21
836.37706
 31
0.0
  0
ARC
  5
31C
330
1F
100
AcDbEntity
  8
002
 62
     3
370
    30
100
AcDbCircle
 10
374.168715
 20
839.26406
 30
0.0
 40
4.666463864640891
100
AcDbArc
 50
141.796569
 51
218.213078
  0
LINE
  5
31D
330
1F
100
AcDbEntity
  8
002
 62
     3
370
    30
100
AcDbLine
 10
374.501715
 20
843.54906
 30
0.0
 11
374.501715
 21
834.97806
 31
0.0
  0
LINE
  5
31E
330
1F
100
AcDbEntity
  8
002
 62
     3
370
    30
100
AcDbLine
 10
374.404715
 20
834.39306
 30
0.0
 11
373.501715
 21
833.49006
 31
0.0
  0
LINE
  5
31F
330
1F
100
AcDbEntity
  8
002
 62
     3
370
    30
100
AcDbLine
 10
374.073715
 20
834.06206
 30
0.0
 11
375.501715
 21
834.15106
 31
0.0
  0
ARC
  5
320
330
1F
100
AcDbEntity
  8
002
 62
     3
370
    30
100
AcDbCircle
 10
372.961715
 20
834.93306
 30
0.0
 40
1.540730021775364
100
AcDbArc
 50
339.483127
 51
69.496153
  0
ARC
  5
321
330
1F
100
AcDbEntity
  8
002
 62
     3
370
    30
100
AcDbCircle
 10
371.042715
 20
834.93306
 30
0.0
 40
1.542017185377588
100
AcDbArc
 50
110.53865
 51
200.516873
  0
ARC
  5
322
330
1F
100
AcDbEntity
  8
002
 62
     3
370
    30
100
AcDbCircle
 10
363.163715
 20
839.26406
 30
0.0
 40
1.00037193083375
100
AcDbArc
 50
131.433771
 51
228.566229
  0
LINE
  5
323
330
1F
100
AcDbEntity
  8
002
 62
     3
370
    30
100
AcDbLine
 10
374.073715
 20
844.46506
 30
0.0
 11
375.501715
 21
844.37606
 31
0.0
  0
LINE
  5
324
330
1F
100
AcDbEntity
  8
002
 62
     3
370
    30
100
AcDbLine
 10
500.501715
 20
885.26366
 30
0.0
 11
500.501715
 21
795.26406
 31
0.0
  0
LINE
  5
325
330
1F
100
AcDbEntity
  8
002
 62
     3
370
    30
100
AcDbLine
 10
480.501715
 20
885.26366
 30
0.0
 11
480.501715
 21
1006.26446
 31
0.0
  0
LINE
  5
326
330
1F
100
AcDbEntity
  8
002
 62
     3
370
    30
100
AcDbLine
 10
395.501715
 20
1006.26446
 30
0.0
 11
395.501715
 21
885.26366
 31
0.0
  0
LINE
  5
327
330
1F
100
AcDbEntity
  8
002
 62
     3
370
    30
100
AcDbLine
 10
313.001715
 20
745.26406
 30
0.0
 11
563.001715
 21
745.26406
 31
0.0
  0
LINE
  5
328
330
1F
100
AcDbEntity
  8
002
 62
     3
370
    30
100
AcDbLine
 10
563.001715
 20
745.26406
 30
0.0
 11
563.001715
 21
795.26406
 31
0.0
  0
LINE
  5
329
330
1F
100
AcDbEntity
  8
002
 62
     3
370
    30
100
AcDbLine
 10
563.001715
 20
795.26406
 30
0.0
 11
313.001715
 21
795.26406
 31
0.0
  0
LINE
  5
32A
330
1F
100
AcDbEntity
  8
002
 62
     3
370
    30
100
AcDbLine
 10
313.001715
 20
795.26406
 30
0.0
 11
313.001715
 21
745.26406
 31
0.0
  0
ARC
  5
32B
330
1F
100
AcDbEntity
  8
002
 62
     3
370
    30
100
AcDbCircle
 10
183.519715
 20
313.23636
 30
0.0
 40
149.9991131927452
100
AcDbArc
 50
341.783888
 51
357.335955
  0
ARC
  5
32C
330
1F
100
AcDbEntity
  8
002
 62
     3
370
    30
100
AcDbCircle
 10
321.001715
 20
237.26446
 30
0.0
 40
5.0
100
AcDbArc
 50
270.0
 51
0.0
  0
LINE
  5
32D
330
1F
100
AcDbEntity
  8
002
 62
    40
370
    30
100
AcDbLine
 10
375.521715
 20
843.77406
 30
0.0
 11
374.880715
 21
844.41506
 31
0.0
  0
LINE
  5
32E
330
1F
100
AcDbEntity
  8
002
 62
    40
370
    30
100
AcDbLine
 10
375.521715
 20
834.75306
 30
0.0
 11
374.880715
 21
834.11306
 31
0.0
  0
CIRCLE
  5
32F
330
1F
100
AcDbEntity
  8
002
  6
CENTER
 62
    40
370
     9
100
AcDbCircle
 10
438.001715
 20
1462.729866
 30
0.0
 40
100.0
  0
LINE
  5
330
330
1F
100
AcDbEntity
  8
002
  6
CENTER
 62
    40
370
     9
100
AcDbLine
 10
438.001715
 20
1607.071866
 30
0.0
 11
438.001715
 21
1320.397866
 31
0.0
  0
LINE
  5
331
330
1F
100
AcDbEntity
  8
002
  6
CENTER
 62
    40
370
     9
100
AcDbLine
 10
592.485615
 20
1462.729866
 30
0.0
 11
278.217215
 21
1462.729866
 31
0.0
  0
CIRCLE
  5
332
330
1F
100
AcDbEntity
  8
002
 62
    40
370
     9
100
AcDbCircle
 10
438.001715
 20
1462.729866
 30
0.0
 40
34.0
  0
LINE
  5
333
330
1F
100
AcDbEntity
  8
002
  6
CENTER
 62
    40
370
     9
100
AcDbLine
 10
494.126015
 20
1518.853866
 30
0.0
 11
522.338315
 21
1547.065866
 31
0.0
  0
LINE
  5
334
330
1F
100
AcDbEntity
  8
002
  6
CENTER
 62
    40
370
     9
100
AcDbLine
 10
494.126015
 20
1406.604866
 30
0.0
 11
522.338315
 21
1378.392866
 31
0.0
  0
LINE
  5
335
330
1F
100
AcDbEntity
  8
002
  6
CENTER
 62
    40
370
     9
100
AcDbLine
 10
353.665115
 20
1378.392866
 30
0.0
 11
381.877415
 21
1406.604866
 31
0.0
  0
LINE
  5
336
330
1F
100
AcDbEntity
  8
002
  6
CENTER
 62
    40
370
     9
100
AcDbLine
 10
353.665115
 20
1547.065866
 30
0.0
 11
381.877415
 21
1518.853866
 31
0.0
  0
LINE
  5
337
330
1F
100
AcDbEntity
  8
002
  6
CENTER
 62
    40
370
     9
100
AcDbLine
 10
538.001715
 20
808.99606
 30
0.0
 11
538.001715
 21
736.82706
 31
0.0
  0
LINE
  5
338
330
1F
100
AcDbEntity
  8
002
  6
CENTER
 62
    40
370
     9
100
AcDbLine
 10
338.001715
 20
808.99606
 30
0.0
 11
338.001715
 21
736.82706
 31
0.0
  0
LINE
  5
339
330
1F
100
AcDbEntity
  8
002
 62
    40
370
     9
100
AcDbLine
 10
404.001715
 20
1006.26446
 30
0.0
 11
404.001715
 21
885.26366
 31
0.0
  0
LINE
  5
33A
330
1F
100
AcDbEntity
  8
002
 62
    40
370
     9
100
AcDbLine
 10
472.001715
 20
885.26366
 30
0.0
 11
472.001715
 21
1006.26446
 31
0.0
  0
LINE
  5
33B
330
1F
100
AcDbEntity
  8
002
 62
    40
370
     9
100
AcDbLine
 10
480.501715
 20
451.54206
 30
0.0
 11
472.001715
 21
466.26446
 31
0.0
  0
LINE
  5
33C
330
1F
100
AcDbEntity
  8
002
 62
    40
370
     9
100
AcDbLine
 10
404.001715
 20
466.26446
 30
0.0
 11
395.501715
 21
451.54206
 31
0.0
  0
LINE
  5
33D
330
1F
100
AcDbEntity
  8
002
  6
CENTER
 62
    40
370
     9
100
AcDbLine
 10
379.001715
 20
420.23576
 30
0.0
 11
379.001715
 21
378.85326
 31
0.0
  0
LINE
  5
33E
330
1F
100
AcDbEntity
  8
002
  6
CENTER
 62
    40
370
     9
100
AcDbLine
 10
335.810715
 20
378.85326
 30
0.0
 11
335.810715
 21
420.23576
 31
0.0
  0
LINE
  5
33F
330
1F
100
AcDbEntity
  8
002
  6
CENTER
 62
    40
370
     9
100
AcDbLine
 10
320.001715
 20
420.23576
 30
0.0
 11
320.001715
 21
378.85326
 31
0.0
  0
LINE
  5
340
330
1F
100
AcDbEntity
  8
002
  6
CENTER
 62
    40
370
     9
100
AcDbLine
 10
497.001715
 20
378.85326
 30
0.0
 11
497.001715
 21
420.23576
 31
0.0
  0
LINE
  5
341
330
1F
100
AcDbEntity
  8
002
  6
CENTER
 62
    40
370
     9
100
AcDbLine
 10
540.192715
 20
378.85326
 30
0.0
 11
540.192715
 21
420.23576
 31
0.0
  0
LINE
  5
342
330
1F
100
AcDbEntity
  8
002
  6
CENTER
 62
    40
370
     9
100
AcDbLine
 10
556.001715
 20
420.23576
 30
0.0
 11
556.001715
 21
378.85326
 31
0.0
  0
LINE
  5
343
330
1F
100
AcDbEntity
  8
002
  6
CENTER
 62
    40
370
     9
100
AcDbLine
 10
515.501715
 20
217.97316
 30
0.0
 11
515.501715
 21
187.28506
 31
0.0
  0
LINE
  5
344
330
1F
100
AcDbEntity
  8
002
  6
CENTER
 62
    40
370
     9
100
AcDbLine
 10
360.501715
 20
187.28506
 30
0.0
 11
360.501715
 21
217.97316
 31
0.0
  0
LINE
  5
345
330
1F
100
AcDbEntity
  8
002
  6
CENTER
 62
    40
370
     9
100
AcDbLine
 10
274.078715
 20
306.26446
 30
0.0
 11
623.001715
 21
306.26446
 31
0.0
  0
LINE
  5
346
330
1F
100
AcDbEntity
  8
002
  6
CENTER
 62
    40
370
     9
100
AcDbLine
 10
533.001715
 20
232.26446
 30
0.0
 11
533.001715
 21
378.57656
 31
0.0
  0
LINE
  5
347
330
1F
100
AcDbEntity
  8
002
  6
CENTER
 62
    40
370
     9
100
AcDbLine
 10
360.356715
 20
839.26406
 30
0.0
 11
379.384715
 21
839.26406
 31
0.0
  0
LINE
  5
348
330
1F
100
AcDbEntity
  8
002
 62
    40
370
     9
100
AcDbLine
 10
305.001715
 20
290.78676
 30
0.0
 11
315.001715
 21
291.09926
 31
0.0
  0
LINE
  5
349
330
1F
100
AcDbEntity
  8
002
 62
    40
370
     9
100
AcDbLine
 10
315.001715
 20
321.42966
 30
0.0
 11
305.001715
 21
321.74216
 31
0.0
  0
LINE
  5
34A
330
1F
100
AcDbEntity
  8
002
 62
    40
370
     9
100
AcDbLine
 10
305.001715
 20
296.76446
 30
0.0
 11
293.001715
 21
315.26446
 31
0.0
  0
LINE
  5
34B
330
1F
100
AcDbEntity
  8
002
 62
    40
370
     9
100
AcDbLine
 10
305.001715
 20
315.76446
 30
0.0
 11
293.001715
 21
297.26446
 31
0.0
  0
LINE
  5
34C
330
1F
100
AcDbEntity
  8
002
  6
HIDDEN
 62
    40
370
     9
100
AcDbLine
 10
359.501715
 20
206.26446
 30
0.0
 11
359.501715
 21
231.26446
 31
0.0
  0
LINE
  5
34D
330
1F
100
AcDbEntity
  8
002
  6
HIDDEN
 62
    40
370
     9
100
AcDbLine
 10
326.501715
 20
231.26446
 30
0.0
 11
326.501715
 21
206.26446
 31
0.0
  0
LINE
  5
34E
330
1F
100
AcDbEntity
  8
002
  6
HIDDEN
 62
    40
370
     9
100
AcDbLine
 10
310.501715
 20
231.26446
 30
0.0
 11
310.501715
 21
232.26446
 31
0.0
  0
LINE
  5
34F
330
1F
100
AcDbEntity
  8
002
  6
HIDDEN
 62
    40
370
     9
100
AcDbLine
 10
375.501715
 20
231.26446
 30
0.0
 11
310.501715
 21
231.26446
 31
0.0
  0
LINE
  5
350
330
1F
100
AcDbEntity
  8
002
  6
HIDDEN
 62
    40
370
     9
100
AcDbLine
 10
375.501715
 20
231.26446
 30
0.0
 11
375.501715
 21
232.26446
 31
0.0
  0
LINE
  5
351
330
1F
100
AcDbEntity
  8
002
  6
HIDDEN
 62
    40
370
     9
100
AcDbLine
 10
606.501715
 20
231.26446
 30
0.0
 11
606.501715
 21
206.26446
 31
0.0
  0
LINE
  5
352
330
1F
100
AcDbEntity
  8
002
  6
HIDDEN
 62
    40
370
     9
100
AcDbLine
 10
590.501715
 20
231.26446
 30
0.0
 11
655.501715
 21
231.26446
 31
0.0
  0
LINE
  5
353
330
1F
100
AcDbEntity
  8
002
  6
HIDDEN
 62
    40
370
     9
100
AcDbLine
 10
590.501715
 20
232.26446
 30
0.0
 11
590.501715
 21
231.26446
 31
0.0
  0
LINE
  5
354
330
1F
100
AcDbEntity
  8
002
  6
HIDDEN
 62
    40
370
     9
100
AcDbLine
 10
639.501715
 20
231.26446
 30
0.0
 11
639.501715
 21
206.26446
 31
0.0
  0
LINE
  5
355
330
1F
100
AcDbEntity
  8
002
  6
HIDDEN
 62
    40
370
     9
100
AcDbLine
 10
655.501715
 20
231.26446
 30
0.0
 11
655.501715
 21
232.26446
 31
0.0
  0
LINE
  5
356
330
1F
100
AcDbEntity
  8
002
  6
CENTER
 62
    40
370
     9
100
AcDbLine
 10
623.001715
 20
195.32726
 30
0.0
 11
623.001715
 21
239.42516
 31
0.0
  0
LINE
  5
357
330
1F
100
AcDbEntity
  8
002
  6
CENTER
 62
    40
370
     9
100
AcDbLine
 10
343.001715
 20
239.42516
 30
0.0
 11
343.001715
 21
195.32726
 31
0.0
  0
CIRCLE
  5
358
330
1F
100
AcDbEntity
  8
002
 62
     3
370
    30
100
AcDbCircle
 10
438.001715
 20
1462.729866
 30
0.0
 40
61.5
  0
LINE
  5
359
330
1F
100
AcDbEntity
  8
002
 62
     3
370
    30
100
AcDbLine
 10
375.073715
 20
1457.528866
 30
0.0
 11
376.713443
 21
1457.631062
 31
0.0
  0
LINE
  5
35A
330
1F
100
AcDbEntity
  8
002
 62
     3
370
    30
100
AcDbLine
 10
376.657473
 20
1458.355624
 30
0.0
 11
375.880715
 21
1457.578866
 31
0.0
  0
LINE
  5
35B
330
1F
100
AcDbEntity
  8
002
 62
     3
370
    30
100
AcDbLine
 10
376.657554
 20
1467.105239
 30
0.0
 11
375.880715
 21
1467.880866
 31
0.0
  0
LINE
  5
35C
330
1F
100
AcDbEntity
  8
002
 62
     3
370
    30
100
AcDbLine
 10
375.073715
 20
1467.931866
 30
0.0
 11
376.713526
 21
1467.829665
 31
0.0
  0
ARC
  5
35D
330
1F
100
AcDbEntity
  8
002
 62
     3
370
    30
100
AcDbCircle
 10
373.961715
 20
1467.060866
 30
0.0
 40
1.540730021775364
100
AcDbArc
 50
290.503847
 51
20.516873
  0
LINE
  5
35E
330
1F
100
AcDbEntity
  8
002
 62
     3
370
    30
100
AcDbLine
 10
375.501715
 20
1458.444866
 30
0.0
 11
375.501715
 21
1467.015866
 31
0.0
  0
ARC
  5
35F
330
1F
100
AcDbEntity
  8
002
 62
     3
370
    30
100
AcDbCircle
 10
370.835715
 20
1462.729866
 30
0.0
 40
4.666296711526233
100
AcDbArc
 50
321.788975
 51
38.220673
  0
ARC
  5
360
330
1F
100
AcDbEntity
  8
002
 62
     3
370
    30
100
AcDbCircle
 10
373.961715
 20
1458.399866
 30
0.0
 40
1.54166663063058
100
AcDbArc
 50
339.483127
 51
69.496153
  0
LINE
  5
361
330
1F
100
AcDbEntity
  8
002
 62
     3
370
    30
100
AcDbLine
 10
374.501715
 20
1456.956866
 30
0.0
 11
375.404715
 21
1457.859866
 31
0.0
  0
LINE
  5
362
330
1F
100
AcDbEntity
  8
002
 62
     3
370
    30
100
AcDbLine
 10
371.501715
 20
1456.956866
 30
0.0
 11
374.501715
 21
1456.956866
 31
0.0
  0
LINE
  5
363
330
1F
100
AcDbEntity
  8
002
 62
     3
370
    30
100
AcDbLine
 10
374.501715
 20
1459.843866
 30
0.0
 11
371.501715
 21
1459.843866
 31
0.0
  0
LINE
  5
364
330
1F
100
AcDbEntity
  8
002
 62
     3
370
    30
100
AcDbLine
 10
374.501715
 20
1465.616866
 30
0.0
 11
371.501715
 21
1465.616866
 31
0.0
  0
LINE
  5
365
330
1F
100
AcDbEntity
  8
002
 62
     3
370
    30
100
AcDbLine
 10
375.404715
 20
1467.600866
 30
0.0
 11
374.501715
 21
1468.503866
 31
0.0
  0
LINE
  5
366
330
1F
100
AcDbEntity
  8
002
 62
     3
370
    30
100
AcDbLine
 10
374.501715
 20
1468.503866
 30
0.0
 11
371.501715
 21
1468.503866
 31
0.0
  0
LINE
  5
367
330
1F
100
AcDbEntity
  8
002
 62
     3
370
    30
100
AcDbLine
 10
371.501715
 20
1468.503866
 30
0.0
 11
368.588715
 21
1465.589866
 31
0.0
  0
ARC
  5
368
330
1F
100
AcDbEntity
  8
002
 62
     3
370
    30
100
AcDbCircle
 10
372.042715
 20
1467.060866
 30
0.0
 40
1.542017185377588
100
AcDbArc
 50
159.483127
 51
249.46135
  0
ARC
  5
369
330
1F
100
AcDbEntity
  8
002
 62
     3
370
    30
100
AcDbCircle
 10
375.168715
 20
1462.729866
 30
0.0
 40
4.666463864640891
100
AcDbArc
 50
141.786922
 51
218.203431
  0
ARC
  5
36A
330
1F
100
AcDbEntity
  8
002
 62
     3
370
    30
100
AcDbCircle
 10
372.042715
 20
1458.399866
 30
0.0
 40
1.540730021775364
100
AcDbArc
 50
110.53865
 51
200.516873
  0
LINE
  5
36B
330
1F
100
AcDbEntity
  8
002
 62
     3
370
    30
100
AcDbLine
 10
368.588715
 20
1459.869866
 30
0.0
 11
371.501715
 21
1456.956866
 31
0.0
  0
ARC
  5
36C
330
1F
100
AcDbEntity
  8
002
 62
     3
370
    30
100
AcDbCircle
 10
367.881715
 20
1459.162866
 30
0.0
 40
1.000001999998141
100
AcDbArc
 50
45.0
 51
122.005383
  0
LINE
  5
36D
330
1F
100
AcDbEntity
  8
002
 62
     3
370
    30
100
AcDbLine
 10
367.351715
 20
1460.010866
 30
0.0
 11
366.501715
 21
1459.479866
 31
0.0
  0
LINE
  5
36E
330
1F
100
AcDbEntity
  8
002
 62
     3
370
    30
100
AcDbLine
 10
368.025715
 20
1465.027866
 30
0.0
 11
368.025715
 21
1460.432866
 31
0.0
  0
ARC
  5
36F
330
1F
100
AcDbEntity
  8
002
 62
     3
370
    30
100
AcDbCircle
 10
367.881715
 20
1466.297866
 30
0.0
 40
1.000556345239961
100
AcDbArc
 50
237.994617
 51
314.959508
  0
LINE
  5
370
330
1F
100
AcDbEntity
  8
002
 62
     3
370
    30
100
AcDbLine
 10
366.501715
 20
1465.979866
 30
0.0
 11
367.351715
 21
1465.449866
 31
0.0
  0
LINE
  5
371
330
1F
100
AcDbEntity
  8
002
 62
     3
370
    30
100
AcDbLine
 10
366.501715
 20
1465.229866
 30
0.0
 11
366.501715
 21
1460.229866
 31
0.0
  0
LINE
  5
372
330
1F
100
AcDbEntity
  8
002
 62
     3
370
    30
100
AcDbLine
 10
366.501715
 20
1459.479866
 30
0.0
 11
363.501715
 21
1460.229866
 31
0.0
  0
LINE
  5
373
330
1F
100
AcDbEntity
  8
002
 62
     3
370
    30
100
AcDbLine
 10
363.501715
 20
1460.229866
 30
0.0
 11
363.501715
 21
1465.229866
 31
0.0
  0
ARC
  5
374
330
1F
100
AcDbEntity
  8
002
 62
     3
370
    30
100
AcDbCircle
 10
364.163715
 20
1462.729866
 30
0.0
 40
1.00037193083375
100
AcDbArc
 50
131.433771
 51
228.566229
  0
LINE
  5
375
330
1F
100
AcDbEntity
  8
002
 62
     3
370
    30
100
AcDbLine
 10
363.501715
 20
1465.229866
 30
0.0
 11
366.501715
 21
1465.979866
 31
0.0
  0
LINE
  5
376
330
1F
100
AcDbEntity
  8
002
 62
     3
370
    30
100
AcDbLine
 10
480.501715
 20
1006.26446
 30
0.0
 11
395.501715
 21
1006.26446
 31
0.0
  0
LINE
  5
377
330
1F
100
AcDbEntity
  8
002
 62
     3
370
    30
100
AcDbLine
 10
470.501715
 20
1006.26446
 30
0.0
 11
470.501715
 21
1106.26446
 31
0.0
  0
LINE
  5
378
330
1F
100
AcDbEntity
  8
002
 62
     3
370
    30
100
AcDbLine
 10
470.501715
 20
1106.26446
 30
0.0
 11
405.501715
 21
1106.26446
 31
0.0
  0
LINE
  5
379
330
1F
100
AcDbEntity
  8
002
 62
     3
370
    30
100
AcDbLine
 10
405.501715
 20
1106.26446
 30
0.0
 11
405.501715
 21
1006.26446
 31
0.0
  0
LINE
  5
37A
330
1F
100
AcDbEntity
  8
002
 62
    40
370
     9
100
AcDbLine
 10
480.501715
 20
466.26446
 30
0.0
 11
395.501715
 21
466.26446
 31
0.0
  0
LINE
  5
37B
330
1F
100
AcDbEntity
  8
002
 62
     3
370
    30
100
AcDbLine
 10
1625.207053
 20
868.007039
 30
0.0
 11
1625.207053
 21
844.007039
 31
0.0
  0
LINE
  5
37C
330
1F
100
AcDbEntity
  8
002
 62
     3
370
    30
100
AcDbLine
 10
1625.207053
 20
844.007039
 30
0.0
 11
1275.207053
 21
844.007039
 31
0.0
  0
LINE
  5
37D
330
1F
100
AcDbEntity
  8
002
 62
     3
370
    30
100
AcDbLine
 10
1275.207053
 20
844.007039
 30
0.0
 11
1275.207053
 21
868.007039
 31
0.0
  0
ARC
  5
37E
330
1F
100
AcDbEntity
  8
002
 62
     3
370
    30
100
AcDbCircle
 10
1277.207053
 20
868.007039
 30
0.0
 40
2.0
100
AcDbArc
 50
90.0
 51
180.0
  0
LINE
  5
37F
330
1F
100
AcDbEntity
  8
002
 62
     3
370
    30
100
AcDbLine
 10
1277.207053
 20
870.007039
 30
0.0
 11
1623.207053
 21
870.007039
 31
0.0
  0
ARC
  5
380
330
1F
100
AcDbEntity
  8
002
 62
     3
370
    30
100
AcDbCircle
 10
1623.207053
 20
868.007039
 30
0.0
 40
2.0
100
AcDbArc
 50
0.0
 51
90.0
  0
ARC
  5
381
330
1F
100
AcDbEntity
  8
002
 62
     3
370
    30
100
AcDbCircle
 10
1623.096053
 20
875.007039
 30
0.0
 40
5.000123298479567
100
AcDbArc
 50
209.959498
 51
270.0
  0
LINE
  5
382
330
1F
100
AcDbEntity
  8
002
 62
     3
370
    30
100
AcDbLine
 10
1618.764053
 20
872.510039
 30
0.0
 11
1557.771053
 21
978.298039
 31
0.0
  0
LINE
  5
383
330
1F
100
AcDbEntity
  8
002
 62
     3
370
    30
100
AcDbLine
 10
1557.771053
 20
978.298039
 30
0.0
 11
1555.871053
 21
978.298039
 31
0.0
  0
ARC
  5
384
330
1F
100
AcDbEntity
  8
002
 62
     3
370
    30
100
AcDbCircle
 10
1555.871053
 20
981.298039
 30
0.0
 40
2.999827328364282
100
AcDbArc
 50
213.827797
 51
270.0
  0
ARC
  5
385
330
1F
100
AcDbEntity
  8
002
 62
     3
370
    30
100
AcDbCircle
 10
1546.207053
 20
975.945039
 30
0.0
 40
8.0
100
AcDbArc
 50
0.0
 51
34.76672
  0
LINE
  5
386
330
1F
100
AcDbEntity
  8
002
 62
     3
370
    30
100
AcDbLine
 10
1554.207053
 20
975.945039
 30
0.0
 11
1554.207053
 21
870.007039
 31
0.0
  0
LINE
  5
387
330
1F
100
AcDbEntity
  8
002
 62
     3
370
    30
100
AcDbLine
 10
1564.207053
 20
870.007039
 30
0.0
 11
1564.207053
 21
944.007039
 31
0.0
  0
ARC
  5
388
330
1F
100
AcDbEntity
  8
002
 62
     3
370
    30
100
AcDbCircle
 10
1546.207053
 20
912.070039
 30
0.0
 40
8.000759526445128
100
AcDbArc
 50
325.227397
 51
0.0
  0
ARC
  5
389
330
1F
100
AcDbEntity
  8
002
 62
     3
370
    30
100
AcDbCircle
 10
1500.207053
 20
944.007039
 30
0.0
 40
64.0
100
AcDbArc
 50
0.0
 51
325.228296
  0
LINE
  5
38A
330
1F
100
AcDbEntity
  8
002
 62
     3
370
    30
100
AcDbLine
 10
1436.207053
 20
944.007039
 30
0.0
 11
1436.207053
 21
875.007039
 31
0.0
  0
ARC
  5
38B
330
1F
100
AcDbEntity
  8
002
 62
     3
370
    30
100
AcDbCircle
 10
1431.207053
 20
875.007039
 30
0.0
 40
5.0
100
AcDbArc
 50
270.0
 51
0.0
  0
LINE
  5
38C
330
1F
100
AcDbEntity
  8
002
 62
     3
370
    30
100
AcDbLine
 10
1455.207053
 20
844.007039
 30
0.0
 11
1455.207053
 21
824.007039
 31
0.0
  0
LINE
  5
38D
330
1F
100
AcDbEntity
  8
002
 62
     3
370
    30
100
AcDbLine
 10
1455.207053
 20
824.007039
 30
0.0
 11
1355.207053
 21
824.007039
 31
0.0
  0
LINE
  5
38E
330
1F
100
AcDbEntity
  8
002
 62
     3
370
    30
100
AcDbLine
 10
1355.207053
 20
824.007039
 30
0.0
 11
1355.207053
 21
844.007039
 31
0.0
  0
LINE
  5
38F
330
1F
100
AcDbEntity
  8
002
 62
     3
370
    30
100
AcDbLine
 10
1467.707053
 20
500.007439
 30
0.0
 11
1342.707053
 21
500.007439
 31
0.0
  0
LINE
  5
390
330
1F
100
AcDbEntity
  8
002
 62
     3
370
    30
100
AcDbLine
 10
1342.707053
 20
500.007439
 30
0.0
 11
1342.707053
 21
410.007439
 31
0.0
  0
LINE
  5
391
330
1F
100
AcDbEntity
  8
002
 62
     3
370
    30
100
AcDbLine
 10
1340.707053
 20
448.233939
 30
0.0
 11
1337.707053
 21
448.233939
 31
0.0
  0
LINE
  5
392
330
1F
100
AcDbEntity
  8
002
 62
     3
370
    30
100
AcDbLine
 10
1337.707053
 20
448.233939
 30
0.0
 11
1334.793053
 21
451.147439
 31
0.0
  0
ARC
  5
393
330
1F
100
AcDbEntity
  8
002
 62
     3
370
    30
100
AcDbCircle
 10
1334.086053
 20
450.440339
 30
0.0
 40
1.000001999997924
100
AcDbArc
 50
45.004052
 51
122.005383
  0
LINE
  5
394
330
1F
100
AcDbEntity
  8
002
 62
     3
370
    30
100
AcDbLine
 10
1333.556053
 20
451.288339
 30
0.0
 11
1332.707053
 21
450.757439
 31
0.0
  0
LINE
  5
395
330
1F
100
AcDbEntity
  8
002
 62
     3
370
    30
100
AcDbLine
 10
1332.707053
 20
450.757439
 30
0.0
 11
1329.707053
 21
451.507439
 31
0.0
  0
LINE
  5
396
330
1F
100
AcDbEntity
  8
002
 62
     3
370
    30
100
AcDbLine
 10
1329.707053
 20
451.507439
 30
0.0
 11
1329.707053
 21
456.507439
 31
0.0
  0
LINE
  5
397
330
1F
100
AcDbEntity
  8
002
 62
     3
370
    30
100
AcDbLine
 10
1329.707053
 20
456.507439
 30
0.0
 11
1332.707053
 21
457.257439
 31
0.0
  0
LINE
  5
398
330
1F
100
AcDbEntity
  8
002
 62
     3
370
    30
100
AcDbLine
 10
1332.707053
 20
457.257439
 30
0.0
 11
1333.556053
 21
456.726539
 31
0.0
  0
ARC
  5
399
330
1F
100
AcDbEntity
  8
002
 62
     3
370
    30
100
AcDbCircle
 10
1334.086053
 20
457.574539
 30
0.0
 40
0.9999197017760709
100
AcDbArc
 50
237.994617
 51
314.995948
  0
LINE
  5
39A
330
1F
100
AcDbEntity
  8
002
 62
     3
370
    30
100
AcDbLine
 10
1334.793053
 20
456.867439
 30
0.0
 11
1337.707053
 21
459.780939
 31
0.0
  0
LINE
  5
39B
330
1F
100
AcDbEntity
  8
002
 62
     3
370
    30
100
AcDbLine
 10
1337.707053
 20
459.780939
 30
0.0
 11
1340.707053
 21
459.780939
 31
0.0
  0
LINE
  5
39C
330
1F
100
AcDbEntity
  8
002
 62
     3
370
    30
100
AcDbLine
 10
1340.707053
 20
459.780939
 30
0.0
 11
1341.609053
 21
458.878239
 31
0.0
  0
LINE
  5
39D
330
1F
100
AcDbEntity
  8
002
 62
     3
370
    30
100
AcDbLine
 10
1341.279053
 20
459.208839
 30
0.0
 11
1342.707053
 21
459.119539
 31
0.0
  0
LINE
  5
39E
330
1F
100
AcDbEntity
  8
002
 62
     3
370
    30
100
AcDbLine
 10
1341.707053
 20
458.293239
 30
0.0
 11
1341.707053
 21
449.721639
 31
0.0
  0
ARC
  5
39F
330
1F
100
AcDbEntity
  8
002
 62
     3
370
    30
100
AcDbCircle
 10
1340.166053
 20
449.677339
 30
0.0
 40
1.54145533830863
100
AcDbArc
 50
339.458751
 51
69.453526
  0
LINE
  5
3A0
330
1F
100
AcDbEntity
  8
002
 62
     3
370
    30
100
AcDbLine
 10
1340.707053
 20
451.120739
 30
0.0
 11
1337.707053
 21
451.120739
 31
0.0
  0
ARC
  5
3A1
330
1F
100
AcDbEntity
  8
002
 62
     3
370
    30
100
AcDbCircle
 10
1338.247053
 20
449.677339
 30
0.0
 40
1.54097549948097
100
AcDbArc
 50
110.511661
 51
200.541249
  0
LINE
  5
3A2
330
1F
100
AcDbEntity
  8
002
 62
     3
370
    30
100
AcDbLine
 10
1334.231053
 20
451.709939
 30
0.0
 11
1334.231053
 21
456.304939
 31
0.0
  0
LINE
  5
3A3
330
1F
100
AcDbEntity
  8
002
 62
     3
370
    30
100
AcDbLine
 10
1332.707053
 20
456.507439
 30
0.0
 11
1332.707053
 21
451.507439
 31
0.0
  0
ARC
  5
3A4
330
1F
100
AcDbEntity
  8
002
 62
     3
370
    30
100
AcDbCircle
 10
1330.368053
 20
454.007439
 30
0.0
 40
0.9997104580827776
100
AcDbArc
 50
131.390802
 51
228.609198
  0
ARC
  5
3A5
330
1F
100
AcDbEntity
  8
002
 62
     3
370
    30
100
AcDbCircle
 10
1341.373053
 20
454.007439
 30
0.0
 40
4.666111109907408
100
AcDbArc
 50
141.781256
 51
218.217779
  0
ARC
  5
3A6
330
1F
100
AcDbEntity
  8
002
 62
     3
370
    30
100
AcDbCircle
 10
1337.040053
 20
454.007439
 30
0.0
 40
4.666958671340399
100
AcDbArc
 50
321.789816
 51
38.211149
  0
ARC
  5
3A7
330
1F
100
AcDbEntity
  8
002
 62
     3
370
    30
100
AcDbCircle
 10
1340.166053
 20
458.337539
 30
0.0
 40
1.54097549948097
100
AcDbArc
 50
290.547779
 51
20.541249
  0
LINE
  5
3A8
330
1F
100
AcDbEntity
  8
002
 62
     3
370
    30
100
AcDbLine
 10
1340.707053
 20
456.894239
 30
0.0
 11
1337.707053
 21
456.894239
 31
0.0
  0
ARC
  5
3A9
330
1F
100
AcDbEntity
  8
002
 62
     3
370
    30
100
AcDbCircle
 10
1338.247053
 20
458.337539
 30
0.0
 40
1.541010996067094
100
AcDbArc
 50
159.458751
 51
249.487036
  0
LINE
  5
3AA
330
1F
100
AcDbEntity
  8
002
 62
     3
370
    30
100
AcDbLine
 10
1341.609053
 20
449.136639
 30
0.0
 11
1340.707053
 21
448.233939
 31
0.0
  0
LINE
  5
3AB
330
1F
100
AcDbEntity
  8
002
 62
     3
370
    30
100
AcDbLine
 10
1341.279053
 20
448.806139
 30
0.0
 11
1342.707053
 21
448.895339
 31
0.0
  0
LINE
  5
3AC
330
1F
100
AcDbEntity
  8
002
 62
     3
370
    30
100
AcDbLine
 10
1467.707053
 20
500.007439
 30
0.0
 11
1467.707053
 21
410.007439
 31
0.0
  0
LINE
  5
3AD
330
1F
100
AcDbEntity
  8
002
 62
     3
370
    30
100
AcDbLine
 10
1362.707053
 20
360.007439
 30
0.0
 11
1362.707053
 21
244.007039
 31
0.0
  0
LINE
  5
3AE
330
1F
100
AcDbEntity
  8
002
 62
     3
370
    30
100
AcDbLine
 10
1447.707053
 20
244.007039
 30
0.0
 11
1447.707053
 21
360.007439
 31
0.0
  0
LINE
  5
3AF
330
1F
100
AcDbEntity
  8
002
 62
     3
370
    30
100
AcDbLine
 10
1280.207053
 20
360.007439
 30
0.0
 11
1530.207053
 21
360.007439
 31
0.0
  0
LINE
  5
3B0
330
1F
100
AcDbEntity
  8
002
 62
     3
370
    30
100
AcDbLine
 10
1530.207053
 20
360.007439
 30
0.0
 11
1530.207053
 21
410.007439
 31
0.0
  0
LINE
  5
3B1
330
1F
100
AcDbEntity
  8
002
 62
     3
370
    30
100
AcDbLine
 10
1530.207053
 20
410.007439
 30
0.0
 11
1280.207053
 21
410.007439
 31
0.0
  0
LINE
  5
3B2
330
1F
100
AcDbEntity
  8
002
 62
     3
370
    30
100
AcDbLine
 10
1280.207053
 20
410.007439
 30
0.0
 11
1280.207053
 21
360.007439
 31
0.0
  0
LINE
  5
3B3
330
1F
100
AcDbEntity
  8
002
 62
     3
370
    30
100
AcDbLine
 10
1345.205053
 20
875.007039
 30
0.0
 11
1345.205053
 21
986.007039
 31
0.0
  0
LINE
  5
3B4
330
1F
100
AcDbEntity
  8
002
 62
     3
370
    30
100
AcDbLine
 10
1343.205053
 20
983.335039
 30
0.0
 11
1313.205053
 21
983.335039
 31
0.0
  0
LINE
  5
3B5
330
1F
100
AcDbEntity
  8
002
 62
     3
370
    30
100
AcDbLine
 10
1310.636053
 20
986.007039
 30
0.0
 11
1310.636053
 21
875.007039
 31
0.0
  0
ARC
  5
3B6
330
1F
100
AcDbEntity
  8
002
 62
     3
370
    30
100
AcDbCircle
 10
1305.636053
 20
875.007039
 30
0.0
 40
5.0
100
AcDbArc
 50
270.0
 51
0.0
  0
LINE
  5
3B7
330
1F
100
AcDbEntity
  8
002
 62
     3
370
    30
100
AcDbLine
 10
1293.207053
 20
875.007039
 30
0.0
 11
1293.207053
 21
897.606039
 31
0.0
  0
LINE
  5
3B8
330
1F
100
AcDbEntity
  8
002
 62
     3
370
    30
100
AcDbLine
 10
1287.289053
 20
906.735039
 30
0.0
 11
1282.207053
 21
909.007039
 31
0.0
  0
LINE
  5
3B9
330
1F
100
AcDbEntity
  8
002
 62
     3
370
    30
100
AcDbLine
 10
1282.207053
 20
909.007039
 30
0.0
 11
1282.207053
 21
984.007039
 31
0.0
  0
ARC
  5
3BA
330
1F
100
AcDbEntity
  8
002
 62
     3
370
    30
100
AcDbCircle
 10
1272.207053
 20
984.007039
 30
0.0
 40
10.0
100
AcDbArc
 50
0.0
 51
90.0
  0
LINE
  5
3BB
330
1F
100
AcDbEntity
  8
002
 62
     3
370
    30
100
AcDbLine
 10
1271.207053
 20
994.007039
 30
0.0
 11
1271.207053
 21
1038.007039
 31
0.0
  0
LINE
  5
3BC
330
1F
100
AcDbEntity
  8
002
 62
     3
370
    30
100
AcDbLine
 10
1271.207053
 20
1038.007039
 30
0.0
 11
1539.207053
 21
1038.007039
 31
0.0
  0
LINE
  5
3BD
330
1F
100
AcDbEntity
  8
002
 62
     3
370
    30
100
AcDbLine
 10
1539.207053
 20
1038.007039
 30
0.0
 11
1539.207053
 21
994.007039
 31
0.0
  0
LINE
  5
3BE
330
1F
100
AcDbEntity
  8
002
 62
     3
370
    30
100
AcDbLine
 10
1455.609053
 20
994.007039
 30
0.0
 11
1271.207053
 21
994.007039
 31
0.0
  0
ARC
  5
3BF
330
1F
100
AcDbEntity
  8
002
 62
     3
370
    30
100
AcDbCircle
 10
1290.563053
 20
984.007039
 30
0.0
 40
10.0
100
AcDbArc
 50
0.0
 51
44.428722
  0
LINE
  5
3C0
330
1F
100
AcDbEntity
  8
002
 62
     3
370
    30
100
AcDbLine
 10
1300.563053
 20
984.007039
 30
0.0
 11
1300.563053
 21
944.007039
 31
0.0
  0
ARC
  5
3C1
330
1F
100
AcDbEntity
  8
002
 62
     3
370
    30
100
AcDbCircle
 10
1150.725053
 20
950.979039
 30
0.0
 40
149.9993080784041
100
AcDbArc
 50
341.783924
 51
357.335934
  0
ARC
  5
3C2
330
1F
100
AcDbEntity
  8
002
 62
     3
370
    30
100
AcDbCircle
 10
1283.207053
 20
897.606039
 30
0.0
 40
10.0
100
AcDbArc
 50
0.0
 51
65.908363
  0
ARC
  5
3C3
330
1F
100
AcDbEntity
  8
002
 62
     3
370
    30
100
AcDbCircle
 10
1288.207053
 20
875.007039
 30
0.0
 40
5.0
100
AcDbArc
 50
270.0
 51
0.0
  0
ARC
  5
3C4
330
1F
100
AcDbEntity
  8
002
 62
     3
370
    30
100
AcDbCircle
 10
1340.205053
 20
875.007039
 30
0.0
 40
5.0
100
AcDbArc
 50
270.0
 51
0.0
  0
LINE
  5
3C5
330
1F
100
AcDbEntity
  8
002
 62
     3
370
    30
100
AcDbLine
 10
1282.207053
 20
927.402039
 30
0.0
 11
1272.207053
 21
927.089039
 31
0.0
  0
LINE
  5
3C6
330
1F
100
AcDbEntity
  8
002
 62
     3
370
    30
100
AcDbLine
 10
1272.207053
 20
927.089039
 30
0.0
 11
1272.207053
 21
960.925039
 31
0.0
  0
LINE
  5
3C7
330
1F
100
AcDbEntity
  8
002
 62
     3
370
    30
100
AcDbLine
 10
1272.207053
 20
960.925039
 30
0.0
 11
1282.207053
 21
960.613039
 31
0.0
  0
LINE
  5
3C8
330
1F
100
AcDbEntity
  8
002
 62
     3
370
    30
100
AcDbLine
 10
1272.207053
 20
953.507039
 30
0.0
 11
1260.207053
 21
953.007039
 31
0.0
  0
LINE
  5
3C9
330
1F
100
AcDbEntity
  8
002
 62
     3
370
    30
100
AcDbLine
 10
1260.207053
 20
953.007039
 30
0.0
 11
1260.207053
 21
935.007039
 31
0.0
  0
LINE
  5
3CA
330
1F
100
AcDbEntity
  8
002
 62
     3
370
    30
100
AcDbLine
 10
1260.207053
 20
935.007039
 30
0.0
 11
1272.207053
 21
934.507039
 31
0.0
  0
ARC
  5
3CB
330
1F
100
AcDbEntity
  8
002
 62
     3
370
    30
100
AcDbCircle
 10
1315.636053
 20
986.007039
 30
0.0
 40
5.0
100
AcDbArc
 50
90.0
 51
180.0
  0
LINE
  5
3CC
330
1F
100
AcDbEntity
  8
002
 62
     3
370
    30
100
AcDbLine
 10
1315.636053
 20
991.007039
 30
0.0
 11
1340.205053
 21
991.007039
 31
0.0
  0
ARC
  5
3CD
330
1F
100
AcDbEntity
  8
002
 62
     3
370
    30
100
AcDbCircle
 10
1340.205053
 20
986.007039
 30
0.0
 40
5.0
100
AcDbArc
 50
0.0
 51
90.0
  0
LINE
  5
3CE
330
1F
100
AcDbEntity
  8
002
 62
     3
370
    30
100
AcDbLine
 10
1335.707053
 20
1038.007039
 30
0.0
 11
1335.707053
 21
1052.007039
 31
0.0
  0
LINE
  5
3CF
330
1F
100
AcDbEntity
  8
002
 62
     3
370
    30
100
AcDbLine
 10
1335.707053
 20
1052.007039
 30
0.0
 11
1356.707053
 21
1052.007039
 31
0.0
  0
LINE
  5
3D0
330
1F
100
AcDbEntity
  8
002
 62
     3
370
    30
100
AcDbLine
 10
1356.707053
 20
1052.007039
 30
0.0
 11
1356.707053
 21
1038.007039
 31
0.0
  0
LINE
  5
3D1
330
1F
100
AcDbEntity
  8
002
 62
     3
370
    30
100
AcDbLine
 10
1356.707053
 20
1039.007039
 30
0.0
 11
1394.707053
 21
1039.007039
 31
0.0
  0
LINE
  5
3D2
330
1F
100
AcDbEntity
  8
002
 62
     3
370
    30
100
AcDbLine
 10
1394.707053
 20
1038.007039
 30
0.0
 11
1394.707053
 21
1052.007039
 31
0.0
  0
LINE
  5
3D3
330
1F
100
AcDbEntity
  8
002
 62
     3
370
    30
100
AcDbLine
 10
1394.707053
 20
1052.007039
 30
0.0
 11
1415.707053
 21
1052.007039
 31
0.0
  0
LINE
  5
3D4
330
1F
100
AcDbEntity
  8
002
 62
     3
370
    30
100
AcDbLine
 10
1415.707053
 20
1052.007039
 30
0.0
 11
1415.707053
 21
1038.007039
 31
0.0
  0
LINE
  5
3D5
330
1F
100
AcDbEntity
  8
002
 62
     3
370
    30
100
AcDbLine
 10
1415.707053
 20
1039.007039
 30
0.0
 11
1453.707053
 21
1039.007039
 31
0.0
  0
LINE
  5
3D6
330
1F
100
AcDbEntity
  8
002
 62
     3
370
    30
100
AcDbLine
 10
1453.707053
 20
1038.007039
 30
0.0
 11
1453.707053
 21
1052.007039
 31
0.0
  0
LINE
  5
3D7
330
1F
100
AcDbEntity
  8
002
 62
     3
370
    30
100
AcDbLine
 10
1453.707053
 20
1052.007039
 30
0.0
 11
1474.707053
 21
1052.007039
 31
0.0
  0
LINE
  5
3D8
330
1F
100
AcDbEntity
  8
002
 62
     3
370
    30
100
AcDbLine
 10
1474.707053
 20
1052.007039
 30
0.0
 11
1474.707053
 21
1038.007039
 31
0.0
  0
LINE
  5
3D9
330
1F
100
AcDbEntity
  8
002
 62
     3
370
    30
100
AcDbLine
 10
1474.707053
 20
1039.007039
 30
0.0
 11
1496.898053
 21
1039.007039
 31
0.0
  0
LINE
  5
3DA
330
1F
100
AcDbEntity
  8
002
 62
     3
370
    30
100
AcDbLine
 10
1496.898053
 20
1038.007039
 30
0.0
 11
1496.898053
 21
1052.007039
 31
0.0
  0
LINE
  5
3DB
330
1F
100
AcDbEntity
  8
002
 62
     3
370
    30
100
AcDbLine
 10
1496.898053
 20
1052.007039
 30
0.0
 11
1533.707053
 21
1052.007039
 31
0.0
  0
LINE
  5
3DC
330
1F
100
AcDbEntity
  8
002
 62
     3
370
    30
100
AcDbLine
 10
1495.207053
 20
1054.007039
 30
0.0
 11
1315.207053
 21
1054.007039
 31
0.0
  0
LINE
  5
3DD
330
1F
100
AcDbEntity
  8
002
 62
     3
370
    30
100
AcDbLine
 10
1315.207053
 20
1054.007039
 30
0.0
 11
1314.694053
 21
1048.136039
 31
0.0
  0
ARC
  5
3DE
330
1F
100
AcDbEntity
  8
002
 62
     3
370
    30
100
AcDbCircle
 10
1304.732053
 20
1049.007039
 30
0.0
 40
9.999396981818556
100
AcDbArc
 50
331.456306
 51
355.003208
  0
LINE
  5
3DF
330
1F
100
AcDbEntity
  8
002
 62
     3
370
    30
100
AcDbLine
 10
1313.516053
 20
1039.007039
 30
0.0
 11
1335.707053
 21
1039.007039
 31
0.0
  0
LINE
  5
3E0
330
1F
100
AcDbEntity
  8
002
 62
     3
370
    30
100
AcDbLine
 10
1348.057053
 20
1060.007039
 30
0.0
 11
1348.057053
 21
1129.007039
 31
0.0
  0
LINE
  5
3E1
330
1F
100
AcDbEntity
  8
002
 62
     3
370
    30
100
AcDbLine
 10
1348.057053
 20
1129.007039
 30
0.0
 11
1462.357053
 21
1129.007039
 31
0.0
  0
LINE
  5
3E2
330
1F
100
AcDbEntity
  8
002
 62
     3
370
    30
100
AcDbLine
 10
1462.357053
 20
1129.007039
 30
0.0
 11
1462.357053
 21
1060.007039
 31
0.0
  0
LINE
  5
3E3
330
1F
100
AcDbEntity
  8
002
 62
     3
370
    30
100
AcDbLine
 10
1474.707053
 20
1060.007039
 30
0.0
 11
1474.707053
 21
1070.007039
 31
0.0
  0
LINE
  5
3E4
330
1F
100
AcDbEntity
  8
002
 62
     3
370
    30
100
AcDbLine
 10
1490.707053
 20
1070.007039
 30
0.0
 11
1474.707053
 21
1070.007039
 31
0.0
  0
LINE
  5
3E5
330
1F
100
AcDbEntity
  8
002
 62
     3
370
    30
100
AcDbLine
 10
1490.707053
 20
1070.007039
 30
0.0
 11
1490.707053
 21
1060.007039
 31
0.0
  0
LINE
  5
3E6
330
1F
100
AcDbEntity
  8
002
 62
     3
370
    30
100
AcDbLine
 10
1492.707053
 20
1060.007039
 30
0.0
 11
1492.707053
 21
1054.007039
 31
0.0
  0
LINE
  5
3E7
330
1F
100
AcDbEntity
  8
002
 62
     3
370
    30
100
AcDbLine
 10
1495.207053
 20
1054.007039
 30
0.0
 11
1495.721053
 21
1048.136039
 31
0.0
  0
ARC
  5
3E8
330
1F
100
AcDbEntity
  8
002
 62
     3
370
    30
100
AcDbCircle
 10
1505.683053
 20
1049.007039
 30
0.0
 40
10.00000424999907
100
AcDbArc
 50
184.996792
 51
208.540957
  0
LINE
  5
3E9
330
1F
100
AcDbEntity
  8
002
 62
     3
370
    30
100
AcDbLine
 10
1492.707053
 20
1060.007039
 30
0.0
 11
1317.707053
 21
1060.007039
 31
0.0
  0
LINE
  5
3EA
330
1F
100
AcDbEntity
  8
002
 62
     3
370
    30
100
AcDbLine
 10
1317.707053
 20
1060.007039
 30
0.0
 11
1317.707053
 21
1054.007039
 31
0.0
  0
LINE
  5
3EB
330
1F
100
AcDbEntity
  8
002
 62
     3
370
    30
100
AcDbLine
 10
1313.516053
 20
1052.007039
 30
0.0
 11
1313.516053
 21
1038.007039
 31
0.0
  0
LINE
  5
3EC
330
1F
100
AcDbEntity
  8
002
 62
     3
370
    30
100
AcDbLine
 10
1313.516053
 20
1052.007039
 30
0.0
 11
1276.707053
 21
1052.007039
 31
0.0
  0
LINE
  5
3ED
330
1F
100
AcDbEntity
  8
002
 62
     3
370
    30
100
AcDbLine
 10
1319.707053
 20
1060.007039
 30
0.0
 11
1319.707053
 21
1070.007039
 31
0.0
  0
LINE
  5
3EE
330
1F
100
AcDbEntity
  8
002
 62
     3
370
    30
100
AcDbLine
 10
1335.707053
 20
1070.007039
 30
0.0
 11
1319.707053
 21
1070.007039
 31
0.0
  0
LINE
  5
3EF
330
1F
100
AcDbEntity
  8
002
 62
     3
370
    30
100
AcDbLine
 10
1335.707053
 20
1070.007039
 30
0.0
 11
1335.707053
 21
1060.007039
 31
0.0
  0
LINE
  5
3F0
330
1F
100
AcDbEntity
  8
002
 62
     3
370
    30
100
AcDbLine
 10
1292.516053
 20
1052.007039
 30
0.0
 11
1292.516053
 21
1038.007039
 31
0.0
  0
LINE
  5
3F1
330
1F
100
AcDbEntity
  8
002
 62
     3
370
    30
100
AcDbLine
 10
1276.707053
 20
1038.007039
 30
0.0
 11
1276.707053
 21
1052.007039
 31
0.0
  0
LINE
  5
3F2
330
1F
100
AcDbEntity
  8
002
 62
     3
370
    30
100
AcDbLine
 10
1271.207053
 20
1024.007039
 30
0.0
 11
1539.207053
 21
1024.007039
 31
0.0
  0
LINE
  5
3F3
330
1F
100
AcDbEntity
  8
002
 62
     3
370
    30
100
AcDbLine
 10
1533.707053
 20
1038.007039
 30
0.0
 11
1533.707053
 21
1052.007039
 31
0.0
  0
LINE
  5
3F4
330
1F
100
AcDbEntity
  8
002
 62
     3
370
    30
100
AcDbLine
 10
1517.898053
 20
1052.007039
 30
0.0
 11
1517.898053
 21
1038.007039
 31
0.0
  0
LINE
  5
3F5
330
1F
100
AcDbEntity
  8
002
 62
     3
370
    30
100
AcDbLine
 10
1475.635053
 20
1003.102039
 30
0.0
 11
1475.635053
 21
1006.339039
 31
0.0
  0
ARC
  5
3F6
330
1F
100
AcDbEntity
  8
002
 62
     3
370
    30
100
AcDbCircle
 10
1500.207053
 20
944.007039
 30
0.0
 40
67.00045826708963
100
AcDbArc
 50
111.514936
 51
131.731685
  0
LINE
  5
3F7
330
1F
100
AcDbEntity
  8
002
 62
     3
370
    30
100
AcDbLine
 10
1397.207053
 20
1060.007039
 30
0.0
 11
1397.207053
 21
1070.007039
 31
0.0
  0
LINE
  5
3F8
330
1F
100
AcDbEntity
  8
002
 62
     3
370
    30
100
AcDbLine
 10
1413.207053
 20
1070.007039
 30
0.0
 11
1397.207053
 21
1070.007039
 31
0.0
  0
LINE
  5
3F9
330
1F
100
AcDbEntity
  8
002
 62
     3
370
    30
100
AcDbLine
 10
1413.207053
 20
1070.007039
 30
0.0
 11
1413.207053
 21
1060.007039
 31
0.0
  0
LINE
  5
3FA
330
1F
100
AcDbEntity
  8
002
 62
     3
370
    30
100
AcDbLine
 10
1408.094053
 20
949.007039
 30
0.0
 11
1410.981053
 21
944.007039
 31
0.0
  0
LINE
  5
3FB
330
1F
100
AcDbEntity
  8
002
 62
     3
370
    30
100
AcDbLine
 10
1410.981053
 20
944.007039
 30
0.0
 11
1408.094053
 21
939.007039
 31
0.0
  0
LINE
  5
3FC
330
1F
100
AcDbEntity
  8
002
 62
     3
370
    30
100
AcDbLine
 10
1408.094053
 20
939.007039
 30
0.0
 11
1402.321053
 21
939.007039
 31
0.0
  0
LINE
  5
3FD
330
1F
100
AcDbEntity
  8
002
 62
     3
370
    30
100
AcDbLine
 10
1402.321053
 20
939.007039
 30
0.0
 11
1399.434053
 21
944.007039
 31
0.0
  0
LINE
  5
3FE
330
1F
100
AcDbEntity
  8
002
 62
     3
370
    30
100
AcDbLine
 10
1399.434053
 20
944.007039
 30
0.0
 11
1402.321053
 21
949.007039
 31
0.0
  0
LINE
  5
3FF
330
1F
100
AcDbEntity
  8
002
 62
     3
370
    30
100
AcDbLine
 10
1402.321053
 20
949.007039
 30
0.0
 11
1408.094053
 21
949.007039
 31
0.0
  0
CIRCLE
  5
400
330
1F
100
AcDbEntity
  8
002
 62
     3
370
    30
100
AcDbCircle
 10
1405.207053
 20
944.007039
 30
0.0
 40
0.75
  0
CIRCLE
  5
401
330
1F
100
AcDbEntity
  8
002
 62
     3
370
    30
100
AcDbCircle
 10
1405.207053
 20
944.007039
 30
0.0
 40
2.5
  0
CIRCLE
  5
402
330
1F
100
AcDbEntity
  8
002
 62
     3
370
    30
100
AcDbCircle
 10
1405.207053
 20
944.007039
 30
0.0
 40
3.25
  0
CIRCLE
  5
403
330
1F
100
AcDbEntity
  8
002
 62
     3
370
    30
100
AcDbCircle
 10
1405.207053
 20
944.007039
 30
0.0
 40
5.0
  0
CIRCLE
  5
404
330
1F
100
AcDbEntity
  8
002
 62
     3
370
    30
100
AcDbCircle
 10
1405.207053
 20
944.007039
 30
0.0
 40
15.0
  0
LINE
  5
405
330
1F
100
AcDbEntity
  8
002
 62
    40
370
    30
100
AcDbLine
 10
1342.726053
 20
458.518239
 30
0.0
 11
1342.086053
 21
459.158439
 31
0.0
  0
LINE
  5
406
330
1F
100
AcDbEntity
  8
002
 62
    40
370
    30
100
AcDbLine
 10
1342.726053
 20
449.496739
 30
0.0
 11
1342.086053
 21
448.856539
 31
0.0
  0
LINE
  5
407
330
1F
100
AcDbEntity
  8
002
  6
CENTER
 62
    40
370
     9
100
AcDbLine
 10
1590.207053
 20
833.070039
 30
0.0
 11
1590.207053
 21
877.168039
 31
0.0
  0
LINE
  5
408
330
1F
100
AcDbEntity
  8
002
  6
CENTER
 62
    40
370
     9
100
AcDbLine
 10
1310.207053
 20
833.070039
 30
0.0
 11
1310.207053
 21
877.168039
 31
0.0
  0
LINE
  5
409
330
1F
100
AcDbEntity
  8
002
  6
CENTER
 62
    40
370
     9
100
AcDbLine
 10
1500.207053
 20
870.007039
 30
0.0
 11
1500.207053
 21
1016.320039
 31
0.0
  0
LINE
  5
40A
330
1F
100
AcDbEntity
  8
002
  6
CENTER
 62
    40
370
     9
100
AcDbLine
 10
1241.284053
 20
944.007039
 30
0.0
 11
1590.207053
 21
944.007039
 31
0.0
  0
LINE
  5
40B
330
1F
100
AcDbEntity
  8
002
  6
CENTER
 62
    40
370
     9
100
AcDbLine
 10
1523.207053
 20
1057.979039
 30
0.0
 11
1523.207053
 21
1016.596039
 31
0.0
  0
LINE
  5
40C
330
1F
100
AcDbEntity
  8
002
  6
CENTER
 62
    40
370
     9
100
AcDbLine
 10
1507.398053
 20
1016.596039
 30
0.0
 11
1507.398053
 21
1057.979039
 31
0.0
  0
LINE
  5
40D
330
1F
100
AcDbEntity
  8
002
  6
CENTER
 62
    40
370
     9
100
AcDbLine
 10
1482.707053
 20
1047.749039
 30
0.0
 11
1482.707053
 21
1075.648039
 31
0.0
  0
LINE
  5
40E
330
1F
100
AcDbEntity
  8
002
  6
CENTER
 62
    40
370
     9
100
AcDbLine
 10
1464.207053
 20
1016.596039
 30
0.0
 11
1464.207053
 21
1057.979039
 31
0.0
  0
LINE
  5
40F
330
1F
100
AcDbEntity
  8
002
  6
CENTER
 62
    40
370
     9
100
AcDbLine
 10
1346.207053
 20
1016.596039
 30
0.0
 11
1346.207053
 21
1057.979039
 31
0.0
  0
LINE
  5
410
330
1F
100
AcDbEntity
  8
002
  6
CENTER
 62
    40
370
     9
100
AcDbLine
 10
1303.016053
 20
1057.979039
 30
0.0
 11
1303.016053
 21
1016.596039
 31
0.0
  0
LINE
  5
411
330
1F
100
AcDbEntity
  8
002
  6
CENTER
 62
    40
370
     9
100
AcDbLine
 10
1287.207053
 20
1016.596039
 30
0.0
 11
1287.207053
 21
1057.979039
 31
0.0
  0
LINE
  5
412
330
1F
100
AcDbEntity
  8
002
  6
CENTER
 62
    40
370
     9
100
AcDbLine
 10
1327.707053
 20
1047.749039
 30
0.0
 11
1327.707053
 21
1075.648039
 31
0.0
  0
LINE
  5
413
330
1F
100
AcDbEntity
  8
002
 62
    40
370
     9
100
AcDbLine
 10
1282.207053
 20
928.842039
 30
0.0
 11
1272.207053
 21
928.530039
 31
0.0
  0
LINE
  5
414
330
1F
100
AcDbEntity
  8
002
 62
    40
370
     9
100
AcDbLine
 10
1282.207053
 20
959.173039
 30
0.0
 11
1272.207053
 21
959.485039
 31
0.0
  0
LINE
  5
415
330
1F
100
AcDbEntity
  8
002
 62
    40
370
     9
100
AcDbLine
 10
1272.207053
 20
934.507039
 30
0.0
 11
1260.207053
 21
953.007039
 31
0.0
  0
LINE
  5
416
330
1F
100
AcDbEntity
  8
002
 62
    40
370
     9
100
AcDbLine
 10
1272.207053
 20
953.507039
 30
0.0
 11
1260.207053
 21
935.007039
 31
0.0
  0
LINE
  5
417
330
1F
100
AcDbEntity
  8
002
 62
    40
370
     9
100
AcDbLine
 10
1371.207053
 20
784.007439
 30
0.0
 11
1362.707053
 21
798.729939
 31
0.0
  0
LINE
  5
418
330
1F
100
AcDbEntity
  8
002
 62
    40
370
     9
100
AcDbLine
 10
1439.207053
 20
784.007439
 30
0.0
 11
1447.707053
 21
798.729939
 31
0.0
  0
LINE
  5
419
330
1F
100
AcDbEntity
  8
002
  6
CENTER
 62
    40
370
     9
100
AcDbLine
 10
1305.207053
 20
423.739539
 30
0.0
 11
1305.207053
 21
351.570639
 31
0.0
  0
LINE
  5
41A
330
1F
100
AcDbEntity
  8
002
  6
CENTER
 62
    40
370
     9
100
AcDbLine
 10
1505.207053
 20
423.739539
 30
0.0
 11
1505.207053
 21
351.570639
 31
0.0
  0
LINE
  5
41B
330
1F
100
AcDbEntity
  8
002
  6
CENTER
 62
    40
370
     9
100
AcDbLine
 10
1327.562053
 20
454.007439
 30
0.0
 11
1346.589053
 21
454.007439
 31
0.0
  0
LINE
  5
41C
330
1F
100
AcDbEntity
  8
002
 62
    40
370
     9
100
AcDbLine
 10
1371.207053
 20
360.007439
 30
0.0
 11
1371.207053
 21
244.007039
 31
0.0
  0
LINE
  5
41D
330
1F
100
AcDbEntity
  8
002
 62
    40
370
     9
100
AcDbLine
 10
1439.207053
 20
244.007039
 30
0.0
 11
1439.207053
 21
360.007439
 31
0.0
  0
LINE
  5
41E
330
1F
100
AcDbEntity
  8
002
  6
HIDDEN
 62
    40
370
     9
100
AcDbLine
 10
1606.707053
 20
869.007039
 30
0.0
 11
1606.707053
 21
844.007039
 31
0.0
  0
LINE
  5
41F
330
1F
100
AcDbEntity
  8
002
  6
HIDDEN
 62
    40
370
     9
100
AcDbLine
 10
1573.707053
 20
869.007039
 30
0.0
 11
1573.707053
 21
844.007039
 31
0.0
  0
LINE
  5
420
330
1F
100
AcDbEntity
  8
002
  6
HIDDEN
 62
    40
370
     9
100
AcDbLine
 10
1557.707053
 20
869.007039
 30
0.0
 11
1622.707053
 21
869.007039
 31
0.0
  0
LINE
  5
421
330
1F
100
AcDbEntity
  8
002
  6
HIDDEN
 62
    40
370
     9
100
AcDbLine
 10
1326.707053
 20
869.007039
 30
0.0
 11
1326.707053
 21
844.007039
 31
0.0
  0
LINE
  5
422
330
1F
100
AcDbEntity
  8
002
  6
HIDDEN
 62
    40
370
     9
100
AcDbLine
 10
1293.707053
 20
869.007039
 30
0.0
 11
1293.707053
 21
844.007039
 31
0.0
  0
LINE
  5
423
330
1F
100
AcDbEntity
  8
002
  6
HIDDEN
 62
    40
370
     9
100
AcDbLine
 10
1342.707053
 20
869.007039
 30
0.0
 11
1277.707053
 21
869.007039
 31
0.0
  0
LINE
  5
424
330
1F
100
AcDbEntity
  8
002
  6
HIDDEN
 62
    40
370
     9
100
AcDbLine
 10
1557.707053
 20
870.007039
 30
0.0
 11
1557.707053
 21
869.007039
 31
0.0
  0
LINE
  5
425
330
1F
100
AcDbEntity
  8
002
  6
HIDDEN
 62
    40
370
     9
100
AcDbLine
 10
1622.707053
 20
869.007039
 30
0.0
 11
1622.707053
 21
870.007039
 31
0.0
  0
LINE
  5
426
330
1F
100
AcDbEntity
  8
002
  6
HIDDEN
 62
    40
370
     9
100
AcDbLine
 10
1342.707053
 20
869.007039
 30
0.0
 11
1342.707053
 21
870.007039
 31
0.0
  0
LINE
  5
427
330
1F
100
AcDbEntity
  8
002
  6
HIDDEN
 62
    40
370
     9
100
AcDbLine
 10
1277.707053
 20
869.007039
 30
0.0
 11
1277.707053
 21
870.007039
 31
0.0
  0
LINE
  5
428
330
1F
100
AcDbEntity
  8
002
 62
     3
370
    30
100
AcDbLine
 10
1362.707053
 20
244.007039
 30
0.0
 11
1447.707053
 21
244.007039
 31
0.0
  0
LINE
  5
429
330
1F
100
AcDbEntity
  8
002
 62
     3
370
    30
100
AcDbLine
 10
1372.707053
 20
244.007039
 30
0.0
 11
1372.707053
 21
144.007039
 31
0.0
  0
LINE
  5
42A
330
1F
100
AcDbEntity
  8
002
 62
     3
370
    30
100
AcDbLine
 10
1372.707053
 20
144.007039
 30
0.0
 11
1437.707053
 21
144.007039
 31
0.0
  0
LINE
  5
42B
330
1F
100
AcDbEntity
  8
002
 62
     3
370
    30
100
AcDbLine
 10
1437.707053
 20
144.007039
 30
0.0
 11
1437.707053
 21
244.007039
 31
0.0
  0
LINE
  5
42C
330
1F
100
AcDbEntity
  8
002
 62
    40
370
     9
100
AcDbLine
 10
1447.707053
 20
784.007439
 30
0.0
 11
1362.707053
 21
784.007439
 31
0.0
  0
CIRCLE
  5
42D
330
1F
100
AcDbEntity
  8
002
 62
     3
370
    30
100
AcDbCircle
 10
533.001715
 20
306.26446
 30
0.0
 40
25.0
  0
LINE
  5
42E
330
1F
100
AcDbEntity
  8
002
 62
     3
370
    30
100
AcDbLine
 10
538.001715
 20
318.76446
 30
0.0
 11
528.001715
 21
318.76446
 31
0.0
  0
LINE
  5
42F
330
1F
100
AcDbEntity
  8
002
 62
     3
370
    30
100
AcDbLine
 10
528.001715
 20
318.76446
 30
0.0
 11
528.001715
 21
326.76446
 31
0.0
  0
LINE
  5
430
330
1F
100
AcDbEntity
  8
002
 62
     3
370
    30
100
AcDbLine
 10
528.001715
 20
326.76446
 30
0.0
 11
538.001715
 21
326.76446
 31
0.0
  0
LINE
  5
431
330
1F
100
AcDbEntity
  8
002
 62
     3
370
    30
100
AcDbLine
 10
538.001715
 20
326.76446
 30
0.0
 11
538.001715
 21
318.76446
 31
0.0
  0
ARC
  5
432
330
1F
100
AcDbEntity
  8
002
 62
     3
370
    30
100
AcDbCircle
 10
533.001715
 20
306.26446
 30
0.0
 40
17.50046973655275
100
AcDbArc
 50
106.601091
 51
73.398909
  0
ARC
  5
433
330
1F
100
AcDbEntity
  8
002
 62
     3
370
    30
100
AcDbCircle
 10
533.001715
 20
306.26446
 30
0.0
 40
19.000672645988
100
AcDbArc
 50
105.25697
 51
74.74303
  0
CIRCLE
  5
434
330
1F
100
AcDbEntity
  8
002
 62
     3
370
    30
100
AcDbCircle
 10
1500.207053
 20
944.007039
 30
0.0
 40
25.0
  0
LINE
  5
435
330
1F
100
AcDbEntity
  8
002
 62
     3
370
    30
100
AcDbLine
 10
1505.207053
 20
956.507039
 30
0.0
 11
1495.207053
 21
956.507039
 31
0.0
  0
LINE
  5
436
330
1F
100
AcDbEntity
  8
002
 62
     3
370
    30
100
AcDbLine
 10
1495.207053
 20
956.507039
 30
0.0
 11
1495.207053
 21
964.507039
 31
0.0
  0
LINE
  5
437
330
1F
100
AcDbEntity
  8
002
 62
     3
370
    30
100
AcDbLine
 10
1495.207053
 20
964.507039
 30
0.0
 11
1505.207053
 21
964.507039
 31
0.0
  0
LINE
  5
438
330
1F
100
AcDbEntity
  8
002
 62
     3
370
    30
100
AcDbLine
 10
1505.207053
 20
964.507039
 30
0.0
 11
1505.207053
 21
956.507039
 31
0.0
  0
ARC
  5
439
330
1F
100
AcDbEntity
  8
002
 62
     3
370
    30
100
AcDbCircle
 10
1500.207053
 20
944.007039
 30
0.0
 40
17.50046973655275
100
AcDbArc
 50
106.601091
 51
73.398909
  0
ARC
  5
43A
330
1F
100
AcDbEntity
  8
002
 62
     3
370
    30
100
AcDbCircle
 10
1500.207053
 20
944.007039
 30
0.0
 40
19.000672645988
100
AcDbArc
 50
105.25697
 51
74.74303
  0
LINE
  5
43B
330
1F
100
AcDbEntity
  8
002
 62
     3
370
    30
100
AcDbLine
 10
1108.001715
 20
206.26446
 30
0.0
 11
1108.001715
 21
230.26446
 31
0.0
  0
ARC
  5
43C
330
1F
100
AcDbEntity
  8
002
 62
     3
370
    30
100
AcDbCircle
 10
1106.001715
 20
230.26446
 30
0.0
 40
2.0
100
AcDbArc
 50
0.0
 51
90.0
  0
LINE
  5
43D
330
1F
100
AcDbEntity
  8
002
 62
     3
370
    30
100
AcDbLine
 10
1106.001715
 20
232.26446
 30
0.0
 11
760.001715
 21
232.26446
 31
0.0
  0
ARC
  5
43E
330
1F
100
AcDbEntity
  8
002
 62
     3
370
    30
100
AcDbCircle
 10
760.001715
 20
230.26446
 30
0.0
 40
2.0
100
AcDbArc
 50
90.0
 51
180.0
  0
LINE
  5
43F
330
1F
100
AcDbEntity
  8
002
 62
     3
370
    30
100
AcDbLine
 10
758.001715
 20
230.26446
 30
0.0
 11
758.001715
 21
206.26446
 31
0.0
  0
LINE
  5
440
330
1F
100
AcDbEntity
  8
002
 62
     3
370
    30
100
AcDbLine
 10
758.001715
 20
206.26446
 30
0.0
 11
1108.001715
 21
206.26446
 31
0.0
  0
LINE
  5
441
330
1F
100
AcDbEntity
  8
002
 62
     3
370
    30
100
AcDbLine
 10
1101.558715
 20
234.76706
 30
0.0
 11
1040.565715
 21
340.55456
 31
0.0
  0
LINE
  5
442
330
1F
100
AcDbEntity
  8
002
 62
     3
370
    30
100
AcDbLine
 10
1040.565715
 20
340.55456
 30
0.0
 11
1038.665715
 21
340.55456
 31
0.0
  0
ARC
  5
443
330
1F
100
AcDbEntity
  8
002
 62
     3
370
    30
100
AcDbCircle
 10
1038.665715
 20
343.55456
 30
0.0
 40
3.0
100
AcDbArc
 50
213.823037
 51
270.0
  0
LINE
  5
444
330
1F
100
AcDbEntity
  8
002
 62
     3
370
    30
100
AcDbLine
 10
1037.001715
 20
338.20196
 30
0.0
 11
1037.001715
 21
232.26446
 31
0.0
  0
LINE
  5
445
330
1F
100
AcDbEntity
  8
002
 62
     3
370
    30
100
AcDbLine
 10
1047.001715
 20
232.26446
 30
0.0
 11
1047.001715
 21
306.26446
 31
0.0
  0
ARC
  5
446
330
1F
100
AcDbEntity
  8
002
 62
     3
370
    30
100
AcDbCircle
 10
983.001715
 20
306.26446
 30
0.0
 40
64.00045221723039
100
AcDbArc
 50
0.0
 51
325.22837
  0
ARC
  5
447
330
1F
100
AcDbEntity
  8
002
 62
     3
370
    30
100
AcDbCircle
 10
1029.001715
 20
274.32706
 30
0.0
 40
8.0
100
AcDbArc
 50
325.230338
 51
0.0
  0
LINE
  5
448
330
1F
100
AcDbEntity
  8
002
 62
     3
370
    30
100
AcDbLine
 10
919.001715
 20
306.26446
 30
0.0
 11
919.001715
 21
237.26446
 31
0.0
  0
ARC
  5
449
330
1F
100
AcDbEntity
  8
002
 62
     3
370
    30
100
AcDbCircle
 10
914.001715
 20
237.26446
 30
0.0
 40
5.0
100
AcDbArc
 50
270.0
 51
0.0
  0
LINE
  5
44A
330
1F
100
AcDbEntity
  8
002
 62
     3
370
    30
100
AcDbLine
 10
896.001715
 20
200.26446
 30
0.0
 11
896.001715
 21
190.26446
 31
0.0
  0
LINE
  5
44B
330
1F
100
AcDbEntity
  8
002
 62
     3
370
    30
100
AcDbLine
 10
880.001715
 20
190.26446
 30
0.0
 11
896.001715
 21
190.26446
 31
0.0
  0
LINE
  5
44C
330
1F
100
AcDbEntity
  8
002
 62
     3
370
    30
100
AcDbLine
 10
880.001715
 20
190.26446
 30
0.0
 11
880.001715
 21
200.26446
 31
0.0
  0
LINE
  5
44D
330
1F
100
AcDbEntity
  8
002
 62
     3
370
    30
100
AcDbLine
 10
830.851715
 20
200.26446
 30
0.0
 11
830.851715
 21
131.26446
 31
0.0
  0
LINE
  5
44E
330
1F
100
AcDbEntity
  8
002
 62
     3
370
    30
100
AcDbLine
 10
830.851715
 20
131.26446
 30
0.0
 11
945.151715
 21
131.26446
 31
0.0
  0
LINE
  5
44F
330
1F
100
AcDbEntity
  8
002
 62
     3
370
    30
100
AcDbLine
 10
945.151715
 20
131.26446
 30
0.0
 11
945.151715
 21
200.26446
 31
0.0
  0
LINE
  5
450
330
1F
100
AcDbEntity
  8
002
 62
     3
370
    30
100
AcDbLine
 10
957.501715
 20
200.26446
 30
0.0
 11
957.501715
 21
190.26446
 31
0.0
  0
LINE
  5
451
330
1F
100
AcDbEntity
  8
002
 62
     3
370
    30
100
AcDbLine
 10
973.501715
 20
190.26446
 30
0.0
 11
957.501715
 21
190.26446
 31
0.0
  0
LINE
  5
452
330
1F
100
AcDbEntity
  8
002
 62
     3
370
    30
100
AcDbLine
 10
973.501715
 20
190.26446
 30
0.0
 11
973.501715
 21
200.26446
 31
0.0
  0
LINE
  5
453
330
1F
100
AcDbEntity
  8
002
 62
     3
370
    30
100
AcDbLine
 10
975.501715
 20
200.26446
 30
0.0
 11
975.501715
 21
206.26446
 31
0.0
  0
LINE
  5
454
330
1F
100
AcDbEntity
  8
002
 62
     3
370
    30
100
AcDbLine
 10
975.501715
 20
200.26446
 30
0.0
 11
800.501715
 21
200.26446
 31
0.0
  0
LINE
  5
455
330
1F
100
AcDbEntity
  8
002
 62
     3
370
    30
100
AcDbLine
 10
800.501715
 20
200.26446
 30
0.0
 11
800.501715
 21
206.26446
 31
0.0
  0
LINE
  5
456
330
1F
100
AcDbEntity
  8
002
 62
     3
370
    30
100
AcDbLine
 10
802.501715
 20
200.26446
 30
0.0
 11
802.501715
 21
190.26446
 31
0.0
  0
LINE
  5
457
330
1F
100
AcDbEntity
  8
002
 62
     3
370
    30
100
AcDbLine
 10
818.501715
 20
190.26446
 30
0.0
 11
802.501715
 21
190.26446
 31
0.0
  0
LINE
  5
458
330
1F
100
AcDbEntity
  8
002
 62
     3
370
    30
100
AcDbLine
 10
818.501715
 20
190.26446
 30
0.0
 11
818.501715
 21
200.26446
 31
0.0
  0
ARC
  5
459
330
1F
100
AcDbEntity
  8
002
 62
     3
370
    30
100
AcDbCircle
 10
822.999715
 20
237.26446
 30
0.0
 40
5.0
100
AcDbArc
 50
270.0
 51
0.0
  0
LINE
  5
45A
330
1F
100
AcDbEntity
  8
002
 62
     3
370
    30
100
AcDbLine
 10
827.999715
 20
237.26446
 30
0.0
 11
827.999715
 21
348.26446
 31
0.0
  0
ARC
  5
45B
330
1F
100
AcDbEntity
  8
002
 62
     3
370
    30
100
AcDbCircle
 10
822.999715
 20
348.26446
 30
0.0
 40
5.0
100
AcDbArc
 50
0.0
 51
90.0
  0
LINE
  5
45C
330
1F
100
AcDbEntity
  8
002
 62
     3
370
    30
100
AcDbLine
 10
822.999715
 20
353.26446
 30
0.0
 11
798.430715
 21
353.26446
 31
0.0
  0
ARC
  5
45D
330
1F
100
AcDbEntity
  8
002
 62
     3
370
    30
100
AcDbCircle
 10
798.430715
 20
348.26446
 30
0.0
 40
5.0
100
AcDbArc
 50
90.0
 51
180.0
  0
LINE
  5
45E
330
1F
100
AcDbEntity
  8
002
 62
     3
370
    30
100
AcDbLine
 10
793.430715
 20
348.26446
 30
0.0
 11
793.430715
 21
237.26446
 31
0.0
  0
ARC
  5
45F
330
1F
100
AcDbEntity
  8
002
 62
     3
370
    30
100
AcDbCircle
 10
788.430715
 20
237.26446
 30
0.0
 40
5.0
100
AcDbArc
 50
270.0
 51
0.0
  0
LINE
  5
460
330
1F
100
AcDbEntity
  8
002
 62
     3
370
    30
100
AcDbLine
 10
776.001715
 20
237.26446
 30
0.0
 11
776.001715
 21
259.86336
 31
0.0
  0
ARC
  5
461
330
1F
100
AcDbEntity
  8
002
 62
     3
370
    30
100
AcDbCircle
 10
766.001715
 20
259.86336
 30
0.0
 40
10.00006824976707
100
AcDbArc
 50
0.0
 51
65.908363
  0
LINE
  5
462
330
1F
100
AcDbEntity
  8
002
 62
     3
370
    30
100
AcDbLine
 10
770.083715
 20
268.99236
 30
0.0
 11
765.001715
 21
271.26446
 31
0.0
  0
LINE
  5
463
330
1F
100
AcDbEntity
  8
002
 62
     3
370
    30
100
AcDbLine
 10
765.001715
 20
271.26446
 30
0.0
 11
765.001715
 21
346.26446
 31
0.0
  0
ARC
  5
464
330
1F
100
AcDbEntity
  8
002
 62
     3
370
    30
100
AcDbCircle
 10
755.001715
 20
346.26446
 30
0.0
 40
10.0
100
AcDbArc
 50
0.0
 51
90.0
  0
LINE
  5
465
330
1F
100
AcDbEntity
  8
002
 62
     3
370
    30
100
AcDbLine
 10
754.001715
 20
356.26446
 30
0.0
 11
754.001715
 21
400.26446
 31
0.0
  0
LINE
  5
466
330
1F
100
AcDbEntity
  8
002
 62
     3
370
    30
100
AcDbLine
 10
754.001715
 20
400.26446
 30
0.0
 11
1022.001715
 21
400.26446
 31
0.0
  0
LINE
  5
467
330
1F
100
AcDbEntity
  8
002
 62
     3
370
    30
100
AcDbLine
 10
1022.001715
 20
400.26446
 30
0.0
 11
1022.001715
 21
356.26446
 31
0.0
  0
ARC
  5
468
330
1F
100
AcDbEntity
  8
002
 62
     3
370
    30
100
AcDbCircle
 10
1029.001715
 20
338.20196
 30
0.0
 40
8.00041734911359
100
AcDbArc
 50
0.0
 51
34.769073
  0
LINE
  5
469
330
1F
100
AcDbEntity
  8
002
 62
     3
370
    30
100
AcDbLine
 10
1022.001715
 20
386.26446
 30
0.0
 11
754.001715
 21
386.26446
 31
0.0
  0
LINE
  5
46A
330
1F
100
AcDbEntity
  8
002
 62
     3
370
    30
100
AcDbLine
 10
759.501715
 20
400.26446
 30
0.0
 11
759.501715
 21
414.26446
 31
0.0
  0
LINE
  5
46B
330
1F
100
AcDbEntity
  8
002
 62
     3
370
    30
100
AcDbLine
 10
796.310715
 20
414.26446
 30
0.0
 11
796.310715
 21
400.26446
 31
0.0
  0
LINE
  5
46C
330
1F
100
AcDbEntity
  8
002
 62
     3
370
    30
100
AcDbLine
 10
796.310715
 20
401.26446
 30
0.0
 11
818.501715
 21
401.26446
 31
0.0
  0
LINE
  5
46D
330
1F
100
AcDbEntity
  8
002
 62
     3
370
    30
100
AcDbLine
 10
818.501715
 20
400.26446
 30
0.0
 11
818.501715
 21
414.26446
 31
0.0
  0
LINE
  5
46E
330
1F
100
AcDbEntity
  8
002
 62
     3
370
    30
100
AcDbLine
 10
818.501715
 20
414.26446
 30
0.0
 11
839.501715
 21
414.26446
 31
0.0
  0
LINE
  5
46F
330
1F
100
AcDbEntity
  8
002
 62
     3
370
    30
100
AcDbLine
 10
839.501715
 20
414.26446
 30
0.0
 11
839.501715
 21
400.26446
 31
0.0
  0
LINE
  5
470
330
1F
100
AcDbEntity
  8
002
 62
     3
370
    30
100
AcDbLine
 10
839.501715
 20
401.26446
 30
0.0
 11
877.501715
 21
401.26446
 31
0.0
  0
LINE
  5
471
330
1F
100
AcDbEntity
  8
002
 62
     3
370
    30
100
AcDbLine
 10
877.501715
 20
400.26446
 30
0.0
 11
877.501715
 21
414.26446
 31
0.0
  0
LINE
  5
472
330
1F
100
AcDbEntity
  8
002
 62
     3
370
    30
100
AcDbLine
 10
877.501715
 20
414.26446
 30
0.0
 11
898.501715
 21
414.26446
 31
0.0
  0
LINE
  5
473
330
1F
100
AcDbEntity
  8
002
 62
     3
370
    30
100
AcDbLine
 10
898.501715
 20
414.26446
 30
0.0
 11
898.501715
 21
400.26446
 31
0.0
  0
LINE
  5
474
330
1F
100
AcDbEntity
  8
002
 62
     3
370
    30
100
AcDbLine
 10
898.501715
 20
401.26446
 30
0.0
 11
936.501715
 21
401.26446
 31
0.0
  0
LINE
  5
475
330
1F
100
AcDbEntity
  8
002
 62
     3
370
    30
100
AcDbLine
 10
936.501715
 20
400.26446
 30
0.0
 11
936.501715
 21
414.26446
 31
0.0
  0
LINE
  5
476
330
1F
100
AcDbEntity
  8
002
 62
     3
370
    30
100
AcDbLine
 10
936.501715
 20
414.26446
 30
0.0
 11
957.501715
 21
414.26446
 31
0.0
  0
LINE
  5
477
330
1F
100
AcDbEntity
  8
002
 62
     3
370
    30
100
AcDbLine
 10
957.501715
 20
414.26446
 30
0.0
 11
957.501715
 21
400.26446
 31
0.0
  0
LINE
  5
478
330
1F
100
AcDbEntity
  8
002
 62
     3
370
    30
100
AcDbLine
 10
957.501715
 20
401.26446
 30
0.0
 11
979.692715
 21
401.26446
 31
0.0
  0
LINE
  5
479
330
1F
100
AcDbEntity
  8
002
 62
     3
370
    30
100
AcDbLine
 10
979.692715
 20
400.26446
 30
0.0
 11
979.692715
 21
414.26446
 31
0.0
  0
LINE
  5
47A
330
1F
100
AcDbEntity
  8
002
 62
     3
370
    30
100
AcDbLine
 10
979.692715
 20
414.26446
 30
0.0
 11
1016.501715
 21
414.26446
 31
0.0
  0
LINE
  5
47B
330
1F
100
AcDbEntity
  8
002
 62
     3
370
    30
100
AcDbLine
 10
978.001715
 20
416.26446
 30
0.0
 11
798.001715
 21
416.26446
 31
0.0
  0
LINE
  5
47C
330
1F
100
AcDbEntity
  8
002
 62
     3
370
    30
100
AcDbLine
 10
798.001715
 20
416.26446
 30
0.0
 11
797.488715
 21
410.39296
 31
0.0
  0
LINE
  5
47D
330
1F
100
AcDbEntity
  8
002
 62
     3
370
    30
100
AcDbLine
 10
796.310715
 20
414.26446
 30
0.0
 11
759.501715
 21
414.26446
 31
0.0
  0
LINE
  5
47E
330
1F
100
AcDbEntity
  8
002
 62
     3
370
    30
100
AcDbLine
 10
775.310715
 20
414.26446
 30
0.0
 11
775.310715
 21
400.26446
 31
0.0
  0
ARC
  5
47F
330
1F
100
AcDbEntity
  8
002
 62
     3
370
    30
100
AcDbCircle
 10
787.526715
 20
411.26446
 30
0.0
 40
10.00004781238592
100
AcDbArc
 50
331.455802
 51
355.000354
  0
LINE
  5
480
330
1F
100
AcDbEntity
  8
002
 62
     3
370
    30
100
AcDbLine
 10
838.001715
 20
416.26446
 30
0.0
 11
838.001715
 21
426.26446
 31
0.0
  0
LINE
  5
481
330
1F
100
AcDbEntity
  8
002
 62
     3
370
    30
100
AcDbLine
 10
838.001715
 20
426.26446
 30
0.0
 11
938.001715
 21
426.26446
 31
0.0
  0
LINE
  5
482
330
1F
100
AcDbEntity
  8
002
 62
     3
370
    30
100
AcDbLine
 10
938.001715
 20
426.26446
 30
0.0
 11
938.001715
 21
416.26446
 31
0.0
  0
LINE
  5
483
330
1F
100
AcDbEntity
  8
002
 62
     3
370
    30
100
AcDbLine
 10
978.001715
 20
416.26446
 30
0.0
 11
978.515715
 21
410.39296
 31
0.0
  0
ARC
  5
484
330
1F
100
AcDbEntity
  8
002
 62
     3
370
    30
100
AcDbCircle
 10
988.477715
 20
411.26446
 30
0.0
 40
10.0003232252762
100
AcDbArc
 50
184.999646
 51
208.54146
  0
LINE
  5
485
330
1F
100
AcDbEntity
  8
002
 62
     3
370
    30
100
AcDbLine
 10
1000.692715
 20
414.26446
 30
0.0
 11
1000.692715
 21
400.26446
 31
0.0
  0
LINE
  5
486
330
1F
100
AcDbEntity
  8
002
 62
     3
370
    30
100
AcDbLine
 10
1016.501715
 20
400.26446
 30
0.0
 11
1016.501715
 21
414.26446
 31
0.0
  0
LINE
  5
487
330
1F
100
AcDbEntity
  8
002
 62
     3
370
    30
100
AcDbLine
 10
958.429715
 20
365.35916
 30
0.0
 11
958.429715
 21
368.59566
 31
0.0
  0
ARC
  5
488
330
1F
100
AcDbEntity
  8
002
 62
     3
370
    30
100
AcDbCircle
 10
983.001715
 20
306.26446
 30
0.0
 40
66.99986271627724
100
AcDbArc
 50
111.515187
 51
131.731685
  0
LINE
  5
489
330
1F
100
AcDbEntity
  8
002
 62
     3
370
    30
100
AcDbLine
 10
938.403715
 20
356.26446
 30
0.0
 11
754.001715
 21
356.26446
 31
0.0
  0
LINE
  5
48A
330
1F
100
AcDbEntity
  8
002
 62
     3
370
    30
100
AcDbLine
 10
783.356715
 20
346.26446
 30
0.0
 11
783.356715
 21
306.26446
 31
0.0
  0
LINE
  5
48B
330
1F
100
AcDbEntity
  8
002
 62
     3
370
    30
100
AcDbLine
 10
765.001715
 20
322.87006
 30
0.0
 11
755.001715
 21
323.18256
 31
0.0
  0
LINE
  5
48C
330
1F
100
AcDbEntity
  8
002
 62
     3
370
    30
100
AcDbLine
 10
755.001715
 20
323.18256
 30
0.0
 11
755.001715
 21
289.34646
 31
0.0
  0
LINE
  5
48D
330
1F
100
AcDbEntity
  8
002
 62
     3
370
    30
100
AcDbLine
 10
755.001715
 20
289.34646
 30
0.0
 11
765.001715
 21
289.65896
 31
0.0
  0
LINE
  5
48E
330
1F
100
AcDbEntity
  8
002
 62
     3
370
    30
100
AcDbLine
 10
755.001715
 20
296.76446
 30
0.0
 11
743.001715
 21
297.26446
 31
0.0
  0
LINE
  5
48F
330
1F
100
AcDbEntity
  8
002
 62
     3
370
    30
100
AcDbLine
 10
743.001715
 20
297.26446
 30
0.0
 11
743.001715
 21
315.26446
 31
0.0
  0
LINE
  5
490
330
1F
100
AcDbEntity
  8
002
 62
     3
370
    30
100
AcDbLine
 10
743.001715
 20
315.26446
 30
0.0
 11
755.001715
 21
315.76446
 31
0.0
  0
ARC
  5
491
330
1F
100
AcDbEntity
  8
002
 62
     3
370
    30
100
AcDbCircle
 10
773.356715
 20
346.26446
 30
0.0
 40
10.00040819166902
100
AcDbArc
 50
0.0
 51
44.424712
  0
LINE
  5
492
330
1F
100
AcDbEntity
  8
002
 62
     3
370
    30
100
AcDbLine
 10
795.999715
 20
345.59196
 30
0.0
 11
825.999715
 21
345.59196
 31
0.0
  0
LINE
  5
493
330
1F
100
AcDbEntity
  8
002
 62
     3
370
    30
100
AcDbLine
 10
885.115715
 20
311.26446
 30
0.0
 11
890.888715
 21
311.26446
 31
0.0
  0
LINE
  5
494
330
1F
100
AcDbEntity
  8
002
 62
     3
370
    30
100
AcDbLine
 10
890.888715
 20
311.26446
 30
0.0
 11
893.775715
 21
306.26446
 31
0.0
  0
LINE
  5
495
330
1F
100
AcDbEntity
  8
002
 62
     3
370
    30
100
AcDbLine
 10
893.775715
 20
306.26446
 30
0.0
 11
890.888715
 21
301.26446
 31
0.0
  0
LINE
  5
496
330
1F
100
AcDbEntity
  8
002
 62
     3
370
    30
100
AcDbLine
 10
890.888715
 20
301.26446
 30
0.0
 11
885.115715
 21
301.26446
 31
0.0
  0
LINE
  5
497
330
1F
100
AcDbEntity
  8
002
 62
     3
370
    30
100
AcDbLine
 10
885.115715
 20
301.26446
 30
0.0
 11
882.228715
 21
306.26446
 31
0.0
  0
LINE
  5
498
330
1F
100
AcDbEntity
  8
002
 62
     3
370
    30
100
AcDbLine
 10
882.228715
 20
306.26446
 30
0.0
 11
885.115715
 21
311.26446
 31
0.0
  0
CIRCLE
  5
499
330
1F
100
AcDbEntity
  8
002
 62
     3
370
    30
100
AcDbCircle
 10
888.001715
 20
306.26446
 30
0.0
 40
0.75
  0
CIRCLE
  5
49A
330
1F
100
AcDbEntity
  8
002
 62
     3
370
    30
100
AcDbCircle
 10
888.001715
 20
306.26446
 30
0.0
 40
2.5
  0
CIRCLE
  5
49B
330
1F
100
AcDbEntity
  8
002
 62
     3
370
    30
100
AcDbCircle
 10
888.001715
 20
306.26446
 30
0.0
 40
3.25
  0
CIRCLE
  5
49C
330
1F
100
AcDbEntity
  8
002
 62
     3
370
    30
100
AcDbCircle
 10
888.001715
 20
306.26446
 30
0.0
 40
5.0
  0
CIRCLE
  5
49D
330
1F
100
AcDbEntity
  8
002
 62
     3
370
    30
100
AcDbCircle
 10
888.001715
 20
306.26446
 30
0.0
 40
15.0
  0
ARC
  5
49E
330
1F
100
AcDbEntity
  8
002
 62
     3
370
    30
100
AcDbCircle
 10
1105.890715
 20
237.26446
 30
0.0
 40
5.0
100
AcDbArc
 50
209.963469
 51
270.0
  0
LINE
  5
49F
330
1F
100
AcDbEntity
  8
002
 62
     3
370
    30
100
AcDbLine
 10
950.501715
 20
745.26406
 30
0.0
 11
825.501715
 21
745.26406
 31
0.0
  0
LINE
  5
4A0
330
1F
100
AcDbEntity
  8
002
 62
     3
370
    30
100
AcDbLine
 10
825.501715
 20
745.26406
 30
0.0
 11
825.501715
 21
835.26366
 31
0.0
  0
LINE
  5
4A1
330
1F
100
AcDbEntity
  8
002
 62
     3
370
    30
100
AcDbLine
 10
823.501715
 20
797.03766
 30
0.0
 11
820.501715
 21
797.03766
 31
0.0
  0
LINE
  5
4A2
330
1F
100
AcDbEntity
  8
002
 62
     3
370
    30
100
AcDbLine
 10
820.501715
 20
797.03766
 30
0.0
 11
817.588715
 21
794.12366
 31
0.0
  0
LINE
  5
4A3
330
1F
100
AcDbEntity
  8
002
 62
     3
370
    30
100
AcDbLine
 10
817.025715
 20
793.56166
 30
0.0
 11
817.025715
 21
788.96666
 31
0.0
  0
ARC
  5
4A4
330
1F
100
AcDbEntity
  8
002
 62
     3
370
    30
100
AcDbCircle
 10
816.881715
 20
787.69666
 30
0.0
 40
1.000001999998141
100
AcDbArc
 50
45.0
 51
122.005383
  0
LINE
  5
4A5
330
1F
100
AcDbEntity
  8
002
 62
     3
370
    30
100
AcDbLine
 10
816.351715
 20
788.54466
 30
0.0
 11
815.501715
 21
788.01366
 31
0.0
  0
LINE
  5
4A6
330
1F
100
AcDbEntity
  8
002
 62
     3
370
    30
100
AcDbLine
 10
815.501715
 20
788.01366
 30
0.0
 11
812.501715
 21
788.76366
 31
0.0
  0
LINE
  5
4A7
330
1F
100
AcDbEntity
  8
002
 62
     3
370
    30
100
AcDbLine
 10
812.501715
 20
788.76366
 30
0.0
 11
812.501715
 21
793.76366
 31
0.0
  0
LINE
  5
4A8
330
1F
100
AcDbEntity
  8
002
 62
     3
370
    30
100
AcDbLine
 10
812.501715
 20
793.76366
 30
0.0
 11
815.501715
 21
794.51366
 31
0.0
  0
LINE
  5
4A9
330
1F
100
AcDbEntity
  8
002
 62
     3
370
    30
100
AcDbLine
 10
815.501715
 20
794.51366
 30
0.0
 11
816.351715
 21
793.98366
 31
0.0
  0
ARC
  5
4AA
330
1F
100
AcDbEntity
  8
002
 62
     3
370
    30
100
AcDbCircle
 10
816.881715
 20
794.83166
 30
0.0
 40
1.000556345239961
100
AcDbArc
 50
237.994617
 51
314.959508
  0
LINE
  5
4AB
330
1F
100
AcDbEntity
  8
002
 62
     3
370
    30
100
AcDbLine
 10
815.501715
 20
793.76366
 30
0.0
 11
815.501715
 21
788.76366
 31
0.0
  0
LINE
  5
4AC
330
1F
100
AcDbEntity
  8
002
 62
     3
370
    30
100
AcDbLine
 10
817.588715
 20
788.40366
 30
0.0
 11
820.501715
 21
785.49066
 31
0.0
  0
LINE
  5
4AD
330
1F
100
AcDbEntity
  8
002
 62
     3
370
    30
100
AcDbLine
 10
820.501715
 20
785.49066
 30
0.0
 11
823.501715
 21
785.49066
 31
0.0
  0
LINE
  5
4AE
330
1F
100
AcDbEntity
  8
002
 62
     3
370
    30
100
AcDbLine
 10
823.501715
 20
785.49066
 30
0.0
 11
824.404715
 21
786.39366
 31
0.0
  0
ARC
  5
4AF
330
1F
100
AcDbEntity
  8
002
 62
     3
370
    30
100
AcDbCircle
 10
822.961715
 20
786.93366
 30
0.0
 40
1.54166663063058
100
AcDbArc
 50
339.483127
 51
69.496153
  0
LINE
  5
4B0
330
1F
100
AcDbEntity
  8
002
 62
     3
370
    30
100
AcDbLine
 10
823.501715
 20
788.37766
 30
0.0
 11
820.501715
 21
788.37766
 31
0.0
  0
ARC
  5
4B1
330
1F
100
AcDbEntity
  8
002
 62
     3
370
    30
100
AcDbCircle
 10
821.042715
 20
786.93366
 30
0.0
 40
1.540730021775364
100
AcDbArc
 50
110.53865
 51
200.516873
  0
ARC
  5
4B2
330
1F
100
AcDbEntity
  8
002
 62
     3
370
    30
100
AcDbCircle
 10
819.835715
 20
791.26366
 30
0.0
 40
4.666296711526233
100
AcDbArc
 50
321.788975
 51
38.220673
  0
LINE
  5
4B3
330
1F
100
AcDbEntity
  8
002
 62
     3
370
    30
100
AcDbLine
 10
823.501715
 20
794.15066
 30
0.0
 11
820.501715
 21
794.15066
 31
0.0
  0
ARC
  5
4B4
330
1F
100
AcDbEntity
  8
002
 62
     3
370
    30
100
AcDbCircle
 10
824.168715
 20
791.26366
 30
0.0
 40
4.666463864640891
100
AcDbArc
 50
141.786922
 51
218.203431
  0
LINE
  5
4B5
330
1F
100
AcDbEntity
  8
002
 62
     3
370
    30
100
AcDbLine
 10
824.501715
 20
786.97866
 30
0.0
 11
824.501715
 21
795.54966
 31
0.0
  0
LINE
  5
4B6
330
1F
100
AcDbEntity
  8
002
 62
     3
370
    30
100
AcDbLine
 10
824.404715
 20
796.13466
 30
0.0
 11
823.501715
 21
797.03766
 31
0.0
  0
LINE
  5
4B7
330
1F
100
AcDbEntity
  8
002
 62
     3
370
    30
100
AcDbLine
 10
824.073715
 20
796.46566
 30
0.0
 11
825.501715
 21
796.37666
 31
0.0
  0
ARC
  5
4B8
330
1F
100
AcDbEntity
  8
002
 62
     3
370
    30
100
AcDbCircle
 10
822.961715
 20
795.59466
 30
0.0
 40
1.540730021775364
100
AcDbArc
 50
290.503847
 51
20.516873
  0
ARC
  5
4B9
330
1F
100
AcDbEntity
  8
002
 62
     3
370
    30
100
AcDbCircle
 10
821.042715
 20
795.59466
 30
0.0
 40
1.542017185377588
100
AcDbArc
 50
159.483127
 51
249.46135
  0
ARC
  5
4BA
330
1F
100
AcDbEntity
  8
002
 62
     3
370
    30
100
AcDbCircle
 10
813.163715
 20
791.26366
 30
0.0
 40
1.00037193083375
100
AcDbArc
 50
131.433771
 51
228.566229
  0
LINE
  5
4BB
330
1F
100
AcDbEntity
  8
002
 62
     3
370
    30
100
AcDbLine
 10
824.073715
 20
786.06266
 30
0.0
 11
825.501715
 21
786.15166
 31
0.0
  0
LINE
  5
4BC
330
1F
100
AcDbEntity
  8
002
 62
     3
370
    30
100
AcDbLine
 10
950.501715
 20
745.26406
 30
0.0
 11
950.501715
 21
835.26366
 31
0.0
  0
LINE
  5
4BD
330
1F
100
AcDbEntity
  8
002
 62
     3
370
    30
100
AcDbLine
 10
930.501715
 20
885.26366
 30
0.0
 11
930.501715
 21
1006.26446
 31
0.0
  0
LINE
  5
4BE
330
1F
100
AcDbEntity
  8
002
 62
     3
370
    30
100
AcDbLine
 10
845.501715
 20
1006.26446
 30
0.0
 11
845.501715
 21
885.26366
 31
0.0
  0
LINE
  5
4BF
330
1F
100
AcDbEntity
  8
002
 62
     3
370
    30
100
AcDbLine
 10
763.001715
 20
885.26366
 30
0.0
 11
1013.001715
 21
885.26366
 31
0.0
  0
LINE
  5
4C0
330
1F
100
AcDbEntity
  8
002
 62
     3
370
    30
100
AcDbLine
 10
1013.001715
 20
885.26366
 30
0.0
 11
1013.001715
 21
835.26366
 31
0.0
  0
LINE
  5
4C1
330
1F
100
AcDbEntity
  8
002
 62
     3
370
    30
100
AcDbLine
 10
1013.001715
 20
835.26366
 30
0.0
 11
763.001715
 21
835.26366
 31
0.0
  0
LINE
  5
4C2
330
1F
100
AcDbEntity
  8
002
 62
     3
370
    30
100
AcDbLine
 10
763.001715
 20
835.26366
 30
0.0
 11
763.001715
 21
885.26366
 31
0.0
  0
ARC
  5
4C3
330
1F
100
AcDbEntity
  8
002
 62
     3
370
    30
100
AcDbCircle
 10
633.519715
 20
313.23636
 30
0.0
 40
149.9991131927452
100
AcDbArc
 50
341.783888
 51
357.335955
  0
ARC
  5
4C4
330
1F
100
AcDbEntity
  8
002
 62
     3
370
    30
100
AcDbCircle
 10
771.001715
 20
237.26446
 30
0.0
 40
5.0
100
AcDbArc
 50
270.0
 51
0.0
  0
LINE
  5
4C5
330
1F
100
AcDbEntity
  8
002
 62
    40
370
    30
100
AcDbLine
 10
825.521715
 20
786.75366
 30
0.0
 11
824.880715
 21
786.11266
 31
0.0
  0
LINE
  5
4C6
330
1F
100
AcDbEntity
  8
002
 62
    40
370
    30
100
AcDbLine
 10
825.521715
 20
795.77466
 30
0.0
 11
824.880715
 21
796.41466
 31
0.0
  0
LINE
  5
4C7
330
1F
100
AcDbEntity
  8
002
  6
CENTER
 62
    40
370
     9
100
AcDbLine
 10
988.001715
 20
821.53166
 30
0.0
 11
988.001715
 21
893.70066
 31
0.0
  0
LINE
  5
4C8
330
1F
100
AcDbEntity
  8
002
  6
CENTER
 62
    40
370
     9
100
AcDbLine
 10
788.001715
 20
821.53166
 30
0.0
 11
788.001715
 21
893.70066
 31
0.0
  0
LINE
  5
4C9
330
1F
100
AcDbEntity
  8
002
 62
    40
370
     9
100
AcDbLine
 10
854.001715
 20
1006.26446
 30
0.0
 11
854.001715
 21
885.26366
 31
0.0
  0
LINE
  5
4CA
330
1F
100
AcDbEntity
  8
002
 62
    40
370
     9
100
AcDbLine
 10
922.001715
 20
885.26366
 30
0.0
 11
922.001715
 21
1006.26446
 31
0.0
  0
LINE
  5
4CB
330
1F
100
AcDbEntity
  8
002
 62
    40
370
     9
100
AcDbLine
 10
930.501715
 20
451.54206
 30
0.0
 11
922.001715
 21
466.26446
 31
0.0
  0
LINE
  5
4CC
330
1F
100
AcDbEntity
  8
002
 62
    40
370
     9
100
AcDbLine
 10
854.001715
 20
466.26446
 30
0.0
 11
845.501715
 21
451.54206
 31
0.0
  0
LINE
  5
4CD
330
1F
100
AcDbEntity
  8
002
  6
CENTER
 62
    40
370
     9
100
AcDbLine
 10
829.001715
 20
420.23576
 30
0.0
 11
829.001715
 21
378.85326
 31
0.0
  0
LINE
  5
4CE
330
1F
100
AcDbEntity
  8
002
  6
CENTER
 62
    40
370
     9
100
AcDbLine
 10
785.810715
 20
378.85326
 30
0.0
 11
785.810715
 21
420.23576
 31
0.0
  0
LINE
  5
4CF
330
1F
100
AcDbEntity
  8
002
  6
CENTER
 62
    40
370
     9
100
AcDbLine
 10
770.001715
 20
420.23576
 30
0.0
 11
770.001715
 21
378.85326
 31
0.0
  0
LINE
  5
4D0
330
1F
100
AcDbEntity
  8
002
  6
CENTER
 62
    40
370
     9
100
AcDbLine
 10
947.001715
 20
378.85326
 30
0.0
 11
947.001715
 21
420.23576
 31
0.0
  0
LINE
  5
4D1
330
1F
100
AcDbEntity
  8
002
  6
CENTER
 62
    40
370
     9
100
AcDbLine
 10
990.192715
 20
378.85326
 30
0.0
 11
990.192715
 21
420.23576
 31
0.0
  0
LINE
  5
4D2
330
1F
100
AcDbEntity
  8
002
  6
CENTER
 62
    40
370
     9
100
AcDbLine
 10
1006.001715
 20
420.23576
 30
0.0
 11
1006.001715
 21
378.85326
 31
0.0
  0
LINE
  5
4D3
330
1F
100
AcDbEntity
  8
002
  6
CENTER
 62
    40
370
     9
100
AcDbLine
 10
965.501715
 20
217.97316
 30
0.0
 11
965.501715
 21
187.28506
 31
0.0
  0
LINE
  5
4D4
330
1F
100
AcDbEntity
  8
002
  6
CENTER
 62
    40
370
     9
100
AcDbLine
 10
810.501715
 20
187.28506
 30
0.0
 11
810.501715
 21
217.97316
 31
0.0
  0
LINE
  5
4D5
330
1F
100
AcDbEntity
  8
002
  6
CENTER
 62
    40
370
     9
100
AcDbLine
 10
724.078715
 20
306.26446
 30
0.0
 11
1073.001715
 21
306.26446
 31
0.0
  0
LINE
  5
4D6
330
1F
100
AcDbEntity
  8
002
  6
CENTER
 62
    40
370
     9
100
AcDbLine
 10
983.001715
 20
232.26446
 30
0.0
 11
983.001715
 21
378.57656
 31
0.0
  0
LINE
  5
4D7
330
1F
100
AcDbEntity
  8
002
  6
CENTER
 62
    40
370
     9
100
AcDbLine
 10
810.356715
 20
791.26366
 30
0.0
 11
829.384715
 21
791.26366
 31
0.0
  0
LINE
  5
4D8
330
1F
100
AcDbEntity
  8
002
 62
    40
370
     9
100
AcDbLine
 10
755.001715
 20
290.78676
 30
0.0
 11
765.001715
 21
291.09926
 31
0.0
  0
LINE
  5
4D9
330
1F
100
AcDbEntity
  8
002
 62
    40
370
     9
100
AcDbLine
 10
765.001715
 20
321.42966
 30
0.0
 11
755.001715
 21
321.74216
 31
0.0
  0
LINE
  5
4DA
330
1F
100
AcDbEntity
  8
002
 62
    40
370
     9
100
AcDbLine
 10
755.001715
 20
296.76446
 30
0.0
 11
743.001715
 21
315.26446
 31
0.0
  0
LINE
  5
4DB
330
1F
100
AcDbEntity
  8
002
 62
    40
370
     9
100
AcDbLine
 10
755.001715
 20
315.76446
 30
0.0
 11
743.001715
 21
297.26446
 31
0.0
  0
LINE
  5
4DC
330
1F
100
AcDbEntity
  8
002
  6
HIDDEN
 62
    40
370
     9
100
AcDbLine
 10
809.501715
 20
206.26446
 30
0.0
 11
809.501715
 21
231.26446
 31
0.0
  0
LINE
  5
4DD
330
1F
100
AcDbEntity
  8
002
  6
HIDDEN
 62
    40
370
     9
100
AcDbLine
 10
776.501715
 20
231.26446
 30
0.0
 11
776.501715
 21
206.26446
 31
0.0
  0
LINE
  5
4DE
330
1F
100
AcDbEntity
  8
002
  6
HIDDEN
 62
    40
370
     9
100
AcDbLine
 10
760.501715
 20
231.26446
 30
0.0
 11
760.501715
 21
232.26446
 31
0.0
  0
LINE
  5
4DF
330
1F
100
AcDbEntity
  8
002
  6
HIDDEN
 62
    40
370
     9
100
AcDbLine
 10
825.501715
 20
231.26446
 30
0.0
 11
760.501715
 21
231.26446
 31
0.0
  0
LINE
  5
4E0
330
1F
100
AcDbEntity
  8
002
  6
HIDDEN
 62
    40
370
     9
100
AcDbLine
 10
825.501715
 20
231.26446
 30
0.0
 11
825.501715
 21
232.26446
 31
0.0
  0
LINE
  5
4E1
330
1F
100
AcDbEntity
  8
002
  6
HIDDEN
 62
    40
370
     9
100
AcDbLine
 10
1056.501715
 20
231.26446
 30
0.0
 11
1056.501715
 21
206.26446
 31
0.0
  0
LINE
  5
4E2
330
1F
100
AcDbEntity
  8
002
  6
HIDDEN
 62
    40
370
     9
100
AcDbLine
 10
1040.501715
 20
231.26446
 30
0.0
 11
1105.501715
 21
231.26446
 31
0.0
  0
LINE
  5
4E3
330
1F
100
AcDbEntity
  8
002
  6
HIDDEN
 62
    40
370
     9
100
AcDbLine
 10
1040.501715
 20
232.26446
 30
0.0
 11
1040.501715
 21
231.26446
 31
0.0
  0
LINE
  5
4E4
330
1F
100
AcDbEntity
  8
002
  6
HIDDEN
 62
    40
370
     9
100
AcDbLine
 10
1089.501715
 20
231.26446
 30
0.0
 11
1089.501715
 21
206.26446
 31
0.0
  0
LINE
  5
4E5
330
1F
100
AcDbEntity
  8
002
  6
HIDDEN
 62
    40
370
     9
100
AcDbLine
 10
1105.501715
 20
231.26446
 30
0.0
 11
1105.501715
 21
232.26446
 31
0.0
  0
LINE
  5
4E6
330
1F
100
AcDbEntity
  8
002
  6
CENTER
 62
    40
370
     9
100
AcDbLine
 10
1073.001715
 20
195.32726
 30
0.0
 11
1073.001715
 21
239.42516
 31
0.0
  0
LINE
  5
4E7
330
1F
100
AcDbEntity
  8
002
  6
CENTER
 62
    40
370
     9
100
AcDbLine
 10
793.001715
 20
239.42516
 30
0.0
 11
793.001715
 21
195.32726
 31
0.0
  0
LINE
  5
4E8
330
1F
100
AcDbEntity
  8
002
 62
     3
370
    30
100
AcDbLine
 10
930.501715
 20
1006.26446
 30
0.0
 11
845.501715
 21
1006.26446
 31
0.0
  0
LINE
  5
4E9
330
1F
100
AcDbEntity
  8
002
 62
     3
370
    30
100
AcDbLine
 10
920.501715
 20
1006.26446
 30
0.0
 11
920.501715
 21
1106.26446
 31
0.0
  0
LINE
  5
4EA
330
1F
100
AcDbEntity
  8
002
 62
     3
370
    30
100
AcDbLine
 10
920.501715
 20
1106.26446
 30
0.0
 11
855.501715
 21
1106.26446
 31
0.0
  0
LINE
  5
4EB
330
1F
100
AcDbEntity
  8
002
 62
     3
370
    30
100
AcDbLine
 10
855.501715
 20
1106.26446
 30
0.0
 11
855.501715
 21
1006.26446
 31
0.0
  0
LINE
  5
4EC
330
1F
100
AcDbEntity
  8
002
 62
    40
370
     9
100
AcDbLine
 10
930.501715
 20
466.26446
 30
0.0
 11
845.501715
 21
466.26446
 31
0.0
  0
CIRCLE
  5
4ED
330
1F
100
AcDbEntity
  8
002
 62
     3
370
    30
100
AcDbCircle
 10
983.001715
 20
306.26446
 30
0.0
 40
25.0
  0
LINE
  5
4EE
330
1F
100
AcDbEntity
  8
002
 62
     3
370
    30
100
AcDbLine
 10
988.001715
 20
318.76446
 30
0.0
 11
978.001715
 21
318.76446
 31
0.0
  0
LINE
  5
4EF
330
1F
100
AcDbEntity
  8
002
 62
     3
370
    30
100
AcDbLine
 10
978.001715
 20
318.76446
 30
0.0
 11
978.001715
 21
326.76446
 31
0.0
  0
LINE
  5
4F0
330
1F
100
AcDbEntity
  8
002
 62
     3
370
    30
100
AcDbLine
 10
978.001715
 20
326.76446
 30
0.0
 11
988.001715
 21
326.76446
 31
0.0
  0
LINE
  5
4F1
330
1F
100
AcDbEntity
  8
002
 62
     3
370
    30
100
AcDbLine
 10
988.001715
 20
326.76446
 30
0.0
 11
988.001715
 21
318.76446
 31
0.0
  0
ARC
  5
4F2
330
1F
100
AcDbEntity
  8
002
 62
     3
370
    30
100
AcDbCircle
 10
983.001715
 20
306.26446
 30
0.0
 40
17.50046973655275
100
AcDbArc
 50
106.601091
 51
73.398909
  0
ARC
  5
4F3
330
1F
100
AcDbEntity
  8
002
 62
     3
370
    30
100
AcDbCircle
 10
983.001715
 20
306.26446
 30
0.0
 40
19.000672645988
100
AcDbArc
 50
105.25697
 51
74.74303
  0
LINE
  5
4F4
330
1F
100
AcDbEntity
  8
002
 62
     3
370
    30
100
AcDbLine
 10
2075.207053
 20
868.007039
 30
0.0
 11
2075.207053
 21
844.007039
 31
0.0
  0
LINE
  5
4F5
330
1F
100
AcDbEntity
  8
002
 62
     3
370
    30
100
AcDbLine
 10
2075.207053
 20
844.007039
 30
0.0
 11
1725.207053
 21
844.007039
 31
0.0
  0
LINE
  5
4F6
330
1F
100
AcDbEntity
  8
002
 62
     3
370
    30
100
AcDbLine
 10
1725.207053
 20
844.007039
 30
0.0
 11
1725.207053
 21
868.007039
 31
0.0
  0
ARC
  5
4F7
330
1F
100
AcDbEntity
  8
002
 62
     3
370
    30
100
AcDbCircle
 10
1727.207053
 20
868.007039
 30
0.0
 40
2.0
100
AcDbArc
 50
90.0
 51
180.0
  0
LINE
  5
4F8
330
1F
100
AcDbEntity
  8
002
 62
     3
370
    30
100
AcDbLine
 10
1727.207053
 20
870.007039
 30
0.0
 11
2073.207053
 21
870.007039
 31
0.0
  0
ARC
  5
4F9
330
1F
100
AcDbEntity
  8
002
 62
     3
370
    30
100
AcDbCircle
 10
2073.207053
 20
868.007039
 30
0.0
 40
2.0
100
AcDbArc
 50
0.0
 51
90.0
  0
ARC
  5
4FA
330
1F
100
AcDbEntity
  8
002
 62
     3
370
    30
100
AcDbCircle
 10
2073.096053
 20
875.007039
 30
0.0
 40
5.000123298479567
100
AcDbArc
 50
209.959498
 51
270.0
  0
LINE
  5
4FB
330
1F
100
AcDbEntity
  8
002
 62
     3
370
    30
100
AcDbLine
 10
2068.764053
 20
872.510039
 30
0.0
 11
2007.771053
 21
978.298039
 31
0.0
  0
LINE
  5
4FC
330
1F
100
AcDbEntity
  8
002
 62
     3
370
    30
100
AcDbLine
 10
2007.771053
 20
978.298039
 30
0.0
 11
2005.871053
 21
978.298039
 31
0.0
  0
ARC
  5
4FD
330
1F
100
AcDbEntity
  8
002
 62
     3
370
    30
100
AcDbCircle
 10
2005.871053
 20
981.298039
 30
0.0
 40
2.999827328364282
100
AcDbArc
 50
213.827797
 51
270.0
  0
ARC
  5
4FE
330
1F
100
AcDbEntity
  8
002
 62
     3
370
    30
100
AcDbCircle
 10
1996.207053
 20
975.945039
 30
0.0
 40
8.0
100
AcDbArc
 50
0.0
 51
34.76672
  0
LINE
  5
4FF
330
1F
100
AcDbEntity
  8
002
 62
     3
370
    30
100
AcDbLine
 10
2004.207053
 20
975.945039
 30
0.0
 11
2004.207053
 21
870.007039
 31
0.0
  0
LINE
  5
500
330
1F
100
AcDbEntity
  8
002
 62
     3
370
    30
100
AcDbLine
 10
2014.207053
 20
870.007039
 30
0.0
 11
2014.207053
 21
944.007039
 31
0.0
  0
ARC
  5
501
330
1F
100
AcDbEntity
  8
002
 62
     3
370
    30
100
AcDbCircle
 10
1996.207053
 20
912.070039
 30
0.0
 40
8.000759526445128
100
AcDbArc
 50
325.227397
 51
0.0
  0
ARC
  5
502
330
1F
100
AcDbEntity
  8
002
 62
     3
370
    30
100
AcDbCircle
 10
1950.207053
 20
944.007039
 30
0.0
 40
64.0
100
AcDbArc
 50
0.0
 51
325.228296
  0
LINE
  5
503
330
1F
100
AcDbEntity
  8
002
 62
     3
370
    30
100
AcDbLine
 10
1886.207053
 20
944.007039
 30
0.0
 11
1886.207053
 21
875.007039
 31
0.0
  0
ARC
  5
504
330
1F
100
AcDbEntity
  8
002
 62
     3
370
    30
100
AcDbCircle
 10
1881.207053
 20
875.007039
 30
0.0
 40
5.0
100
AcDbArc
 50
270.0
 51
0.0
  0
LINE
  5
505
330
1F
100
AcDbEntity
  8
002
 62
     3
370
    30
100
AcDbLine
 10
1905.207053
 20
844.007039
 30
0.0
 11
1905.207053
 21
824.007039
 31
0.0
  0
LINE
  5
506
330
1F
100
AcDbEntity
  8
002
 62
     3
370
    30
100
AcDbLine
 10
1905.207053
 20
824.007039
 30
0.0
 11
1805.207053
 21
824.007039
 31
0.0
  0
LINE
  5
507
330
1F
100
AcDbEntity
  8
002
 62
     3
370
    30
100
AcDbLine
 10
1805.207053
 20
824.007039
 30
0.0
 11
1805.207053
 21
844.007039
 31
0.0
  0
LINE
  5
508
330
1F
100
AcDbEntity
  8
002
 62
     3
370
    30
100
AcDbLine
 10
1917.707053
 20
360.007439
 30
0.0
 11
1792.707053
 21
360.007439
 31
0.0
  0
LINE
  5
509
330
1F
100
AcDbEntity
  8
002
 62
     3
370
    30
100
AcDbLine
 10
1792.707053
 20
360.007439
 30
0.0
 11
1792.707053
 21
450.007439
 31
0.0
  0
LINE
  5
50A
330
1F
100
AcDbEntity
  8
002
 62
     3
370
    30
100
AcDbLine
 10
1790.707053
 20
411.780939
 30
0.0
 11
1787.707053
 21
411.780939
 31
0.0
  0
LINE
  5
50B
330
1F
100
AcDbEntity
  8
002
 62
     3
370
    30
100
AcDbLine
 10
1787.707053
 20
411.780939
 30
0.0
 11
1784.793053
 21
408.867439
 31
0.0
  0
ARC
  5
50C
330
1F
100
AcDbEntity
  8
002
 62
     3
370
    30
100
AcDbCircle
 10
1784.086053
 20
409.574539
 30
0.0
 40
1.000001999997924
100
AcDbArc
 50
237.994617
 51
314.995948
  0
LINE
  5
50D
330
1F
100
AcDbEntity
  8
002
 62
     3
370
    30
100
AcDbLine
 10
1783.556053
 20
408.726539
 30
0.0
 11
1782.707053
 21
409.257439
 31
0.0
  0
LINE
  5
50E
330
1F
100
AcDbEntity
  8
002
 62
     3
370
    30
100
AcDbLine
 10
1782.707053
 20
409.257439
 30
0.0
 11
1779.707053
 21
408.507439
 31
0.0
  0
LINE
  5
50F
330
1F
100
AcDbEntity
  8
002
 62
     3
370
    30
100
AcDbLine
 10
1779.707053
 20
408.507439
 30
0.0
 11
1779.707053
 21
403.507439
 31
0.0
  0
LINE
  5
510
330
1F
100
AcDbEntity
  8
002
 62
     3
370
    30
100
AcDbLine
 10
1779.707053
 20
403.507439
 30
0.0
 11
1782.707053
 21
402.757439
 31
0.0
  0
LINE
  5
511
330
1F
100
AcDbEntity
  8
002
 62
     3
370
    30
100
AcDbLine
 10
1782.707053
 20
402.757439
 30
0.0
 11
1783.556053
 21
403.288339
 31
0.0
  0
ARC
  5
512
330
1F
100
AcDbEntity
  8
002
 62
     3
370
    30
100
AcDbCircle
 10
1784.086053
 20
402.440339
 30
0.0
 40
0.9999197017760709
100
AcDbArc
 50
45.004052
 51
122.005383
  0
LINE
  5
513
330
1F
100
AcDbEntity
  8
002
 62
     3
370
    30
100
AcDbLine
 10
1784.793053
 20
403.147439
 30
0.0
 11
1787.707053
 21
400.233939
 31
0.0
  0
LINE
  5
514
330
1F
100
AcDbEntity
  8
002
 62
     3
370
    30
100
AcDbLine
 10
1787.707053
 20
400.233939
 30
0.0
 11
1790.707053
 21
400.233939
 31
0.0
  0
LINE
  5
515
330
1F
100
AcDbEntity
  8
002
 62
     3
370
    30
100
AcDbLine
 10
1790.707053
 20
400.233939
 30
0.0
 11
1791.609053
 21
401.136639
 31
0.0
  0
LINE
  5
516
330
1F
100
AcDbEntity
  8
002
 62
     3
370
    30
100
AcDbLine
 10
1791.279053
 20
400.806039
 30
0.0
 11
1792.707053
 21
400.895339
 31
0.0
  0
LINE
  5
517
330
1F
100
AcDbEntity
  8
002
 62
     3
370
    30
100
AcDbLine
 10
1791.707053
 20
401.721639
 30
0.0
 11
1791.707053
 21
410.293239
 31
0.0
  0
ARC
  5
518
330
1F
100
AcDbEntity
  8
002
 62
     3
370
    30
100
AcDbCircle
 10
1790.166053
 20
410.337539
 30
0.0
 40
1.54145533830863
100
AcDbArc
 50
290.546474
 51
20.541249
  0
LINE
  5
519
330
1F
100
AcDbEntity
  8
002
 62
     3
370
    30
100
AcDbLine
 10
1790.707053
 20
408.894139
 30
0.0
 11
1787.707053
 21
408.894139
 31
0.0
  0
ARC
  5
51A
330
1F
100
AcDbEntity
  8
002
 62
     3
370
    30
100
AcDbCircle
 10
1788.247053
 20
410.337539
 30
0.0
 40
1.54097549948097
100
AcDbArc
 50
159.458751
 51
249.488339
  0
LINE
  5
51B
330
1F
100
AcDbEntity
  8
002
 62
     3
370
    30
100
AcDbLine
 10
1784.231053
 20
408.304939
 30
0.0
 11
1784.231053
 21
403.709939
 31
0.0
  0
LINE
  5
51C
330
1F
100
AcDbEntity
  8
002
 62
     3
370
    30
100
AcDbLine
 10
1782.707053
 20
403.507439
 30
0.0
 11
1782.707053
 21
408.507439
 31
0.0
  0
ARC
  5
51D
330
1F
100
AcDbEntity
  8
002
 62
     3
370
    30
100
AcDbCircle
 10
1780.368053
 20
406.007439
 30
0.0
 40
0.9997104580827776
100
AcDbArc
 50
131.390802
 51
228.609198
  0
ARC
  5
51E
330
1F
100
AcDbEntity
  8
002
 62
     3
370
    30
100
AcDbCircle
 10
1791.373053
 20
406.007439
 30
0.0
 40
4.666111109907408
100
AcDbArc
 50
141.782221
 51
218.218744
  0
ARC
  5
51F
330
1F
100
AcDbEntity
  8
002
 62
     3
370
    30
100
AcDbCircle
 10
1787.040053
 20
406.007439
 30
0.0
 40
4.666958671340399
100
AcDbArc
 50
321.788851
 51
38.210184
  0
ARC
  5
520
330
1F
100
AcDbEntity
  8
002
 62
     3
370
    30
100
AcDbCircle
 10
1790.166053
 20
401.677339
 30
0.0
 40
1.54097549948097
100
AcDbArc
 50
339.458751
 51
69.452221
  0
LINE
  5
521
330
1F
100
AcDbEntity
  8
002
 62
     3
370
    30
100
AcDbLine
 10
1790.707053
 20
403.120639
 30
0.0
 11
1787.707053
 21
403.120639
 31
0.0
  0
ARC
  5
522
330
1F
100
AcDbEntity
  8
002
 62
     3
370
    30
100
AcDbCircle
 10
1788.247053
 20
401.677339
 30
0.0
 40
1.541010996067094
100
AcDbArc
 50
110.512964
 51
200.541249
  0
LINE
  5
523
330
1F
100
AcDbEntity
  8
002
 62
     3
370
    30
100
AcDbLine
 10
1791.609053
 20
410.878239
 30
0.0
 11
1790.707053
 21
411.780939
 31
0.0
  0
LINE
  5
524
330
1F
100
AcDbEntity
  8
002
 62
     3
370
    30
100
AcDbLine
 10
1791.279053
 20
411.208739
 30
0.0
 11
1792.707053
 21
411.119539
 31
0.0
  0
LINE
  5
525
330
1F
100
AcDbEntity
  8
002
 62
     3
370
    30
100
AcDbLine
 10
1917.707053
 20
360.007439
 30
0.0
 11
1917.707053
 21
450.007439
 31
0.0
  0
LINE
  5
526
330
1F
100
AcDbEntity
  8
002
 62
     3
370
    30
100
AcDbLine
 10
1812.707053
 20
360.007439
 30
0.0
 11
1812.707053
 21
244.007039
 31
0.0
  0
LINE
  5
527
330
1F
100
AcDbEntity
  8
002
 62
     3
370
    30
100
AcDbLine
 10
1897.707053
 20
244.007039
 30
0.0
 11
1897.707053
 21
360.007439
 31
0.0
  0
LINE
  5
528
330
1F
100
AcDbEntity
  8
002
 62
     3
370
    30
100
AcDbLine
 10
1730.207053
 20
500.007439
 30
0.0
 11
1980.207053
 21
500.007439
 31
0.0
  0
LINE
  5
529
330
1F
100
AcDbEntity
  8
002
 62
     3
370
    30
100
AcDbLine
 10
1980.207053
 20
500.007439
 30
0.0
 11
1980.207053
 21
450.007439
 31
0.0
  0
LINE
  5
52A
330
1F
100
AcDbEntity
  8
002
 62
     3
370
    30
100
AcDbLine
 10
1980.207053
 20
450.007439
 30
0.0
 11
1730.207053
 21
450.007439
 31
0.0
  0
LINE
  5
52B
330
1F
100
AcDbEntity
  8
002
 62
     3
370
    30
100
AcDbLine
 10
1730.207053
 20
450.007439
 30
0.0
 11
1730.207053
 21
500.007439
 31
0.0
  0
LINE
  5
52C
330
1F
100
AcDbEntity
  8
002
 62
     3
370
    30
100
AcDbLine
 10
1795.205053
 20
875.007039
 30
0.0
 11
1795.205053
 21
986.007039
 31
0.0
  0
LINE
  5
52D
330
1F
100
AcDbEntity
  8
002
 62
     3
370
    30
100
AcDbLine
 10
1793.205053
 20
983.335039
 30
0.0
 11
1763.205053
 21
983.335039
 31
0.0
  0
LINE
  5
52E
330
1F
100
AcDbEntity
  8
002
 62
     3
370
    30
100
AcDbLine
 10
1760.636053
 20
986.007039
 30
0.0
 11
1760.636053
 21
875.007039
 31
0.0
  0
ARC
  5
52F
330
1F
100
AcDbEntity
  8
002
 62
     3
370
    30
100
AcDbCircle
 10
1755.636053
 20
875.007039
 30
0.0
 40
5.0
100
AcDbArc
 50
270.0
 51
0.0
  0
LINE
  5
530
330
1F
100
AcDbEntity
  8
002
 62
     3
370
    30
100
AcDbLine
 10
1743.207053
 20
875.007039
 30
0.0
 11
1743.207053
 21
897.606039
 31
0.0
  0
LINE
  5
531
330
1F
100
AcDbEntity
  8
002
 62
     3
370
    30
100
AcDbLine
 10
1737.289053
 20
906.735039
 30
0.0
 11
1732.207053
 21
909.007039
 31
0.0
  0
LINE
  5
532
330
1F
100
AcDbEntity
  8
002
 62
     3
370
    30
100
AcDbLine
 10
1732.207053
 20
909.007039
 30
0.0
 11
1732.207053
 21
984.007039
 31
0.0
  0
ARC
  5
533
330
1F
100
AcDbEntity
  8
002
 62
     3
370
    30
100
AcDbCircle
 10
1722.207053
 20
984.007039
 30
0.0
 40
10.0
100
AcDbArc
 50
0.0
 51
90.0
  0
LINE
  5
534
330
1F
100
AcDbEntity
  8
002
 62
     3
370
    30
100
AcDbLine
 10
1721.207053
 20
994.007039
 30
0.0
 11
1721.207053
 21
1038.007039
 31
0.0
  0
LINE
  5
535
330
1F
100
AcDbEntity
  8
002
 62
     3
370
    30
100
AcDbLine
 10
1721.207053
 20
1038.007039
 30
0.0
 11
1989.207053
 21
1038.007039
 31
0.0
  0
LINE
  5
536
330
1F
100
AcDbEntity
  8
002
 62
     3
370
    30
100
AcDbLine
 10
1989.207053
 20
1038.007039
 30
0.0
 11
1989.207053
 21
994.007039
 31
0.0
  0
LINE
  5
537
330
1F
100
AcDbEntity
  8
002
 62
     3
370
    30
100
AcDbLine
 10
1905.609053
 20
994.007039
 30
0.0
 11
1721.207053
 21
994.007039
 31
0.0
  0
ARC
  5
538
330
1F
100
AcDbEntity
  8
002
 62
     3
370
    30
100
AcDbCircle
 10
1740.563053
 20
984.007039
 30
0.0
 40
10.0
100
AcDbArc
 50
0.0
 51
44.428722
  0
LINE
  5
539
330
1F
100
AcDbEntity
  8
002
 62
     3
370
    30
100
AcDbLine
 10
1750.563053
 20
984.007039
 30
0.0
 11
1750.563053
 21
944.007039
 31
0.0
  0
ARC
  5
53A
330
1F
100
AcDbEntity
  8
002
 62
     3
370
    30
100
AcDbCircle
 10
1600.725053
 20
950.979039
 30
0.0
 40
149.9993080784041
100
AcDbArc
 50
341.783924
 51
357.335934
  0
ARC
  5
53B
330
1F
100
AcDbEntity
  8
002
 62
     3
370
    30
100
AcDbCircle
 10
1733.207053
 20
897.606039
 30
0.0
 40
10.0
100
AcDbArc
 50
0.0
 51
65.908363
  0
ARC
  5
53C
330
1F
100
AcDbEntity
  8
002
 62
     3
370
    30
100
AcDbCircle
 10
1738.207053
 20
875.007039
 30
0.0
 40
5.0
100
AcDbArc
 50
270.0
 51
0.0
  0
ARC
  5
53D
330
1F
100
AcDbEntity
  8
002
 62
     3
370
    30
100
AcDbCircle
 10
1790.205053
 20
875.007039
 30
0.0
 40
5.0
100
AcDbArc
 50
270.0
 51
0.0
  0
LINE
  5
53E
330
1F
100
AcDbEntity
  8
002
 62
     3
370
    30
100
AcDbLine
 10
1732.207053
 20
927.402039
 30
0.0
 11
1722.207053
 21
927.089039
 31
0.0
  0
LINE
  5
53F
330
1F
100
AcDbEntity
  8
002
 62
     3
370
    30
100
AcDbLine
 10
1722.207053
 20
927.089039
 30
0.0
 11
1722.207053
 21
960.925039
 31
0.0
  0
LINE
  5
540
330
1F
100
AcDbEntity
  8
002
 62
     3
370
    30
100
AcDbLine
 10
1722.207053
 20
960.925039
 30
0.0
 11
1732.207053
 21
960.613039
 31
0.0
  0
LINE
  5
541
330
1F
100
AcDbEntity
  8
002
 62
     3
370
    30
100
AcDbLine
 10
1722.207053
 20
953.507039
 30
0.0
 11
1710.207053
 21
953.007039
 31
0.0
  0
LINE
  5
542
330
1F
100
AcDbEntity
  8
002
 62
     3
370
    30
100
AcDbLine
 10
1710.207053
 20
953.007039
 30
0.0
 11
1710.207053
 21
935.007039
 31
0.0
  0
LINE
  5
543
330
1F
100
AcDbEntity
  8
002
 62
     3
370
    30
100
AcDbLine
 10
1710.207053
 20
935.007039
 30
0.0
 11
1722.207053
 21
934.507039
 31
0.0
  0
ARC
  5
544
330
1F
100
AcDbEntity
  8
002
 62
     3
370
    30
100
AcDbCircle
 10
1765.636053
 20
986.007039
 30
0.0
 40
5.0
100
AcDbArc
 50
90.0
 51
180.0
  0
LINE
  5
545
330
1F
100
AcDbEntity
  8
002
 62
     3
370
    30
100
AcDbLine
 10
1765.636053
 20
991.007039
 30
0.0
 11
1790.205053
 21
991.007039
 31
0.0
  0
ARC
  5
546
330
1F
100
AcDbEntity
  8
002
 62
     3
370
    30
100
AcDbCircle
 10
1790.205053
 20
986.007039
 30
0.0
 40
5.0
100
AcDbArc
 50
0.0
 51
90.0
  0
LINE
  5
547
330
1F
100
AcDbEntity
  8
002
 62
     3
370
    30
100
AcDbLine
 10
1785.707053
 20
1038.007039
 30
0.0
 11
1785.707053
 21
1052.007039
 31
0.0
  0
LINE
  5
548
330
1F
100
AcDbEntity
  8
002
 62
     3
370
    30
100
AcDbLine
 10
1785.707053
 20
1052.007039
 30
0.0
 11
1806.707053
 21
1052.007039
 31
0.0
  0
LINE
  5
549
330
1F
100
AcDbEntity
  8
002
 62
     3
370
    30
100
AcDbLine
 10
1806.707053
 20
1052.007039
 30
0.0
 11
1806.707053
 21
1038.007039
 31
0.0
  0
LINE
  5
54A
330
1F
100
AcDbEntity
  8
002
 62
     3
370
    30
100
AcDbLine
 10
1806.707053
 20
1039.007039
 30
0.0
 11
1844.707053
 21
1039.007039
 31
0.0
  0
LINE
  5
54B
330
1F
100
AcDbEntity
  8
002
 62
     3
370
    30
100
AcDbLine
 10
1844.707053
 20
1038.007039
 30
0.0
 11
1844.707053
 21
1052.007039
 31
0.0
  0
LINE
  5
54C
330
1F
100
AcDbEntity
  8
002
 62
     3
370
    30
100
AcDbLine
 10
1844.707053
 20
1052.007039
 30
0.0
 11
1865.707053
 21
1052.007039
 31
0.0
  0
LINE
  5
54D
330
1F
100
AcDbEntity
  8
002
 62
     3
370
    30
100
AcDbLine
 10
1865.707053
 20
1052.007039
 30
0.0
 11
1865.707053
 21
1038.007039
 31
0.0
  0
LINE
  5
54E
330
1F
100
AcDbEntity
  8
002
 62
     3
370
    30
100
AcDbLine
 10
1865.707053
 20
1039.007039
 30
0.0
 11
1903.707053
 21
1039.007039
 31
0.0
  0
LINE
  5
54F
330
1F
100
AcDbEntity
  8
002
 62
     3
370
    30
100
AcDbLine
 10
1903.707053
 20
1038.007039
 30
0.0
 11
1903.707053
 21
1052.007039
 31
0.0
  0
LINE
  5
550
330
1F
100
AcDbEntity
  8
002
 62
     3
370
    30
100
AcDbLine
 10
1903.707053
 20
1052.007039
 30
0.0
 11
1924.707053
 21
1052.007039
 31
0.0
  0
LINE
  5
551
330
1F
100
AcDbEntity
  8
002
 62
     3
370
    30
100
AcDbLine
 10
1924.707053
 20
1052.007039
 30
0.0
 11
1924.707053
 21
1038.007039
 31
0.0
  0
LINE
  5
552
330
1F
100
AcDbEntity
  8
002
 62
     3
370
    30
100
AcDbLine
 10
1924.707053
 20
1039.007039
 30
0.0
 11
1946.898053
 21
1039.007039
 31
0.0
  0
LINE
  5
553
330
1F
100
AcDbEntity
  8
002
 62
     3
370
    30
100
AcDbLine
 10
1946.898053
 20
1038.007039
 30
0.0
 11
1946.898053
 21
1052.007039
 31
0.0
  0
LINE
  5
554
330
1F
100
AcDbEntity
  8
002
 62
     3
370
    30
100
AcDbLine
 10
1946.898053
 20
1052.007039
 30
0.0
 11
1983.707053
 21
1052.007039
 31
0.0
  0
LINE
  5
555
330
1F
100
AcDbEntity
  8
002
 62
     3
370
    30
100
AcDbLine
 10
1945.207053
 20
1054.007039
 30
0.0
 11
1765.207053
 21
1054.007039
 31
0.0
  0
LINE
  5
556
330
1F
100
AcDbEntity
  8
002
 62
     3
370
    30
100
AcDbLine
 10
1765.207053
 20
1054.007039
 30
0.0
 11
1764.694053
 21
1048.136039
 31
0.0
  0
ARC
  5
557
330
1F
100
AcDbEntity
  8
002
 62
     3
370
    30
100
AcDbCircle
 10
1754.732053
 20
1049.007039
 30
0.0
 40
9.999396981818556
100
AcDbArc
 50
331.456306
 51
355.003208
  0
LINE
  5
558
330
1F
100
AcDbEntity
  8
002
 62
     3
370
    30
100
AcDbLine
 10
1763.516053
 20
1039.007039
 30
0.0
 11
1785.707053
 21
1039.007039
 31
0.0
  0
LINE
  5
559
330
1F
100
AcDbEntity
  8
002
 62
     3
370
    30
100
AcDbLine
 10
1798.057053
 20
1060.007039
 30
0.0
 11
1798.057053
 21
1129.007039
 31
0.0
  0
LINE
  5
55A
330
1F
100
AcDbEntity
  8
002
 62
     3
370
    30
100
AcDbLine
 10
1798.057053
 20
1129.007039
 30
0.0
 11
1912.357053
 21
1129.007039
 31
0.0
  0
LINE
  5
55B
330
1F
100
AcDbEntity
  8
002
 62
     3
370
    30
100
AcDbLine
 10
1912.357053
 20
1129.007039
 30
0.0
 11
1912.357053
 21
1060.007039
 31
0.0
  0
LINE
  5
55C
330
1F
100
AcDbEntity
  8
002
 62
     3
370
    30
100
AcDbLine
 10
1924.707053
 20
1060.007039
 30
0.0
 11
1924.707053
 21
1070.007039
 31
0.0
  0
LINE
  5
55D
330
1F
100
AcDbEntity
  8
002
 62
     3
370
    30
100
AcDbLine
 10
1940.707053
 20
1070.007039
 30
0.0
 11
1924.707053
 21
1070.007039
 31
0.0
  0
LINE
  5
55E
330
1F
100
AcDbEntity
  8
002
 62
     3
370
    30
100
AcDbLine
 10
1940.707053
 20
1070.007039
 30
0.0
 11
1940.707053
 21
1060.007039
 31
0.0
  0
LINE
  5
55F
330
1F
100
AcDbEntity
  8
002
 62
     3
370
    30
100
AcDbLine
 10
1942.707053
 20
1060.007039
 30
0.0
 11
1942.707053
 21
1054.007039
 31
0.0
  0
LINE
  5
560
330
1F
100
AcDbEntity
  8
002
 62
     3
370
    30
100
AcDbLine
 10
1945.207053
 20
1054.007039
 30
0.0
 11
1945.721053
 21
1048.136039
 31
0.0
  0
ARC
  5
561
330
1F
100
AcDbEntity
  8
002
 62
     3
370
    30
100
AcDbCircle
 10
1955.683053
 20
1049.007039
 30
0.0
 40
10.00000424999907
100
AcDbArc
 50
184.996792
 51
208.540957
  0
LINE
  5
562
330
1F
100
AcDbEntity
  8
002
 62
     3
370
    30
100
AcDbLine
 10
1942.707053
 20
1060.007039
 30
0.0
 11
1767.707053
 21
1060.007039
 31
0.0
  0
LINE
  5
563
330
1F
100
AcDbEntity
  8
002
 62
     3
370
    30
100
AcDbLine
 10
1767.707053
 20
1060.007039
 30
0.0
 11
1767.707053
 21
1054.007039
 31
0.0
  0
LINE
  5
564
330
1F
100
AcDbEntity
  8
002
 62
     3
370
    30
100
AcDbLine
 10
1763.516053
 20
1052.007039
 30
0.0
 11
1763.516053
 21
1038.007039
 31
0.0
  0
LINE
  5
565
330
1F
100
AcDbEntity
  8
002
 62
     3
370
    30
100
AcDbLine
 10
1763.516053
 20
1052.007039
 30
0.0
 11
1726.707053
 21
1052.007039
 31
0.0
  0
LINE
  5
566
330
1F
100
AcDbEntity
  8
002
 62
     3
370
    30
100
AcDbLine
 10
1769.707053
 20
1060.007039
 30
0.0
 11
1769.707053
 21
1070.007039
 31
0.0
  0
LINE
  5
567
330
1F
100
AcDbEntity
  8
002
 62
     3
370
    30
100
AcDbLine
 10
1785.707053
 20
1070.007039
 30
0.0
 11
1769.707053
 21
1070.007039
 31
0.0
  0
LINE
  5
568
330
1F
100
AcDbEntity
  8
002
 62
     3
370
    30
100
AcDbLine
 10
1785.707053
 20
1070.007039
 30
0.0
 11
1785.707053
 21
1060.007039
 31
0.0
  0
LINE
  5
569
330
1F
100
AcDbEntity
  8
002
 62
     3
370
    30
100
AcDbLine
 10
1742.516053
 20
1052.007039
 30
0.0
 11
1742.516053
 21
1038.007039
 31
0.0
  0
LINE
  5
56A
330
1F
100
AcDbEntity
  8
002
 62
     3
370
    30
100
AcDbLine
 10
1726.707053
 20
1038.007039
 30
0.0
 11
1726.707053
 21
1052.007039
 31
0.0
  0
LINE
  5
56B
330
1F
100
AcDbEntity
  8
002
 62
     3
370
    30
100
AcDbLine
 10
1721.207053
 20
1024.007039
 30
0.0
 11
1989.207053
 21
1024.007039
 31
0.0
  0
LINE
  5
56C
330
1F
100
AcDbEntity
  8
002
 62
     3
370
    30
100
AcDbLine
 10
1983.707053
 20
1038.007039
 30
0.0
 11
1983.707053
 21
1052.007039
 31
0.0
  0
LINE
  5
56D
330
1F
100
AcDbEntity
  8
002
 62
     3
370
    30
100
AcDbLine
 10
1967.898053
 20
1052.007039
 30
0.0
 11
1967.898053
 21
1038.007039
 31
0.0
  0
LINE
  5
56E
330
1F
100
AcDbEntity
  8
002
 62
     3
370
    30
100
AcDbLine
 10
1925.635053
 20
1003.102039
 30
0.0
 11
1925.635053
 21
1006.339039
 31
0.0
  0
ARC
  5
56F
330
1F
100
AcDbEntity
  8
002
 62
     3
370
    30
100
AcDbCircle
 10
1950.207053
 20
944.007039
 30
0.0
 40
67.00045826708963
100
AcDbArc
 50
111.514936
 51
131.731685
  0
LINE
  5
570
330
1F
100
AcDbEntity
  8
002
 62
     3
370
    30
100
AcDbLine
 10
1847.207053
 20
1060.007039
 30
0.0
 11
1847.207053
 21
1070.007039
 31
0.0
  0
LINE
  5
571
330
1F
100
AcDbEntity
  8
002
 62
     3
370
    30
100
AcDbLine
 10
1863.207053
 20
1070.007039
 30
0.0
 11
1847.207053
 21
1070.007039
 31
0.0
  0
LINE
  5
572
330
1F
100
AcDbEntity
  8
002
 62
     3
370
    30
100
AcDbLine
 10
1863.207053
 20
1070.007039
 30
0.0
 11
1863.207053
 21
1060.007039
 31
0.0
  0
LINE
  5
573
330
1F
100
AcDbEntity
  8
002
 62
     3
370
    30
100
AcDbLine
 10
1858.094053
 20
949.007039
 30
0.0
 11
1860.981053
 21
944.007039
 31
0.0
  0
LINE
  5
574
330
1F
100
AcDbEntity
  8
002
 62
     3
370
    30
100
AcDbLine
 10
1860.981053
 20
944.007039
 30
0.0
 11
1858.094053
 21
939.007039
 31
0.0
  0
LINE
  5
575
330
1F
100
AcDbEntity
  8
002
 62
     3
370
    30
100
AcDbLine
 10
1858.094053
 20
939.007039
 30
0.0
 11
1852.321053
 21
939.007039
 31
0.0
  0
LINE
  5
576
330
1F
100
AcDbEntity
  8
002
 62
     3
370
    30
100
AcDbLine
 10
1852.321053
 20
939.007039
 30
0.0
 11
1849.434053
 21
944.007039
 31
0.0
  0
LINE
  5
577
330
1F
100
AcDbEntity
  8
002
 62
     3
370
    30
100
AcDbLine
 10
1849.434053
 20
944.007039
 30
0.0
 11
1852.321053
 21
949.007039
 31
0.0
  0
LINE
  5
578
330
1F
100
AcDbEntity
  8
002
 62
     3
370
    30
100
AcDbLine
 10
1852.321053
 20
949.007039
 30
0.0
 11
1858.094053
 21
949.007039
 31
0.0
  0
CIRCLE
  5
579
330
1F
100
AcDbEntity
  8
002
 62
     3
370
    30
100
AcDbCircle
 10
1855.207053
 20
944.007039
 30
0.0
 40
0.75
  0
CIRCLE
  5
57A
330
1F
100
AcDbEntity
  8
002
 62
     3
370
    30
100
AcDbCircle
 10
1855.207053
 20
944.007039
 30
0.0
 40
2.5
  0
CIRCLE
  5
57B
330
1F
100
AcDbEntity
  8
002
 62
     3
370
    30
100
AcDbCircle
 10
1855.207053
 20
944.007039
 30
0.0
 40
3.25
  0
CIRCLE
  5
57C
330
1F
100
AcDbEntity
  8
002
 62
     3
370
    30
100
AcDbCircle
 10
1855.207053
 20
944.007039
 30
0.0
 40
5.0
  0
CIRCLE
  5
57D
330
1F
100
AcDbEntity
  8
002
 62
     3
370
    30
100
AcDbCircle
 10
1855.207053
 20
944.007039
 30
0.0
 40
15.0
  0
LINE
  5
57E
330
1F
100
AcDbEntity
  8
002
 62
    40
370
    30
100
AcDbLine
 10
1792.726053
 20
401.496639
 30
0.0
 11
1792.086053
 21
400.856439
 31
0.0
  0
LINE
  5
57F
330
1F
100
AcDbEntity
  8
002
 62
    40
370
    30
100
AcDbLine
 10
1792.726053
 20
410.518139
 30
0.0
 11
1792.086053
 21
411.158339
 31
0.0
  0
LINE
  5
580
330
1F
100
AcDbEntity
  8
002
  6
CENTER
 62
    40
370
     9
100
AcDbLine
 10
2040.207053
 20
833.070039
 30
0.0
 11
2040.207053
 21
877.168039
 31
0.0
  0
LINE
  5
581
330
1F
100
AcDbEntity
  8
002
  6
CENTER
 62
    40
370
     9
100
AcDbLine
 10
1760.207053
 20
833.070039
 30
0.0
 11
1760.207053
 21
877.168039
 31
0.0
  0
LINE
  5
582
330
1F
100
AcDbEntity
  8
002
  6
CENTER
 62
    40
370
     9
100
AcDbLine
 10
1950.207053
 20
870.007039
 30
0.0
 11
1950.207053
 21
1016.320039
 31
0.0
  0
LINE
  5
583
330
1F
100
AcDbEntity
  8
002
  6
CENTER
 62
    40
370
     9
100
AcDbLine
 10
1691.284053
 20
944.007039
 30
0.0
 11
2040.207053
 21
944.007039
 31
0.0
  0
LINE
  5
584
330
1F
100
AcDbEntity
  8
002
  6
CENTER
 62
    40
370
     9
100
AcDbLine
 10
1973.207053
 20
1057.979039
 30
0.0
 11
1973.207053
 21
1016.596039
 31
0.0
  0
LINE
  5
585
330
1F
100
AcDbEntity
  8
002
  6
CENTER
 62
    40
370
     9
100
AcDbLine
 10
1957.398053
 20
1016.596039
 30
0.0
 11
1957.398053
 21
1057.979039
 31
0.0
  0
LINE
  5
586
330
1F
100
AcDbEntity
  8
002
  6
CENTER
 62
    40
370
     9
100
AcDbLine
 10
1932.707053
 20
1047.749039
 30
0.0
 11
1932.707053
 21
1075.648039
 31
0.0
  0
LINE
  5
587
330
1F
100
AcDbEntity
  8
002
  6
CENTER
 62
    40
370
     9
100
AcDbLine
 10
1914.207053
 20
1016.596039
 30
0.0
 11
1914.207053
 21
1057.979039
 31
0.0
  0
LINE
  5
588
330
1F
100
AcDbEntity
  8
002
  6
CENTER
 62
    40
370
     9
100
AcDbLine
 10
1796.207053
 20
1016.596039
 30
0.0
 11
1796.207053
 21
1057.979039
 31
0.0
  0
LINE
  5
589
330
1F
100
AcDbEntity
  8
002
  6
CENTER
 62
    40
370
     9
100
AcDbLine
 10
1753.016053
 20
1057.979039
 30
0.0
 11
1753.016053
 21
1016.596039
 31
0.0
  0
LINE
  5
58A
330
1F
100
AcDbEntity
  8
002
  6
CENTER
 62
    40
370
     9
100
AcDbLine
 10
1737.207053
 20
1016.596039
 30
0.0
 11
1737.207053
 21
1057.979039
 31
0.0
  0
LINE
  5
58B
330
1F
100
AcDbEntity
  8
002
  6
CENTER
 62
    40
370
     9
100
AcDbLine
 10
1777.707053
 20
1047.749039
 30
0.0
 11
1777.707053
 21
1075.648039
 31
0.0
  0
LINE
  5
58C
330
1F
100
AcDbEntity
  8
002
 62
    40
370
     9
100
AcDbLine
 10
1732.207053
 20
928.842039
 30
0.0
 11
1722.207053
 21
928.530039
 31
0.0
  0
LINE
  5
58D
330
1F
100
AcDbEntity
  8
002
 62
    40
370
     9
100
AcDbLine
 10
1732.207053
 20
959.173039
 30
0.0
 11
1722.207053
 21
959.485039
 31
0.0
  0
LINE
  5
58E
330
1F
100
AcDbEntity
  8
002
 62
    40
370
     9
100
AcDbLine
 10
1722.207053
 20
934.507039
 30
0.0
 11
1710.207053
 21
953.007039
 31
0.0
  0
LINE
  5
58F
330
1F
100
AcDbEntity
  8
002
 62
    40
370
     9
100
AcDbLine
 10
1722.207053
 20
953.507039
 30
0.0
 11
1710.207053
 21
935.007039
 31
0.0
  0
LINE
  5
590
330
1F
100
AcDbEntity
  8
002
 62
    40
370
     9
100
AcDbLine
 10
1821.207053
 20
784.007439
 30
0.0
 11
1812.707053
 21
798.729939
 31
0.0
  0
LINE
  5
591
330
1F
100
AcDbEntity
  8
002
 62
    40
370
     9
100
AcDbLine
 10
1889.207053
 20
784.007439
 30
0.0
 11
1897.707053
 21
798.729939
 31
0.0
  0
LINE
  5
592
330
1F
100
AcDbEntity
  8
002
  6
CENTER
 62
    40
370
     9
100
AcDbLine
 10
1755.207053
 20
436.275339
 30
0.0
 11
1755.207053
 21
508.444239
 31
0.0
  0
LINE
  5
593
330
1F
100
AcDbEntity
  8
002
  6
CENTER
 62
    40
370
     9
100
AcDbLine
 10
1955.207053
 20
436.275339
 30
0.0
 11
1955.207053
 21
508.444239
 31
0.0
  0
LINE
  5
594
330
1F
100
AcDbEntity
  8
002
  6
CENTER
 62
    40
370
     9
100
AcDbLine
 10
1777.562053
 20
406.007439
 30
0.0
 11
1796.589053
 21
406.007439
 31
0.0
  0
LINE
  5
595
330
1F
100
AcDbEntity
  8
002
 62
    40
370
     9
100
AcDbLine
 10
1821.207053
 20
360.007439
 30
0.0
 11
1821.207053
 21
244.007039
 31
0.0
  0
LINE
  5
596
330
1F
100
AcDbEntity
  8
002
 62
    40
370
     9
100
AcDbLine
 10
1889.207053
 20
244.007039
 30
0.0
 11
1889.207053
 21
360.007439
 31
0.0
  0
LINE
  5
597
330
1F
100
AcDbEntity
  8
002
  6
HIDDEN
 62
    40
370
     9
100
AcDbLine
 10
2056.707053
 20
869.007039
 30
0.0
 11
2056.707053
 21
844.007039
 31
0.0
  0
LINE
  5
598
330
1F
100
AcDbEntity
  8
002
  6
HIDDEN
 62
    40
370
     9
100
AcDbLine
 10
2023.707053
 20
869.007039
 30
0.0
 11
2023.707053
 21
844.007039
 31
0.0
  0
LINE
  5
599
330
1F
100
AcDbEntity
  8
002
  6
HIDDEN
 62
    40
370
     9
100
AcDbLine
 10
2007.707053
 20
869.007039
 30
0.0
 11
2072.707053
 21
869.007039
 31
0.0
  0
LINE
  5
59A
330
1F
100
AcDbEntity
  8
002
  6
HIDDEN
 62
    40
370
     9
100
AcDbLine
 10
1776.707053
 20
869.007039
 30
0.0
 11
1776.707053
 21
844.007039
 31
0.0
  0
LINE
  5
59B
330
1F
100
AcDbEntity
  8
002
  6
HIDDEN
 62
    40
370
     9
100
AcDbLine
 10
1743.707053
 20
869.007039
 30
0.0
 11
1743.707053
 21
844.007039
 31
0.0
  0
LINE
  5
59C
330
1F
100
AcDbEntity
  8
002
  6
HIDDEN
 62
    40
370
     9
100
AcDbLine
 10
1792.707053
 20
869.007039
 30
0.0
 11
1727.707053
 21
869.007039
 31
0.0
  0
LINE
  5
59D
330
1F
100
AcDbEntity
  8
002
  6
HIDDEN
 62
    40
370
     9
100
AcDbLine
 10
2007.707053
 20
870.007039
 30
0.0
 11
2007.707053
 21
869.007039
 31
0.0
  0
LINE
  5
59E
330
1F
100
AcDbEntity
  8
002
  6
HIDDEN
 62
    40
370
     9
100
AcDbLine
 10
2072.707053
 20
869.007039
 30
0.0
 11
2072.707053
 21
870.007039
 31
0.0
  0
LINE
  5
59F
330
1F
100
AcDbEntity
  8
002
  6
HIDDEN
 62
    40
370
     9
100
AcDbLine
 10
1792.707053
 20
869.007039
 30
0.0
 11
1792.707053
 21
870.007039
 31
0.0
  0
LINE
  5
5A0
330
1F
100
AcDbEntity
  8
002
  6
HIDDEN
 62
    40
370
     9
100
AcDbLine
 10
1727.707053
 20
869.007039
 30
0.0
 11
1727.707053
 21
870.007039
 31
0.0
  0
LINE
  5
5A1
330
1F
100
AcDbEntity
  8
002
 62
     3
370
    30
100
AcDbLine
 10
1812.707053
 20
244.007039
 30
0.0
 11
1897.707053
 21
244.007039
 31
0.0
  0
LINE
  5
5A2
330
1F
100
AcDbEntity
  8
002
 62
     3
370
    30
100
AcDbLine
 10
1822.707053
 20
244.007039
 30
0.0
 11
1822.707053
 21
144.007039
 31
0.0
  0
LINE
  5
5A3
330
1F
100
AcDbEntity
  8
002
 62
     3
370
    30
100
AcDbLine
 10
1822.707053
 20
144.007039
 30
0.0
 11
1887.707053
 21
144.007039
 31
0.0
  0
LINE
  5
5A4
330
1F
100
AcDbEntity
  8
002
 62
     3
370
    30
100
AcDbLine
 10
1887.707053
 20
144.007039
 30
0.0
 11
1887.707053
 21
244.007039
 31
0.0
  0
LINE
  5
5A5
330
1F
100
AcDbEntity
  8
002
 62
    40
370
     9
100
AcDbLine
 10
1897.707053
 20
784.007439
 30
0.0
 11
1812.707053
 21
784.007439
 31
0.0
  0
CIRCLE
  5
5A6
330
1F
100
AcDbEntity
  8
002
 62
     3
370
    30
100
AcDbCircle
 10
1950.207053
 20
944.007039
 30
0.0
 40
25.0
  0
LINE
  5
5A7
330
1F
100
AcDbEntity
  8
002
 62
     3
370
    30
100
AcDbLine
 10
1955.207053
 20
956.507039
 30
0.0
 11
1945.207053
 21
956.507039
 31
0.0
  0
LINE
  5
5A8
330
1F
100
AcDbEntity
  8
002
 62
     3
370
    30
100
AcDbLine
 10
1945.207053
 20
956.507039
 30
0.0
 11
1945.207053
 21
964.507039
 31
0.0
  0
LINE
  5
5A9
330
1F
100
AcDbEntity
  8
002
 62
     3
370
    30
100
AcDbLine
 10
1945.207053
 20
964.507039
 30
0.0
 11
1955.207053
 21
964.507039
 31
0.0
  0
LINE
  5
5AA
330
1F
100
AcDbEntity
  8
002
 62
     3
370
    30
100
AcDbLine
 10
1955.207053
 20
964.507039
 30
0.0
 11
1955.207053
 21
956.507039
 31
0.0
  0
ARC
  5
5AB
330
1F
100
AcDbEntity
  8
002
 62
     3
370
    30
100
AcDbCircle
 10
1950.207053
 20
944.007039
 30
0.0
 40
17.50046973655275
100
AcDbArc
 50
106.601091
 51
73.398909
  0
ARC
  5
5AC
330
1F
100
AcDbEntity
  8
002
 62
     3
370
    30
100
AcDbCircle
 10
1950.207053
 20
944.007039
 30
0.0
 40
19.000672645988
100
AcDbArc
 50
105.25697
 51
74.74303
  0
LINE
  5
5AD
330
1F
100
AcDbEntity
  8
002
  6
CENTER
 62
    40
370
     9
100
AcDbLine
 10
570.478636
 20
2222.662836
 30
0.0
 11
570.478636
 21
2247.127999
 31
0.0
  0
LINE
  5
5AE
330
1F
100
AcDbEntity
  8
002
  6
CENTER
 62
    40
370
     9
100
AcDbLine
 10
495.524794
 20
2222.662836
 30
0.0
 11
495.524794
 21
2247.127999
 31
0.0
  0
LINE
  5
5AF
330
1F
100
AcDbEntity
  8
002
  6
CENTER
 62
    40
370
     9
100
AcDbLine
 10
570.478636
 20
2494.440896
 30
0.0
 11
570.478636
 21
2469.975734
 31
0.0
  0
LINE
  5
5B0
330
1F
100
AcDbEntity
  8
002
  6
CENTER
 62
    40
370
     9
100
AcDbLine
 10
495.524794
 20
2494.440896
 30
0.0
 11
495.524794
 21
2469.975734
 31
0.0
  0
POLYLINE
  5
5B1
330
1F
100
AcDbEntity
  8
002
 62
     3
370
     9
100
AcDb2dPolyline
 66
     1
 10
0.0
 20
0.0
 30
0.0
  0
VERTEX
  5
5B3
330
5B1
100
AcDbEntity
  8
002
 62
     3
370
     9
100
AcDbVertex
100
AcDb2dVertex
 10
395.501715
 20
575.76426
 30
0.0
  0
VERTEX
  5
5B4
330
5B1
100
AcDbEntity
  8
002
 62
     3
370
     9
100
AcDbVertex
100
AcDb2dVertex
 10
399.751715
 20
572.80426
 30
0.0
  0
VERTEX
  5
5B5
330
5B1
100
AcDbEntity
  8
002
 62
     3
370
     9
100
AcDbVertex
100
AcDb2dVertex
 10
404.001715
 20
570.08426
 30
0.0
  0
VERTEX
  5
5B6
330
5B1
100
AcDbEntity
  8
002
 62
     3
370
     9
100
AcDbVertex
100
AcDb2dVertex
 10
408.251715
 20
567.84426
 30
0.0
  0
VERTEX
  5
5B7
330
5B1
100
AcDbEntity
  8
002
 62
     3
370
     9
100
AcDbVertex
100
AcDb2dVertex
 10
412.501715
 20
566.32426
 30
0.0
  0
VERTEX
  5
5B8
330
5B1
100
AcDbEntity
  8
002
 62
     3
370
     9
100
AcDbVertex
100
AcDb2dVertex
 10
416.751715
 20
565.76426
 30
0.0
  0
VERTEX
  5
5B9
330
5B1
100
AcDbEntity
  8
002
 62
     3
370
     9
100
AcDbVertex
100
AcDb2dVertex
 10
421.001715
 20
566.32426
 30
0.0
  0
VERTEX
  5
5BA
330
5B1
100
AcDbEntity
  8
002
 62
     3
370
     9
100
AcDbVertex
100
AcDb2dVertex
 10
425.251715
 20
567.84426
 30
0.0
  0
VERTEX
  5
5BB
330
5B1
100
AcDbEntity
  8
002
 62
     3
370
     9
100
AcDbVertex
100
AcDb2dVertex
 10
429.501715
 20
570.08426
 30
0.0
  0
VERTEX
  5
5BC
330
5B1
100
AcDbEntity
  8
002
 62
     3
370
     9
100
AcDbVertex
100
AcDb2dVertex
 10
433.751715
 20
572.80426
 30
0.0
  0
VERTEX
  5
5BD
330
5B1
100
AcDbEntity
  8
002
 62
     3
370
     9
100
AcDbVertex
100
AcDb2dVertex
 10
438.001715
 20
575.76426
 30
0.0
  0
VERTEX
  5
5BE
330
5B1
100
AcDbEntity
  8
002
 62
     3
370
     9
100
AcDbVertex
100
AcDb2dVertex
 10
442.251715
 20
578.72426
 30
0.0
  0
VERTEX
  5
5BF
330
5B1
100
AcDbEntity
  8
002
 62
     3
370
     9
100
AcDbVertex
100
AcDb2dVertex
 10
446.501715
 20
581.44426
 30
0.0
  0
VERTEX
  5
5C0
330
5B1
100
AcDbEntity
  8
002
 62
     3
370
     9
100
AcDbVertex
100
AcDb2dVertex
 10
450.751715
 20
583.68426
 30
0.0
  0
VERTEX
  5
5C1
330
5B1
100
AcDbEntity
  8
002
 62
     3
370
     9
100
AcDbVertex
100
AcDb2dVertex
 10
455.001715
 20
585.20426
 30
0.0
  0
VERTEX
  5
5C2
330
5B1
100
AcDbEntity
  8
002
 62
     3
370
     9
100
AcDbVertex
100
AcDb2dVertex
 10
459.251715
 20
585.76426
 30
0.0
  0
VERTEX
  5
5C3
330
5B1
100
AcDbEntity
  8
002
 62
     3
370
     9
100
AcDbVertex
100
AcDb2dVertex
 10
463.501715
 20
585.20426
 30
0.0
  0
VERTEX
  5
5C4
330
5B1
100
AcDbEntity
  8
002
 62
     3
370
     9
100
AcDbVertex
100
AcDb2dVertex
 10
467.751715
 20
583.68426
 30
0.0
  0
VERTEX
  5
5C5
330
5B1
100
AcDbEntity
  8
002
 62
     3
370
     9
100
AcDbVertex
100
AcDb2dVertex
 10
472.001715
 20
581.44426
 30
0.0
  0
VERTEX
  5
5C6
330
5B1
100
AcDbEntity
  8
002
 62
     3
370
     9
100
AcDbVertex
100
AcDb2dVertex
 10
476.251715
 20
578.72426
 30
0.0
  0
VERTEX
  5
5C7
330
5B1
100
AcDbEntity
  8
002
 62
     3
370
     9
100
AcDbVertex
100
AcDb2dVertex
 10
480.501715
 20
575.76426
 30
0.0
  0
SEQEND
  5
5B2
330
5B1
100
AcDbEntity
  8
002
370
     9
  0
POLYLINE
  5
5C8
330
1F
100
AcDbEntity
  8
002
 62
     3
370
     9
100
AcDb2dPolyline
 66
     1
 10
0.0
 20
0.0
 30
0.0
  0
VERTEX
  5
5CA
330
5C8
100
AcDbEntity
  8
002
 62
     3
370
     9
100
AcDbVertex
100
AcDb2dVertex
 10
395.501715
 20
595.76426
 30
0.0
  0
VERTEX
  5
5CB
330
5C8
100
AcDbEntity
  8
002
 62
     3
370
     9
100
AcDbVertex
100
AcDb2dVertex
 10
399.751715
 20
592.80426
 30
0.0
  0
VERTEX
  5
5CC
330
5C8
100
AcDbEntity
  8
002
 62
     3
370
     9
100
AcDbVertex
100
AcDb2dVertex
 10
404.001715
 20
590.08426
 30
0.0
  0
VERTEX
  5
5CD
330
5C8
100
AcDbEntity
  8
002
 62
     3
370
     9
100
AcDbVertex
100
AcDb2dVertex
 10
408.251715
 20
587.84426
 30
0.0
  0
VERTEX
  5
5CE
330
5C8
100
AcDbEntity
  8
002
 62
     3
370
     9
100
AcDbVertex
100
AcDb2dVertex
 10
412.501715
 20
586.32426
 30
0.0
  0
VERTEX
  5
5CF
330
5C8
100
AcDbEntity
  8
002
 62
     3
370
     9
100
AcDbVertex
100
AcDb2dVertex
 10
416.751715
 20
585.76426
 30
0.0
  0
VERTEX
  5
5D0
330
5C8
100
AcDbEntity
  8
002
 62
     3
370
     9
100
AcDbVertex
100
AcDb2dVertex
 10
421.001715
 20
586.32426
 30
0.0
  0
VERTEX
  5
5D1
330
5C8
100
AcDbEntity
  8
002
 62
     3
370
     9
100
AcDbVertex
100
AcDb2dVertex
 10
425.251715
 20
587.84426
 30
0.0
  0
VERTEX
  5
5D2
330
5C8
100
AcDbEntity
  8
002
 62
     3
370
     9
100
AcDbVertex
100
AcDb2dVertex
 10
429.501715
 20
590.08426
 30
0.0
  0
VERTEX
  5
5D3
330
5C8
100
AcDbEntity
  8
002
 62
     3
370
     9
100
AcDbVertex
100
AcDb2dVertex
 10
433.751715
 20
592.80426
 30
0.0
  0
VERTEX
  5
5D4
330
5C8
100
AcDbEntity
  8
002
 62
     3
370
     9
100
AcDbVertex
100
AcDb2dVertex
 10
438.001715
 20
595.76426
 30
0.0
  0
VERTEX
  5
5D5
330
5C8
100
AcDbEntity
  8
002
 62
     3
370
     9
100
AcDbVertex
100
AcDb2dVertex
 10
442.251715
 20
598.72426
 30
0.0
  0
VERTEX
  5
5D6
330
5C8
100
AcDbEntity
  8
002
 62
     3
370
     9
100
AcDbVertex
100
AcDb2dVertex
 10
446.501715
 20
601.44426
 30
0.0
  0
VERTEX
  5
5D7
330
5C8
100
AcDbEntity
  8
002
 62
     3
370
     9
100
AcDbVertex
100
AcDb2dVertex
 10
450.751715
 20
603.68426
 30
0.0
  0
VERTEX
  5
5D8
330
5C8
100
AcDbEntity
  8
002
 62
     3
370
     9
100
AcDbVertex
100
AcDb2dVertex
 10
455.001715
 20
605.20426
 30
0.0
  0
VERTEX
  5
5D9
330
5C8
100
AcDbEntity
  8
002
 62
     3
370
     9
100
AcDbVertex
100
AcDb2dVertex
 10
459.251715
 20
605.76426
 30
0.0
  0
VERTEX
  5
5DA
330
5C8
100
AcDbEntity
  8
002
 62
     3
370
     9
100
AcDbVertex
100
AcDb2dVertex
 10
463.501715
 20
605.20426
 30
0.0
  0
VERTEX
  5
5DB
330
5C8
100
AcDbEntity
  8
002
 62
     3
370
     9
100
AcDbVertex
100
AcDb2dVertex
 10
467.751715
 20
603.68426
 30
0.0
  0
VERTEX
  5
5DC
330
5C8
100
AcDbEntity
  8
002
 62
     3
370
     9
100
AcDbVertex
100
AcDb2dVertex
 10
472.001715
 20
601.44426
 30
0.0
  0
VERTEX
  5
5DD
330
5C8
100
AcDbEntity
  8
002
 62
     3
370
     9
100
AcDbVertex
100
AcDb2dVertex
 10
476.251715
 20
598.72426
 30
0.0
  0
VERTEX
  5
5DE
330
5C8
100
AcDbEntity
  8
002
 62
     3
370
     9
100
AcDbVertex
100
AcDb2dVertex
 10
480.501715
 20
595.76426
 30
0.0
  0
SEQEND
  5
5C9
330
5C8
100
AcDbEntity
  8
002
370
     9
  0
LINE
  5
5DF
330
1F
100
AcDbEntity
  8
002
 62
     3
370
    30
100
AcDbLine
 10
480.501715
 20
426.26446
 30
0.0
 11
480.501715
 21
575.76426
 31
0.0
  0
LINE
  5
5E0
330
1F
100
AcDbEntity
  8
002
 62
     3
370
    30
100
AcDbLine
 10
480.501715
 20
595.76426
 30
0.0
 11
480.501715
 21
745.26406
 31
0.0
  0
LINE
  5
5E1
330
1F
100
AcDbEntity
  8
002
 62
     3
370
    30
100
AcDbLine
 10
395.501715
 20
745.26406
 30
0.0
 11
395.501715
 21
595.76426
 31
0.0
  0
LINE
  5
5E2
330
1F
100
AcDbEntity
  8
002
 62
     3
370
    30
100
AcDbLine
 10
395.501715
 20
575.76426
 30
0.0
 11
395.501715
 21
426.26446
 31
0.0
  0
LINE
  5
5E3
330
1F
100
AcDbEntity
  8
002
 62
    40
370
     9
100
AcDbLine
 10
404.001715
 20
745.26406
 30
0.0
 11
404.001715
 21
590.08426
 31
0.0
  0
LINE
  5
5E4
330
1F
100
AcDbEntity
  8
002
 62
    40
370
     9
100
AcDbLine
 10
404.001715
 20
570.08426
 30
0.0
 11
404.001715
 21
466.26446
 31
0.0
  0
LINE
  5
5E5
330
1F
100
AcDbEntity
  8
002
 62
    40
370
     9
100
AcDbLine
 10
472.001715
 20
466.26446
 30
0.0
 11
472.001715
 21
581.44426
 31
0.0
  0
LINE
  5
5E6
330
1F
100
AcDbEntity
  8
002
 62
    40
370
     9
100
AcDbLine
 10
472.001715
 20
601.44426
 30
0.0
 11
472.001715
 21
745.26406
 31
0.0
  0
POLYLINE
  5
5E7
330
1F
100
AcDbEntity
  8
002
 62
     3
370
     9
100
AcDb2dPolyline
 66
     1
 10
0.0
 20
0.0
 30
0.0
  0
VERTEX
  5
5E9
330
5E7
100
AcDbEntity
  8
002
 62
     3
370
     9
100
AcDbVertex
100
AcDb2dVertex
 10
845.501715
 20
575.76426
 30
0.0
  0
VERTEX
  5
5EA
330
5E7
100
AcDbEntity
  8
002
 62
     3
370
     9
100
AcDbVertex
100
AcDb2dVertex
 10
849.751715
 20
572.80426
 30
0.0
  0
VERTEX
  5
5EB
330
5E7
100
AcDbEntity
  8
002
 62
     3
370
     9
100
AcDbVertex
100
AcDb2dVertex
 10
854.001715
 20
570.08426
 30
0.0
  0
VERTEX
  5
5EC
330
5E7
100
AcDbEntity
  8
002
 62
     3
370
     9
100
AcDbVertex
100
AcDb2dVertex
 10
858.251715
 20
567.84426
 30
0.0
  0
VERTEX
  5
5ED
330
5E7
100
AcDbEntity
  8
002
 62
     3
370
     9
100
AcDbVertex
100
AcDb2dVertex
 10
862.501715
 20
566.32426
 30
0.0
  0
VERTEX
  5
5EE
330
5E7
100
AcDbEntity
  8
002
 62
     3
370
     9
100
AcDbVertex
100
AcDb2dVertex
 10
866.751715
 20
565.76426
 30
0.0
  0
VERTEX
  5
5EF
330
5E7
100
AcDbEntity
  8
002
 62
     3
370
     9
100
AcDbVertex
100
AcDb2dVertex
 10
871.001715
 20
566.32426
 30
0.0
  0
VERTEX
  5
5F0
330
5E7
100
AcDbEntity
  8
002
 62
     3
370
     9
100
AcDbVertex
100
AcDb2dVertex
 10
875.251715
 20
567.84426
 30
0.0
  0
VERTEX
  5
5F1
330
5E7
100
AcDbEntity
  8
002
 62
     3
370
     9
100
AcDbVertex
100
AcDb2dVertex
 10
879.501715
 20
570.08426
 30
0.0
  0
VERTEX
  5
5F2
330
5E7
100
AcDbEntity
  8
002
 62
     3
370
     9
100
AcDbVertex
100
AcDb2dVertex
 10
883.751715
 20
572.80426
 30
0.0
  0
VERTEX
  5
5F3
330
5E7
100
AcDbEntity
  8
002
 62
     3
370
     9
100
AcDbVertex
100
AcDb2dVertex
 10
888.001715
 20
575.76426
 30
0.0
  0
VERTEX
  5
5F4
330
5E7
100
AcDbEntity
  8
002
 62
     3
370
     9
100
AcDbVertex
100
AcDb2dVertex
 10
892.251715
 20
578.72426
 30
0.0
  0
VERTEX
  5
5F5
330
5E7
100
AcDbEntity
  8
002
 62
     3
370
     9
100
AcDbVertex
100
AcDb2dVertex
 10
896.501715
 20
581.44426
 30
0.0
  0
VERTEX
  5
5F6
330
5E7
100
AcDbEntity
  8
002
 62
     3
370
     9
100
AcDbVertex
100
AcDb2dVertex
 10
900.751715
 20
583.68426
 30
0.0
  0
VERTEX
  5
5F7
330
5E7
100
AcDbEntity
  8
002
 62
     3
370
     9
100
AcDbVertex
100
AcDb2dVertex
 10
905.001715
 20
585.20426
 30
0.0
  0
VERTEX
  5
5F8
330
5E7
100
AcDbEntity
  8
002
 62
     3
370
     9
100
AcDbVertex
100
AcDb2dVertex
 10
909.251715
 20
585.76426
 30
0.0
  0
VERTEX
  5
5F9
330
5E7
100
AcDbEntity
  8
002
 62
     3
370
     9
100
AcDbVertex
100
AcDb2dVertex
 10
913.501715
 20
585.20426
 30
0.0
  0
VERTEX
  5
5FA
330
5E7
100
AcDbEntity
  8
002
 62
     3
370
     9
100
AcDbVertex
100
AcDb2dVertex
 10
917.751715
 20
583.68426
 30
0.0
  0
VERTEX
  5
5FB
330
5E7
100
AcDbEntity
  8
002
 62
     3
370
     9
100
AcDbVertex
100
AcDb2dVertex
 10
922.001715
 20
581.44426
 30
0.0
  0
VERTEX
  5
5FC
330
5E7
100
AcDbEntity
  8
002
 62
     3
370
     9
100
AcDbVertex
100
AcDb2dVertex
 10
926.251715
 20
578.72426
 30
0.0
  0
VERTEX
  5
5FD
330
5E7
100
AcDbEntity
  8
002
 62
     3
370
     9
100
AcDbVertex
100
AcDb2dVertex
 10
930.501715
 20
575.76426
 30
0.0
  0
SEQEND
  5
5E8
330
5E7
100
AcDbEntity
  8
002
370
     9
  0
POLYLINE
  5
5FE
330
1F
100
AcDbEntity
  8
002
 62
     3
370
     9
100
AcDb2dPolyline
 66
     1
 10
0.0
 20
0.0
 30
0.0
  0
VERTEX
  5
600
330
5FE
100
AcDbEntity
  8
002
 62
     3
370
     9
100
AcDbVertex
100
AcDb2dVertex
 10
845.501715
 20
595.76426
 30
0.0
  0
VERTEX
  5
601
330
5FE
100
AcDbEntity
  8
002
 62
     3
370
     9
100
AcDbVertex
100
AcDb2dVertex
 10
849.751715
 20
592.80426
 30
0.0
  0
VERTEX
  5
602
330
5FE
100
AcDbEntity
  8
002
 62
     3
370
     9
100
AcDbVertex
100
AcDb2dVertex
 10
854.001715
 20
590.08426
 30
0.0
  0
VERTEX
  5
603
330
5FE
100
AcDbEntity
  8
002
 62
     3
370
     9
100
AcDbVertex
100
AcDb2dVertex
 10
858.251715
 20
587.84426
 30
0.0
  0
VERTEX
  5
604
330
5FE
100
AcDbEntity
  8
002
 62
     3
370
     9
100
AcDbVertex
100
AcDb2dVertex
 10
862.501715
 20
586.32426
 30
0.0
  0
VERTEX
  5
605
330
5FE
100
AcDbEntity
  8
002
 62
     3
370
     9
100
AcDbVertex
100
AcDb2dVertex
 10
866.751715
 20
585.76426
 30
0.0
  0
VERTEX
  5
606
330
5FE
100
AcDbEntity
  8
002
 62
     3
370
     9
100
AcDbVertex
100
AcDb2dVertex
 10
871.001715
 20
586.32426
 30
0.0
  0
VERTEX
  5
607
330
5FE
100
AcDbEntity
  8
002
 62
     3
370
     9
100
AcDbVertex
100
AcDb2dVertex
 10
875.251715
 20
587.84426
 30
0.0
  0
VERTEX
  5
608
330
5FE
100
AcDbEntity
  8
002
 62
     3
370
     9
100
AcDbVertex
100
AcDb2dVertex
 10
879.501715
 20
590.08426
 30
0.0
  0
VERTEX
  5
609
330
5FE
100
AcDbEntity
  8
002
 62
     3
370
     9
100
AcDbVertex
100
AcDb2dVertex
 10
883.751715
 20
592.80426
 30
0.0
  0
VERTEX
  5
60A
330
5FE
100
AcDbEntity
  8
002
 62
     3
370
     9
100
AcDbVertex
100
AcDb2dVertex
 10
888.001715
 20
595.76426
 30
0.0
  0
VERTEX
  5
60B
330
5FE
100
AcDbEntity
  8
002
 62
     3
370
     9
100
AcDbVertex
100
AcDb2dVertex
 10
892.251715
 20
598.72426
 30
0.0
  0
VERTEX
  5
60C
330
5FE
100
AcDbEntity
  8
002
 62
     3
370
     9
100
AcDbVertex
100
AcDb2dVertex
 10
896.501715
 20
601.44426
 30
0.0
  0
VERTEX
  5
60D
330
5FE
100
AcDbEntity
  8
002
 62
     3
370
     9
100
AcDbVertex
100
AcDb2dVertex
 10
900.751715
 20
603.68426
 30
0.0
  0
VERTEX
  5
60E
330
5FE
100
AcDbEntity
  8
002
 62
     3
370
     9
100
AcDbVertex
100
AcDb2dVertex
 10
905.001715
 20
605.20426
 30
0.0
  0
VERTEX
  5
60F
330
5FE
100
AcDbEntity
  8
002
 62
     3
370
     9
100
AcDbVertex
100
AcDb2dVertex
 10
909.251715
 20
605.76426
 30
0.0
  0
VERTEX
  5
610
330
5FE
100
AcDbEntity
  8
002
 62
     3
370
     9
100
AcDbVertex
100
AcDb2dVertex
 10
913.501715
 20
605.20426
 30
0.0
  0
VERTEX
  5
611
330
5FE
100
AcDbEntity
  8
002
 62
     3
370
     9
100
AcDbVertex
100
AcDb2dVertex
 10
917.751715
 20
603.68426
 30
0.0
  0
VERTEX
  5
612
330
5FE
100
AcDbEntity
  8
002
 62
     3
370
     9
100
AcDbVertex
100
AcDb2dVertex
 10
922.001715
 20
601.44426
 30
0.0
  0
VERTEX
  5
613
330
5FE
100
AcDbEntity
  8
002
 62
     3
370
     9
100
AcDbVertex
100
AcDb2dVertex
 10
926.251715
 20
598.72426
 30
0.0
  0
VERTEX
  5
614
330
5FE
100
AcDbEntity
  8
002
 62
     3
370
     9
100
AcDbVertex
100
AcDb2dVertex
 10
930.501715
 20
595.76426
 30
0.0
  0
SEQEND
  5
5FF
330
5FE
100
AcDbEntity
  8
002
370
     9
  0
LINE
  5
615
330
1F
100
AcDbEntity
  8
002
 62
     3
370
    30
100
AcDbLine
 10
930.501715
 20
426.26446
 30
0.0
 11
930.501715
 21
575.76426
 31
0.0
  0
LINE
  5
616
330
1F
100
AcDbEntity
  8
002
 62
     3
370
    30
100
AcDbLine
 10
930.501715
 20
595.76426
 30
0.0
 11
930.501715
 21
745.26406
 31
0.0
  0
LINE
  5
617
330
1F
100
AcDbEntity
  8
002
 62
     3
370
    30
100
AcDbLine
 10
845.501715
 20
745.26406
 30
0.0
 11
845.501715
 21
595.76426
 31
0.0
  0
LINE
  5
618
330
1F
100
AcDbEntity
  8
002
 62
     3
370
    30
100
AcDbLine
 10
845.501715
 20
575.76426
 30
0.0
 11
845.501715
 21
426.26446
 31
0.0
  0
LINE
  5
619
330
1F
100
AcDbEntity
  8
002
 62
    40
370
     9
100
AcDbLine
 10
854.001715
 20
745.26406
 30
0.0
 11
854.001715
 21
590.08426
 31
0.0
  0
LINE
  5
61A
330
1F
100
AcDbEntity
  8
002
 62
    40
370
     9
100
AcDbLine
 10
854.001715
 20
570.08426
 30
0.0
 11
854.001715
 21
466.26446
 31
0.0
  0
LINE
  5
61B
330
1F
100
AcDbEntity
  8
002
 62
    40
370
     9
100
AcDbLine
 10
922.001715
 20
466.26446
 30
0.0
 11
922.001715
 21
581.44426
 31
0.0
  0
LINE
  5
61C
330
1F
100
AcDbEntity
  8
002
 62
    40
370
     9
100
AcDbLine
 10
922.001715
 20
601.44426
 30
0.0
 11
922.001715
 21
745.26406
 31
0.0
  0
POLYLINE
  5
61D
330
1F
100
AcDbEntity
  8
002
 62
     3
370
     9
100
AcDb2dPolyline
 66
     1
 10
0.0
 20
0.0
 30
0.0
  0
VERTEX
  5
61F
330
61D
100
AcDbEntity
  8
002
 62
     3
370
     9
100
AcDbVertex
100
AcDb2dVertex
 10
1362.707053
 20
652.007239
 30
0.0
  0
VERTEX
  5
620
330
61D
100
AcDbEntity
  8
002
 62
     3
370
     9
100
AcDbVertex
100
AcDb2dVertex
 10
1366.957053
 20
649.047239
 30
0.0
  0
VERTEX
  5
621
330
61D
100
AcDbEntity
  8
002
 62
     3
370
     9
100
AcDbVertex
100
AcDb2dVertex
 10
1371.207053
 20
646.327239
 30
0.0
  0
VERTEX
  5
622
330
61D
100
AcDbEntity
  8
002
 62
     3
370
     9
100
AcDbVertex
100
AcDb2dVertex
 10
1375.457053
 20
644.087239
 30
0.0
  0
VERTEX
  5
623
330
61D
100
AcDbEntity
  8
002
 62
     3
370
     9
100
AcDbVertex
100
AcDb2dVertex
 10
1379.707053
 20
642.567239
 30
0.0
  0
VERTEX
  5
624
330
61D
100
AcDbEntity
  8
002
 62
     3
370
     9
100
AcDbVertex
100
AcDb2dVertex
 10
1383.957053
 20
642.007239
 30
0.0
  0
VERTEX
  5
625
330
61D
100
AcDbEntity
  8
002
 62
     3
370
     9
100
AcDbVertex
100
AcDb2dVertex
 10
1388.207053
 20
642.567239
 30
0.0
  0
VERTEX
  5
626
330
61D
100
AcDbEntity
  8
002
 62
     3
370
     9
100
AcDbVertex
100
AcDb2dVertex
 10
1392.457053
 20
644.087239
 30
0.0
  0
VERTEX
  5
627
330
61D
100
AcDbEntity
  8
002
 62
     3
370
     9
100
AcDbVertex
100
AcDb2dVertex
 10
1396.707053
 20
646.327239
 30
0.0
  0
VERTEX
  5
628
330
61D
100
AcDbEntity
  8
002
 62
     3
370
     9
100
AcDbVertex
100
AcDb2dVertex
 10
1400.957053
 20
649.047239
 30
0.0
  0
VERTEX
  5
629
330
61D
100
AcDbEntity
  8
002
 62
     3
370
     9
100
AcDbVertex
100
AcDb2dVertex
 10
1405.207053
 20
652.007239
 30
0.0
  0
VERTEX
  5
62A
330
61D
100
AcDbEntity
  8
002
 62
     3
370
     9
100
AcDbVertex
100
AcDb2dVertex
 10
1409.457053
 20
654.967239
 30
0.0
  0
VERTEX
  5
62B
330
61D
100
AcDbEntity
  8
002
 62
     3
370
     9
100
AcDbVertex
100
AcDb2dVertex
 10
1413.707053
 20
657.687239
 30
0.0
  0
VERTEX
  5
62C
330
61D
100
AcDbEntity
  8
002
 62
     3
370
     9
100
AcDbVertex
100
AcDb2dVertex
 10
1417.957053
 20
659.927239
 30
0.0
  0
VERTEX
  5
62D
330
61D
100
AcDbEntity
  8
002
 62
     3
370
     9
100
AcDbVertex
100
AcDb2dVertex
 10
1422.207053
 20
661.447239
 30
0.0
  0
VERTEX
  5
62E
330
61D
100
AcDbEntity
  8
002
 62
     3
370
     9
100
AcDbVertex
100
AcDb2dVertex
 10
1426.457053
 20
662.007239
 30
0.0
  0
VERTEX
  5
62F
330
61D
100
AcDbEntity
  8
002
 62
     3
370
     9
100
AcDbVertex
100
AcDb2dVertex
 10
1430.707053
 20
661.447239
 30
0.0
  0
VERTEX
  5
630
330
61D
100
AcDbEntity
  8
002
 62
     3
370
     9
100
AcDbVertex
100
AcDb2dVertex
 10
1434.957053
 20
659.927239
 30
0.0
  0
VERTEX
  5
631
330
61D
100
AcDbEntity
  8
002
 62
     3
370
     9
100
AcDbVertex
100
AcDb2dVertex
 10
1439.207053
 20
657.687239
 30
0.0
  0
VERTEX
  5
632
330
61D
100
AcDbEntity
  8
002
 62
     3
370
     9
100
AcDbVertex
100
AcDb2dVertex
 10
1443.457053
 20
654.967239
 30
0.0
  0
VERTEX
  5
633
330
61D
100
AcDbEntity
  8
002
 62
     3
370
     9
100
AcDbVertex
100
AcDb2dVertex
 10
1447.707053
 20
652.007239
 30
0.0
  0
SEQEND
  5
61E
330
61D
100
AcDbEntity
  8
002
370
     9
  0
POLYLINE
  5
634
330
1F
100
AcDbEntity
  8
002
 62
     3
370
     9
100
AcDb2dPolyline
 66
     1
 10
0.0
 20
0.0
 30
0.0
  0
VERTEX
  5
636
330
634
100
AcDbEntity
  8
002
 62
     3
370
     9
100
AcDbVertex
100
AcDb2dVertex
 10
1362.707053
 20
672.007239
 30
0.0
  0
VERTEX
  5
637
330
634
100
AcDbEntity
  8
002
 62
     3
370
     9
100
AcDbVertex
100
AcDb2dVertex
 10
1366.957053
 20
669.047239
 30
0.0
  0
VERTEX
  5
638
330
634
100
AcDbEntity
  8
002
 62
     3
370
     9
100
AcDbVertex
100
AcDb2dVertex
 10
1371.207053
 20
666.327239
 30
0.0
  0
VERTEX
  5
639
330
634
100
AcDbEntity
  8
002
 62
     3
370
     9
100
AcDbVertex
100
AcDb2dVertex
 10
1375.457053
 20
664.087239
 30
0.0
  0
VERTEX
  5
63A
330
634
100
AcDbEntity
  8
002
 62
     3
370
     9
100
AcDbVertex
100
AcDb2dVertex
 10
1379.707053
 20
662.567239
 30
0.0
  0
VERTEX
  5
63B
330
634
100
AcDbEntity
  8
002
 62
     3
370
     9
100
AcDbVertex
100
AcDb2dVertex
 10
1383.957053
 20
662.007239
 30
0.0
  0
VERTEX
  5
63C
330
634
100
AcDbEntity
  8
002
 62
     3
370
     9
100
AcDbVertex
100
AcDb2dVertex
 10
1388.207053
 20
662.567239
 30
0.0
  0
VERTEX
  5
63D
330
634
100
AcDbEntity
  8
002
 62
     3
370
     9
100
AcDbVertex
100
AcDb2dVertex
 10
1392.457053
 20
664.087239
 30
0.0
  0
VERTEX
  5
63E
330
634
100
AcDbEntity
  8
002
 62
     3
370
     9
100
AcDbVertex
100
AcDb2dVertex
 10
1396.707053
 20
666.327239
 30
0.0
  0
VERTEX
  5
63F
330
634
100
AcDbEntity
  8
002
 62
     3
370
     9
100
AcDbVertex
100
AcDb2dVertex
 10
1400.957053
 20
669.047239
 30
0.0
  0
VERTEX
  5
640
330
634
100
AcDbEntity
  8
002
 62
     3
370
     9
100
AcDbVertex
100
AcDb2dVertex
 10
1405.207053
 20
672.007239
 30
0.0
  0
VERTEX
  5
641
330
634
100
AcDbEntity
  8
002
 62
     3
370
     9
100
AcDbVertex
100
AcDb2dVertex
 10
1409.457053
 20
674.967239
 30
0.0
  0
VERTEX
  5
642
330
634
100
AcDbEntity
  8
002
 62
     3
370
     9
100
AcDbVertex
100
AcDb2dVertex
 10
1413.707053
 20
677.687239
 30
0.0
  0
VERTEX
  5
643
330
634
100
AcDbEntity
  8
002
 62
     3
370
     9
100
AcDbVertex
100
AcDb2dVertex
 10
1417.957053
 20
679.927239
 30
0.0
  0
VERTEX
  5
644
330
634
100
AcDbEntity
  8
002
 62
     3
370
     9
100
AcDbVertex
100
AcDb2dVertex
 10
1422.207053
 20
681.447239
 30
0.0
  0
VERTEX
  5
645
330
634
100
AcDbEntity
  8
002
 62
     3
370
     9
100
AcDbVertex
100
AcDb2dVertex
 10
1426.457053
 20
682.007239
 30
0.0
  0
VERTEX
  5
646
330
634
100
AcDbEntity
  8
002
 62
     3
370
     9
100
AcDbVertex
100
AcDb2dVertex
 10
1430.707053
 20
681.447239
 30
0.0
  0
VERTEX
  5
647
330
634
100
AcDbEntity
  8
002
 62
     3
370
     9
100
AcDbVertex
100
AcDb2dVertex
 10
1434.957053
 20
679.927239
 30
0.0
  0
VERTEX
  5
648
330
634
100
AcDbEntity
  8
002
 62
     3
370
     9
100
AcDbVertex
100
AcDb2dVertex
 10
1439.207053
 20
677.687239
 30
0.0
  0
VERTEX
  5
649
330
634
100
AcDbEntity
  8
002
 62
     3
370
     9
100
AcDbVertex
100
AcDb2dVertex
 10
1443.457053
 20
674.967239
 30
0.0
  0
VERTEX
  5
64A
330
634
100
AcDbEntity
  8
002
 62
     3
370
     9
100
AcDbVertex
100
AcDb2dVertex
 10
1447.707053
 20
672.007239
 30
0.0
  0
SEQEND
  5
635
330
634
100
AcDbEntity
  8
002
370
     9
  0
LINE
  5
64B
330
1F
100
AcDbEntity
  8
002
 62
     3
370
    30
100
AcDbLine
 10
1362.707053
 20
824.007039
 30
0.0
 11
1362.707053
 21
672.007239
 31
0.0
  0
LINE
  5
64C
330
1F
100
AcDbEntity
  8
002
 62
     3
370
    30
100
AcDbLine
 10
1362.707053
 20
652.007239
 30
0.0
 11
1362.707053
 21
500.007439
 31
0.0
  0
LINE
  5
64D
330
1F
100
AcDbEntity
  8
002
 62
     3
370
    30
100
AcDbLine
 10
1447.707053
 20
500.007439
 30
0.0
 11
1447.707053
 21
652.007239
 31
0.0
  0
LINE
  5
64E
330
1F
100
AcDbEntity
  8
002
 62
     3
370
    30
100
AcDbLine
 10
1447.707053
 20
672.007239
 30
0.0
 11
1447.707053
 21
824.007039
 31
0.0
  0
LINE
  5
64F
330
1F
100
AcDbEntity
  8
002
 62
    40
370
     9
100
AcDbLine
 10
1439.207053
 20
500.007439
 30
0.0
 11
1439.207053
 21
657.687239
 31
0.0
  0
LINE
  5
650
330
1F
100
AcDbEntity
  8
002
 62
    40
370
     9
100
AcDbLine
 10
1439.207053
 20
677.687239
 30
0.0
 11
1439.207053
 21
784.007439
 31
0.0
  0
LINE
  5
651
330
1F
100
AcDbEntity
  8
002
 62
    40
370
     9
100
AcDbLine
 10
1371.207053
 20
784.007439
 30
0.0
 11
1371.207053
 21
666.327239
 31
0.0
  0
LINE
  5
652
330
1F
100
AcDbEntity
  8
002
 62
    40
370
     9
100
AcDbLine
 10
1371.207053
 20
646.327239
 30
0.0
 11
1371.207053
 21
500.007439
 31
0.0
  0
POLYLINE
  5
653
330
1F
100
AcDbEntity
  8
002
 62
     3
370
     9
100
AcDb2dPolyline
 66
     1
 10
0.0
 20
0.0
 30
0.0
  0
VERTEX
  5
655
330
653
100
AcDbEntity
  8
002
 62
     3
370
     9
100
AcDbVertex
100
AcDb2dVertex
 10
1812.707053
 20
652.007239
 30
0.0
  0
VERTEX
  5
656
330
653
100
AcDbEntity
  8
002
 62
     3
370
     9
100
AcDbVertex
100
AcDb2dVertex
 10
1816.957053
 20
649.047239
 30
0.0
  0
VERTEX
  5
657
330
653
100
AcDbEntity
  8
002
 62
     3
370
     9
100
AcDbVertex
100
AcDb2dVertex
 10
1821.207053
 20
646.327239
 30
0.0
  0
VERTEX
  5
658
330
653
100
AcDbEntity
  8
002
 62
     3
370
     9
100
AcDbVertex
100
AcDb2dVertex
 10
1825.457053
 20
644.087239
 30
0.0
  0
VERTEX
  5
659
330
653
100
AcDbEntity
  8
002
 62
     3
370
     9
100
AcDbVertex
100
AcDb2dVertex
 10
1829.707053
 20
642.567239
 30
0.0
  0
VERTEX
  5
65A
330
653
100
AcDbEntity
  8
002
 62
     3
370
     9
100
AcDbVertex
100
AcDb2dVertex
 10
1833.957053
 20
642.007239
 30
0.0
  0
VERTEX
  5
65B
330
653
100
AcDbEntity
  8
002
 62
     3
370
     9
100
AcDbVertex
100
AcDb2dVertex
 10
1838.207053
 20
642.567239
 30
0.0
  0
VERTEX
  5
65C
330
653
100
AcDbEntity
  8
002
 62
     3
370
     9
100
AcDbVertex
100
AcDb2dVertex
 10
1842.457053
 20
644.087239
 30
0.0
  0
VERTEX
  5
65D
330
653
100
AcDbEntity
  8
002
 62
     3
370
     9
100
AcDbVertex
100
AcDb2dVertex
 10
1846.707053
 20
646.327239
 30
0.0
  0
VERTEX
  5
65E
330
653
100
AcDbEntity
  8
002
 62
     3
370
     9
100
AcDbVertex
100
AcDb2dVertex
 10
1850.957053
 20
649.047239
 30
0.0
  0
VERTEX
  5
65F
330
653
100
AcDbEntity
  8
002
 62
     3
370
     9
100
AcDbVertex
100
AcDb2dVertex
 10
1855.207053
 20
652.007239
 30
0.0
  0
VERTEX
  5
660
330
653
100
AcDbEntity
  8
002
 62
     3
370
     9
100
AcDbVertex
100
AcDb2dVertex
 10
1859.457053
 20
654.967239
 30
0.0
  0
VERTEX
  5
661
330
653
100
AcDbEntity
  8
002
 62
     3
370
     9
100
AcDbVertex
100
AcDb2dVertex
 10
1863.707053
 20
657.687239
 30
0.0
  0
VERTEX
  5
662
330
653
100
AcDbEntity
  8
002
 62
     3
370
     9
100
AcDbVertex
100
AcDb2dVertex
 10
1867.957053
 20
659.927239
 30
0.0
  0
VERTEX
  5
663
330
653
100
AcDbEntity
  8
002
 62
     3
370
     9
100
AcDbVertex
100
AcDb2dVertex
 10
1872.207053
 20
661.447239
 30
0.0
  0
VERTEX
  5
664
330
653
100
AcDbEntity
  8
002
 62
     3
370
     9
100
AcDbVertex
100
AcDb2dVertex
 10
1876.457053
 20
662.007239
 30
0.0
  0
VERTEX
  5
665
330
653
100
AcDbEntity
  8
002
 62
     3
370
     9
100
AcDbVertex
100
AcDb2dVertex
 10
1880.707053
 20
661.447239
 30
0.0
  0
VERTEX
  5
666
330
653
100
AcDbEntity
  8
002
 62
     3
370
     9
100
AcDbVertex
100
AcDb2dVertex
 10
1884.957053
 20
659.927239
 30
0.0
  0
VERTEX
  5
667
330
653
100
AcDbEntity
  8
002
 62
     3
370
     9
100
AcDbVertex
100
AcDb2dVertex
 10
1889.207053
 20
657.687239
 30
0.0
  0
VERTEX
  5
668
330
653
100
AcDbEntity
  8
002
 62
     3
370
     9
100
AcDbVertex
100
AcDb2dVertex
 10
1893.457053
 20
654.967239
 30
0.0
  0
VERTEX
  5
669
330
653
100
AcDbEntity
  8
002
 62
     3
370
     9
100
AcDbVertex
100
AcDb2dVertex
 10
1897.707053
 20
652.007239
 30
0.0
  0
SEQEND
  5
654
330
653
100
AcDbEntity
  8
002
370
     9
  0
POLYLINE
  5
66A
330
1F
100
AcDbEntity
  8
002
 62
     3
370
     9
100
AcDb2dPolyline
 66
     1
 10
0.0
 20
0.0
 30
0.0
  0
VERTEX
  5
66C
330
66A
100
AcDbEntity
  8
002
 62
     3
370
     9
100
AcDbVertex
100
AcDb2dVertex
 10
1812.707053
 20
672.007239
 30
0.0
  0
VERTEX
  5
66D
330
66A
100
AcDbEntity
  8
002
 62
     3
370
     9
100
AcDbVertex
100
AcDb2dVertex
 10
1816.957053
 20
669.047239
 30
0.0
  0
VERTEX
  5
66E
330
66A
100
AcDbEntity
  8
002
 62
     3
370
     9
100
AcDbVertex
100
AcDb2dVertex
 10
1821.207053
 20
666.327239
 30
0.0
  0
VERTEX
  5
66F
330
66A
100
AcDbEntity
  8
002
 62
     3
370
     9
100
AcDbVertex
100
AcDb2dVertex
 10
1825.457053
 20
664.087239
 30
0.0
  0
VERTEX
  5
670
330
66A
100
AcDbEntity
  8
002
 62
     3
370
     9
100
AcDbVertex
100
AcDb2dVertex
 10
1829.707053
 20
662.567239
 30
0.0
  0
VERTEX
  5
671
330
66A
100
AcDbEntity
  8
002
 62
     3
370
     9
100
AcDbVertex
100
AcDb2dVertex
 10
1833.957053
 20
662.007239
 30
0.0
  0
VERTEX
  5
672
330
66A
100
AcDbEntity
  8
002
 62
     3
370
     9
100
AcDbVertex
100
AcDb2dVertex
 10
1838.207053
 20
662.567239
 30
0.0
  0
VERTEX
  5
673
330
66A
100
AcDbEntity
  8
002
 62
     3
370
     9
100
AcDbVertex
100
AcDb2dVertex
 10
1842.457053
 20
664.087239
 30
0.0
  0
VERTEX
  5
674
330
66A
100
AcDbEntity
  8
002
 62
     3
370
     9
100
AcDbVertex
100
AcDb2dVertex
 10
1846.707053
 20
666.327239
 30
0.0
  0
VERTEX
  5
675
330
66A
100
AcDbEntity
  8
002
 62
     3
370
     9
100
AcDbVertex
100
AcDb2dVertex
 10
1850.957053
 20
669.047239
 30
0.0
  0
VERTEX
  5
676
330
66A
100
AcDbEntity
  8
002
 62
     3
370
     9
100
AcDbVertex
100
AcDb2dVertex
 10
1855.207053
 20
672.007239
 30
0.0
  0
VERTEX
  5
677
330
66A
100
AcDbEntity
  8
002
 62
     3
370
     9
100
AcDbVertex
100
AcDb2dVertex
 10
1859.457053
 20
674.967239
 30
0.0
  0
VERTEX
  5
678
330
66A
100
AcDbEntity
  8
002
 62
     3
370
     9
100
AcDbVertex
100
AcDb2dVertex
 10
1863.707053
 20
677.687239
 30
0.0
  0
VERTEX
  5
679
330
66A
100
AcDbEntity
  8
002
 62
     3
370
     9
100
AcDbVertex
100
AcDb2dVertex
 10
1867.957053
 20
679.927239
 30
0.0
  0
VERTEX
  5
67A
330
66A
100
AcDbEntity
  8
002
 62
     3
370
     9
100
AcDbVertex
100
AcDb2dVertex
 10
1872.207053
 20
681.447239
 30
0.0
  0
VERTEX
  5
67B
330
66A
100
AcDbEntity
  8
002
 62
     3
370
     9
100
AcDbVertex
100
AcDb2dVertex
 10
1876.457053
 20
682.007239
 30
0.0
  0
VERTEX
  5
67C
330
66A
100
AcDbEntity
  8
002
 62
     3
370
     9
100
AcDbVertex
100
AcDb2dVertex
 10
1880.707053
 20
681.447239
 30
0.0
  0
VERTEX
  5
67D
330
66A
100
AcDbEntity
  8
002
 62
     3
370
     9
100
AcDbVertex
100
AcDb2dVertex
 10
1884.957053
 20
679.927239
 30
0.0
  0
VERTEX
  5
67E
330
66A
100
AcDbEntity
  8
002
 62
     3
370
     9
100
AcDbVertex
100
AcDb2dVertex
 10
1889.207053
 20
677.687239
 30
0.0
  0
VERTEX
  5
67F
330
66A
100
AcDbEntity
  8
002
 62
     3
370
     9
100
AcDbVertex
100
AcDb2dVertex
 10
1893.457053
 20
674.967239
 30
0.0
  0
VERTEX
  5
680
330
66A
100
AcDbEntity
  8
002
 62
     3
370
     9
100
AcDbVertex
100
AcDb2dVertex
 10
1897.707053
 20
672.007239
 30
0.0
  0
SEQEND
  5
66B
330
66A
100
AcDbEntity
  8
002
370
     9
  0
LINE
  5
681
330
1F
100
AcDbEntity
  8
002
 62
     3
370
    30
100
AcDbLine
 10
1812.707053
 20
824.007039
 30
0.0
 11
1812.707053
 21
672.007239
 31
0.0
  0
LINE
  5
682
330
1F
100
AcDbEntity
  8
002
 62
     3
370
    30
100
AcDbLine
 10
1812.707053
 20
652.007239
 30
0.0
 11
1812.707053
 21
500.007439
 31
0.0
  0
LINE
  5
683
330
1F
100
AcDbEntity
  8
002
 62
     3
370
    30
100
AcDbLine
 10
1897.707053
 20
500.007439
 30
0.0
 11
1897.707053
 21
652.007239
 31
0.0
  0
LINE
  5
684
330
1F
100
AcDbEntity
  8
002
 62
     3
370
    30
100
AcDbLine
 10
1897.707053
 20
672.007239
 30
0.0
 11
1897.707053
 21
824.007039
 31
0.0
  0
LINE
  5
685
330
1F
100
AcDbEntity
  8
002
 62
    40
370
     9
100
AcDbLine
 10
1889.207053
 20
500.007439
 30
0.0
 11
1889.207053
 21
657.687239
 31
0.0
  0
LINE
  5
686
330
1F
100
AcDbEntity
  8
002
 62
    40
370
     9
100
AcDbLine
 10
1889.207053
 20
677.687239
 30
0.0
 11
1889.207053
 21
784.007439
 31
0.0
  0
LINE
  5
687
330
1F
100
AcDbEntity
  8
002
 62
    40
370
     9
100
AcDbLine
 10
1821.207053
 20
784.007439
 30
0.0
 11
1821.207053
 21
666.327239
 31
0.0
  0
LINE
  5
688
330
1F
100
AcDbEntity
  8
002
 62
    40
370
     9
100
AcDbLine
 10
1821.207053
 20
646.327239
 30
0.0
 11
1821.207053
 21
500.007439
 31
0.0
  0
LINE
  5
689
330
1F
100
AcDbEntity
  8
002
  6
CENTER
 62
    40
370
     9
100
AcDbLine
 10
438.001715
 20
120.990335
 30
0.0
 11
438.001715
 21
1120.397866
 31
0.0
  0
LINE
  5
68A
330
1F
100
AcDbEntity
  8
002
  6
CENTER
 62
    40
370
     9
100
AcDbLine
 10
888.001715
 20
120.990335
 30
0.0
 11
888.001715
 21
1120.397866
 31
0.0
  0
LINE
  5
68B
330
1F
100
AcDbEntity
  8
002
  6
CENTER
 62
    40
370
     9
100
AcDbLine
 10
1405.207053
 20
1149.007039
 30
0.0
 11
1405.207053
 21
122.792201
 31
0.0
  0
LINE
  5
68C
330
1F
100
AcDbEntity
  8
002
  6
CENTER
 62
    40
370
     9
100
AcDbLine
 10
1855.207053
 20
1149.007039
 30
0.0
 11
1855.207053
 21
122.792201
 31
0.0
  0
CIRCLE
  5
68D
330
1F
100
AcDbEntity
  8
002
  6
CENTER
 62
    40
370
     9
100
AcDbCircle
 10
533.001715
 20
306.26446
 30
0.0
 40
53.0
  0
LINE
  5
68E
330
1F
100
AcDbEntity
  8
002
  6
CENTER
 62
    40
370
     9
100
AcDbLine
 10
502.034715
 20
275.29746
 30
0.0
 11
489.584715
 21
262.84746
 31
0.0
  0
LINE
  5
68F
330
1F
100
AcDbEntity
  8
002
  6
CENTER
 62
    40
370
     9
100
AcDbLine
 10
563.968715
 20
275.29746
 30
0.0
 11
576.419715
 21
262.84746
 31
0.0
  0
LINE
  5
690
330
1F
100
AcDbEntity
  8
002
  6
CENTER
 62
    40
370
     9
100
AcDbLine
 10
576.419715
 20
349.68146
 30
0.0
 11
563.968715
 21
337.23146
 31
0.0
  0
LINE
  5
691
330
1F
100
AcDbEntity
  8
002
  6
CENTER
 62
    40
370
     9
100
AcDbLine
 10
489.584715
 20
349.68146
 30
0.0
 11
502.034715
 21
337.23146
 31
0.0
  0
CIRCLE
  5
692
330
1F
100
AcDbEntity
  8
002
  6
CENTER
 62
    40
370
     9
100
AcDbCircle
 10
983.001715
 20
306.26446
 30
0.0
 40
53.0
  0
LINE
  5
693
330
1F
100
AcDbEntity
  8
002
  6
CENTER
 62
    40
370
     9
100
AcDbLine
 10
952.034715
 20
275.29746
 30
0.0
 11
939.584715
 21
262.84746
 31
0.0
  0
LINE
  5
694
330
1F
100
AcDbEntity
  8
002
  6
CENTER
 62
    40
370
     9
100
AcDbLine
 10
1013.968715
 20
275.29746
 30
0.0
 11
1026.419715
 21
262.84746
 31
0.0
  0
LINE
  5
695
330
1F
100
AcDbEntity
  8
002
  6
CENTER
 62
    40
370
     9
100
AcDbLine
 10
1026.419715
 20
349.68146
 30
0.0
 11
1013.968715
 21
337.23146
 31
0.0
  0
LINE
  5
696
330
1F
100
AcDbEntity
  8
002
  6
CENTER
 62
    40
370
     9
100
AcDbLine
 10
939.584715
 20
349.68146
 30
0.0
 11
952.034715
 21
337.23146
 31
0.0
  0
CIRCLE
  5
697
330
1F
100
AcDbEntity
  8
002
  6
CENTER
 62
    40
370
     9
100
AcDbCircle
 10
1500.207053
 20
944.007039
 30
0.0
 40
53.0
  0
LINE
  5
698
330
1F
100
AcDbEntity
  8
002
  6
CENTER
 62
    40
370
     9
100
AcDbLine
 10
1469.240053
 20
913.040039
 30
0.0
 11
1456.790053
 21
900.590039
 31
0.0
  0
LINE
  5
699
330
1F
100
AcDbEntity
  8
002
  6
CENTER
 62
    40
370
     9
100
AcDbLine
 10
1531.174053
 20
913.040039
 30
0.0
 11
1543.625053
 21
900.590039
 31
0.0
  0
LINE
  5
69A
330
1F
100
AcDbEntity
  8
002
  6
CENTER
 62
    40
370
     9
100
AcDbLine
 10
1543.625053
 20
987.424039
 30
0.0
 11
1531.174053
 21
974.974039
 31
0.0
  0
LINE
  5
69B
330
1F
100
AcDbEntity
  8
002
  6
CENTER
 62
    40
370
     9
100
AcDbLine
 10
1456.790053
 20
987.424039
 30
0.0
 11
1469.240053
 21
974.974039
 31
0.0
  0
CIRCLE
  5
69C
330
1F
100
AcDbEntity
  8
002
  6
CENTER
 62
    40
370
     9
100
AcDbCircle
 10
1950.207053
 20
944.007039
 30
0.0
 40
53.0
  0
LINE
  5
69D
330
1F
100
AcDbEntity
  8
002
  6
CENTER
 62
    40
370
     9
100
AcDbLine
 10
1919.240053
 20
913.040039
 30
0.0
 11
1906.790053
 21
900.590039
 31
0.0
  0
LINE
  5
69E
330
1F
100
AcDbEntity
  8
002
  6
CENTER
 62
    40
370
     9
100
AcDbLine
 10
1981.174053
 20
913.040039
 30
0.0
 11
1993.625053
 21
900.590039
 31
0.0
  0
LINE
  5
69F
330
1F
100
AcDbEntity
  8
002
  6
CENTER
 62
    40
370
     9
100
AcDbLine
 10
1993.625053
 20
987.424039
 30
0.0
 11
1981.174053
 21
974.974039
 31
0.0
  0
LINE
  5
6A0
330
1F
100
AcDbEntity
  8
002
  6
CENTER
 62
    40
370
     9
100
AcDbLine
 10
1906.790053
 20
987.424039
 30
0.0
 11
1919.240053
 21
974.974039
 31
0.0
  0
ENDSEC
  0
SECTION
  2
OBJECTS
  0
DICTIONARY
  5
C
330
0
100
AcDbDictionary
281
     1
  3
ACAD_GROUP
350
D
  3
ACAD_LAYOUT
350
1A
  3
ACAD_MLEADERSTYLE
350
6A3
  3
ACAD_MLINESTYLE
350
17
  3
ACAD_PLOTSETTINGS
350
19
  3
ACAD_PLOTSTYLENAME
350
E
  3
ACAD_VISUALSTYLE
350
2A
  3
AcDbVariableDictionary
350
6A1
  0
DICTIONARY
  5
D
102
{ACAD_REACTORS
330
C
102
}
330
C
100
AcDbDictionary
281
     1
  0
DICTIONARY
  5
1A
102
{ACAD_REACTORS
330
C
102
}
330
C
100
AcDbDictionary
281
     1
  3
Layout1
350
1E
  3
Layout2
350
26
  3
Model
350
22
  0
DICTIONARY
  5
6A3
102
{ACAD_REACTORS
330
C
102
}
330
C
100
AcDbDictionary
281
     1
  0
DICTIONARY
  5
17
102
{ACAD_REACTORS
330
C
102
}
330
C
100
AcDbDictionary
281
     1
  3
Standard
350
18
  0
DICTIONARY
  5
19
102
{ACAD_REACTORS
330
C
102
}
330
C
100
AcDbDictionary
281
     1
  0
ACDBDICTIONARYWDFLT
  5
E
102
{ACAD_REACTORS
330
C
102
}
330
C
100
AcDbDictionary
281
     1
  3
Normal
350
F
100
AcDbDictionaryWithDefault
340
F
  0
DICTIONARY
  5
2A
102
{ACAD_REACTORS
330
C
102
}
330
C
100
AcDbDictionary
281
     1
  3
2dWireframe
350
2F
  3
3D Hidden
350
31
  3
3dWireframe
350
30
  3
Basic
350
32
  3
Brighten
350
36
  3
ColorChange
350
3A
  3
Conceptual
350
34
  3
Dim
350
35
  3
Facepattern
350
39
  3
Flat
350
2B
  3
FlatWithEdges
350
2C
  3
Gouraud
350
2D
  3
GouraudWithEdges
350
2E
  3
Linepattern
350
38
  3
Realistic
350
33
  3
Thicken
350
37
  0
DICTIONARY
  5
6A1
102
{ACAD_REACTORS
330
C
102
}
330
C
100
AcDbDictionary
281
     1
  3
PSOLHEIGHT
350
6A5
  3
PSOLWIDTH
350
6A4
  0
LAYOUT
  5
1E
102
{ACAD_REACTORS
330
1A
102
}
330
1A
100
AcDbPlotSettings
  1

  2
none_device
  4

  6

 40
0.0
 41
0.0
 42
0.0
 43
0.0
 44
0.0
 45
0.0
 46
0.0
 47
0.0
 48
0.0
 49
0.0
140
0.0
141
0.0
142
1.0
143
1.0
 70
   688
 72
     0
 73
     0
 74
     5
  7

 75
    16
147
1.0
148
0.0
149
0.0
100
AcDbLayout
  1
Layout1
 70
     1
 71
     1
 10
0.0
 20
0.0
 11
12.0
 21
9.0
 12
0.0
 22
0.0
 32
0.0
 14
1.000000E+20
 24
1.000000E+20
 34
0.0
 15
-1.000000E+20
 25
-1.000000E+20
 35
0.0
146
0.0
 13
0.0
 23
0.0
 33
0.0
 16
1.0
 26
0.0
 36
0.0
 17
0.0
 27
1.0
 37
0.0
 76
     0
330
1B
  0
LAYOUT
  5
26
102
{ACAD_REACTORS
330
1A
102
}
330
1A
100
AcDbPlotSettings
  1

  2
none_device
  4

  6

 40
0.0
 41
0.0
 42
0.0
 43
0.0
 44
0.0
 45
0.0
 46
0.0
 47
0.0
 48
0.0
 49
0.0
140
0.0
141
0.0
142
1.0
143
1.0
 70
   688
 72
     0
 73
     0
 74
     5
  7

 75
    16
147
1.0
148
0.0
149
0.0
100
AcDbLayout
  1
Layout2
 70
     1
 71
     2
 10
0.0
 20
0.0
 11
0.0
 21
0.0
 12
0.0
 22
0.0
 32
0.0
 14
0.0
 24
0.0
 34
0.0
 15
0.0
 25
0.0
 35
0.0
146
0.0
 13
0.0
 23
0.0
 33
0.0
 16
1.0
 26
0.0
 36
0.0
 17
0.0
 27
1.0
 37
0.0
 76
     0
330
23
  0
LAYOUT
  5
22
102
{ACAD_REACTORS
330
1A
102
}
330
1A
100
AcDbPlotSettings
  1

  2
none_device
  4

  6

 40
0.0
 41
0.0
 42
0.0
 43
0.0
 44
0.0
 45
0.0
 46
0.0
 47
0.0
 48
0.0
 49
0.0
140
0.0
141
0.0
142
1.0
143
1.0
 70
  1712
 72
     0
 73
     0
 74
     0
  7

 75
     0
147
1.0
148
0.0
149
0.0
100
AcDbLayout
  1
Model
 70
     1
 71
     0
 10
0.0
 20
0.0
 11
12.0
 21
9.0
 12
0.0
 22
0.0
 32
0.0
 14
272.903748
 24
120.990234
 34
0.0
 15
2075.207031
 25
2551.738037
 35
0.0
146
0.0
 13
0.0
 23
0.0
 33
0.0
 16
1.0
 26
0.0
 36
0.0
 17
0.0
 27
1.0
 37
0.0
 76
     0
330
1F
331
29
  0
MLINESTYLE
  5
18
102
{ACAD_REACTORS
330
17
102
}
330
17
100
AcDbMlineStyle
  2
Standard
 70
     0
  3

 62
   256
 51
90.0
 52
90.0
 71
     2
 49
0.5
 62
   256
  6
BYLAYER
 49
-0.5
 62
   256
  6
BYLAYER
  0
ACDBPLACEHOLDER
  5
F
102
{ACAD_REACTORS
330
E
102
}
330
E
  0
VISUALSTYLE
  5
2F
102
{ACAD_REACTORS
330
2A
102
}
330
2A
100
AcDbVisualStyle
  2
2dWireframe
 70
     4
 71
     0
 72
     2
 73
     0
 90
        0
 40
-0.6
 41
-30.0
 62
     5
 63
     7
 74
     1
 91
        4
 64
     7
 65
   257
 75
     1
175
     1
 42
1.0
 92
        0
 66
   257
 43
1.0
 76
     1
 77
     6
 78
     2
 67
     7
 79
     5
170
     0
171
     0
290
     0
174
     0
 93
        1
 44
0.0
173
     0
291
     0
 45
0.0
1001
ACAD
1000
AcDbSavedByObjectVersion
1070
     0
  0
VISUALSTYLE
  5
31
102
{ACAD_REACTORS
330
2A
102
}
330
2A
100
AcDbVisualStyle
  2
3D Hidden
 70
     6
 71
     1
 72
     2
 73
     2
 90
        0
 40
-0.6
 41
-30.0
 62
     5
 63
     7
 74
     2
 91
        2
 64
     7
 65
   257
 75
     2
175
     1
 42
40.0
 92
        0
 66
   257
 43
1.0
 76
     1
 77
     6
 78
     2
 67
     7
 79
     3
170
     0
171
     0
290
     0
174
     0
 93
        1
 44
0.0
173
     0
291
     0
 45
0.0
1001
ACAD
1000
AcDbSavedByObjectVersion
1070
     0
  0
VISUALSTYLE
  5
30
102
{ACAD_REACTORS
330
2A
102
}
330
2A
100
AcDbVisualStyle
  2
3dWireframe
 70
     5
 71
     0
 72
     2
 73
     0
 90
        0
 40
-0.6
 41
-30.0
 62
     5
 63
     7
 74
     1
 91
        4
 64
     7
 65
   257
 75
     1
175
     1
 42
1.0
 92
        0
 66
   257
 43
1.0
 76
     1
 77
     6
 78
     2
 67
     7
 79
     5
170
     0
171
     0
290
     0
174
     0
 93
        1
 44
0.0
173
     0
291
     0
 45
0.0
1001
ACAD
1000
AcDbSavedByObjectVersion
1070
     0
  0
VISUALSTYLE
  5
32
102
{ACAD_REACTORS
330
2A
102
}
330
2A
100
AcDbVisualStyle
  2
Basic
 70
     7
 71
     1
 72
     0
 73
     1
 90
        0
 40
-0.6
 41
-30.0
 62
     5
 63
     7
 74
     0
 91
        4
 64
     7
 65
   257
 75
     1
175
     1
 42
1.0
 92
        8
 66
     7
 43
1.0
 76
     1
 77
     6
 78
     2
 67
     7
 79
     5
170
     0
171
     0
290
     0
174
     0
 93
        1
 44
0.0
173
     0
291
     1
 45
0.0
1001
ACAD
1000
AcDbSavedByObjectVersion
1070
     0
  0
VISUALSTYLE
  5
36
102
{ACAD_REACTORS
330
2A
102
}
330
2A
100
AcDbVisualStyle
  2
Brighten
 70
    12
 71
     2
 72
     2
 73
     0
 90
        0
 40
-0.6
 41
-30.0
 62
     5
 63
     7
 74
     1
 91
        4
 64
     7
 65
   257
 75
     1
175
     1
 42
1.0
 92
        8
 66
     7
 43
1.0
 76
     1
 77
     6
 78
     2
 67
     7
 79
     5
170
     0
171
     0
290
     0
174
     0
 93
        1
 44
50.0
173
     0
291
     1
 45
0.0
1001
ACAD
1000
AcDbSavedByObjectVersion
1070
     0
  0
VISUALSTYLE
  5
3A
102
{ACAD_REACTORS
330
2A
102
}
330
2A
100
AcDbVisualStyle
  2
ColorChange
 70
    16
 71
     2
 72
     2
 73
     3
 90
        0
 40
-0.6
 41
-30.0
 62
     5
 63
     8
 74
     1
 91
        4
 64
     7
 65
   257
 75
     1
175
     1
 42
1.0
 92
        8
 66
     8
 43
1.0
 76
     1
 77
     6
 78
     2
 67
     7
 79
     5
170
     0
171
     0
290
     0
174
     0
 93
        1
 44
0.0
173
     0
291
     1
 45
0.0
1001
ACAD
1000
AcDbSavedByObjectVersion
1070
     0
  0
VISUALSTYLE
  5
34
102
{ACAD_REACTORS
330
2A
102
}
330
2A
100
AcDbVisualStyle
  2
Conceptual
 70
     9
 71
     3
 72
     2
 73
     0
 90
        0
 40
-0.6
 41
-30.0
 62
     5
 63
     7
 74
     2
 91
        2
 64
     7
 65
   257
 75
     1
175
     1
 42
40.0
 92
        8
 66
     7
 43
1.0
 76
     1
 77
     6
 78
     2
 67
     7
 79
     3
170
     0
171
     0
290
     0
174
     0
 93
        1
 44
0.0
173
     0
291
     0
 45
0.0
1001
ACAD
1000
AcDbSavedByObjectVersion
1070
     0
  0
VISUALSTYLE
  5
35
102
{ACAD_REACTORS
330
2A
102
}
330
2A
100
AcDbVisualStyle
  2
Dim
 70
    11
 71
     2
 72
     2
 73
     0
 90
        0
 40
-0.6
 41
-30.0
 62
     5
 63
     7
 74
     1
 91
        4
 64
     7
 65
   257
 75
     1
175
     1
 42
1.0
 92
        8
 66
     7
 43
1.0
 76
     1
 77
     6
 78
     2
 67
     7
 79
     5
170
     0
171
     0
290
     0
174
     0
 93
        1
 44
-50.0
173
     0
291
     1
 45
0.0
1001
ACAD
1000
AcDbSavedByObjectVersion
1070
     0
  0
VISUALSTYLE
  5
39
102
{ACAD_REACTORS
330
2A
102
}
330
2A
100
AcDbVisualStyle
  2
Facepattern
 70
    15
 71
     2
 72
     2
 73
     0
 90
        0
 40
-0.6
 41
-30.0
 62
     5
 63
     7
 74
     1
 91
        4
 64
     7
 65
   257
 75
     1
175
     1
 42
1.0
 92
        8
 66
     7
 43
1.0
 76
     1
 77
     6
 78
     2
 67
     7
 79
     5
170
     0
171
     0
290
     0
174
     0
 93
        1
 44
0.0
173
     0
291
     1
 45
0.0
1001
ACAD
1000
AcDbSavedByObjectVersion
1070
     0
  0
VISUALSTYLE
  5
2B
102
{ACAD_REACTORS
330
2A
102
}
330
2A
100
AcDbVisualStyle
  2
Flat
 70
     0
 71
     2
 72
     1
 73
     1
 90
        2
 40
-0.6
 41
30.0
 62
     5
 63
     7
 74
     0
 91
        4
 64
     7
 65
   257
 75
     1
175
     1
 42
1.0
 92
        8
 66
     7
 43
1.0
 76
     1
 77
     6
 78
     2
 67
     7
 79
     5
170
     0
171
     0
290
     0
174
     0
 93
       13
 44
0.0
173
     0
291
     1
 45
0.0
1001
ACAD
1000
AcDbSavedByObjectVersion
1070
     0
  0
VISUALSTYLE
  5
2C
102
{ACAD_REACTORS
330
2A
102
}
330
2A
100
AcDbVisualStyle
  2
FlatWithEdges
 70
     1
 71
     2
 72
     1
 73
     1
 90
        2
 40
-0.6
 41
30.0
 62
     5
 63
     7
 74
     1
 91
        4
 64
     7
 65
   257
 75
     1
175
     1
 42
1.0
 92
        0
 66
   257
 43
1.0
 76
     1
 77
     6
 78
     2
 67
     7
 79
     5
170
     0
171
     0
290
     0
174
     0
 93
       13
 44
0.0
173
     0
291
     1
 45
0.0
1001
ACAD
1000
AcDbSavedByObjectVersion
1070
     0
  0
VISUALSTYLE
  5
2D
102
{ACAD_REACTORS
330
2A
102
}
330
2A
100
AcDbVisualStyle
  2
Gouraud
 70
     2
 71
     2
 72
     2
 73
     1
 90
        2
 40
-0.6
 41
30.0
 62
     5
 63
     7
 74
     0
 91
        4
 64
     7
 65
   257
 75
     1
175
     1
 42
1.0
 92
        0
 66
     7
 43
1.0
 76
     1
 77
     6
 78
     2
 67
     7
 79
     5
170
     0
171
     0
290
     0
174
     0
 93
       13
 44
0.0
173
     0
291
     1
 45
0.0
1001
ACAD
1000
AcDbSavedByObjectVersion
1070
     0
  0
VISUALSTYLE
  5
2E
102
{ACAD_REACTORS
330
2A
102
}
330
2A
100
AcDbVisualStyle
  2
GouraudWithEdges
 70
     3
 71
     2
 72
     2
 73
     1
 90
        2
 40
-0.6
 41
30.0
 62
     5
 63
     7
 74
     1
 91
        4
 64
     7
 65
   257
 75
     1
175
     1
 42
1.0
 92
        0
 66
   257
 43
1.0
 76
     1
 77
     6
 78
     2
 67
     7
 79
     5
170
     0
171
     0
290
     0
174
     0
 93
       13
 44
0.0
173
     0
291
     1
 45
0.0
1001
ACAD
1000
AcDbSavedByObjectVersion
1070
     0
  0
VISUALSTYLE
  5
38
102
{ACAD_REACTORS
330
2A
102
}
330
2A
100
AcDbVisualStyle
  2
Linepattern
 70
    14
 71
     2
 72
     2
 73
     0
 90
        0
 40
-0.6
 41
-30.0
 62
     5
 63
     7
 74
     1
 91
        4
 64
     7
 65
   257
 75
     7
175
     7
 42
1.0
 92
        8
 66
     7
 43
1.0
 76
     1
 77
     6
 78
     2
 67
     7
 79
     5
170
     0
171
     0
290
     0
174
     0
 93
        1
 44
0.0
173
     0
291
     1
 45
0.0
1001
ACAD
1000
AcDbSavedByObjectVersion
1070
     0
  0
VISUALSTYLE
  5
33
102
{ACAD_REACTORS
330
2A
102
}
330
2A
100
AcDbVisualStyle
  2
Realistic
 70
     8
 71
     2
 72
     2
 73
     0
 90
        0
 40
-0.6
 41
-30.0
 62
     5
 63
     7
 74
     1
 91
        0
 64
     7
 65
   257
 75
     1
175
     1
 42
1.0
 92
        8
 66
     8
 43
1.0
 76
     1
 77
     6
 78
     2
 67
     7
 79
     5
170
     0
171
     0
290
     0
174
     0
 93
       13
 44
0.0
173
     0
291
     0
 45
0.0
1001
ACAD
1000
AcDbSavedByObjectVersion
1070
     0
  0
VISUALSTYLE
  5
37
102
{ACAD_REACTORS
330
2A
102
}
330
2A
100
AcDbVisualStyle
  2
Thicken
 70
    13
 71
     2
 72
     2
 73
     0
 90
        0
 40
-0.6
 41
-30.0
 62
     5
 63
     7
 74
     1
 91
        4
 64
     7
 65
   257
 75
     1
175
     1
 42
1.0
 92
       12
 66
     7
 43
1.0
 76
     1
 77
     6
 78
     2
 67
     7
 79
     5
170
     0
171
     0
290
     0
174
     0
 93
        1
 44
0.0
173
     0
291
     1
 45
0.0
1001
ACAD
1000
AcDbSavedByObjectVersion
1070
     0
  0
DICTIONARYVAR
  5
6A5
102
{ACAD_REACTORS
330
6A1
102
}
330
6A1
100
DictionaryVariables
280
     0
  1
80.000000
  0
DICTIONARYVAR
  5
6A4
102
{ACAD_REACTORS
330
6A1
102
}
330
6A1
100
DictionaryVariables
280
     0
  1
5.000000
  0
ENDSEC
  0
EOF
