  0
SECTION
  2
HEADER
  9
$ACADVER
  1
AC1015
  9
$ACADMAINTVER
 70
     6
  9
$DWGCODEPAGE
  3
ANSI_932
  9
$INSBASE
 10
0.0
 20
0.0
 30
0.0
  9
$EXTMIN
 10
180.54248
 20
123.21521
 30
0.0
  9
$EXTMAX
 10
3057.787842
 20
4134.141602
 30
0.0
  9
$LIMMIN
 10
0.0
 20
0.0
  9
$LIMMAX
 10
12.0
 20
9.0
  9
$ORTHOMODE
 70
     0
  9
$REGENMODE
 70
     1
  9
$FILLMODE
 70
     1
  9
$QTEXTMODE
 70
     0
  9
$MIRRTEXT
 70
     1
  9
$LTSCALE
 40
49.362001
  9
$ATTMODE
 70
     1
  9
$TEXTSIZE
 40
3.2
  9
$TRACEWID
 40
1.0
  9
$TEXTSTYLE
  7
Standard
  9
$CLAYER
  8
0
  9
$CELTYPE
  6
ByLayer
  9
$CECOLOR
 62
   256
  9
$CELTSCALE
 40
1.0
  9
$DISPSILH
 70
     0
  9
$DIMSCALE
 40
1.0
  9
$DIMASZ
 40
2.5
  9
$DIMEXO
 40
0.625
  9
$DIMDLI
 40
3.75
  9
$DIMRND
 40
0.0
  9
$DIMDLE
 40
0.0
  9
$DIMEXE
 40
1.25
  9
$DIMTP
 40
0.0
  9
$DIMTM
 40
0.0
  9
$DIMTXT
 40
2.5
  9
$DIMCEN
 40
0.09
  9
$DIMTSZ
 40
0.0
  9
$DIMTOL
 70
     0
  9
$DIMLIM
 70
     0
  9
$DIMTIH
 70
     0
  9
$DIMTOH
 70
     0
  9
$DIMSE1
 70
     0
  9
$DIMSE2
 70
     0
  9
$DIMTAD
 70
     0
  9
$DIMZIN
 70
     8
  9
$DIMBLK
  1

  9
$DIMASO
 70
     1
  9
$DIMSHO
 70
     0
  9
$DIMPOST
  1

  9
$DIMAPOST
  1

  9
$DIMALT
 70
     0
  9
$DIMALTD
 70
     3
  9
$DIMALTF
 40
0.03937
  9
$DIMLFAC
 40
1.0
  9
$DIMTOFL
 70
     1
  9
$DIMTVP
 40
0.0
  9
$DIMTIX
 70
     0
  9
$DIMSOXD
 70
     0
  9
$DIMSAH
 70
     0
  9
$DIMBLK1
  1

  9
$DIMBLK2
  1

  9
$DIMSTYLE
  2
ISO-25
  9
$DIMCLRD
 70
     0
  9
$DIMCLRE
 70
     0
  9
$DIMCLRT
 70
     0
  9
$DIMTFAC
 40
1.0
  9
$DIMGAP
 40
0.625
  9
$DIMJUST
 70
     0
  9
$DIMSD1
 70
     0
  9
$DIMSD2
 70
     0
  9
$DIMTOLJ
 70
     0
  9
$DIMTZIN
 70
     8
  9
$DIMALTZ
 70
     0
  9
$DIMALTTZ
 70
     0
  9
$DIMUPT
 70
     0
  9
$DIMDEC
 70
     2
  9
$DIMTDEC
 70
     2
  9
$DIMALTU
 70
     2
  9
$DIMALTTD
 70
     3
  9
$DIMTXSTY
  7
Standard
  9
$DIMAUNIT
 70
     0
  9
$DIMADEC
 70
     0
  9
$DIMALTRND
 40
0.0
  9
$DIMAZIN
 70
     0
  9
$DIMDSEP
 70
    44
  9
$DIMATFIT
 70
     3
  9
$DIMFRAC
 70
     0
  9
$DIMLDRBLK
  1

  9
$DIMLUNIT
 70
     2
  9
$DIMLWD
 70
    -2
  9
$DIMLWE
 70
    -2
  9
$DIMTMOVE
 70
     0
  9
$LUNITS
 70
     2
  9
$LUPREC
 70
     4
  9
$SKETCHINC
 40
1.0
  9
$FILLETRAD
 40
0.0
  9
$AUNITS
 70
     0
  9
$AUPREC
 70
     0
  9
$MENU
  1
.
  9
$ELEVATION
 40
0.0
  9
$PELEVATION
 40
0.0
  9
$THICKNESS
 40
0.0
  9
$LIMCHECK
 70
     0
  9
$CHAMFERA
 40
10.0
  9
$CHAMFERB
 40
10.0
  9
$CHAMFERC
 40
20.0
  9
$CHAMFERD
 40
0.0
  9
$SKPOLY
 70
     0
  9
$TDCREATE
 40
2455649.653331343
  9
$TDUCREATE
 40
2455649.278331343
  9
$TDUPDATE
 40
2455649.653331354
  9
$TDUUPDATE
 40
2455649.278331354
  9
$TDINDWG
 40
0.0000000116
  9
$TDUSRTIMER
 40
0.0000000116
  9
$USRTIMER
 70
     1
  9
$ANGBASE
 50
0.0
  9
$ANGDIR
 70
     0
  9
$PDMODE
 70
     0
  9
$PDSIZE
 40
0.0
  9
$PLINEWID
 40
0.0
  9
$SPLFRAME
 70
     0
  9
$SPLINETYPE
 70
     6
  9
$SPLINESEGS
 70
     8
  9
$HANDSEED
  5
700
  9
$SURFTAB1
 70
     6
  9
$SURFTAB2
 70
     6
  9
$SURFTYPE
 70
     6
  9
$SURFU
 70
     6
  9
$SURFV
 70
     6
  9
$UCSBASE
  2

  9
$UCSNAME
  2

  9
$UCSORG
 10
0.0
 20
0.0
 30
0.0
  9
$UCSXDIR
 10
1.0
 20
0.0
 30
0.0
  9
$UCSYDIR
 10
0.0
 20
1.0
 30
0.0
  9
$UCSORTHOREF
  2

  9
$UCSORTHOVIEW
 70
     0
  9
$UCSORGTOP
 10
0.0
 20
0.0
 30
0.0
  9
$UCSORGBOTTOM
 10
0.0
 20
0.0
 30
0.0
  9
$UCSORGLEFT
 10
0.0
 20
0.0
 30
0.0
  9
$UCSORGRIGHT
 10
0.0
 20
0.0
 30
0.0
  9
$UCSORGFRONT
 10
0.0
 20
0.0
 30
0.0
  9
$UCSORGBACK
 10
0.0
 20
0.0
 30
0.0
  9
$PUCSBASE
  2

  9
$PUCSNAME
  2

  9
$PUCSORG
 10
0.0
 20
0.0
 30
0.0
  9
$PUCSXDIR
 10
1.0
 20
0.0
 30
0.0
  9
$PUCSYDIR
 10
0.0
 20
1.0
 30
0.0
  9
$PUCSORTHOREF
  2

  9
$PUCSORTHOVIEW
 70
     0
  9
$PUCSORGTOP
 10
0.0
 20
0.0
 30
0.0
  9
$PUCSORGBOTTOM
 10
0.0
 20
0.0
 30
0.0
  9
$PUCSORGLEFT
 10
0.0
 20
0.0
 30
0.0
  9
$PUCSORGRIGHT
 10
0.0
 20
0.0
 30
0.0
  9
$PUCSORGFRONT
 10
0.0
 20
0.0
 30
0.0
  9
$PUCSORGBACK
 10
0.0
 20
0.0
 30
0.0
  9
$USERI1
 70
     0
  9
$USERI2
 70
     0
  9
$USERI3
 70
     0
  9
$USERI4
 70
     0
  9
$USERI5
 70
     0
  9
$USERR1
 40
0.0
  9
$USERR2
 40
0.0
  9
$USERR3
 40
0.0
  9
$USERR4
 40
0.0
  9
$USERR5
 40
0.0
  9
$WORLDVIEW
 70
     1
  9
$SHADEDGE
 70
     3
  9
$SHADEDIF
 70
    70
  9
$TILEMODE
 70
     1
  9
$MAXACTVP
 70
    64
  9
$PINSBASE
 10
0.0
 20
0.0
 30
0.0
  9
$PLIMCHECK
 70
     0
  9
$PEXTMIN
 10
1.000000E+20
 20
1.000000E+20
 30
0.0
  9
$PEXTMAX
 10
-1.000000E+20
 20
-1.000000E+20
 30
0.0
  9
$PLIMMIN
 10
0.0
 20
0.0
  9
$PLIMMAX
 10
12.0
 20
9.0
  9
$UNITMODE
 70
     0
  9
$VISRETAIN
 70
     1
  9
$PLINEGEN
 70
     0
  9
$PSLTSCALE
 70
     1
  9
$TREEDEPTH
 70
  3020
  9
$CMLSTYLE
  2
Standard
  9
$CMLJUST
 70
     0
  9
$CMLSCALE
 40
20.0
  9
$PROXYGRAPHICS
 70
     1
  9
$MEASUREMENT
 70
     1
  9
$CELWEIGHT
370
    -1
  9
$ENDCAPS
280
     0
  9
$JOINSTYLE
280
     0
  9
$LWDISPLAY
290
     0
  9
$INSUNITS
 70
     4
  9
$HYPERLINKBASE
  1

  9
$STYLESHEET
  1

  9
$XEDIT
290
     1
  9
$CEPSNTYPE
380
     0
  9
$PSTYLEMODE
290
     1
  9
$FINGERPRINTGUID
  2
{E99CCC16-D63E-4D49-A9B5-015173942A26}
  9
$VERSIONGUID
  2
{FAEB1C32-E019-11D5-929B-00C0DF256EC4}
  9
$EXTNAMES
290
     1
  9
$PSVPSCALE
 40
0.0
  9
$OLESTARTUP
290
     0
  0
ENDSEC
  0
SECTION
  2
CLASSES
  0
CLASS
  1
ACDBDICTIONARYWDFLT
  2
AcDbDictionaryWithDefault
  3
ObjectDBX Classes
 90
        0
280
     0
281
     0
  0
CLASS
  1
VISUALSTYLE
  2
AcDbVisualStyle
  3
ObjectDBX Classes
 90
     4095
280
     0
281
     0
  0
CLASS
  1
DICTIONARYVAR
  2
AcDbDictionaryVar
  3
ObjectDBX Classes
 90
        0
280
     0
281
     0
  0
CLASS
  1
ACDBPLACEHOLDER
  2
AcDbPlaceHolder
  3
ObjectDBX Classes
 90
        0
280
     0
281
     0
  0
CLASS
  1
LAYOUT
  2
AcDbLayout
  3
ObjectDBX Classes
 90
        0
280
     0
281
     0
  0
ENDSEC
  0
SECTION
  2
TABLES
  0
TABLE
  2
VPORT
  5
8
330
0
100
AcDbSymbolTable
 70
     1
  0
VPORT
  5
29
330
8
100
AcDbSymbolTableRecord
100
AcDbViewportTableRecord
  2
*Active
 70
     0
 10
0.0
 20
0.0
 11
1.0
 21
1.0
 12
1619.165161
 22
2128.678406
 13
0.0
 23
0.0
 14
1.0
 24
1.0
 15
0.0
 25
0.0
 16
0.0
 26
0.0
 36
1.0
 17
0.0
 27
0.0
 37
0.0
 40
4051.035656
 41
1.691288
 42
50.0
 43
0.0
 44
0.0
 50
0.0
 51
0.0
 71
     0
 72
   100
 73
     1
 74
     3
 75
     0
 76
     0
 77
     0
 78
     0
281
     0
 65
     1
110
0.0
120
0.0
130
0.0
111
1.0
121
0.0
131
0.0
112
0.0
122
1.0
132
0.0
 79
     0
146
0.0
  0
ENDTAB
  0
TABLE
  2
LTYPE
  5
5
330
0
100
AcDbSymbolTable
 70
     5
  0
LTYPE
  5
14
330
5
100
AcDbSymbolTableRecord
100
AcDbLinetypeTableRecord
  2
ByBlock
 70
     0
  3

 72
    65
 73
     0
 40
0.0
  0
LTYPE
  5
15
330
5
100
AcDbSymbolTableRecord
100
AcDbLinetypeTableRecord
  2
ByLayer
 70
     0
  3

 72
    65
 73
     0
 40
0.0
  0
LTYPE
  5
16
330
5
100
AcDbSymbolTableRecord
100
AcDbLinetypeTableRecord
  2
Continuous
 70
     0
  3
Solid line
 72
    65
 73
     0
 40
0.0
  0
LTYPE
  5
3B
330
5
100
AcDbSymbolTableRecord
100
AcDbLinetypeTableRecord
  2
DASHED
 70
     0
  3
DASHED
 72
    83
 73
     2
 40
0.75
 49
0.5
 74
     0
 49
-0.25
 74
     0
  0
LTYPE
  5
3C
330
5
100
AcDbSymbolTableRecord
100
AcDbLinetypeTableRecord
  2
HIDDEN
 70
     0
  3
HIDDEN
 72
    83
 73
     2
 40
0.375
 49
0.25
 74
     0
 49
-0.125
 74
     0
  0
LTYPE
  5
3D
330
5
100
AcDbSymbolTableRecord
100
AcDbLinetypeTableRecord
  2
CENTER
 70
     0
  3
CENTER
 72
    83
 73
     4
 40
2.0
 49
1.25
 74
     0
 49
-0.25
 74
     0
 49
0.25
 74
     0
 49
-0.25
 74
     0
  0
LTYPE
  5
3E
330
5
100
AcDbSymbolTableRecord
100
AcDbLinetypeTableRecord
  2
PHANTOM
 70
     0
  3
PHANTOM
 72
    83
 73
     6
 40
2.5
 49
1.25
 74
     0
 49
-0.25
 74
     0
 49
0.25
 74
     0
 49
-0.25
 74
     0
 49
0.25
 74
     0
 49
-0.25
 74
     0
  0
ENDTAB
  0
TABLE
  2
LAYER
  5
2
330
0
100
AcDbSymbolTable
 70
     5
  0
LAYER
  5
10
330
2
100
AcDbSymbolTableRecord
100
AcDbLayerTableRecord
  2
0
 70
     0
 62
     7
  6
Continuous
370
    -3
390
F
  0
LAYER
  5
3F
330
2
100
AcDbSymbolTableRecord
100
AcDbLayerTableRecord
  2
001
 70
     0
 62
     7
  6
Continuous
370
    -3
390
F
  0
LAYER
  5
40
330
2
100
AcDbSymbolTableRecord
100
AcDbLayerTableRecord
  2
002
 70
     0
 62
     7
  6
Continuous
370
    -3
390
F
  0
LAYER
  5
41
330
2
100
AcDbSymbolTableRecord
100
AcDbLayerTableRecord
  2
003
 70
     0
 62
     7
  6
Continuous
370
    -3
390
F
  0
LAYER
  5
42
330
2
100
AcDbSymbolTableRecord
100
AcDbLayerTableRecord
  2
004
 70
     0
 62
     7
  6
Continuous
370
    -3
390
F
  0
ENDTAB
  0
TABLE
  2
STYLE
  5
3
330
0
100
AcDbSymbolTable
 70
     2
  0
STYLE
  5
11
330
3
100
AcDbSymbolTableRecord
100
AcDbTextStyleTableRecord
  2
Standard
 70
     0
 40
0.0
 41
1.0
 50
0.0
 71
     0
 42
0.2
  3
TXT
  4
BIGFONT
  0
STYLE
  5
43
330
3
100
AcDbSymbolTableRecord
100
AcDbTextStyleTableRecord
  2
TATEGAKI
 70
     4
 40
1.0
 41
1.0
 50
0.0
 71
     0
 42
0.2
  3
TXT
  4
BIGFONT
  0
ENDTAB
  0
TABLE
  2
VIEW
  5
6
330
0
100
AcDbSymbolTable
 70
     0
  0
ENDTAB
  0
TABLE
  2
UCS
  5
7
330
0
100
AcDbSymbolTable
 70
     0
  0
ENDTAB
  0
TABLE
  2
APPID
  5
9
330
0
100
AcDbSymbolTable
 70
     1
  0
APPID
  5
12
330
9
100
AcDbSymbolTableRecord
100
AcDbRegAppTableRecord
  2
ACAD
 70
     0
  0
ENDTAB
  0
TABLE
  2
DIMSTYLE
  5
A
330
0
100
AcDbSymbolTable
 70
     2
100
AcDbDimStyleTable
  0
DIMSTYLE
105
27
330
A
100
AcDbSymbolTableRecord
100
AcDbDimStyleTableRecord
  2
ISO-25
 70
     0
 41
2.5
 42
0.625
 43
3.75
 44
1.25
 73
     0
 74
     0
 77
     1
 78
     8
140
2.5
141
2.5
143
0.03937
147
0.625
171
     3
172
     1
271
     2
272
     2
274
     3
278
    44
283
     0
284
     8
340
11
  0
DIMSTYLE
105
44
330
A
100
AcDbSymbolTableRecord
100
AcDbDimStyleTableRecord
  2
Standard
 70
     0
 41
3.0
 42
0.5
 44
0.7
 73
     0
 74
     0
 77
     1
 78
     8
 79
     2
140
4.0
146
0.65
147
1.0
172
     1
179
     3
271
     3
283
     2
340
11
  0
ENDTAB
  0
TABLE
  2
BLOCK_RECORD
  5
1
330
0
100
AcDbSymbolTable
 70
    37
  0
BLOCK_RECORD
  5
1F
330
1
100
AcDbSymbolTableRecord
100
AcDbBlockTableRecord
  2
*Model_Space
340
22
  0
BLOCK_RECORD
  5
1B
330
1
100
AcDbSymbolTableRecord
100
AcDbBlockTableRecord
  2
*Paper_Space
340
1E
  0
BLOCK_RECORD
  5
23
330
1
100
AcDbSymbolTableRecord
100
AcDbBlockTableRecord
  2
*Paper_Space0
340
26
  0
BLOCK_RECORD
  5
45
330
1
100
AcDbSymbolTableRecord
100
AcDbBlockTableRecord
  2
JZB-1
340
0
102
{BLKREFS
331
1C9
102
}
  0
BLOCK_RECORD
  5
56
330
1
100
AcDbSymbolTableRecord
100
AcDbBlockTableRecord
  2
JZB-2
340
0
102
{BLKREFS
331
1CA
102
}
  0
BLOCK_RECORD
  5
67
330
1
100
AcDbSymbolTableRecord
100
AcDbBlockTableRecord
  2
JZB-3
340
0
102
{BLKREFS
331
1CB
102
}
  0
BLOCK_RECORD
  5
78
330
1
100
AcDbSymbolTableRecord
100
AcDbBlockTableRecord
  2
JZB-4
340
0
102
{BLKREFS
331
1CC
102
}
  0
BLOCK_RECORD
  5
89
330
1
100
AcDbSymbolTableRecord
100
AcDbBlockTableRecord
  2
JZB-5
340
0
102
{BLKREFS
331
1CD
102
}
  0
BLOCK_RECORD
  5
93
330
1
100
AcDbSymbolTableRecord
100
AcDbBlockTableRecord
  2
JZB-6
340
0
102
{BLKREFS
331
1CE
102
}
  0
BLOCK_RECORD
  5
9D
330
1
100
AcDbSymbolTableRecord
100
AcDbBlockTableRecord
  2
JZB-7
340
0
102
{BLKREFS
331
1CF
102
}
  0
BLOCK_RECORD
  5
A7
330
1
100
AcDbSymbolTableRecord
100
AcDbBlockTableRecord
  2
JZB-8
340
0
102
{BLKREFS
331
1D0
102
}
  0
BLOCK_RECORD
  5
B1
330
1
100
AcDbSymbolTableRecord
100
AcDbBlockTableRecord
  2
JZB-9
340
0
102
{BLKREFS
331
1D1
102
}
  0
BLOCK_RECORD
  5
BB
330
1
100
AcDbSymbolTableRecord
100
AcDbBlockTableRecord
  2
JZB-10
340
0
102
{BLKREFS
331
1D2
102
}
  0
BLOCK_RECORD
  5
C5
330
1
100
AcDbSymbolTableRecord
100
AcDbBlockTableRecord
  2
JZB-11
340
0
102
{BLKREFS
331
1D3
102
}
  0
BLOCK_RECORD
  5
CF
330
1
100
AcDbSymbolTableRecord
100
AcDbBlockTableRecord
  2
JZB-12
340
0
102
{BLKREFS
331
1D4
102
}
  0
BLOCK_RECORD
  5
D9
330
1
100
AcDbSymbolTableRecord
100
AcDbBlockTableRecord
  2
JZB-13
340
0
102
{BLKREFS
331
1D5
102
}
  0
BLOCK_RECORD
  5
E3
330
1
100
AcDbSymbolTableRecord
100
AcDbBlockTableRecord
  2
JZB-14
340
0
102
{BLKREFS
331
1D6
102
}
  0
BLOCK_RECORD
  5
ED
330
1
100
AcDbSymbolTableRecord
100
AcDbBlockTableRecord
  2
JZB-15
340
0
102
{BLKREFS
331
1D7
102
}
  0
BLOCK_RECORD
  5
F7
330
1
100
AcDbSymbolTableRecord
100
AcDbBlockTableRecord
  2
JZB-16
340
0
102
{BLKREFS
331
1D8
102
}
  0
BLOCK_RECORD
  5
101
330
1
100
AcDbSymbolTableRecord
100
AcDbBlockTableRecord
  2
JZB-17
340
0
102
{BLKREFS
331
1D9
102
}
  0
BLOCK_RECORD
  5
10B
330
1
100
AcDbSymbolTableRecord
100
AcDbBlockTableRecord
  2
JZB-18
340
0
102
{BLKREFS
331
1DA
102
}
  0
BLOCK_RECORD
  5
115
330
1
100
AcDbSymbolTableRecord
100
AcDbBlockTableRecord
  2
JZB-19
340
0
102
{BLKREFS
331
1DB
102
}
  0
BLOCK_RECORD
  5
11F
330
1
100
AcDbSymbolTableRecord
100
AcDbBlockTableRecord
  2
JZB-20
340
0
102
{BLKREFS
331
1DC
102
}
  0
BLOCK_RECORD
  5
129
330
1
100
AcDbSymbolTableRecord
100
AcDbBlockTableRecord
  2
JZB-21
340
0
102
{BLKREFS
331
1DD
102
}
  0
BLOCK_RECORD
  5
133
330
1
100
AcDbSymbolTableRecord
100
AcDbBlockTableRecord
  2
JZB-22
340
0
102
{BLKREFS
331
1DE
102
}
  0
BLOCK_RECORD
  5
13D
330
1
100
AcDbSymbolTableRecord
100
AcDbBlockTableRecord
  2
JZB-23
340
0
102
{BLKREFS
331
1DF
102
}
  0
BLOCK_RECORD
  5
147
330
1
100
AcDbSymbolTableRecord
100
AcDbBlockTableRecord
  2
JZB-24
340
0
102
{BLKREFS
331
1E0
102
}
  0
BLOCK_RECORD
  5
151
330
1
100
AcDbSymbolTableRecord
100
AcDbBlockTableRecord
  2
JZB-25
340
0
102
{BLKREFS
331
1E1
102
}
  0
BLOCK_RECORD
  5
15B
330
1
100
AcDbSymbolTableRecord
100
AcDbBlockTableRecord
  2
JZB-26
340
0
102
{BLKREFS
331
1E2
102
}
  0
BLOCK_RECORD
  5
165
330
1
100
AcDbSymbolTableRecord
100
AcDbBlockTableRecord
  2
JZB-27
340
0
102
{BLKREFS
331
1E3
102
}
  0
BLOCK_RECORD
  5
16F
330
1
100
AcDbSymbolTableRecord
100
AcDbBlockTableRecord
  2
JZB-28
340
0
102
{BLKREFS
331
1E4
102
}
  0
BLOCK_RECORD
  5
179
330
1
100
AcDbSymbolTableRecord
100
AcDbBlockTableRecord
  2
JZB-29
340
0
102
{BLKREFS
331
1E5
102
}
  0
BLOCK_RECORD
  5
183
330
1
100
AcDbSymbolTableRecord
100
AcDbBlockTableRecord
  2
JZB-30
340
0
102
{BLKREFS
331
1E6
102
}
  0
BLOCK_RECORD
  5
18D
330
1
100
AcDbSymbolTableRecord
100
AcDbBlockTableRecord
  2
JZB-31
340
0
102
{BLKREFS
331
1E7
102
}
  0
BLOCK_RECORD
  5
197
330
1
100
AcDbSymbolTableRecord
100
AcDbBlockTableRecord
  2
JZB-32
340
0
102
{BLKREFS
331
1E8
102
}
  0
BLOCK_RECORD
  5
1A1
330
1
100
AcDbSymbolTableRecord
100
AcDbBlockTableRecord
  2
JZB-33
340
0
102
{BLKREFS
331
1E9
102
}
  0
BLOCK_RECORD
  5
1AB
330
1
100
AcDbSymbolTableRecord
100
AcDbBlockTableRecord
  2
JZB-34
340
0
102
{BLKREFS
331
1EA
102
}
  0
BLOCK_RECORD
  5
1B5
330
1
100
AcDbSymbolTableRecord
100
AcDbBlockTableRecord
  2
JZB-35
340
0
102
{BLKREFS
331
1EB
102
}
  0
BLOCK_RECORD
  5
1BF
330
1
100
AcDbSymbolTableRecord
100
AcDbBlockTableRecord
  2
JZB-36
340
0
102
{BLKREFS
331
1EC
102
}
  0
ENDTAB
  0
ENDSEC
  0
SECTION
  2
BLOCKS
  0
BLOCK
  5
20
330
1F
100
AcDbEntity
  8
0
100
AcDbBlockBegin
  2
*Model_Space
 70
     0
 10
0.0
 20
0.0
 30
0.0
  3
*Model_Space
  1

  0
ENDBLK
  5
21
330
1F
100
AcDbEntity
  8
0
100
AcDbBlockEnd
  0
BLOCK
  5
1C
330
1B
100
AcDbEntity
 67
     1
  8
0
100
AcDbBlockBegin
  2
*Paper_Space
 70
     0
 10
0.0
 20
0.0
 30
0.0
  3
*Paper_Space
  1

  0
ENDBLK
  5
1D
330
1B
100
AcDbEntity
 67
     1
  8
0
100
AcDbBlockEnd
  0
BLOCK
  5
24
330
23
100
AcDbEntity
  8
0
100
AcDbBlockBegin
  2
*Paper_Space0
 70
     0
 10
0.0
 20
0.0
 30
0.0
  3
*Paper_Space0
  1

  0
ENDBLK
  5
25
330
23
100
AcDbEntity
  8
0
100
AcDbBlockEnd
  0
BLOCK
  5
46
330
45
100
AcDbEntity
  8
0
100
AcDbBlockBegin
  2
JZB-1
 70
     0
 10
0.0
 20
0.0
 30
0.0
  3
JZB-1
  1

  0
LINE
  5
48
330
45
100
AcDbEntity
  8
004
 62
     3
370
    30
100
AcDbLine
 10
553.613381
 20
4007.010606
 30
0.0
 11
545.707174
 21
4007.010606
 31
0.0
  0
LINE
  5
49
330
45
100
AcDbEntity
  8
004
 62
     3
370
    30
100
AcDbLine
 10
537.188381
 20
4010.824046
 30
0.0
 11
537.188381
 21
4013.884762
 31
0.0
  0
LINE
  5
4A
330
45
100
AcDbEntity
  8
004
 62
     3
370
    30
100
AcDbLine
 10
531.713381
 20
4013.884762
 30
0.0
 11
531.713381
 21
4013.04286
 31
0.0
  0
LINE
  5
4B
330
45
100
AcDbEntity
  8
004
 62
     3
370
    30
100
AcDbLine
 10
553.613381
 20
4013.884762
 30
0.0
 11
553.613381
 21
4007.010606
 31
0.0
  0
LINE
  5
4C
330
45
100
AcDbEntity
  8
004
 62
     3
370
    30
100
AcDbLine
 10
551.663381
 20
4015.010595
 30
0.0
 11
533.663381
 21
4015.010595
 31
0.0
  0
LINE
  5
4D
330
45
100
AcDbEntity
  8
004
 62
     3
370
    30
100
AcDbLine
 10
551.663381
 20
4015.010595
 30
0.0
 11
553.613381
 21
4013.884762
 31
0.0
  0
LINE
  5
4E
330
45
100
AcDbEntity
  8
004
 62
     3
370
    30
100
AcDbLine
 10
533.663381
 20
4015.010595
 30
0.0
 11
531.713381
 21
4013.884762
 31
0.0
  0
LINE
  5
4F
330
45
100
AcDbEntity
  8
004
 62
     3
370
    30
100
AcDbLine
 10
548.138381
 20
4007.010606
 30
0.0
 11
548.138381
 21
4013.884762
 31
0.0
  0
ARC
  5
50
330
45
100
AcDbEntity
  8
004
 62
     3
370
    30
100
AcDbCircle
 10
534.450881
 20
4011.119518
 30
0.0
 40
3.89107712070552
100
AcDbArc
 50
45.288875
 51
90.0
  0
ARC
  5
51
330
45
100
AcDbEntity
  8
004
 62
     3
370
    30
100
AcDbCircle
 10
550.875881
 20
4011.119518
 30
0.0
 40
3.89107712070552
100
AcDbArc
 50
90.0
 51
134.711125
  0
ARC
  5
52
330
45
100
AcDbEntity
  8
004
 62
     3
370
    30
100
AcDbCircle
 10
542.663381
 20
4001.135036
 30
0.0
 40
13.87555894544244
100
AcDbArc
 50
66.760299
 51
113.239701
  0
LINE
  5
53
330
45
100
AcDbEntity
  8
004
 62
     3
370
    30
100
AcDbLine
 10
542.663376
 20
4007.010595
 30
0.0
 11
542.663376
 21
4007.010606
 31
0.0
  0
LINE
  5
54
330
45
100
AcDbEntity
  8
004
 62
     3
370
    30
100
AcDbLine
 10
542.663376
 20
4007.010595
 30
0.0
 11
542.663387
 21
4007.010595
 31
0.0
  0
LINE
  5
55
330
45
100
AcDbEntity
  8
004
 62
     3
370
    30
100
AcDbLine
 10
542.663387
 20
4007.010595
 30
0.0
 11
542.663387
 21
4007.010606
 31
0.0
  0
ENDBLK
  5
47
330
45
100
AcDbEntity
  8
0
100
AcDbBlockEnd
  0
BLOCK
  5
57
330
56
100
AcDbEntity
  8
0
100
AcDbBlockBegin
  2
JZB-2
 70
     0
 10
0.0
 20
0.0
 30
0.0
  3
JZB-2
  1

  0
LINE
  5
59
330
56
100
AcDbEntity
  8
004
 62
     3
370
    30
100
AcDbLine
 10
687.576381
 20
4013.884762
 30
0.0
 11
687.576381
 21
4007.010606
 31
0.0
  0
LINE
  5
5A
330
56
100
AcDbEntity
  8
004
 62
     3
370
    30
100
AcDbLine
 10
685.626381
 20
4015.010595
 30
0.0
 11
667.626381
 21
4015.010595
 31
0.0
  0
LINE
  5
5B
330
56
100
AcDbEntity
  8
004
 62
     3
370
    30
100
AcDbLine
 10
687.576381
 20
4007.010606
 30
0.0
 11
665.676381
 21
4007.010606
 31
0.0
  0
LINE
  5
5C
330
56
100
AcDbEntity
  8
004
 62
     3
370
    30
100
AcDbLine
 10
685.626381
 20
4015.010595
 30
0.0
 11
687.576381
 21
4013.884762
 31
0.0
  0
LINE
  5
5D
330
56
100
AcDbEntity
  8
004
 62
     3
370
    30
100
AcDbLine
 10
667.626381
 20
4015.010595
 30
0.0
 11
665.676381
 21
4013.884762
 31
0.0
  0
LINE
  5
5E
330
56
100
AcDbEntity
  8
004
 62
     3
370
    30
100
AcDbLine
 10
665.676381
 20
4013.884762
 30
0.0
 11
665.676381
 21
4007.010606
 31
0.0
  0
LINE
  5
5F
330
56
100
AcDbEntity
  8
004
 62
     3
370
    30
100
AcDbLine
 10
682.101381
 20
4007.010606
 30
0.0
 11
682.101381
 21
4013.884762
 31
0.0
  0
LINE
  5
60
330
56
100
AcDbEntity
  8
004
 62
     3
370
    30
100
AcDbLine
 10
671.151381
 20
4007.010606
 30
0.0
 11
671.151381
 21
4013.884762
 31
0.0
  0
ARC
  5
61
330
56
100
AcDbEntity
  8
004
 62
     3
370
    30
100
AcDbCircle
 10
668.413881
 20
4011.119518
 30
0.0
 40
3.89107712070552
100
AcDbArc
 50
45.288875
 51
90.0
  0
ARC
  5
62
330
56
100
AcDbEntity
  8
004
 62
     3
370
    30
100
AcDbCircle
 10
684.838881
 20
4011.119518
 30
0.0
 40
3.89107712070552
100
AcDbArc
 50
90.0
 51
134.711125
  0
ARC
  5
63
330
56
100
AcDbEntity
  8
004
 62
     3
370
    30
100
AcDbCircle
 10
676.626381
 20
4001.135036
 30
0.0
 40
13.87555894544244
100
AcDbArc
 50
66.760299
 51
113.239701
  0
LINE
  5
64
330
56
100
AcDbEntity
  8
004
 62
     3
370
    30
100
AcDbLine
 10
676.626376
 20
4007.010595
 30
0.0
 11
676.626376
 21
4007.010606
 31
0.0
  0
LINE
  5
65
330
56
100
AcDbEntity
  8
004
 62
     3
370
    30
100
AcDbLine
 10
676.626376
 20
4007.010595
 30
0.0
 11
676.626387
 21
4007.010595
 31
0.0
  0
LINE
  5
66
330
56
100
AcDbEntity
  8
004
 62
     3
370
    30
100
AcDbLine
 10
676.626387
 20
4007.010595
 30
0.0
 11
676.626387
 21
4007.010606
 31
0.0
  0
ENDBLK
  5
58
330
56
100
AcDbEntity
  8
0
100
AcDbBlockEnd
  0
BLOCK
  5
68
330
67
100
AcDbEntity
  8
0
100
AcDbBlockBegin
  2
JZB-3
 70
     0
 10
0.0
 20
0.0
 30
0.0
  3
JZB-3
  1

  0
LINE
  5
6A
330
67
100
AcDbEntity
  8
004
 62
     3
370
    30
100
AcDbLine
 10
553.613381
 20
3623.010606
 30
0.0
 11
545.707174
 21
3623.010606
 31
0.0
  0
LINE
  5
6B
330
67
100
AcDbEntity
  8
004
 62
     3
370
    30
100
AcDbLine
 10
537.188381
 20
3619.197166
 30
0.0
 11
537.188381
 21
3616.13645
 31
0.0
  0
LINE
  5
6C
330
67
100
AcDbEntity
  8
004
 62
     3
370
    30
100
AcDbLine
 10
531.713381
 20
3616.13645
 30
0.0
 11
531.713381
 21
3616.978353
 31
0.0
  0
LINE
  5
6D
330
67
100
AcDbEntity
  8
004
 62
     3
370
    30
100
AcDbLine
 10
553.613381
 20
3616.13645
 30
0.0
 11
553.613381
 21
3623.010606
 31
0.0
  0
LINE
  5
6E
330
67
100
AcDbEntity
  8
004
 62
     3
370
    30
100
AcDbLine
 10
551.663381
 20
3615.010617
 30
0.0
 11
533.663381
 21
3615.010617
 31
0.0
  0
LINE
  5
6F
330
67
100
AcDbEntity
  8
004
 62
     3
370
    30
100
AcDbLine
 10
551.663381
 20
3615.010617
 30
0.0
 11
553.613381
 21
3616.13645
 31
0.0
  0
LINE
  5
70
330
67
100
AcDbEntity
  8
004
 62
     3
370
    30
100
AcDbLine
 10
533.663381
 20
3615.010617
 30
0.0
 11
531.713381
 21
3616.13645
 31
0.0
  0
LINE
  5
71
330
67
100
AcDbEntity
  8
004
 62
     3
370
    30
100
AcDbLine
 10
548.138381
 20
3623.010606
 30
0.0
 11
548.138381
 21
3616.13645
 31
0.0
  0
ARC
  5
72
330
67
100
AcDbEntity
  8
004
 62
     3
370
    30
100
AcDbCircle
 10
534.450881
 20
3618.901694
 30
0.0
 40
3.89107712070552
100
AcDbArc
 50
270.0
 51
314.711125
  0
ARC
  5
73
330
67
100
AcDbEntity
  8
004
 62
     3
370
    30
100
AcDbCircle
 10
550.875881
 20
3618.901694
 30
0.0
 40
3.89107712070552
100
AcDbArc
 50
225.288875
 51
270.0
  0
ARC
  5
74
330
67
100
AcDbEntity
  8
004
 62
     3
370
    30
100
AcDbCircle
 10
542.663381
 20
3628.886176
 30
0.0
 40
13.87555894544244
100
AcDbArc
 50
246.760299
 51
293.239701
  0
LINE
  5
75
330
67
100
AcDbEntity
  8
004
 62
     3
370
    30
100
AcDbLine
 10
542.663376
 20
3623.010617
 30
0.0
 11
542.663376
 21
3623.010606
 31
0.0
  0
LINE
  5
76
330
67
100
AcDbEntity
  8
004
 62
     3
370
    30
100
AcDbLine
 10
542.663376
 20
3623.010617
 30
0.0
 11
542.663387
 21
3623.010617
 31
0.0
  0
LINE
  5
77
330
67
100
AcDbEntity
  8
004
 62
     3
370
    30
100
AcDbLine
 10
542.663387
 20
3623.010617
 30
0.0
 11
542.663387
 21
3623.010606
 31
0.0
  0
ENDBLK
  5
69
330
67
100
AcDbEntity
  8
0
100
AcDbBlockEnd
  0
BLOCK
  5
79
330
78
100
AcDbEntity
  8
0
100
AcDbBlockBegin
  2
JZB-4
 70
     0
 10
0.0
 20
0.0
 30
0.0
  3
JZB-4
  1

  0
LINE
  5
7B
330
78
100
AcDbEntity
  8
004
 62
     3
370
    30
100
AcDbLine
 10
687.576381
 20
3616.13645
 30
0.0
 11
687.576381
 21
3623.010606
 31
0.0
  0
LINE
  5
7C
330
78
100
AcDbEntity
  8
004
 62
     3
370
    30
100
AcDbLine
 10
685.626381
 20
3615.010617
 30
0.0
 11
667.626381
 21
3615.010617
 31
0.0
  0
LINE
  5
7D
330
78
100
AcDbEntity
  8
004
 62
     3
370
    30
100
AcDbLine
 10
687.576381
 20
3623.010606
 30
0.0
 11
665.676381
 21
3623.010606
 31
0.0
  0
LINE
  5
7E
330
78
100
AcDbEntity
  8
004
 62
     3
370
    30
100
AcDbLine
 10
685.626381
 20
3615.010617
 30
0.0
 11
687.576381
 21
3616.13645
 31
0.0
  0
LINE
  5
7F
330
78
100
AcDbEntity
  8
004
 62
     3
370
    30
100
AcDbLine
 10
667.626381
 20
3615.010617
 30
0.0
 11
665.676381
 21
3616.13645
 31
0.0
  0
LINE
  5
80
330
78
100
AcDbEntity
  8
004
 62
     3
370
    30
100
AcDbLine
 10
665.676381
 20
3616.13645
 30
0.0
 11
665.676381
 21
3623.010606
 31
0.0
  0
LINE
  5
81
330
78
100
AcDbEntity
  8
004
 62
     3
370
    30
100
AcDbLine
 10
682.101381
 20
3623.010606
 30
0.0
 11
682.101381
 21
3616.13645
 31
0.0
  0
LINE
  5
82
330
78
100
AcDbEntity
  8
004
 62
     3
370
    30
100
AcDbLine
 10
671.151381
 20
3623.010606
 30
0.0
 11
671.151381
 21
3616.13645
 31
0.0
  0
ARC
  5
83
330
78
100
AcDbEntity
  8
004
 62
     3
370
    30
100
AcDbCircle
 10
668.413881
 20
3618.901694
 30
0.0
 40
3.89107712070552
100
AcDbArc
 50
270.0
 51
314.711125
  0
ARC
  5
84
330
78
100
AcDbEntity
  8
004
 62
     3
370
    30
100
AcDbCircle
 10
684.838881
 20
3618.901694
 30
0.0
 40
3.89107712070552
100
AcDbArc
 50
225.288875
 51
270.0
  0
ARC
  5
85
330
78
100
AcDbEntity
  8
004
 62
     3
370
    30
100
AcDbCircle
 10
676.626381
 20
3628.886176
 30
0.0
 40
13.87555894544244
100
AcDbArc
 50
246.760299
 51
293.239701
  0
LINE
  5
86
330
78
100
AcDbEntity
  8
004
 62
     3
370
    30
100
AcDbLine
 10
676.626376
 20
3623.010617
 30
0.0
 11
676.626376
 21
3623.010606
 31
0.0
  0
LINE
  5
87
330
78
100
AcDbEntity
  8
004
 62
     3
370
    30
100
AcDbLine
 10
676.626376
 20
3623.010617
 30
0.0
 11
676.626387
 21
3623.010617
 31
0.0
  0
LINE
  5
88
330
78
100
AcDbEntity
  8
004
 62
     3
370
    30
100
AcDbLine
 10
676.626387
 20
3623.010617
 30
0.0
 11
676.626387
 21
3623.010606
 31
0.0
  0
ENDBLK
  5
7A
330
78
100
AcDbEntity
  8
0
100
AcDbBlockEnd
  0
BLOCK
  5
8A
330
89
100
AcDbEntity
  8
0
100
AcDbBlockBegin
  2
JZB-5
 70
     0
 10
0.0
 20
0.0
 30
0.0
  3
JZB-5
  1

  0
LINE
  5
8C
330
89
100
AcDbEntity
  8
003
 62
     3
370
    30
100
AcDbLine
 10
551.367041
 20
545.31913
 30
0.0
 11
552.798833
 21
534.443317
 31
0.0
  0
LINE
  5
8D
330
89
100
AcDbEntity
  8
003
 62
     3
370
    30
100
AcDbLine
 10
532.529581
 20
542.839194
 30
0.0
 11
533.961372
 21
531.963381
 31
0.0
  0
LINE
  5
8E
330
89
100
AcDbEntity
  8
003
 62
     3
370
    30
100
AcDbLine
 10
541.232415
 20
549.517068
 30
0.0
 11
532.529581
 21
542.839194
 31
0.0
  0
LINE
  5
8F
330
89
100
AcDbEntity
  8
003
 62
     3
370
    30
100
AcDbLine
 10
544.095998
 20
527.765442
 30
0.0
 11
552.798833
 21
534.443317
 31
0.0
  0
LINE
  5
90
330
89
100
AcDbEntity
  8
003
 62
     3
370
    30
100
AcDbLine
 10
533.961372
 20
531.963381
 30
0.0
 11
544.095998
 21
527.765442
 31
0.0
  0
LINE
  5
91
330
89
100
AcDbEntity
  8
003
 62
     3
370
    30
100
AcDbLine
 10
551.367041
 20
545.31913
 30
0.0
 11
541.232415
 21
549.517068
 31
0.0
  0
CIRCLE
  5
92
330
89
100
AcDbEntity
  8
003
 62
     3
370
    30
100
AcDbCircle
 10
542.664207
 20
538.641255
 30
0.0
 40
9.5
  0
ENDBLK
  5
8B
330
89
100
AcDbEntity
  8
0
100
AcDbBlockEnd
  0
BLOCK
  5
94
330
93
100
AcDbEntity
  8
0
100
AcDbBlockBegin
  2
JZB-6
 70
     0
 10
0.0
 20
0.0
 30
0.0
  3
JZB-6
  1

  0
LINE
  5
96
330
93
100
AcDbEntity
  8
003
 62
     3
370
    30
100
AcDbLine
 10
544.095887
 20
494.027961
 30
0.0
 11
552.798678
 21
487.35003
 31
0.0
  0
LINE
  5
97
330
93
100
AcDbEntity
  8
003
 62
     3
370
    30
100
AcDbLine
 10
532.52937
 20
478.954286
 30
0.0
 11
541.232161
 21
472.276354
 31
0.0
  0
LINE
  5
98
330
93
100
AcDbEntity
  8
003
 62
     3
370
    30
100
AcDbLine
 10
533.961233
 20
489.830089
 30
0.0
 11
532.52937
 21
478.954286
 31
0.0
  0
LINE
  5
99
330
93
100
AcDbEntity
  8
003
 62
     3
370
    30
100
AcDbLine
 10
551.366815
 20
476.474226
 30
0.0
 11
552.798678
 21
487.35003
 31
0.0
  0
LINE
  5
9A
330
93
100
AcDbEntity
  8
003
 62
     3
370
    30
100
AcDbLine
 10
541.232161
 20
472.276354
 30
0.0
 11
551.366815
 21
476.474226
 31
0.0
  0
LINE
  5
9B
330
93
100
AcDbEntity
  8
003
 62
     3
370
    30
100
AcDbLine
 10
544.095887
 20
494.027961
 30
0.0
 11
533.961233
 21
489.830089
 31
0.0
  0
CIRCLE
  5
9C
330
93
100
AcDbEntity
  8
003
 62
     3
370
    30
100
AcDbCircle
 10
542.664024
 20
483.152158
 30
0.0
 40
9.5
  0
ENDBLK
  5
95
330
93
100
AcDbEntity
  8
0
100
AcDbBlockEnd
  0
BLOCK
  5
9E
330
9D
100
AcDbEntity
  8
0
100
AcDbBlockBegin
  2
JZB-7
 70
     0
 10
0.0
 20
0.0
 30
0.0
  3
JZB-7
  1

  0
LINE
  5
A0
330
9D
100
AcDbEntity
  8
003
 62
     3
370
    30
100
AcDbLine
 10
575.222738
 20
452.618146
 30
0.0
 11
586.098551
 21
454.049937
 31
0.0
  0
LINE
  5
A1
330
9D
100
AcDbEntity
  8
003
 62
     3
370
    30
100
AcDbLine
 10
577.702673
 20
433.780685
 30
0.0
 11
588.578486
 21
435.212477
 31
0.0
  0
LINE
  5
A2
330
9D
100
AcDbEntity
  8
003
 62
     3
370
    30
100
AcDbLine
 10
571.024799
 20
442.48352
 30
0.0
 11
577.702673
 21
433.780685
 31
0.0
  0
LINE
  5
A3
330
9D
100
AcDbEntity
  8
003
 62
     3
370
    30
100
AcDbLine
 10
592.776425
 20
445.347103
 30
0.0
 11
586.098551
 21
454.049937
 31
0.0
  0
LINE
  5
A4
330
9D
100
AcDbEntity
  8
003
 62
     3
370
    30
100
AcDbLine
 10
588.578486
 20
435.212477
 30
0.0
 11
592.776425
 21
445.347103
 31
0.0
  0
LINE
  5
A5
330
9D
100
AcDbEntity
  8
003
 62
     3
370
    30
100
AcDbLine
 10
575.222738
 20
452.618146
 30
0.0
 11
571.024799
 21
442.48352
 31
0.0
  0
CIRCLE
  5
A6
330
9D
100
AcDbEntity
  8
003
 62
     3
370
    30
100
AcDbCircle
 10
581.900612
 20
443.915311
 30
0.0
 40
9.5
  0
ENDBLK
  5
9F
330
9D
100
AcDbEntity
  8
0
100
AcDbBlockEnd
  0
BLOCK
  5
A8
330
A7
100
AcDbEntity
  8
0
100
AcDbBlockBegin
  2
JZB-8
 70
     0
 10
0.0
 20
0.0
 30
0.0
  3
JZB-8
  1

  0
LINE
  5
AA
330
A7
100
AcDbEntity
  8
003
 62
     3
370
    30
100
AcDbLine
 10
626.513906
 20
445.346992
 30
0.0
 11
633.191838
 21
454.049782
 31
0.0
  0
LINE
  5
AB
330
A7
100
AcDbEntity
  8
003
 62
     3
370
    30
100
AcDbLine
 10
641.587582
 20
433.780475
 30
0.0
 11
648.265513
 21
442.483265
 31
0.0
  0
LINE
  5
AC
330
A7
100
AcDbEntity
  8
003
 62
     3
370
    30
100
AcDbLine
 10
630.711778
 20
435.212338
 30
0.0
 11
641.587582
 21
433.780475
 31
0.0
  0
LINE
  5
AD
330
A7
100
AcDbEntity
  8
003
 62
     3
370
    30
100
AcDbLine
 10
644.067641
 20
452.617919
 30
0.0
 11
633.191838
 21
454.049782
 31
0.0
  0
LINE
  5
AE
330
A7
100
AcDbEntity
  8
003
 62
     3
370
    30
100
AcDbLine
 10
648.265513
 20
442.483265
 30
0.0
 11
644.067641
 21
452.617919
 31
0.0
  0
LINE
  5
AF
330
A7
100
AcDbEntity
  8
003
 62
     3
370
    30
100
AcDbLine
 10
626.513906
 20
445.346992
 30
0.0
 11
630.711778
 21
435.212338
 31
0.0
  0
CIRCLE
  5
B0
330
A7
100
AcDbEntity
  8
003
 62
     3
370
    30
100
AcDbCircle
 10
637.38971
 20
443.915128
 30
0.0
 40
9.5
  0
ENDBLK
  5
A9
330
A7
100
AcDbEntity
  8
0
100
AcDbBlockEnd
  0
BLOCK
  5
B2
330
B1
100
AcDbEntity
  8
0
100
AcDbBlockBegin
  2
JZB-9
 70
     0
 10
0.0
 20
0.0
 30
0.0
  3
JZB-9
  1

  0
LINE
  5
B4
330
B1
100
AcDbEntity
  8
003
 62
     3
370
    30
100
AcDbLine
 10
667.923722
 20
476.473842
 30
0.0
 11
666.49193
 21
487.349655
 31
0.0
  0
LINE
  5
B5
330
B1
100
AcDbEntity
  8
003
 62
     3
370
    30
100
AcDbLine
 10
686.761182
 20
478.953778
 30
0.0
 11
685.329391
 21
489.829591
 31
0.0
  0
LINE
  5
B6
330
B1
100
AcDbEntity
  8
003
 62
     3
370
    30
100
AcDbLine
 10
678.058348
 20
472.275904
 30
0.0
 11
686.761182
 21
478.953778
 31
0.0
  0
LINE
  5
B7
330
B1
100
AcDbEntity
  8
003
 62
     3
370
    30
100
AcDbLine
 10
675.194765
 20
494.027529
 30
0.0
 11
666.49193
 21
487.349655
 31
0.0
  0
LINE
  5
B8
330
B1
100
AcDbEntity
  8
003
 62
     3
370
    30
100
AcDbLine
 10
685.329391
 20
489.829591
 30
0.0
 11
675.194765
 21
494.027529
 31
0.0
  0
LINE
  5
B9
330
B1
100
AcDbEntity
  8
003
 62
     3
370
    30
100
AcDbLine
 10
667.923722
 20
476.473842
 30
0.0
 11
678.058348
 21
472.275904
 31
0.0
  0
CIRCLE
  5
BA
330
B1
100
AcDbEntity
  8
003
 62
     3
370
    30
100
AcDbCircle
 10
676.626556
 20
483.151717
 30
0.0
 40
9.5
  0
ENDBLK
  5
B3
330
B1
100
AcDbEntity
  8
0
100
AcDbBlockEnd
  0
BLOCK
  5
BC
330
BB
100
AcDbEntity
  8
0
100
AcDbBlockBegin
  2
JZB-10
 70
     0
 10
0.0
 20
0.0
 30
0.0
  3
JZB-10
  1

  0
LINE
  5
BE
330
BB
100
AcDbEntity
  8
003
 62
     3
370
    30
100
AcDbLine
 10
675.194876
 20
527.765011
 30
0.0
 11
666.492085
 21
534.442942
 31
0.0
  0
LINE
  5
BF
330
BB
100
AcDbEntity
  8
003
 62
     3
370
    30
100
AcDbLine
 10
686.761393
 20
542.838686
 30
0.0
 11
678.058602
 21
549.516618
 31
0.0
  0
LINE
  5
C0
330
BB
100
AcDbEntity
  8
003
 62
     3
370
    30
100
AcDbLine
 10
685.329529
 20
531.962883
 30
0.0
 11
686.761393
 21
542.838686
 31
0.0
  0
LINE
  5
C1
330
BB
100
AcDbEntity
  8
003
 62
     3
370
    30
100
AcDbLine
 10
667.923948
 20
545.318746
 30
0.0
 11
666.492085
 21
534.442942
 31
0.0
  0
LINE
  5
C2
330
BB
100
AcDbEntity
  8
003
 62
     3
370
    30
100
AcDbLine
 10
678.058602
 20
549.516618
 30
0.0
 11
667.923948
 21
545.318746
 31
0.0
  0
LINE
  5
C3
330
BB
100
AcDbEntity
  8
003
 62
     3
370
    30
100
AcDbLine
 10
675.194876
 20
527.765011
 30
0.0
 11
685.329529
 21
531.962883
 31
0.0
  0
CIRCLE
  5
C4
330
BB
100
AcDbEntity
  8
003
 62
     3
370
    30
100
AcDbCircle
 10
676.626739
 20
538.640814
 30
0.0
 40
9.5
  0
ENDBLK
  5
BD
330
BB
100
AcDbEntity
  8
0
100
AcDbBlockEnd
  0
BLOCK
  5
C6
330
C5
100
AcDbEntity
  8
0
100
AcDbBlockBegin
  2
JZB-11
 70
     0
 10
0.0
 20
0.0
 30
0.0
  3
JZB-11
  1

  0
LINE
  5
C8
330
C5
100
AcDbEntity
  8
003
 62
     3
370
    30
100
AcDbLine
 10
644.068025
 20
569.174826
 30
0.0
 11
633.192212
 21
567.743035
 31
0.0
  0
LINE
  5
C9
330
C5
100
AcDbEntity
  8
003
 62
     3
370
    30
100
AcDbLine
 10
641.588089
 20
588.012287
 30
0.0
 11
630.712277
 21
586.580495
 31
0.0
  0
LINE
  5
CA
330
C5
100
AcDbEntity
  8
003
 62
     3
370
    30
100
AcDbLine
 10
648.265964
 20
579.309452
 30
0.0
 11
641.588089
 21
588.012287
 31
0.0
  0
LINE
  5
CB
330
C5
100
AcDbEntity
  8
003
 62
     3
370
    30
100
AcDbLine
 10
626.514338
 20
576.445869
 30
0.0
 11
633.192212
 21
567.743035
 31
0.0
  0
LINE
  5
CC
330
C5
100
AcDbEntity
  8
003
 62
     3
370
    30
100
AcDbLine
 10
630.712277
 20
586.580495
 30
0.0
 11
626.514338
 21
576.445869
 31
0.0
  0
LINE
  5
CD
330
C5
100
AcDbEntity
  8
003
 62
     3
370
    30
100
AcDbLine
 10
644.068025
 20
569.174826
 30
0.0
 11
648.265964
 21
579.309452
 31
0.0
  0
CIRCLE
  5
CE
330
C5
100
AcDbEntity
  8
003
 62
     3
370
    30
100
AcDbCircle
 10
637.390151
 20
577.877661
 30
0.0
 40
9.5
  0
ENDBLK
  5
C7
330
C5
100
AcDbEntity
  8
0
100
AcDbBlockEnd
  0
BLOCK
  5
D0
330
CF
100
AcDbEntity
  8
0
100
AcDbBlockBegin
  2
JZB-12
 70
     0
 10
0.0
 20
0.0
 30
0.0
  3
JZB-12
  1

  0
LINE
  5
D2
330
CF
100
AcDbEntity
  8
003
 62
     3
370
    30
100
AcDbLine
 10
592.776857
 20
576.44598
 30
0.0
 11
586.098925
 21
567.74319
 31
0.0
  0
LINE
  5
D3
330
CF
100
AcDbEntity
  8
003
 62
     3
370
    30
100
AcDbLine
 10
577.703181
 20
588.012497
 30
0.0
 11
571.02525
 21
579.309707
 31
0.0
  0
LINE
  5
D4
330
CF
100
AcDbEntity
  8
003
 62
     3
370
    30
100
AcDbLine
 10
588.578985
 20
586.580634
 30
0.0
 11
577.703181
 21
588.012497
 31
0.0
  0
LINE
  5
D5
330
CF
100
AcDbEntity
  8
003
 62
     3
370
    30
100
AcDbLine
 10
575.223122
 20
569.175053
 30
0.0
 11
586.098925
 21
567.74319
 31
0.0
  0
LINE
  5
D6
330
CF
100
AcDbEntity
  8
003
 62
     3
370
    30
100
AcDbLine
 10
571.02525
 20
579.309707
 30
0.0
 11
575.223122
 21
569.175053
 31
0.0
  0
LINE
  5
D7
330
CF
100
AcDbEntity
  8
003
 62
     3
370
    30
100
AcDbLine
 10
592.776857
 20
576.44598
 30
0.0
 11
588.578985
 21
586.580634
 31
0.0
  0
CIRCLE
  5
D8
330
CF
100
AcDbEntity
  8
003
 62
     3
370
    30
100
AcDbCircle
 10
581.901053
 20
577.877843
 30
0.0
 40
9.5
  0
ENDBLK
  5
D1
330
CF
100
AcDbEntity
  8
0
100
AcDbBlockEnd
  0
BLOCK
  5
DA
330
D9
100
AcDbEntity
  8
0
100
AcDbBlockBegin
  2
JZB-13
 70
     0
 10
0.0
 20
0.0
 30
0.0
  3
JZB-13
  1

  0
LINE
  5
DC
330
D9
100
AcDbEntity
  8
003
 62
     3
370
    30
100
AcDbLine
 10
1246.367041
 20
545.31913
 30
0.0
 11
1247.798833
 21
534.443317
 31
0.0
  0
LINE
  5
DD
330
D9
100
AcDbEntity
  8
003
 62
     3
370
    30
100
AcDbLine
 10
1227.529581
 20
542.839194
 30
0.0
 11
1228.961372
 21
531.963381
 31
0.0
  0
LINE
  5
DE
330
D9
100
AcDbEntity
  8
003
 62
     3
370
    30
100
AcDbLine
 10
1236.232415
 20
549.517068
 30
0.0
 11
1227.529581
 21
542.839194
 31
0.0
  0
LINE
  5
DF
330
D9
100
AcDbEntity
  8
003
 62
     3
370
    30
100
AcDbLine
 10
1239.095998
 20
527.765442
 30
0.0
 11
1247.798833
 21
534.443317
 31
0.0
  0
LINE
  5
E0
330
D9
100
AcDbEntity
  8
003
 62
     3
370
    30
100
AcDbLine
 10
1228.961372
 20
531.963381
 30
0.0
 11
1239.095998
 21
527.765442
 31
0.0
  0
LINE
  5
E1
330
D9
100
AcDbEntity
  8
003
 62
     3
370
    30
100
AcDbLine
 10
1246.367041
 20
545.31913
 30
0.0
 11
1236.232415
 21
549.517068
 31
0.0
  0
CIRCLE
  5
E2
330
D9
100
AcDbEntity
  8
003
 62
     3
370
    30
100
AcDbCircle
 10
1237.664207
 20
538.641255
 30
0.0
 40
9.5
  0
ENDBLK
  5
DB
330
D9
100
AcDbEntity
  8
0
100
AcDbBlockEnd
  0
BLOCK
  5
E4
330
E3
100
AcDbEntity
  8
0
100
AcDbBlockBegin
  2
JZB-14
 70
     0
 10
0.0
 20
0.0
 30
0.0
  3
JZB-14
  1

  0
LINE
  5
E6
330
E3
100
AcDbEntity
  8
003
 62
     3
370
    30
100
AcDbLine
 10
1239.095887
 20
494.027961
 30
0.0
 11
1247.798678
 21
487.35003
 31
0.0
  0
LINE
  5
E7
330
E3
100
AcDbEntity
  8
003
 62
     3
370
    30
100
AcDbLine
 10
1227.52937
 20
478.954286
 30
0.0
 11
1236.232161
 21
472.276354
 31
0.0
  0
LINE
  5
E8
330
E3
100
AcDbEntity
  8
003
 62
     3
370
    30
100
AcDbLine
 10
1228.961233
 20
489.830089
 30
0.0
 11
1227.52937
 21
478.954286
 31
0.0
  0
LINE
  5
E9
330
E3
100
AcDbEntity
  8
003
 62
     3
370
    30
100
AcDbLine
 10
1246.366815
 20
476.474226
 30
0.0
 11
1247.798678
 21
487.35003
 31
0.0
  0
LINE
  5
EA
330
E3
100
AcDbEntity
  8
003
 62
     3
370
    30
100
AcDbLine
 10
1236.232161
 20
472.276354
 30
0.0
 11
1246.366815
 21
476.474226
 31
0.0
  0
LINE
  5
EB
330
E3
100
AcDbEntity
  8
003
 62
     3
370
    30
100
AcDbLine
 10
1239.095887
 20
494.027961
 30
0.0
 11
1228.961233
 21
489.830089
 31
0.0
  0
CIRCLE
  5
EC
330
E3
100
AcDbEntity
  8
003
 62
     3
370
    30
100
AcDbCircle
 10
1237.664024
 20
483.152158
 30
0.0
 40
9.5
  0
ENDBLK
  5
E5
330
E3
100
AcDbEntity
  8
0
100
AcDbBlockEnd
  0
BLOCK
  5
EE
330
ED
100
AcDbEntity
  8
0
100
AcDbBlockBegin
  2
JZB-15
 70
     0
 10
0.0
 20
0.0
 30
0.0
  3
JZB-15
  1

  0
LINE
  5
F0
330
ED
100
AcDbEntity
  8
003
 62
     3
370
    30
100
AcDbLine
 10
1270.222738
 20
452.618146
 30
0.0
 11
1281.098551
 21
454.049937
 31
0.0
  0
LINE
  5
F1
330
ED
100
AcDbEntity
  8
003
 62
     3
370
    30
100
AcDbLine
 10
1272.702673
 20
433.780685
 30
0.0
 11
1283.578486
 21
435.212477
 31
0.0
  0
LINE
  5
F2
330
ED
100
AcDbEntity
  8
003
 62
     3
370
    30
100
AcDbLine
 10
1266.024799
 20
442.48352
 30
0.0
 11
1272.702673
 21
433.780685
 31
0.0
  0
LINE
  5
F3
330
ED
100
AcDbEntity
  8
003
 62
     3
370
    30
100
AcDbLine
 10
1287.776425
 20
445.347103
 30
0.0
 11
1281.098551
 21
454.049937
 31
0.0
  0
LINE
  5
F4
330
ED
100
AcDbEntity
  8
003
 62
     3
370
    30
100
AcDbLine
 10
1283.578486
 20
435.212477
 30
0.0
 11
1287.776425
 21
445.347103
 31
0.0
  0
LINE
  5
F5
330
ED
100
AcDbEntity
  8
003
 62
     3
370
    30
100
AcDbLine
 10
1270.222738
 20
452.618146
 30
0.0
 11
1266.024799
 21
442.48352
 31
0.0
  0
CIRCLE
  5
F6
330
ED
100
AcDbEntity
  8
003
 62
     3
370
    30
100
AcDbCircle
 10
1276.900612
 20
443.915311
 30
0.0
 40
9.5
  0
ENDBLK
  5
EF
330
ED
100
AcDbEntity
  8
0
100
AcDbBlockEnd
  0
BLOCK
  5
F8
330
F7
100
AcDbEntity
  8
0
100
AcDbBlockBegin
  2
JZB-16
 70
     0
 10
0.0
 20
0.0
 30
0.0
  3
JZB-16
  1

  0
LINE
  5
FA
330
F7
100
AcDbEntity
  8
003
 62
     3
370
    30
100
AcDbLine
 10
1321.513906
 20
445.346992
 30
0.0
 11
1328.191838
 21
454.049782
 31
0.0
  0
LINE
  5
FB
330
F7
100
AcDbEntity
  8
003
 62
     3
370
    30
100
AcDbLine
 10
1336.587582
 20
433.780475
 30
0.0
 11
1343.265513
 21
442.483265
 31
0.0
  0
LINE
  5
FC
330
F7
100
AcDbEntity
  8
003
 62
     3
370
    30
100
AcDbLine
 10
1325.711778
 20
435.212338
 30
0.0
 11
1336.587582
 21
433.780475
 31
0.0
  0
LINE
  5
FD
330
F7
100
AcDbEntity
  8
003
 62
     3
370
    30
100
AcDbLine
 10
1339.067641
 20
452.617919
 30
0.0
 11
1328.191838
 21
454.049782
 31
0.0
  0
LINE
  5
FE
330
F7
100
AcDbEntity
  8
003
 62
     3
370
    30
100
AcDbLine
 10
1343.265513
 20
442.483265
 30
0.0
 11
1339.067641
 21
452.617919
 31
0.0
  0
LINE
  5
FF
330
F7
100
AcDbEntity
  8
003
 62
     3
370
    30
100
AcDbLine
 10
1321.513906
 20
445.346992
 30
0.0
 11
1325.711778
 21
435.212338
 31
0.0
  0
CIRCLE
  5
100
330
F7
100
AcDbEntity
  8
003
 62
     3
370
    30
100
AcDbCircle
 10
1332.38971
 20
443.915128
 30
0.0
 40
9.5
  0
ENDBLK
  5
F9
330
F7
100
AcDbEntity
  8
0
100
AcDbBlockEnd
  0
BLOCK
  5
102
330
101
100
AcDbEntity
  8
0
100
AcDbBlockBegin
  2
JZB-17
 70
     0
 10
0.0
 20
0.0
 30
0.0
  3
JZB-17
  1

  0
LINE
  5
104
330
101
100
AcDbEntity
  8
003
 62
     3
370
    30
100
AcDbLine
 10
1362.923722
 20
476.473842
 30
0.0
 11
1361.49193
 21
487.349655
 31
0.0
  0
LINE
  5
105
330
101
100
AcDbEntity
  8
003
 62
     3
370
    30
100
AcDbLine
 10
1381.761182
 20
478.953778
 30
0.0
 11
1380.329391
 21
489.829591
 31
0.0
  0
LINE
  5
106
330
101
100
AcDbEntity
  8
003
 62
     3
370
    30
100
AcDbLine
 10
1373.058348
 20
472.275904
 30
0.0
 11
1381.761182
 21
478.953778
 31
0.0
  0
LINE
  5
107
330
101
100
AcDbEntity
  8
003
 62
     3
370
    30
100
AcDbLine
 10
1370.194765
 20
494.027529
 30
0.0
 11
1361.49193
 21
487.349655
 31
0.0
  0
LINE
  5
108
330
101
100
AcDbEntity
  8
003
 62
     3
370
    30
100
AcDbLine
 10
1380.329391
 20
489.829591
 30
0.0
 11
1370.194765
 21
494.027529
 31
0.0
  0
LINE
  5
109
330
101
100
AcDbEntity
  8
003
 62
     3
370
    30
100
AcDbLine
 10
1362.923722
 20
476.473842
 30
0.0
 11
1373.058348
 21
472.275904
 31
0.0
  0
CIRCLE
  5
10A
330
101
100
AcDbEntity
  8
003
 62
     3
370
    30
100
AcDbCircle
 10
1371.626556
 20
483.151717
 30
0.0
 40
9.5
  0
ENDBLK
  5
103
330
101
100
AcDbEntity
  8
0
100
AcDbBlockEnd
  0
BLOCK
  5
10C
330
10B
100
AcDbEntity
  8
0
100
AcDbBlockBegin
  2
JZB-18
 70
     0
 10
0.0
 20
0.0
 30
0.0
  3
JZB-18
  1

  0
LINE
  5
10E
330
10B
100
AcDbEntity
  8
003
 62
     3
370
    30
100
AcDbLine
 10
1370.194876
 20
527.765011
 30
0.0
 11
1361.492085
 21
534.442942
 31
0.0
  0
LINE
  5
10F
330
10B
100
AcDbEntity
  8
003
 62
     3
370
    30
100
AcDbLine
 10
1381.761393
 20
542.838686
 30
0.0
 11
1373.058602
 21
549.516618
 31
0.0
  0
LINE
  5
110
330
10B
100
AcDbEntity
  8
003
 62
     3
370
    30
100
AcDbLine
 10
1380.329529
 20
531.962883
 30
0.0
 11
1381.761393
 21
542.838686
 31
0.0
  0
LINE
  5
111
330
10B
100
AcDbEntity
  8
003
 62
     3
370
    30
100
AcDbLine
 10
1362.923948
 20
545.318746
 30
0.0
 11
1361.492085
 21
534.442942
 31
0.0
  0
LINE
  5
112
330
10B
100
AcDbEntity
  8
003
 62
     3
370
    30
100
AcDbLine
 10
1373.058602
 20
549.516618
 30
0.0
 11
1362.923948
 21
545.318746
 31
0.0
  0
LINE
  5
113
330
10B
100
AcDbEntity
  8
003
 62
     3
370
    30
100
AcDbLine
 10
1370.194876
 20
527.765011
 30
0.0
 11
1380.329529
 21
531.962883
 31
0.0
  0
CIRCLE
  5
114
330
10B
100
AcDbEntity
  8
003
 62
     3
370
    30
100
AcDbCircle
 10
1371.626739
 20
538.640814
 30
0.0
 40
9.5
  0
ENDBLK
  5
10D
330
10B
100
AcDbEntity
  8
0
100
AcDbBlockEnd
  0
BLOCK
  5
116
330
115
100
AcDbEntity
  8
0
100
AcDbBlockBegin
  2
JZB-19
 70
     0
 10
0.0
 20
0.0
 30
0.0
  3
JZB-19
  1

  0
LINE
  5
118
330
115
100
AcDbEntity
  8
003
 62
     3
370
    30
100
AcDbLine
 10
1339.068025
 20
569.174826
 30
0.0
 11
1328.192212
 21
567.743035
 31
0.0
  0
LINE
  5
119
330
115
100
AcDbEntity
  8
003
 62
     3
370
    30
100
AcDbLine
 10
1336.588089
 20
588.012287
 30
0.0
 11
1325.712277
 21
586.580495
 31
0.0
  0
LINE
  5
11A
330
115
100
AcDbEntity
  8
003
 62
     3
370
    30
100
AcDbLine
 10
1343.265964
 20
579.309452
 30
0.0
 11
1336.588089
 21
588.012287
 31
0.0
  0
LINE
  5
11B
330
115
100
AcDbEntity
  8
003
 62
     3
370
    30
100
AcDbLine
 10
1321.514338
 20
576.445869
 30
0.0
 11
1328.192212
 21
567.743035
 31
0.0
  0
LINE
  5
11C
330
115
100
AcDbEntity
  8
003
 62
     3
370
    30
100
AcDbLine
 10
1325.712277
 20
586.580495
 30
0.0
 11
1321.514338
 21
576.445869
 31
0.0
  0
LINE
  5
11D
330
115
100
AcDbEntity
  8
003
 62
     3
370
    30
100
AcDbLine
 10
1339.068025
 20
569.174826
 30
0.0
 11
1343.265964
 21
579.309452
 31
0.0
  0
CIRCLE
  5
11E
330
115
100
AcDbEntity
  8
003
 62
     3
370
    30
100
AcDbCircle
 10
1332.390151
 20
577.877661
 30
0.0
 40
9.5
  0
ENDBLK
  5
117
330
115
100
AcDbEntity
  8
0
100
AcDbBlockEnd
  0
BLOCK
  5
120
330
11F
100
AcDbEntity
  8
0
100
AcDbBlockBegin
  2
JZB-20
 70
     0
 10
0.0
 20
0.0
 30
0.0
  3
JZB-20
  1

  0
LINE
  5
122
330
11F
100
AcDbEntity
  8
003
 62
     3
370
    30
100
AcDbLine
 10
1287.776857
 20
576.44598
 30
0.0
 11
1281.098925
 21
567.74319
 31
0.0
  0
LINE
  5
123
330
11F
100
AcDbEntity
  8
003
 62
     3
370
    30
100
AcDbLine
 10
1272.703181
 20
588.012497
 30
0.0
 11
1266.02525
 21
579.309707
 31
0.0
  0
LINE
  5
124
330
11F
100
AcDbEntity
  8
003
 62
     3
370
    30
100
AcDbLine
 10
1283.578985
 20
586.580634
 30
0.0
 11
1272.703181
 21
588.012497
 31
0.0
  0
LINE
  5
125
330
11F
100
AcDbEntity
  8
003
 62
     3
370
    30
100
AcDbLine
 10
1270.223122
 20
569.175053
 30
0.0
 11
1281.098925
 21
567.74319
 31
0.0
  0
LINE
  5
126
330
11F
100
AcDbEntity
  8
003
 62
     3
370
    30
100
AcDbLine
 10
1266.02525
 20
579.309707
 30
0.0
 11
1270.223122
 21
569.175053
 31
0.0
  0
LINE
  5
127
330
11F
100
AcDbEntity
  8
003
 62
     3
370
    30
100
AcDbLine
 10
1287.776857
 20
576.44598
 30
0.0
 11
1283.578985
 21
586.580634
 31
0.0
  0
CIRCLE
  5
128
330
11F
100
AcDbEntity
  8
003
 62
     3
370
    30
100
AcDbCircle
 10
1276.901053
 20
577.877843
 30
0.0
 40
9.5
  0
ENDBLK
  5
121
330
11F
100
AcDbEntity
  8
0
100
AcDbBlockEnd
  0
BLOCK
  5
12A
330
129
100
AcDbEntity
  8
0
100
AcDbBlockBegin
  2
JZB-21
 70
     0
 10
0.0
 20
0.0
 30
0.0
  3
JZB-21
  1

  0
LINE
  5
12C
330
129
100
AcDbEntity
  8
003
 62
     3
370
    30
100
AcDbLine
 10
2064.509559
 20
1407.583332
 30
0.0
 11
2065.94135
 21
1396.707519
 31
0.0
  0
LINE
  5
12D
330
129
100
AcDbEntity
  8
003
 62
     3
370
    30
100
AcDbLine
 10
2045.672098
 20
1405.103396
 30
0.0
 11
2047.10389
 21
1394.227584
 31
0.0
  0
LINE
  5
12E
330
129
100
AcDbEntity
  8
003
 62
     3
370
    30
100
AcDbLine
 10
2054.374933
 20
1411.781271
 30
0.0
 11
2045.672098
 21
1405.103396
 31
0.0
  0
LINE
  5
12F
330
129
100
AcDbEntity
  8
003
 62
     3
370
    30
100
AcDbLine
 10
2057.238516
 20
1390.029645
 30
0.0
 11
2065.94135
 21
1396.707519
 31
0.0
  0
LINE
  5
130
330
129
100
AcDbEntity
  8
003
 62
     3
370
    30
100
AcDbLine
 10
2047.10389
 20
1394.227584
 30
0.0
 11
2057.238516
 21
1390.029645
 31
0.0
  0
LINE
  5
131
330
129
100
AcDbEntity
  8
003
 62
     3
370
    30
100
AcDbLine
 10
2064.509559
 20
1407.583332
 30
0.0
 11
2054.374933
 21
1411.781271
 31
0.0
  0
CIRCLE
  5
132
330
129
100
AcDbEntity
  8
003
 62
     3
370
    30
100
AcDbCircle
 10
2055.806724
 20
1400.905458
 30
0.0
 40
9.5
  0
ENDBLK
  5
12B
330
129
100
AcDbEntity
  8
0
100
AcDbBlockEnd
  0
BLOCK
  5
134
330
133
100
AcDbEntity
  8
0
100
AcDbBlockBegin
  2
JZB-22
 70
     0
 10
0.0
 20
0.0
 30
0.0
  3
JZB-22
  1

  0
LINE
  5
136
330
133
100
AcDbEntity
  8
003
 62
     3
370
    30
100
AcDbLine
 10
2057.238405
 20
1356.292164
 30
0.0
 11
2065.941195
 21
1349.614232
 31
0.0
  0
LINE
  5
137
330
133
100
AcDbEntity
  8
003
 62
     3
370
    30
100
AcDbLine
 10
2045.671888
 20
1341.218488
 30
0.0
 11
2054.374678
 21
1334.540557
 31
0.0
  0
LINE
  5
138
330
133
100
AcDbEntity
  8
003
 62
     3
370
    30
100
AcDbLine
 10
2047.103751
 20
1352.094292
 30
0.0
 11
2045.671888
 21
1341.218488
 31
0.0
  0
LINE
  5
139
330
133
100
AcDbEntity
  8
003
 62
     3
370
    30
100
AcDbLine
 10
2064.509332
 20
1338.738429
 30
0.0
 11
2065.941195
 21
1349.614232
 31
0.0
  0
LINE
  5
13A
330
133
100
AcDbEntity
  8
003
 62
     3
370
    30
100
AcDbLine
 10
2054.374678
 20
1334.540557
 30
0.0
 11
2064.509332
 21
1338.738429
 31
0.0
  0
LINE
  5
13B
330
133
100
AcDbEntity
  8
003
 62
     3
370
    30
100
AcDbLine
 10
2057.238405
 20
1356.292164
 30
0.0
 11
2047.103751
 21
1352.094292
 31
0.0
  0
CIRCLE
  5
13C
330
133
100
AcDbEntity
  8
003
 62
     3
370
    30
100
AcDbCircle
 10
2055.806542
 20
1345.41636
 30
0.0
 40
9.5
  0
ENDBLK
  5
135
330
133
100
AcDbEntity
  8
0
100
AcDbBlockEnd
  0
BLOCK
  5
13E
330
13D
100
AcDbEntity
  8
0
100
AcDbBlockBegin
  2
JZB-23
 70
     0
 10
0.0
 20
0.0
 30
0.0
  3
JZB-23
  1

  0
LINE
  5
140
330
13D
100
AcDbEntity
  8
003
 62
     3
370
    30
100
AcDbLine
 10
2088.365255
 20
1314.882348
 30
0.0
 11
2099.241068
 21
1316.31414
 31
0.0
  0
LINE
  5
141
330
13D
100
AcDbEntity
  8
003
 62
     3
370
    30
100
AcDbLine
 10
2090.845191
 20
1296.044888
 30
0.0
 11
2101.721004
 21
1297.476679
 31
0.0
  0
LINE
  5
142
330
13D
100
AcDbEntity
  8
003
 62
     3
370
    30
100
AcDbLine
 10
2084.167317
 20
1304.747722
 30
0.0
 11
2090.845191
 21
1296.044888
 31
0.0
  0
LINE
  5
143
330
13D
100
AcDbEntity
  8
003
 62
     3
370
    30
100
AcDbLine
 10
2105.918943
 20
1307.611305
 30
0.0
 11
2099.241068
 21
1316.31414
 31
0.0
  0
LINE
  5
144
330
13D
100
AcDbEntity
  8
003
 62
     3
370
    30
100
AcDbLine
 10
2101.721004
 20
1297.476679
 30
0.0
 11
2105.918943
 21
1307.611305
 31
0.0
  0
LINE
  5
145
330
13D
100
AcDbEntity
  8
003
 62
     3
370
    30
100
AcDbLine
 10
2088.365255
 20
1314.882348
 30
0.0
 11
2084.167317
 21
1304.747722
 31
0.0
  0
CIRCLE
  5
146
330
13D
100
AcDbEntity
  8
003
 62
     3
370
    30
100
AcDbCircle
 10
2095.04313
 20
1306.179514
 30
0.0
 40
9.5
  0
ENDBLK
  5
13F
330
13D
100
AcDbEntity
  8
0
100
AcDbBlockEnd
  0
BLOCK
  5
148
330
147
100
AcDbEntity
  8
0
100
AcDbBlockBegin
  2
JZB-24
 70
     0
 10
0.0
 20
0.0
 30
0.0
  3
JZB-24
  1

  0
LINE
  5
14A
330
147
100
AcDbEntity
  8
003
 62
     3
370
    30
100
AcDbLine
 10
2139.656424
 20
1307.611194
 30
0.0
 11
2146.334355
 21
1316.313985
 31
0.0
  0
LINE
  5
14B
330
147
100
AcDbEntity
  8
003
 62
     3
370
    30
100
AcDbLine
 10
2154.730099
 20
1296.044677
 30
0.0
 11
2161.408031
 21
1304.747468
 31
0.0
  0
LINE
  5
14C
330
147
100
AcDbEntity
  8
003
 62
     3
370
    30
100
AcDbLine
 10
2143.854296
 20
1297.47654
 30
0.0
 11
2154.730099
 21
1296.044677
 31
0.0
  0
LINE
  5
14D
330
147
100
AcDbEntity
  8
003
 62
     3
370
    30
100
AcDbLine
 10
2157.210159
 20
1314.882122
 30
0.0
 11
2146.334355
 21
1316.313985
 31
0.0
  0
LINE
  5
14E
330
147
100
AcDbEntity
  8
003
 62
     3
370
    30
100
AcDbLine
 10
2161.408031
 20
1304.747468
 30
0.0
 11
2157.210159
 21
1314.882122
 31
0.0
  0
LINE
  5
14F
330
147
100
AcDbEntity
  8
003
 62
     3
370
    30
100
AcDbLine
 10
2139.656424
 20
1307.611194
 30
0.0
 11
2143.854296
 21
1297.47654
 31
0.0
  0
CIRCLE
  5
150
330
147
100
AcDbEntity
  8
003
 62
     3
370
    30
100
AcDbCircle
 10
2150.532227
 20
1306.179331
 30
0.0
 40
9.5
  0
ENDBLK
  5
149
330
147
100
AcDbEntity
  8
0
100
AcDbBlockEnd
  0
BLOCK
  5
152
330
151
100
AcDbEntity
  8
0
100
AcDbBlockBegin
  2
JZB-25
 70
     0
 10
0.0
 20
0.0
 30
0.0
  3
JZB-25
  1

  0
LINE
  5
154
330
151
100
AcDbEntity
  8
003
 62
     3
370
    30
100
AcDbLine
 10
2181.066239
 20
1338.738045
 30
0.0
 11
2179.634448
 21
1349.613858
 31
0.0
  0
LINE
  5
155
330
151
100
AcDbEntity
  8
003
 62
     3
370
    30
100
AcDbLine
 10
2199.9037
 20
1341.21798
 30
0.0
 11
2198.471908
 21
1352.093793
 31
0.0
  0
LINE
  5
156
330
151
100
AcDbEntity
  8
003
 62
     3
370
    30
100
AcDbLine
 10
2191.200865
 20
1334.540106
 30
0.0
 11
2199.9037
 21
1341.21798
 31
0.0
  0
LINE
  5
157
330
151
100
AcDbEntity
  8
003
 62
     3
370
    30
100
AcDbLine
 10
2188.337282
 20
1356.291732
 30
0.0
 11
2179.634448
 21
1349.613858
 31
0.0
  0
LINE
  5
158
330
151
100
AcDbEntity
  8
003
 62
     3
370
    30
100
AcDbLine
 10
2198.471908
 20
1352.093793
 30
0.0
 11
2188.337282
 21
1356.291732
 31
0.0
  0
LINE
  5
159
330
151
100
AcDbEntity
  8
003
 62
     3
370
    30
100
AcDbLine
 10
2181.066239
 20
1338.738045
 30
0.0
 11
2191.200865
 21
1334.540106
 31
0.0
  0
CIRCLE
  5
15A
330
151
100
AcDbEntity
  8
003
 62
     3
370
    30
100
AcDbCircle
 10
2189.769074
 20
1345.415919
 30
0.0
 40
9.5
  0
ENDBLK
  5
153
330
151
100
AcDbEntity
  8
0
100
AcDbBlockEnd
  0
BLOCK
  5
15C
330
15B
100
AcDbEntity
  8
0
100
AcDbBlockBegin
  2
JZB-26
 70
     0
 10
0.0
 20
0.0
 30
0.0
  3
JZB-26
  1

  0
LINE
  5
15E
330
15B
100
AcDbEntity
  8
003
 62
     3
370
    30
100
AcDbLine
 10
2188.337393
 20
1390.029213
 30
0.0
 11
2179.634603
 21
1396.707145
 31
0.0
  0
LINE
  5
15F
330
15B
100
AcDbEntity
  8
003
 62
     3
370
    30
100
AcDbLine
 10
2199.90391
 20
1405.102889
 30
0.0
 11
2191.20112
 21
1411.78082
 31
0.0
  0
LINE
  5
160
330
15B
100
AcDbEntity
  8
003
 62
     3
370
    30
100
AcDbLine
 10
2198.472047
 20
1394.227085
 30
0.0
 11
2199.90391
 21
1405.102889
 31
0.0
  0
LINE
  5
161
330
15B
100
AcDbEntity
  8
003
 62
     3
370
    30
100
AcDbLine
 10
2181.066466
 20
1407.582948
 30
0.0
 11
2179.634603
 21
1396.707145
 31
0.0
  0
LINE
  5
162
330
15B
100
AcDbEntity
  8
003
 62
     3
370
    30
100
AcDbLine
 10
2191.20112
 20
1411.78082
 30
0.0
 11
2181.066466
 21
1407.582948
 31
0.0
  0
LINE
  5
163
330
15B
100
AcDbEntity
  8
003
 62
     3
370
    30
100
AcDbLine
 10
2188.337393
 20
1390.029213
 30
0.0
 11
2198.472047
 21
1394.227085
 31
0.0
  0
CIRCLE
  5
164
330
15B
100
AcDbEntity
  8
003
 62
     3
370
    30
100
AcDbCircle
 10
2189.769257
 20
1400.905017
 30
0.0
 40
9.5
  0
ENDBLK
  5
15D
330
15B
100
AcDbEntity
  8
0
100
AcDbBlockEnd
  0
BLOCK
  5
166
330
165
100
AcDbEntity
  8
0
100
AcDbBlockBegin
  2
JZB-27
 70
     0
 10
0.0
 20
0.0
 30
0.0
  3
JZB-27
  1

  0
LINE
  5
168
330
165
100
AcDbEntity
  8
003
 62
     3
370
    30
100
AcDbLine
 10
2157.210543
 20
1431.439029
 30
0.0
 11
2146.33473
 21
1430.007237
 31
0.0
  0
LINE
  5
169
330
165
100
AcDbEntity
  8
003
 62
     3
370
    30
100
AcDbLine
 10
2154.730607
 20
1450.276489
 30
0.0
 11
2143.854794
 21
1448.844698
 31
0.0
  0
LINE
  5
16A
330
165
100
AcDbEntity
  8
003
 62
     3
370
    30
100
AcDbLine
 10
2161.408481
 20
1441.573655
 30
0.0
 11
2154.730607
 21
1450.276489
 31
0.0
  0
LINE
  5
16B
330
165
100
AcDbEntity
  8
003
 62
     3
370
    30
100
AcDbLine
 10
2139.656856
 20
1438.710072
 30
0.0
 11
2146.33473
 21
1430.007237
 31
0.0
  0
LINE
  5
16C
330
165
100
AcDbEntity
  8
003
 62
     3
370
    30
100
AcDbLine
 10
2143.854794
 20
1448.844698
 30
0.0
 11
2139.656856
 21
1438.710072
 31
0.0
  0
LINE
  5
16D
330
165
100
AcDbEntity
  8
003
 62
     3
370
    30
100
AcDbLine
 10
2157.210543
 20
1431.439029
 30
0.0
 11
2161.408481
 21
1441.573655
 31
0.0
  0
CIRCLE
  5
16E
330
165
100
AcDbEntity
  8
003
 62
     3
370
    30
100
AcDbCircle
 10
2150.532668
 20
1440.141863
 30
0.0
 40
9.5
  0
ENDBLK
  5
167
330
165
100
AcDbEntity
  8
0
100
AcDbBlockEnd
  0
BLOCK
  5
170
330
16F
100
AcDbEntity
  8
0
100
AcDbBlockBegin
  2
JZB-28
 70
     0
 10
0.0
 20
0.0
 30
0.0
  3
JZB-28
  1

  0
LINE
  5
172
330
16F
100
AcDbEntity
  8
003
 62
     3
370
    30
100
AcDbLine
 10
2105.919374
 20
1438.710183
 30
0.0
 11
2099.241443
 21
1430.007392
 31
0.0
  0
LINE
  5
173
330
16F
100
AcDbEntity
  8
003
 62
     3
370
    30
100
AcDbLine
 10
2090.845699
 20
1450.2767
 30
0.0
 11
2084.167767
 21
1441.573909
 31
0.0
  0
LINE
  5
174
330
16F
100
AcDbEntity
  8
003
 62
     3
370
    30
100
AcDbLine
 10
2101.721502
 20
1448.844836
 30
0.0
 11
2090.845699
 21
1450.2767
 31
0.0
  0
LINE
  5
175
330
16F
100
AcDbEntity
  8
003
 62
     3
370
    30
100
AcDbLine
 10
2088.365639
 20
1431.439255
 30
0.0
 11
2099.241443
 21
1430.007392
 31
0.0
  0
LINE
  5
176
330
16F
100
AcDbEntity
  8
003
 62
     3
370
    30
100
AcDbLine
 10
2084.167767
 20
1441.573909
 30
0.0
 11
2088.365639
 21
1431.439255
 31
0.0
  0
LINE
  5
177
330
16F
100
AcDbEntity
  8
003
 62
     3
370
    30
100
AcDbLine
 10
2105.919374
 20
1438.710183
 30
0.0
 11
2101.721502
 21
1448.844836
 31
0.0
  0
CIRCLE
  5
178
330
16F
100
AcDbEntity
  8
003
 62
     3
370
    30
100
AcDbCircle
 10
2095.043571
 20
1440.142046
 30
0.0
 40
9.5
  0
ENDBLK
  5
171
330
16F
100
AcDbEntity
  8
0
100
AcDbBlockEnd
  0
BLOCK
  5
17A
330
179
100
AcDbEntity
  8
0
100
AcDbBlockBegin
  2
JZB-29
 70
     0
 10
0.0
 20
0.0
 30
0.0
  3
JZB-29
  1

  0
LINE
  5
17C
330
179
100
AcDbEntity
  8
003
 62
     3
370
    30
100
AcDbLine
 10
2809.509559
 20
1407.583332
 30
0.0
 11
2810.94135
 21
1396.707519
 31
0.0
  0
LINE
  5
17D
330
179
100
AcDbEntity
  8
003
 62
     3
370
    30
100
AcDbLine
 10
2790.672098
 20
1405.103396
 30
0.0
 11
2792.10389
 21
1394.227584
 31
0.0
  0
LINE
  5
17E
330
179
100
AcDbEntity
  8
003
 62
     3
370
    30
100
AcDbLine
 10
2799.374933
 20
1411.781271
 30
0.0
 11
2790.672098
 21
1405.103396
 31
0.0
  0
LINE
  5
17F
330
179
100
AcDbEntity
  8
003
 62
     3
370
    30
100
AcDbLine
 10
2802.238516
 20
1390.029645
 30
0.0
 11
2810.94135
 21
1396.707519
 31
0.0
  0
LINE
  5
180
330
179
100
AcDbEntity
  8
003
 62
     3
370
    30
100
AcDbLine
 10
2792.10389
 20
1394.227584
 30
0.0
 11
2802.238516
 21
1390.029645
 31
0.0
  0
LINE
  5
181
330
179
100
AcDbEntity
  8
003
 62
     3
370
    30
100
AcDbLine
 10
2809.509559
 20
1407.583332
 30
0.0
 11
2799.374933
 21
1411.781271
 31
0.0
  0
CIRCLE
  5
182
330
179
100
AcDbEntity
  8
003
 62
     3
370
    30
100
AcDbCircle
 10
2800.806724
 20
1400.905458
 30
0.0
 40
9.5
  0
ENDBLK
  5
17B
330
179
100
AcDbEntity
  8
0
100
AcDbBlockEnd
  0
BLOCK
  5
184
330
183
100
AcDbEntity
  8
0
100
AcDbBlockBegin
  2
JZB-30
 70
     0
 10
0.0
 20
0.0
 30
0.0
  3
JZB-30
  1

  0
LINE
  5
186
330
183
100
AcDbEntity
  8
003
 62
     3
370
    30
100
AcDbLine
 10
2802.238405
 20
1356.292164
 30
0.0
 11
2810.941195
 21
1349.614232
 31
0.0
  0
LINE
  5
187
330
183
100
AcDbEntity
  8
003
 62
     3
370
    30
100
AcDbLine
 10
2790.671888
 20
1341.218488
 30
0.0
 11
2799.374678
 21
1334.540557
 31
0.0
  0
LINE
  5
188
330
183
100
AcDbEntity
  8
003
 62
     3
370
    30
100
AcDbLine
 10
2792.103751
 20
1352.094292
 30
0.0
 11
2790.671888
 21
1341.218488
 31
0.0
  0
LINE
  5
189
330
183
100
AcDbEntity
  8
003
 62
     3
370
    30
100
AcDbLine
 10
2809.509332
 20
1338.738429
 30
0.0
 11
2810.941195
 21
1349.614232
 31
0.0
  0
LINE
  5
18A
330
183
100
AcDbEntity
  8
003
 62
     3
370
    30
100
AcDbLine
 10
2799.374678
 20
1334.540557
 30
0.0
 11
2809.509332
 21
1338.738429
 31
0.0
  0
LINE
  5
18B
330
183
100
AcDbEntity
  8
003
 62
     3
370
    30
100
AcDbLine
 10
2802.238405
 20
1356.292164
 30
0.0
 11
2792.103751
 21
1352.094292
 31
0.0
  0
CIRCLE
  5
18C
330
183
100
AcDbEntity
  8
003
 62
     3
370
    30
100
AcDbCircle
 10
2800.806542
 20
1345.41636
 30
0.0
 40
9.5
  0
ENDBLK
  5
185
330
183
100
AcDbEntity
  8
0
100
AcDbBlockEnd
  0
BLOCK
  5
18E
330
18D
100
AcDbEntity
  8
0
100
AcDbBlockBegin
  2
JZB-31
 70
     0
 10
0.0
 20
0.0
 30
0.0
  3
JZB-31
  1

  0
LINE
  5
190
330
18D
100
AcDbEntity
  8
003
 62
     3
370
    30
100
AcDbLine
 10
2833.365255
 20
1314.882348
 30
0.0
 11
2844.241068
 21
1316.31414
 31
0.0
  0
LINE
  5
191
330
18D
100
AcDbEntity
  8
003
 62
     3
370
    30
100
AcDbLine
 10
2835.845191
 20
1296.044888
 30
0.0
 11
2846.721004
 21
1297.476679
 31
0.0
  0
LINE
  5
192
330
18D
100
AcDbEntity
  8
003
 62
     3
370
    30
100
AcDbLine
 10
2829.167317
 20
1304.747722
 30
0.0
 11
2835.845191
 21
1296.044888
 31
0.0
  0
LINE
  5
193
330
18D
100
AcDbEntity
  8
003
 62
     3
370
    30
100
AcDbLine
 10
2850.918943
 20
1307.611305
 30
0.0
 11
2844.241068
 21
1316.31414
 31
0.0
  0
LINE
  5
194
330
18D
100
AcDbEntity
  8
003
 62
     3
370
    30
100
AcDbLine
 10
2846.721004
 20
1297.476679
 30
0.0
 11
2850.918943
 21
1307.611305
 31
0.0
  0
LINE
  5
195
330
18D
100
AcDbEntity
  8
003
 62
     3
370
    30
100
AcDbLine
 10
2833.365255
 20
1314.882348
 30
0.0
 11
2829.167317
 21
1304.747722
 31
0.0
  0
CIRCLE
  5
196
330
18D
100
AcDbEntity
  8
003
 62
     3
370
    30
100
AcDbCircle
 10
2840.04313
 20
1306.179514
 30
0.0
 40
9.5
  0
ENDBLK
  5
18F
330
18D
100
AcDbEntity
  8
0
100
AcDbBlockEnd
  0
BLOCK
  5
198
330
197
100
AcDbEntity
  8
0
100
AcDbBlockBegin
  2
JZB-32
 70
     0
 10
0.0
 20
0.0
 30
0.0
  3
JZB-32
  1

  0
LINE
  5
19A
330
197
100
AcDbEntity
  8
003
 62
     3
370
    30
100
AcDbLine
 10
2884.656424
 20
1307.611194
 30
0.0
 11
2891.334355
 21
1316.313985
 31
0.0
  0
LINE
  5
19B
330
197
100
AcDbEntity
  8
003
 62
     3
370
    30
100
AcDbLine
 10
2899.730099
 20
1296.044677
 30
0.0
 11
2906.408031
 21
1304.747468
 31
0.0
  0
LINE
  5
19C
330
197
100
AcDbEntity
  8
003
 62
     3
370
    30
100
AcDbLine
 10
2888.854296
 20
1297.47654
 30
0.0
 11
2899.730099
 21
1296.044677
 31
0.0
  0
LINE
  5
19D
330
197
100
AcDbEntity
  8
003
 62
     3
370
    30
100
AcDbLine
 10
2902.210159
 20
1314.882122
 30
0.0
 11
2891.334355
 21
1316.313985
 31
0.0
  0
LINE
  5
19E
330
197
100
AcDbEntity
  8
003
 62
     3
370
    30
100
AcDbLine
 10
2906.408031
 20
1304.747468
 30
0.0
 11
2902.210159
 21
1314.882122
 31
0.0
  0
LINE
  5
19F
330
197
100
AcDbEntity
  8
003
 62
     3
370
    30
100
AcDbLine
 10
2884.656424
 20
1307.611194
 30
0.0
 11
2888.854296
 21
1297.47654
 31
0.0
  0
CIRCLE
  5
1A0
330
197
100
AcDbEntity
  8
003
 62
     3
370
    30
100
AcDbCircle
 10
2895.532227
 20
1306.179331
 30
0.0
 40
9.5
  0
ENDBLK
  5
199
330
197
100
AcDbEntity
  8
0
100
AcDbBlockEnd
  0
BLOCK
  5
1A2
330
1A1
100
AcDbEntity
  8
0
100
AcDbBlockBegin
  2
JZB-33
 70
     0
 10
0.0
 20
0.0
 30
0.0
  3
JZB-33
  1

  0
LINE
  5
1A4
330
1A1
100
AcDbEntity
  8
003
 62
     3
370
    30
100
AcDbLine
 10
2926.066239
 20
1338.738045
 30
0.0
 11
2924.634448
 21
1349.613858
 31
0.0
  0
LINE
  5
1A5
330
1A1
100
AcDbEntity
  8
003
 62
     3
370
    30
100
AcDbLine
 10
2944.9037
 20
1341.21798
 30
0.0
 11
2943.471908
 21
1352.093793
 31
0.0
  0
LINE
  5
1A6
330
1A1
100
AcDbEntity
  8
003
 62
     3
370
    30
100
AcDbLine
 10
2936.200865
 20
1334.540106
 30
0.0
 11
2944.9037
 21
1341.21798
 31
0.0
  0
LINE
  5
1A7
330
1A1
100
AcDbEntity
  8
003
 62
     3
370
    30
100
AcDbLine
 10
2933.337282
 20
1356.291732
 30
0.0
 11
2924.634448
 21
1349.613858
 31
0.0
  0
LINE
  5
1A8
330
1A1
100
AcDbEntity
  8
003
 62
     3
370
    30
100
AcDbLine
 10
2943.471908
 20
1352.093793
 30
0.0
 11
2933.337282
 21
1356.291732
 31
0.0
  0
LINE
  5
1A9
330
1A1
100
AcDbEntity
  8
003
 62
     3
370
    30
100
AcDbLine
 10
2926.066239
 20
1338.738045
 30
0.0
 11
2936.200865
 21
1334.540106
 31
0.0
  0
CIRCLE
  5
1AA
330
1A1
100
AcDbEntity
  8
003
 62
     3
370
    30
100
AcDbCircle
 10
2934.769074
 20
1345.415919
 30
0.0
 40
9.5
  0
ENDBLK
  5
1A3
330
1A1
100
AcDbEntity
  8
0
100
AcDbBlockEnd
  0
BLOCK
  5
1AC
330
1AB
100
AcDbEntity
  8
0
100
AcDbBlockBegin
  2
JZB-34
 70
     0
 10
0.0
 20
0.0
 30
0.0
  3
JZB-34
  1

  0
LINE
  5
1AE
330
1AB
100
AcDbEntity
  8
003
 62
     3
370
    30
100
AcDbLine
 10
2933.337393
 20
1390.029213
 30
0.0
 11
2924.634603
 21
1396.707145
 31
0.0
  0
LINE
  5
1AF
330
1AB
100
AcDbEntity
  8
003
 62
     3
370
    30
100
AcDbLine
 10
2944.90391
 20
1405.102889
 30
0.0
 11
2936.20112
 21
1411.78082
 31
0.0
  0
LINE
  5
1B0
330
1AB
100
AcDbEntity
  8
003
 62
     3
370
    30
100
AcDbLine
 10
2943.472047
 20
1394.227085
 30
0.0
 11
2944.90391
 21
1405.102889
 31
0.0
  0
LINE
  5
1B1
330
1AB
100
AcDbEntity
  8
003
 62
     3
370
    30
100
AcDbLine
 10
2926.066466
 20
1407.582948
 30
0.0
 11
2924.634603
 21
1396.707145
 31
0.0
  0
LINE
  5
1B2
330
1AB
100
AcDbEntity
  8
003
 62
     3
370
    30
100
AcDbLine
 10
2936.20112
 20
1411.78082
 30
0.0
 11
2926.066466
 21
1407.582948
 31
0.0
  0
LINE
  5
1B3
330
1AB
100
AcDbEntity
  8
003
 62
     3
370
    30
100
AcDbLine
 10
2933.337393
 20
1390.029213
 30
0.0
 11
2943.472047
 21
1394.227085
 31
0.0
  0
CIRCLE
  5
1B4
330
1AB
100
AcDbEntity
  8
003
 62
     3
370
    30
100
AcDbCircle
 10
2934.769257
 20
1400.905017
 30
0.0
 40
9.5
  0
ENDBLK
  5
1AD
330
1AB
100
AcDbEntity
  8
0
100
AcDbBlockEnd
  0
BLOCK
  5
1B6
330
1B5
100
AcDbEntity
  8
0
100
AcDbBlockBegin
  2
JZB-35
 70
     0
 10
0.0
 20
0.0
 30
0.0
  3
JZB-35
  1

  0
LINE
  5
1B8
330
1B5
100
AcDbEntity
  8
003
 62
     3
370
    30
100
AcDbLine
 10
2902.210543
 20
1431.439029
 30
0.0
 11
2891.33473
 21
1430.007237
 31
0.0
  0
LINE
  5
1B9
330
1B5
100
AcDbEntity
  8
003
 62
     3
370
    30
100
AcDbLine
 10
2899.730607
 20
1450.276489
 30
0.0
 11
2888.854794
 21
1448.844698
 31
0.0
  0
LINE
  5
1BA
330
1B5
100
AcDbEntity
  8
003
 62
     3
370
    30
100
AcDbLine
 10
2906.408481
 20
1441.573655
 30
0.0
 11
2899.730607
 21
1450.276489
 31
0.0
  0
LINE
  5
1BB
330
1B5
100
AcDbEntity
  8
003
 62
     3
370
    30
100
AcDbLine
 10
2884.656856
 20
1438.710072
 30
0.0
 11
2891.33473
 21
1430.007237
 31
0.0
  0
LINE
  5
1BC
330
1B5
100
AcDbEntity
  8
003
 62
     3
370
    30
100
AcDbLine
 10
2888.854794
 20
1448.844698
 30
0.0
 11
2884.656856
 21
1438.710072
 31
0.0
  0
LINE
  5
1BD
330
1B5
100
AcDbEntity
  8
003
 62
     3
370
    30
100
AcDbLine
 10
2902.210543
 20
1431.439029
 30
0.0
 11
2906.408481
 21
1441.573655
 31
0.0
  0
CIRCLE
  5
1BE
330
1B5
100
AcDbEntity
  8
003
 62
     3
370
    30
100
AcDbCircle
 10
2895.532668
 20
1440.141863
 30
0.0
 40
9.5
  0
ENDBLK
  5
1B7
330
1B5
100
AcDbEntity
  8
0
100
AcDbBlockEnd
  0
BLOCK
  5
1C0
330
1BF
100
AcDbEntity
  8
0
100
AcDbBlockBegin
  2
JZB-36
 70
     0
 10
0.0
 20
0.0
 30
0.0
  3
JZB-36
  1

  0
LINE
  5
1C2
330
1BF
100
AcDbEntity
  8
003
 62
     3
370
    30
100
AcDbLine
 10
2850.919374
 20
1438.710183
 30
0.0
 11
2844.241443
 21
1430.007392
 31
0.0
  0
LINE
  5
1C3
330
1BF
100
AcDbEntity
  8
003
 62
     3
370
    30
100
AcDbLine
 10
2835.845699
 20
1450.2767
 30
0.0
 11
2829.167767
 21
1441.573909
 31
0.0
  0
LINE
  5
1C4
330
1BF
100
AcDbEntity
  8
003
 62
     3
370
    30
100
AcDbLine
 10
2846.721502
 20
1448.844836
 30
0.0
 11
2835.845699
 21
1450.2767
 31
0.0
  0
LINE
  5
1C5
330
1BF
100
AcDbEntity
  8
003
 62
     3
370
    30
100
AcDbLine
 10
2833.365639
 20
1431.439255
 30
0.0
 11
2844.241443
 21
1430.007392
 31
0.0
  0
LINE
  5
1C6
330
1BF
100
AcDbEntity
  8
003
 62
     3
370
    30
100
AcDbLine
 10
2829.167767
 20
1441.573909
 30
0.0
 11
2833.365639
 21
1431.439255
 31
0.0
  0
LINE
  5
1C7
330
1BF
100
AcDbEntity
  8
003
 62
     3
370
    30
100
AcDbLine
 10
2850.919374
 20
1438.710183
 30
0.0
 11
2846.721502
 21
1448.844836
 31
0.0
  0
CIRCLE
  5
1C8
330
1BF
100
AcDbEntity
  8
003
 62
     3
370
    30
100
AcDbCircle
 10
2840.043571
 20
1440.142046
 30
0.0
 40
9.5
  0
ENDBLK
  5
1C1
330
1BF
100
AcDbEntity
  8
0
100
AcDbBlockEnd
  0
ENDSEC
  0
SECTION
  2
ENTITIES
  0
INSERT
  5
1C9
330
1F
100
AcDbEntity
  8
004
  6
ByBlock
 62
     0
370
    -2
100
AcDbBlockReference
  2
JZB-1
 10
0.0
 20
0.0
 30
0.0
  0
INSERT
  5
1CA
330
1F
100
AcDbEntity
  8
004
  6
ByBlock
 62
     0
370
    -2
100
AcDbBlockReference
  2
JZB-2
 10
0.0
 20
0.0
 30
0.0
  0
INSERT
  5
1CB
330
1F
100
AcDbEntity
  8
004
  6
ByBlock
 62
     0
370
    -2
100
AcDbBlockReference
  2
JZB-3
 10
0.0
 20
0.0
 30
0.0
  0
INSERT
  5
1CC
330
1F
100
AcDbEntity
  8
004
  6
ByBlock
 62
     0
370
    -2
100
AcDbBlockReference
  2
JZB-4
 10
0.0
 20
0.0
 30
0.0
  0
INSERT
  5
1CD
330
1F
100
AcDbEntity
  8
003
  6
ByBlock
 62
     0
370
    -2
100
AcDbBlockReference
  2
JZB-5
 10
0.0
 20
0.0
 30
0.0
  0
INSERT
  5
1CE
330
1F
100
AcDbEntity
  8
003
  6
ByBlock
 62
     0
370
    -2
100
AcDbBlockReference
  2
JZB-6
 10
0.0
 20
0.0
 30
0.0
  0
INSERT
  5
1CF
330
1F
100
AcDbEntity
  8
003
  6
ByBlock
 62
     0
370
    -2
100
AcDbBlockReference
  2
JZB-7
 10
0.0
 20
0.0
 30
0.0
  0
INSERT
  5
1D0
330
1F
100
AcDbEntity
  8
003
  6
ByBlock
 62
     0
370
    -2
100
AcDbBlockReference
  2
JZB-8
 10
0.0
 20
0.0
 30
0.0
  0
INSERT
  5
1D1
330
1F
100
AcDbEntity
  8
003
  6
ByBlock
 62
     0
370
    -2
100
AcDbBlockReference
  2
JZB-9
 10
0.0
 20
0.0
 30
0.0
  0
INSERT
  5
1D2
330
1F
100
AcDbEntity
  8
003
  6
ByBlock
 62
     0
370
    -2
100
AcDbBlockReference
  2
JZB-10
 10
0.0
 20
0.0
 30
0.0
  0
INSERT
  5
1D3
330
1F
100
AcDbEntity
  8
003
  6
ByBlock
 62
     0
370
    -2
100
AcDbBlockReference
  2
JZB-11
 10
0.0
 20
0.0
 30
0.0
  0
INSERT
  5
1D4
330
1F
100
AcDbEntity
  8
003
  6
ByBlock
 62
     0
370
    -2
100
AcDbBlockReference
  2
JZB-12
 10
0.0
 20
0.0
 30
0.0
  0
INSERT
  5
1D5
330
1F
100
AcDbEntity
  8
003
  6
ByBlock
 62
     0
370
    -2
100
AcDbBlockReference
  2
JZB-13
 10
0.0
 20
0.0
 30
0.0
  0
INSERT
  5
1D6
330
1F
100
AcDbEntity
  8
003
  6
ByBlock
 62
     0
370
    -2
100
AcDbBlockReference
  2
JZB-14
 10
0.0
 20
0.0
 30
0.0
  0
INSERT
  5
1D7
330
1F
100
AcDbEntity
  8
003
  6
ByBlock
 62
     0
370
    -2
100
AcDbBlockReference
  2
JZB-15
 10
0.0
 20
0.0
 30
0.0
  0
INSERT
  5
1D8
330
1F
100
AcDbEntity
  8
003
  6
ByBlock
 62
     0
370
    -2
100
AcDbBlockReference
  2
JZB-16
 10
0.0
 20
0.0
 30
0.0
  0
INSERT
  5
1D9
330
1F
100
AcDbEntity
  8
003
  6
ByBlock
 62
     0
370
    -2
100
AcDbBlockReference
  2
JZB-17
 10
0.0
 20
0.0
 30
0.0
  0
INSERT
  5
1DA
330
1F
100
AcDbEntity
  8
003
  6
ByBlock
 62
     0
370
    -2
100
AcDbBlockReference
  2
JZB-18
 10
0.0
 20
0.0
 30
0.0
  0
INSERT
  5
1DB
330
1F
100
AcDbEntity
  8
003
  6
ByBlock
 62
     0
370
    -2
100
AcDbBlockReference
  2
JZB-19
 10
0.0
 20
0.0
 30
0.0
  0
INSERT
  5
1DC
330
1F
100
AcDbEntity
  8
003
  6
ByBlock
 62
     0
370
    -2
100
AcDbBlockReference
  2
JZB-20
 10
0.0
 20
0.0
 30
0.0
  0
INSERT
  5
1DD
330
1F
100
AcDbEntity
  8
003
  6
ByBlock
 62
     0
370
    -2
100
AcDbBlockReference
  2
JZB-21
 10
0.0
 20
0.0
 30
0.0
  0
INSERT
  5
1DE
330
1F
100
AcDbEntity
  8
003
  6
ByBlock
 62
     0
370
    -2
100
AcDbBlockReference
  2
JZB-22
 10
0.0
 20
0.0
 30
0.0
  0
INSERT
  5
1DF
330
1F
100
AcDbEntity
  8
003
  6
ByBlock
 62
     0
370
    -2
100
AcDbBlockReference
  2
JZB-23
 10
0.0
 20
0.0
 30
0.0
  0
INSERT
  5
1E0
330
1F
100
AcDbEntity
  8
003
  6
ByBlock
 62
     0
370
    -2
100
AcDbBlockReference
  2
JZB-24
 10
0.0
 20
0.0
 30
0.0
  0
INSERT
  5
1E1
330
1F
100
AcDbEntity
  8
003
  6
ByBlock
 62
     0
370
    -2
100
AcDbBlockReference
  2
JZB-25
 10
0.0
 20
0.0
 30
0.0
  0
INSERT
  5
1E2
330
1F
100
AcDbEntity
  8
003
  6
ByBlock
 62
     0
370
    -2
100
AcDbBlockReference
  2
JZB-26
 10
0.0
 20
0.0
 30
0.0
  0
INSERT
  5
1E3
330
1F
100
AcDbEntity
  8
003
  6
ByBlock
 62
     0
370
    -2
100
AcDbBlockReference
  2
JZB-27
 10
0.0
 20
0.0
 30
0.0
  0
INSERT
  5
1E4
330
1F
100
AcDbEntity
  8
003
  6
ByBlock
 62
     0
370
    -2
100
AcDbBlockReference
  2
JZB-28
 10
0.0
 20
0.0
 30
0.0
  0
INSERT
  5
1E5
330
1F
100
AcDbEntity
  8
003
  6
ByBlock
 62
     0
370
    -2
100
AcDbBlockReference
  2
JZB-29
 10
0.0
 20
0.0
 30
0.0
  0
INSERT
  5
1E6
330
1F
100
AcDbEntity
  8
003
  6
ByBlock
 62
     0
370
    -2
100
AcDbBlockReference
  2
JZB-30
 10
0.0
 20
0.0
 30
0.0
  0
INSERT
  5
1E7
330
1F
100
AcDbEntity
  8
003
  6
ByBlock
 62
     0
370
    -2
100
AcDbBlockReference
  2
JZB-31
 10
0.0
 20
0.0
 30
0.0
  0
INSERT
  5
1E8
330
1F
100
AcDbEntity
  8
003
  6
ByBlock
 62
     0
370
    -2
100
AcDbBlockReference
  2
JZB-32
 10
0.0
 20
0.0
 30
0.0
  0
INSERT
  5
1E9
330
1F
100
AcDbEntity
  8
003
  6
ByBlock
 62
     0
370
    -2
100
AcDbBlockReference
  2
JZB-33
 10
0.0
 20
0.0
 30
0.0
  0
INSERT
  5
1EA
330
1F
100
AcDbEntity
  8
003
  6
ByBlock
 62
     0
370
    -2
100
AcDbBlockReference
  2
JZB-34
 10
0.0
 20
0.0
 30
0.0
  0
INSERT
  5
1EB
330
1F
100
AcDbEntity
  8
003
  6
ByBlock
 62
     0
370
    -2
100
AcDbBlockReference
  2
JZB-35
 10
0.0
 20
0.0
 30
0.0
  0
INSERT
  5
1EC
330
1F
100
AcDbEntity
  8
003
  6
ByBlock
 62
     0
370
    -2
100
AcDbBlockReference
  2
JZB-36
 10
0.0
 20
0.0
 30
0.0
  0
LINE
  5
1ED
330
1F
100
AcDbEntity
  8
002
 62
     3
370
    30
100
AcDbLine
 10
587.145381
 20
3515.010606
 30
0.0
 11
632.145381
 21
3515.010606
 31
0.0
  0
LINE
  5
1EE
330
1F
100
AcDbEntity
  8
002
 62
     3
370
    30
100
AcDbLine
 10
632.145381
 20
3515.010606
 30
0.0
 11
632.145381
 21
3613.010606
 31
0.0
  0
LINE
  5
1EF
330
1F
100
AcDbEntity
  8
002
 62
     3
370
    30
100
AcDbLine
 10
634.645381
 20
3613.010606
 30
0.0
 11
634.645381
 21
3615.010606
 31
0.0
  0
LINE
  5
1F0
330
1F
100
AcDbEntity
  8
002
 62
     3
370
    30
100
AcDbLine
 10
584.645381
 20
3613.010606
 30
0.0
 11
634.645381
 21
3613.010606
 31
0.0
  0
LINE
  5
1F1
330
1F
100
AcDbEntity
  8
002
 62
     3
370
    30
100
AcDbLine
 10
587.145381
 20
3515.010606
 30
0.0
 11
587.145381
 21
3613.010606
 31
0.0
  0
LINE
  5
1F2
330
1F
100
AcDbEntity
  8
002
 62
     3
370
    30
100
AcDbLine
 10
584.645381
 20
3613.010606
 30
0.0
 11
584.645381
 21
3615.010606
 31
0.0
  0
LINE
  5
1F3
330
1F
100
AcDbEntity
  8
002
 62
     3
370
    30
100
AcDbLine
 10
567.588381
 20
3635.010606
 30
0.0
 11
749.645381
 21
3635.010606
 31
0.0
  0
ARC
  5
1F4
330
1F
100
AcDbEntity
  8
002
 62
     3
370
    30
100
AcDbCircle
 10
749.645381
 20
3685.010606
 30
0.0
 40
50.0
100
AcDbArc
 50
270.0
 51
0.0
  0
LINE
  5
1F5
330
1F
100
AcDbEntity
  8
002
 62
     3
370
    30
100
AcDbLine
 10
799.645381
 20
3685.010606
 30
0.0
 11
799.645381
 21
3945.010606
 31
0.0
  0
ARC
  5
1F6
330
1F
100
AcDbEntity
  8
002
 62
     3
370
    30
100
AcDbCircle
 10
749.645381
 20
3945.010606
 30
0.0
 40
50.0
100
AcDbArc
 50
0.0
 51
90.0
  0
LINE
  5
1F7
330
1F
100
AcDbEntity
  8
002
 62
     3
370
    30
100
AcDbLine
 10
749.645381
 20
3995.010606
 30
0.0
 11
567.588381
 21
3995.010606
 31
0.0
  0
ARC
  5
1F8
330
1F
100
AcDbEntity
  8
002
 62
     3
370
    30
100
AcDbCircle
 10
556.145381
 20
4008.010606
 30
0.0
 40
1.0
100
AcDbArc
 50
270.0
 51
0.0
  0
LINE
  5
1F9
330
1F
100
AcDbEntity
  8
002
 62
     3
370
    30
100
AcDbLine
 10
557.145381
 20
4008.010606
 30
0.0
 11
557.145381
 21
4015.010606
 31
0.0
  0
LINE
  5
1FA
330
1F
100
AcDbEntity
  8
002
 62
     3
370
    30
100
AcDbLine
 10
557.145381
 20
4015.010606
 30
0.0
 11
662.145381
 21
4015.010606
 31
0.0
  0
LINE
  5
1FB
330
1F
100
AcDbEntity
  8
002
 62
     3
370
    30
100
AcDbLine
 10
545.706381
 20
4007.010606
 30
0.0
 11
694.645381
 21
4007.010606
 31
0.0
  0
LINE
  5
1FC
330
1F
100
AcDbEntity
  8
002
 62
     3
370
    30
100
AcDbLine
 10
694.645381
 20
4006.010606
 30
0.0
 11
694.645381
 21
3930.010606
 31
0.0
  0
ARC
  5
1FD
330
1F
100
AcDbEntity
  8
002
 62
     3
370
    30
100
AcDbCircle
 10
709.645381
 20
3930.010606
 30
0.0
 40
15.0
100
AcDbArc
 50
180.0
 51
270.0
  0
LINE
  5
1FE
330
1F
100
AcDbEntity
  8
002
 62
     3
370
    30
100
AcDbLine
 10
709.645381
 20
3915.010606
 30
0.0
 11
714.470381
 21
3915.010606
 31
0.0
  0
LINE
  5
1FF
330
1F
100
AcDbEntity
  8
002
 62
     3
370
    30
100
AcDbLine
 10
714.470381
 20
3915.010606
 30
0.0
 11
714.470381
 21
3715.010606
 31
0.0
  0
LINE
  5
200
330
1F
100
AcDbEntity
  8
002
 62
     3
370
    30
100
AcDbLine
 10
714.470381
 20
3715.010606
 30
0.0
 11
709.645381
 21
3715.010606
 31
0.0
  0
ARC
  5
201
330
1F
100
AcDbEntity
  8
002
 62
     3
370
    30
100
AcDbCircle
 10
709.645381
 20
3700.010606
 30
0.0
 40
15.0
100
AcDbArc
 50
90.0
 51
180.0
  0
LINE
  5
202
330
1F
100
AcDbEntity
  8
002
 62
     3
370
    30
100
AcDbLine
 10
694.645381
 20
3700.010606
 30
0.0
 11
694.645381
 21
3623.010606
 31
0.0
  0
LINE
  5
203
330
1F
100
AcDbEntity
  8
002
 62
     3
370
    30
100
AcDbLine
 10
694.645381
 20
3623.010606
 30
0.0
 11
545.706381
 21
3623.010606
 31
0.0
  0
LINE
  5
204
330
1F
100
AcDbEntity
  8
002
 62
     3
370
    30
100
AcDbLine
 10
557.145381
 20
3615.010606
 30
0.0
 11
662.145381
 21
3615.010606
 31
0.0
  0
LINE
  5
205
330
1F
100
AcDbEntity
  8
002
 62
     3
370
    30
100
AcDbLine
 10
662.145381
 20
3615.010606
 30
0.0
 11
662.145381
 21
3622.010606
 31
0.0
  0
ARC
  5
206
330
1F
100
AcDbEntity
  8
002
 62
     3
370
    30
100
AcDbCircle
 10
663.145381
 20
3622.010606
 30
0.0
 40
1.0
100
AcDbArc
 50
90.0
 51
180.0
  0
LINE
  5
207
330
1F
100
AcDbEntity
  8
002
 62
     3
370
    30
100
AcDbLine
 10
557.145381
 20
3615.010606
 30
0.0
 11
557.145381
 21
3622.010606
 31
0.0
  0
ARC
  5
208
330
1F
100
AcDbEntity
  8
002
 62
     3
370
    30
100
AcDbCircle
 10
556.145381
 20
3622.010606
 30
0.0
 40
1.0
100
AcDbArc
 50
0.0
 51
90.0
  0
LINE
  5
209
330
1F
100
AcDbEntity
  8
002
 62
     3
370
    30
100
AcDbLine
 10
512.654381
 20
3631.359606
 30
0.0
 11
510.113381
 21
3640.839606
 31
0.0
  0
LINE
  5
20A
330
1F
100
AcDbEntity
  8
002
 62
     3
370
    30
100
AcDbLine
 10
510.113381
 20
3640.839606
 30
0.0
 11
500.633381
 21
3643.380606
 31
0.0
  0
LINE
  5
20B
330
1F
100
AcDbEntity
  8
002
 62
     3
370
    30
100
AcDbLine
 10
500.633381
 20
3643.380606
 30
0.0
 11
493.693381
 21
3636.439606
 31
0.0
  0
LINE
  5
20C
330
1F
100
AcDbEntity
  8
002
 62
     3
370
    30
100
AcDbLine
 10
493.693381
 20
3636.439606
 30
0.0
 11
496.233381
 21
3626.959606
 31
0.0
  0
LINE
  5
20D
330
1F
100
AcDbEntity
  8
002
 62
     3
370
    30
100
AcDbLine
 10
496.233381
 20
3626.959606
 30
0.0
 11
505.713381
 21
3624.419606
 31
0.0
  0
LINE
  5
20E
330
1F
100
AcDbEntity
  8
002
 62
     3
370
    30
100
AcDbLine
 10
505.713381
 20
3624.419606
 30
0.0
 11
512.654381
 21
3631.359606
 31
0.0
  0
CIRCLE
  5
20F
330
1F
100
AcDbEntity
  8
002
 62
     3
370
    30
100
AcDbCircle
 10
503.173381
 20
3633.899606
 30
0.0
 40
16.5
  0
LINE
  5
210
330
1F
100
AcDbEntity
  8
002
 62
     3
370
    30
100
AcDbLine
 10
577.747381
 20
3679.887606
 30
0.0
 11
584.687381
 21
3672.947606
 31
0.0
  0
LINE
  5
211
330
1F
100
AcDbEntity
  8
002
 62
     3
370
    30
100
AcDbLine
 10
584.687381
 20
3672.947606
 30
0.0
 11
594.167381
 21
3675.488606
 31
0.0
  0
LINE
  5
212
330
1F
100
AcDbEntity
  8
002
 62
     3
370
    30
100
AcDbLine
 10
594.167381
 20
3675.488606
 30
0.0
 11
596.708381
 21
3684.968606
 31
0.0
  0
LINE
  5
213
330
1F
100
AcDbEntity
  8
002
 62
     3
370
    30
100
AcDbLine
 10
596.708381
 20
3684.968606
 30
0.0
 11
589.767381
 21
3691.908606
 31
0.0
  0
LINE
  5
214
330
1F
100
AcDbEntity
  8
002
 62
     3
370
    30
100
AcDbLine
 10
589.767381
 20
3691.908606
 30
0.0
 11
580.287381
 21
3689.368606
 31
0.0
  0
LINE
  5
215
330
1F
100
AcDbEntity
  8
002
 62
     3
370
    30
100
AcDbLine
 10
580.287381
 20
3689.368606
 30
0.0
 11
577.747381
 21
3679.887606
 31
0.0
  0
CIRCLE
  5
216
330
1F
100
AcDbEntity
  8
002
 62
     3
370
    30
100
AcDbCircle
 10
587.227381
 20
3682.428606
 30
0.0
 40
16.5
  0
LINE
  5
217
330
1F
100
AcDbEntity
  8
002
 62
     3
370
    30
100
AcDbLine
 10
626.275381
 20
3769.022606
 30
0.0
 11
628.815381
 21
3759.542606
 31
0.0
  0
LINE
  5
218
330
1F
100
AcDbEntity
  8
002
 62
     3
370
    30
100
AcDbLine
 10
628.815381
 20
3759.542606
 30
0.0
 11
638.296381
 21
3757.001606
 31
0.0
  0
LINE
  5
219
330
1F
100
AcDbEntity
  8
002
 62
     3
370
    30
100
AcDbLine
 10
638.296381
 20
3757.001606
 30
0.0
 11
645.236381
 21
3763.941606
 31
0.0
  0
LINE
  5
21A
330
1F
100
AcDbEntity
  8
002
 62
     3
370
    30
100
AcDbLine
 10
645.236381
 20
3763.941606
 30
0.0
 11
642.696381
 21
3773.422606
 31
0.0
  0
LINE
  5
21B
330
1F
100
AcDbEntity
  8
002
 62
     3
370
    30
100
AcDbLine
 10
642.696381
 20
3773.422606
 30
0.0
 11
633.215381
 21
3775.962606
 31
0.0
  0
LINE
  5
21C
330
1F
100
AcDbEntity
  8
002
 62
     3
370
    30
100
AcDbLine
 10
633.215381
 20
3775.962606
 30
0.0
 11
626.275381
 21
3769.022606
 31
0.0
  0
CIRCLE
  5
21D
330
1F
100
AcDbEntity
  8
002
 62
     3
370
    30
100
AcDbCircle
 10
635.756381
 20
3766.482606
 30
0.0
 40
16.5
  0
LINE
  5
21E
330
1F
100
AcDbEntity
  8
002
 62
     3
370
    30
100
AcDbLine
 10
633.215381
 20
3854.058606
 30
0.0
 11
642.696381
 21
3856.599606
 31
0.0
  0
LINE
  5
21F
330
1F
100
AcDbEntity
  8
002
 62
     3
370
    30
100
AcDbLine
 10
642.696381
 20
3856.599606
 30
0.0
 11
645.236381
 21
3866.079606
 31
0.0
  0
LINE
  5
220
330
1F
100
AcDbEntity
  8
002
 62
     3
370
    30
100
AcDbLine
 10
645.236381
 20
3866.079606
 30
0.0
 11
638.296381
 21
3873.019606
 31
0.0
  0
LINE
  5
221
330
1F
100
AcDbEntity
  8
002
 62
     3
370
    30
100
AcDbLine
 10
638.296381
 20
3873.019606
 30
0.0
 11
628.815381
 21
3870.479606
 31
0.0
  0
LINE
  5
222
330
1F
100
AcDbEntity
  8
002
 62
     3
370
    30
100
AcDbLine
 10
628.815381
 20
3870.479606
 30
0.0
 11
626.275381
 21
3860.999606
 31
0.0
  0
LINE
  5
223
330
1F
100
AcDbEntity
  8
002
 62
     3
370
    30
100
AcDbLine
 10
626.275381
 20
3860.999606
 30
0.0
 11
633.215381
 21
3854.058606
 31
0.0
  0
CIRCLE
  5
224
330
1F
100
AcDbEntity
  8
002
 62
     3
370
    30
100
AcDbCircle
 10
635.756381
 20
3863.539606
 30
0.0
 40
16.5
  0
LINE
  5
225
330
1F
100
AcDbEntity
  8
002
 62
     3
370
    30
100
AcDbLine
 10
693.353381
 20
3915.010606
 30
0.0
 11
693.353381
 21
3715.010606
 31
0.0
  0
CIRCLE
  5
226
330
1F
100
AcDbEntity
  8
002
 62
     3
370
    30
100
AcDbCircle
 10
749.645381
 20
3685.010606
 30
0.0
 40
22.5
  0
CIRCLE
  5
227
330
1F
100
AcDbEntity
  8
002
 62
     3
370
    30
100
AcDbCircle
 10
749.645381
 20
3685.010606
 30
0.0
 40
41.0
  0
LINE
  5
228
330
1F
100
AcDbEntity
  8
002
 62
     3
370
    30
100
AcDbLine
 10
415.597381
 20
3636.439606
 30
0.0
 11
413.056381
 21
3626.959606
 31
0.0
  0
LINE
  5
229
330
1F
100
AcDbEntity
  8
002
 62
     3
370
    30
100
AcDbLine
 10
413.056381
 20
3626.959606
 30
0.0
 11
403.576381
 21
3624.419606
 31
0.0
  0
LINE
  5
22A
330
1F
100
AcDbEntity
  8
002
 62
     3
370
    30
100
AcDbLine
 10
403.576381
 20
3624.419606
 30
0.0
 11
396.636381
 21
3631.359606
 31
0.0
  0
LINE
  5
22B
330
1F
100
AcDbEntity
  8
002
 62
     3
370
    30
100
AcDbLine
 10
396.636381
 20
3631.359606
 30
0.0
 11
399.176381
 21
3640.839606
 31
0.0
  0
LINE
  5
22C
330
1F
100
AcDbEntity
  8
002
 62
     3
370
    30
100
AcDbLine
 10
399.176381
 20
3640.839606
 30
0.0
 11
408.656381
 21
3643.380606
 31
0.0
  0
LINE
  5
22D
330
1F
100
AcDbEntity
  8
002
 62
     3
370
    30
100
AcDbLine
 10
408.656381
 20
3643.380606
 30
0.0
 11
415.597381
 21
3636.439606
 31
0.0
  0
CIRCLE
  5
22E
330
1F
100
AcDbEntity
  8
002
 62
     3
370
    30
100
AcDbCircle
 10
406.116381
 20
3633.899606
 30
0.0
 40
16.5
  0
LINE
  5
22F
330
1F
100
AcDbEntity
  8
002
 62
     3
370
    30
100
AcDbLine
 10
341.701381
 20
3635.010606
 30
0.0
 11
254.645381
 21
3635.010606
 31
0.0
  0
LINE
  5
230
330
1F
100
AcDbEntity
  8
002
 62
     3
370
    30
100
AcDbLine
 10
204.645381
 20
3685.010606
 30
0.0
 11
204.645381
 21
3945.010606
 31
0.0
  0
CIRCLE
  5
231
330
1F
100
AcDbEntity
  8
002
 62
     3
370
    30
100
AcDbCircle
 10
254.645381
 20
3945.010606
 30
0.0
 40
22.5
  0
ARC
  5
232
330
1F
100
AcDbEntity
  8
002
 62
     3
370
    30
100
AcDbCircle
 10
254.645381
 20
3945.010606
 30
0.0
 40
50.0
100
AcDbArc
 50
90.0
 51
180.0
  0
ARC
  5
233
330
1F
100
AcDbEntity
  8
002
 62
     3
370
    30
100
AcDbCircle
 10
235.820381
 20
3900.010606
 30
0.0
 40
10.0
100
AcDbArc
 50
220.831247
 51
270.0
  0
LINE
  5
234
330
1F
100
AcDbEntity
  8
002
 62
     3
370
    30
100
AcDbLine
 10
235.820381
 20
3890.010606
 30
0.0
 11
255.820381
 21
3890.010606
 31
0.0
  0
CIRCLE
  5
235
330
1F
100
AcDbEntity
  8
002
 62
     3
370
    30
100
AcDbCircle
 10
273.534381
 20
3863.539606
 30
0.0
 40
16.5
  0
LINE
  5
236
330
1F
100
AcDbEntity
  8
002
 62
     3
370
    30
100
AcDbLine
 10
270.993381
 20
3873.019606
 30
0.0
 11
264.053381
 21
3866.079606
 31
0.0
  0
LINE
  5
237
330
1F
100
AcDbEntity
  8
002
 62
     3
370
    30
100
AcDbLine
 10
264.053381
 20
3866.079606
 30
0.0
 11
266.593381
 21
3856.599606
 31
0.0
  0
LINE
  5
238
330
1F
100
AcDbEntity
  8
002
 62
     3
370
    30
100
AcDbLine
 10
266.593381
 20
3856.599606
 30
0.0
 11
276.074381
 21
3854.058606
 31
0.0
  0
LINE
  5
239
330
1F
100
AcDbEntity
  8
002
 62
     3
370
    30
100
AcDbLine
 10
276.074381
 20
3854.058606
 30
0.0
 11
283.014381
 21
3860.999606
 31
0.0
  0
LINE
  5
23A
330
1F
100
AcDbEntity
  8
002
 62
     3
370
    30
100
AcDbLine
 10
283.014381
 20
3860.999606
 30
0.0
 11
280.474381
 21
3870.479606
 31
0.0
  0
LINE
  5
23B
330
1F
100
AcDbEntity
  8
002
 62
     3
370
    30
100
AcDbLine
 10
280.474381
 20
3870.479606
 30
0.0
 11
270.993381
 21
3873.019606
 31
0.0
  0
LINE
  5
23C
330
1F
100
AcDbEntity
  8
002
 62
     3
370
    30
100
AcDbLine
 10
228.254381
 20
3890.010606
 30
0.0
 11
228.254381
 21
3740.010606
 31
0.0
  0
ARC
  5
23D
330
1F
100
AcDbEntity
  8
002
 62
     3
370
    30
100
AcDbCircle
 10
235.820381
 20
3730.010606
 30
0.0
 40
10.00014384896507
100
AcDbArc
 50
90.0
 51
139.164418
  0
LINE
  5
23E
330
1F
100
AcDbEntity
  8
002
 62
     3
370
    30
100
AcDbLine
 10
235.820381
 20
3740.010606
 30
0.0
 11
255.820381
 21
3740.010606
 31
0.0
  0
ARC
  5
23F
330
1F
100
AcDbEntity
  8
002
 62
     3
370
    30
100
AcDbCircle
 10
254.645381
 20
3685.010606
 30
0.0
 40
40.99947025267526
100
AcDbArc
 50
79.684154
 51
346.365062
  0
LINE
  5
240
330
1F
100
AcDbEntity
  8
002
 62
     3
370
    30
100
AcDbLine
 10
312.582381
 20
3684.968606
 30
0.0
 11
315.122381
 21
3675.488606
 31
0.0
  0
LINE
  5
241
330
1F
100
AcDbEntity
  8
002
 62
     3
370
    30
100
AcDbLine
 10
315.122381
 20
3675.488606
 30
0.0
 11
324.602381
 21
3672.947606
 31
0.0
  0
LINE
  5
242
330
1F
100
AcDbEntity
  8
002
 62
     3
370
    30
100
AcDbLine
 10
324.602381
 20
3672.947606
 30
0.0
 11
331.543381
 21
3679.887606
 31
0.0
  0
LINE
  5
243
330
1F
100
AcDbEntity
  8
002
 62
     3
370
    30
100
AcDbLine
 10
331.543381
 20
3679.887606
 30
0.0
 11
329.002381
 21
3689.368606
 31
0.0
  0
LINE
  5
244
330
1F
100
AcDbEntity
  8
002
 62
     3
370
    30
100
AcDbLine
 10
329.002381
 20
3689.368606
 30
0.0
 11
319.522381
 21
3691.908606
 31
0.0
  0
LINE
  5
245
330
1F
100
AcDbEntity
  8
002
 62
     3
370
    30
100
AcDbLine
 10
319.522381
 20
3691.908606
 30
0.0
 11
312.582381
 21
3684.968606
 31
0.0
  0
CIRCLE
  5
246
330
1F
100
AcDbEntity
  8
002
 62
     3
370
    30
100
AcDbCircle
 10
322.062381
 20
3682.428606
 30
0.0
 40
16.5
  0
CIRCLE
  5
247
330
1F
100
AcDbEntity
  8
002
 62
     3
370
    30
100
AcDbCircle
 10
254.645381
 20
3685.010606
 30
0.0
 40
22.5
  0
LINE
  5
248
330
1F
100
AcDbEntity
  8
002
 62
     3
370
    30
100
AcDbLine
 10
270.993381
 20
3757.001606
 30
0.0
 11
280.474381
 21
3759.542606
 31
0.0
  0
LINE
  5
249
330
1F
100
AcDbEntity
  8
002
 62
     3
370
    30
100
AcDbLine
 10
280.474381
 20
3759.542606
 30
0.0
 11
283.014381
 21
3769.022606
 31
0.0
  0
LINE
  5
24A
330
1F
100
AcDbEntity
  8
002
 62
     3
370
    30
100
AcDbLine
 10
283.014381
 20
3769.022606
 30
0.0
 11
276.074381
 21
3775.962606
 31
0.0
  0
LINE
  5
24B
330
1F
100
AcDbEntity
  8
002
 62
     3
370
    30
100
AcDbLine
 10
276.074381
 20
3775.962606
 30
0.0
 11
266.593381
 21
3773.422606
 31
0.0
  0
LINE
  5
24C
330
1F
100
AcDbEntity
  8
002
 62
     3
370
    30
100
AcDbLine
 10
266.593381
 20
3773.422606
 30
0.0
 11
264.053381
 21
3763.941606
 31
0.0
  0
LINE
  5
24D
330
1F
100
AcDbEntity
  8
002
 62
     3
370
    30
100
AcDbLine
 10
264.053381
 20
3763.941606
 30
0.0
 11
270.993381
 21
3757.001606
 31
0.0
  0
CIRCLE
  5
24E
330
1F
100
AcDbEntity
  8
002
 62
     3
370
    30
100
AcDbCircle
 10
273.534381
 20
3766.482606
 30
0.0
 40
16.5
  0
CIRCLE
  5
24F
330
1F
100
AcDbEntity
  8
002
 62
     3
370
    30
100
AcDbCircle
 10
454.645381
 20
3815.010606
 30
0.0
 40
140.0
  0
CIRCLE
  5
250
330
1F
100
AcDbEntity
  8
002
 62
     3
370
    30
100
AcDbCircle
 10
454.645381
 20
3815.010606
 30
0.0
 40
162.5
  0
LINE
  5
251
330
1F
100
AcDbEntity
  8
002
 62
     3
370
    30
100
AcDbLine
 10
415.597381
 20
3993.581606
 30
0.0
 11
408.656381
 21
3986.641606
 31
0.0
  0
LINE
  5
252
330
1F
100
AcDbEntity
  8
002
 62
     3
370
    30
100
AcDbLine
 10
408.656381
 20
3986.641606
 30
0.0
 11
399.176381
 21
3989.181606
 31
0.0
  0
LINE
  5
253
330
1F
100
AcDbEntity
  8
002
 62
     3
370
    30
100
AcDbLine
 10
399.176381
 20
3989.181606
 30
0.0
 11
396.636381
 21
3998.662606
 31
0.0
  0
LINE
  5
254
330
1F
100
AcDbEntity
  8
002
 62
     3
370
    30
100
AcDbLine
 10
396.636381
 20
3998.662606
 30
0.0
 11
403.576381
 21
4005.602606
 31
0.0
  0
LINE
  5
255
330
1F
100
AcDbEntity
  8
002
 62
     3
370
    30
100
AcDbLine
 10
403.576381
 20
4005.602606
 30
0.0
 11
413.056381
 21
4003.062606
 31
0.0
  0
LINE
  5
256
330
1F
100
AcDbEntity
  8
002
 62
     3
370
    30
100
AcDbLine
 10
413.056381
 20
4003.062606
 30
0.0
 11
415.597381
 21
3993.581606
 31
0.0
  0
CIRCLE
  5
257
330
1F
100
AcDbEntity
  8
002
 62
     3
370
    30
100
AcDbCircle
 10
406.116381
 20
3996.121606
 30
0.0
 40
16.5
  0
CIRCLE
  5
258
330
1F
100
AcDbEntity
  8
002
 62
     3
370
    30
100
AcDbCircle
 10
454.645381
 20
3815.010606
 30
0.0
 40
212.5
  0
LINE
  5
259
330
1F
100
AcDbEntity
  8
002
 62
     3
370
    30
100
AcDbLine
 10
496.233381
 20
4003.062606
 30
0.0
 11
505.713381
 21
4005.602606
 31
0.0
  0
LINE
  5
25A
330
1F
100
AcDbEntity
  8
002
 62
     3
370
    30
100
AcDbLine
 10
505.713381
 20
4005.602606
 30
0.0
 11
512.654381
 21
3998.662606
 31
0.0
  0
LINE
  5
25B
330
1F
100
AcDbEntity
  8
002
 62
     3
370
    30
100
AcDbLine
 10
512.654381
 20
3998.662606
 30
0.0
 11
510.113381
 21
3989.181606
 31
0.0
  0
LINE
  5
25C
330
1F
100
AcDbEntity
  8
002
 62
     3
370
    30
100
AcDbLine
 10
510.113381
 20
3989.181606
 30
0.0
 11
500.633381
 21
3986.641606
 31
0.0
  0
LINE
  5
25D
330
1F
100
AcDbEntity
  8
002
 62
     3
370
    30
100
AcDbLine
 10
500.633381
 20
3986.641606
 30
0.0
 11
493.693381
 21
3993.581606
 31
0.0
  0
LINE
  5
25E
330
1F
100
AcDbEntity
  8
002
 62
     3
370
    30
100
AcDbLine
 10
493.693381
 20
3993.581606
 30
0.0
 11
496.233381
 21
4003.062606
 31
0.0
  0
CIRCLE
  5
25F
330
1F
100
AcDbEntity
  8
002
 62
     3
370
    30
100
AcDbCircle
 10
503.173381
 20
3996.121606
 30
0.0
 40
16.5
  0
LINE
  5
260
330
1F
100
AcDbEntity
  8
002
 62
     3
370
    30
100
AcDbLine
 10
584.645381
 20
4017.010606
 30
0.0
 11
634.645381
 21
4017.010606
 31
0.0
  0
LINE
  5
261
330
1F
100
AcDbEntity
  8
002
 62
     3
370
    30
100
AcDbLine
 10
584.645381
 20
4017.010606
 30
0.0
 11
584.645381
 21
4015.010606
 31
0.0
  0
LINE
  5
262
330
1F
100
AcDbEntity
  8
002
 62
     3
370
    30
100
AcDbLine
 10
587.145381
 20
4017.010606
 30
0.0
 11
587.145381
 21
4115.010606
 31
0.0
  0
LINE
  5
263
330
1F
100
AcDbEntity
  8
002
 62
     3
370
    30
100
AcDbLine
 10
587.145381
 20
4115.010606
 30
0.0
 11
632.145381
 21
4115.010606
 31
0.0
  0
LINE
  5
264
330
1F
100
AcDbEntity
  8
002
 62
     3
370
    30
100
AcDbLine
 10
632.145381
 20
4115.010606
 30
0.0
 11
632.145381
 21
4017.010606
 31
0.0
  0
LINE
  5
265
330
1F
100
AcDbEntity
  8
002
 62
     3
370
    30
100
AcDbLine
 10
634.645381
 20
4017.010606
 30
0.0
 11
634.645381
 21
4015.010606
 31
0.0
  0
LINE
  5
266
330
1F
100
AcDbEntity
  8
002
 62
     3
370
    30
100
AcDbLine
 10
662.145381
 20
4015.010606
 30
0.0
 11
662.145381
 21
4008.010606
 31
0.0
  0
ARC
  5
267
330
1F
100
AcDbEntity
  8
002
 62
     3
370
    30
100
AcDbCircle
 10
663.145381
 20
4008.010606
 30
0.0
 40
1.0
100
AcDbArc
 50
180.0
 51
270.0
  0
CIRCLE
  5
268
330
1F
100
AcDbEntity
  8
002
 62
     3
370
    30
100
AcDbCircle
 10
749.645381
 20
3945.010606
 30
0.0
 40
41.0
  0
CIRCLE
  5
269
330
1F
100
AcDbEntity
  8
002
 62
     3
370
    30
100
AcDbCircle
 10
749.645381
 20
3945.010606
 30
0.0
 40
22.5
  0
LINE
  5
26A
330
1F
100
AcDbEntity
  8
002
 62
     3
370
    30
100
AcDbLine
 10
596.708381
 20
3945.053606
 30
0.0
 11
594.167381
 21
3954.533606
 31
0.0
  0
LINE
  5
26B
330
1F
100
AcDbEntity
  8
002
 62
     3
370
    30
100
AcDbLine
 10
594.167381
 20
3954.533606
 30
0.0
 11
584.687381
 21
3957.073606
 31
0.0
  0
LINE
  5
26C
330
1F
100
AcDbEntity
  8
002
 62
     3
370
    30
100
AcDbLine
 10
584.687381
 20
3957.073606
 30
0.0
 11
577.747381
 21
3950.133606
 31
0.0
  0
LINE
  5
26D
330
1F
100
AcDbEntity
  8
002
 62
     3
370
    30
100
AcDbLine
 10
577.747381
 20
3950.133606
 30
0.0
 11
580.287381
 21
3940.653606
 31
0.0
  0
LINE
  5
26E
330
1F
100
AcDbEntity
  8
002
 62
     3
370
    30
100
AcDbLine
 10
580.287381
 20
3940.653606
 30
0.0
 11
589.767381
 21
3938.112606
 31
0.0
  0
LINE
  5
26F
330
1F
100
AcDbEntity
  8
002
 62
     3
370
    30
100
AcDbLine
 10
589.767381
 20
3938.112606
 30
0.0
 11
596.708381
 21
3945.053606
 31
0.0
  0
CIRCLE
  5
270
330
1F
100
AcDbEntity
  8
002
 62
     3
370
    30
100
AcDbCircle
 10
587.227381
 20
3947.593606
 30
0.0
 40
16.5
  0
LINE
  5
271
330
1F
100
AcDbEntity
  8
002
 62
     3
370
    30
100
AcDbLine
 10
329.002381
 20
3940.653606
 30
0.0
 11
319.522381
 21
3938.112606
 31
0.0
  0
LINE
  5
272
330
1F
100
AcDbEntity
  8
002
 62
     3
370
    30
100
AcDbLine
 10
319.522381
 20
3938.112606
 30
0.0
 11
312.582381
 21
3945.053606
 31
0.0
  0
LINE
  5
273
330
1F
100
AcDbEntity
  8
002
 62
     3
370
    30
100
AcDbLine
 10
312.582381
 20
3945.053606
 30
0.0
 11
315.122381
 21
3954.533606
 31
0.0
  0
LINE
  5
274
330
1F
100
AcDbEntity
  8
002
 62
     3
370
    30
100
AcDbLine
 10
315.122381
 20
3954.533606
 30
0.0
 11
324.602381
 21
3957.073606
 31
0.0
  0
LINE
  5
275
330
1F
100
AcDbEntity
  8
002
 62
     3
370
    30
100
AcDbLine
 10
324.602381
 20
3957.073606
 30
0.0
 11
331.543381
 21
3950.133606
 31
0.0
  0
LINE
  5
276
330
1F
100
AcDbEntity
  8
002
 62
     3
370
    30
100
AcDbLine
 10
331.543381
 20
3950.133606
 30
0.0
 11
329.002381
 21
3940.653606
 31
0.0
  0
CIRCLE
  5
277
330
1F
100
AcDbEntity
  8
002
 62
     3
370
    30
100
AcDbCircle
 10
322.062381
 20
3947.593606
 30
0.0
 40
16.5
  0
ARC
  5
278
330
1F
100
AcDbEntity
  8
002
 62
     3
370
    30
100
AcDbCircle
 10
254.645381
 20
3945.010606
 30
0.0
 40
40.99973820648128
100
AcDbArc
 50
13.636296
 51
280.315846
  0
LINE
  5
279
330
1F
100
AcDbEntity
  8
002
 62
     3
370
    30
100
AcDbLine
 10
254.645381
 20
3995.010606
 30
0.0
 11
341.701381
 21
3995.010606
 31
0.0
  0
ARC
  5
27A
330
1F
100
AcDbEntity
  8
002
 62
     3
370
    30
100
AcDbCircle
 10
254.645381
 20
3685.010606
 30
0.0
 40
50.0
100
AcDbArc
 50
180.0
 51
270.0
  0
LINE
  5
27B
330
1F
100
AcDbEntity
  8
002
 62
     3
370
    30
100
AcDbLine
 10
616.645381
 20
2946.522606
 30
0.0
 11
602.645381
 21
2946.522606
 31
0.0
  0
CIRCLE
  5
27C
330
1F
100
AcDbEntity
  8
002
 62
     3
370
    30
100
AcDbCircle
 10
454.645381
 20
3815.010606
 30
0.0
 40
66.0
  0
CIRCLE
  5
27D
330
1F
100
AcDbEntity
  8
002
 62
     3
370
    30
100
AcDbCircle
 10
454.645381
 20
3815.010606
 30
0.0
 40
55.0
  0
LINE
  5
27E
330
1F
100
AcDbEntity
  8
002
  6
CENTER
 62
    40
370
     9
100
AcDbLine
 10
749.645381
 20
3735.010606
 30
0.0
 11
749.645381
 21
3623.969606
 31
0.0
  0
LINE
  5
27F
330
1F
100
AcDbEntity
  8
002
  6
CENTER
 62
    40
370
     9
100
AcDbLine
 10
699.645381
 20
3685.010606
 30
0.0
 11
809.009381
 21
3685.010606
 31
0.0
  0
LINE
  5
280
330
1F
100
AcDbEntity
  8
002
  6
CENTER
 62
    40
370
     9
100
AcDbLine
 10
823.552381
 20
3815.010606
 30
0.0
 11
180.542381
 21
3815.010606
 31
0.0
  0
LINE
  5
281
330
1F
100
AcDbEntity
  8
002
  6
CENTER
 62
    40
370
     9
100
AcDbLine
 10
749.645381
 20
3895.010606
 30
0.0
 11
749.645381
 21
4006.051606
 31
0.0
  0
LINE
  5
282
330
1F
100
AcDbEntity
  8
002
  6
CENTER
 62
    40
370
     9
100
AcDbLine
 10
699.645381
 20
3945.010606
 30
0.0
 11
809.009381
 21
3945.010606
 31
0.0
  0
LINE
  5
283
330
1F
100
AcDbEntity
  8
002
  6
CENTER
 62
    40
370
     9
100
AcDbLine
 10
609.645381
 20
3504.992606
 30
0.0
 11
609.645381
 21
4134.141606
 31
0.0
  0
LINE
  5
284
330
1F
100
AcDbEntity
  8
002
  6
CENTER
 62
    40
370
     9
100
AcDbLine
 10
454.645381
 20
3549.020606
 30
0.0
 11
454.645381
 21
4072.170606
 31
0.0
  0
CIRCLE
  5
285
330
1F
100
AcDbEntity
  8
002
 62
    40
370
     9
100
AcDbCircle
 10
454.645381
 20
3815.010606
 30
0.0
 40
54.0
  0
LINE
  5
286
330
1F
100
AcDbEntity
  8
002
  6
CENTER
 62
    40
370
     9
100
AcDbLine
 10
314.009381
 20
3945.010606
 30
0.0
 11
204.645381
 21
3945.010606
 31
0.0
  0
LINE
  5
287
330
1F
100
AcDbEntity
  8
002
  6
CENTER
 62
    40
370
     9
100
AcDbLine
 10
254.645381
 20
3895.010606
 30
0.0
 11
254.645381
 21
4006.051606
 31
0.0
  0
LINE
  5
288
330
1F
100
AcDbEntity
  8
002
  6
CENTER
 62
    40
370
     9
100
AcDbLine
 10
314.009381
 20
3685.010606
 30
0.0
 11
204.645381
 21
3685.010606
 31
0.0
  0
LINE
  5
289
330
1F
100
AcDbEntity
  8
002
  6
CENTER
 62
    40
370
     9
100
AcDbLine
 10
254.645381
 20
3735.010606
 30
0.0
 11
254.645381
 21
3623.969606
 31
0.0
  0
LINE
  5
28A
330
1F
100
AcDbEntity
  8
002
  6
CENTER
 62
    40
370
     9
100
AcDbLine
 10
655.866381
 20
3868.928606
 30
0.0
 11
615.182381
 21
3858.026606
 31
0.0
  0
LINE
  5
28B
330
1F
100
AcDbEntity
  8
002
  6
CENTER
 62
    40
370
     9
100
AcDbLine
 10
572.166381
 20
3932.532606
 30
0.0
 11
601.949381
 21
3962.315606
 31
0.0
  0
LINE
  5
28C
330
1F
100
AcDbEntity
  8
002
  6
CENTER
 62
    40
370
     9
100
AcDbLine
 10
508.562381
 20
4016.232606
 30
0.0
 11
497.661381
 21
3975.548606
 31
0.0
  0
LINE
  5
28D
330
1F
100
AcDbEntity
  8
002
  6
CENTER
 62
    40
370
     9
100
AcDbLine
 10
411.629381
 20
3975.548606
 30
0.0
 11
400.727381
 21
4016.232606
 31
0.0
  0
LINE
  5
28E
330
1F
100
AcDbEntity
  8
002
  6
CENTER
 62
    40
370
     9
100
AcDbLine
 10
337.123381
 20
3932.532606
 30
0.0
 11
307.340381
 21
3962.315606
 31
0.0
  0
LINE
  5
28F
330
1F
100
AcDbEntity
  8
002
  6
CENTER
 62
    40
370
     9
100
AcDbLine
 10
253.423381
 20
3868.928606
 30
0.0
 11
294.107381
 21
3858.026606
 31
0.0
  0
LINE
  5
290
330
1F
100
AcDbEntity
  8
002
  6
CENTER
 62
    40
370
     9
100
AcDbLine
 10
253.423381
 20
3761.093606
 30
0.0
 11
294.107381
 21
3771.994606
 31
0.0
  0
LINE
  5
291
330
1F
100
AcDbEntity
  8
002
  6
CENTER
 62
    40
370
     9
100
AcDbLine
 10
307.340381
 20
3667.706606
 30
0.0
 11
337.123381
 21
3697.488606
 31
0.0
  0
LINE
  5
292
330
1F
100
AcDbEntity
  8
002
  6
CENTER
 62
    40
370
     9
100
AcDbLine
 10
411.629381
 20
3654.472606
 30
0.0
 11
400.727381
 21
3613.789606
 31
0.0
  0
LINE
  5
293
330
1F
100
AcDbEntity
  8
002
  6
CENTER
 62
    40
370
     9
100
AcDbLine
 10
497.661381
 20
3654.472606
 30
0.0
 11
508.562381
 21
3613.789606
 31
0.0
  0
LINE
  5
294
330
1F
100
AcDbEntity
  8
002
  6
CENTER
 62
    40
370
     9
100
AcDbLine
 10
601.949381
 20
3667.706606
 30
0.0
 11
572.166381
 21
3697.488606
 31
0.0
  0
CIRCLE
  5
295
330
1F
100
AcDbEntity
  8
002
  6
CENTER
 62
    40
370
     9
100
AcDbCircle
 10
454.645381
 20
3815.010606
 30
0.0
 40
187.5
  0
LINE
  5
296
330
1F
100
AcDbEntity
  8
002
  6
CENTER
 62
    40
370
     9
100
AcDbLine
 10
615.182381
 20
3771.994606
 30
0.0
 11
655.866381
 21
3761.093606
 31
0.0
  0
LINE
  5
297
330
1F
100
AcDbEntity
  8
002
  6
CENTER
 62
    40
370
     9
100
AcDbLine
 10
609.645381
 20
2954.850606
 30
0.0
 11
609.645381
 21
2890.841606
 31
0.0
  0
LINE
  5
298
330
1F
100
AcDbEntity
  8
002
  6
CENTER
 62
    40
370
     9
100
AcDbLine
 10
641.761381
 20
2920.522606
 30
0.0
 11
576.141381
 21
2920.522606
 31
0.0
  0
LINE
  5
299
330
1F
100
AcDbEntity
  8
002
 62
     3
370
    30
100
AcDbLine
 10
616.645381
 20
2937.522367
 30
0.0
 11
602.645381
 21
2937.522367
 31
0.0
  0
LINE
  5
29A
330
1F
100
AcDbEntity
  8
002
 62
     3
370
    30
100
AcDbLine
 10
616.645381
 20
2937.522367
 30
0.0
 11
616.645381
 21
2946.522606
 31
0.0
  0
LINE
  5
29B
330
1F
100
AcDbEntity
  8
002
 62
     3
370
    30
100
AcDbLine
 10
602.645381
 20
2946.522606
 30
0.0
 11
602.645381
 21
2937.522367
 31
0.0
  0
ARC
  5
29C
330
1F
100
AcDbEntity
  8
002
 62
     3
370
    30
100
AcDbCircle
 10
609.645381
 20
2920.522606
 30
0.0
 40
22.49976055428097
100
AcDbArc
 50
108.126404
 51
71.873596
  0
LINE
  5
29D
330
1F
100
AcDbEntity
  8
002
 62
     3
370
    30
100
AcDbLine
 10
314.645381
 20
685.896486
 30
0.0
 11
314.645381
 21
675.896486
 31
0.0
  0
LINE
  5
29E
330
1F
100
AcDbEntity
  8
002
 62
     3
370
    30
100
AcDbLine
 10
314.645381
 20
675.896486
 30
0.0
 11
309.822381
 21
657.896486
 31
0.0
  0
LINE
  5
29F
330
1F
100
AcDbEntity
  8
002
 62
     3
370
    30
100
AcDbLine
 10
305.562381
 20
657.896486
 30
0.0
 11
338.562381
 21
657.896486
 31
0.0
  0
LINE
  5
2A0
330
1F
100
AcDbEntity
  8
002
 62
     3
370
    30
100
AcDbLine
 10
338.562381
 20
657.896486
 30
0.0
 11
338.562381
 21
635.896486
 31
0.0
  0
LINE
  5
2A1
330
1F
100
AcDbEntity
  8
002
 62
     3
370
    30
100
AcDbLine
 10
338.562381
 20
637.896486
 30
0.0
 11
389.616381
 21
637.896486
 31
0.0
  0
LINE
  5
2A2
330
1F
100
AcDbEntity
  8
002
 62
     3
370
    30
100
AcDbLine
 10
389.616381
 20
635.896486
 30
0.0
 11
389.616381
 21
657.896486
 31
0.0
  0
LINE
  5
2A3
330
1F
100
AcDbEntity
  8
002
 62
     3
370
    30
100
AcDbLine
 10
389.616381
 20
657.896486
 30
0.0
 11
422.616381
 21
657.896486
 31
0.0
  0
LINE
  5
2A4
330
1F
100
AcDbEntity
  8
002
 62
     3
370
    30
100
AcDbLine
 10
422.616381
 20
657.896486
 30
0.0
 11
422.616381
 21
635.896486
 31
0.0
  0
LINE
  5
2A5
330
1F
100
AcDbEntity
  8
002
 62
     3
370
    30
100
AcDbLine
 10
422.616381
 20
637.896486
 30
0.0
 11
486.673381
 21
637.896486
 31
0.0
  0
LINE
  5
2A6
330
1F
100
AcDbEntity
  8
002
 62
     3
370
    30
100
AcDbLine
 10
486.673381
 20
635.896486
 30
0.0
 11
486.673381
 21
657.896486
 31
0.0
  0
LINE
  5
2A7
330
1F
100
AcDbEntity
  8
002
 62
     3
370
    30
100
AcDbLine
 10
486.673381
 20
657.896486
 30
0.0
 11
519.673381
 21
657.896486
 31
0.0
  0
LINE
  5
2A8
330
1F
100
AcDbEntity
  8
002
 62
     3
370
    30
100
AcDbLine
 10
519.673381
 20
657.896486
 30
0.0
 11
519.673381
 21
635.896486
 31
0.0
  0
LINE
  5
2A9
330
1F
100
AcDbEntity
  8
002
 62
     3
370
    30
100
AcDbLine
 10
519.673381
 20
637.896486
 30
0.0
 11
570.727381
 21
637.896486
 31
0.0
  0
LINE
  5
2AA
330
1F
100
AcDbEntity
  8
002
 62
     3
370
    30
100
AcDbLine
 10
570.727381
 20
635.896486
 30
0.0
 11
570.727381
 21
657.896486
 31
0.0
  0
LINE
  5
2AB
330
1F
100
AcDbEntity
  8
002
 62
     3
370
    30
100
AcDbLine
 10
570.727381
 20
657.896486
 30
0.0
 11
603.727381
 21
657.896486
 31
0.0
  0
LINE
  5
2AC
330
1F
100
AcDbEntity
  8
002
 62
     3
370
    30
100
AcDbLine
 10
599.468381
 20
657.896486
 30
0.0
 11
594.645381
 21
675.896486
 31
0.0
  0
LINE
  5
2AD
330
1F
100
AcDbEntity
  8
002
 62
     3
370
    30
100
AcDbLine
 10
594.645381
 20
675.896486
 30
0.0
 11
594.645381
 21
685.896486
 31
0.0
  0
LINE
  5
2AE
330
1F
100
AcDbEntity
  8
002
 62
     3
370
    30
100
AcDbLine
 10
603.727381
 20
657.896486
 30
0.0
 11
603.727381
 21
635.896486
 31
0.0
  0
LINE
  5
2AF
330
1F
100
AcDbEntity
  8
002
 62
     3
370
    30
100
AcDbLine
 10
603.727381
 20
637.896486
 30
0.0
 11
617.145381
 21
637.896486
 31
0.0
  0
LINE
  5
2B0
330
1F
100
AcDbEntity
  8
002
 62
     3
370
    30
100
AcDbLine
 10
617.145381
 20
637.896486
 30
0.0
 11
617.145381
 21
635.896486
 31
0.0
  0
LINE
  5
2B1
330
1F
100
AcDbEntity
  8
002
 62
     3
370
    30
100
AcDbLine
 10
619.256381
 20
635.896486
 30
0.0
 11
619.256381
 21
657.896486
 31
0.0
  0
LINE
  5
2B2
330
1F
100
AcDbEntity
  8
002
 62
     3
370
    30
100
AcDbLine
 10
619.256381
 20
657.896486
 30
0.0
 11
652.256381
 21
657.896486
 31
0.0
  0
LINE
  5
2B3
330
1F
100
AcDbEntity
  8
002
 62
     3
370
    30
100
AcDbLine
 10
652.256381
 20
657.896486
 30
0.0
 11
652.256381
 21
635.896486
 31
0.0
  0
LINE
  5
2B4
330
1F
100
AcDbEntity
  8
002
 62
     3
370
    30
100
AcDbLine
 10
667.145381
 20
635.896486
 30
0.0
 11
667.145381
 21
579.771486
 31
0.0
  0
ARC
  5
2B5
330
1F
100
AcDbEntity
  8
002
 62
     3
370
    30
100
AcDbCircle
 10
682.145381
 20
579.771486
 30
0.0
 40
14.9998395324751
100
AcDbArc
 50
180.0
 51
223.530507
  0
LINE
  5
2B6
330
1F
100
AcDbEntity
  8
002
 62
     3
370
    30
100
AcDbLine
 10
682.102381
 20
559.396486
 30
0.0
 11
684.700381
 21
560.896486
 31
0.0
  0
LINE
  5
2B7
330
1F
100
AcDbEntity
  8
002
 62
     3
370
    30
100
AcDbLine
 10
684.700381
 20
560.896486
 30
0.0
 11
688.680381
 21
559.830486
 31
0.0
  0
ARC
  5
2B8
330
1F
100
AcDbEntity
  8
002
 62
     3
370
    30
100
AcDbCircle
 10
688.939381
 20
560.796486
 30
0.0
 40
1.00029445664738
100
AcDbArc
 50
254.991086
 51
331.974684
  0
LINE
  5
2B9
330
1F
100
AcDbEntity
  8
002
 62
     3
370
    30
100
AcDbLine
 10
689.822381
 20
560.326486
 30
0.0
 11
690.292381
 21
561.211486
 31
0.0
  0
LINE
  5
2BA
330
1F
100
AcDbEntity
  8
002
 62
     3
370
    30
100
AcDbLine
 10
690.292381
 20
561.211486
 30
0.0
 11
693.265381
 21
562.061486
 31
0.0
  0
LINE
  5
2BB
330
1F
100
AcDbEntity
  8
002
 62
     3
370
    30
100
AcDbLine
 10
693.265381
 20
562.061486
 30
0.0
 11
695.765381
 21
557.731486
 31
0.0
  0
LINE
  5
2BC
330
1F
100
AcDbEntity
  8
002
 62
     3
370
    30
100
AcDbLine
 10
695.765381
 20
557.731486
 30
0.0
 11
693.542381
 21
555.582486
 31
0.0
  0
LINE
  5
2BD
330
1F
100
AcDbEntity
  8
002
 62
     3
370
    30
100
AcDbLine
 10
693.542381
 20
555.582486
 30
0.0
 11
692.541381
 21
555.617486
 31
0.0
  0
ARC
  5
2BE
330
1F
100
AcDbEntity
  8
002
 62
     3
370
    30
100
AcDbCircle
 10
692.506381
 20
554.617486
 30
0.0
 40
1.000118492979609
100
AcDbArc
 50
87.995466
 51
164.991086
  0
LINE
  5
2BF
330
1F
100
AcDbEntity
  8
002
 62
     3
370
    30
100
AcDbLine
 10
691.540381
 20
554.876486
 30
0.0
 11
690.474381
 21
550.896486
 31
0.0
  0
LINE
  5
2C0
330
1F
100
AcDbEntity
  8
002
 62
     3
370
    30
100
AcDbLine
 10
690.474381
 20
550.896486
 30
0.0
 11
687.876381
 21
549.396486
 31
0.0
  0
LINE
  5
2C1
330
1F
100
AcDbEntity
  8
002
 62
     3
370
    30
100
AcDbLine
 10
687.876381
 20
549.396486
 30
0.0
 11
686.642381
 21
549.727486
 31
0.0
  0
LINE
  5
2C2
330
1F
100
AcDbEntity
  8
002
 62
     3
370
    30
100
AcDbLine
 10
687.094381
 20
549.606486
 30
0.0
 11
685.813381
 21
548.969486
 31
0.0
  0
LINE
  5
2C3
330
1F
100
AcDbEntity
  8
002
 62
     3
370
    30
100
AcDbLine
 10
686.266381
 20
550.185486
 30
0.0
 11
681.980381
 21
557.608486
 31
0.0
  0
ARC
  5
2C4
330
1F
100
AcDbEntity
  8
002
 62
     3
370
    30
100
AcDbCircle
 10
683.292381
 20
558.417486
 30
0.0
 40
1.541898180814713
100
AcDbArc
 50
189.486771
 51
279.443995
  0
ARC
  5
2C5
330
1F
100
AcDbEntity
  8
002
 62
     3
370
    30
100
AcDbCircle
 10
688.164381
 20
556.230486
 30
0.0
 40
4.667266866164868
100
AcDbArc
 50
171.795237
 51
248.216827
  0
ARC
  5
2C6
330
1F
100
AcDbEntity
  8
002
 62
     3
370
    30
100
AcDbCircle
 10
687.622381
 20
550.917486
 30
0.0
 40
1.541590088188221
100
AcDbArc
 50
140.556242
 51
230.52754
  0
LINE
  5
2C7
330
1F
100
AcDbEntity
  8
002
 62
     3
370
    30
100
AcDbLine
 10
686.432381
 20
551.896486
 30
0.0
 11
689.030381
 21
553.396486
 31
0.0
  0
ARC
  5
2C8
330
1F
100
AcDbEntity
  8
002
 62
     3
370
    30
100
AcDbCircle
 10
684.411381
 20
554.063486
 30
0.0
 40
4.666709547422012
100
AcDbArc
 50
351.783086
 51
68.20087
  0
LINE
  5
2C9
330
1F
100
AcDbEntity
  8
002
 62
     3
370
    30
100
AcDbLine
 10
686.144381
 20
558.396486
 30
0.0
 11
683.545381
 21
556.896486
 31
0.0
  0
LINE
  5
2CA
330
1F
100
AcDbEntity
  8
002
 62
     3
370
    30
100
AcDbLine
 10
681.772381
 20
558.163486
 30
0.0
 11
682.102381
 21
559.396486
 31
0.0
  0
LINE
  5
2CB
330
1F
100
AcDbEntity
  8
002
 62
     3
370
    30
100
AcDbLine
 10
681.893381
 20
558.615486
 30
0.0
 11
680.701381
 21
557.824486
 31
0.0
  0
ARC
  5
2CC
330
1F
100
AcDbEntity
  8
002
 62
     3
370
    30
100
AcDbCircle
 10
684.954381
 20
559.376486
 30
0.0
 40
1.540954574282012
100
AcDbArc
 50
320.52754
 51
50.556242
  0
LINE
  5
2CD
330
1F
100
AcDbEntity
  8
002
 62
     3
370
    30
100
AcDbLine
 10
689.448381
 20
559.624486
 30
0.0
 11
691.746381
 21
555.645486
 31
0.0
  0
LINE
  5
2CE
330
1F
100
AcDbEntity
  8
002
 62
     3
370
    30
100
AcDbLine
 10
693.167381
 20
556.231486
 30
0.0
 11
690.667381
 21
560.561486
 31
0.0
  0
ARC
  5
2CF
330
1F
100
AcDbEntity
  8
002
 62
     3
370
    30
100
AcDbCircle
 10
693.942381
 20
559.566486
 30
0.0
 40
0.9998019803938861
100
AcDbArc
 50
341.402022
 51
78.577679
  0
ARC
  5
2D0
330
1F
100
AcDbEntity
  8
002
 62
     3
370
    30
100
AcDbCircle
 10
689.284381
 20
551.876486
 30
0.0
 40
1.541076247302481
100
AcDbArc
 50
9.450097
 51
99.486771
  0
LINE
  5
2D1
330
1F
100
AcDbEntity
  8
002
 62
     3
370
    30
100
AcDbLine
 10
693.353381
 20
525.656486
 30
0.0
 11
712.285381
 21
418.292486
 31
0.0
  0
ARC
  5
2D2
330
1F
100
AcDbEntity
  8
002
 62
     3
370
    30
100
AcDbCircle
 10
727.057381
 20
420.896486
 30
0.0
 40
15.0
100
AcDbArc
 50
189.997359
 51
270.0
  0
LINE
  5
2D3
330
1F
100
AcDbEntity
  8
002
 62
     3
370
    30
100
AcDbLine
 10
694.645381
 20
420.896486
 30
0.0
 11
694.645381
 21
510.896486
 31
0.0
  0
CIRCLE
  5
2D4
330
1F
100
AcDbEntity
  8
002
 62
     3
370
    30
100
AcDbCircle
 10
609.645381
 20
510.896486
 30
0.0
 40
85.0
  0
CIRCLE
  5
2D5
330
1F
100
AcDbEntity
  8
002
 62
     3
370
    30
100
AcDbCircle
 10
609.645381
 20
510.896486
 30
0.0
 40
52.5
  0
CIRCLE
  5
2D6
330
1F
100
AcDbEntity
  8
002
 62
     3
370
    30
100
AcDbCircle
 10
609.645381
 20
510.896486
 30
0.0
 40
39.0
  0
CIRCLE
  5
2D7
330
1F
100
AcDbEntity
  8
002
 62
     3
370
    30
100
AcDbCircle
 10
609.645381
 20
510.896486
 30
0.0
 40
36.0
  0
LINE
  5
2D8
330
1F
100
AcDbEntity
  8
002
 62
     3
370
    30
100
AcDbLine
 10
667.145381
 20
605.896486
 30
0.0
 11
242.145381
 21
605.896486
 31
0.0
  0
ARC
  5
2D9
330
1F
100
AcDbEntity
  8
002
 62
     3
370
    30
100
AcDbCircle
 10
257.145381
 20
577.406486
 30
0.0
 40
14.99973146426291
100
AcDbArc
 50
180.0
 51
232.890219
  0
LINE
  5
2DA
330
1F
100
AcDbEntity
  8
002
 62
     3
370
    30
100
AcDbLine
 10
255.820381
 20
565.896486
 30
0.0
 11
533.406381
 21
565.896486
 31
0.0
  0
ARC
  5
2DB
330
1F
100
AcDbEntity
  8
002
 62
     3
370
    30
100
AcDbCircle
 10
533.406381
 20
560.896486
 30
0.0
 40
5.0
100
AcDbArc
 50
0.0
 51
90.0
  0
LINE
  5
2DC
330
1F
100
AcDbEntity
  8
002
 62
     3
370
    30
100
AcDbLine
 10
531.441381
 20
555.848486
 30
0.0
 11
497.988381
 21
555.848486
 31
0.0
  0
ARC
  5
2DD
330
1F
100
AcDbEntity
  8
002
 62
     3
370
    30
100
AcDbCircle
 10
494.645381
 20
552.896486
 30
0.0
 40
5.0
100
AcDbArc
 50
90.0
 51
180.0
  0
LINE
  5
2DE
330
1F
100
AcDbEntity
  8
002
 62
     3
370
    30
100
AcDbLine
 10
489.645381
 20
552.896486
 30
0.0
 11
489.645381
 21
510.896486
 31
0.0
  0
CIRCLE
  5
2DF
330
1F
100
AcDbEntity
  8
002
 62
     3
370
    30
100
AcDbCircle
 10
454.645381
 20
510.896486
 30
0.0
 40
24.12025
  0
LINE
  5
2E0
330
1F
100
AcDbEntity
  8
002
 62
     3
370
    30
100
AcDbLine
 10
467.645381
 20
523.896486
 30
0.0
 11
441.645381
 21
523.896486
 31
0.0
  0
LINE
  5
2E1
330
1F
100
AcDbEntity
  8
002
 62
     3
370
    30
100
AcDbLine
 10
441.645381
 20
523.896486
 30
0.0
 11
441.645381
 21
497.896486
 31
0.0
  0
LINE
  5
2E2
330
1F
100
AcDbEntity
  8
002
 62
     3
370
    30
100
AcDbLine
 10
441.645381
 20
497.896486
 30
0.0
 11
467.645381
 21
497.896486
 31
0.0
  0
LINE
  5
2E3
330
1F
100
AcDbEntity
  8
002
 62
     3
370
    30
100
AcDbLine
 10
467.645381
 20
497.896486
 30
0.0
 11
467.645381
 21
523.896486
 31
0.0
  0
ARC
  5
2E4
330
1F
100
AcDbEntity
  8
002
 62
     3
370
    30
100
AcDbCircle
 10
454.645381
 20
510.896486
 30
0.0
 40
35.00000000000023
100
AcDbArc
 50
180.0
 51
0.0
  0
LINE
  5
2E5
330
1F
100
AcDbEntity
  8
002
 62
     3
370
    30
100
AcDbLine
 10
524.645381
 20
510.896486
 30
0.0
 11
524.645381
 21
420.896486
 31
0.0
  0
ARC
  5
2E6
330
1F
100
AcDbEntity
  8
002
 62
     3
370
    30
100
AcDbCircle
 10
509.645381
 20
420.896486
 30
0.0
 40
15.0
100
AcDbArc
 50
270.0
 51
0.0
  0
ARC
  5
2E7
330
1F
100
AcDbEntity
  8
002
 62
     3
370
    30
100
AcDbCircle
 10
709.645381
 20
420.896486
 30
0.0
 40
15.0
100
AcDbArc
 50
180.0
 51
270.0
  0
LINE
  5
2E8
330
1F
100
AcDbEntity
  8
002
 62
     3
370
    30
100
AcDbLine
 10
794.645381
 20
405.896486
 30
0.0
 11
209.645381
 21
405.896486
 31
0.0
  0
LINE
  5
2E9
330
1F
100
AcDbEntity
  8
002
 62
     3
370
    30
100
AcDbLine
 10
204.645381
 20
370.896486
 30
0.0
 11
799.645381
 21
370.896486
 31
0.0
  0
LINE
  5
2EA
330
1F
100
AcDbEntity
  8
002
 62
     3
370
    30
100
AcDbLine
 10
799.645381
 20
370.896486
 30
0.0
 11
799.645381
 21
400.896486
 31
0.0
  0
ARC
  5
2EB
330
1F
100
AcDbEntity
  8
002
 62
     3
370
    30
100
AcDbCircle
 10
794.645381
 20
400.896486
 30
0.0
 40
5.0
100
AcDbArc
 50
0.0
 51
90.0
  0
LINE
  5
2EC
330
1F
100
AcDbEntity
  8
002
 62
     3
370
    30
100
AcDbLine
 10
569.645381
 20
370.896486
 30
0.0
 11
569.645381
 21
360.896486
 31
0.0
  0
LINE
  5
2ED
330
1F
100
AcDbEntity
  8
002
 62
     3
370
    30
100
AcDbLine
 10
569.645381
 20
360.896486
 30
0.0
 11
339.645381
 21
360.896486
 31
0.0
  0
LINE
  5
2EE
330
1F
100
AcDbEntity
  8
002
 62
     3
370
    30
100
AcDbLine
 10
339.645381
 20
360.896486
 30
0.0
 11
339.645381
 21
370.896486
 31
0.0
  0
LINE
  5
2EF
330
1F
100
AcDbEntity
  8
002
 62
     3
370
    30
100
AcDbLine
 10
533.355381
 20
360.896486
 30
0.0
 11
533.355381
 21
350.896486
 31
0.0
  0
LINE
  5
2F0
330
1F
100
AcDbEntity
  8
002
 62
     3
370
    30
100
AcDbLine
 10
517.355381
 20
350.896486
 30
0.0
 11
533.355381
 21
350.896486
 31
0.0
  0
LINE
  5
2F1
330
1F
100
AcDbEntity
  8
002
 62
     3
370
    30
100
AcDbLine
 10
517.355381
 20
350.896486
 30
0.0
 11
517.355381
 21
360.896486
 31
0.0
  0
LINE
  5
2F2
330
1F
100
AcDbEntity
  8
002
 62
     3
370
    30
100
AcDbLine
 10
567.588381
 20
584.763486
 30
0.0
 11
567.588381
 21
590.466486
 31
0.0
  0
ARC
  5
2F3
330
1F
100
AcDbEntity
  8
002
 62
     3
370
    30
100
AcDbCircle
 10
609.645381
 20
510.896486
 30
0.0
 40
89.99997289444039
100
AcDbArc
 50
117.858847
 51
142.3301
  0
LINE
  5
2F4
330
1F
100
AcDbEntity
  8
002
 62
     3
370
    30
100
AcDbLine
 10
305.562381
 20
657.896486
 30
0.0
 11
305.562381
 21
635.896486
 31
0.0
  0
LINE
  5
2F5
330
1F
100
AcDbEntity
  8
002
 62
     3
370
    30
100
AcDbLine
 10
305.562381
 20
637.896486
 30
0.0
 11
292.145381
 21
637.896486
 31
0.0
  0
LINE
  5
2F6
330
1F
100
AcDbEntity
  8
002
 62
     3
370
    30
100
AcDbLine
 10
292.145381
 20
637.896486
 30
0.0
 11
292.145381
 21
635.896486
 31
0.0
  0
ARC
  5
2F7
330
1F
100
AcDbEntity
  8
002
 62
     3
370
    30
100
AcDbCircle
 10
292.185381
 20
653.896486
 30
0.0
 40
15.99991915604573
100
AcDbArc
 50
270.0
 51
326.727077
  0
LINE
  5
2F8
330
1F
100
AcDbEntity
  8
002
 62
     3
370
    30
100
AcDbLine
 10
290.034381
 20
635.896486
 30
0.0
 11
290.034381
 21
657.896486
 31
0.0
  0
LINE
  5
2F9
330
1F
100
AcDbEntity
  8
002
 62
     3
370
    30
100
AcDbLine
 10
257.034381
 20
657.896486
 30
0.0
 11
290.034381
 21
657.896486
 31
0.0
  0
LINE
  5
2FA
330
1F
100
AcDbEntity
  8
002
 62
     3
370
    30
100
AcDbLine
 10
257.034381
 20
657.896486
 30
0.0
 11
257.034381
 21
635.896486
 31
0.0
  0
LINE
  5
2FB
330
1F
100
AcDbEntity
  8
002
 62
     3
370
    30
100
AcDbLine
 10
242.145381
 20
635.896486
 30
0.0
 11
242.145381
 21
577.406486
 31
0.0
  0
LINE
  5
2FC
330
1F
100
AcDbEntity
  8
002
 62
     3
370
    30
100
AcDbLine
 10
255.820381
 20
562.232486
 30
0.0
 11
285.413381
 21
554.303486
 31
0.0
  0
LINE
  5
2FD
330
1F
100
AcDbEntity
  8
002
 62
     3
370
    30
100
AcDbLine
 10
296.531381
 20
555.848486
 30
0.0
 11
411.544381
 21
555.848486
 31
0.0
  0
LINE
  5
2FE
330
1F
100
AcDbEntity
  8
002
 62
     3
370
    30
100
AcDbLine
 10
419.645381
 20
552.896486
 30
0.0
 11
419.645381
 21
510.896486
 31
0.0
  0
ARC
  5
2FF
330
1F
100
AcDbEntity
  8
002
 62
     3
370
    30
100
AcDbCircle
 10
414.645381
 20
552.896486
 30
0.0
 40
5.0
100
AcDbArc
 50
0.0
 51
90.0
  0
LINE
  5
300
330
1F
100
AcDbEntity
  8
002
 62
     3
370
    30
100
AcDbLine
 10
296.531381
 20
539.814486
 30
0.0
 11
296.531381
 21
420.896486
 31
0.0
  0
ARC
  5
301
330
1F
100
AcDbEntity
  8
002
 62
     3
370
    30
100
AcDbCircle
 10
281.531381
 20
420.896486
 30
0.0
 40
15.0
100
AcDbArc
 50
270.0
 51
0.0
  0
LINE
  5
302
330
1F
100
AcDbEntity
  8
002
 62
     3
370
    30
100
AcDbLine
 10
230.439381
 20
418.292486
 30
0.0
 11
253.818381
 21
550.876486
 31
0.0
  0
ARC
  5
303
330
1F
100
AcDbEntity
  8
002
 62
     3
370
    30
100
AcDbCircle
 10
239.046381
 20
553.481486
 30
0.0
 40
14.99992566648244
100
AcDbArc
 50
349.99888
 51
52.89557
  0
ARC
  5
304
330
1F
100
AcDbEntity
  8
002
 62
     3
370
    30
100
AcDbCircle
 10
281.531381
 20
539.814486
 30
0.0
 40
15.00003483329288
100
AcDbArc
 50
0.0
 51
75.001165
  0
LINE
  5
305
330
1F
100
AcDbEntity
  8
002
 62
     3
370
    30
100
AcDbLine
 10
242.145381
 20
635.896486
 30
0.0
 11
667.145381
 21
635.896486
 31
0.0
  0
ARC
  5
306
330
1F
100
AcDbEntity
  8
002
 62
     3
370
    30
100
AcDbCircle
 10
617.104381
 20
653.896486
 30
0.0
 40
16.0
100
AcDbArc
 50
213.272923
 51
270.0
  0
LINE
  5
307
330
1F
100
AcDbEntity
  8
002
 62
     3
370
    30
100
AcDbLine
 10
391.934381
 20
350.896486
 30
0.0
 11
391.934381
 21
360.896486
 31
0.0
  0
LINE
  5
308
330
1F
100
AcDbEntity
  8
002
 62
     3
370
    30
100
AcDbLine
 10
375.934381
 20
350.896486
 30
0.0
 11
391.934381
 21
350.896486
 31
0.0
  0
LINE
  5
309
330
1F
100
AcDbEntity
  8
002
 62
     3
370
    30
100
AcDbLine
 10
375.934381
 20
350.896486
 30
0.0
 11
375.934381
 21
360.896486
 31
0.0
  0
ARC
  5
30A
330
1F
100
AcDbEntity
  8
002
 62
     3
370
    30
100
AcDbCircle
 10
215.667381
 20
420.896486
 30
0.0
 40
14.99975999807991
100
AcDbArc
 50
270.0
 51
350.002641
  0
LINE
  5
30B
330
1F
100
AcDbEntity
  8
002
 62
    40
370
    30
100
AcDbLine
 10
686.370381
 20
549.246486
 30
0.0
 11
685.495381
 21
549.480486
 31
0.0
  0
LINE
  5
30C
330
1F
100
AcDbEntity
  8
002
 62
    40
370
    30
100
AcDbLine
 10
681.219381
 20
558.168486
 30
0.0
 11
680.985381
 21
557.293486
 31
0.0
  0
LINE
  5
30D
330
1F
100
AcDbEntity
  8
002
  6
CENTER
 62
    40
370
     9
100
AcDbLine
 10
635.756381
 20
601.815486
 30
0.0
 11
635.756381
 21
667.912486
 31
0.0
  0
LINE
  5
30E
330
1F
100
AcDbEntity
  8
002
  6
CENTER
 62
    40
370
     9
100
AcDbLine
 10
587.227381
 20
667.912486
 30
0.0
 11
587.227381
 21
601.815486
 31
0.0
  0
LINE
  5
30F
330
1F
100
AcDbEntity
  8
002
  6
CENTER
 62
    40
370
     9
100
AcDbLine
 10
503.173381
 20
601.815486
 30
0.0
 11
503.173381
 21
667.912486
 31
0.0
  0
LINE
  5
310
330
1F
100
AcDbEntity
  8
002
  6
CENTER
 62
    40
370
     9
100
AcDbLine
 10
406.116381
 20
667.912486
 30
0.0
 11
406.116381
 21
601.815486
 31
0.0
  0
LINE
  5
311
330
1F
100
AcDbEntity
  8
002
  6
CENTER
 62
    40
370
     9
100
AcDbLine
 10
322.062381
 20
601.815486
 30
0.0
 11
322.062381
 21
667.912486
 31
0.0
  0
LINE
  5
312
330
1F
100
AcDbEntity
  8
002
  6
CENTER
 62
    40
370
     9
100
AcDbLine
 10
273.534381
 20
667.912486
 30
0.0
 11
273.534381
 21
601.815486
 31
0.0
  0
LINE
  5
313
330
1F
100
AcDbEntity
  8
002
  6
CENTER
 62
    40
370
     9
100
AcDbLine
 10
400.598381
 20
510.896486
 30
0.0
 11
717.024381
 21
510.896486
 31
0.0
  0
CIRCLE
  5
314
330
1F
100
AcDbEntity
  8
002
 62
    40
370
     9
100
AcDbCircle
 10
454.645381
 20
510.896486
 30
0.0
 40
22.64125
  0
LINE
  5
315
330
1F
100
AcDbEntity
  8
002
  6
CENTER
 62
    40
370
     9
100
AcDbLine
 10
679.576381
 20
551.271486
 30
0.0
 11
696.366381
 21
560.965486
 31
0.0
  0
LINE
  5
316
330
1F
100
AcDbEntity
  8
002
  6
CENTER
 62
    40
370
     9
100
AcDbLine
 10
609.645381
 20
609.207486
 30
0.0
 11
609.645381
 21
414.655486
 31
0.0
  0
LINE
  5
317
330
1F
100
AcDbEntity
  8
002
  6
DASHED
 62
    40
370
     9
100
AcDbLine
 10
790.645381
 20
404.896486
 30
0.0
 11
790.645381
 21
405.896486
 31
0.0
  0
LINE
  5
318
330
1F
100
AcDbEntity
  8
002
  6
DASHED
 62
    40
370
     9
100
AcDbLine
 10
708.645381
 20
405.896486
 30
0.0
 11
708.645381
 21
404.896486
 31
0.0
  0
LINE
  5
319
330
1F
100
AcDbEntity
  8
002
  6
CENTER
 62
    40
370
     9
100
AcDbLine
 10
749.645381
 20
357.348486
 30
0.0
 11
749.645381
 21
416.937486
 31
0.0
  0
LINE
  5
31A
330
1F
100
AcDbEntity
  8
002
  6
CENTER
 62
    40
370
     9
100
AcDbLine
 10
254.645381
 20
357.348486
 30
0.0
 11
254.645381
 21
416.937486
 31
0.0
  0
LINE
  5
31B
330
1F
100
AcDbEntity
  8
002
  6
DASHED
 62
    40
370
     9
100
AcDbLine
 10
295.645381
 20
404.896486
 30
0.0
 11
295.645381
 21
405.896486
 31
0.0
  0
LINE
  5
31C
330
1F
100
AcDbEntity
  8
002
  6
CENTER
 62
    40
370
     9
100
AcDbLine
 10
383.934381
 20
370.896486
 30
0.0
 11
383.934381
 21
344.754486
 31
0.0
  0
LINE
  5
31D
330
1F
100
AcDbEntity
  8
002
  6
CENTER
 62
    40
370
     9
100
AcDbLine
 10
525.355381
 20
344.754486
 30
0.0
 11
525.355381
 21
370.896486
 31
0.0
  0
LINE
  5
31E
330
1F
100
AcDbEntity
  8
002
  6
HIDDEN
 62
    40
370
     9
100
AcDbLine
 10
213.645381
 20
404.896486
 30
0.0
 11
295.645381
 21
404.896486
 31
0.0
  0
LINE
  5
31F
330
1F
100
AcDbEntity
  8
002
  6
HIDDEN
 62
    40
370
     9
100
AcDbLine
 10
232.145381
 20
404.896486
 30
0.0
 11
232.145381
 21
370.896486
 31
0.0
  0
LINE
  5
320
330
1F
100
AcDbEntity
  8
002
  6
HIDDEN
 62
    40
370
     9
100
AcDbLine
 10
277.145381
 20
404.896486
 30
0.0
 11
277.145381
 21
370.896486
 31
0.0
  0
LINE
  5
321
330
1F
100
AcDbEntity
  8
002
  6
HIDDEN
 62
    40
370
     9
100
AcDbLine
 10
727.145381
 20
404.896486
 30
0.0
 11
727.145381
 21
370.896486
 31
0.0
  0
LINE
  5
322
330
1F
100
AcDbEntity
  8
002
  6
HIDDEN
 62
    40
370
     9
100
AcDbLine
 10
708.645381
 20
404.896486
 30
0.0
 11
790.645381
 21
404.896486
 31
0.0
  0
LINE
  5
323
330
1F
100
AcDbEntity
  8
002
  6
HIDDEN
 62
    40
370
     9
100
AcDbLine
 10
772.145381
 20
404.896486
 30
0.0
 11
772.145381
 21
370.896486
 31
0.0
  0
ARC
  5
324
330
1F
100
AcDbEntity
  8
002
 62
     3
370
    30
100
AcDbCircle
 10
209.645381
 20
400.896486
 30
0.0
 40
5.0
100
AcDbArc
 50
90.0
 51
180.0
  0
LINE
  5
325
330
1F
100
AcDbEntity
  8
002
 62
     3
370
    30
100
AcDbLine
 10
204.645381
 20
400.896486
 30
0.0
 11
204.645381
 21
370.896486
 31
0.0
  0
LINE
  5
326
330
1F
100
AcDbEntity
  8
002
  6
DASHED
 62
    40
370
     9
100
AcDbLine
 10
213.645381
 20
405.896486
 30
0.0
 11
213.645381
 21
404.896486
 31
0.0
  0
LINE
  5
327
330
1F
100
AcDbEntity
  8
003
 62
     3
370
    30
100
AcDbLine
 10
594.645381
 20
685.896486
 30
0.0
 11
314.645381
 21
685.896486
 31
0.0
  0
LINE
  5
328
330
1F
100
AcDbEntity
  8
002
 62
     3
370
    30
100
AcDbLine
 10
616.645381
 20
527.896247
 30
0.0
 11
602.645381
 21
527.896247
 31
0.0
  0
LINE
  5
329
330
1F
100
AcDbEntity
  8
002
 62
     3
370
    30
100
AcDbLine
 10
616.645381
 20
527.896247
 30
0.0
 11
616.645381
 21
536.896486
 31
0.0
  0
LINE
  5
32A
330
1F
100
AcDbEntity
  8
002
 62
     3
370
    30
100
AcDbLine
 10
602.645381
 20
536.896486
 30
0.0
 11
602.645381
 21
527.896247
 31
0.0
  0
LINE
  5
32B
330
1F
100
AcDbEntity
  8
002
 62
     3
370
    30
100
AcDbLine
 10
602.645381
 20
536.896486
 30
0.0
 11
616.645381
 21
536.896486
 31
0.0
  0
ARC
  5
32C
330
1F
100
AcDbEntity
  8
002
 62
     3
370
    30
100
AcDbCircle
 10
609.645381
 20
510.896486
 30
0.0
 40
22.50072434389606
100
AcDbArc
 50
108.1256
 51
71.8744
  0
ARC
  5
32D
330
1F
100
AcDbEntity
  8
002
 62
     3
370
    30
100
AcDbCircle
 10
609.645381
 20
510.896486
 30
0.0
 40
25.00065799134093
100
AcDbArc
 50
106.259765
 51
73.740235
  0
LINE
  5
32E
330
1F
100
AcDbEntity
  8
001
 62
     3
370
    30
100
AcDbLine
 10
537.245381
 20
170.896486
 30
0.0
 11
372.045381
 21
170.896486
 31
0.0
  0
LINE
  5
32F
330
1F
100
AcDbEntity
  8
002
 62
     3
370
    30
100
AcDbLine
 10
537.245381
 20
170.896486
 30
0.0
 11
537.245381
 21
360.896486
 31
0.0
  0
LINE
  5
330
330
1F
100
AcDbEntity
  8
002
 62
     3
370
    30
100
AcDbLine
 10
372.045381
 20
360.896486
 30
0.0
 11
372.045381
 21
170.896486
 31
0.0
  0
LINE
  5
331
330
1F
100
AcDbEntity
  8
001
  6
CENTER
 62
    40
370
     9
100
AcDbLine
 10
544.990993
 20
2408.681669
 30
0.0
 11
624.622361
 21
2454.656861
 31
0.0
  0
LINE
  5
332
330
1F
100
AcDbEntity
  8
001
  6
CENTER
 62
    40
370
     9
100
AcDbLine
 10
544.990993
 20
2304.359543
 30
0.0
 11
624.622361
 21
2258.384351
 31
0.0
  0
LINE
  5
333
330
1F
100
AcDbEntity
  8
001
  6
CENTER
 62
    40
370
     9
100
AcDbLine
 10
364.29977
 20
2408.681669
 30
0.0
 11
284.668402
 21
2454.656861
 31
0.0
  0
LINE
  5
334
330
1F
100
AcDbEntity
  8
001
  6
CENTER
 62
    40
370
     9
100
AcDbLine
 10
364.29977
 20
2304.359543
 30
0.0
 11
284.668402
 21
2258.384351
 31
0.0
  0
LINE
  5
335
330
1F
100
AcDbEntity
  8
001
 62
     3
370
    30
100
AcDbLine
 10
352.645381
 20
1226.670486
 30
0.0
 11
349.645381
 21
1226.670486
 31
0.0
  0
LINE
  5
336
330
1F
100
AcDbEntity
  8
001
 62
     3
370
    30
100
AcDbLine
 10
349.645381
 20
1226.670486
 30
0.0
 11
346.732381
 21
1223.756486
 31
0.0
  0
LINE
  5
337
330
1F
100
AcDbEntity
  8
001
 62
     3
370
    30
100
AcDbLine
 10
346.169381
 20
1223.194486
 30
0.0
 11
346.169381
 21
1218.599486
 31
0.0
  0
ARC
  5
338
330
1F
100
AcDbEntity
  8
001
 62
     3
370
    30
100
AcDbCircle
 10
346.025381
 20
1217.329486
 30
0.0
 40
1.000001999998141
100
AcDbArc
 50
45.0
 51
122.005383
  0
LINE
  5
339
330
1F
100
AcDbEntity
  8
001
 62
     3
370
    30
100
AcDbLine
 10
345.495381
 20
1218.177486
 30
0.0
 11
344.645381
 21
1217.646486
 31
0.0
  0
LINE
  5
33A
330
1F
100
AcDbEntity
  8
001
 62
     3
370
    30
100
AcDbLine
 10
344.645381
 20
1217.646486
 30
0.0
 11
341.645381
 21
1218.396486
 31
0.0
  0
LINE
  5
33B
330
1F
100
AcDbEntity
  8
001
 62
     3
370
    30
100
AcDbLine
 10
341.645381
 20
1218.396486
 30
0.0
 11
341.645381
 21
1223.396486
 31
0.0
  0
LINE
  5
33C
330
1F
100
AcDbEntity
  8
001
 62
     3
370
    30
100
AcDbLine
 10
341.645381
 20
1223.396486
 30
0.0
 11
344.645381
 21
1224.146486
 31
0.0
  0
LINE
  5
33D
330
1F
100
AcDbEntity
  8
001
 62
     3
370
    30
100
AcDbLine
 10
344.645381
 20
1224.146486
 30
0.0
 11
345.495381
 21
1223.616486
 31
0.0
  0
ARC
  5
33E
330
1F
100
AcDbEntity
  8
001
 62
     3
370
    30
100
AcDbCircle
 10
346.025381
 20
1224.464486
 30
0.0
 40
1.000556345239961
100
AcDbArc
 50
237.994617
 51
314.959508
  0
LINE
  5
33F
330
1F
100
AcDbEntity
  8
001
 62
     3
370
    30
100
AcDbLine
 10
344.645381
 20
1223.396486
 30
0.0
 11
344.645381
 21
1218.396486
 31
0.0
  0
LINE
  5
340
330
1F
100
AcDbEntity
  8
001
 62
     3
370
    30
100
AcDbLine
 10
346.732381
 20
1218.036486
 30
0.0
 11
349.645381
 21
1215.123486
 31
0.0
  0
LINE
  5
341
330
1F
100
AcDbEntity
  8
001
 62
     3
370
    30
100
AcDbLine
 10
349.645381
 20
1215.123486
 30
0.0
 11
352.645381
 21
1215.123486
 31
0.0
  0
LINE
  5
342
330
1F
100
AcDbEntity
  8
001
 62
     3
370
    30
100
AcDbLine
 10
352.645381
 20
1215.123486
 30
0.0
 11
353.548381
 21
1216.026486
 31
0.0
  0
ARC
  5
343
330
1F
100
AcDbEntity
  8
001
 62
     3
370
    30
100
AcDbCircle
 10
352.105381
 20
1216.566486
 30
0.0
 40
1.54166663063058
100
AcDbArc
 50
339.483127
 51
69.496153
  0
LINE
  5
344
330
1F
100
AcDbEntity
  8
001
 62
     3
370
    30
100
AcDbLine
 10
352.645381
 20
1218.010486
 30
0.0
 11
349.645381
 21
1218.010486
 31
0.0
  0
ARC
  5
345
330
1F
100
AcDbEntity
  8
001
 62
     3
370
    30
100
AcDbCircle
 10
350.186381
 20
1216.566486
 30
0.0
 40
1.540730021775364
100
AcDbArc
 50
110.53865
 51
200.516873
  0
ARC
  5
346
330
1F
100
AcDbEntity
  8
001
 62
     3
370
    30
100
AcDbCircle
 10
348.979381
 20
1220.896486
 30
0.0
 40
4.666296711526233
100
AcDbArc
 50
321.788975
 51
38.220673
  0
LINE
  5
347
330
1F
100
AcDbEntity
  8
001
 62
     3
370
    30
100
AcDbLine
 10
352.645381
 20
1223.783486
 30
0.0
 11
349.645381
 21
1223.783486
 31
0.0
  0
ARC
  5
348
330
1F
100
AcDbEntity
  8
001
 62
     3
370
    30
100
AcDbCircle
 10
353.312381
 20
1220.896486
 30
0.0
 40
4.666463864640891
100
AcDbArc
 50
141.786922
 51
218.203431
  0
LINE
  5
349
330
1F
100
AcDbEntity
  8
001
 62
     3
370
    30
100
AcDbLine
 10
353.645381
 20
1216.611486
 30
0.0
 11
353.645381
 21
1225.182486
 31
0.0
  0
LINE
  5
34A
330
1F
100
AcDbEntity
  8
001
 62
     3
370
    30
100
AcDbLine
 10
353.548381
 20
1225.767486
 30
0.0
 11
352.645381
 21
1226.670486
 31
0.0
  0
LINE
  5
34B
330
1F
100
AcDbEntity
  8
001
 62
     3
370
    30
100
AcDbLine
 10
353.217381
 20
1226.098486
 30
0.0
 11
354.645381
 21
1226.009486
 31
0.0
  0
ARC
  5
34C
330
1F
100
AcDbEntity
  8
001
 62
     3
370
    30
100
AcDbCircle
 10
352.105381
 20
1225.227486
 30
0.0
 40
1.540730021775364
100
AcDbArc
 50
290.503847
 51
20.516873
  0
ARC
  5
34D
330
1F
100
AcDbEntity
  8
001
 62
     3
370
    30
100
AcDbCircle
 10
350.186381
 20
1225.227486
 30
0.0
 40
1.542017185377588
100
AcDbArc
 50
159.483127
 51
249.46135
  0
ARC
  5
34E
330
1F
100
AcDbEntity
  8
001
 62
     3
370
    30
100
AcDbCircle
 10
342.307381
 20
1220.896486
 30
0.0
 40
1.00037193083375
100
AcDbArc
 50
131.433771
 51
228.566229
  0
LINE
  5
34F
330
1F
100
AcDbEntity
  8
001
 62
     3
370
    30
100
AcDbLine
 10
353.217381
 20
1215.695486
 30
0.0
 11
354.645381
 21
1215.784486
 31
0.0
  0
LINE
  5
350
330
1F
100
AcDbEntity
  8
001
 62
     3
370
    30
100
AcDbLine
 10
354.665381
 20
1216.386486
 30
0.0
 11
354.024381
 21
1215.745486
 31
0.0
  0
LINE
  5
351
330
1F
100
AcDbEntity
  8
001
 62
     3
370
    30
100
AcDbLine
 10
354.665381
 20
1225.407486
 30
0.0
 11
354.024381
 21
1226.047486
 31
0.0
  0
LINE
  5
352
330
1F
100
AcDbEntity
  8
001
  6
CENTER
 62
    40
370
     9
100
AcDbLine
 10
339.500381
 20
1220.896486
 30
0.0
 11
358.528381
 21
1220.896486
 31
0.0
  0
LINE
  5
353
330
1F
100
AcDbEntity
  8
001
 62
     3
370
    30
100
AcDbLine
 10
504.645381
 20
1740.896486
 30
0.0
 11
404.645381
 21
1740.896486
 31
0.0
  0
LINE
  5
354
330
1F
100
AcDbEntity
  8
001
 62
     3
370
    30
100
AcDbLine
 10
504.645381
 20
1590.896486
 30
0.0
 11
504.645381
 21
1740.896486
 31
0.0
  0
LINE
  5
355
330
1F
100
AcDbEntity
  8
001
 62
     3
370
    30
100
AcDbLine
 10
404.645381
 20
1590.896486
 30
0.0
 11
404.645381
 21
1740.896486
 31
0.0
  0
LINE
  5
356
330
1F
100
AcDbEntity
  8
001
 62
     3
370
    30
100
AcDbLine
 10
388.645381
 20
1590.896486
 30
0.0
 11
520.645381
 21
1590.896486
 31
0.0
  0
LINE
  5
357
330
1F
100
AcDbEntity
  8
001
 62
     3
370
    30
100
AcDbLine
 10
520.645381
 20
725.896486
 30
0.0
 11
388.645381
 21
725.896486
 31
0.0
  0
LINE
  5
358
330
1F
100
AcDbEntity
  8
001
 62
    40
370
     9
100
AcDbLine
 10
397.145381
 20
725.896486
 30
0.0
 11
388.645381
 21
711.174054
 31
0.0
  0
LINE
  5
359
330
1F
100
AcDbEntity
  8
001
 62
    40
370
     9
100
AcDbLine
 10
512.145381
 20
725.896486
 30
0.0
 11
520.645381
 21
711.174054
 31
0.0
  0
LINE
  5
35A
330
1F
100
AcDbEntity
  8
001
 62
     3
370
    30
100
AcDbLine
 10
262.145381
 20
1070.896486
 30
0.0
 11
647.145381
 21
1070.896486
 31
0.0
  0
LINE
  5
35B
330
1F
100
AcDbEntity
  8
001
 62
     3
370
    30
100
AcDbLine
 10
262.145381
 20
1070.896486
 30
0.0
 11
262.145381
 21
1130.896486
 31
0.0
  0
LINE
  5
35C
330
1F
100
AcDbEntity
  8
001
 62
     3
370
    30
100
AcDbLine
 10
647.145381
 20
1130.896486
 30
0.0
 11
647.145381
 21
1070.896486
 31
0.0
  0
LINE
  5
35D
330
1F
100
AcDbEntity
  8
001
 62
     3
370
    30
100
AcDbLine
 10
262.145381
 20
1130.896486
 30
0.0
 11
647.145381
 21
1130.896486
 31
0.0
  0
LINE
  5
35E
330
1F
100
AcDbEntity
  8
001
 62
     3
370
    30
100
AcDbLine
 10
354.645381
 20
1140.896486
 30
0.0
 11
354.645381
 21
1310.896486
 31
0.0
  0
LINE
  5
35F
330
1F
100
AcDbEntity
  8
001
 62
     3
370
    30
100
AcDbLine
 10
554.645381
 20
1140.896486
 30
0.0
 11
554.645381
 21
1310.896486
 31
0.0
  0
LINE
  5
360
330
1F
100
AcDbEntity
  8
001
 62
     3
370
    30
100
AcDbLine
 10
354.645381
 20
1310.896486
 30
0.0
 11
554.645381
 21
1310.896486
 31
0.0
  0
ARC
  5
361
330
1F
100
AcDbEntity
  8
001
 62
     3
370
    30
100
AcDbCircle
 10
564.645381
 20
1140.896486
 30
0.0
 40
10.0
100
AcDbArc
 50
180.0
 51
270.0
  0
ARC
  5
362
330
1F
100
AcDbEntity
  8
001
 62
     3
370
    30
100
AcDbCircle
 10
344.645381
 20
1140.896486
 30
0.0
 40
10.0
100
AcDbArc
 50
270.0
 51
0.0
  0
CIRCLE
  5
363
330
1F
100
AcDbEntity
  8
001
 62
     3
370
    30
100
AcDbCircle
 10
454.645381
 20
2356.520606
 30
0.0
 40
192.5
  0
LINE
  5
364
330
1F
100
AcDbEntity
  8
001
  6
CENTER
 62
    40
370
     9
100
AcDbLine
 10
454.645381
 20
2136.608445
 30
0.0
 11
454.645381
 21
2583.187686
 31
0.0
  0
LINE
  5
365
330
1F
100
AcDbEntity
  8
001
  6
CENTER
 62
    40
370
     9
100
AcDbLine
 10
227.683826
 20
2356.520606
 30
0.0
 11
685.615453
 21
2356.520606
 31
0.0
  0
CIRCLE
  5
366
330
1F
100
AcDbEntity
  8
001
  6
CENTER
 62
    40
370
     9
100
AcDbCircle
 10
454.645381
 20
2356.520606
 30
0.0
 40
150.0
  0
CIRCLE
  5
367
330
1F
100
AcDbEntity
  8
001
 62
     3
370
    30
100
AcDbCircle
 10
454.645381
 20
2356.520606
 30
0.0
 40
66.0
  0
CIRCLE
  5
368
330
1F
100
AcDbEntity
  8
001
 62
    40
370
     9
100
AcDbCircle
 10
454.645381
 20
2356.520606
 30
0.0
 40
58.0
  0
CIRCLE
  5
369
330
1F
100
AcDbEntity
  8
001
 62
     3
370
    30
100
AcDbCircle
 10
454.645381
 20
2506.520606
 30
0.0
 40
22.5
  0
CIRCLE
  5
36A
330
1F
100
AcDbEntity
  8
001
 62
     3
370
    30
100
AcDbCircle
 10
324.741571
 20
2431.520606
 30
0.0
 40
22.5
  0
CIRCLE
  5
36B
330
1F
100
AcDbEntity
  8
001
 62
     3
370
    30
100
AcDbCircle
 10
324.741571
 20
2281.520606
 30
0.0
 40
22.5
  0
CIRCLE
  5
36C
330
1F
100
AcDbEntity
  8
001
 62
     3
370
    30
100
AcDbCircle
 10
454.645381
 20
2206.520606
 30
0.0
 40
22.5
  0
CIRCLE
  5
36D
330
1F
100
AcDbEntity
  8
001
 62
     3
370
    30
100
AcDbCircle
 10
584.549192
 20
2281.520606
 30
0.0
 40
22.5
  0
CIRCLE
  5
36E
330
1F
100
AcDbEntity
  8
001
 62
     3
370
    30
100
AcDbCircle
 10
584.549192
 20
2431.520606
 30
0.0
 40
22.5
  0
CIRCLE
  5
36F
330
1F
100
AcDbEntity
  8
002
 62
     3
370
    30
100
AcDbCircle
 10
454.645381
 20
2356.520606
 30
0.0
 40
100.0
  0
ARC
  5
370
330
1F
100
AcDbEntity
  8
001
 62
     3
370
    30
100
AcDbCircle
 10
352.105381
 20
2360.851606
 30
0.0
 40
1.540730021775364
100
AcDbArc
 50
290.503847
 51
20.516873
  0
LINE
  5
371
330
1F
100
AcDbEntity
  8
001
 62
     3
370
    30
100
AcDbLine
 10
353.645381
 20
2352.235606
 30
0.0
 11
353.645381
 21
2360.806606
 31
0.0
  0
ARC
  5
372
330
1F
100
AcDbEntity
  8
001
 62
     3
370
    30
100
AcDbCircle
 10
348.979381
 20
2356.520606
 30
0.0
 40
4.666296711526233
100
AcDbArc
 50
321.788975
 51
38.220673
  0
ARC
  5
373
330
1F
100
AcDbEntity
  8
001
 62
     3
370
    30
100
AcDbCircle
 10
352.105381
 20
2352.190606
 30
0.0
 40
1.54166663063058
100
AcDbArc
 50
339.483127
 51
69.496153
  0
LINE
  5
374
330
1F
100
AcDbEntity
  8
001
 62
     3
370
    30
100
AcDbLine
 10
352.645381
 20
2350.747606
 30
0.0
 11
353.548381
 21
2351.650606
 31
0.0
  0
LINE
  5
375
330
1F
100
AcDbEntity
  8
001
 62
     3
370
    30
100
AcDbLine
 10
349.645381
 20
2350.747606
 30
0.0
 11
352.645381
 21
2350.747606
 31
0.0
  0
LINE
  5
376
330
1F
100
AcDbEntity
  8
001
 62
     3
370
    30
100
AcDbLine
 10
352.645381
 20
2353.634606
 30
0.0
 11
349.645381
 21
2353.634606
 31
0.0
  0
LINE
  5
377
330
1F
100
AcDbEntity
  8
001
 62
     3
370
    30
100
AcDbLine
 10
352.645381
 20
2359.407606
 30
0.0
 11
349.645381
 21
2359.407606
 31
0.0
  0
LINE
  5
378
330
1F
100
AcDbEntity
  8
001
 62
     3
370
    30
100
AcDbLine
 10
353.548381
 20
2361.391606
 30
0.0
 11
352.645381
 21
2362.294606
 31
0.0
  0
LINE
  5
379
330
1F
100
AcDbEntity
  8
001
 62
     3
370
    30
100
AcDbLine
 10
352.645381
 20
2362.294606
 30
0.0
 11
349.645381
 21
2362.294606
 31
0.0
  0
LINE
  5
37A
330
1F
100
AcDbEntity
  8
001
 62
     3
370
    30
100
AcDbLine
 10
349.645381
 20
2362.294606
 30
0.0
 11
346.732381
 21
2359.380606
 31
0.0
  0
ARC
  5
37B
330
1F
100
AcDbEntity
  8
001
 62
     3
370
    30
100
AcDbCircle
 10
350.186381
 20
2360.851606
 30
0.0
 40
1.542017185377588
100
AcDbArc
 50
159.483127
 51
249.46135
  0
ARC
  5
37C
330
1F
100
AcDbEntity
  8
001
 62
     3
370
    30
100
AcDbCircle
 10
353.312381
 20
2356.520606
 30
0.0
 40
4.666463864640891
100
AcDbArc
 50
141.786922
 51
218.203431
  0
ARC
  5
37D
330
1F
100
AcDbEntity
  8
001
 62
     3
370
    30
100
AcDbCircle
 10
350.186381
 20
2352.190606
 30
0.0
 40
1.540730021775364
100
AcDbArc
 50
110.53865
 51
200.516873
  0
LINE
  5
37E
330
1F
100
AcDbEntity
  8
001
 62
     3
370
    30
100
AcDbLine
 10
346.732381
 20
2353.660606
 30
0.0
 11
349.645381
 21
2350.747606
 31
0.0
  0
ARC
  5
37F
330
1F
100
AcDbEntity
  8
001
 62
     3
370
    30
100
AcDbCircle
 10
346.025381
 20
2352.953606
 30
0.0
 40
1.000001999998141
100
AcDbArc
 50
45.0
 51
122.005383
  0
LINE
  5
380
330
1F
100
AcDbEntity
  8
001
 62
     3
370
    30
100
AcDbLine
 10
345.495381
 20
2353.801606
 30
0.0
 11
344.645381
 21
2353.270606
 31
0.0
  0
LINE
  5
381
330
1F
100
AcDbEntity
  8
001
 62
     3
370
    30
100
AcDbLine
 10
346.169381
 20
2358.818606
 30
0.0
 11
346.169381
 21
2354.223606
 31
0.0
  0
ARC
  5
382
330
1F
100
AcDbEntity
  8
001
 62
     3
370
    30
100
AcDbCircle
 10
346.025381
 20
2360.088606
 30
0.0
 40
1.000556345239961
100
AcDbArc
 50
237.994617
 51
314.959508
  0
LINE
  5
383
330
1F
100
AcDbEntity
  8
001
 62
     3
370
    30
100
AcDbLine
 10
344.645381
 20
2359.770606
 30
0.0
 11
345.495381
 21
2359.240606
 31
0.0
  0
LINE
  5
384
330
1F
100
AcDbEntity
  8
001
 62
     3
370
    30
100
AcDbLine
 10
344.645381
 20
2359.020606
 30
0.0
 11
344.645381
 21
2354.020606
 31
0.0
  0
LINE
  5
385
330
1F
100
AcDbEntity
  8
001
 62
     3
370
    30
100
AcDbLine
 10
344.645381
 20
2353.270606
 30
0.0
 11
341.645381
 21
2354.020606
 31
0.0
  0
LINE
  5
386
330
1F
100
AcDbEntity
  8
001
 62
     3
370
    30
100
AcDbLine
 10
341.645381
 20
2354.020606
 30
0.0
 11
341.645381
 21
2359.020606
 31
0.0
  0
ARC
  5
387
330
1F
100
AcDbEntity
  8
001
 62
     3
370
    30
100
AcDbCircle
 10
342.307381
 20
2356.520606
 30
0.0
 40
1.00037193083375
100
AcDbArc
 50
131.433771
 51
228.566229
  0
LINE
  5
388
330
1F
100
AcDbEntity
  8
001
 62
     3
370
    30
100
AcDbLine
 10
341.645381
 20
2359.020606
 30
0.0
 11
344.645381
 21
2359.770606
 31
0.0
  0
LINE
  5
389
330
1F
100
AcDbEntity
  8
001
 62
     3
370
    30
100
AcDbLine
 10
353.217381
 20
2361.722606
 30
0.0
 11
354.775765
 21
2361.62548
 31
0.0
  0
LINE
  5
38A
330
1F
100
AcDbEntity
  8
001
 62
     3
370
    30
100
AcDbLine
 10
354.743679
 20
2360.95343
 30
0.0
 11
354.024381
 21
2361.671606
 31
0.0
  0
LINE
  5
38B
330
1F
100
AcDbEntity
  8
001
 62
     3
370
    30
100
AcDbLine
 10
354.743632
 20
2352.088856
 30
0.0
 11
354.024381
 21
2351.369606
 31
0.0
  0
LINE
  5
38C
330
1F
100
AcDbEntity
  8
001
 62
     3
370
    30
100
AcDbLine
 10
353.217381
 20
2351.319606
 30
0.0
 11
354.775714
 21
2351.416729
 31
0.0
  0
LINE
  5
38D
330
1F
100
AcDbEntity
  8
001
 62
     3
370
    30
100
AcDbLine
 10
388.645381
 20
1310.896486
 30
0.0
 11
388.645381
 21
1590.896486
 31
0.0
  0
LINE
  5
38E
330
1F
100
AcDbEntity
  8
001
 62
    40
370
     9
100
AcDbLine
 10
397.145381
 20
1310.896486
 30
0.0
 11
397.145381
 21
1590.896486
 31
0.0
  0
LINE
  5
38F
330
1F
100
AcDbEntity
  8
001
 62
    40
370
     9
100
AcDbLine
 10
512.145381
 20
1310.896486
 30
0.0
 11
512.145381
 21
1590.896486
 31
0.0
  0
LINE
  5
390
330
1F
100
AcDbEntity
  8
001
 62
     3
370
    30
100
AcDbLine
 10
520.645381
 20
1310.896486
 30
0.0
 11
520.645381
 21
1590.896486
 31
0.0
  0
LINE
  5
391
330
1F
100
AcDbEntity
  8
002
 62
     3
370
    30
100
AcDbLine
 10
2312.787899
 20
1263.160688
 30
0.0
 11
2312.787899
 21
1233.160688
 31
0.0
  0
LINE
  5
392
330
1F
100
AcDbEntity
  8
002
 62
     3
370
    30
100
AcDbLine
 10
2312.787899
 20
1233.160688
 30
0.0
 11
1717.787899
 21
1233.160688
 31
0.0
  0
LINE
  5
393
330
1F
100
AcDbEntity
  8
002
 62
     3
370
    30
100
AcDbLine
 10
1717.787899
 20
1233.160688
 30
0.0
 11
1717.787899
 21
1263.160688
 31
0.0
  0
ARC
  5
394
330
1F
100
AcDbEntity
  8
002
 62
     3
370
    30
100
AcDbCircle
 10
1722.787899
 20
1263.160688
 30
0.0
 40
5.0
100
AcDbArc
 50
90.0
 51
180.0
  0
LINE
  5
395
330
1F
100
AcDbEntity
  8
002
 62
     3
370
    30
100
AcDbLine
 10
1722.787899
 20
1268.160688
 30
0.0
 11
2307.787899
 21
1268.160688
 31
0.0
  0
ARC
  5
396
330
1F
100
AcDbEntity
  8
002
 62
     3
370
    30
100
AcDbCircle
 10
2307.787899
 20
1263.160688
 30
0.0
 40
5.0
100
AcDbArc
 50
0.0
 51
90.0
  0
ARC
  5
397
330
1F
100
AcDbEntity
  8
002
 62
     3
370
    30
100
AcDbCircle
 10
2240.199899
 20
1283.160688
 30
0.0
 40
14.99975999807991
100
AcDbArc
 50
189.997359
 51
270.0
  0
LINE
  5
398
330
1F
100
AcDbEntity
  8
002
 62
     3
370
    30
100
AcDbLine
 10
2225.427899
 20
1280.556688
 30
0.0
 11
2206.496899
 21
1387.920688
 31
0.0
  0
LINE
  5
399
330
1F
100
AcDbEntity
  8
002
 62
     3
370
    30
100
AcDbLine
 10
2207.787899
 20
1373.160688
 30
0.0
 11
2207.787899
 21
1283.160688
 31
0.0
  0
ARC
  5
39A
330
1F
100
AcDbEntity
  8
002
 62
     3
370
    30
100
AcDbCircle
 10
2222.787899
 20
1283.160688
 30
0.0
 40
15.0
100
AcDbArc
 50
180.0
 51
270.0
  0
CIRCLE
  5
39B
330
1F
100
AcDbEntity
  8
002
 62
     3
370
    30
100
AcDbCircle
 10
2122.787899
 20
1373.160688
 30
0.0
 40
85.0
  0
LINE
  5
39C
330
1F
100
AcDbEntity
  8
002
 62
     3
370
    30
100
AcDbLine
 10
2037.787899
 20
1373.160688
 30
0.0
 11
2037.787899
 21
1283.160688
 31
0.0
  0
ARC
  5
39D
330
1F
100
AcDbEntity
  8
002
 62
     3
370
    30
100
AcDbCircle
 10
2022.787899
 20
1283.160688
 30
0.0
 40
15.0
100
AcDbArc
 50
270.0
 51
0.0
  0
LINE
  5
39E
330
1F
100
AcDbEntity
  8
002
 62
     3
370
    30
100
AcDbLine
 10
1809.673899
 20
1283.160688
 30
0.0
 11
1809.673899
 21
1402.078688
 31
0.0
  0
LINE
  5
39F
330
1F
100
AcDbEntity
  8
002
 62
     3
370
    30
100
AcDbLine
 10
1809.673899
 20
1418.112688
 30
0.0
 11
1924.686899
 21
1418.112688
 31
0.0
  0
ARC
  5
3A0
330
1F
100
AcDbEntity
  8
002
 62
     3
370
    30
100
AcDbCircle
 10
1927.787899
 20
1415.160688
 30
0.0
 40
5.0
100
AcDbArc
 50
0.0
 51
90.0
  0
LINE
  5
3A1
330
1F
100
AcDbEntity
  8
002
 62
     3
370
    30
100
AcDbLine
 10
1932.787899
 20
1415.160688
 30
0.0
 11
1932.787899
 21
1373.160688
 31
0.0
  0
CIRCLE
  5
3A2
330
1F
100
AcDbEntity
  8
002
 62
     3
370
    30
100
AcDbCircle
 10
1967.787899
 20
1373.160688
 30
0.0
 40
24.12025
  0
LINE
  5
3A3
330
1F
100
AcDbEntity
  8
002
 62
     3
370
    30
100
AcDbLine
 10
1954.787899
 20
1386.160688
 30
0.0
 11
1980.787899
 21
1386.160688
 31
0.0
  0
LINE
  5
3A4
330
1F
100
AcDbEntity
  8
002
 62
     3
370
    30
100
AcDbLine
 10
1980.787899
 20
1386.160688
 30
0.0
 11
1980.787899
 21
1360.160688
 31
0.0
  0
LINE
  5
3A5
330
1F
100
AcDbEntity
  8
002
 62
     3
370
    30
100
AcDbLine
 10
1980.787899
 20
1360.160688
 30
0.0
 11
1954.787899
 21
1360.160688
 31
0.0
  0
LINE
  5
3A6
330
1F
100
AcDbEntity
  8
002
 62
     3
370
    30
100
AcDbLine
 10
1954.787899
 20
1360.160688
 30
0.0
 11
1954.787899
 21
1386.160688
 31
0.0
  0
ARC
  5
3A7
330
1F
100
AcDbEntity
  8
002
 62
     3
370
    30
100
AcDbCircle
 10
1967.787899
 20
1373.160688
 30
0.0
 40
35.0
100
AcDbArc
 50
180.0
 51
0.0
  0
LINE
  5
3A8
330
1F
100
AcDbEntity
  8
002
 62
     3
370
    30
100
AcDbLine
 10
2002.787899
 20
1373.160688
 30
0.0
 11
2002.787899
 21
1415.160688
 31
0.0
  0
ARC
  5
3A9
330
1F
100
AcDbEntity
  8
002
 62
     3
370
    30
100
AcDbCircle
 10
2007.787899
 20
1415.160688
 30
0.0
 40
5.0
100
AcDbArc
 50
90.0
 51
180.0
  0
LINE
  5
3AA
330
1F
100
AcDbEntity
  8
002
 62
     3
370
    30
100
AcDbLine
 10
2011.130899
 20
1418.112688
 30
0.0
 11
2044.584899
 21
1418.112688
 31
0.0
  0
ARC
  5
3AB
330
1F
100
AcDbEntity
  8
002
 62
     3
370
    30
100
AcDbCircle
 10
2046.548899
 20
1423.160688
 30
0.0
 40
5.0
100
AcDbArc
 50
0.0
 51
90.0
  0
ARC
  5
3AC
330
1F
100
AcDbEntity
  8
002
 62
     3
370
    30
100
AcDbCircle
 10
2122.787899
 20
1373.160688
 30
0.0
 40
90.00051130965844
100
AcDbArc
 50
117.858284
 51
142.3301
  0
LINE
  5
3AD
330
1F
100
AcDbEntity
  8
002
 62
     3
370
    30
100
AcDbLine
 10
2080.731899
 20
1452.730688
 30
0.0
 11
2080.731899
 21
1447.027688
 31
0.0
  0
LINE
  5
3AE
330
1F
100
AcDbEntity
  8
002
 62
     3
370
    30
100
AcDbLine
 10
2046.548899
 20
1428.160688
 30
0.0
 11
1768.962899
 21
1428.160688
 31
0.0
  0
LINE
  5
3AF
330
1F
100
AcDbEntity
  8
002
 62
     3
370
    30
100
AcDbLine
 10
1768.962899
 20
1424.496688
 30
0.0
 11
1798.555899
 21
1416.567688
 31
0.0
  0
ARC
  5
3B0
330
1F
100
AcDbEntity
  8
002
 62
     3
370
    30
100
AcDbCircle
 10
1794.673899
 20
1402.078688
 30
0.0
 40
15.0
100
AcDbArc
 50
0.0
 51
75.001165
  0
LINE
  5
3B1
330
1F
100
AcDbEntity
  8
002
 62
     3
370
    30
100
AcDbLine
 10
1766.960899
 20
1413.140688
 30
0.0
 11
1743.582899
 21
1280.556688
 31
0.0
  0
ARC
  5
3B2
330
1F
100
AcDbEntity
  8
002
 62
     3
370
    30
100
AcDbCircle
 10
1728.810899
 20
1283.160688
 30
0.0
 40
15.0
100
AcDbArc
 50
270.0
 51
350.002641
  0
ARC
  5
3B3
330
1F
100
AcDbEntity
  8
002
 62
     3
370
    30
100
AcDbCircle
 10
1794.673899
 20
1283.160688
 30
0.0
 40
15.0
100
AcDbArc
 50
270.0
 51
0.0
  0
ARC
  5
3B4
330
1F
100
AcDbEntity
  8
002
 62
     3
370
    30
100
AcDbCircle
 10
1752.188899
 20
1415.745688
 30
0.0
 40
14.99993363318735
100
AcDbArc
 50
349.99888
 51
52.892524
  0
ARC
  5
3B5
330
1F
100
AcDbEntity
  8
002
 62
     3
370
    30
100
AcDbCircle
 10
1770.287899
 20
1439.670688
 30
0.0
 40
15.0
100
AcDbArc
 50
180.0
 51
232.893265
  0
LINE
  5
3B6
330
1F
100
AcDbEntity
  8
002
 62
     3
370
    30
100
AcDbLine
 10
1755.287899
 20
1439.670688
 30
0.0
 11
1755.287899
 21
1498.160688
 31
0.0
  0
LINE
  5
3B7
330
1F
100
AcDbEntity
  8
002
 62
     3
370
    30
100
AcDbLine
 10
1755.287899
 20
1498.160688
 30
0.0
 11
2180.287899
 21
1498.160688
 31
0.0
  0
LINE
  5
3B8
330
1F
100
AcDbEntity
  8
002
 62
     3
370
    30
100
AcDbLine
 10
2180.287899
 20
1498.160688
 30
0.0
 11
2180.287899
 21
1442.035688
 31
0.0
  0
ARC
  5
3B9
330
1F
100
AcDbEntity
  8
002
 62
     3
370
    30
100
AcDbCircle
 10
2195.287899
 20
1442.035688
 30
0.0
 40
15.0
100
AcDbArc
 50
180.0
 51
223.530507
  0
CIRCLE
  5
3BA
330
1F
100
AcDbEntity
  8
002
 62
     3
370
    30
100
AcDbCircle
 10
2122.787899
 20
1373.160688
 30
0.0
 40
36.0
  0
CIRCLE
  5
3BB
330
1F
100
AcDbEntity
  8
002
 62
     3
370
    30
100
AcDbCircle
 10
2122.787899
 20
1373.160688
 30
0.0
 40
39.0
  0
CIRCLE
  5
3BC
330
1F
100
AcDbEntity
  8
002
 62
     3
370
    30
100
AcDbCircle
 10
2122.787899
 20
1373.160688
 30
0.0
 40
52.5
  0
LINE
  5
3BD
330
1F
100
AcDbEntity
  8
002
 62
     3
370
    30
100
AcDbLine
 10
2032.816899
 20
1498.160688
 30
0.0
 11
2032.816899
 21
1520.160688
 31
0.0
  0
LINE
  5
3BE
330
1F
100
AcDbEntity
  8
002
 62
     3
370
    30
100
AcDbLine
 10
2032.816899
 20
1520.160688
 30
0.0
 11
1999.816899
 21
1520.160688
 31
0.0
  0
LINE
  5
3BF
330
1F
100
AcDbEntity
  8
002
 62
     3
370
    30
100
AcDbLine
 10
1999.816899
 20
1520.160688
 30
0.0
 11
1999.816899
 21
1498.160688
 31
0.0
  0
LINE
  5
3C0
330
1F
100
AcDbEntity
  8
002
 62
     3
370
    30
100
AcDbLine
 10
1999.816899
 20
1500.160688
 30
0.0
 11
1935.758899
 21
1500.160688
 31
0.0
  0
LINE
  5
3C1
330
1F
100
AcDbEntity
  8
002
 62
     3
370
    30
100
AcDbLine
 10
1935.758899
 20
1498.160688
 30
0.0
 11
1935.758899
 21
1520.160688
 31
0.0
  0
LINE
  5
3C2
330
1F
100
AcDbEntity
  8
002
 62
     3
370
    30
100
AcDbLine
 10
1935.758899
 20
1520.160688
 30
0.0
 11
1902.758899
 21
1520.160688
 31
0.0
  0
LINE
  5
3C3
330
1F
100
AcDbEntity
  8
002
 62
     3
370
    30
100
AcDbLine
 10
1902.758899
 20
1520.160688
 30
0.0
 11
1902.758899
 21
1498.160688
 31
0.0
  0
LINE
  5
3C4
330
1F
100
AcDbEntity
  8
002
 62
     3
370
    30
100
AcDbLine
 10
1902.758899
 20
1500.160688
 30
0.0
 11
1851.705899
 21
1500.160688
 31
0.0
  0
LINE
  5
3C5
330
1F
100
AcDbEntity
  8
002
 62
     3
370
    30
100
AcDbLine
 10
1851.705899
 20
1498.160688
 30
0.0
 11
1851.705899
 21
1520.160688
 31
0.0
  0
LINE
  5
3C6
330
1F
100
AcDbEntity
  8
002
 62
     3
370
    30
100
AcDbLine
 10
1851.705899
 20
1520.160688
 30
0.0
 11
1818.705899
 21
1520.160688
 31
0.0
  0
LINE
  5
3C7
330
1F
100
AcDbEntity
  8
002
 62
     3
370
    30
100
AcDbLine
 10
1818.705899
 20
1520.160688
 30
0.0
 11
1818.705899
 21
1498.160688
 31
0.0
  0
LINE
  5
3C8
330
1F
100
AcDbEntity
  8
002
 62
     3
370
    30
100
AcDbLine
 10
1818.705899
 20
1500.160688
 30
0.0
 11
1805.287899
 21
1500.160688
 31
0.0
  0
LINE
  5
3C9
330
1F
100
AcDbEntity
  8
002
 62
     3
370
    30
100
AcDbLine
 10
1805.287899
 20
1500.160688
 30
0.0
 11
1805.287899
 21
1498.160688
 31
0.0
  0
LINE
  5
3CA
330
1F
100
AcDbEntity
  8
002
 62
     3
370
    30
100
AcDbLine
 10
1803.176899
 20
1498.160688
 30
0.0
 11
1803.176899
 21
1520.160688
 31
0.0
  0
LINE
  5
3CB
330
1F
100
AcDbEntity
  8
002
 62
     3
370
    30
100
AcDbLine
 10
1803.176899
 20
1520.160688
 30
0.0
 11
1770.176899
 21
1520.160688
 31
0.0
  0
LINE
  5
3CC
330
1F
100
AcDbEntity
  8
002
 62
     3
370
    30
100
AcDbLine
 10
1770.176899
 20
1520.160688
 30
0.0
 11
1770.176899
 21
1498.160688
 31
0.0
  0
LINE
  5
3CD
330
1F
100
AcDbEntity
  8
002
 62
     3
370
    30
100
AcDbLine
 10
1822.964899
 20
1520.160688
 30
0.0
 11
1827.787899
 21
1538.160688
 31
0.0
  0
LINE
  5
3CE
330
1F
100
AcDbEntity
  8
002
 62
     3
370
    30
100
AcDbLine
 10
1827.787899
 20
1538.160688
 30
0.0
 11
1827.787899
 21
1548.160688
 31
0.0
  0
LINE
  5
3CF
330
1F
100
AcDbEntity
  8
002
 62
     3
370
    30
100
AcDbLine
 10
1827.787899
 20
1548.160688
 30
0.0
 11
2107.787899
 21
1548.160688
 31
0.0
  0
LINE
  5
3D0
330
1F
100
AcDbEntity
  8
002
 62
     3
370
    30
100
AcDbLine
 10
2107.787899
 20
1548.160688
 30
0.0
 11
2107.787899
 21
1538.160688
 31
0.0
  0
LINE
  5
3D1
330
1F
100
AcDbEntity
  8
002
 62
     3
370
    30
100
AcDbLine
 10
2107.787899
 20
1538.160688
 30
0.0
 11
2112.610899
 21
1520.160688
 31
0.0
  0
LINE
  5
3D2
330
1F
100
AcDbEntity
  8
002
 62
     3
370
    30
100
AcDbLine
 10
2116.870899
 20
1520.160688
 30
0.0
 11
2083.870899
 21
1520.160688
 31
0.0
  0
LINE
  5
3D3
330
1F
100
AcDbEntity
  8
002
 62
     3
370
    30
100
AcDbLine
 10
2083.870899
 20
1520.160688
 30
0.0
 11
2083.870899
 21
1498.160688
 31
0.0
  0
LINE
  5
3D4
330
1F
100
AcDbEntity
  8
002
 62
     3
370
    30
100
AcDbLine
 10
2083.870899
 20
1500.160688
 30
0.0
 11
2032.816899
 21
1500.160688
 31
0.0
  0
ARC
  5
3D5
330
1F
100
AcDbEntity
  8
002
 62
     3
370
    30
100
AcDbCircle
 10
1805.328899
 20
1516.160688
 30
0.0
 40
16.0
100
AcDbArc
 50
270.0
 51
326.727077
  0
LINE
  5
3D6
330
1F
100
AcDbEntity
  8
002
 62
     3
370
    30
100
AcDbLine
 10
1755.287899
 20
1468.160688
 30
0.0
 11
2180.287899
 21
1468.160688
 31
0.0
  0
LINE
  5
3D7
330
1F
100
AcDbEntity
  8
002
 62
     3
370
    30
100
AcDbLine
 10
2165.398899
 20
1498.160688
 30
0.0
 11
2165.398899
 21
1520.160688
 31
0.0
  0
LINE
  5
3D8
330
1F
100
AcDbEntity
  8
002
 62
     3
370
    30
100
AcDbLine
 10
2165.398899
 20
1520.160688
 30
0.0
 11
2132.398899
 21
1520.160688
 31
0.0
  0
LINE
  5
3D9
330
1F
100
AcDbEntity
  8
002
 62
     3
370
    30
100
AcDbLine
 10
2132.398899
 20
1520.160688
 30
0.0
 11
2132.398899
 21
1498.160688
 31
0.0
  0
LINE
  5
3DA
330
1F
100
AcDbEntity
  8
002
 62
     3
370
    30
100
AcDbLine
 10
2130.287899
 20
1498.160688
 30
0.0
 11
2130.287899
 21
1500.160688
 31
0.0
  0
LINE
  5
3DB
330
1F
100
AcDbEntity
  8
002
 62
     3
370
    30
100
AcDbLine
 10
2130.287899
 20
1500.160688
 30
0.0
 11
2116.870899
 21
1500.160688
 31
0.0
  0
LINE
  5
3DC
330
1F
100
AcDbEntity
  8
002
 62
     3
370
    30
100
AcDbLine
 10
2116.870899
 20
1498.160688
 30
0.0
 11
2116.870899
 21
1520.160688
 31
0.0
  0
ARC
  5
3DD
330
1F
100
AcDbEntity
  8
002
 62
     3
370
    30
100
AcDbCircle
 10
2130.246899
 20
1516.160688
 30
0.0
 40
15.9990830987273
100
AcDbArc
 50
213.274888
 51
270.0
  0
LINE
  5
3DE
330
1F
100
AcDbEntity
  8
002
 62
     3
370
    30
100
AcDbLine
 10
2195.245899
 20
1421.660688
 30
0.0
 11
2197.843899
 21
1423.160688
 31
0.0
  0
LINE
  5
3DF
330
1F
100
AcDbEntity
  8
002
 62
     3
370
    30
100
AcDbLine
 10
2197.843899
 20
1423.160688
 30
0.0
 11
2201.823899
 21
1422.094688
 31
0.0
  0
LINE
  5
3E0
330
1F
100
AcDbEntity
  8
002
 62
     3
370
    30
100
AcDbLine
 10
2202.591899
 20
1421.888688
 30
0.0
 11
2204.888899
 21
1417.909688
 31
0.0
  0
LINE
  5
3E1
330
1F
100
AcDbEntity
  8
002
 62
     3
370
    30
100
AcDbLine
 10
2205.683899
 20
1417.881688
 30
0.0
 11
2206.684899
 21
1417.846688
 31
0.0
  0
LINE
  5
3E2
330
1F
100
AcDbEntity
  8
002
 62
     3
370
    30
100
AcDbLine
 10
2206.684899
 20
1417.846688
 30
0.0
 11
2208.908899
 21
1419.995688
 31
0.0
  0
LINE
  5
3E3
330
1F
100
AcDbEntity
  8
002
 62
     3
370
    30
100
AcDbLine
 10
2208.908899
 20
1419.995688
 30
0.0
 11
2206.408899
 21
1424.325688
 31
0.0
  0
LINE
  5
3E4
330
1F
100
AcDbEntity
  8
002
 62
     3
370
    30
100
AcDbLine
 10
2206.408899
 20
1424.325688
 30
0.0
 11
2203.434899
 21
1423.475688
 31
0.0
  0
LINE
  5
3E5
330
1F
100
AcDbEntity
  8
002
 62
     3
370
    30
100
AcDbLine
 10
2203.434899
 20
1423.475688
 30
0.0
 11
2202.964899
 21
1422.590688
 31
0.0
  0
ARC
  5
3E6
330
1F
100
AcDbEntity
  8
002
 62
     3
370
    30
100
AcDbCircle
 10
2202.081899
 20
1423.060688
 30
0.0
 40
0.999859990198477
100
AcDbArc
 50
255.046435
 51
331.974684
  0
LINE
  5
3E7
330
1F
100
AcDbEntity
  8
002
 62
     3
370
    30
100
AcDbLine
 10
2203.809899
 20
1422.825688
 30
0.0
 11
2206.309899
 21
1418.495688
 31
0.0
  0
ARC
  5
3E8
330
1F
100
AcDbEntity
  8
002
 62
     3
370
    30
100
AcDbCircle
 10
2205.648899
 20
1416.881688
 30
0.0
 40
1.000612312536705
100
AcDbArc
 50
87.995466
 51
164.976236
  0
LINE
  5
3E9
330
1F
100
AcDbEntity
  8
002
 62
     3
370
    30
100
AcDbLine
 10
2204.683899
 20
1417.140688
 30
0.0
 11
2203.616899
 21
1413.160688
 31
0.0
  0
LINE
  5
3EA
330
1F
100
AcDbEntity
  8
002
 62
     3
370
    30
100
AcDbLine
 10
2203.616899
 20
1413.160688
 30
0.0
 11
2201.018899
 21
1411.660688
 31
0.0
  0
LINE
  5
3EB
330
1F
100
AcDbEntity
  8
002
 62
     3
370
    30
100
AcDbLine
 10
2201.018899
 20
1411.660688
 30
0.0
 11
2199.785899
 21
1411.991688
 31
0.0
  0
ARC
  5
3EC
330
1F
100
AcDbEntity
  8
002
 62
     3
370
    30
100
AcDbCircle
 10
2200.765899
 20
1413.181688
 30
0.0
 40
1.540954574281516
100
AcDbArc
 50
140.556242
 51
230.52754
  0
LINE
  5
3ED
330
1F
100
AcDbEntity
  8
002
 62
     3
370
    30
100
AcDbLine
 10
2199.575899
 20
1414.160688
 30
0.0
 11
2202.173899
 21
1415.660688
 31
0.0
  0
ARC
  5
3EE
330
1F
100
AcDbEntity
  8
002
 62
     3
370
    30
100
AcDbCircle
 10
2202.426899
 20
1414.140688
 30
0.0
 40
1.541898180814526
100
AcDbArc
 50
9.443995
 51
99.450097
  0
ARC
  5
3EF
330
1F
100
AcDbEntity
  8
002
 62
     3
370
    30
100
AcDbCircle
 10
2201.307899
 20
1418.494688
 30
0.0
 40
4.666767296534662
100
AcDbArc
 50
171.795237
 51
248.216827
  0
ARC
  5
3F0
330
1F
100
AcDbEntity
  8
002
 62
     3
370
    30
100
AcDbCircle
 10
2196.434899
 20
1420.681688
 30
0.0
 40
1.541076247302032
100
AcDbArc
 50
189.486771
 51
279.480647
  0
LINE
  5
3F1
330
1F
100
AcDbEntity
  8
002
 62
     3
370
    30
100
AcDbLine
 10
2194.914899
 20
1420.427688
 30
0.0
 11
2195.245899
 21
1421.660688
 31
0.0
  0
LINE
  5
3F2
330
1F
100
AcDbEntity
  8
002
 62
     3
370
    30
100
AcDbLine
 10
2195.035899
 20
1420.879688
 30
0.0
 11
2193.843899
 21
1420.088688
 31
0.0
  0
LINE
  5
3F3
330
1F
100
AcDbEntity
  8
002
 62
     3
370
    30
100
AcDbLine
 10
2195.122899
 20
1419.872688
 30
0.0
 11
2199.408899
 21
1412.449688
 31
0.0
  0
LINE
  5
3F4
330
1F
100
AcDbEntity
  8
002
 62
     3
370
    30
100
AcDbLine
 10
2200.236899
 20
1411.870688
 30
0.0
 11
2198.955899
 21
1411.233688
 31
0.0
  0
LINE
  5
3F5
330
1F
100
AcDbEntity
  8
002
 62
     3
370
    30
100
AcDbLine
 10
2196.688899
 20
1419.160688
 30
0.0
 11
2199.286899
 21
1420.660688
 31
0.0
  0
ARC
  5
3F6
330
1F
100
AcDbEntity
  8
002
 62
     3
370
    30
100
AcDbCircle
 10
2197.554899
 20
1416.327688
 30
0.0
 40
4.666910112698273
100
AcDbArc
 50
351.783086
 51
68.212271
  0
ARC
  5
3F7
330
1F
100
AcDbEntity
  8
002
 62
     3
370
    30
100
AcDbCircle
 10
2198.096899
 20
1421.640688
 30
0.0
 40
1.541590088188572
100
AcDbArc
 50
320.52754
 51
50.52754
  0
ARC
  5
3F8
330
1F
100
AcDbEntity
  8
002
 62
     3
370
    30
100
AcDbCircle
 10
2207.085899
 20
1421.830688
 30
0.0
 40
1.000232472977658
100
AcDbArc
 50
341.402022
 51
78.577679
  0
LINE
  5
3F9
330
1F
100
AcDbEntity
  8
002
 62
     3
370
    30
100
AcDbLine
 10
2082.787899
 20
1548.160688
 30
0.0
 11
2082.787899
 21
1558.160688
 31
0.0
  0
LINE
  5
3FA
330
1F
100
AcDbEntity
  8
002
 62
     3
370
    30
100
AcDbLine
 10
2082.787899
 20
1558.160688
 30
0.0
 11
1852.787899
 21
1558.160688
 31
0.0
  0
LINE
  5
3FB
330
1F
100
AcDbEntity
  8
002
 62
     3
370
    30
100
AcDbLine
 10
1852.787899
 20
1558.160688
 30
0.0
 11
1852.787899
 21
1548.160688
 31
0.0
  0
LINE
  5
3FC
330
1F
100
AcDbEntity
  8
002
 62
     3
370
    30
100
AcDbLine
 10
1885.187899
 20
1748.160688
 30
0.0
 11
1885.187899
 21
1558.160688
 31
0.0
  0
LINE
  5
3FD
330
1F
100
AcDbEntity
  8
002
 62
     3
370
    30
100
AcDbLine
 10
2050.387899
 20
1748.160688
 30
0.0
 11
2050.387899
 21
1558.160688
 31
0.0
  0
LINE
  5
3FE
330
1F
100
AcDbEntity
  8
002
 62
     3
370
    30
100
AcDbLine
 10
2046.498899
 20
1558.160688
 30
0.0
 11
2046.498899
 21
1568.160688
 31
0.0
  0
LINE
  5
3FF
330
1F
100
AcDbEntity
  8
002
 62
     3
370
    30
100
AcDbLine
 10
2030.498899
 20
1568.160688
 30
0.0
 11
2030.498899
 21
1558.160688
 31
0.0
  0
LINE
  5
400
330
1F
100
AcDbEntity
  8
002
 62
     3
370
    30
100
AcDbLine
 10
2030.498899
 20
1568.160688
 30
0.0
 11
2046.498899
 21
1568.160688
 31
0.0
  0
LINE
  5
401
330
1F
100
AcDbEntity
  8
002
 62
     3
370
    30
100
AcDbLine
 10
1889.076899
 20
1568.160688
 30
0.0
 11
1889.076899
 21
1558.160688
 31
0.0
  0
LINE
  5
402
330
1F
100
AcDbEntity
  8
002
 62
     3
370
    30
100
AcDbLine
 10
1889.076899
 20
1568.160688
 30
0.0
 11
1905.076899
 21
1568.160688
 31
0.0
  0
LINE
  5
403
330
1F
100
AcDbEntity
  8
002
 62
     3
370
    30
100
AcDbLine
 10
1905.076899
 20
1568.160688
 30
0.0
 11
1905.076899
 21
1558.160688
 31
0.0
  0
LINE
  5
404
330
1F
100
AcDbEntity
  8
002
 62
    40
370
    30
100
AcDbLine
 10
2199.512899
 20
1411.510688
 30
0.0
 11
2198.638899
 21
1411.744688
 31
0.0
  0
LINE
  5
405
330
1F
100
AcDbEntity
  8
002
 62
    40
370
    30
100
AcDbLine
 10
2194.127899
 20
1419.557688
 30
0.0
 11
2194.362899
 21
1420.432688
 31
0.0
  0
LINE
  5
406
330
1F
100
AcDbEntity
  8
002
  6
CENTER
 62
    40
370
     9
100
AcDbLine
 10
2122.787899
 20
1471.471688
 30
0.0
 11
2122.787899
 21
1276.919688
 31
0.0
  0
LINE
  5
407
330
1F
100
AcDbEntity
  8
002
  6
CENTER
 62
    40
370
     9
100
AcDbLine
 10
1897.076899
 20
1574.303688
 30
0.0
 11
1897.076899
 21
1548.160688
 31
0.0
  0
LINE
  5
408
330
1F
100
AcDbEntity
  8
002
  6
CENTER
 62
    40
370
     9
100
AcDbLine
 10
2038.498899
 20
1548.160688
 30
0.0
 11
2038.498899
 21
1574.303688
 31
0.0
  0
LINE
  5
409
330
1F
100
AcDbEntity
  8
002
  6
CENTER
 62
    40
370
     9
100
AcDbLine
 10
2148.898899
 20
1464.079688
 30
0.0
 11
2148.898899
 21
1530.176688
 31
0.0
  0
LINE
  5
40A
330
1F
100
AcDbEntity
  8
002
  6
CENTER
 62
    40
370
     9
100
AcDbLine
 10
2100.370899
 20
1530.176688
 30
0.0
 11
2100.370899
 21
1464.079688
 31
0.0
  0
LINE
  5
40B
330
1F
100
AcDbEntity
  8
002
  6
CENTER
 62
    40
370
     9
100
AcDbLine
 10
2016.316899
 20
1464.079688
 30
0.0
 11
2016.316899
 21
1530.176688
 31
0.0
  0
LINE
  5
40C
330
1F
100
AcDbEntity
  8
002
  6
CENTER
 62
    40
370
     9
100
AcDbLine
 10
1919.258899
 20
1530.176688
 30
0.0
 11
1919.258899
 21
1464.079688
 31
0.0
  0
LINE
  5
40D
330
1F
100
AcDbEntity
  8
002
  6
CENTER
 62
    40
370
     9
100
AcDbLine
 10
1835.205899
 20
1464.079688
 30
0.0
 11
1835.205899
 21
1530.176688
 31
0.0
  0
LINE
  5
40E
330
1F
100
AcDbEntity
  8
002
  6
CENTER
 62
    40
370
     9
100
AcDbLine
 10
1786.676899
 20
1530.176688
 30
0.0
 11
1786.676899
 21
1464.079688
 31
0.0
  0
LINE
  5
40F
330
1F
100
AcDbEntity
  8
002
  6
CENTER
 62
    40
370
     9
100
AcDbLine
 10
1767.787899
 20
1219.612688
 30
0.0
 11
1767.787899
 21
1279.201688
 31
0.0
  0
LINE
  5
410
330
1F
100
AcDbEntity
  8
002
  6
DASHED
 62
    40
370
     9
100
AcDbLine
 10
1726.787899
 20
1267.160688
 30
0.0
 11
1726.787899
 21
1268.160688
 31
0.0
  0
LINE
  5
411
330
1F
100
AcDbEntity
  8
002
  6
DASHED
 62
    40
370
     9
100
AcDbLine
 10
1808.787899
 20
1267.160688
 30
0.0
 11
1808.787899
 21
1268.160688
 31
0.0
  0
LINE
  5
412
330
1F
100
AcDbEntity
  8
002
  6
CENTER
 62
    40
370
     9
100
AcDbLine
 10
2262.787899
 20
1219.612688
 30
0.0
 11
2262.787899
 21
1279.201688
 31
0.0
  0
LINE
  5
413
330
1F
100
AcDbEntity
  8
002
  6
DASHED
 62
    40
370
     9
100
AcDbLine
 10
2221.787899
 20
1267.160688
 30
0.0
 11
2221.787899
 21
1268.160688
 31
0.0
  0
LINE
  5
414
330
1F
100
AcDbEntity
  8
002
  6
DASHED
 62
    40
370
     9
100
AcDbLine
 10
2303.787899
 20
1267.160688
 30
0.0
 11
2303.787899
 21
1268.160688
 31
0.0
  0
CIRCLE
  5
415
330
1F
100
AcDbEntity
  8
002
 62
    40
370
     9
100
AcDbCircle
 10
1967.787899
 20
1373.160688
 30
0.0
 40
22.64125
  0
LINE
  5
416
330
1F
100
AcDbEntity
  8
002
  6
CENTER
 62
    40
370
     9
100
AcDbLine
 10
1913.740899
 20
1373.160688
 30
0.0
 11
2230.167899
 21
1373.160688
 31
0.0
  0
LINE
  5
417
330
1F
100
AcDbEntity
  8
002
  6
CENTER
 62
    40
370
     9
100
AcDbLine
 10
2192.718899
 20
1413.535688
 30
0.0
 11
2209.508899
 21
1423.229688
 31
0.0
  0
LINE
  5
418
330
1F
100
AcDbEntity
  8
002
  6
HIDDEN
 62
    40
370
     9
100
AcDbLine
 10
1808.787899
 20
1267.160688
 30
0.0
 11
1726.787899
 21
1267.160688
 31
0.0
  0
LINE
  5
419
330
1F
100
AcDbEntity
  8
002
  6
HIDDEN
 62
    40
370
     9
100
AcDbLine
 10
1745.287899
 20
1267.160688
 30
0.0
 11
1745.287899
 21
1233.160688
 31
0.0
  0
LINE
  5
41A
330
1F
100
AcDbEntity
  8
002
  6
HIDDEN
 62
    40
370
     9
100
AcDbLine
 10
1790.287899
 20
1267.160688
 30
0.0
 11
1790.287899
 21
1233.160688
 31
0.0
  0
LINE
  5
41B
330
1F
100
AcDbEntity
  8
002
  6
HIDDEN
 62
    40
370
     9
100
AcDbLine
 10
2240.287899
 20
1267.160688
 30
0.0
 11
2240.287899
 21
1233.160688
 31
0.0
  0
LINE
  5
41C
330
1F
100
AcDbEntity
  8
002
  6
HIDDEN
 62
    40
370
     9
100
AcDbLine
 10
2303.787899
 20
1267.160688
 30
0.0
 11
2221.787899
 21
1267.160688
 31
0.0
  0
LINE
  5
41D
330
1F
100
AcDbEntity
  8
002
  6
HIDDEN
 62
    40
370
     9
100
AcDbLine
 10
2285.287899
 20
1267.160688
 30
0.0
 11
2285.287899
 21
1233.160688
 31
0.0
  0
LINE
  5
41E
330
1F
100
AcDbEntity
  8
002
 62
     3
370
    30
100
AcDbLine
 10
2129.787899
 20
1390.160449
 30
0.0
 11
2115.787899
 21
1390.160449
 31
0.0
  0
LINE
  5
41F
330
1F
100
AcDbEntity
  8
002
 62
     3
370
    30
100
AcDbLine
 10
2129.787899
 20
1390.160449
 30
0.0
 11
2129.787899
 21
1399.160688
 31
0.0
  0
LINE
  5
420
330
1F
100
AcDbEntity
  8
002
 62
     3
370
    30
100
AcDbLine
 10
2115.787899
 20
1399.160688
 30
0.0
 11
2115.787899
 21
1390.160449
 31
0.0
  0
LINE
  5
421
330
1F
100
AcDbEntity
  8
002
 62
     3
370
    30
100
AcDbLine
 10
2115.787899
 20
1399.160688
 30
0.0
 11
2129.787899
 21
1399.160688
 31
0.0
  0
ARC
  5
422
330
1F
100
AcDbEntity
  8
002
 62
     3
370
    30
100
AcDbCircle
 10
2122.787899
 20
1373.160688
 30
0.0
 40
22.50072434389606
100
AcDbArc
 50
108.1256
 51
71.8744
  0
ARC
  5
423
330
1F
100
AcDbEntity
  8
002
 62
     3
370
    30
100
AcDbCircle
 10
2122.787899
 20
1373.160688
 30
0.0
 40
25.00065799134093
100
AcDbArc
 50
106.259765
 51
73.740235
  0
LINE
  5
424
330
1F
100
AcDbEntity
  8
001
 62
     3
370
    30
100
AcDbLine
 10
2050.387899
 20
1748.160688
 30
0.0
 11
1885.187899
 21
1748.160688
 31
0.0
  0
LINE
  5
425
330
1F
100
AcDbEntity
  8
001
 62
     3
370
    30
100
AcDbLine
 10
1900.287899
 20
1198.160688
 30
0.0
 11
2035.287899
 21
1198.160688
 31
0.0
  0
LINE
  5
426
330
1F
100
AcDbEntity
  8
001
 62
     3
370
    30
100
AcDbLine
 10
1887.787899
 20
1223.160688
 30
0.0
 11
2047.787899
 21
1223.160688
 31
0.0
  0
LINE
  5
427
330
1F
100
AcDbEntity
  8
001
 62
     3
370
    30
100
AcDbLine
 10
2047.787899
 20
1223.160688
 30
0.0
 11
2047.787899
 21
1233.160688
 31
0.0
  0
LINE
  5
428
330
1F
100
AcDbEntity
  8
001
 62
     3
370
    30
100
AcDbLine
 10
1887.787899
 20
1223.160688
 30
0.0
 11
1887.787899
 21
1233.160688
 31
0.0
  0
LINE
  5
429
330
1F
100
AcDbEntity
  8
001
 62
     3
370
    30
100
AcDbLine
 10
2035.287899
 20
1198.160688
 30
0.0
 11
2035.287899
 21
1223.160688
 31
0.0
  0
LINE
  5
42A
330
1F
100
AcDbEntity
  8
001
 62
     3
370
    30
100
AcDbLine
 10
1900.287899
 20
1198.160688
 30
0.0
 11
1900.287899
 21
1223.160688
 31
0.0
  0
LINE
  5
42B
330
1F
100
AcDbEntity
  8
001
 62
     3
370
    30
100
AcDbLine
 10
1865.787899
 20
828.934688
 30
0.0
 11
1862.787899
 21
828.934688
 31
0.0
  0
LINE
  5
42C
330
1F
100
AcDbEntity
  8
001
 62
     3
370
    30
100
AcDbLine
 10
1862.787899
 20
828.934688
 30
0.0
 11
1859.874899
 21
826.020688
 31
0.0
  0
LINE
  5
42D
330
1F
100
AcDbEntity
  8
001
 62
     3
370
    30
100
AcDbLine
 10
1859.311899
 20
825.458688
 30
0.0
 11
1859.311899
 21
820.863688
 31
0.0
  0
ARC
  5
42E
330
1F
100
AcDbEntity
  8
001
 62
     3
370
    30
100
AcDbCircle
 10
1859.167899
 20
819.593688
 30
0.0
 40
1.000001999998141
100
AcDbArc
 50
45.0
 51
122.005383
  0
LINE
  5
42F
330
1F
100
AcDbEntity
  8
001
 62
     3
370
    30
100
AcDbLine
 10
1858.637899
 20
820.441688
 30
0.0
 11
1857.787899
 21
819.910688
 31
0.0
  0
LINE
  5
430
330
1F
100
AcDbEntity
  8
001
 62
     3
370
    30
100
AcDbLine
 10
1857.787899
 20
819.910688
 30
0.0
 11
1854.787899
 21
820.660688
 31
0.0
  0
LINE
  5
431
330
1F
100
AcDbEntity
  8
001
 62
     3
370
    30
100
AcDbLine
 10
1854.787899
 20
820.660688
 30
0.0
 11
1854.787899
 21
825.660688
 31
0.0
  0
LINE
  5
432
330
1F
100
AcDbEntity
  8
001
 62
     3
370
    30
100
AcDbLine
 10
1854.787899
 20
825.660688
 30
0.0
 11
1857.787899
 21
826.410688
 31
0.0
  0
LINE
  5
433
330
1F
100
AcDbEntity
  8
001
 62
     3
370
    30
100
AcDbLine
 10
1857.787899
 20
826.410688
 30
0.0
 11
1858.637899
 21
825.880688
 31
0.0
  0
ARC
  5
434
330
1F
100
AcDbEntity
  8
001
 62
     3
370
    30
100
AcDbCircle
 10
1859.167899
 20
826.728688
 30
0.0
 40
1.000556345239961
100
AcDbArc
 50
237.994617
 51
314.959508
  0
LINE
  5
435
330
1F
100
AcDbEntity
  8
001
 62
     3
370
    30
100
AcDbLine
 10
1857.787899
 20
825.660688
 30
0.0
 11
1857.787899
 21
820.660688
 31
0.0
  0
LINE
  5
436
330
1F
100
AcDbEntity
  8
001
 62
     3
370
    30
100
AcDbLine
 10
1859.874899
 20
820.300688
 30
0.0
 11
1862.787899
 21
817.387688
 31
0.0
  0
LINE
  5
437
330
1F
100
AcDbEntity
  8
001
 62
     3
370
    30
100
AcDbLine
 10
1862.787899
 20
817.387688
 30
0.0
 11
1865.787899
 21
817.387688
 31
0.0
  0
LINE
  5
438
330
1F
100
AcDbEntity
  8
001
 62
     3
370
    30
100
AcDbLine
 10
1865.787899
 20
817.387688
 30
0.0
 11
1866.690899
 21
818.290688
 31
0.0
  0
ARC
  5
439
330
1F
100
AcDbEntity
  8
001
 62
     3
370
    30
100
AcDbCircle
 10
1865.247899
 20
818.830688
 30
0.0
 40
1.54166663063058
100
AcDbArc
 50
339.483127
 51
69.496153
  0
LINE
  5
43A
330
1F
100
AcDbEntity
  8
001
 62
     3
370
    30
100
AcDbLine
 10
1865.787899
 20
820.274688
 30
0.0
 11
1862.787899
 21
820.274688
 31
0.0
  0
ARC
  5
43B
330
1F
100
AcDbEntity
  8
001
 62
     3
370
    30
100
AcDbCircle
 10
1863.328899
 20
818.830688
 30
0.0
 40
1.540730021775364
100
AcDbArc
 50
110.53865
 51
200.516873
  0
ARC
  5
43C
330
1F
100
AcDbEntity
  8
001
 62
     3
370
    30
100
AcDbCircle
 10
1862.121899
 20
823.160688
 30
0.0
 40
4.666296711526233
100
AcDbArc
 50
321.788975
 51
38.220673
  0
LINE
  5
43D
330
1F
100
AcDbEntity
  8
001
 62
     3
370
    30
100
AcDbLine
 10
1865.787899
 20
826.047688
 30
0.0
 11
1862.787899
 21
826.047688
 31
0.0
  0
ARC
  5
43E
330
1F
100
AcDbEntity
  8
001
 62
     3
370
    30
100
AcDbCircle
 10
1866.454899
 20
823.160688
 30
0.0
 40
4.666463864640891
100
AcDbArc
 50
141.786922
 51
218.203431
  0
LINE
  5
43F
330
1F
100
AcDbEntity
  8
001
 62
     3
370
    30
100
AcDbLine
 10
1866.787899
 20
818.875688
 30
0.0
 11
1866.787899
 21
827.446688
 31
0.0
  0
LINE
  5
440
330
1F
100
AcDbEntity
  8
001
 62
     3
370
    30
100
AcDbLine
 10
1866.690899
 20
828.031688
 30
0.0
 11
1865.787899
 21
828.934688
 31
0.0
  0
LINE
  5
441
330
1F
100
AcDbEntity
  8
001
 62
     3
370
    30
100
AcDbLine
 10
1866.359899
 20
828.362688
 30
0.0
 11
1867.787899
 21
828.273688
 31
0.0
  0
ARC
  5
442
330
1F
100
AcDbEntity
  8
001
 62
     3
370
    30
100
AcDbCircle
 10
1865.247899
 20
827.491688
 30
0.0
 40
1.540730021775364
100
AcDbArc
 50
290.503847
 51
20.516873
  0
ARC
  5
443
330
1F
100
AcDbEntity
  8
001
 62
     3
370
    30
100
AcDbCircle
 10
1863.328899
 20
827.491688
 30
0.0
 40
1.542017185377588
100
AcDbArc
 50
159.483127
 51
249.46135
  0
ARC
  5
444
330
1F
100
AcDbEntity
  8
001
 62
     3
370
    30
100
AcDbCircle
 10
1855.449899
 20
823.160688
 30
0.0
 40
1.00037193083375
100
AcDbArc
 50
131.433771
 51
228.566229
  0
LINE
  5
445
330
1F
100
AcDbEntity
  8
001
 62
     3
370
    30
100
AcDbLine
 10
1866.359899
 20
817.959688
 30
0.0
 11
1867.787899
 21
818.048688
 31
0.0
  0
LINE
  5
446
330
1F
100
AcDbEntity
  8
001
 62
     3
370
    30
100
AcDbLine
 10
1867.807899
 20
818.650688
 30
0.0
 11
1867.166899
 21
818.009688
 31
0.0
  0
LINE
  5
447
330
1F
100
AcDbEntity
  8
001
 62
     3
370
    30
100
AcDbLine
 10
1867.807899
 20
827.671688
 30
0.0
 11
1867.166899
 21
828.311688
 31
0.0
  0
LINE
  5
448
330
1F
100
AcDbEntity
  8
001
  6
CENTER
 62
    40
370
     9
100
AcDbLine
 10
1852.642899
 20
823.160688
 30
0.0
 11
1871.670899
 21
823.160688
 31
0.0
  0
LINE
  5
449
330
1F
100
AcDbEntity
  8
001
 62
     3
370
    30
100
AcDbLine
 10
2017.787899
 20
253.160688
 30
0.0
 11
1917.787899
 21
253.160688
 31
0.0
  0
LINE
  5
44A
330
1F
100
AcDbEntity
  8
001
 62
     3
370
    30
100
AcDbLine
 10
2017.787899
 20
403.160688
 30
0.0
 11
2017.787899
 21
253.160688
 31
0.0
  0
LINE
  5
44B
330
1F
100
AcDbEntity
  8
001
 62
     3
370
    30
100
AcDbLine
 10
1917.787899
 20
403.160688
 30
0.0
 11
1917.787899
 21
253.160688
 31
0.0
  0
LINE
  5
44C
330
1F
100
AcDbEntity
  8
001
 62
     3
370
    30
100
AcDbLine
 10
1901.787899
 20
403.160688
 30
0.0
 11
2033.787899
 21
403.160688
 31
0.0
  0
LINE
  5
44D
330
1F
100
AcDbEntity
  8
001
 62
    40
370
     9
100
AcDbLine
 10
1910.287899
 20
1158.160688
 30
0.0
 11
1901.787899
 21
1172.88312
 31
0.0
  0
LINE
  5
44E
330
1F
100
AcDbEntity
  8
001
 62
    40
370
     9
100
AcDbLine
 10
2025.287899
 20
1158.160688
 30
0.0
 11
2033.787899
 21
1172.88312
 31
0.0
  0
LINE
  5
44F
330
1F
100
AcDbEntity
  8
001
 62
     3
370
    30
100
AcDbLine
 10
1775.287899
 20
673.160688
 30
0.0
 11
2160.287899
 21
673.160688
 31
0.0
  0
LINE
  5
450
330
1F
100
AcDbEntity
  8
001
 62
     3
370
    30
100
AcDbLine
 10
1775.287899
 20
673.160688
 30
0.0
 11
1775.287899
 21
733.160688
 31
0.0
  0
LINE
  5
451
330
1F
100
AcDbEntity
  8
001
 62
     3
370
    30
100
AcDbLine
 10
2160.287899
 20
733.160688
 30
0.0
 11
2160.287899
 21
673.160688
 31
0.0
  0
LINE
  5
452
330
1F
100
AcDbEntity
  8
001
 62
     3
370
    30
100
AcDbLine
 10
1775.287899
 20
733.160688
 30
0.0
 11
2160.287899
 21
733.160688
 31
0.0
  0
LINE
  5
453
330
1F
100
AcDbEntity
  8
001
 62
     3
370
    30
100
AcDbLine
 10
1867.787899
 20
743.160688
 30
0.0
 11
1867.787899
 21
913.160688
 31
0.0
  0
LINE
  5
454
330
1F
100
AcDbEntity
  8
001
 62
     3
370
    30
100
AcDbLine
 10
2067.787899
 20
743.160688
 30
0.0
 11
2067.787899
 21
913.160688
 31
0.0
  0
LINE
  5
455
330
1F
100
AcDbEntity
  8
001
 62
     3
370
    30
100
AcDbLine
 10
1867.787899
 20
913.160688
 30
0.0
 11
2067.787899
 21
913.160688
 31
0.0
  0
ARC
  5
456
330
1F
100
AcDbEntity
  8
001
 62
     3
370
    30
100
AcDbCircle
 10
2077.787899
 20
743.160688
 30
0.0
 40
10.0
100
AcDbArc
 50
180.0
 51
270.0
  0
ARC
  5
457
330
1F
100
AcDbEntity
  8
001
 62
     3
370
    30
100
AcDbCircle
 10
1857.787899
 20
743.160688
 30
0.0
 40
10.0
100
AcDbArc
 50
270.0
 51
0.0
  0
LINE
  5
458
330
1F
100
AcDbEntity
  8
001
 62
     3
370
    30
100
AcDbLine
 10
1901.787899
 20
673.160688
 30
0.0
 11
1901.787899
 21
403.160688
 31
0.0
  0
LINE
  5
459
330
1F
100
AcDbEntity
  8
001
 62
    40
370
     9
100
AcDbLine
 10
1910.287899
 20
673.160688
 30
0.0
 11
1910.287899
 21
403.160688
 31
0.0
  0
LINE
  5
45A
330
1F
100
AcDbEntity
  8
001
 62
    40
370
     9
100
AcDbLine
 10
2025.287899
 20
673.160688
 30
0.0
 11
2025.287899
 21
403.160688
 31
0.0
  0
LINE
  5
45B
330
1F
100
AcDbEntity
  8
001
 62
     3
370
    30
100
AcDbLine
 10
2033.787899
 20
673.160688
 30
0.0
 11
2033.787899
 21
403.160688
 31
0.0
  0
LINE
  5
45C
330
1F
100
AcDbEntity
  8
001
 62
     3
370
    30
100
AcDbLine
 10
2033.787899
 20
1158.160688
 30
0.0
 11
1901.787899
 21
1158.160688
 31
0.0
  0
ARC
  5
45D
330
1F
100
AcDbEntity
  8
002
 62
     3
370
    30
100
AcDbCircle
 10
609.645381
 20
3590.010606
 30
0.0
 40
7.000000000000005
100
AcDbArc
 50
0.0
 51
180.0
  0
LINE
  5
45E
330
1F
100
AcDbEntity
  8
002
 62
     3
370
    30
100
AcDbLine
 10
602.645381
 20
3590.010606
 30
0.0
 11
616.645381
 21
3590.010606
 31
0.0
  0
LINE
  5
45F
330
1F
100
AcDbEntity
  8
002
 62
     3
370
    30
100
AcDbLine
 10
616.645381
 20
3515.010606
 30
0.0
 11
616.645381
 21
3590.010606
 31
0.0
  0
LINE
  5
460
330
1F
100
AcDbEntity
  8
002
 62
     3
370
    30
100
AcDbLine
 10
602.645381
 20
3515.010606
 30
0.0
 11
602.645381
 21
3590.010606
 31
0.0
  0
ARC
  5
461
330
1F
100
AcDbEntity
  8
002
 62
     3
370
    30
100
AcDbCircle
 10
609.645381
 20
4040.010606
 30
0.0
 40
7.000000000000005
100
AcDbArc
 50
180.0
 51
0.0
  0
LINE
  5
462
330
1F
100
AcDbEntity
  8
002
 62
     3
370
    30
100
AcDbLine
 10
602.645381
 20
4040.010606
 30
0.0
 11
616.645381
 21
4040.010606
 31
0.0
  0
LINE
  5
463
330
1F
100
AcDbEntity
  8
002
 62
     3
370
    30
100
AcDbLine
 10
616.645381
 20
4115.010606
 30
0.0
 11
616.645381
 21
4040.010606
 31
0.0
  0
LINE
  5
464
330
1F
100
AcDbEntity
  8
002
 62
     3
370
    30
100
AcDbLine
 10
602.645381
 20
4115.010606
 30
0.0
 11
602.645381
 21
4040.010606
 31
0.0
  0
LINE
  5
465
330
1F
100
AcDbEntity
  8
002
 62
     3
370
    30
100
AcDbLine
 10
1009.645381
 20
685.896486
 30
0.0
 11
1009.645381
 21
675.896486
 31
0.0
  0
LINE
  5
466
330
1F
100
AcDbEntity
  8
002
 62
     3
370
    30
100
AcDbLine
 10
1009.645381
 20
675.896486
 30
0.0
 11
1004.822381
 21
657.896486
 31
0.0
  0
LINE
  5
467
330
1F
100
AcDbEntity
  8
002
 62
     3
370
    30
100
AcDbLine
 10
1000.562381
 20
657.896486
 30
0.0
 11
1033.562381
 21
657.896486
 31
0.0
  0
LINE
  5
468
330
1F
100
AcDbEntity
  8
002
 62
     3
370
    30
100
AcDbLine
 10
1033.562381
 20
657.896486
 30
0.0
 11
1033.562381
 21
635.896486
 31
0.0
  0
LINE
  5
469
330
1F
100
AcDbEntity
  8
002
 62
     3
370
    30
100
AcDbLine
 10
1033.562381
 20
637.896486
 30
0.0
 11
1084.616381
 21
637.896486
 31
0.0
  0
LINE
  5
46A
330
1F
100
AcDbEntity
  8
002
 62
     3
370
    30
100
AcDbLine
 10
1084.616381
 20
635.896486
 30
0.0
 11
1084.616381
 21
657.896486
 31
0.0
  0
LINE
  5
46B
330
1F
100
AcDbEntity
  8
002
 62
     3
370
    30
100
AcDbLine
 10
1084.616381
 20
657.896486
 30
0.0
 11
1117.616381
 21
657.896486
 31
0.0
  0
LINE
  5
46C
330
1F
100
AcDbEntity
  8
002
 62
     3
370
    30
100
AcDbLine
 10
1117.616381
 20
657.896486
 30
0.0
 11
1117.616381
 21
635.896486
 31
0.0
  0
LINE
  5
46D
330
1F
100
AcDbEntity
  8
002
 62
     3
370
    30
100
AcDbLine
 10
1117.616381
 20
637.896486
 30
0.0
 11
1181.673381
 21
637.896486
 31
0.0
  0
LINE
  5
46E
330
1F
100
AcDbEntity
  8
002
 62
     3
370
    30
100
AcDbLine
 10
1181.673381
 20
635.896486
 30
0.0
 11
1181.673381
 21
657.896486
 31
0.0
  0
LINE
  5
46F
330
1F
100
AcDbEntity
  8
002
 62
     3
370
    30
100
AcDbLine
 10
1181.673381
 20
657.896486
 30
0.0
 11
1214.673381
 21
657.896486
 31
0.0
  0
LINE
  5
470
330
1F
100
AcDbEntity
  8
002
 62
     3
370
    30
100
AcDbLine
 10
1214.673381
 20
657.896486
 30
0.0
 11
1214.673381
 21
635.896486
 31
0.0
  0
LINE
  5
471
330
1F
100
AcDbEntity
  8
002
 62
     3
370
    30
100
AcDbLine
 10
1214.673381
 20
637.896486
 30
0.0
 11
1265.727381
 21
637.896486
 31
0.0
  0
LINE
  5
472
330
1F
100
AcDbEntity
  8
002
 62
     3
370
    30
100
AcDbLine
 10
1265.727381
 20
635.896486
 30
0.0
 11
1265.727381
 21
657.896486
 31
0.0
  0
LINE
  5
473
330
1F
100
AcDbEntity
  8
002
 62
     3
370
    30
100
AcDbLine
 10
1265.727381
 20
657.896486
 30
0.0
 11
1298.727381
 21
657.896486
 31
0.0
  0
LINE
  5
474
330
1F
100
AcDbEntity
  8
002
 62
     3
370
    30
100
AcDbLine
 10
1294.468381
 20
657.896486
 30
0.0
 11
1289.645381
 21
675.896486
 31
0.0
  0
LINE
  5
475
330
1F
100
AcDbEntity
  8
002
 62
     3
370
    30
100
AcDbLine
 10
1289.645381
 20
675.896486
 30
0.0
 11
1289.645381
 21
685.896486
 31
0.0
  0
LINE
  5
476
330
1F
100
AcDbEntity
  8
002
 62
     3
370
    30
100
AcDbLine
 10
1298.727381
 20
657.896486
 30
0.0
 11
1298.727381
 21
635.896486
 31
0.0
  0
LINE
  5
477
330
1F
100
AcDbEntity
  8
002
 62
     3
370
    30
100
AcDbLine
 10
1298.727381
 20
637.896486
 30
0.0
 11
1312.145381
 21
637.896486
 31
0.0
  0
LINE
  5
478
330
1F
100
AcDbEntity
  8
002
 62
     3
370
    30
100
AcDbLine
 10
1312.145381
 20
637.896486
 30
0.0
 11
1312.145381
 21
635.896486
 31
0.0
  0
LINE
  5
479
330
1F
100
AcDbEntity
  8
002
 62
     3
370
    30
100
AcDbLine
 10
1314.256381
 20
635.896486
 30
0.0
 11
1314.256381
 21
657.896486
 31
0.0
  0
LINE
  5
47A
330
1F
100
AcDbEntity
  8
002
 62
     3
370
    30
100
AcDbLine
 10
1314.256381
 20
657.896486
 30
0.0
 11
1347.256381
 21
657.896486
 31
0.0
  0
LINE
  5
47B
330
1F
100
AcDbEntity
  8
002
 62
     3
370
    30
100
AcDbLine
 10
1347.256381
 20
657.896486
 30
0.0
 11
1347.256381
 21
635.896486
 31
0.0
  0
LINE
  5
47C
330
1F
100
AcDbEntity
  8
002
 62
     3
370
    30
100
AcDbLine
 10
1362.145381
 20
635.896486
 30
0.0
 11
1362.145381
 21
579.771486
 31
0.0
  0
ARC
  5
47D
330
1F
100
AcDbEntity
  8
002
 62
     3
370
    30
100
AcDbCircle
 10
1377.145381
 20
579.771486
 30
0.0
 40
14.9998395324751
100
AcDbArc
 50
180.0
 51
223.530507
  0
LINE
  5
47E
330
1F
100
AcDbEntity
  8
002
 62
     3
370
    30
100
AcDbLine
 10
1377.102381
 20
559.396486
 30
0.0
 11
1379.700381
 21
560.896486
 31
0.0
  0
LINE
  5
47F
330
1F
100
AcDbEntity
  8
002
 62
     3
370
    30
100
AcDbLine
 10
1379.700381
 20
560.896486
 30
0.0
 11
1383.680381
 21
559.830486
 31
0.0
  0
ARC
  5
480
330
1F
100
AcDbEntity
  8
002
 62
     3
370
    30
100
AcDbCircle
 10
1383.939381
 20
560.796486
 30
0.0
 40
1.00029445664738
100
AcDbArc
 50
254.991086
 51
331.974684
  0
LINE
  5
481
330
1F
100
AcDbEntity
  8
002
 62
     3
370
    30
100
AcDbLine
 10
1384.822381
 20
560.326486
 30
0.0
 11
1385.292381
 21
561.211486
 31
0.0
  0
LINE
  5
482
330
1F
100
AcDbEntity
  8
002
 62
     3
370
    30
100
AcDbLine
 10
1385.292381
 20
561.211486
 30
0.0
 11
1388.265381
 21
562.061486
 31
0.0
  0
LINE
  5
483
330
1F
100
AcDbEntity
  8
002
 62
     3
370
    30
100
AcDbLine
 10
1388.265381
 20
562.061486
 30
0.0
 11
1390.765381
 21
557.731486
 31
0.0
  0
LINE
  5
484
330
1F
100
AcDbEntity
  8
002
 62
     3
370
    30
100
AcDbLine
 10
1390.765381
 20
557.731486
 30
0.0
 11
1388.542381
 21
555.582486
 31
0.0
  0
LINE
  5
485
330
1F
100
AcDbEntity
  8
002
 62
     3
370
    30
100
AcDbLine
 10
1388.542381
 20
555.582486
 30
0.0
 11
1387.541381
 21
555.617486
 31
0.0
  0
ARC
  5
486
330
1F
100
AcDbEntity
  8
002
 62
     3
370
    30
100
AcDbCircle
 10
1387.506381
 20
554.617486
 30
0.0
 40
1.000118492979609
100
AcDbArc
 50
87.995466
 51
164.991086
  0
LINE
  5
487
330
1F
100
AcDbEntity
  8
002
 62
     3
370
    30
100
AcDbLine
 10
1386.540381
 20
554.876486
 30
0.0
 11
1385.474381
 21
550.896486
 31
0.0
  0
LINE
  5
488
330
1F
100
AcDbEntity
  8
002
 62
     3
370
    30
100
AcDbLine
 10
1385.474381
 20
550.896486
 30
0.0
 11
1382.876381
 21
549.396486
 31
0.0
  0
LINE
  5
489
330
1F
100
AcDbEntity
  8
002
 62
     3
370
    30
100
AcDbLine
 10
1382.876381
 20
549.396486
 30
0.0
 11
1381.642381
 21
549.727486
 31
0.0
  0
LINE
  5
48A
330
1F
100
AcDbEntity
  8
002
 62
     3
370
    30
100
AcDbLine
 10
1382.094381
 20
549.606486
 30
0.0
 11
1380.813381
 21
548.969486
 31
0.0
  0
LINE
  5
48B
330
1F
100
AcDbEntity
  8
002
 62
     3
370
    30
100
AcDbLine
 10
1381.266381
 20
550.185486
 30
0.0
 11
1376.980381
 21
557.608486
 31
0.0
  0
ARC
  5
48C
330
1F
100
AcDbEntity
  8
002
 62
     3
370
    30
100
AcDbCircle
 10
1378.292381
 20
558.417486
 30
0.0
 40
1.541898180814713
100
AcDbArc
 50
189.486771
 51
279.443995
  0
ARC
  5
48D
330
1F
100
AcDbEntity
  8
002
 62
     3
370
    30
100
AcDbCircle
 10
1383.164381
 20
556.230486
 30
0.0
 40
4.667266866164868
100
AcDbArc
 50
171.795237
 51
248.216827
  0
ARC
  5
48E
330
1F
100
AcDbEntity
  8
002
 62
     3
370
    30
100
AcDbCircle
 10
1382.622381
 20
550.917486
 30
0.0
 40
1.541590088188221
100
AcDbArc
 50
140.556242
 51
230.52754
  0
LINE
  5
48F
330
1F
100
AcDbEntity
  8
002
 62
     3
370
    30
100
AcDbLine
 10
1381.432381
 20
551.896486
 30
0.0
 11
1384.030381
 21
553.396486
 31
0.0
  0
ARC
  5
490
330
1F
100
AcDbEntity
  8
002
 62
     3
370
    30
100
AcDbCircle
 10
1379.411381
 20
554.063486
 30
0.0
 40
4.666709547422012
100
AcDbArc
 50
351.783086
 51
68.20087
  0
LINE
  5
491
330
1F
100
AcDbEntity
  8
002
 62
     3
370
    30
100
AcDbLine
 10
1381.144381
 20
558.396486
 30
0.0
 11
1378.545381
 21
556.896486
 31
0.0
  0
LINE
  5
492
330
1F
100
AcDbEntity
  8
002
 62
     3
370
    30
100
AcDbLine
 10
1376.772381
 20
558.163486
 30
0.0
 11
1377.102381
 21
559.396486
 31
0.0
  0
LINE
  5
493
330
1F
100
AcDbEntity
  8
002
 62
     3
370
    30
100
AcDbLine
 10
1376.893381
 20
558.615486
 30
0.0
 11
1375.701381
 21
557.824486
 31
0.0
  0
ARC
  5
494
330
1F
100
AcDbEntity
  8
002
 62
     3
370
    30
100
AcDbCircle
 10
1379.954381
 20
559.376486
 30
0.0
 40
1.540954574282012
100
AcDbArc
 50
320.52754
 51
50.556242
  0
LINE
  5
495
330
1F
100
AcDbEntity
  8
002
 62
     3
370
    30
100
AcDbLine
 10
1384.448381
 20
559.624486
 30
0.0
 11
1386.746381
 21
555.645486
 31
0.0
  0
LINE
  5
496
330
1F
100
AcDbEntity
  8
002
 62
     3
370
    30
100
AcDbLine
 10
1388.167381
 20
556.231486
 30
0.0
 11
1385.667381
 21
560.561486
 31
0.0
  0
ARC
  5
497
330
1F
100
AcDbEntity
  8
002
 62
     3
370
    30
100
AcDbCircle
 10
1388.942381
 20
559.566486
 30
0.0
 40
0.9998019803938861
100
AcDbArc
 50
341.402022
 51
78.577679
  0
ARC
  5
498
330
1F
100
AcDbEntity
  8
002
 62
     3
370
    30
100
AcDbCircle
 10
1384.284381
 20
551.876486
 30
0.0
 40
1.541076247302481
100
AcDbArc
 50
9.450097
 51
99.486771
  0
LINE
  5
499
330
1F
100
AcDbEntity
  8
002
 62
     3
370
    30
100
AcDbLine
 10
1388.353381
 20
525.656486
 30
0.0
 11
1407.285381
 21
418.292486
 31
0.0
  0
ARC
  5
49A
330
1F
100
AcDbEntity
  8
002
 62
     3
370
    30
100
AcDbCircle
 10
1422.057381
 20
420.896486
 30
0.0
 40
15.0
100
AcDbArc
 50
189.997359
 51
270.0
  0
LINE
  5
49B
330
1F
100
AcDbEntity
  8
002
 62
     3
370
    30
100
AcDbLine
 10
1389.645381
 20
420.896486
 30
0.0
 11
1389.645381
 21
510.896486
 31
0.0
  0
CIRCLE
  5
49C
330
1F
100
AcDbEntity
  8
002
 62
     3
370
    30
100
AcDbCircle
 10
1304.645381
 20
510.896486
 30
0.0
 40
85.0
  0
CIRCLE
  5
49D
330
1F
100
AcDbEntity
  8
002
 62
     3
370
    30
100
AcDbCircle
 10
1304.645381
 20
510.896486
 30
0.0
 40
52.5
  0
CIRCLE
  5
49E
330
1F
100
AcDbEntity
  8
002
 62
     3
370
    30
100
AcDbCircle
 10
1304.645381
 20
510.896486
 30
0.0
 40
39.0
  0
CIRCLE
  5
49F
330
1F
100
AcDbEntity
  8
002
 62
     3
370
    30
100
AcDbCircle
 10
1304.645381
 20
510.896486
 30
0.0
 40
36.0
  0
LINE
  5
4A0
330
1F
100
AcDbEntity
  8
002
 62
     3
370
    30
100
AcDbLine
 10
1362.145381
 20
605.896486
 30
0.0
 11
937.145381
 21
605.896486
 31
0.0
  0
ARC
  5
4A1
330
1F
100
AcDbEntity
  8
002
 62
     3
370
    30
100
AcDbCircle
 10
952.145381
 20
577.406486
 30
0.0
 40
14.99973146426291
100
AcDbArc
 50
180.0
 51
232.890219
  0
LINE
  5
4A2
330
1F
100
AcDbEntity
  8
002
 62
     3
370
    30
100
AcDbLine
 10
950.820381
 20
565.896486
 30
0.0
 11
1228.406381
 21
565.896486
 31
0.0
  0
ARC
  5
4A3
330
1F
100
AcDbEntity
  8
002
 62
     3
370
    30
100
AcDbCircle
 10
1228.406381
 20
560.896486
 30
0.0
 40
5.0
100
AcDbArc
 50
0.0
 51
90.0
  0
LINE
  5
4A4
330
1F
100
AcDbEntity
  8
002
 62
     3
370
    30
100
AcDbLine
 10
1226.441381
 20
555.848486
 30
0.0
 11
1192.988381
 21
555.848486
 31
0.0
  0
ARC
  5
4A5
330
1F
100
AcDbEntity
  8
002
 62
     3
370
    30
100
AcDbCircle
 10
1189.645381
 20
552.896486
 30
0.0
 40
5.0
100
AcDbArc
 50
90.0
 51
180.0
  0
LINE
  5
4A6
330
1F
100
AcDbEntity
  8
002
 62
     3
370
    30
100
AcDbLine
 10
1184.645381
 20
552.896486
 30
0.0
 11
1184.645381
 21
510.896486
 31
0.0
  0
CIRCLE
  5
4A7
330
1F
100
AcDbEntity
  8
002
 62
     3
370
    30
100
AcDbCircle
 10
1149.645381
 20
510.896486
 30
0.0
 40
24.12025
  0
LINE
  5
4A8
330
1F
100
AcDbEntity
  8
002
 62
     3
370
    30
100
AcDbLine
 10
1162.645381
 20
523.896486
 30
0.0
 11
1136.645381
 21
523.896486
 31
0.0
  0
LINE
  5
4A9
330
1F
100
AcDbEntity
  8
002
 62
     3
370
    30
100
AcDbLine
 10
1136.645381
 20
523.896486
 30
0.0
 11
1136.645381
 21
497.896486
 31
0.0
  0
LINE
  5
4AA
330
1F
100
AcDbEntity
  8
002
 62
     3
370
    30
100
AcDbLine
 10
1136.645381
 20
497.896486
 30
0.0
 11
1162.645381
 21
497.896486
 31
0.0
  0
LINE
  5
4AB
330
1F
100
AcDbEntity
  8
002
 62
     3
370
    30
100
AcDbLine
 10
1162.645381
 20
497.896486
 30
0.0
 11
1162.645381
 21
523.896486
 31
0.0
  0
ARC
  5
4AC
330
1F
100
AcDbEntity
  8
002
 62
     3
370
    30
100
AcDbCircle
 10
1149.645381
 20
510.896486
 30
0.0
 40
35.00000000000023
100
AcDbArc
 50
180.0
 51
0.0
  0
LINE
  5
4AD
330
1F
100
AcDbEntity
  8
002
 62
     3
370
    30
100
AcDbLine
 10
1219.645381
 20
510.896486
 30
0.0
 11
1219.645381
 21
420.896486
 31
0.0
  0
ARC
  5
4AE
330
1F
100
AcDbEntity
  8
002
 62
     3
370
    30
100
AcDbCircle
 10
1204.645381
 20
420.896486
 30
0.0
 40
15.0
100
AcDbArc
 50
270.0
 51
0.0
  0
ARC
  5
4AF
330
1F
100
AcDbEntity
  8
002
 62
     3
370
    30
100
AcDbCircle
 10
1404.645381
 20
420.896486
 30
0.0
 40
15.0
100
AcDbArc
 50
180.0
 51
270.0
  0
LINE
  5
4B0
330
1F
100
AcDbEntity
  8
002
 62
     3
370
    30
100
AcDbLine
 10
1489.645381
 20
405.896486
 30
0.0
 11
904.645381
 21
405.896486
 31
0.0
  0
LINE
  5
4B1
330
1F
100
AcDbEntity
  8
002
 62
     3
370
    30
100
AcDbLine
 10
899.645381
 20
370.896486
 30
0.0
 11
1494.645381
 21
370.896486
 31
0.0
  0
LINE
  5
4B2
330
1F
100
AcDbEntity
  8
002
 62
     3
370
    30
100
AcDbLine
 10
1494.645381
 20
370.896486
 30
0.0
 11
1494.645381
 21
400.896486
 31
0.0
  0
ARC
  5
4B3
330
1F
100
AcDbEntity
  8
002
 62
     3
370
    30
100
AcDbCircle
 10
1489.645381
 20
400.896486
 30
0.0
 40
5.0
100
AcDbArc
 50
0.0
 51
90.0
  0
LINE
  5
4B4
330
1F
100
AcDbEntity
  8
002
 62
     3
370
    30
100
AcDbLine
 10
1264.645381
 20
370.896486
 30
0.0
 11
1264.645381
 21
360.896486
 31
0.0
  0
LINE
  5
4B5
330
1F
100
AcDbEntity
  8
002
 62
     3
370
    30
100
AcDbLine
 10
1264.645381
 20
360.896486
 30
0.0
 11
1034.645381
 21
360.896486
 31
0.0
  0
LINE
  5
4B6
330
1F
100
AcDbEntity
  8
002
 62
     3
370
    30
100
AcDbLine
 10
1034.645381
 20
360.896486
 30
0.0
 11
1034.645381
 21
370.896486
 31
0.0
  0
LINE
  5
4B7
330
1F
100
AcDbEntity
  8
002
 62
     3
370
    30
100
AcDbLine
 10
1228.355381
 20
360.896486
 30
0.0
 11
1228.355381
 21
350.896486
 31
0.0
  0
LINE
  5
4B8
330
1F
100
AcDbEntity
  8
002
 62
     3
370
    30
100
AcDbLine
 10
1212.355381
 20
350.896486
 30
0.0
 11
1228.355381
 21
350.896486
 31
0.0
  0
LINE
  5
4B9
330
1F
100
AcDbEntity
  8
002
 62
     3
370
    30
100
AcDbLine
 10
1212.355381
 20
350.896486
 30
0.0
 11
1212.355381
 21
360.896486
 31
0.0
  0
LINE
  5
4BA
330
1F
100
AcDbEntity
  8
002
 62
     3
370
    30
100
AcDbLine
 10
1262.588381
 20
584.763486
 30
0.0
 11
1262.588381
 21
590.466486
 31
0.0
  0
ARC
  5
4BB
330
1F
100
AcDbEntity
  8
002
 62
     3
370
    30
100
AcDbCircle
 10
1304.645381
 20
510.896486
 30
0.0
 40
89.99997289444039
100
AcDbArc
 50
117.858847
 51
142.3301
  0
LINE
  5
4BC
330
1F
100
AcDbEntity
  8
002
 62
     3
370
    30
100
AcDbLine
 10
1000.562381
 20
657.896486
 30
0.0
 11
1000.562381
 21
635.896486
 31
0.0
  0
LINE
  5
4BD
330
1F
100
AcDbEntity
  8
002
 62
     3
370
    30
100
AcDbLine
 10
1000.562381
 20
637.896486
 30
0.0
 11
987.145381
 21
637.896486
 31
0.0
  0
LINE
  5
4BE
330
1F
100
AcDbEntity
  8
002
 62
     3
370
    30
100
AcDbLine
 10
987.145381
 20
637.896486
 30
0.0
 11
987.145381
 21
635.896486
 31
0.0
  0
ARC
  5
4BF
330
1F
100
AcDbEntity
  8
002
 62
     3
370
    30
100
AcDbCircle
 10
987.185381
 20
653.896486
 30
0.0
 40
15.99991915604573
100
AcDbArc
 50
270.0
 51
326.727077
  0
LINE
  5
4C0
330
1F
100
AcDbEntity
  8
002
 62
     3
370
    30
100
AcDbLine
 10
985.034381
 20
635.896486
 30
0.0
 11
985.034381
 21
657.896486
 31
0.0
  0
LINE
  5
4C1
330
1F
100
AcDbEntity
  8
002
 62
     3
370
    30
100
AcDbLine
 10
952.034381
 20
657.896486
 30
0.0
 11
985.034381
 21
657.896486
 31
0.0
  0
LINE
  5
4C2
330
1F
100
AcDbEntity
  8
002
 62
     3
370
    30
100
AcDbLine
 10
952.034381
 20
657.896486
 30
0.0
 11
952.034381
 21
635.896486
 31
0.0
  0
LINE
  5
4C3
330
1F
100
AcDbEntity
  8
002
 62
     3
370
    30
100
AcDbLine
 10
937.145381
 20
635.896486
 30
0.0
 11
937.145381
 21
577.406486
 31
0.0
  0
LINE
  5
4C4
330
1F
100
AcDbEntity
  8
002
 62
     3
370
    30
100
AcDbLine
 10
950.820381
 20
562.232486
 30
0.0
 11
980.413381
 21
554.303486
 31
0.0
  0
LINE
  5
4C5
330
1F
100
AcDbEntity
  8
002
 62
     3
370
    30
100
AcDbLine
 10
991.531381
 20
555.848486
 30
0.0
 11
1106.544381
 21
555.848486
 31
0.0
  0
LINE
  5
4C6
330
1F
100
AcDbEntity
  8
002
 62
     3
370
    30
100
AcDbLine
 10
1114.645381
 20
552.896486
 30
0.0
 11
1114.645381
 21
510.896486
 31
0.0
  0
ARC
  5
4C7
330
1F
100
AcDbEntity
  8
002
 62
     3
370
    30
100
AcDbCircle
 10
1109.645381
 20
552.896486
 30
0.0
 40
5.0
100
AcDbArc
 50
0.0
 51
90.0
  0
LINE
  5
4C8
330
1F
100
AcDbEntity
  8
002
 62
     3
370
    30
100
AcDbLine
 10
991.531381
 20
539.814486
 30
0.0
 11
991.531381
 21
420.896486
 31
0.0
  0
ARC
  5
4C9
330
1F
100
AcDbEntity
  8
002
 62
     3
370
    30
100
AcDbCircle
 10
976.531381
 20
420.896486
 30
0.0
 40
15.0
100
AcDbArc
 50
270.0
 51
0.0
  0
LINE
  5
4CA
330
1F
100
AcDbEntity
  8
002
 62
     3
370
    30
100
AcDbLine
 10
925.439381
 20
418.292486
 30
0.0
 11
948.818381
 21
550.876486
 31
0.0
  0
ARC
  5
4CB
330
1F
100
AcDbEntity
  8
002
 62
     3
370
    30
100
AcDbCircle
 10
934.046381
 20
553.481486
 30
0.0
 40
14.99992566648244
100
AcDbArc
 50
349.99888
 51
52.89557
  0
ARC
  5
4CC
330
1F
100
AcDbEntity
  8
002
 62
     3
370
    30
100
AcDbCircle
 10
976.531381
 20
539.814486
 30
0.0
 40
15.00003483329288
100
AcDbArc
 50
0.0
 51
75.001165
  0
LINE
  5
4CD
330
1F
100
AcDbEntity
  8
002
 62
     3
370
    30
100
AcDbLine
 10
937.145381
 20
635.896486
 30
0.0
 11
1362.145381
 21
635.896486
 31
0.0
  0
ARC
  5
4CE
330
1F
100
AcDbEntity
  8
002
 62
     3
370
    30
100
AcDbCircle
 10
1312.104381
 20
653.896486
 30
0.0
 40
16.0
100
AcDbArc
 50
213.272923
 51
270.0
  0
LINE
  5
4CF
330
1F
100
AcDbEntity
  8
002
 62
     3
370
    30
100
AcDbLine
 10
1086.934381
 20
350.896486
 30
0.0
 11
1086.934381
 21
360.896486
 31
0.0
  0
LINE
  5
4D0
330
1F
100
AcDbEntity
  8
002
 62
     3
370
    30
100
AcDbLine
 10
1070.934381
 20
350.896486
 30
0.0
 11
1086.934381
 21
350.896486
 31
0.0
  0
LINE
  5
4D1
330
1F
100
AcDbEntity
  8
002
 62
     3
370
    30
100
AcDbLine
 10
1070.934381
 20
350.896486
 30
0.0
 11
1070.934381
 21
360.896486
 31
0.0
  0
ARC
  5
4D2
330
1F
100
AcDbEntity
  8
002
 62
     3
370
    30
100
AcDbCircle
 10
910.667381
 20
420.896486
 30
0.0
 40
14.99975999807991
100
AcDbArc
 50
270.0
 51
350.002641
  0
LINE
  5
4D3
330
1F
100
AcDbEntity
  8
002
 62
    40
370
    30
100
AcDbLine
 10
1381.370381
 20
549.246486
 30
0.0
 11
1380.495381
 21
549.480486
 31
0.0
  0
LINE
  5
4D4
330
1F
100
AcDbEntity
  8
002
 62
    40
370
    30
100
AcDbLine
 10
1376.219381
 20
558.168486
 30
0.0
 11
1375.985381
 21
557.293486
 31
0.0
  0
LINE
  5
4D5
330
1F
100
AcDbEntity
  8
002
  6
CENTER
 62
    40
370
     9
100
AcDbLine
 10
1330.756381
 20
601.815486
 30
0.0
 11
1330.756381
 21
667.912486
 31
0.0
  0
LINE
  5
4D6
330
1F
100
AcDbEntity
  8
002
  6
CENTER
 62
    40
370
     9
100
AcDbLine
 10
1282.227381
 20
667.912486
 30
0.0
 11
1282.227381
 21
601.815486
 31
0.0
  0
LINE
  5
4D7
330
1F
100
AcDbEntity
  8
002
  6
CENTER
 62
    40
370
     9
100
AcDbLine
 10
1198.173381
 20
601.815486
 30
0.0
 11
1198.173381
 21
667.912486
 31
0.0
  0
LINE
  5
4D8
330
1F
100
AcDbEntity
  8
002
  6
CENTER
 62
    40
370
     9
100
AcDbLine
 10
1101.116381
 20
667.912486
 30
0.0
 11
1101.116381
 21
601.815486
 31
0.0
  0
LINE
  5
4D9
330
1F
100
AcDbEntity
  8
002
  6
CENTER
 62
    40
370
     9
100
AcDbLine
 10
1017.062381
 20
601.815486
 30
0.0
 11
1017.062381
 21
667.912486
 31
0.0
  0
LINE
  5
4DA
330
1F
100
AcDbEntity
  8
002
  6
CENTER
 62
    40
370
     9
100
AcDbLine
 10
968.534381
 20
667.912486
 30
0.0
 11
968.534381
 21
601.815486
 31
0.0
  0
LINE
  5
4DB
330
1F
100
AcDbEntity
  8
002
  6
CENTER
 62
    40
370
     9
100
AcDbLine
 10
1095.598381
 20
510.896486
 30
0.0
 11
1412.024381
 21
510.896486
 31
0.0
  0
CIRCLE
  5
4DC
330
1F
100
AcDbEntity
  8
002
 62
    40
370
     9
100
AcDbCircle
 10
1149.645381
 20
510.896486
 30
0.0
 40
22.64125
  0
LINE
  5
4DD
330
1F
100
AcDbEntity
  8
002
  6
CENTER
 62
    40
370
     9
100
AcDbLine
 10
1374.576381
 20
551.271486
 30
0.0
 11
1391.366381
 21
560.965486
 31
0.0
  0
LINE
  5
4DE
330
1F
100
AcDbEntity
  8
002
  6
CENTER
 62
    40
370
     9
100
AcDbLine
 10
1304.645381
 20
609.207486
 30
0.0
 11
1304.645381
 21
414.655486
 31
0.0
  0
LINE
  5
4DF
330
1F
100
AcDbEntity
  8
002
  6
DASHED
 62
    40
370
     9
100
AcDbLine
 10
1485.645381
 20
404.896486
 30
0.0
 11
1485.645381
 21
405.896486
 31
0.0
  0
LINE
  5
4E0
330
1F
100
AcDbEntity
  8
002
  6
DASHED
 62
    40
370
     9
100
AcDbLine
 10
1403.645381
 20
405.896486
 30
0.0
 11
1403.645381
 21
404.896486
 31
0.0
  0
LINE
  5
4E1
330
1F
100
AcDbEntity
  8
002
  6
CENTER
 62
    40
370
     9
100
AcDbLine
 10
1444.645381
 20
357.348486
 30
0.0
 11
1444.645381
 21
416.937486
 31
0.0
  0
LINE
  5
4E2
330
1F
100
AcDbEntity
  8
002
  6
CENTER
 62
    40
370
     9
100
AcDbLine
 10
949.645381
 20
357.348486
 30
0.0
 11
949.645381
 21
416.937486
 31
0.0
  0
LINE
  5
4E3
330
1F
100
AcDbEntity
  8
002
  6
DASHED
 62
    40
370
     9
100
AcDbLine
 10
990.645381
 20
404.896486
 30
0.0
 11
990.645381
 21
405.896486
 31
0.0
  0
LINE
  5
4E4
330
1F
100
AcDbEntity
  8
002
  6
CENTER
 62
    40
370
     9
100
AcDbLine
 10
1078.934381
 20
370.896486
 30
0.0
 11
1078.934381
 21
344.754486
 31
0.0
  0
LINE
  5
4E5
330
1F
100
AcDbEntity
  8
002
  6
CENTER
 62
    40
370
     9
100
AcDbLine
 10
1220.355381
 20
344.754486
 30
0.0
 11
1220.355381
 21
370.896486
 31
0.0
  0
LINE
  5
4E6
330
1F
100
AcDbEntity
  8
002
  6
HIDDEN
 62
    40
370
     9
100
AcDbLine
 10
908.645381
 20
404.896486
 30
0.0
 11
990.645381
 21
404.896486
 31
0.0
  0
LINE
  5
4E7
330
1F
100
AcDbEntity
  8
002
  6
HIDDEN
 62
    40
370
     9
100
AcDbLine
 10
927.145381
 20
404.896486
 30
0.0
 11
927.145381
 21
370.896486
 31
0.0
  0
LINE
  5
4E8
330
1F
100
AcDbEntity
  8
002
  6
HIDDEN
 62
    40
370
     9
100
AcDbLine
 10
972.145381
 20
404.896486
 30
0.0
 11
972.145381
 21
370.896486
 31
0.0
  0
LINE
  5
4E9
330
1F
100
AcDbEntity
  8
002
  6
HIDDEN
 62
    40
370
     9
100
AcDbLine
 10
1422.145381
 20
404.896486
 30
0.0
 11
1422.145381
 21
370.896486
 31
0.0
  0
LINE
  5
4EA
330
1F
100
AcDbEntity
  8
002
  6
HIDDEN
 62
    40
370
     9
100
AcDbLine
 10
1403.645381
 20
404.896486
 30
0.0
 11
1485.645381
 21
404.896486
 31
0.0
  0
LINE
  5
4EB
330
1F
100
AcDbEntity
  8
002
  6
HIDDEN
 62
    40
370
     9
100
AcDbLine
 10
1467.145381
 20
404.896486
 30
0.0
 11
1467.145381
 21
370.896486
 31
0.0
  0
ARC
  5
4EC
330
1F
100
AcDbEntity
  8
002
 62
     3
370
    30
100
AcDbCircle
 10
904.645381
 20
400.896486
 30
0.0
 40
5.0
100
AcDbArc
 50
90.0
 51
180.0
  0
LINE
  5
4ED
330
1F
100
AcDbEntity
  8
002
 62
     3
370
    30
100
AcDbLine
 10
899.645381
 20
400.896486
 30
0.0
 11
899.645381
 21
370.896486
 31
0.0
  0
LINE
  5
4EE
330
1F
100
AcDbEntity
  8
002
  6
DASHED
 62
    40
370
     9
100
AcDbLine
 10
908.645381
 20
405.896486
 30
0.0
 11
908.645381
 21
404.896486
 31
0.0
  0
LINE
  5
4EF
330
1F
100
AcDbEntity
  8
003
 62
     3
370
    30
100
AcDbLine
 10
1289.645381
 20
685.896486
 30
0.0
 11
1009.645381
 21
685.896486
 31
0.0
  0
LINE
  5
4F0
330
1F
100
AcDbEntity
  8
002
 62
     3
370
    30
100
AcDbLine
 10
1311.645381
 20
527.896247
 30
0.0
 11
1297.645381
 21
527.896247
 31
0.0
  0
LINE
  5
4F1
330
1F
100
AcDbEntity
  8
002
 62
     3
370
    30
100
AcDbLine
 10
1311.645381
 20
527.896247
 30
0.0
 11
1311.645381
 21
536.896486
 31
0.0
  0
LINE
  5
4F2
330
1F
100
AcDbEntity
  8
002
 62
     3
370
    30
100
AcDbLine
 10
1297.645381
 20
536.896486
 30
0.0
 11
1297.645381
 21
527.896247
 31
0.0
  0
LINE
  5
4F3
330
1F
100
AcDbEntity
  8
002
 62
     3
370
    30
100
AcDbLine
 10
1297.645381
 20
536.896486
 30
0.0
 11
1311.645381
 21
536.896486
 31
0.0
  0
ARC
  5
4F4
330
1F
100
AcDbEntity
  8
002
 62
     3
370
    30
100
AcDbCircle
 10
1304.645381
 20
510.896486
 30
0.0
 40
22.50072434389606
100
AcDbArc
 50
108.1256
 51
71.8744
  0
ARC
  5
4F5
330
1F
100
AcDbEntity
  8
002
 62
     3
370
    30
100
AcDbCircle
 10
1304.645381
 20
510.896486
 30
0.0
 40
25.00065799134093
100
AcDbArc
 50
106.259765
 51
73.740235
  0
LINE
  5
4F6
330
1F
100
AcDbEntity
  8
001
 62
     3
370
    30
100
AcDbLine
 10
1232.245381
 20
170.896486
 30
0.0
 11
1067.045381
 21
170.896486
 31
0.0
  0
LINE
  5
4F7
330
1F
100
AcDbEntity
  8
002
 62
     3
370
    30
100
AcDbLine
 10
1232.245381
 20
170.896486
 30
0.0
 11
1232.245381
 21
360.896486
 31
0.0
  0
LINE
  5
4F8
330
1F
100
AcDbEntity
  8
002
 62
     3
370
    30
100
AcDbLine
 10
1067.045381
 20
360.896486
 30
0.0
 11
1067.045381
 21
170.896486
 31
0.0
  0
LINE
  5
4F9
330
1F
100
AcDbEntity
  8
001
 62
     3
370
    30
100
AcDbLine
 10
1047.645381
 20
1155.122486
 30
0.0
 11
1044.645381
 21
1155.122486
 31
0.0
  0
LINE
  5
4FA
330
1F
100
AcDbEntity
  8
001
 62
     3
370
    30
100
AcDbLine
 10
1044.645381
 20
1155.122486
 30
0.0
 11
1041.732381
 21
1158.036486
 31
0.0
  0
LINE
  5
4FB
330
1F
100
AcDbEntity
  8
001
 62
     3
370
    30
100
AcDbLine
 10
1041.169381
 20
1158.598486
 30
0.0
 11
1041.169381
 21
1163.193486
 31
0.0
  0
ARC
  5
4FC
330
1F
100
AcDbEntity
  8
001
 62
     3
370
    30
100
AcDbCircle
 10
1041.025381
 20
1164.463486
 30
0.0
 40
1.000001999998141
100
AcDbArc
 50
237.994617
 51
315.0
  0
LINE
  5
4FD
330
1F
100
AcDbEntity
  8
001
 62
     3
370
    30
100
AcDbLine
 10
1040.495381
 20
1163.615486
 30
0.0
 11
1039.645381
 21
1164.146486
 31
0.0
  0
LINE
  5
4FE
330
1F
100
AcDbEntity
  8
001
 62
     3
370
    30
100
AcDbLine
 10
1039.645381
 20
1164.146486
 30
0.0
 11
1036.645381
 21
1163.396486
 31
0.0
  0
LINE
  5
4FF
330
1F
100
AcDbEntity
  8
001
 62
     3
370
    30
100
AcDbLine
 10
1036.645381
 20
1163.396486
 30
0.0
 11
1036.645381
 21
1158.396486
 31
0.0
  0
LINE
  5
500
330
1F
100
AcDbEntity
  8
001
 62
     3
370
    30
100
AcDbLine
 10
1036.645381
 20
1158.396486
 30
0.0
 11
1039.645381
 21
1157.646486
 31
0.0
  0
LINE
  5
501
330
1F
100
AcDbEntity
  8
001
 62
     3
370
    30
100
AcDbLine
 10
1039.645381
 20
1157.646486
 30
0.0
 11
1040.495381
 21
1158.176486
 31
0.0
  0
ARC
  5
502
330
1F
100
AcDbEntity
  8
001
 62
     3
370
    30
100
AcDbCircle
 10
1041.025381
 20
1157.328486
 30
0.0
 40
1.000556345239961
100
AcDbArc
 50
45.040492
 51
122.005383
  0
LINE
  5
503
330
1F
100
AcDbEntity
  8
001
 62
     3
370
    30
100
AcDbLine
 10
1039.645381
 20
1158.396486
 30
0.0
 11
1039.645381
 21
1163.396486
 31
0.0
  0
LINE
  5
504
330
1F
100
AcDbEntity
  8
001
 62
     3
370
    30
100
AcDbLine
 10
1041.732381
 20
1163.756486
 30
0.0
 11
1044.645381
 21
1166.669486
 31
0.0
  0
LINE
  5
505
330
1F
100
AcDbEntity
  8
001
 62
     3
370
    30
100
AcDbLine
 10
1044.645381
 20
1166.669486
 30
0.0
 11
1047.645381
 21
1166.669486
 31
0.0
  0
LINE
  5
506
330
1F
100
AcDbEntity
  8
001
 62
     3
370
    30
100
AcDbLine
 10
1047.645381
 20
1166.669486
 30
0.0
 11
1048.548381
 21
1165.766486
 31
0.0
  0
ARC
  5
507
330
1F
100
AcDbEntity
  8
001
 62
     3
370
    30
100
AcDbCircle
 10
1047.105381
 20
1165.226486
 30
0.0
 40
1.54166663063058
100
AcDbArc
 50
290.503847
 51
20.516873
  0
LINE
  5
508
330
1F
100
AcDbEntity
  8
001
 62
     3
370
    30
100
AcDbLine
 10
1047.645381
 20
1163.782486
 30
0.0
 11
1044.645381
 21
1163.782486
 31
0.0
  0
ARC
  5
509
330
1F
100
AcDbEntity
  8
001
 62
     3
370
    30
100
AcDbCircle
 10
1045.186381
 20
1165.226486
 30
0.0
 40
1.540730021775364
100
AcDbArc
 50
159.483127
 51
249.46135
  0
ARC
  5
50A
330
1F
100
AcDbEntity
  8
001
 62
     3
370
    30
100
AcDbCircle
 10
1043.979381
 20
1160.896486
 30
0.0
 40
4.666296711526233
100
AcDbArc
 50
321.779327
 51
38.211025
  0
LINE
  5
50B
330
1F
100
AcDbEntity
  8
001
 62
     3
370
    30
100
AcDbLine
 10
1047.645381
 20
1158.009486
 30
0.0
 11
1044.645381
 21
1158.009486
 31
0.0
  0
ARC
  5
50C
330
1F
100
AcDbEntity
  8
001
 62
     3
370
    30
100
AcDbCircle
 10
1048.312381
 20
1160.896486
 30
0.0
 40
4.666463864640891
100
AcDbArc
 50
141.796569
 51
218.213078
  0
LINE
  5
50D
330
1F
100
AcDbEntity
  8
001
 62
     3
370
    30
100
AcDbLine
 10
1048.645381
 20
1165.181486
 30
0.0
 11
1048.645381
 21
1156.610486
 31
0.0
  0
LINE
  5
50E
330
1F
100
AcDbEntity
  8
001
 62
     3
370
    30
100
AcDbLine
 10
1048.548381
 20
1156.025486
 30
0.0
 11
1047.645381
 21
1155.122486
 31
0.0
  0
LINE
  5
50F
330
1F
100
AcDbEntity
  8
001
 62
     3
370
    30
100
AcDbLine
 10
1048.217381
 20
1155.694486
 30
0.0
 11
1049.645381
 21
1155.783486
 31
0.0
  0
ARC
  5
510
330
1F
100
AcDbEntity
  8
001
 62
     3
370
    30
100
AcDbCircle
 10
1047.105381
 20
1156.565486
 30
0.0
 40
1.540730021775364
100
AcDbArc
 50
339.483127
 51
69.496153
  0
ARC
  5
511
330
1F
100
AcDbEntity
  8
001
 62
     3
370
    30
100
AcDbCircle
 10
1045.186381
 20
1156.565486
 30
0.0
 40
1.542017185377588
100
AcDbArc
 50
110.53865
 51
200.516873
  0
ARC
  5
512
330
1F
100
AcDbEntity
  8
001
 62
     3
370
    30
100
AcDbCircle
 10
1037.307381
 20
1160.896486
 30
0.0
 40
1.00037193083375
100
AcDbArc
 50
131.433771
 51
228.566229
  0
LINE
  5
513
330
1F
100
AcDbEntity
  8
001
 62
     3
370
    30
100
AcDbLine
 10
1048.217381
 20
1166.097486
 30
0.0
 11
1049.645381
 21
1166.008486
 31
0.0
  0
LINE
  5
514
330
1F
100
AcDbEntity
  8
001
 62
     3
370
    30
100
AcDbLine
 10
1049.665381
 20
1165.406486
 30
0.0
 11
1049.024381
 21
1166.047486
 31
0.0
  0
LINE
  5
515
330
1F
100
AcDbEntity
  8
001
 62
     3
370
    30
100
AcDbLine
 10
1049.665381
 20
1156.385486
 30
0.0
 11
1049.024381
 21
1155.745486
 31
0.0
  0
LINE
  5
516
330
1F
100
AcDbEntity
  8
001
  6
CENTER
 62
    40
370
     9
100
AcDbLine
 10
1034.500381
 20
1160.896486
 30
0.0
 11
1053.528381
 21
1160.896486
 31
0.0
  0
LINE
  5
517
330
1F
100
AcDbEntity
  8
001
 62
     3
370
    30
100
AcDbLine
 10
1199.645381
 20
1740.896486
 30
0.0
 11
1099.645381
 21
1740.896486
 31
0.0
  0
LINE
  5
518
330
1F
100
AcDbEntity
  8
001
 62
     3
370
    30
100
AcDbLine
 10
1199.645381
 20
1590.896486
 30
0.0
 11
1199.645381
 21
1740.896486
 31
0.0
  0
LINE
  5
519
330
1F
100
AcDbEntity
  8
001
 62
     3
370
    30
100
AcDbLine
 10
1099.645381
 20
1590.896486
 30
0.0
 11
1099.645381
 21
1740.896486
 31
0.0
  0
LINE
  5
51A
330
1F
100
AcDbEntity
  8
001
 62
     3
370
    30
100
AcDbLine
 10
1083.645381
 20
1590.896486
 30
0.0
 11
1215.645381
 21
1590.896486
 31
0.0
  0
LINE
  5
51B
330
1F
100
AcDbEntity
  8
001
 62
     3
370
    30
100
AcDbLine
 10
1215.645381
 20
725.896486
 30
0.0
 11
1083.645381
 21
725.896486
 31
0.0
  0
LINE
  5
51C
330
1F
100
AcDbEntity
  8
001
 62
    40
370
     9
100
AcDbLine
 10
1092.145381
 20
725.896486
 30
0.0
 11
1083.645381
 21
711.174054
 31
0.0
  0
LINE
  5
51D
330
1F
100
AcDbEntity
  8
001
 62
    40
370
     9
100
AcDbLine
 10
1207.145381
 20
725.896486
 30
0.0
 11
1215.645381
 21
711.174054
 31
0.0
  0
LINE
  5
51E
330
1F
100
AcDbEntity
  8
001
 62
     3
370
    30
100
AcDbLine
 10
957.145381
 20
1310.896486
 30
0.0
 11
1342.145381
 21
1310.896486
 31
0.0
  0
LINE
  5
51F
330
1F
100
AcDbEntity
  8
001
 62
     3
370
    30
100
AcDbLine
 10
957.145381
 20
1310.896486
 30
0.0
 11
957.145381
 21
1250.896486
 31
0.0
  0
LINE
  5
520
330
1F
100
AcDbEntity
  8
001
 62
     3
370
    30
100
AcDbLine
 10
1342.145381
 20
1250.896486
 30
0.0
 11
1342.145381
 21
1310.896486
 31
0.0
  0
LINE
  5
521
330
1F
100
AcDbEntity
  8
001
 62
     3
370
    30
100
AcDbLine
 10
957.145381
 20
1250.896486
 30
0.0
 11
1342.145381
 21
1250.896486
 31
0.0
  0
LINE
  5
522
330
1F
100
AcDbEntity
  8
001
 62
     3
370
    30
100
AcDbLine
 10
1049.645381
 20
1240.896486
 30
0.0
 11
1049.645381
 21
1070.896486
 31
0.0
  0
LINE
  5
523
330
1F
100
AcDbEntity
  8
001
 62
     3
370
    30
100
AcDbLine
 10
1249.645381
 20
1240.896486
 30
0.0
 11
1249.645381
 21
1070.896486
 31
0.0
  0
LINE
  5
524
330
1F
100
AcDbEntity
  8
001
 62
     3
370
    30
100
AcDbLine
 10
1049.645381
 20
1070.896486
 30
0.0
 11
1249.645381
 21
1070.896486
 31
0.0
  0
ARC
  5
525
330
1F
100
AcDbEntity
  8
001
 62
     3
370
    30
100
AcDbCircle
 10
1259.645381
 20
1240.896486
 30
0.0
 40
10.0
100
AcDbArc
 50
90.0
 51
180.0
  0
ARC
  5
526
330
1F
100
AcDbEntity
  8
001
 62
     3
370
    30
100
AcDbCircle
 10
1039.645381
 20
1240.896486
 30
0.0
 40
10.0
100
AcDbArc
 50
0.0
 51
90.0
  0
LINE
  5
527
330
1F
100
AcDbEntity
  8
001
 62
     3
370
    30
100
AcDbLine
 10
1083.645381
 20
1310.896486
 30
0.0
 11
1083.645381
 21
1590.896486
 31
0.0
  0
LINE
  5
528
330
1F
100
AcDbEntity
  8
001
 62
    40
370
     9
100
AcDbLine
 10
1092.145381
 20
1310.896486
 30
0.0
 11
1092.145381
 21
1590.896486
 31
0.0
  0
LINE
  5
529
330
1F
100
AcDbEntity
  8
001
 62
    40
370
     9
100
AcDbLine
 10
1207.145381
 20
1310.896486
 30
0.0
 11
1207.145381
 21
1590.896486
 31
0.0
  0
LINE
  5
52A
330
1F
100
AcDbEntity
  8
001
 62
     3
370
    30
100
AcDbLine
 10
1215.645381
 20
1310.896486
 30
0.0
 11
1215.645381
 21
1590.896486
 31
0.0
  0
LINE
  5
52B
330
1F
100
AcDbEntity
  8
002
 62
     3
370
    30
100
AcDbLine
 10
3057.787899
 20
1263.160688
 30
0.0
 11
3057.787899
 21
1233.160688
 31
0.0
  0
LINE
  5
52C
330
1F
100
AcDbEntity
  8
002
 62
     3
370
    30
100
AcDbLine
 10
3057.787899
 20
1233.160688
 30
0.0
 11
2462.787899
 21
1233.160688
 31
0.0
  0
LINE
  5
52D
330
1F
100
AcDbEntity
  8
002
 62
     3
370
    30
100
AcDbLine
 10
2462.787899
 20
1233.160688
 30
0.0
 11
2462.787899
 21
1263.160688
 31
0.0
  0
ARC
  5
52E
330
1F
100
AcDbEntity
  8
002
 62
     3
370
    30
100
AcDbCircle
 10
2467.787899
 20
1263.160688
 30
0.0
 40
5.0
100
AcDbArc
 50
90.0
 51
180.0
  0
LINE
  5
52F
330
1F
100
AcDbEntity
  8
002
 62
     3
370
    30
100
AcDbLine
 10
2467.787899
 20
1268.160688
 30
0.0
 11
3052.787899
 21
1268.160688
 31
0.0
  0
ARC
  5
530
330
1F
100
AcDbEntity
  8
002
 62
     3
370
    30
100
AcDbCircle
 10
3052.787899
 20
1263.160688
 30
0.0
 40
5.0
100
AcDbArc
 50
0.0
 51
90.0
  0
ARC
  5
531
330
1F
100
AcDbEntity
  8
002
 62
     3
370
    30
100
AcDbCircle
 10
2985.199899
 20
1283.160688
 30
0.0
 40
14.99975999807991
100
AcDbArc
 50
189.997359
 51
270.0
  0
LINE
  5
532
330
1F
100
AcDbEntity
  8
002
 62
     3
370
    30
100
AcDbLine
 10
2970.427899
 20
1280.556688
 30
0.0
 11
2951.496899
 21
1387.920688
 31
0.0
  0
LINE
  5
533
330
1F
100
AcDbEntity
  8
002
 62
     3
370
    30
100
AcDbLine
 10
2952.787899
 20
1373.160688
 30
0.0
 11
2952.787899
 21
1283.160688
 31
0.0
  0
ARC
  5
534
330
1F
100
AcDbEntity
  8
002
 62
     3
370
    30
100
AcDbCircle
 10
2967.787899
 20
1283.160688
 30
0.0
 40
15.0
100
AcDbArc
 50
180.0
 51
270.0
  0
CIRCLE
  5
535
330
1F
100
AcDbEntity
  8
002
 62
     3
370
    30
100
AcDbCircle
 10
2867.787899
 20
1373.160688
 30
0.0
 40
85.0
  0
LINE
  5
536
330
1F
100
AcDbEntity
  8
002
 62
     3
370
    30
100
AcDbLine
 10
2782.787899
 20
1373.160688
 30
0.0
 11
2782.787899
 21
1283.160688
 31
0.0
  0
ARC
  5
537
330
1F
100
AcDbEntity
  8
002
 62
     3
370
    30
100
AcDbCircle
 10
2767.787899
 20
1283.160688
 30
0.0
 40
15.0
100
AcDbArc
 50
270.0
 51
0.0
  0
LINE
  5
538
330
1F
100
AcDbEntity
  8
002
 62
     3
370
    30
100
AcDbLine
 10
2554.673899
 20
1283.160688
 30
0.0
 11
2554.673899
 21
1402.078688
 31
0.0
  0
LINE
  5
539
330
1F
100
AcDbEntity
  8
002
 62
     3
370
    30
100
AcDbLine
 10
2554.673899
 20
1418.112688
 30
0.0
 11
2669.686899
 21
1418.112688
 31
0.0
  0
ARC
  5
53A
330
1F
100
AcDbEntity
  8
002
 62
     3
370
    30
100
AcDbCircle
 10
2672.787899
 20
1415.160688
 30
0.0
 40
5.0
100
AcDbArc
 50
0.0
 51
90.0
  0
LINE
  5
53B
330
1F
100
AcDbEntity
  8
002
 62
     3
370
    30
100
AcDbLine
 10
2677.787899
 20
1415.160688
 30
0.0
 11
2677.787899
 21
1373.160688
 31
0.0
  0
CIRCLE
  5
53C
330
1F
100
AcDbEntity
  8
002
 62
     3
370
    30
100
AcDbCircle
 10
2712.787899
 20
1373.160688
 30
0.0
 40
24.12025
  0
LINE
  5
53D
330
1F
100
AcDbEntity
  8
002
 62
     3
370
    30
100
AcDbLine
 10
2699.787899
 20
1386.160688
 30
0.0
 11
2725.787899
 21
1386.160688
 31
0.0
  0
LINE
  5
53E
330
1F
100
AcDbEntity
  8
002
 62
     3
370
    30
100
AcDbLine
 10
2725.787899
 20
1386.160688
 30
0.0
 11
2725.787899
 21
1360.160688
 31
0.0
  0
LINE
  5
53F
330
1F
100
AcDbEntity
  8
002
 62
     3
370
    30
100
AcDbLine
 10
2725.787899
 20
1360.160688
 30
0.0
 11
2699.787899
 21
1360.160688
 31
0.0
  0
LINE
  5
540
330
1F
100
AcDbEntity
  8
002
 62
     3
370
    30
100
AcDbLine
 10
2699.787899
 20
1360.160688
 30
0.0
 11
2699.787899
 21
1386.160688
 31
0.0
  0
ARC
  5
541
330
1F
100
AcDbEntity
  8
002
 62
     3
370
    30
100
AcDbCircle
 10
2712.787899
 20
1373.160688
 30
0.0
 40
35.0
100
AcDbArc
 50
180.0
 51
0.0
  0
LINE
  5
542
330
1F
100
AcDbEntity
  8
002
 62
     3
370
    30
100
AcDbLine
 10
2747.787899
 20
1373.160688
 30
0.0
 11
2747.787899
 21
1415.160688
 31
0.0
  0
ARC
  5
543
330
1F
100
AcDbEntity
  8
002
 62
     3
370
    30
100
AcDbCircle
 10
2752.787899
 20
1415.160688
 30
0.0
 40
5.0
100
AcDbArc
 50
90.0
 51
180.0
  0
LINE
  5
544
330
1F
100
AcDbEntity
  8
002
 62
     3
370
    30
100
AcDbLine
 10
2756.130899
 20
1418.112688
 30
0.0
 11
2789.584899
 21
1418.112688
 31
0.0
  0
ARC
  5
545
330
1F
100
AcDbEntity
  8
002
 62
     3
370
    30
100
AcDbCircle
 10
2791.548899
 20
1423.160688
 30
0.0
 40
5.0
100
AcDbArc
 50
0.0
 51
90.0
  0
ARC
  5
546
330
1F
100
AcDbEntity
  8
002
 62
     3
370
    30
100
AcDbCircle
 10
2867.787899
 20
1373.160688
 30
0.0
 40
90.00051130965844
100
AcDbArc
 50
117.858284
 51
142.3301
  0
LINE
  5
547
330
1F
100
AcDbEntity
  8
002
 62
     3
370
    30
100
AcDbLine
 10
2825.731899
 20
1452.730688
 30
0.0
 11
2825.731899
 21
1447.027688
 31
0.0
  0
LINE
  5
548
330
1F
100
AcDbEntity
  8
002
 62
     3
370
    30
100
AcDbLine
 10
2791.548899
 20
1428.160688
 30
0.0
 11
2513.962899
 21
1428.160688
 31
0.0
  0
LINE
  5
549
330
1F
100
AcDbEntity
  8
002
 62
     3
370
    30
100
AcDbLine
 10
2513.962899
 20
1424.496688
 30
0.0
 11
2543.555899
 21
1416.567688
 31
0.0
  0
ARC
  5
54A
330
1F
100
AcDbEntity
  8
002
 62
     3
370
    30
100
AcDbCircle
 10
2539.673899
 20
1402.078688
 30
0.0
 40
15.0
100
AcDbArc
 50
0.0
 51
75.001165
  0
LINE
  5
54B
330
1F
100
AcDbEntity
  8
002
 62
     3
370
    30
100
AcDbLine
 10
2511.960899
 20
1413.140688
 30
0.0
 11
2488.582899
 21
1280.556688
 31
0.0
  0
ARC
  5
54C
330
1F
100
AcDbEntity
  8
002
 62
     3
370
    30
100
AcDbCircle
 10
2473.810899
 20
1283.160688
 30
0.0
 40
15.0
100
AcDbArc
 50
270.0
 51
350.002641
  0
ARC
  5
54D
330
1F
100
AcDbEntity
  8
002
 62
     3
370
    30
100
AcDbCircle
 10
2539.673899
 20
1283.160688
 30
0.0
 40
15.0
100
AcDbArc
 50
270.0
 51
0.0
  0
ARC
  5
54E
330
1F
100
AcDbEntity
  8
002
 62
     3
370
    30
100
AcDbCircle
 10
2497.188899
 20
1415.745688
 30
0.0
 40
14.99993363318735
100
AcDbArc
 50
349.99888
 51
52.892524
  0
ARC
  5
54F
330
1F
100
AcDbEntity
  8
002
 62
     3
370
    30
100
AcDbCircle
 10
2515.287899
 20
1439.670688
 30
0.0
 40
15.0
100
AcDbArc
 50
180.0
 51
232.893265
  0
LINE
  5
550
330
1F
100
AcDbEntity
  8
002
 62
     3
370
    30
100
AcDbLine
 10
2500.287899
 20
1439.670688
 30
0.0
 11
2500.287899
 21
1498.160688
 31
0.0
  0
LINE
  5
551
330
1F
100
AcDbEntity
  8
002
 62
     3
370
    30
100
AcDbLine
 10
2500.287899
 20
1498.160688
 30
0.0
 11
2925.287899
 21
1498.160688
 31
0.0
  0
LINE
  5
552
330
1F
100
AcDbEntity
  8
002
 62
     3
370
    30
100
AcDbLine
 10
2925.287899
 20
1498.160688
 30
0.0
 11
2925.287899
 21
1442.035688
 31
0.0
  0
ARC
  5
553
330
1F
100
AcDbEntity
  8
002
 62
     3
370
    30
100
AcDbCircle
 10
2940.287899
 20
1442.035688
 30
0.0
 40
15.0
100
AcDbArc
 50
180.0
 51
223.530507
  0
CIRCLE
  5
554
330
1F
100
AcDbEntity
  8
002
 62
     3
370
    30
100
AcDbCircle
 10
2867.787899
 20
1373.160688
 30
0.0
 40
36.0
  0
CIRCLE
  5
555
330
1F
100
AcDbEntity
  8
002
 62
     3
370
    30
100
AcDbCircle
 10
2867.787899
 20
1373.160688
 30
0.0
 40
39.0
  0
CIRCLE
  5
556
330
1F
100
AcDbEntity
  8
002
 62
     3
370
    30
100
AcDbCircle
 10
2867.787899
 20
1373.160688
 30
0.0
 40
52.5
  0
LINE
  5
557
330
1F
100
AcDbEntity
  8
002
 62
     3
370
    30
100
AcDbLine
 10
2777.816899
 20
1498.160688
 30
0.0
 11
2777.816899
 21
1520.160688
 31
0.0
  0
LINE
  5
558
330
1F
100
AcDbEntity
  8
002
 62
     3
370
    30
100
AcDbLine
 10
2777.816899
 20
1520.160688
 30
0.0
 11
2744.816899
 21
1520.160688
 31
0.0
  0
LINE
  5
559
330
1F
100
AcDbEntity
  8
002
 62
     3
370
    30
100
AcDbLine
 10
2744.816899
 20
1520.160688
 30
0.0
 11
2744.816899
 21
1498.160688
 31
0.0
  0
LINE
  5
55A
330
1F
100
AcDbEntity
  8
002
 62
     3
370
    30
100
AcDbLine
 10
2744.816899
 20
1500.160688
 30
0.0
 11
2680.758899
 21
1500.160688
 31
0.0
  0
LINE
  5
55B
330
1F
100
AcDbEntity
  8
002
 62
     3
370
    30
100
AcDbLine
 10
2680.758899
 20
1498.160688
 30
0.0
 11
2680.758899
 21
1520.160688
 31
0.0
  0
LINE
  5
55C
330
1F
100
AcDbEntity
  8
002
 62
     3
370
    30
100
AcDbLine
 10
2680.758899
 20
1520.160688
 30
0.0
 11
2647.758899
 21
1520.160688
 31
0.0
  0
LINE
  5
55D
330
1F
100
AcDbEntity
  8
002
 62
     3
370
    30
100
AcDbLine
 10
2647.758899
 20
1520.160688
 30
0.0
 11
2647.758899
 21
1498.160688
 31
0.0
  0
LINE
  5
55E
330
1F
100
AcDbEntity
  8
002
 62
     3
370
    30
100
AcDbLine
 10
2647.758899
 20
1500.160688
 30
0.0
 11
2596.705899
 21
1500.160688
 31
0.0
  0
LINE
  5
55F
330
1F
100
AcDbEntity
  8
002
 62
     3
370
    30
100
AcDbLine
 10
2596.705899
 20
1498.160688
 30
0.0
 11
2596.705899
 21
1520.160688
 31
0.0
  0
LINE
  5
560
330
1F
100
AcDbEntity
  8
002
 62
     3
370
    30
100
AcDbLine
 10
2596.705899
 20
1520.160688
 30
0.0
 11
2563.705899
 21
1520.160688
 31
0.0
  0
LINE
  5
561
330
1F
100
AcDbEntity
  8
002
 62
     3
370
    30
100
AcDbLine
 10
2563.705899
 20
1520.160688
 30
0.0
 11
2563.705899
 21
1498.160688
 31
0.0
  0
LINE
  5
562
330
1F
100
AcDbEntity
  8
002
 62
     3
370
    30
100
AcDbLine
 10
2563.705899
 20
1500.160688
 30
0.0
 11
2550.287899
 21
1500.160688
 31
0.0
  0
LINE
  5
563
330
1F
100
AcDbEntity
  8
002
 62
     3
370
    30
100
AcDbLine
 10
2550.287899
 20
1500.160688
 30
0.0
 11
2550.287899
 21
1498.160688
 31
0.0
  0
LINE
  5
564
330
1F
100
AcDbEntity
  8
002
 62
     3
370
    30
100
AcDbLine
 10
2548.176899
 20
1498.160688
 30
0.0
 11
2548.176899
 21
1520.160688
 31
0.0
  0
LINE
  5
565
330
1F
100
AcDbEntity
  8
002
 62
     3
370
    30
100
AcDbLine
 10
2548.176899
 20
1520.160688
 30
0.0
 11
2515.176899
 21
1520.160688
 31
0.0
  0
LINE
  5
566
330
1F
100
AcDbEntity
  8
002
 62
     3
370
    30
100
AcDbLine
 10
2515.176899
 20
1520.160688
 30
0.0
 11
2515.176899
 21
1498.160688
 31
0.0
  0
LINE
  5
567
330
1F
100
AcDbEntity
  8
002
 62
     3
370
    30
100
AcDbLine
 10
2567.964899
 20
1520.160688
 30
0.0
 11
2572.787899
 21
1538.160688
 31
0.0
  0
LINE
  5
568
330
1F
100
AcDbEntity
  8
002
 62
     3
370
    30
100
AcDbLine
 10
2572.787899
 20
1538.160688
 30
0.0
 11
2572.787899
 21
1548.160688
 31
0.0
  0
LINE
  5
569
330
1F
100
AcDbEntity
  8
002
 62
     3
370
    30
100
AcDbLine
 10
2572.787899
 20
1548.160688
 30
0.0
 11
2852.787899
 21
1548.160688
 31
0.0
  0
LINE
  5
56A
330
1F
100
AcDbEntity
  8
002
 62
     3
370
    30
100
AcDbLine
 10
2852.787899
 20
1548.160688
 30
0.0
 11
2852.787899
 21
1538.160688
 31
0.0
  0
LINE
  5
56B
330
1F
100
AcDbEntity
  8
002
 62
     3
370
    30
100
AcDbLine
 10
2852.787899
 20
1538.160688
 30
0.0
 11
2857.610899
 21
1520.160688
 31
0.0
  0
LINE
  5
56C
330
1F
100
AcDbEntity
  8
002
 62
     3
370
    30
100
AcDbLine
 10
2861.870899
 20
1520.160688
 30
0.0
 11
2828.870899
 21
1520.160688
 31
0.0
  0
LINE
  5
56D
330
1F
100
AcDbEntity
  8
002
 62
     3
370
    30
100
AcDbLine
 10
2828.870899
 20
1520.160688
 30
0.0
 11
2828.870899
 21
1498.160688
 31
0.0
  0
LINE
  5
56E
330
1F
100
AcDbEntity
  8
002
 62
     3
370
    30
100
AcDbLine
 10
2828.870899
 20
1500.160688
 30
0.0
 11
2777.816899
 21
1500.160688
 31
0.0
  0
ARC
  5
56F
330
1F
100
AcDbEntity
  8
002
 62
     3
370
    30
100
AcDbCircle
 10
2550.328899
 20
1516.160688
 30
0.0
 40
16.0
100
AcDbArc
 50
270.0
 51
326.727077
  0
LINE
  5
570
330
1F
100
AcDbEntity
  8
002
 62
     3
370
    30
100
AcDbLine
 10
2500.287899
 20
1468.160688
 30
0.0
 11
2925.287899
 21
1468.160688
 31
0.0
  0
LINE
  5
571
330
1F
100
AcDbEntity
  8
002
 62
     3
370
    30
100
AcDbLine
 10
2910.398899
 20
1498.160688
 30
0.0
 11
2910.398899
 21
1520.160688
 31
0.0
  0
LINE
  5
572
330
1F
100
AcDbEntity
  8
002
 62
     3
370
    30
100
AcDbLine
 10
2910.398899
 20
1520.160688
 30
0.0
 11
2877.398899
 21
1520.160688
 31
0.0
  0
LINE
  5
573
330
1F
100
AcDbEntity
  8
002
 62
     3
370
    30
100
AcDbLine
 10
2877.398899
 20
1520.160688
 30
0.0
 11
2877.398899
 21
1498.160688
 31
0.0
  0
LINE
  5
574
330
1F
100
AcDbEntity
  8
002
 62
     3
370
    30
100
AcDbLine
 10
2875.287899
 20
1498.160688
 30
0.0
 11
2875.287899
 21
1500.160688
 31
0.0
  0
LINE
  5
575
330
1F
100
AcDbEntity
  8
002
 62
     3
370
    30
100
AcDbLine
 10
2875.287899
 20
1500.160688
 30
0.0
 11
2861.870899
 21
1500.160688
 31
0.0
  0
LINE
  5
576
330
1F
100
AcDbEntity
  8
002
 62
     3
370
    30
100
AcDbLine
 10
2861.870899
 20
1498.160688
 30
0.0
 11
2861.870899
 21
1520.160688
 31
0.0
  0
ARC
  5
577
330
1F
100
AcDbEntity
  8
002
 62
     3
370
    30
100
AcDbCircle
 10
2875.246899
 20
1516.160688
 30
0.0
 40
15.9990830987273
100
AcDbArc
 50
213.274888
 51
270.0
  0
LINE
  5
578
330
1F
100
AcDbEntity
  8
002
 62
     3
370
    30
100
AcDbLine
 10
2940.245899
 20
1421.660688
 30
0.0
 11
2942.843899
 21
1423.160688
 31
0.0
  0
LINE
  5
579
330
1F
100
AcDbEntity
  8
002
 62
     3
370
    30
100
AcDbLine
 10
2942.843899
 20
1423.160688
 30
0.0
 11
2946.823899
 21
1422.094688
 31
0.0
  0
LINE
  5
57A
330
1F
100
AcDbEntity
  8
002
 62
     3
370
    30
100
AcDbLine
 10
2947.591899
 20
1421.888688
 30
0.0
 11
2949.888899
 21
1417.909688
 31
0.0
  0
LINE
  5
57B
330
1F
100
AcDbEntity
  8
002
 62
     3
370
    30
100
AcDbLine
 10
2950.683899
 20
1417.881688
 30
0.0
 11
2951.684899
 21
1417.846688
 31
0.0
  0
LINE
  5
57C
330
1F
100
AcDbEntity
  8
002
 62
     3
370
    30
100
AcDbLine
 10
2951.684899
 20
1417.846688
 30
0.0
 11
2953.908899
 21
1419.995688
 31
0.0
  0
LINE
  5
57D
330
1F
100
AcDbEntity
  8
002
 62
     3
370
    30
100
AcDbLine
 10
2953.908899
 20
1419.995688
 30
0.0
 11
2951.408899
 21
1424.325688
 31
0.0
  0
LINE
  5
57E
330
1F
100
AcDbEntity
  8
002
 62
     3
370
    30
100
AcDbLine
 10
2951.408899
 20
1424.325688
 30
0.0
 11
2948.434899
 21
1423.475688
 31
0.0
  0
LINE
  5
57F
330
1F
100
AcDbEntity
  8
002
 62
     3
370
    30
100
AcDbLine
 10
2948.434899
 20
1423.475688
 30
0.0
 11
2947.964899
 21
1422.590688
 31
0.0
  0
ARC
  5
580
330
1F
100
AcDbEntity
  8
002
 62
     3
370
    30
100
AcDbCircle
 10
2947.081899
 20
1423.060688
 30
0.0
 40
0.999859990198477
100
AcDbArc
 50
255.046435
 51
331.974684
  0
LINE
  5
581
330
1F
100
AcDbEntity
  8
002
 62
     3
370
    30
100
AcDbLine
 10
2948.809899
 20
1422.825688
 30
0.0
 11
2951.309899
 21
1418.495688
 31
0.0
  0
ARC
  5
582
330
1F
100
AcDbEntity
  8
002
 62
     3
370
    30
100
AcDbCircle
 10
2950.648899
 20
1416.881688
 30
0.0
 40
1.000612312536705
100
AcDbArc
 50
87.995466
 51
164.976236
  0
LINE
  5
583
330
1F
100
AcDbEntity
  8
002
 62
     3
370
    30
100
AcDbLine
 10
2949.683899
 20
1417.140688
 30
0.0
 11
2948.616899
 21
1413.160688
 31
0.0
  0
LINE
  5
584
330
1F
100
AcDbEntity
  8
002
 62
     3
370
    30
100
AcDbLine
 10
2948.616899
 20
1413.160688
 30
0.0
 11
2946.018899
 21
1411.660688
 31
0.0
  0
LINE
  5
585
330
1F
100
AcDbEntity
  8
002
 62
     3
370
    30
100
AcDbLine
 10
2946.018899
 20
1411.660688
 30
0.0
 11
2944.785899
 21
1411.991688
 31
0.0
  0
ARC
  5
586
330
1F
100
AcDbEntity
  8
002
 62
     3
370
    30
100
AcDbCircle
 10
2945.765899
 20
1413.181688
 30
0.0
 40
1.540954574281516
100
AcDbArc
 50
140.556242
 51
230.52754
  0
LINE
  5
587
330
1F
100
AcDbEntity
  8
002
 62
     3
370
    30
100
AcDbLine
 10
2944.575899
 20
1414.160688
 30
0.0
 11
2947.173899
 21
1415.660688
 31
0.0
  0
ARC
  5
588
330
1F
100
AcDbEntity
  8
002
 62
     3
370
    30
100
AcDbCircle
 10
2947.426899
 20
1414.140688
 30
0.0
 40
1.541898180814526
100
AcDbArc
 50
9.443995
 51
99.450097
  0
ARC
  5
589
330
1F
100
AcDbEntity
  8
002
 62
     3
370
    30
100
AcDbCircle
 10
2946.307899
 20
1418.494688
 30
0.0
 40
4.666767296534662
100
AcDbArc
 50
171.795237
 51
248.216827
  0
ARC
  5
58A
330
1F
100
AcDbEntity
  8
002
 62
     3
370
    30
100
AcDbCircle
 10
2941.434899
 20
1420.681688
 30
0.0
 40
1.541076247302032
100
AcDbArc
 50
189.486771
 51
279.480647
  0
LINE
  5
58B
330
1F
100
AcDbEntity
  8
002
 62
     3
370
    30
100
AcDbLine
 10
2939.914899
 20
1420.427688
 30
0.0
 11
2940.245899
 21
1421.660688
 31
0.0
  0
LINE
  5
58C
330
1F
100
AcDbEntity
  8
002
 62
     3
370
    30
100
AcDbLine
 10
2940.035899
 20
1420.879688
 30
0.0
 11
2938.843899
 21
1420.088688
 31
0.0
  0
LINE
  5
58D
330
1F
100
AcDbEntity
  8
002
 62
     3
370
    30
100
AcDbLine
 10
2940.122899
 20
1419.872688
 30
0.0
 11
2944.408899
 21
1412.449688
 31
0.0
  0
LINE
  5
58E
330
1F
100
AcDbEntity
  8
002
 62
     3
370
    30
100
AcDbLine
 10
2945.236899
 20
1411.870688
 30
0.0
 11
2943.955899
 21
1411.233688
 31
0.0
  0
LINE
  5
58F
330
1F
100
AcDbEntity
  8
002
 62
     3
370
    30
100
AcDbLine
 10
2941.688899
 20
1419.160688
 30
0.0
 11
2944.286899
 21
1420.660688
 31
0.0
  0
ARC
  5
590
330
1F
100
AcDbEntity
  8
002
 62
     3
370
    30
100
AcDbCircle
 10
2942.554899
 20
1416.327688
 30
0.0
 40
4.666910112698273
100
AcDbArc
 50
351.783086
 51
68.212271
  0
ARC
  5
591
330
1F
100
AcDbEntity
  8
002
 62
     3
370
    30
100
AcDbCircle
 10
2943.096899
 20
1421.640688
 30
0.0
 40
1.541590088188572
100
AcDbArc
 50
320.52754
 51
50.52754
  0
ARC
  5
592
330
1F
100
AcDbEntity
  8
002
 62
     3
370
    30
100
AcDbCircle
 10
2952.085899
 20
1421.830688
 30
0.0
 40
1.000232472977658
100
AcDbArc
 50
341.402022
 51
78.577679
  0
LINE
  5
593
330
1F
100
AcDbEntity
  8
002
 62
     3
370
    30
100
AcDbLine
 10
2827.787899
 20
1548.160688
 30
0.0
 11
2827.787899
 21
1558.160688
 31
0.0
  0
LINE
  5
594
330
1F
100
AcDbEntity
  8
002
 62
     3
370
    30
100
AcDbLine
 10
2827.787899
 20
1558.160688
 30
0.0
 11
2597.787899
 21
1558.160688
 31
0.0
  0
LINE
  5
595
330
1F
100
AcDbEntity
  8
002
 62
     3
370
    30
100
AcDbLine
 10
2597.787899
 20
1558.160688
 30
0.0
 11
2597.787899
 21
1548.160688
 31
0.0
  0
LINE
  5
596
330
1F
100
AcDbEntity
  8
002
 62
     3
370
    30
100
AcDbLine
 10
2630.187899
 20
1748.160688
 30
0.0
 11
2630.187899
 21
1558.160688
 31
0.0
  0
LINE
  5
597
330
1F
100
AcDbEntity
  8
002
 62
     3
370
    30
100
AcDbLine
 10
2795.387899
 20
1748.160688
 30
0.0
 11
2795.387899
 21
1558.160688
 31
0.0
  0
LINE
  5
598
330
1F
100
AcDbEntity
  8
002
 62
     3
370
    30
100
AcDbLine
 10
2791.498899
 20
1558.160688
 30
0.0
 11
2791.498899
 21
1568.160688
 31
0.0
  0
LINE
  5
599
330
1F
100
AcDbEntity
  8
002
 62
     3
370
    30
100
AcDbLine
 10
2775.498899
 20
1568.160688
 30
0.0
 11
2775.498899
 21
1558.160688
 31
0.0
  0
LINE
  5
59A
330
1F
100
AcDbEntity
  8
002
 62
     3
370
    30
100
AcDbLine
 10
2775.498899
 20
1568.160688
 30
0.0
 11
2791.498899
 21
1568.160688
 31
0.0
  0
LINE
  5
59B
330
1F
100
AcDbEntity
  8
002
 62
     3
370
    30
100
AcDbLine
 10
2634.076899
 20
1568.160688
 30
0.0
 11
2634.076899
 21
1558.160688
 31
0.0
  0
LINE
  5
59C
330
1F
100
AcDbEntity
  8
002
 62
     3
370
    30
100
AcDbLine
 10
2634.076899
 20
1568.160688
 30
0.0
 11
2650.076899
 21
1568.160688
 31
0.0
  0
LINE
  5
59D
330
1F
100
AcDbEntity
  8
002
 62
     3
370
    30
100
AcDbLine
 10
2650.076899
 20
1568.160688
 30
0.0
 11
2650.076899
 21
1558.160688
 31
0.0
  0
LINE
  5
59E
330
1F
100
AcDbEntity
  8
002
 62
    40
370
    30
100
AcDbLine
 10
2944.512899
 20
1411.510688
 30
0.0
 11
2943.638899
 21
1411.744688
 31
0.0
  0
LINE
  5
59F
330
1F
100
AcDbEntity
  8
002
 62
    40
370
    30
100
AcDbLine
 10
2939.127899
 20
1419.557688
 30
0.0
 11
2939.362899
 21
1420.432688
 31
0.0
  0
LINE
  5
5A0
330
1F
100
AcDbEntity
  8
002
  6
CENTER
 62
    40
370
     9
100
AcDbLine
 10
2867.787899
 20
1471.471688
 30
0.0
 11
2867.787899
 21
1276.919688
 31
0.0
  0
LINE
  5
5A1
330
1F
100
AcDbEntity
  8
002
  6
CENTER
 62
    40
370
     9
100
AcDbLine
 10
2642.076899
 20
1574.303688
 30
0.0
 11
2642.076899
 21
1548.160688
 31
0.0
  0
LINE
  5
5A2
330
1F
100
AcDbEntity
  8
002
  6
CENTER
 62
    40
370
     9
100
AcDbLine
 10
2783.498899
 20
1548.160688
 30
0.0
 11
2783.498899
 21
1574.303688
 31
0.0
  0
LINE
  5
5A3
330
1F
100
AcDbEntity
  8
002
  6
CENTER
 62
    40
370
     9
100
AcDbLine
 10
2893.898899
 20
1464.079688
 30
0.0
 11
2893.898899
 21
1530.176688
 31
0.0
  0
LINE
  5
5A4
330
1F
100
AcDbEntity
  8
002
  6
CENTER
 62
    40
370
     9
100
AcDbLine
 10
2845.370899
 20
1530.176688
 30
0.0
 11
2845.370899
 21
1464.079688
 31
0.0
  0
LINE
  5
5A5
330
1F
100
AcDbEntity
  8
002
  6
CENTER
 62
    40
370
     9
100
AcDbLine
 10
2761.316899
 20
1464.079688
 30
0.0
 11
2761.316899
 21
1530.176688
 31
0.0
  0
LINE
  5
5A6
330
1F
100
AcDbEntity
  8
002
  6
CENTER
 62
    40
370
     9
100
AcDbLine
 10
2664.258899
 20
1530.176688
 30
0.0
 11
2664.258899
 21
1464.079688
 31
0.0
  0
LINE
  5
5A7
330
1F
100
AcDbEntity
  8
002
  6
CENTER
 62
    40
370
     9
100
AcDbLine
 10
2580.205899
 20
1464.079688
 30
0.0
 11
2580.205899
 21
1530.176688
 31
0.0
  0
LINE
  5
5A8
330
1F
100
AcDbEntity
  8
002
  6
CENTER
 62
    40
370
     9
100
AcDbLine
 10
2531.676899
 20
1530.176688
 30
0.0
 11
2531.676899
 21
1464.079688
 31
0.0
  0
LINE
  5
5A9
330
1F
100
AcDbEntity
  8
002
  6
CENTER
 62
    40
370
     9
100
AcDbLine
 10
2512.787899
 20
1219.612688
 30
0.0
 11
2512.787899
 21
1279.201688
 31
0.0
  0
LINE
  5
5AA
330
1F
100
AcDbEntity
  8
002
  6
DASHED
 62
    40
370
     9
100
AcDbLine
 10
2471.787899
 20
1267.160688
 30
0.0
 11
2471.787899
 21
1268.160688
 31
0.0
  0
LINE
  5
5AB
330
1F
100
AcDbEntity
  8
002
  6
DASHED
 62
    40
370
     9
100
AcDbLine
 10
2553.787899
 20
1267.160688
 30
0.0
 11
2553.787899
 21
1268.160688
 31
0.0
  0
LINE
  5
5AC
330
1F
100
AcDbEntity
  8
002
  6
CENTER
 62
    40
370
     9
100
AcDbLine
 10
3007.787899
 20
1219.612688
 30
0.0
 11
3007.787899
 21
1279.201688
 31
0.0
  0
LINE
  5
5AD
330
1F
100
AcDbEntity
  8
002
  6
DASHED
 62
    40
370
     9
100
AcDbLine
 10
2966.787899
 20
1267.160688
 30
0.0
 11
2966.787899
 21
1268.160688
 31
0.0
  0
LINE
  5
5AE
330
1F
100
AcDbEntity
  8
002
  6
DASHED
 62
    40
370
     9
100
AcDbLine
 10
3048.787899
 20
1267.160688
 30
0.0
 11
3048.787899
 21
1268.160688
 31
0.0
  0
CIRCLE
  5
5AF
330
1F
100
AcDbEntity
  8
002
 62
    40
370
     9
100
AcDbCircle
 10
2712.787899
 20
1373.160688
 30
0.0
 40
22.64125
  0
LINE
  5
5B0
330
1F
100
AcDbEntity
  8
002
  6
CENTER
 62
    40
370
     9
100
AcDbLine
 10
2658.740899
 20
1373.160688
 30
0.0
 11
2975.167899
 21
1373.160688
 31
0.0
  0
LINE
  5
5B1
330
1F
100
AcDbEntity
  8
002
  6
CENTER
 62
    40
370
     9
100
AcDbLine
 10
2937.718899
 20
1413.535688
 30
0.0
 11
2954.508899
 21
1423.229688
 31
0.0
  0
LINE
  5
5B2
330
1F
100
AcDbEntity
  8
002
  6
HIDDEN
 62
    40
370
     9
100
AcDbLine
 10
2553.787899
 20
1267.160688
 30
0.0
 11
2471.787899
 21
1267.160688
 31
0.0
  0
LINE
  5
5B3
330
1F
100
AcDbEntity
  8
002
  6
HIDDEN
 62
    40
370
     9
100
AcDbLine
 10
2490.287899
 20
1267.160688
 30
0.0
 11
2490.287899
 21
1233.160688
 31
0.0
  0
LINE
  5
5B4
330
1F
100
AcDbEntity
  8
002
  6
HIDDEN
 62
    40
370
     9
100
AcDbLine
 10
2535.287899
 20
1267.160688
 30
0.0
 11
2535.287899
 21
1233.160688
 31
0.0
  0
LINE
  5
5B5
330
1F
100
AcDbEntity
  8
002
  6
HIDDEN
 62
    40
370
     9
100
AcDbLine
 10
2985.287899
 20
1267.160688
 30
0.0
 11
2985.287899
 21
1233.160688
 31
0.0
  0
LINE
  5
5B6
330
1F
100
AcDbEntity
  8
002
  6
HIDDEN
 62
    40
370
     9
100
AcDbLine
 10
3048.787899
 20
1267.160688
 30
0.0
 11
2966.787899
 21
1267.160688
 31
0.0
  0
LINE
  5
5B7
330
1F
100
AcDbEntity
  8
002
  6
HIDDEN
 62
    40
370
     9
100
AcDbLine
 10
3030.287899
 20
1267.160688
 30
0.0
 11
3030.287899
 21
1233.160688
 31
0.0
  0
LINE
  5
5B8
330
1F
100
AcDbEntity
  8
002
 62
     3
370
    30
100
AcDbLine
 10
2874.787899
 20
1390.160449
 30
0.0
 11
2860.787899
 21
1390.160449
 31
0.0
  0
LINE
  5
5B9
330
1F
100
AcDbEntity
  8
002
 62
     3
370
    30
100
AcDbLine
 10
2874.787899
 20
1390.160449
 30
0.0
 11
2874.787899
 21
1399.160688
 31
0.0
  0
LINE
  5
5BA
330
1F
100
AcDbEntity
  8
002
 62
     3
370
    30
100
AcDbLine
 10
2860.787899
 20
1399.160688
 30
0.0
 11
2860.787899
 21
1390.160449
 31
0.0
  0
LINE
  5
5BB
330
1F
100
AcDbEntity
  8
002
 62
     3
370
    30
100
AcDbLine
 10
2860.787899
 20
1399.160688
 30
0.0
 11
2874.787899
 21
1399.160688
 31
0.0
  0
ARC
  5
5BC
330
1F
100
AcDbEntity
  8
002
 62
     3
370
    30
100
AcDbCircle
 10
2867.787899
 20
1373.160688
 30
0.0
 40
22.50072434389606
100
AcDbArc
 50
108.1256
 51
71.8744
  0
ARC
  5
5BD
330
1F
100
AcDbEntity
  8
002
 62
     3
370
    30
100
AcDbCircle
 10
2867.787899
 20
1373.160688
 30
0.0
 40
25.00065799134093
100
AcDbArc
 50
106.259765
 51
73.740235
  0
LINE
  5
5BE
330
1F
100
AcDbEntity
  8
001
 62
     3
370
    30
100
AcDbLine
 10
2795.387899
 20
1748.160688
 30
0.0
 11
2630.187899
 21
1748.160688
 31
0.0
  0
LINE
  5
5BF
330
1F
100
AcDbEntity
  8
001
 62
     3
370
    30
100
AcDbLine
 10
2645.287899
 20
1198.160688
 30
0.0
 11
2780.287899
 21
1198.160688
 31
0.0
  0
LINE
  5
5C0
330
1F
100
AcDbEntity
  8
001
 62
     3
370
    30
100
AcDbLine
 10
2632.787899
 20
1223.160688
 30
0.0
 11
2792.787899
 21
1223.160688
 31
0.0
  0
LINE
  5
5C1
330
1F
100
AcDbEntity
  8
001
 62
     3
370
    30
100
AcDbLine
 10
2792.787899
 20
1223.160688
 30
0.0
 11
2792.787899
 21
1233.160688
 31
0.0
  0
LINE
  5
5C2
330
1F
100
AcDbEntity
  8
001
 62
     3
370
    30
100
AcDbLine
 10
2632.787899
 20
1223.160688
 30
0.0
 11
2632.787899
 21
1233.160688
 31
0.0
  0
LINE
  5
5C3
330
1F
100
AcDbEntity
  8
001
 62
     3
370
    30
100
AcDbLine
 10
2780.287899
 20
1198.160688
 30
0.0
 11
2780.287899
 21
1223.160688
 31
0.0
  0
LINE
  5
5C4
330
1F
100
AcDbEntity
  8
001
 62
     3
370
    30
100
AcDbLine
 10
2645.287899
 20
1198.160688
 30
0.0
 11
2645.287899
 21
1223.160688
 31
0.0
  0
LINE
  5
5C5
330
1F
100
AcDbEntity
  8
001
 62
     3
370
    30
100
AcDbLine
 10
2610.787899
 20
757.386688
 30
0.0
 11
2607.787899
 21
757.386688
 31
0.0
  0
LINE
  5
5C6
330
1F
100
AcDbEntity
  8
001
 62
     3
370
    30
100
AcDbLine
 10
2607.787899
 20
757.386688
 30
0.0
 11
2604.874899
 21
760.300688
 31
0.0
  0
LINE
  5
5C7
330
1F
100
AcDbEntity
  8
001
 62
     3
370
    30
100
AcDbLine
 10
2604.311899
 20
760.862688
 30
0.0
 11
2604.311899
 21
765.457688
 31
0.0
  0
ARC
  5
5C8
330
1F
100
AcDbEntity
  8
001
 62
     3
370
    30
100
AcDbCircle
 10
2604.167899
 20
766.727688
 30
0.0
 40
1.000001999998141
100
AcDbArc
 50
237.994617
 51
315.0
  0
LINE
  5
5C9
330
1F
100
AcDbEntity
  8
001
 62
     3
370
    30
100
AcDbLine
 10
2603.637899
 20
765.879688
 30
0.0
 11
2602.787899
 21
766.410688
 31
0.0
  0
LINE
  5
5CA
330
1F
100
AcDbEntity
  8
001
 62
     3
370
    30
100
AcDbLine
 10
2602.787899
 20
766.410688
 30
0.0
 11
2599.787899
 21
765.660688
 31
0.0
  0
LINE
  5
5CB
330
1F
100
AcDbEntity
  8
001
 62
     3
370
    30
100
AcDbLine
 10
2599.787899
 20
765.660688
 30
0.0
 11
2599.787899
 21
760.660688
 31
0.0
  0
LINE
  5
5CC
330
1F
100
AcDbEntity
  8
001
 62
     3
370
    30
100
AcDbLine
 10
2599.787899
 20
760.660688
 30
0.0
 11
2602.787899
 21
759.910688
 31
0.0
  0
LINE
  5
5CD
330
1F
100
AcDbEntity
  8
001
 62
     3
370
    30
100
AcDbLine
 10
2602.787899
 20
759.910688
 30
0.0
 11
2603.637899
 21
760.440688
 31
0.0
  0
ARC
  5
5CE
330
1F
100
AcDbEntity
  8
001
 62
     3
370
    30
100
AcDbCircle
 10
2604.167899
 20
759.592688
 30
0.0
 40
1.000556345239961
100
AcDbArc
 50
45.040492
 51
122.005383
  0
LINE
  5
5CF
330
1F
100
AcDbEntity
  8
001
 62
     3
370
    30
100
AcDbLine
 10
2602.787899
 20
760.660688
 30
0.0
 11
2602.787899
 21
765.660688
 31
0.0
  0
LINE
  5
5D0
330
1F
100
AcDbEntity
  8
001
 62
     3
370
    30
100
AcDbLine
 10
2604.874899
 20
766.020688
 30
0.0
 11
2607.787899
 21
768.933688
 31
0.0
  0
LINE
  5
5D1
330
1F
100
AcDbEntity
  8
001
 62
     3
370
    30
100
AcDbLine
 10
2607.787899
 20
768.933688
 30
0.0
 11
2610.787899
 21
768.933688
 31
0.0
  0
LINE
  5
5D2
330
1F
100
AcDbEntity
  8
001
 62
     3
370
    30
100
AcDbLine
 10
2610.787899
 20
768.933688
 30
0.0
 11
2611.690899
 21
768.030688
 31
0.0
  0
ARC
  5
5D3
330
1F
100
AcDbEntity
  8
001
 62
     3
370
    30
100
AcDbCircle
 10
2610.247899
 20
767.490688
 30
0.0
 40
1.54166663063058
100
AcDbArc
 50
290.503847
 51
20.516873
  0
LINE
  5
5D4
330
1F
100
AcDbEntity
  8
001
 62
     3
370
    30
100
AcDbLine
 10
2610.787899
 20
766.046688
 30
0.0
 11
2607.787899
 21
766.046688
 31
0.0
  0
ARC
  5
5D5
330
1F
100
AcDbEntity
  8
001
 62
     3
370
    30
100
AcDbCircle
 10
2608.328899
 20
767.490688
 30
0.0
 40
1.540730021775364
100
AcDbArc
 50
159.483127
 51
249.46135
  0
ARC
  5
5D6
330
1F
100
AcDbEntity
  8
001
 62
     3
370
    30
100
AcDbCircle
 10
2607.121899
 20
763.160688
 30
0.0
 40
4.666296711526233
100
AcDbArc
 50
321.779327
 51
38.211025
  0
LINE
  5
5D7
330
1F
100
AcDbEntity
  8
001
 62
     3
370
    30
100
AcDbLine
 10
2610.787899
 20
760.273688
 30
0.0
 11
2607.787899
 21
760.273688
 31
0.0
  0
ARC
  5
5D8
330
1F
100
AcDbEntity
  8
001
 62
     3
370
    30
100
AcDbCircle
 10
2611.454899
 20
763.160688
 30
0.0
 40
4.666463864640891
100
AcDbArc
 50
141.796569
 51
218.213078
  0
LINE
  5
5D9
330
1F
100
AcDbEntity
  8
001
 62
     3
370
    30
100
AcDbLine
 10
2611.787899
 20
767.445688
 30
0.0
 11
2611.787899
 21
758.874688
 31
0.0
  0
LINE
  5
5DA
330
1F
100
AcDbEntity
  8
001
 62
     3
370
    30
100
AcDbLine
 10
2611.690899
 20
758.289688
 30
0.0
 11
2610.787899
 21
757.386688
 31
0.0
  0
LINE
  5
5DB
330
1F
100
AcDbEntity
  8
001
 62
     3
370
    30
100
AcDbLine
 10
2611.359899
 20
757.958688
 30
0.0
 11
2612.787899
 21
758.047688
 31
0.0
  0
ARC
  5
5DC
330
1F
100
AcDbEntity
  8
001
 62
     3
370
    30
100
AcDbCircle
 10
2610.247899
 20
758.829688
 30
0.0
 40
1.540730021775364
100
AcDbArc
 50
339.483127
 51
69.496153
  0
ARC
  5
5DD
330
1F
100
AcDbEntity
  8
001
 62
     3
370
    30
100
AcDbCircle
 10
2608.328899
 20
758.829688
 30
0.0
 40
1.542017185377588
100
AcDbArc
 50
110.53865
 51
200.516873
  0
ARC
  5
5DE
330
1F
100
AcDbEntity
  8
001
 62
     3
370
    30
100
AcDbCircle
 10
2600.449899
 20
763.160688
 30
0.0
 40
1.00037193083375
100
AcDbArc
 50
131.433771
 51
228.566229
  0
LINE
  5
5DF
330
1F
100
AcDbEntity
  8
001
 62
     3
370
    30
100
AcDbLine
 10
2611.359899
 20
768.361688
 30
0.0
 11
2612.787899
 21
768.272688
 31
0.0
  0
LINE
  5
5E0
330
1F
100
AcDbEntity
  8
001
 62
     3
370
    30
100
AcDbLine
 10
2612.807899
 20
767.670688
 30
0.0
 11
2612.166899
 21
768.311688
 31
0.0
  0
LINE
  5
5E1
330
1F
100
AcDbEntity
  8
001
 62
     3
370
    30
100
AcDbLine
 10
2612.807899
 20
758.649688
 30
0.0
 11
2612.166899
 21
758.009688
 31
0.0
  0
LINE
  5
5E2
330
1F
100
AcDbEntity
  8
001
  6
CENTER
 62
    40
370
     9
100
AcDbLine
 10
2597.642899
 20
763.160688
 30
0.0
 11
2616.670899
 21
763.160688
 31
0.0
  0
LINE
  5
5E3
330
1F
100
AcDbEntity
  8
001
 62
     3
370
    30
100
AcDbLine
 10
2762.787899
 20
253.160688
 30
0.0
 11
2662.787899
 21
253.160688
 31
0.0
  0
LINE
  5
5E4
330
1F
100
AcDbEntity
  8
001
 62
     3
370
    30
100
AcDbLine
 10
2762.787899
 20
403.160688
 30
0.0
 11
2762.787899
 21
253.160688
 31
0.0
  0
LINE
  5
5E5
330
1F
100
AcDbEntity
  8
001
 62
     3
370
    30
100
AcDbLine
 10
2662.787899
 20
403.160688
 30
0.0
 11
2662.787899
 21
253.160688
 31
0.0
  0
LINE
  5
5E6
330
1F
100
AcDbEntity
  8
001
 62
     3
370
    30
100
AcDbLine
 10
2646.787899
 20
403.160688
 30
0.0
 11
2778.787899
 21
403.160688
 31
0.0
  0
LINE
  5
5E7
330
1F
100
AcDbEntity
  8
001
 62
    40
370
     9
100
AcDbLine
 10
2655.287899
 20
1158.160688
 30
0.0
 11
2646.787899
 21
1172.88312
 31
0.0
  0
LINE
  5
5E8
330
1F
100
AcDbEntity
  8
001
 62
    40
370
     9
100
AcDbLine
 10
2770.287899
 20
1158.160688
 30
0.0
 11
2778.787899
 21
1172.88312
 31
0.0
  0
LINE
  5
5E9
330
1F
100
AcDbEntity
  8
001
 62
     3
370
    30
100
AcDbLine
 10
2520.287899
 20
913.160688
 30
0.0
 11
2905.287899
 21
913.160688
 31
0.0
  0
LINE
  5
5EA
330
1F
100
AcDbEntity
  8
001
 62
     3
370
    30
100
AcDbLine
 10
2520.287899
 20
913.160688
 30
0.0
 11
2520.287899
 21
853.160688
 31
0.0
  0
LINE
  5
5EB
330
1F
100
AcDbEntity
  8
001
 62
     3
370
    30
100
AcDbLine
 10
2905.287899
 20
853.160688
 30
0.0
 11
2905.287899
 21
913.160688
 31
0.0
  0
LINE
  5
5EC
330
1F
100
AcDbEntity
  8
001
 62
     3
370
    30
100
AcDbLine
 10
2520.287899
 20
853.160688
 30
0.0
 11
2905.287899
 21
853.160688
 31
0.0
  0
LINE
  5
5ED
330
1F
100
AcDbEntity
  8
001
 62
     3
370
    30
100
AcDbLine
 10
2612.787899
 20
843.160688
 30
0.0
 11
2612.787899
 21
673.160688
 31
0.0
  0
LINE
  5
5EE
330
1F
100
AcDbEntity
  8
001
 62
     3
370
    30
100
AcDbLine
 10
2812.787899
 20
843.160688
 30
0.0
 11
2812.787899
 21
673.160688
 31
0.0
  0
LINE
  5
5EF
330
1F
100
AcDbEntity
  8
001
 62
     3
370
    30
100
AcDbLine
 10
2612.787899
 20
673.160688
 30
0.0
 11
2812.787899
 21
673.160688
 31
0.0
  0
ARC
  5
5F0
330
1F
100
AcDbEntity
  8
001
 62
     3
370
    30
100
AcDbCircle
 10
2822.787899
 20
843.160688
 30
0.0
 40
10.0
100
AcDbArc
 50
90.0
 51
180.0
  0
ARC
  5
5F1
330
1F
100
AcDbEntity
  8
001
 62
     3
370
    30
100
AcDbCircle
 10
2602.787899
 20
843.160688
 30
0.0
 40
10.0
100
AcDbArc
 50
0.0
 51
90.0
  0
LINE
  5
5F2
330
1F
100
AcDbEntity
  8
001
 62
     3
370
    30
100
AcDbLine
 10
2646.787899
 20
673.160688
 30
0.0
 11
2646.787899
 21
403.160688
 31
0.0
  0
LINE
  5
5F3
330
1F
100
AcDbEntity
  8
001
 62
    40
370
     9
100
AcDbLine
 10
2655.287899
 20
673.160688
 30
0.0
 11
2655.287899
 21
403.160688
 31
0.0
  0
LINE
  5
5F4
330
1F
100
AcDbEntity
  8
001
 62
    40
370
     9
100
AcDbLine
 10
2770.287899
 20
673.160688
 30
0.0
 11
2770.287899
 21
403.160688
 31
0.0
  0
LINE
  5
5F5
330
1F
100
AcDbEntity
  8
001
 62
     3
370
    30
100
AcDbLine
 10
2778.787899
 20
673.160688
 30
0.0
 11
2778.787899
 21
403.160688
 31
0.0
  0
LINE
  5
5F6
330
1F
100
AcDbEntity
  8
001
 62
     3
370
    30
100
AcDbLine
 10
2778.787899
 20
1158.160688
 30
0.0
 11
2646.787899
 21
1158.160688
 31
0.0
  0
LINE
  5
5F7
330
1F
100
AcDbEntity
  8
002
  6
CENTER
 62
    40
370
     9
100
AcDbLine
 10
542.663381
 20
4025.010595
 30
0.0
 11
542.663381
 21
3997.010606
 31
0.0
  0
LINE
  5
5F8
330
1F
100
AcDbEntity
  8
002
  6
CENTER
 62
    40
370
     9
100
AcDbLine
 10
676.626381
 20
4025.010595
 30
0.0
 11
676.626381
 21
3997.010606
 31
0.0
  0
LINE
  5
5F9
330
1F
100
AcDbEntity
  8
002
  6
CENTER
 62
    40
370
     9
100
AcDbLine
 10
542.663381
 20
3605.010617
 30
0.0
 11
542.663381
 21
3633.010606
 31
0.0
  0
LINE
  5
5FA
330
1F
100
AcDbEntity
  8
002
  6
CENTER
 62
    40
370
     9
100
AcDbLine
 10
676.626381
 20
3605.010617
 30
0.0
 11
676.626381
 21
3633.010606
 31
0.0
  0
POLYLINE
  5
5FB
330
1F
100
AcDbEntity
  8
002
 62
     3
370
     9
100
AcDb2dPolyline
 66
     1
 10
0.0
 20
0.0
 30
0.0
  0
VERTEX
  5
5FD
330
5FB
100
AcDbEntity
  8
002
 62
     3
370
     9
100
AcDbVertex
100
AcDb2dVertex
 10
388.645381
 20
862.396486
 30
0.0
  0
VERTEX
  5
5FE
330
5FB
100
AcDbEntity
  8
002
 62
     3
370
     9
100
AcDbVertex
100
AcDb2dVertex
 10
395.245381
 20
857.660486
 30
0.0
  0
VERTEX
  5
5FF
330
5FB
100
AcDbEntity
  8
002
 62
     3
370
     9
100
AcDbVertex
100
AcDb2dVertex
 10
401.845381
 20
853.308486
 30
0.0
  0
VERTEX
  5
600
330
5FB
100
AcDbEntity
  8
002
 62
     3
370
     9
100
AcDbVertex
100
AcDb2dVertex
 10
408.445381
 20
849.724486
 30
0.0
  0
VERTEX
  5
601
330
5FB
100
AcDbEntity
  8
002
 62
     3
370
     9
100
AcDbVertex
100
AcDb2dVertex
 10
415.045381
 20
847.292486
 30
0.0
  0
VERTEX
  5
602
330
5FB
100
AcDbEntity
  8
002
 62
     3
370
     9
100
AcDbVertex
100
AcDb2dVertex
 10
421.645381
 20
846.396486
 30
0.0
  0
VERTEX
  5
603
330
5FB
100
AcDbEntity
  8
002
 62
     3
370
     9
100
AcDbVertex
100
AcDb2dVertex
 10
428.245381
 20
847.292486
 30
0.0
  0
VERTEX
  5
604
330
5FB
100
AcDbEntity
  8
002
 62
     3
370
     9
100
AcDbVertex
100
AcDb2dVertex
 10
434.845381
 20
849.724486
 30
0.0
  0
VERTEX
  5
605
330
5FB
100
AcDbEntity
  8
002
 62
     3
370
     9
100
AcDbVertex
100
AcDb2dVertex
 10
441.445381
 20
853.308486
 30
0.0
  0
VERTEX
  5
606
330
5FB
100
AcDbEntity
  8
002
 62
     3
370
     9
100
AcDbVertex
100
AcDb2dVertex
 10
448.045381
 20
857.660486
 30
0.0
  0
VERTEX
  5
607
330
5FB
100
AcDbEntity
  8
002
 62
     3
370
     9
100
AcDbVertex
100
AcDb2dVertex
 10
454.645381
 20
862.396486
 30
0.0
  0
VERTEX
  5
608
330
5FB
100
AcDbEntity
  8
002
 62
     3
370
     9
100
AcDbVertex
100
AcDb2dVertex
 10
461.245381
 20
867.132486
 30
0.0
  0
VERTEX
  5
609
330
5FB
100
AcDbEntity
  8
002
 62
     3
370
     9
100
AcDbVertex
100
AcDb2dVertex
 10
467.845381
 20
871.484486
 30
0.0
  0
VERTEX
  5
60A
330
5FB
100
AcDbEntity
  8
002
 62
     3
370
     9
100
AcDbVertex
100
AcDb2dVertex
 10
474.445381
 20
875.068486
 30
0.0
  0
VERTEX
  5
60B
330
5FB
100
AcDbEntity
  8
002
 62
     3
370
     9
100
AcDbVertex
100
AcDb2dVertex
 10
481.045381
 20
877.500486
 30
0.0
  0
VERTEX
  5
60C
330
5FB
100
AcDbEntity
  8
002
 62
     3
370
     9
100
AcDbVertex
100
AcDb2dVertex
 10
487.645381
 20
878.396486
 30
0.0
  0
VERTEX
  5
60D
330
5FB
100
AcDbEntity
  8
002
 62
     3
370
     9
100
AcDbVertex
100
AcDb2dVertex
 10
494.245381
 20
877.500486
 30
0.0
  0
VERTEX
  5
60E
330
5FB
100
AcDbEntity
  8
002
 62
     3
370
     9
100
AcDbVertex
100
AcDb2dVertex
 10
500.845381
 20
875.068486
 30
0.0
  0
VERTEX
  5
60F
330
5FB
100
AcDbEntity
  8
002
 62
     3
370
     9
100
AcDbVertex
100
AcDb2dVertex
 10
507.445381
 20
871.484486
 30
0.0
  0
VERTEX
  5
610
330
5FB
100
AcDbEntity
  8
002
 62
     3
370
     9
100
AcDbVertex
100
AcDb2dVertex
 10
514.045381
 20
867.132486
 30
0.0
  0
VERTEX
  5
611
330
5FB
100
AcDbEntity
  8
002
 62
     3
370
     9
100
AcDbVertex
100
AcDb2dVertex
 10
520.645381
 20
862.396486
 30
0.0
  0
SEQEND
  5
5FC
330
5FB
100
AcDbEntity
  8
002
370
     9
  0
POLYLINE
  5
612
330
1F
100
AcDbEntity
  8
002
 62
     3
370
     9
100
AcDb2dPolyline
 66
     1
 10
0.0
 20
0.0
 30
0.0
  0
VERTEX
  5
614
330
612
100
AcDbEntity
  8
002
 62
     3
370
     9
100
AcDbVertex
100
AcDb2dVertex
 10
388.645381
 20
894.396486
 30
0.0
  0
VERTEX
  5
615
330
612
100
AcDbEntity
  8
002
 62
     3
370
     9
100
AcDbVertex
100
AcDb2dVertex
 10
395.245381
 20
889.660486
 30
0.0
  0
VERTEX
  5
616
330
612
100
AcDbEntity
  8
002
 62
     3
370
     9
100
AcDbVertex
100
AcDb2dVertex
 10
401.845381
 20
885.308486
 30
0.0
  0
VERTEX
  5
617
330
612
100
AcDbEntity
  8
002
 62
     3
370
     9
100
AcDbVertex
100
AcDb2dVertex
 10
408.445381
 20
881.724486
 30
0.0
  0
VERTEX
  5
618
330
612
100
AcDbEntity
  8
002
 62
     3
370
     9
100
AcDbVertex
100
AcDb2dVertex
 10
415.045381
 20
879.292486
 30
0.0
  0
VERTEX
  5
619
330
612
100
AcDbEntity
  8
002
 62
     3
370
     9
100
AcDbVertex
100
AcDb2dVertex
 10
421.645381
 20
878.396486
 30
0.0
  0
VERTEX
  5
61A
330
612
100
AcDbEntity
  8
002
 62
     3
370
     9
100
AcDbVertex
100
AcDb2dVertex
 10
428.245381
 20
879.292486
 30
0.0
  0
VERTEX
  5
61B
330
612
100
AcDbEntity
  8
002
 62
     3
370
     9
100
AcDbVertex
100
AcDb2dVertex
 10
434.845381
 20
881.724486
 30
0.0
  0
VERTEX
  5
61C
330
612
100
AcDbEntity
  8
002
 62
     3
370
     9
100
AcDbVertex
100
AcDb2dVertex
 10
441.445381
 20
885.308486
 30
0.0
  0
VERTEX
  5
61D
330
612
100
AcDbEntity
  8
002
 62
     3
370
     9
100
AcDbVertex
100
AcDb2dVertex
 10
448.045381
 20
889.660486
 30
0.0
  0
VERTEX
  5
61E
330
612
100
AcDbEntity
  8
002
 62
     3
370
     9
100
AcDbVertex
100
AcDb2dVertex
 10
454.645381
 20
894.396486
 30
0.0
  0
VERTEX
  5
61F
330
612
100
AcDbEntity
  8
002
 62
     3
370
     9
100
AcDbVertex
100
AcDb2dVertex
 10
461.245381
 20
899.132486
 30
0.0
  0
VERTEX
  5
620
330
612
100
AcDbEntity
  8
002
 62
     3
370
     9
100
AcDbVertex
100
AcDb2dVertex
 10
467.845381
 20
903.484486
 30
0.0
  0
VERTEX
  5
621
330
612
100
AcDbEntity
  8
002
 62
     3
370
     9
100
AcDbVertex
100
AcDb2dVertex
 10
474.445381
 20
907.068486
 30
0.0
  0
VERTEX
  5
622
330
612
100
AcDbEntity
  8
002
 62
     3
370
     9
100
AcDbVertex
100
AcDb2dVertex
 10
481.045381
 20
909.500486
 30
0.0
  0
VERTEX
  5
623
330
612
100
AcDbEntity
  8
002
 62
     3
370
     9
100
AcDbVertex
100
AcDb2dVertex
 10
487.645381
 20
910.396486
 30
0.0
  0
VERTEX
  5
624
330
612
100
AcDbEntity
  8
002
 62
     3
370
     9
100
AcDbVertex
100
AcDb2dVertex
 10
494.245381
 20
909.500486
 30
0.0
  0
VERTEX
  5
625
330
612
100
AcDbEntity
  8
002
 62
     3
370
     9
100
AcDbVertex
100
AcDb2dVertex
 10
500.845381
 20
907.068486
 30
0.0
  0
VERTEX
  5
626
330
612
100
AcDbEntity
  8
002
 62
     3
370
     9
100
AcDbVertex
100
AcDb2dVertex
 10
507.445381
 20
903.484486
 30
0.0
  0
VERTEX
  5
627
330
612
100
AcDbEntity
  8
002
 62
     3
370
     9
100
AcDbVertex
100
AcDb2dVertex
 10
514.045381
 20
899.132486
 30
0.0
  0
VERTEX
  5
628
330
612
100
AcDbEntity
  8
002
 62
     3
370
     9
100
AcDbVertex
100
AcDb2dVertex
 10
520.645381
 20
894.396486
 30
0.0
  0
SEQEND
  5
613
330
612
100
AcDbEntity
  8
002
370
     9
  0
LINE
  5
629
330
1F
100
AcDbEntity
  8
001
 62
    40
370
     9
100
AcDbLine
 10
512.145381
 20
1070.896486
 30
0.0
 11
512.145381
 21
900.441593
 31
0.0
  0
LINE
  5
62A
330
1F
100
AcDbEntity
  8
001
 62
    40
370
     9
100
AcDbLine
 10
512.145381
 20
868.441593
 30
0.0
 11
512.145381
 21
725.896486
 31
0.0
  0
LINE
  5
62B
330
1F
100
AcDbEntity
  8
001
 62
    40
370
     9
100
AcDbLine
 10
397.145381
 20
1070.896486
 30
0.0
 11
397.145381
 21
888.351379
 31
0.0
  0
LINE
  5
62C
330
1F
100
AcDbEntity
  8
001
 62
    40
370
     9
100
AcDbLine
 10
397.145381
 20
856.351379
 30
0.0
 11
397.145381
 21
725.896486
 31
0.0
  0
LINE
  5
62D
330
1F
100
AcDbEntity
  8
001
 62
     3
370
    30
100
AcDbLine
 10
520.645381
 20
1070.896486
 30
0.0
 11
520.645381
 21
894.396486
 31
0.0
  0
LINE
  5
62E
330
1F
100
AcDbEntity
  8
001
 62
     3
370
    30
100
AcDbLine
 10
520.645381
 20
862.396486
 30
0.0
 11
520.645381
 21
685.896486
 31
0.0
  0
LINE
  5
62F
330
1F
100
AcDbEntity
  8
001
 62
     3
370
    30
100
AcDbLine
 10
388.645381
 20
1070.896486
 30
0.0
 11
388.645381
 21
894.396486
 31
0.0
  0
LINE
  5
630
330
1F
100
AcDbEntity
  8
001
 62
     3
370
    30
100
AcDbLine
 10
388.645381
 20
862.396486
 30
0.0
 11
388.645381
 21
685.896486
 31
0.0
  0
POLYLINE
  5
631
330
1F
100
AcDbEntity
  8
002
 62
     3
370
     9
100
AcDb2dPolyline
 66
     1
 10
0.0
 20
0.0
 30
0.0
  0
VERTEX
  5
633
330
631
100
AcDbEntity
  8
002
 62
     3
370
     9
100
AcDbVertex
100
AcDb2dVertex
 10
1083.645381
 20
862.396486
 30
0.0
  0
VERTEX
  5
634
330
631
100
AcDbEntity
  8
002
 62
     3
370
     9
100
AcDbVertex
100
AcDb2dVertex
 10
1090.245381
 20
857.660486
 30
0.0
  0
VERTEX
  5
635
330
631
100
AcDbEntity
  8
002
 62
     3
370
     9
100
AcDbVertex
100
AcDb2dVertex
 10
1096.845381
 20
853.308486
 30
0.0
  0
VERTEX
  5
636
330
631
100
AcDbEntity
  8
002
 62
     3
370
     9
100
AcDbVertex
100
AcDb2dVertex
 10
1103.445381
 20
849.724486
 30
0.0
  0
VERTEX
  5
637
330
631
100
AcDbEntity
  8
002
 62
     3
370
     9
100
AcDbVertex
100
AcDb2dVertex
 10
1110.045381
 20
847.292486
 30
0.0
  0
VERTEX
  5
638
330
631
100
AcDbEntity
  8
002
 62
     3
370
     9
100
AcDbVertex
100
AcDb2dVertex
 10
1116.645381
 20
846.396486
 30
0.0
  0
VERTEX
  5
639
330
631
100
AcDbEntity
  8
002
 62
     3
370
     9
100
AcDbVertex
100
AcDb2dVertex
 10
1123.245381
 20
847.292486
 30
0.0
  0
VERTEX
  5
63A
330
631
100
AcDbEntity
  8
002
 62
     3
370
     9
100
AcDbVertex
100
AcDb2dVertex
 10
1129.845381
 20
849.724486
 30
0.0
  0
VERTEX
  5
63B
330
631
100
AcDbEntity
  8
002
 62
     3
370
     9
100
AcDbVertex
100
AcDb2dVertex
 10
1136.445381
 20
853.308486
 30
0.0
  0
VERTEX
  5
63C
330
631
100
AcDbEntity
  8
002
 62
     3
370
     9
100
AcDbVertex
100
AcDb2dVertex
 10
1143.045381
 20
857.660486
 30
0.0
  0
VERTEX
  5
63D
330
631
100
AcDbEntity
  8
002
 62
     3
370
     9
100
AcDbVertex
100
AcDb2dVertex
 10
1149.645381
 20
862.396486
 30
0.0
  0
VERTEX
  5
63E
330
631
100
AcDbEntity
  8
002
 62
     3
370
     9
100
AcDbVertex
100
AcDb2dVertex
 10
1156.245381
 20
867.132486
 30
0.0
  0
VERTEX
  5
63F
330
631
100
AcDbEntity
  8
002
 62
     3
370
     9
100
AcDbVertex
100
AcDb2dVertex
 10
1162.845381
 20
871.484486
 30
0.0
  0
VERTEX
  5
640
330
631
100
AcDbEntity
  8
002
 62
     3
370
     9
100
AcDbVertex
100
AcDb2dVertex
 10
1169.445381
 20
875.068486
 30
0.0
  0
VERTEX
  5
641
330
631
100
AcDbEntity
  8
002
 62
     3
370
     9
100
AcDbVertex
100
AcDb2dVertex
 10
1176.045381
 20
877.500486
 30
0.0
  0
VERTEX
  5
642
330
631
100
AcDbEntity
  8
002
 62
     3
370
     9
100
AcDbVertex
100
AcDb2dVertex
 10
1182.645381
 20
878.396486
 30
0.0
  0
VERTEX
  5
643
330
631
100
AcDbEntity
  8
002
 62
     3
370
     9
100
AcDbVertex
100
AcDb2dVertex
 10
1189.245381
 20
877.500486
 30
0.0
  0
VERTEX
  5
644
330
631
100
AcDbEntity
  8
002
 62
     3
370
     9
100
AcDbVertex
100
AcDb2dVertex
 10
1195.845381
 20
875.068486
 30
0.0
  0
VERTEX
  5
645
330
631
100
AcDbEntity
  8
002
 62
     3
370
     9
100
AcDbVertex
100
AcDb2dVertex
 10
1202.445381
 20
871.484486
 30
0.0
  0
VERTEX
  5
646
330
631
100
AcDbEntity
  8
002
 62
     3
370
     9
100
AcDbVertex
100
AcDb2dVertex
 10
1209.045381
 20
867.132486
 30
0.0
  0
VERTEX
  5
647
330
631
100
AcDbEntity
  8
002
 62
     3
370
     9
100
AcDbVertex
100
AcDb2dVertex
 10
1215.645381
 20
862.396486
 30
0.0
  0
SEQEND
  5
632
330
631
100
AcDbEntity
  8
002
370
     9
  0
POLYLINE
  5
648
330
1F
100
AcDbEntity
  8
002
 62
     3
370
     9
100
AcDb2dPolyline
 66
     1
 10
0.0
 20
0.0
 30
0.0
  0
VERTEX
  5
64A
330
648
100
AcDbEntity
  8
002
 62
     3
370
     9
100
AcDbVertex
100
AcDb2dVertex
 10
1083.645381
 20
894.396486
 30
0.0
  0
VERTEX
  5
64B
330
648
100
AcDbEntity
  8
002
 62
     3
370
     9
100
AcDbVertex
100
AcDb2dVertex
 10
1090.245381
 20
889.660486
 30
0.0
  0
VERTEX
  5
64C
330
648
100
AcDbEntity
  8
002
 62
     3
370
     9
100
AcDbVertex
100
AcDb2dVertex
 10
1096.845381
 20
885.308486
 30
0.0
  0
VERTEX
  5
64D
330
648
100
AcDbEntity
  8
002
 62
     3
370
     9
100
AcDbVertex
100
AcDb2dVertex
 10
1103.445381
 20
881.724486
 30
0.0
  0
VERTEX
  5
64E
330
648
100
AcDbEntity
  8
002
 62
     3
370
     9
100
AcDbVertex
100
AcDb2dVertex
 10
1110.045381
 20
879.292486
 30
0.0
  0
VERTEX
  5
64F
330
648
100
AcDbEntity
  8
002
 62
     3
370
     9
100
AcDbVertex
100
AcDb2dVertex
 10
1116.645381
 20
878.396486
 30
0.0
  0
VERTEX
  5
650
330
648
100
AcDbEntity
  8
002
 62
     3
370
     9
100
AcDbVertex
100
AcDb2dVertex
 10
1123.245381
 20
879.292486
 30
0.0
  0
VERTEX
  5
651
330
648
100
AcDbEntity
  8
002
 62
     3
370
     9
100
AcDbVertex
100
AcDb2dVertex
 10
1129.845381
 20
881.724486
 30
0.0
  0
VERTEX
  5
652
330
648
100
AcDbEntity
  8
002
 62
     3
370
     9
100
AcDbVertex
100
AcDb2dVertex
 10
1136.445381
 20
885.308486
 30
0.0
  0
VERTEX
  5
653
330
648
100
AcDbEntity
  8
002
 62
     3
370
     9
100
AcDbVertex
100
AcDb2dVertex
 10
1143.045381
 20
889.660486
 30
0.0
  0
VERTEX
  5
654
330
648
100
AcDbEntity
  8
002
 62
     3
370
     9
100
AcDbVertex
100
AcDb2dVertex
 10
1149.645381
 20
894.396486
 30
0.0
  0
VERTEX
  5
655
330
648
100
AcDbEntity
  8
002
 62
     3
370
     9
100
AcDbVertex
100
AcDb2dVertex
 10
1156.245381
 20
899.132486
 30
0.0
  0
VERTEX
  5
656
330
648
100
AcDbEntity
  8
002
 62
     3
370
     9
100
AcDbVertex
100
AcDb2dVertex
 10
1162.845381
 20
903.484486
 30
0.0
  0
VERTEX
  5
657
330
648
100
AcDbEntity
  8
002
 62
     3
370
     9
100
AcDbVertex
100
AcDb2dVertex
 10
1169.445381
 20
907.068486
 30
0.0
  0
VERTEX
  5
658
330
648
100
AcDbEntity
  8
002
 62
     3
370
     9
100
AcDbVertex
100
AcDb2dVertex
 10
1176.045381
 20
909.500486
 30
0.0
  0
VERTEX
  5
659
330
648
100
AcDbEntity
  8
002
 62
     3
370
     9
100
AcDbVertex
100
AcDb2dVertex
 10
1182.645381
 20
910.396486
 30
0.0
  0
VERTEX
  5
65A
330
648
100
AcDbEntity
  8
002
 62
     3
370
     9
100
AcDbVertex
100
AcDb2dVertex
 10
1189.245381
 20
909.500486
 30
0.0
  0
VERTEX
  5
65B
330
648
100
AcDbEntity
  8
002
 62
     3
370
     9
100
AcDbVertex
100
AcDb2dVertex
 10
1195.845381
 20
907.068486
 30
0.0
  0
VERTEX
  5
65C
330
648
100
AcDbEntity
  8
002
 62
     3
370
     9
100
AcDbVertex
100
AcDb2dVertex
 10
1202.445381
 20
903.484486
 30
0.0
  0
VERTEX
  5
65D
330
648
100
AcDbEntity
  8
002
 62
     3
370
     9
100
AcDbVertex
100
AcDb2dVertex
 10
1209.045381
 20
899.132486
 30
0.0
  0
VERTEX
  5
65E
330
648
100
AcDbEntity
  8
002
 62
     3
370
     9
100
AcDbVertex
100
AcDb2dVertex
 10
1215.645381
 20
894.396486
 30
0.0
  0
SEQEND
  5
649
330
648
100
AcDbEntity
  8
002
370
     9
  0
LINE
  5
65F
330
1F
100
AcDbEntity
  8
001
 62
    40
370
     9
100
AcDbLine
 10
1207.145381
 20
1070.896486
 30
0.0
 11
1207.145381
 21
900.441593
 31
0.0
  0
LINE
  5
660
330
1F
100
AcDbEntity
  8
001
 62
    40
370
     9
100
AcDbLine
 10
1207.145381
 20
868.441593
 30
0.0
 11
1207.145381
 21
725.896486
 31
0.0
  0
LINE
  5
661
330
1F
100
AcDbEntity
  8
001
 62
    40
370
     9
100
AcDbLine
 10
1092.145381
 20
1070.896486
 30
0.0
 11
1092.145381
 21
888.351379
 31
0.0
  0
LINE
  5
662
330
1F
100
AcDbEntity
  8
001
 62
    40
370
     9
100
AcDbLine
 10
1092.145381
 20
856.351379
 30
0.0
 11
1092.145381
 21
725.896486
 31
0.0
  0
LINE
  5
663
330
1F
100
AcDbEntity
  8
001
 62
     3
370
    30
100
AcDbLine
 10
1215.645381
 20
1070.896486
 30
0.0
 11
1215.645381
 21
894.396486
 31
0.0
  0
LINE
  5
664
330
1F
100
AcDbEntity
  8
001
 62
     3
370
    30
100
AcDbLine
 10
1215.645381
 20
862.396486
 30
0.0
 11
1215.645381
 21
685.896486
 31
0.0
  0
LINE
  5
665
330
1F
100
AcDbEntity
  8
001
 62
     3
370
    30
100
AcDbLine
 10
1083.645381
 20
1070.896486
 30
0.0
 11
1083.645381
 21
894.396486
 31
0.0
  0
LINE
  5
666
330
1F
100
AcDbEntity
  8
001
 62
     3
370
    30
100
AcDbLine
 10
1083.645381
 20
862.396486
 30
0.0
 11
1083.645381
 21
685.896486
 31
0.0
  0
POLYLINE
  5
667
330
1F
100
AcDbEntity
  8
002
 62
     3
370
     9
100
AcDb2dPolyline
 66
     1
 10
0.0
 20
0.0
 30
0.0
  0
VERTEX
  5
669
330
667
100
AcDbEntity
  8
002
 62
     3
370
     9
100
AcDbVertex
100
AcDb2dVertex
 10
1901.787899
 20
1039.660688
 30
0.0
  0
VERTEX
  5
66A
330
667
100
AcDbEntity
  8
002
 62
     3
370
     9
100
AcDbVertex
100
AcDb2dVertex
 10
1908.387899
 20
1034.924688
 30
0.0
  0
VERTEX
  5
66B
330
667
100
AcDbEntity
  8
002
 62
     3
370
     9
100
AcDbVertex
100
AcDb2dVertex
 10
1914.987899
 20
1030.572688
 30
0.0
  0
VERTEX
  5
66C
330
667
100
AcDbEntity
  8
002
 62
     3
370
     9
100
AcDbVertex
100
AcDb2dVertex
 10
1921.587899
 20
1026.988688
 30
0.0
  0
VERTEX
  5
66D
330
667
100
AcDbEntity
  8
002
 62
     3
370
     9
100
AcDbVertex
100
AcDb2dVertex
 10
1928.187899
 20
1024.556688
 30
0.0
  0
VERTEX
  5
66E
330
667
100
AcDbEntity
  8
002
 62
     3
370
     9
100
AcDbVertex
100
AcDb2dVertex
 10
1934.787899
 20
1023.660688
 30
0.0
  0
VERTEX
  5
66F
330
667
100
AcDbEntity
  8
002
 62
     3
370
     9
100
AcDbVertex
100
AcDb2dVertex
 10
1941.387899
 20
1024.556688
 30
0.0
  0
VERTEX
  5
670
330
667
100
AcDbEntity
  8
002
 62
     3
370
     9
100
AcDbVertex
100
AcDb2dVertex
 10
1947.987899
 20
1026.988688
 30
0.0
  0
VERTEX
  5
671
330
667
100
AcDbEntity
  8
002
 62
     3
370
     9
100
AcDbVertex
100
AcDb2dVertex
 10
1954.587899
 20
1030.572688
 30
0.0
  0
VERTEX
  5
672
330
667
100
AcDbEntity
  8
002
 62
     3
370
     9
100
AcDbVertex
100
AcDb2dVertex
 10
1961.187899
 20
1034.924688
 30
0.0
  0
VERTEX
  5
673
330
667
100
AcDbEntity
  8
002
 62
     3
370
     9
100
AcDbVertex
100
AcDb2dVertex
 10
1967.787899
 20
1039.660688
 30
0.0
  0
VERTEX
  5
674
330
667
100
AcDbEntity
  8
002
 62
     3
370
     9
100
AcDbVertex
100
AcDb2dVertex
 10
1974.387899
 20
1044.396688
 30
0.0
  0
VERTEX
  5
675
330
667
100
AcDbEntity
  8
002
 62
     3
370
     9
100
AcDbVertex
100
AcDb2dVertex
 10
1980.987899
 20
1048.748688
 30
0.0
  0
VERTEX
  5
676
330
667
100
AcDbEntity
  8
002
 62
     3
370
     9
100
AcDbVertex
100
AcDb2dVertex
 10
1987.587899
 20
1052.332688
 30
0.0
  0
VERTEX
  5
677
330
667
100
AcDbEntity
  8
002
 62
     3
370
     9
100
AcDbVertex
100
AcDb2dVertex
 10
1994.187899
 20
1054.764688
 30
0.0
  0
VERTEX
  5
678
330
667
100
AcDbEntity
  8
002
 62
     3
370
     9
100
AcDbVertex
100
AcDb2dVertex
 10
2000.787899
 20
1055.660688
 30
0.0
  0
VERTEX
  5
679
330
667
100
AcDbEntity
  8
002
 62
     3
370
     9
100
AcDbVertex
100
AcDb2dVertex
 10
2007.387899
 20
1054.764688
 30
0.0
  0
VERTEX
  5
67A
330
667
100
AcDbEntity
  8
002
 62
     3
370
     9
100
AcDbVertex
100
AcDb2dVertex
 10
2013.987899
 20
1052.332688
 30
0.0
  0
VERTEX
  5
67B
330
667
100
AcDbEntity
  8
002
 62
     3
370
     9
100
AcDbVertex
100
AcDb2dVertex
 10
2020.587899
 20
1048.748688
 30
0.0
  0
VERTEX
  5
67C
330
667
100
AcDbEntity
  8
002
 62
     3
370
     9
100
AcDbVertex
100
AcDb2dVertex
 10
2027.187899
 20
1044.396688
 30
0.0
  0
VERTEX
  5
67D
330
667
100
AcDbEntity
  8
002
 62
     3
370
     9
100
AcDbVertex
100
AcDb2dVertex
 10
2033.787899
 20
1039.660688
 30
0.0
  0
SEQEND
  5
668
330
667
100
AcDbEntity
  8
002
370
     9
  0
POLYLINE
  5
67E
330
1F
100
AcDbEntity
  8
002
 62
     3
370
     9
100
AcDb2dPolyline
 66
     1
 10
0.0
 20
0.0
 30
0.0
  0
VERTEX
  5
680
330
67E
100
AcDbEntity
  8
002
 62
     3
370
     9
100
AcDbVertex
100
AcDb2dVertex
 10
1901.787899
 20
1071.660688
 30
0.0
  0
VERTEX
  5
681
330
67E
100
AcDbEntity
  8
002
 62
     3
370
     9
100
AcDbVertex
100
AcDb2dVertex
 10
1908.387899
 20
1066.924688
 30
0.0
  0
VERTEX
  5
682
330
67E
100
AcDbEntity
  8
002
 62
     3
370
     9
100
AcDbVertex
100
AcDb2dVertex
 10
1914.987899
 20
1062.572688
 30
0.0
  0
VERTEX
  5
683
330
67E
100
AcDbEntity
  8
002
 62
     3
370
     9
100
AcDbVertex
100
AcDb2dVertex
 10
1921.587899
 20
1058.988688
 30
0.0
  0
VERTEX
  5
684
330
67E
100
AcDbEntity
  8
002
 62
     3
370
     9
100
AcDbVertex
100
AcDb2dVertex
 10
1928.187899
 20
1056.556688
 30
0.0
  0
VERTEX
  5
685
330
67E
100
AcDbEntity
  8
002
 62
     3
370
     9
100
AcDbVertex
100
AcDb2dVertex
 10
1934.787899
 20
1055.660688
 30
0.0
  0
VERTEX
  5
686
330
67E
100
AcDbEntity
  8
002
 62
     3
370
     9
100
AcDbVertex
100
AcDb2dVertex
 10
1941.387899
 20
1056.556688
 30
0.0
  0
VERTEX
  5
687
330
67E
100
AcDbEntity
  8
002
 62
     3
370
     9
100
AcDbVertex
100
AcDb2dVertex
 10
1947.987899
 20
1058.988688
 30
0.0
  0
VERTEX
  5
688
330
67E
100
AcDbEntity
  8
002
 62
     3
370
     9
100
AcDbVertex
100
AcDb2dVertex
 10
1954.587899
 20
1062.572688
 30
0.0
  0
VERTEX
  5
689
330
67E
100
AcDbEntity
  8
002
 62
     3
370
     9
100
AcDbVertex
100
AcDb2dVertex
 10
1961.187899
 20
1066.924688
 30
0.0
  0
VERTEX
  5
68A
330
67E
100
AcDbEntity
  8
002
 62
     3
370
     9
100
AcDbVertex
100
AcDb2dVertex
 10
1967.787899
 20
1071.660688
 30
0.0
  0
VERTEX
  5
68B
330
67E
100
AcDbEntity
  8
002
 62
     3
370
     9
100
AcDbVertex
100
AcDb2dVertex
 10
1974.387899
 20
1076.396688
 30
0.0
  0
VERTEX
  5
68C
330
67E
100
AcDbEntity
  8
002
 62
     3
370
     9
100
AcDbVertex
100
AcDb2dVertex
 10
1980.987899
 20
1080.748688
 30
0.0
  0
VERTEX
  5
68D
330
67E
100
AcDbEntity
  8
002
 62
     3
370
     9
100
AcDbVertex
100
AcDb2dVertex
 10
1987.587899
 20
1084.332688
 30
0.0
  0
VERTEX
  5
68E
330
67E
100
AcDbEntity
  8
002
 62
     3
370
     9
100
AcDbVertex
100
AcDb2dVertex
 10
1994.187899
 20
1086.764688
 30
0.0
  0
VERTEX
  5
68F
330
67E
100
AcDbEntity
  8
002
 62
     3
370
     9
100
AcDbVertex
100
AcDb2dVertex
 10
2000.787899
 20
1087.660688
 30
0.0
  0
VERTEX
  5
690
330
67E
100
AcDbEntity
  8
002
 62
     3
370
     9
100
AcDbVertex
100
AcDb2dVertex
 10
2007.387899
 20
1086.764688
 30
0.0
  0
VERTEX
  5
691
330
67E
100
AcDbEntity
  8
002
 62
     3
370
     9
100
AcDbVertex
100
AcDb2dVertex
 10
2013.987899
 20
1084.332688
 30
0.0
  0
VERTEX
  5
692
330
67E
100
AcDbEntity
  8
002
 62
     3
370
     9
100
AcDbVertex
100
AcDb2dVertex
 10
2020.587899
 20
1080.748688
 30
0.0
  0
VERTEX
  5
693
330
67E
100
AcDbEntity
  8
002
 62
     3
370
     9
100
AcDbVertex
100
AcDb2dVertex
 10
2027.187899
 20
1076.396688
 30
0.0
  0
VERTEX
  5
694
330
67E
100
AcDbEntity
  8
002
 62
     3
370
     9
100
AcDbVertex
100
AcDb2dVertex
 10
2033.787899
 20
1071.660688
 30
0.0
  0
SEQEND
  5
67F
330
67E
100
AcDbEntity
  8
002
370
     9
  0
LINE
  5
695
330
1F
100
AcDbEntity
  8
001
 62
     3
370
    30
100
AcDbLine
 10
2033.787899
 20
913.160688
 30
0.0
 11
2033.787899
 21
1039.660688
 31
0.0
  0
LINE
  5
696
330
1F
100
AcDbEntity
  8
001
 62
     3
370
    30
100
AcDbLine
 10
2033.787899
 20
1071.660688
 30
0.0
 11
2033.787899
 21
1198.160688
 31
0.0
  0
LINE
  5
697
330
1F
100
AcDbEntity
  8
001
 62
    40
370
     9
100
AcDbLine
 10
2025.287899
 20
913.160688
 30
0.0
 11
2025.287899
 21
1045.705795
 31
0.0
  0
LINE
  5
698
330
1F
100
AcDbEntity
  8
001
 62
    40
370
     9
100
AcDbLine
 10
2025.287899
 20
1077.705795
 30
0.0
 11
2025.287899
 21
1158.160688
 31
0.0
  0
LINE
  5
699
330
1F
100
AcDbEntity
  8
001
 62
    40
370
     9
100
AcDbLine
 10
1910.287899
 20
913.160688
 30
0.0
 11
1910.287899
 21
1033.615582
 31
0.0
  0
LINE
  5
69A
330
1F
100
AcDbEntity
  8
001
 62
    40
370
     9
100
AcDbLine
 10
1910.287899
 20
1065.615582
 30
0.0
 11
1910.287899
 21
1158.160688
 31
0.0
  0
LINE
  5
69B
330
1F
100
AcDbEntity
  8
001
 62
     3
370
    30
100
AcDbLine
 10
1901.787899
 20
913.160688
 30
0.0
 11
1901.787899
 21
1039.660688
 31
0.0
  0
LINE
  5
69C
330
1F
100
AcDbEntity
  8
001
 62
     3
370
    30
100
AcDbLine
 10
1901.787899
 20
1071.660688
 30
0.0
 11
1901.787899
 21
1198.160688
 31
0.0
  0
POLYLINE
  5
69D
330
1F
100
AcDbEntity
  8
002
 62
     3
370
     9
100
AcDb2dPolyline
 66
     1
 10
0.0
 20
0.0
 30
0.0
  0
VERTEX
  5
69F
330
69D
100
AcDbEntity
  8
002
 62
     3
370
     9
100
AcDbVertex
100
AcDb2dVertex
 10
2646.787899
 20
1039.660688
 30
0.0
  0
VERTEX
  5
6A0
330
69D
100
AcDbEntity
  8
002
 62
     3
370
     9
100
AcDbVertex
100
AcDb2dVertex
 10
2653.387899
 20
1034.924688
 30
0.0
  0
VERTEX
  5
6A1
330
69D
100
AcDbEntity
  8
002
 62
     3
370
     9
100
AcDbVertex
100
AcDb2dVertex
 10
2659.987899
 20
1030.572688
 30
0.0
  0
VERTEX
  5
6A2
330
69D
100
AcDbEntity
  8
002
 62
     3
370
     9
100
AcDbVertex
100
AcDb2dVertex
 10
2666.587899
 20
1026.988688
 30
0.0
  0
VERTEX
  5
6A3
330
69D
100
AcDbEntity
  8
002
 62
     3
370
     9
100
AcDbVertex
100
AcDb2dVertex
 10
2673.187899
 20
1024.556688
 30
0.0
  0
VERTEX
  5
6A4
330
69D
100
AcDbEntity
  8
002
 62
     3
370
     9
100
AcDbVertex
100
AcDb2dVertex
 10
2679.787899
 20
1023.660688
 30
0.0
  0
VERTEX
  5
6A5
330
69D
100
AcDbEntity
  8
002
 62
     3
370
     9
100
AcDbVertex
100
AcDb2dVertex
 10
2686.387899
 20
1024.556688
 30
0.0
  0
VERTEX
  5
6A6
330
69D
100
AcDbEntity
  8
002
 62
     3
370
     9
100
AcDbVertex
100
AcDb2dVertex
 10
2692.987899
 20
1026.988688
 30
0.0
  0
VERTEX
  5
6A7
330
69D
100
AcDbEntity
  8
002
 62
     3
370
     9
100
AcDbVertex
100
AcDb2dVertex
 10
2699.587899
 20
1030.572688
 30
0.0
  0
VERTEX
  5
6A8
330
69D
100
AcDbEntity
  8
002
 62
     3
370
     9
100
AcDbVertex
100
AcDb2dVertex
 10
2706.187899
 20
1034.924688
 30
0.0
  0
VERTEX
  5
6A9
330
69D
100
AcDbEntity
  8
002
 62
     3
370
     9
100
AcDbVertex
100
AcDb2dVertex
 10
2712.787899
 20
1039.660688
 30
0.0
  0
VERTEX
  5
6AA
330
69D
100
AcDbEntity
  8
002
 62
     3
370
     9
100
AcDbVertex
100
AcDb2dVertex
 10
2719.387899
 20
1044.396688
 30
0.0
  0
VERTEX
  5
6AB
330
69D
100
AcDbEntity
  8
002
 62
     3
370
     9
100
AcDbVertex
100
AcDb2dVertex
 10
2725.987899
 20
1048.748688
 30
0.0
  0
VERTEX
  5
6AC
330
69D
100
AcDbEntity
  8
002
 62
     3
370
     9
100
AcDbVertex
100
AcDb2dVertex
 10
2732.587899
 20
1052.332688
 30
0.0
  0
VERTEX
  5
6AD
330
69D
100
AcDbEntity
  8
002
 62
     3
370
     9
100
AcDbVertex
100
AcDb2dVertex
 10
2739.187899
 20
1054.764688
 30
0.0
  0
VERTEX
  5
6AE
330
69D
100
AcDbEntity
  8
002
 62
     3
370
     9
100
AcDbVertex
100
AcDb2dVertex
 10
2745.787899
 20
1055.660688
 30
0.0
  0
VERTEX
  5
6AF
330
69D
100
AcDbEntity
  8
002
 62
     3
370
     9
100
AcDbVertex
100
AcDb2dVertex
 10
2752.387899
 20
1054.764688
 30
0.0
  0
VERTEX
  5
6B0
330
69D
100
AcDbEntity
  8
002
 62
     3
370
     9
100
AcDbVertex
100
AcDb2dVertex
 10
2758.987899
 20
1052.332688
 30
0.0
  0
VERTEX
  5
6B1
330
69D
100
AcDbEntity
  8
002
 62
     3
370
     9
100
AcDbVertex
100
AcDb2dVertex
 10
2765.587899
 20
1048.748688
 30
0.0
  0
VERTEX
  5
6B2
330
69D
100
AcDbEntity
  8
002
 62
     3
370
     9
100
AcDbVertex
100
AcDb2dVertex
 10
2772.187899
 20
1044.396688
 30
0.0
  0
VERTEX
  5
6B3
330
69D
100
AcDbEntity
  8
002
 62
     3
370
     9
100
AcDbVertex
100
AcDb2dVertex
 10
2778.787899
 20
1039.660688
 30
0.0
  0
SEQEND
  5
69E
330
69D
100
AcDbEntity
  8
002
370
     9
  0
POLYLINE
  5
6B4
330
1F
100
AcDbEntity
  8
002
 62
     3
370
     9
100
AcDb2dPolyline
 66
     1
 10
0.0
 20
0.0
 30
0.0
  0
VERTEX
  5
6B6
330
6B4
100
AcDbEntity
  8
002
 62
     3
370
     9
100
AcDbVertex
100
AcDb2dVertex
 10
2646.787899
 20
1071.660688
 30
0.0
  0
VERTEX
  5
6B7
330
6B4
100
AcDbEntity
  8
002
 62
     3
370
     9
100
AcDbVertex
100
AcDb2dVertex
 10
2653.387899
 20
1066.924688
 30
0.0
  0
VERTEX
  5
6B8
330
6B4
100
AcDbEntity
  8
002
 62
     3
370
     9
100
AcDbVertex
100
AcDb2dVertex
 10
2659.987899
 20
1062.572688
 30
0.0
  0
VERTEX
  5
6B9
330
6B4
100
AcDbEntity
  8
002
 62
     3
370
     9
100
AcDbVertex
100
AcDb2dVertex
 10
2666.587899
 20
1058.988688
 30
0.0
  0
VERTEX
  5
6BA
330
6B4
100
AcDbEntity
  8
002
 62
     3
370
     9
100
AcDbVertex
100
AcDb2dVertex
 10
2673.187899
 20
1056.556688
 30
0.0
  0
VERTEX
  5
6BB
330
6B4
100
AcDbEntity
  8
002
 62
     3
370
     9
100
AcDbVertex
100
AcDb2dVertex
 10
2679.787899
 20
1055.660688
 30
0.0
  0
VERTEX
  5
6BC
330
6B4
100
AcDbEntity
  8
002
 62
     3
370
     9
100
AcDbVertex
100
AcDb2dVertex
 10
2686.387899
 20
1056.556688
 30
0.0
  0
VERTEX
  5
6BD
330
6B4
100
AcDbEntity
  8
002
 62
     3
370
     9
100
AcDbVertex
100
AcDb2dVertex
 10
2692.987899
 20
1058.988688
 30
0.0
  0
VERTEX
  5
6BE
330
6B4
100
AcDbEntity
  8
002
 62
     3
370
     9
100
AcDbVertex
100
AcDb2dVertex
 10
2699.587899
 20
1062.572688
 30
0.0
  0
VERTEX
  5
6BF
330
6B4
100
AcDbEntity
  8
002
 62
     3
370
     9
100
AcDbVertex
100
AcDb2dVertex
 10
2706.187899
 20
1066.924688
 30
0.0
  0
VERTEX
  5
6C0
330
6B4
100
AcDbEntity
  8
002
 62
     3
370
     9
100
AcDbVertex
100
AcDb2dVertex
 10
2712.787899
 20
1071.660688
 30
0.0
  0
VERTEX
  5
6C1
330
6B4
100
AcDbEntity
  8
002
 62
     3
370
     9
100
AcDbVertex
100
AcDb2dVertex
 10
2719.387899
 20
1076.396688
 30
0.0
  0
VERTEX
  5
6C2
330
6B4
100
AcDbEntity
  8
002
 62
     3
370
     9
100
AcDbVertex
100
AcDb2dVertex
 10
2725.987899
 20
1080.748688
 30
0.0
  0
VERTEX
  5
6C3
330
6B4
100
AcDbEntity
  8
002
 62
     3
370
     9
100
AcDbVertex
100
AcDb2dVertex
 10
2732.587899
 20
1084.332688
 30
0.0
  0
VERTEX
  5
6C4
330
6B4
100
AcDbEntity
  8
002
 62
     3
370
     9
100
AcDbVertex
100
AcDb2dVertex
 10
2739.187899
 20
1086.764688
 30
0.0
  0
VERTEX
  5
6C5
330
6B4
100
AcDbEntity
  8
002
 62
     3
370
     9
100
AcDbVertex
100
AcDb2dVertex
 10
2745.787899
 20
1087.660688
 30
0.0
  0
VERTEX
  5
6C6
330
6B4
100
AcDbEntity
  8
002
 62
     3
370
     9
100
AcDbVertex
100
AcDb2dVertex
 10
2752.387899
 20
1086.764688
 30
0.0
  0
VERTEX
  5
6C7
330
6B4
100
AcDbEntity
  8
002
 62
     3
370
     9
100
AcDbVertex
100
AcDb2dVertex
 10
2758.987899
 20
1084.332688
 30
0.0
  0
VERTEX
  5
6C8
330
6B4
100
AcDbEntity
  8
002
 62
     3
370
     9
100
AcDbVertex
100
AcDb2dVertex
 10
2765.587899
 20
1080.748688
 30
0.0
  0
VERTEX
  5
6C9
330
6B4
100
AcDbEntity
  8
002
 62
     3
370
     9
100
AcDbVertex
100
AcDb2dVertex
 10
2772.187899
 20
1076.396688
 30
0.0
  0
VERTEX
  5
6CA
330
6B4
100
AcDbEntity
  8
002
 62
     3
370
     9
100
AcDbVertex
100
AcDb2dVertex
 10
2778.787899
 20
1071.660688
 30
0.0
  0
SEQEND
  5
6B5
330
6B4
100
AcDbEntity
  8
002
370
     9
  0
LINE
  5
6CB
330
1F
100
AcDbEntity
  8
001
 62
     3
370
    30
100
AcDbLine
 10
2778.787899
 20
913.160688
 30
0.0
 11
2778.787899
 21
1039.660688
 31
0.0
  0
LINE
  5
6CC
330
1F
100
AcDbEntity
  8
001
 62
     3
370
    30
100
AcDbLine
 10
2778.787899
 20
1071.660688
 30
0.0
 11
2778.787899
 21
1198.160688
 31
0.0
  0
LINE
  5
6CD
330
1F
100
AcDbEntity
  8
001
 62
    40
370
     9
100
AcDbLine
 10
2770.287899
 20
913.160688
 30
0.0
 11
2770.287899
 21
1045.705795
 31
0.0
  0
LINE
  5
6CE
330
1F
100
AcDbEntity
  8
001
 62
    40
370
     9
100
AcDbLine
 10
2770.287899
 20
1077.705795
 30
0.0
 11
2770.287899
 21
1158.160688
 31
0.0
  0
LINE
  5
6CF
330
1F
100
AcDbEntity
  8
001
 62
    40
370
     9
100
AcDbLine
 10
2655.287899
 20
913.160688
 30
0.0
 11
2655.287899
 21
1033.615582
 31
0.0
  0
LINE
  5
6D0
330
1F
100
AcDbEntity
  8
001
 62
    40
370
     9
100
AcDbLine
 10
2655.287899
 20
1065.615582
 30
0.0
 11
2655.287899
 21
1158.160688
 31
0.0
  0
LINE
  5
6D1
330
1F
100
AcDbEntity
  8
001
 62
     3
370
    30
100
AcDbLine
 10
2646.787899
 20
913.160688
 30
0.0
 11
2646.787899
 21
1039.660688
 31
0.0
  0
LINE
  5
6D2
330
1F
100
AcDbEntity
  8
001
 62
     3
370
    30
100
AcDbLine
 10
2646.787899
 20
1071.660688
 30
0.0
 11
2646.787899
 21
1198.160688
 31
0.0
  0
LINE
  5
6D3
330
1F
100
AcDbEntity
  8
002
  6
CENTER
 62
    40
370
     9
100
AcDbLine
 10
454.645381
 20
123.215197
 30
0.0
 11
454.645381
 21
1775.436727
 31
0.0
  0
LINE
  5
6D4
330
1F
100
AcDbEntity
  8
002
  6
CENTER
 62
    40
370
     9
100
AcDbLine
 10
1149.645381
 20
123.215197
 30
0.0
 11
1149.645381
 21
1775.436727
 31
0.0
  0
LINE
  5
6D5
330
1F
100
AcDbEntity
  8
002
  6
CENTER
 62
    40
370
     9
100
AcDbLine
 10
1967.787899
 20
1786.4919
 30
0.0
 11
1967.787899
 21
200.125526
 31
0.0
  0
LINE
  5
6D6
330
1F
100
AcDbEntity
  8
002
  6
CENTER
 62
    40
370
     9
100
AcDbLine
 10
2712.787899
 20
1786.4919
 30
0.0
 11
2712.787899
 21
200.125526
 31
0.0
  0
LINE
  5
6D7
330
1F
100
AcDbEntity
  8
002
  6
CENTER
 62
    40
370
     9
100
AcDbLine
 10
667.479381
 20
534.852486
 30
0.0
 11
686.253381
 21
542.629486
 31
0.0
  0
LINE
  5
6D8
330
1F
100
AcDbEntity
  8
002
  6
CENTER
 62
    40
370
     9
100
AcDbLine
 10
633.601381
 20
568.731486
 30
0.0
 11
641.377381
 21
587.505486
 31
0.0
  0
LINE
  5
6D9
330
1F
100
AcDbEntity
  8
002
  6
CENTER
 62
    40
370
     9
100
AcDbLine
 10
577.912381
 20
587.505486
 30
0.0
 11
585.689381
 21
568.731486
 31
0.0
  0
LINE
  5
6DA
330
1F
100
AcDbEntity
  8
002
  6
CENTER
 62
    40
370
     9
100
AcDbLine
 10
551.810381
 20
534.852486
 30
0.0
 11
533.036381
 21
542.629486
 31
0.0
  0
LINE
  5
6DB
330
1F
100
AcDbEntity
  8
002
  6
CENTER
 62
    40
370
     9
100
AcDbLine
 10
551.810381
 20
486.940486
 30
0.0
 11
533.036381
 21
479.164486
 31
0.0
  0
LINE
  5
6DC
330
1F
100
AcDbEntity
  8
002
  6
CENTER
 62
    40
370
     9
100
AcDbLine
 10
577.912381
 20
434.288486
 30
0.0
 11
585.689381
 21
453.062486
 31
0.0
  0
LINE
  5
6DD
330
1F
100
AcDbEntity
  8
002
  6
CENTER
 62
    40
370
     9
100
AcDbLine
 10
641.377381
 20
434.288486
 30
0.0
 11
633.601381
 21
453.062486
 31
0.0
  0
CIRCLE
  5
6DE
330
1F
100
AcDbEntity
  8
002
  6
CENTER
 62
    40
370
     9
100
AcDbCircle
 10
609.645381
 20
510.896486
 30
0.0
 40
72.5
  0
LINE
  5
6DF
330
1F
100
AcDbEntity
  8
002
  6
CENTER
 62
    40
370
     9
100
AcDbLine
 10
667.479381
 20
486.940486
 30
0.0
 11
686.253381
 21
479.164486
 31
0.0
  0
LINE
  5
6E0
330
1F
100
AcDbEntity
  8
002
  6
CENTER
 62
    40
370
     9
100
AcDbLine
 10
1362.479381
 20
534.852486
 30
0.0
 11
1381.253381
 21
542.629486
 31
0.0
  0
LINE
  5
6E1
330
1F
100
AcDbEntity
  8
002
  6
CENTER
 62
    40
370
     9
100
AcDbLine
 10
1328.601381
 20
568.731486
 30
0.0
 11
1336.377381
 21
587.505486
 31
0.0
  0
LINE
  5
6E2
330
1F
100
AcDbEntity
  8
002
  6
CENTER
 62
    40
370
     9
100
AcDbLine
 10
1272.912381
 20
587.505486
 30
0.0
 11
1280.689381
 21
568.731486
 31
0.0
  0
LINE
  5
6E3
330
1F
100
AcDbEntity
  8
002
  6
CENTER
 62
    40
370
     9
100
AcDbLine
 10
1246.810381
 20
534.852486
 30
0.0
 11
1228.036381
 21
542.629486
 31
0.0
  0
LINE
  5
6E4
330
1F
100
AcDbEntity
  8
002
  6
CENTER
 62
    40
370
     9
100
AcDbLine
 10
1246.810381
 20
486.940486
 30
0.0
 11
1228.036381
 21
479.164486
 31
0.0
  0
LINE
  5
6E5
330
1F
100
AcDbEntity
  8
002
  6
CENTER
 62
    40
370
     9
100
AcDbLine
 10
1272.912381
 20
434.288486
 30
0.0
 11
1280.689381
 21
453.062486
 31
0.0
  0
LINE
  5
6E6
330
1F
100
AcDbEntity
  8
002
  6
CENTER
 62
    40
370
     9
100
AcDbLine
 10
1336.377381
 20
434.288486
 30
0.0
 11
1328.601381
 21
453.062486
 31
0.0
  0
CIRCLE
  5
6E7
330
1F
100
AcDbEntity
  8
002
  6
CENTER
 62
    40
370
     9
100
AcDbCircle
 10
1304.645381
 20
510.896486
 30
0.0
 40
72.5
  0
LINE
  5
6E8
330
1F
100
AcDbEntity
  8
002
  6
CENTER
 62
    40
370
     9
100
AcDbLine
 10
1362.479381
 20
486.940486
 30
0.0
 11
1381.253381
 21
479.164486
 31
0.0
  0
LINE
  5
6E9
330
1F
100
AcDbEntity
  8
002
  6
CENTER
 62
    40
370
     9
100
AcDbLine
 10
2180.621899
 20
1397.116688
 30
0.0
 11
2199.395899
 21
1404.893688
 31
0.0
  0
LINE
  5
6EA
330
1F
100
AcDbEntity
  8
002
  6
CENTER
 62
    40
370
     9
100
AcDbLine
 10
2146.743899
 20
1430.995688
 30
0.0
 11
2154.519899
 21
1449.769688
 31
0.0
  0
LINE
  5
6EB
330
1F
100
AcDbEntity
  8
002
  6
CENTER
 62
    40
370
     9
100
AcDbLine
 10
2091.054899
 20
1449.769688
 30
0.0
 11
2098.831899
 21
1430.995688
 31
0.0
  0
LINE
  5
6EC
330
1F
100
AcDbEntity
  8
002
  6
CENTER
 62
    40
370
     9
100
AcDbLine
 10
2064.952899
 20
1397.116688
 30
0.0
 11
2046.178899
 21
1404.893688
 31
0.0
  0
LINE
  5
6ED
330
1F
100
AcDbEntity
  8
002
  6
CENTER
 62
    40
370
     9
100
AcDbLine
 10
2064.952899
 20
1349.204688
 30
0.0
 11
2046.178899
 21
1341.428688
 31
0.0
  0
LINE
  5
6EE
330
1F
100
AcDbEntity
  8
002
  6
CENTER
 62
    40
370
     9
100
AcDbLine
 10
2091.054899
 20
1296.552688
 30
0.0
 11
2098.831899
 21
1315.326688
 31
0.0
  0
LINE
  5
6EF
330
1F
100
AcDbEntity
  8
002
  6
CENTER
 62
    40
370
     9
100
AcDbLine
 10
2154.519899
 20
1296.552688
 30
0.0
 11
2146.743899
 21
1315.326688
 31
0.0
  0
CIRCLE
  5
6F0
330
1F
100
AcDbEntity
  8
002
  6
CENTER
 62
    40
370
     9
100
AcDbCircle
 10
2122.787899
 20
1373.160688
 30
0.0
 40
72.5
  0
LINE
  5
6F1
330
1F
100
AcDbEntity
  8
002
  6
CENTER
 62
    40
370
     9
100
AcDbLine
 10
2180.621899
 20
1349.204688
 30
0.0
 11
2199.395899
 21
1341.428688
 31
0.0
  0
LINE
  5
6F2
330
1F
100
AcDbEntity
  8
002
  6
CENTER
 62
    40
370
     9
100
AcDbLine
 10
2925.621899
 20
1397.116688
 30
0.0
 11
2944.395899
 21
1404.893688
 31
0.0
  0
LINE
  5
6F3
330
1F
100
AcDbEntity
  8
002
  6
CENTER
 62
    40
370
     9
100
AcDbLine
 10
2891.743899
 20
1430.995688
 30
0.0
 11
2899.519899
 21
1449.769688
 31
0.0
  0
LINE
  5
6F4
330
1F
100
AcDbEntity
  8
002
  6
CENTER
 62
    40
370
     9
100
AcDbLine
 10
2836.054899
 20
1449.769688
 30
0.0
 11
2843.831899
 21
1430.995688
 31
0.0
  0
LINE
  5
6F5
330
1F
100
AcDbEntity
  8
002
  6
CENTER
 62
    40
370
     9
100
AcDbLine
 10
2809.952899
 20
1397.116688
 30
0.0
 11
2791.178899
 21
1404.893688
 31
0.0
  0
LINE
  5
6F6
330
1F
100
AcDbEntity
  8
002
  6
CENTER
 62
    40
370
     9
100
AcDbLine
 10
2809.952899
 20
1349.204688
 30
0.0
 11
2791.178899
 21
1341.428688
 31
0.0
  0
LINE
  5
6F7
330
1F
100
AcDbEntity
  8
002
  6
CENTER
 62
    40
370
     9
100
AcDbLine
 10
2836.054899
 20
1296.552688
 30
0.0
 11
2843.831899
 21
1315.326688
 31
0.0
  0
LINE
  5
6F8
330
1F
100
AcDbEntity
  8
002
  6
CENTER
 62
    40
370
     9
100
AcDbLine
 10
2899.519899
 20
1296.552688
 30
0.0
 11
2891.743899
 21
1315.326688
 31
0.0
  0
CIRCLE
  5
6F9
330
1F
100
AcDbEntity
  8
002
  6
CENTER
 62
    40
370
     9
100
AcDbCircle
 10
2867.787899
 20
1373.160688
 30
0.0
 40
72.5
  0
LINE
  5
6FA
330
1F
100
AcDbEntity
  8
002
  6
CENTER
 62
    40
370
     9
100
AcDbLine
 10
2925.621899
 20
1349.204688
 30
0.0
 11
2944.395899
 21
1341.428688
 31
0.0
  0
ENDSEC
  0
SECTION
  2
OBJECTS
  0
DICTIONARY
  5
C
330
0
100
AcDbDictionary
281
     1
  3
ACAD_GROUP
350
D
  3
ACAD_LAYOUT
350
1A
  3
ACAD_MLEADERSTYLE
350
6FD
  3
ACAD_MLINESTYLE
350
17
  3
ACAD_PLOTSETTINGS
350
19
  3
ACAD_PLOTSTYLENAME
350
E
  3
ACAD_VISUALSTYLE
350
2A
  3
AcDbVariableDictionary
350
6FB
  0
DICTIONARY
  5
D
102
{ACAD_REACTORS
330
C
102
}
330
C
100
AcDbDictionary
281
     1
  0
DICTIONARY
  5
1A
102
{ACAD_REACTORS
330
C
102
}
330
C
100
AcDbDictionary
281
     1
  3
Layout1
350
1E
  3
Layout2
350
26
  3
Model
350
22
  0
DICTIONARY
  5
6FD
102
{ACAD_REACTORS
330
C
102
}
330
C
100
AcDbDictionary
281
     1
  0
DICTIONARY
  5
17
102
{ACAD_REACTORS
330
C
102
}
330
C
100
AcDbDictionary
281
     1
  3
Standard
350
18
  0
DICTIONARY
  5
19
102
{ACAD_REACTORS
330
C
102
}
330
C
100
AcDbDictionary
281
     1
  0
ACDBDICTIONARYWDFLT
  5
E
102
{ACAD_REACTORS
330
C
102
}
330
C
100
AcDbDictionary
281
     1
  3
Normal
350
F
100
AcDbDictionaryWithDefault
340
F
  0
DICTIONARY
  5
2A
102
{ACAD_REACTORS
330
C
102
}
330
C
100
AcDbDictionary
281
     1
  3
2dWireframe
350
2F
  3
3D Hidden
350
31
  3
3dWireframe
350
30
  3
Basic
350
32
  3
Brighten
350
36
  3
ColorChange
350
3A
  3
Conceptual
350
34
  3
Dim
350
35
  3
Facepattern
350
39
  3
Flat
350
2B
  3
FlatWithEdges
350
2C
  3
Gouraud
350
2D
  3
GouraudWithEdges
350
2E
  3
Linepattern
350
38
  3
Realistic
350
33
  3
Thicken
350
37
  0
DICTIONARY
  5
6FB
102
{ACAD_REACTORS
330
C
102
}
330
C
100
AcDbDictionary
281
     1
  3
PSOLHEIGHT
350
6FF
  3
PSOLWIDTH
350
6FE
  0
LAYOUT
  5
1E
102
{ACAD_REACTORS
330
1A
102
}
330
1A
100
AcDbPlotSettings
  1

  2
none_device
  4

  6

 40
0.0
 41
0.0
 42
0.0
 43
0.0
 44
0.0
 45
0.0
 46
0.0
 47
0.0
 48
0.0
 49
0.0
140
0.0
141
0.0
142
1.0
143
1.0
 70
   688
 72
     0
 73
     0
 74
     5
  7

 75
    16
147
1.0
148
0.0
149
0.0
100
AcDbLayout
  1
Layout1
 70
     1
 71
     1
 10
0.0
 20
0.0
 11
12.0
 21
9.0
 12
0.0
 22
0.0
 32
0.0
 14
1.000000E+20
 24
1.000000E+20
 34
0.0
 15
-1.000000E+20
 25
-1.000000E+20
 35
0.0
146
0.0
 13
0.0
 23
0.0
 33
0.0
 16
1.0
 26
0.0
 36
0.0
 17
0.0
 27
1.0
 37
0.0
 76
     0
330
1B
  0
LAYOUT
  5
26
102
{ACAD_REACTORS
330
1A
102
}
330
1A
100
AcDbPlotSettings
  1

  2
none_device
  4

  6

 40
0.0
 41
0.0
 42
0.0
 43
0.0
 44
0.0
 45
0.0
 46
0.0
 47
0.0
 48
0.0
 49
0.0
140
0.0
141
0.0
142
1.0
143
1.0
 70
   688
 72
     0
 73
     0
 74
     5
  7

 75
    16
147
1.0
148
0.0
149
0.0
100
AcDbLayout
  1
Layout2
 70
     1
 71
     2
 10
0.0
 20
0.0
 11
0.0
 21
0.0
 12
0.0
 22
0.0
 32
0.0
 14
0.0
 24
0.0
 34
0.0
 15
0.0
 25
0.0
 35
0.0
146
0.0
 13
0.0
 23
0.0
 33
0.0
 16
1.0
 26
0.0
 36
0.0
 17
0.0
 27
1.0
 37
0.0
 76
     0
330
23
  0
LAYOUT
  5
22
102
{ACAD_REACTORS
330
1A
102
}
330
1A
100
AcDbPlotSettings
  1

  2
none_device
  4

  6

 40
0.0
 41
0.0
 42
0.0
 43
0.0
 44
0.0
 45
0.0
 46
0.0
 47
0.0
 48
0.0
 49
0.0
140
0.0
141
0.0
142
1.0
143
1.0
 70
  1712
 72
     0
 73
     0
 74
     0
  7

 75
     0
147
1.0
148
0.0
149
0.0
100
AcDbLayout
  1
Model
 70
     1
 71
     0
 10
0.0
 20
0.0
 11
12.0
 21
9.0
 12
0.0
 22
0.0
 32
0.0
 14
180.54248
 24
123.21521
 34
0.0
 15
3057.787842
 25
4134.141602
 35
0.0
146
0.0
 13
0.0
 23
0.0
 33
0.0
 16
1.0
 26
0.0
 36
0.0
 17
0.0
 27
1.0
 37
0.0
 76
     0
330
1F
331
29
  0
MLINESTYLE
  5
18
102
{ACAD_REACTORS
330
17
102
}
330
17
100
AcDbMlineStyle
  2
Standard
 70
     0
  3

 62
   256
 51
90.0
 52
90.0
 71
     2
 49
0.5
 62
   256
  6
BYLAYER
 49
-0.5
 62
   256
  6
BYLAYER
  0
ACDBPLACEHOLDER
  5
F
102
{ACAD_REACTORS
330
E
102
}
330
E
  0
VISUALSTYLE
  5
2F
102
{ACAD_REACTORS
330
2A
102
}
330
2A
100
AcDbVisualStyle
  2
2dWireframe
 70
     4
 71
     0
 72
     2
 73
     0
 90
        0
 40
-0.6
 41
-30.0
 62
     5
 63
     7
 74
     1
 91
        4
 64
     7
 65
   257
 75
     1
175
     1
 42
1.0
 92
        0
 66
   257
 43
1.0
 76
     1
 77
     6
 78
     2
 67
     7
 79
     5
170
     0
171
     0
290
     0
174
     0
 93
        1
 44
0.0
173
     0
291
     0
 45
0.0
1001
ACAD
1000
AcDbSavedByObjectVersion
1070
     0
  0
VISUALSTYLE
  5
31
102
{ACAD_REACTORS
330
2A
102
}
330
2A
100
AcDbVisualStyle
  2
3D Hidden
 70
     6
 71
     1
 72
     2
 73
     2
 90
        0
 40
-0.6
 41
-30.0
 62
     5
 63
     7
 74
     2
 91
        2
 64
     7
 65
   257
 75
     2
175
     1
 42
40.0
 92
        0
 66
   257
 43
1.0
 76
     1
 77
     6
 78
     2
 67
     7
 79
     3
170
     0
171
     0
290
     0
174
     0
 93
        1
 44
0.0
173
     0
291
     0
 45
0.0
1001
ACAD
1000
AcDbSavedByObjectVersion
1070
     0
  0
VISUALSTYLE
  5
30
102
{ACAD_REACTORS
330
2A
102
}
330
2A
100
AcDbVisualStyle
  2
3dWireframe
 70
     5
 71
     0
 72
     2
 73
     0
 90
        0
 40
-0.6
 41
-30.0
 62
     5
 63
     7
 74
     1
 91
        4
 64
     7
 65
   257
 75
     1
175
     1
 42
1.0
 92
        0
 66
   257
 43
1.0
 76
     1
 77
     6
 78
     2
 67
     7
 79
     5
170
     0
171
     0
290
     0
174
     0
 93
        1
 44
0.0
173
     0
291
     0
 45
0.0
1001
ACAD
1000
AcDbSavedByObjectVersion
1070
     0
  0
VISUALSTYLE
  5
32
102
{ACAD_REACTORS
330
2A
102
}
330
2A
100
AcDbVisualStyle
  2
Basic
 70
     7
 71
     1
 72
     0
 73
     1
 90
        0
 40
-0.6
 41
-30.0
 62
     5
 63
     7
 74
     0
 91
        4
 64
     7
 65
   257
 75
     1
175
     1
 42
1.0
 92
        8
 66
     7
 43
1.0
 76
     1
 77
     6
 78
     2
 67
     7
 79
     5
170
     0
171
     0
290
     0
174
     0
 93
        1
 44
0.0
173
     0
291
     1
 45
0.0
1001
ACAD
1000
AcDbSavedByObjectVersion
1070
     0
  0
VISUALSTYLE
  5
36
102
{ACAD_REACTORS
330
2A
102
}
330
2A
100
AcDbVisualStyle
  2
Brighten
 70
    12
 71
     2
 72
     2
 73
     0
 90
        0
 40
-0.6
 41
-30.0
 62
     5
 63
     7
 74
     1
 91
        4
 64
     7
 65
   257
 75
     1
175
     1
 42
1.0
 92
        8
 66
     7
 43
1.0
 76
     1
 77
     6
 78
     2
 67
     7
 79
     5
170
     0
171
     0
290
     0
174
     0
 93
        1
 44
50.0
173
     0
291
     1
 45
0.0
1001
ACAD
1000
AcDbSavedByObjectVersion
1070
     0
  0
VISUALSTYLE
  5
3A
102
{ACAD_REACTORS
330
2A
102
}
330
2A
100
AcDbVisualStyle
  2
ColorChange
 70
    16
 71
     2
 72
     2
 73
     3
 90
        0
 40
-0.6
 41
-30.0
 62
     5
 63
     8
 74
     1
 91
        4
 64
     7
 65
   257
 75
     1
175
     1
 42
1.0
 92
        8
 66
     8
 43
1.0
 76
     1
 77
     6
 78
     2
 67
     7
 79
     5
170
     0
171
     0
290
     0
174
     0
 93
        1
 44
0.0
173
     0
291
     1
 45
0.0
1001
ACAD
1000
AcDbSavedByObjectVersion
1070
     0
  0
VISUALSTYLE
  5
34
102
{ACAD_REACTORS
330
2A
102
}
330
2A
100
AcDbVisualStyle
  2
Conceptual
 70
     9
 71
     3
 72
     2
 73
     0
 90
        0
 40
-0.6
 41
-30.0
 62
     5
 63
     7
 74
     2
 91
        2
 64
     7
 65
   257
 75
     1
175
     1
 42
40.0
 92
        8
 66
     7
 43
1.0
 76
     1
 77
     6
 78
     2
 67
     7
 79
     3
170
     0
171
     0
290
     0
174
     0
 93
        1
 44
0.0
173
     0
291
     0
 45
0.0
1001
ACAD
1000
AcDbSavedByObjectVersion
1070
     0
  0
VISUALSTYLE
  5
35
102
{ACAD_REACTORS
330
2A
102
}
330
2A
100
AcDbVisualStyle
  2
Dim
 70
    11
 71
     2
 72
     2
 73
     0
 90
        0
 40
-0.6
 41
-30.0
 62
     5
 63
     7
 74
     1
 91
        4
 64
     7
 65
   257
 75
     1
175
     1
 42
1.0
 92
        8
 66
     7
 43
1.0
 76
     1
 77
     6
 78
     2
 67
     7
 79
     5
170
     0
171
     0
290
     0
174
     0
 93
        1
 44
-50.0
173
     0
291
     1
 45
0.0
1001
ACAD
1000
AcDbSavedByObjectVersion
1070
     0
  0
VISUALSTYLE
  5
39
102
{ACAD_REACTORS
330
2A
102
}
330
2A
100
AcDbVisualStyle
  2
Facepattern
 70
    15
 71
     2
 72
     2
 73
     0
 90
        0
 40
-0.6
 41
-30.0
 62
     5
 63
     7
 74
     1
 91
        4
 64
     7
 65
   257
 75
     1
175
     1
 42
1.0
 92
        8
 66
     7
 43
1.0
 76
     1
 77
     6
 78
     2
 67
     7
 79
     5
170
     0
171
     0
290
     0
174
     0
 93
        1
 44
0.0
173
     0
291
     1
 45
0.0
1001
ACAD
1000
AcDbSavedByObjectVersion
1070
     0
  0
VISUALSTYLE
  5
2B
102
{ACAD_REACTORS
330
2A
102
}
330
2A
100
AcDbVisualStyle
  2
Flat
 70
     0
 71
     2
 72
     1
 73
     1
 90
        2
 40
-0.6
 41
30.0
 62
     5
 63
     7
 74
     0
 91
        4
 64
     7
 65
   257
 75
     1
175
     1
 42
1.0
 92
        8
 66
     7
 43
1.0
 76
     1
 77
     6
 78
     2
 67
     7
 79
     5
170
     0
171
     0
290
     0
174
     0
 93
       13
 44
0.0
173
     0
291
     1
 45
0.0
1001
ACAD
1000
AcDbSavedByObjectVersion
1070
     0
  0
VISUALSTYLE
  5
2C
102
{ACAD_REACTORS
330
2A
102
}
330
2A
100
AcDbVisualStyle
  2
FlatWithEdges
 70
     1
 71
     2
 72
     1
 73
     1
 90
        2
 40
-0.6
 41
30.0
 62
     5
 63
     7
 74
     1
 91
        4
 64
     7
 65
   257
 75
     1
175
     1
 42
1.0
 92
        0
 66
   257
 43
1.0
 76
     1
 77
     6
 78
     2
 67
     7
 79
     5
170
     0
171
     0
290
     0
174
     0
 93
       13
 44
0.0
173
     0
291
     1
 45
0.0
1001
ACAD
1000
AcDbSavedByObjectVersion
1070
     0
  0
VISUALSTYLE
  5
2D
102
{ACAD_REACTORS
330
2A
102
}
330
2A
100
AcDbVisualStyle
  2
Gouraud
 70
     2
 71
     2
 72
     2
 73
     1
 90
        2
 40
-0.6
 41
30.0
 62
     5
 63
     7
 74
     0
 91
        4
 64
     7
 65
   257
 75
     1
175
     1
 42
1.0
 92
        0
 66
     7
 43
1.0
 76
     1
 77
     6
 78
     2
 67
     7
 79
     5
170
     0
171
     0
290
     0
174
     0
 93
       13
 44
0.0
173
     0
291
     1
 45
0.0
1001
ACAD
1000
AcDbSavedByObjectVersion
1070
     0
  0
VISUALSTYLE
  5
2E
102
{ACAD_REACTORS
330
2A
102
}
330
2A
100
AcDbVisualStyle
  2
GouraudWithEdges
 70
     3
 71
     2
 72
     2
 73
     1
 90
        2
 40
-0.6
 41
30.0
 62
     5
 63
     7
 74
     1
 91
        4
 64
     7
 65
   257
 75
     1
175
     1
 42
1.0
 92
        0
 66
   257
 43
1.0
 76
     1
 77
     6
 78
     2
 67
     7
 79
     5
170
     0
171
     0
290
     0
174
     0
 93
       13
 44
0.0
173
     0
291
     1
 45
0.0
1001
ACAD
1000
AcDbSavedByObjectVersion
1070
     0
  0
VISUALSTYLE
  5
38
102
{ACAD_REACTORS
330
2A
102
}
330
2A
100
AcDbVisualStyle
  2
Linepattern
 70
    14
 71
     2
 72
     2
 73
     0
 90
        0
 40
-0.6
 41
-30.0
 62
     5
 63
     7
 74
     1
 91
        4
 64
     7
 65
   257
 75
     7
175
     7
 42
1.0
 92
        8
 66
     7
 43
1.0
 76
     1
 77
     6
 78
     2
 67
     7
 79
     5
170
     0
171
     0
290
     0
174
     0
 93
        1
 44
0.0
173
     0
291
     1
 45
0.0
1001
ACAD
1000
AcDbSavedByObjectVersion
1070
     0
  0
VISUALSTYLE
  5
33
102
{ACAD_REACTORS
330
2A
102
}
330
2A
100
AcDbVisualStyle
  2
Realistic
 70
     8
 71
     2
 72
     2
 73
     0
 90
        0
 40
-0.6
 41
-30.0
 62
     5
 63
     7
 74
     1
 91
        0
 64
     7
 65
   257
 75
     1
175
     1
 42
1.0
 92
        8
 66
     8
 43
1.0
 76
     1
 77
     6
 78
     2
 67
     7
 79
     5
170
     0
171
     0
290
     0
174
     0
 93
       13
 44
0.0
173
     0
291
     0
 45
0.0
1001
ACAD
1000
AcDbSavedByObjectVersion
1070
     0
  0
VISUALSTYLE
  5
37
102
{ACAD_REACTORS
330
2A
102
}
330
2A
100
AcDbVisualStyle
  2
Thicken
 70
    13
 71
     2
 72
     2
 73
     0
 90
        0
 40
-0.6
 41
-30.0
 62
     5
 63
     7
 74
     1
 91
        4
 64
     7
 65
   257
 75
     1
175
     1
 42
1.0
 92
       12
 66
     7
 43
1.0
 76
     1
 77
     6
 78
     2
 67
     7
 79
     5
170
     0
171
     0
290
     0
174
     0
 93
        1
 44
0.0
173
     0
291
     1
 45
0.0
1001
ACAD
1000
AcDbSavedByObjectVersion
1070
     0
  0
DICTIONARYVAR
  5
6FF
102
{ACAD_REACTORS
330
6FB
102
}
330
6FB
100
DictionaryVariables
280
     0
  1
80.000000
  0
DICTIONARYVAR
  5
6FE
102
{ACAD_REACTORS
330
6FB
102
}
330
6FB
100
DictionaryVariables
280
     0
  1
5.000000
  0
ENDSEC
  0
EOF
